  0
SECTION
  2
HEADER
  9
$ACADVER
  1
AC1009
  9
$INSBASE
 10
0
 20
0
 30
0
  9
$EXTMIN
 10
0
 20
0
  9
$EXTMAX
 10
2523
 20
1782
  9
$LIMMIN
 10
0
 20
0
  9
$LIMMAX
 10
2523
 20
1782
  9
$LTSCALE
 40
3
  0
ENDSEC
  0
SECTION
  2
TABLES
  0
TABLE
  2
LTYPE
 70
     9
  0
LTYPE
  2
CONTINUOUS
 70
    64
  3
実線
 72
    65
 73
     0
 40
0.0
  0
LTYPE
  2
DASHED1
 70
    64
  3
--  --  --  --  --  --  --  --  
 72
    65
 73
     2
 40
2.5
 49
1.25
 49
-1.25
  0
LTYPE
  2
DASHED2
 70
    64
  3
----    ----    ----    ----    
 72
    65
 73
     2
 40
5.0
 49
2.5
 49
-2.5
  0
LTYPE
  2
DASHED3
 70
    64
  3
------  ------  ------  ------  
 72
    65
 73
     2
 40
5.0
 49
3.75
 49
-1.25
  0
LTYPE
  2
CENTER1
 70
    64
  3
----- - ----- - ----- - ----- - 
 72
    65
 73
     4
 40
10.0
 49
6.25
 49
-1.25
 49
1.25
 49
-1.25
  0
LTYPE
  2
CENTER2
 70
    64
  3
----------  --  ----------  --  
 72
    65
 73
     4
 40
20.0
 49
12.5
 49
-2.5
 49
2.5
 49
-2.5
  0
LTYPE
  2
PHANTOM1
 70
    64
  3
--- - - --- - - --- - - --- - - 
 72
    65
 73
     6
 40
10.0
 49
3.25
 49
-1.25
 49
1.25
 49
-1.25
 49
1.25
 49
-1.25
  0
LTYPE
  2
PHANTOM2
 70
    64
  3
--------  -  -  --------  -  -  
 72
    65
 73
     6
 40
20.0
 49
10.0
 49
-2.5
 49
1.25
 49
-2.5
 49
1.25
 49
-2.5
  0
LTYPE
  2
DOT
 70
    64
  3
-   -   -   -   -   -   -   -   
 72
    65
 73
     2
 40
2.5
 49
0.625
 49
-1.875
  0
LTYPE
  2
DUMMY
 70
    64
  3
ダミー
 72
    65
 73
     0
 40
0.0
  0
LTYPE
  2
RAND1
 70
    64
  3
ランダム線1
 72
    65
 73
     4
 40
10.0
 49
1.0
 49
-2.0
 49
3.0
 49
-4.0
  0
LTYPE
  2
RAND2
 70
    64
  3
ランダム線2
 72
    65
 73
     4
 40
14.0
 49
2.0
 49
-3.0
 49
4.0
 49
-5.0
  0
LTYPE
  2
RAND3
 70
    64
  3
ランダム線3
 72
    65
 73
     4
 40
18.0
 49
3.0
 49
-4.0
 49
5.0
 49
-6.0
  0
LTYPE
  2
RAND4
 70
    64
  3
ランダム線4
 72
    65
 73
     4
 40
22.0
 49
4.0
 49
-5.0
 49
6.0
 49
-7.0
  0
LTYPE
  2
RAND5
 70
    64
  3
ランダム線5
 72
    65
 73
     4
 40
26.0
 49
5.0
 49
-6.0
 49
7.0
 49
-8.0
  0
LTYPE
  2
LONG1
 70
    64
  3
----------  --  ----------  --  
 72
    65
 73
     4
 40
40.0
 49
32.5
 49
-2.5
 49
2.5
 49
-2.5
  0
LTYPE
  2
LONG2
 70
    64
  3
--------  -  -  --------  -  -  
 72
    65
 73
     6
 40
40.0
 49
30.0
 49
-2.5
 49
1.25
 49
-2.5
 49
1.25
 49
-2.5
  0
LTYPE
  2
LONG3
 70
    64
  3
+++++++++++++++..+++++++++++++++
 72
    65
 73
     2
 40
40.0
 49
37.5
 49
-2.5
  0
LTYPE
  2
LONG4
 70
    64
  3
+++++++++++++++..+++++++++++++++
 72
    65
 73
     2
 40
80.0
 49
75.0
 49
-5.0
  0
LTYPE
  2
LONG5
 70
    64
  3
----------  --  ----------  --  
 72
    65
 73
     4
 40
60.0
 49
37.5
 49
-7.5
 49
7.5
 49
-7.5
  0
LTYPE
  2
dashed
 70
   64
  3
-------   -------------   ------
 72
   65
 73
    2
 40
7.5
 49
6
 49
-1.5
  0
LTYPE
  2
dashed_spaced
 70
   64
  3
----        --------        ----
 72
   65
 73
    2
 40
12
 49
6
 49
-6
  0
LTYPE
  2
long_dashed_dotted
 70
   64
  3
------------- --- --------------
 72
   65
 73
    4
 40
15.25
 49
12
 49
-1.5
 49
0.25
 49
-1.5
  0
LTYPE
  2
long_dashed_double-dotted
 70
   64
  3
----------- --- --- ------------
 72
   65
 73
    6
 40
17
 49
12
 49
-1.5
 49
0.25
 49
-1.5
 49
0.25
 49
-1.5
  0
LTYPE
  2
long_dashed_triplicate-dotted
 70
   64
  3
--------- --- --- --- ----------
 72
   65
 73
    8
 40
18.75
 49
12
 49
-1.5
 49
0.25
 49
-1.5
 49
0.25
 49
-1.5
 49
0.25
 49
-1.5
  0
LTYPE
  2
dotted
 70
   64
  3
   -       -       -       -    
 72
   65
 73
    2
 40
1.75
 49
0.25
 49
-1.5
  0
LTYPE
  2
chain
 70
   64
  3
-------------- -- --------------
 72
   65
 73
    4
 40
18.5
 49
12
 49
-1.5
 49
3.5
 49
-1.5
  0
LTYPE
  2
chain_double_dash
 70
   64
  3
------------ -- -- -------------
 72
   65
 73
    6
 40
23.5
 49
12
 49
-1.5
 49
3.5
 49
-1.5
 49
3.5
 49
-1.5
  0
LTYPE
  2
dashed_dotted
 70
   64
  3
-----------     -     ----------
 72
   65
 73
    4
 40
9.25
 49
6
 49
-1.5
 49
0.25
 49
-1.5
  0
LTYPE
  2
double-dashed_dotted
 70
   64
  3
------   -----------   -   -----
 72
   65
 73
    6
 40
16.75
 49
6
 49
-1.5
 49
6
 49
-1.5
 49
0.25
 49
-1.5
  0
LTYPE
  2
dashed_double-dotted
 70
   64
  3
---------    -    -    ---------
 72
   65
 73
    6
 40
11
 49
6
 49
-1.5
 49
0.25
 49
-1.5
 49
0.25
 49
-1.5
  0
LTYPE
  2
double-dashed_double-dotted
 70
   64
  3
-----   ---------   -   -   ----
 72
   65
 73
    8
 40
18.5
 49
6
 49
-1.5
 49
6
 49
-1.5
 49
0.25
 49
-1.5
 49
0.25
 49
-1.5
  0
LTYPE
  2
dashed_triplicate-dotted
 70
   64
  3
-------    -    -    -    ------
 72
   65
 73
    8
 40
12.75
 49
6
 49
-1.5
 49
0.25
 49
-1.5
 49
0.25
 49
-1.5
 49
0.25
 49
-1.5
  0
LTYPE
  2
double-dashed_triplicate-dotted
 70
   64
  3
-----  ---------  -  -  -  -----
 72
   65
 73
   10
 40
20.25
 49
6
 49
-1.5
 49
6
 49
-1.5
 49
0.25
 49
-1.5
 49
0.25
 49
-1.5
 49
0.25
 49
-1.5
  0
LTYPE
  2
undefined
 70
   64
  3
--------------------------------
 72
   65
 73
    0
 40
0
  0
ENDTAB
  0
TABLE
  2
STYLE
  5
3
100
AcDbSymbolTable
 70
     1
  0
STYLE
  5
10
100
AcDbSymbolTableRecord
100
AcDbTextStyleTableRecord
  2
STANDARD
 70
     0
 40
0.0
 41
1.0
 50
0.0
 71
     0
 42
0.2
  3
txt
  4
bigfont.shx
  0
STYLE
  5
26
100
AcDbSymbolTableRecord
100
AcDbTextStyleTableRecord
  2
TATEGAKI
 70
    68
 40
0.0
 41
1.0
 50
0.0
 71
     0
 42
1.0
  3
txt
  4
bigfont.shx
  0
ENDTAB
  0
TABLE
  2
LAYER
 70
    2
  0
LAYER
  2
_0-0_0
 70
   64
 62
    7
  6
CONTINUOUS
  0
LAYER
  2
ADD_LINE
 70
   64
 62
    7
  6
CONTINUOUS
  0
ENDTAB
  0
ENDSEC
  0
SECTION
  2
BLOCKS
  0
ENDSEC
  0
SECTION
  2
ENTITIES
  0
ARC
  8
_0-0_0
  6
CONTINUOUS
 62
    7
 10
-601.66870100000006
 20
1062.3500060000001
 40
0.2
 50
269.99999700000001
 51
20.376440000000013
  0
LINE
  8
_0-0_0
  6
CONTINUOUS
 62
    7
 10
-601.48126200000024
 20
1062.4196469999999
 11
-602.78125000000011
 21
1065.9196470000002
  0
ARC
  8
_0-0_0
  6
CONTINUOUS
 62
    7
 10
-602.96875000000011
 20
1065.8500060000001
 40
0.2
 50
20.376439999999999
 51
159.62355600000001
  0
LINE
  8
_0-0_0
  6
CONTINUOUS
 62
    7
 10
-604.45623800000033
 20
1062.4196469999999
 11
-603.15625000000011
 21
1065.9196470000002
  0
ARC
  8
_0-0_0
  6
CONTINUOUS
 62
    7
 10
-604.26873800000033
 20
1062.3500060000001
 40
0.2
 50
159.62355600000001
 51
269.99999700000001
  0
LINE
  8
_0-0_0
  6
CONTINUOUS
 62
    7
 10
-604.26873800000033
 20
1062.150024
 11
-601.66870100000006
 21
1062.150024
  0
LINE
  8
_0-0_0
  6
CONTINUOUS
 62
    7
 10
-679.78216600000007
 20
1116.7505190000002
 11
-679.78216600000007
 21
1116.7495120000001
  0
LINE
  8
_0-0_0
  6
CONTINUOUS
 62
    7
 10
-650.46874999999989
 20
1070.25
 11
-645.46875
 21
1070.25
  0
LINE
  8
_0-0_0
  6
CONTINUOUS
 62
    7
 10
-645.46875
 20
1070.25
 11
-643.66870100000006
 21
1070.25
  0
LINE
  8
_0-0_0
  6
CONTINUOUS
 62
    7
 10
-643.66870100000006
 20
1070.25
 11
-642.96874999999989
 21
1070.25
  0
ARC
  8
_0-0_0
  6
CONTINUOUS
 62
    7
 10
-643.66870100000006
 20
1069.75
 40
0.5
 50
0
 51
90.000003000000007
  0
ARC
  8
_0-0_0
  6
CONTINUOUS
 62
    7
 10
-650.46874999999989
 20
1069.75
 40
0.5
 50
90.000003000000007
 51
179.99999099999999
  0
ARC
  8
_0-0_0
  6
CONTINUOUS
 62
    7
 10
-546.96874999999989
 20
1069.75
 40
0.5
 50
0
 51
90.000003000000007
  0
LINE
  8
_0-0_0
  6
CONTINUOUS
 62
    7
 10
-642.96874999999989
 20
1070.25
 11
-642.96874999999989
 21
1068.75
  0
LINE
  8
_0-0_0
  6
CONTINUOUS
 62
    7
 10
-642.96874999999989
 20
1070.75
 11
-642.96874999999989
 21
1070.25
  0
LINE
  8
_0-0_0
  6
CONTINUOUS
 62
    7
 10
-642.96874999999989
 20
1071.25
 11
-642.96874999999989
 21
1070.75
  0
LINE
  8
_0-0_0
  6
CONTINUOUS
 62
    7
 10
-642.96874999999989
 20
1072.25
 11
-642.96874999999989
 21
1071.25
  0
LINE
  8
_0-0_0
  6
CONTINUOUS
 62
    7
 10
-638.96875000000011
 20
1070.25
 11
-638.2687380000001
 21
1070.25
  0
LINE
  8
_0-0_0
  6
CONTINUOUS
 62
    7
 10
-643.16870100000017
 20
1069.75
 11
-643.16870100000017
 21
1068.75
  0
LINE
  8
_0-0_0
  6
CONTINUOUS
 62
    7
 10
-639.96874999999989
 20
1043.25
 11
-639.96874999999989
 21
1044.8500060000001
  0
LINE
  8
_0-0_0
  6
CONTINUOUS
 62
    7
 10
-639.96874999999989
 20
1043.25
 11
-645.46875
 21
1043.25
  0
LINE
  8
_0-0_0
  6
CONTINUOUS
 62
    7
 10
-623.96875000000011
 20
1049.950012
 11
-581.96875000000011
 21
1049.950012
  0
LINE
  8
_0-0_0
  6
CONTINUOUS
 62
    7
 10
-623.96875000000011
 20
1069.5500180000001
 11
-581.96875000000011
 21
1069.5500180000001
  0
LINE
  8
_0-0_0
  6
CONTINUOUS
 62
    7
 10
-560.46874999999989
 20
1043.25
 11
-569.96875000000011
 21
1043.25
  0
LINE
  8
_0-0_0
  6
CONTINUOUS
 62
    7
 10
-569.96875000000011
 20
1043.25
 11
-569.96875000000011
 21
1044.8500060000001
  0
ARC
  8
_0-0_0
  6
CONTINUOUS
 62
    7
 10
-570.26873800000021
 20
1044.8500060000001
 40
0.2999999999999999
 50
0
 51
90.000003000000007
  0
LINE
  8
_0-0_0
  6
CONTINUOUS
 62
    7
 10
-570.96874999999989
 20
1045.150024
 11
-570.26873800000021
 21
1045.150024
  0
LINE
  8
_0-0_0
  6
CONTINUOUS
 62
    7
 10
-571.46875000000011
 20
1045.5500180000001
 11
-570.96874999999989
 21
1045.5500180000001
  0
LINE
  8
_0-0_0
  6
CONTINUOUS
 62
    7
 10
-584.96875000000011
 20
1045.5500180000001
 11
-571.46875000000011
 21
1045.5500180000001
  0
ARC
  8
_0-0_0
  6
CONTINUOUS
 62
    7
 10
-587.46874999999989
 20
1045.5500180000001
 40
2.5
 50
0
 51
90.000003000000007
  0
LINE
  8
_0-0_0
  6
CONTINUOUS
 62
    7
 10
-618.46875
 20
1048.0500179999999
 11
-587.46874999999989
 21
1048.0500179999999
  0
ARC
  8
_0-0_0
  6
CONTINUOUS
 62
    7
 10
-618.46875
 20
1045.5500180000001
 40
2.5
 50
90.000003000000007
 51
179.99999099999999
  0
LINE
  8
_0-0_0
  6
CONTINUOUS
 62
    7
 10
-638.46874999999989
 20
1045.5500180000001
 11
-620.96875000000011
 21
1045.5500180000001
  0
LINE
  8
_0-0_0
  6
CONTINUOUS
 62
    7
 10
-638.96875000000011
 20
1045.5500180000001
 11
-638.46874999999989
 21
1045.5500180000001
  0
LINE
  8
_0-0_0
  6
CONTINUOUS
 62
    7
 10
-639.66870099999994
 20
1045.150024
 11
-638.96875000000011
 21
1045.150024
  0
ARC
  8
_0-0_0
  6
CONTINUOUS
 62
    7
 10
-639.66870099999994
 20
1044.8500060000001
 40
0.2999999999999999
 50
90.000003000000007
 51
179.99999099999999
  0
LINE
  8
_0-0_0
  6
CONTINUOUS
 62
    7
 10
-650.96875000000011
 20
1067.9748540000001
 11
-650.96875000000011
 21
1069.75
  0
LINE
  8
_0-0_0
  6
CONTINUOUS
 62
    7
 10
-645.96874999999989
 20
1070.25
 11
-645.96874999999989
 21
1070.650024
  0
LINE
  8
_0-0_0
  6
CONTINUOUS
 62
    7
 10
-645.96874999999989
 20
1071.150024
 11
-645.96874999999989
 21
1070.650024
  0
LINE
  8
_0-0_0
  6
CONTINUOUS
 62
    7
 10
-546.46875
 20
1072.25
 11
-546.46875
 21
1070.75
  0
LINE
  8
_0-0_0
  6
CONTINUOUS
 62
    7
 10
-546.46875
 20
1070.75
 11
-546.46875
 21
1069.75
  0
LINE
  8
_0-0_0
  6
CONTINUOUS
 62
    7
 10
-546.46875
 20
1068.950012
 11
-546.46875
 21
1069.75
  0
LINE
  8
_0-0_0
  6
CONTINUOUS
 62
    7
 10
-546.96874999999989
 20
1070.25
 11
-546.46875
 21
1070.25
  0
LINE
  8
_0-0_0
  6
CONTINUOUS
 62
    7
 10
-559.46875000000011
 20
1070.25
 11
-546.96874999999989
 21
1070.25
  0
LINE
  8
_0-0_0
  6
CONTINUOUS
 62
    7
 10
-546.46875
 20
1072.25
 11
-546.46875
 21
1071.25
  0
LINE
  8
_0-0_0
  6
CONTINUOUS
 62
    7
 10
-546.46875
 20
1070.75
 11
-546.46875
 21
1070.25
  0
LINE
  8
_0-0_0
  6
CONTINUOUS
 62
    7
 10
-546.46875
 20
1071.25
 11
-546.46875
 21
1070.75
  0
ARC
  8
_0-0_0
  6
CONTINUOUS
 62
    7
 10
-640.96875
 20
1068.75
 40
2
 50
179.99999099999999
 51
0
  0
LINE
  8
_0-0_0
  6
CONTINUOUS
 62
    7
 10
-559.96875
 20
1070.25
 11
-559.46875000000011
 21
1070.25
  0
LINE
  8
_0-0_0
  6
CONTINUOUS
 62
    7
 10
-559.96875
 20
1069.75
 11
-559.96875
 21
1070.25
  0
LINE
  8
_0-0_0
  6
CONTINUOUS
 62
    7
 10
-559.96875
 20
1068.75
 11
-559.96875
 21
1068.950012
  0
ARC
  8
_0-0_0
  6
CONTINUOUS
 62
    7
 10
-561.96874999999989
 20
1068.75
 40
2
 50
179.99999099999999
 51
0
  0
LINE
  8
_0-0_0
  6
CONTINUOUS
 62
    7
 10
-563.96875000000011
 20
1070.25
 11
-563.96875000000011
 21
1068.75
  0
LINE
  8
_0-0_0
  6
CONTINUOUS
 62
    7
 10
-564.66870099999994
 20
1070.25
 11
-563.96875000000011
 21
1070.25
  0
LINE
  8
_0-0_0
  6
CONTINUOUS
 62
    7
 10
-638.96875000000011
 20
1068.75
 11
-638.96875000000011
 21
1070.25
  0
LINE
  8
_0-0_0
  6
CONTINUOUS
 62
    7
 10
-642.96874999999989
 20
1071.25
 11
-546.46875
 21
1071.25
  0
ARC
  8
_0-0_0
  6
CONTINUOUS
 62
    7
 10
-638.2687380000001
 20
1069.75
 40
0.5
 50
90.000003000000007
 51
179.99999099999999
  0
ARC
  8
_0-0_0
  6
CONTINUOUS
 62
    7
 10
-640.96875
 20
1068.75
 40
2.2000000000000002
 50
179.99999099999999
 51
0
  0
LINE
  8
_0-0_0
  6
CONTINUOUS
 62
    7
 10
-638.96875000000011
 20
1045.150024
 11
-638.46874999999989
 21
1045.150024
  0
LINE
  8
_0-0_0
  6
CONTINUOUS
 62
    7
 10
-638.46874999999989
 20
1045.5500180000001
 11
-638.46874999999989
 21
1045.150024
  0
LINE
  8
_0-0_0
  6
CONTINUOUS
 62
    7
 10
-620.96875000000011
 20
1045.5500180000001
 11
-584.96875000000011
 21
1045.5500180000001
  0
LINE
  8
_0-0_0
  6
CONTINUOUS
 62
    7
 10
-571.46875000000011
 20
1045.150024
 11
-570.96874999999989
 21
1045.150024
  0
LINE
  8
_0-0_0
  6
CONTINUOUS
 62
    7
 10
-571.46875000000011
 20
1045.5500180000001
 11
-571.46875000000011
 21
1045.150024
  0
LINE
  8
_0-0_0
  6
CONTINUOUS
 62
    7
 10
-560.46874999999989
 20
1042.75
 11
-569.46874999999989
 21
1042.75
  0
ARC
  8
_0-0_0
  6
CONTINUOUS
 62
    7
 10
-569.46874999999989
 20
1043.25
 40
0.5
 50
179.99999099999999
 51
269.99999700000001
  0
LINE
  8
_0-0_0
  6
CONTINUOUS
 62
    7
 10
-560.46874999999989
 20
1043.25
 11
-559.96875
 21
1043.25
  0
LINE
  8
_0-0_0
  6
CONTINUOUS
 62
    7
 10
-559.96875
 20
1043.25
 11
-559.96875
 21
1043.450012
  0
LINE
  8
_0-0_0
  6
CONTINUOUS
 62
    7
 10
-555.46875
 20
1043.650024
 11
-559.76873800000021
 21
1043.650024
  0
LINE
  8
_0-0_0
  6
CONTINUOUS
 62
    7
 10
-554.96875000000011
 20
1044.150024
 11
-554.96875000000011
 21
1045.9251399999998
  0
ARC
  8
_0-0_0
  6
CONTINUOUS
 62
    7
 10
-558.01672400000007
 20
1045.869019
 40
3.0490550000000001
 50
1.0548960000000001
 51
14.838094000000002
  0
LINE
  8
_0-0_0
  6
CONTINUOUS
 62
    7
 10
-555.46875
 20
1046.8500059999999
 11
-559.83630399999981
 21
1046.8500059999999
  0
LINE
  8
_0-0_0
  6
CONTINUOUS
 62
    7
 10
-559.96875
 20
1046.9914549999999
 11
-559.96875
 21
1047.096436
  0
ARC
  8
_0-0_0
  6
CONTINUOUS
 62
    7
 10
-561.96874999999989
 20
1068.75
 40
2.2000000000000002
 50
179.99999099999999
 51
303.74900400000001
  0
LINE
  8
_0-0_0
  6
CONTINUOUS
 62
    7
 10
-564.16870100000006
 20
1069.75
 11
-564.16870100000006
 21
1068.75
  0
LINE
  8
_0-0_0
  6
CONTINUOUS
 62
    7
 10
-564.66870099999994
 20
1070.25
 11
-638.2687380000001
 21
1070.25
  0
LINE
  8
_0-0_0
  6
CONTINUOUS
 62
    7
 10
-638.76873800000033
 20
1068.75
 11
-638.76873800000033
 21
1069.75
  0
LINE
  8
_0-0_0
  6
CONTINUOUS
 62
    7
 10
-638.2687380000001
 20
1068.5500179999999
 11
-638.2687380000001
 21
1068.75
  0
ARC
  8
_0-0_0
  6
CONTINUOUS
 62
    7
 10
-637.26873800000033
 20
1068.5500179999999
 40
1
 50
90.000003000000007
 51
179.99999099999999
  0
LINE
  8
_0-0_0
  6
CONTINUOUS
 62
    7
 10
-637.26873800000033
 20
1069.5500180000001
 11
-623.96875000000011
 21
1069.5500180000001
  0
LINE
  8
_0-0_0
  6
CONTINUOUS
 62
    7
 10
-581.96875000000011
 20
1069.5500180000001
 11
-567.96874999999989
 21
1069.5500180000001
  0
ARC
  8
_0-0_0
  6
CONTINUOUS
 62
    7
 10
-567.96874999999989
 20
1066.5500180000001
 40
3
 50
0
 51
90.000003000000007
  0
LINE
  8
_0-0_0
  6
CONTINUOUS
 62
    7
 10
-564.96874999999989
 20
1052.950012
 11
-564.96874999999989
 21
1066.5500180000001
  0
ARC
  8
_0-0_0
  6
CONTINUOUS
 62
    7
 10
-567.96874999999989
 20
1052.950012
 40
3
 50
269.99999700000001
 51
0
  0
LINE
  8
_0-0_0
  6
CONTINUOUS
 62
    7
 10
-567.96874999999989
 20
1049.950012
 11
-581.96875000000011
 21
1049.950012
  0
LINE
  8
_0-0_0
  6
CONTINUOUS
 62
    7
 10
-623.96875000000011
 20
1049.950012
 11
-637.96875
 21
1049.950012
  0
ARC
  8
_0-0_0
  6
CONTINUOUS
 62
    7
 10
-637.96875
 20
1052.950012
 40
3
 50
179.99999099999999
 51
269.99999700000001
  0
LINE
  8
_0-0_0
  6
CONTINUOUS
 62
    7
 10
-640.96875
 20
1065.1877139999999
 11
-640.96875
 21
1052.950012
  0
ARC
  8
_0-0_0
  6
CONTINUOUS
 62
    7
 10
-639.96874999999989
 20
1065.1877139999999
 40
1
 50
105.68034800000001
 51
179.99999100000002
  0
ARC
  8
_0-0_0
  6
CONTINUOUS
 62
    7
 10
-647.92077599999982
 20
1068.0310059999999
 40
3.0490550000000001
 50
181.05489
 51
194.838089
  0
LINE
  8
_0-0_0
  6
CONTINUOUS
 62
    7
 10
-646.10119600000007
 20
1067.0500179999999
 11
-650.46874999999989
 21
1067.0500179999999
  0
LINE
  8
_0-0_0
  6
CONTINUOUS
 62
    7
 10
-645.96874999999989
 20
1046.9914549999999
 11
-645.96874999999989
 21
1047.2916870000001
  0
LINE
  8
_0-0_0
  6
CONTINUOUS
 62
    7
 10
-646.10119600000007
 20
1046.8500059999999
 11
-650.46874999999989
 21
1046.8500059999999
  0
ARC
  8
_0-0_0
  6
CONTINUOUS
 62
    7
 10
-647.91955600000017
 20
1045.8683470000001
 40
3.050319
 50
165.15540799999999
 51
178.932897
  0
LINE
  8
_0-0_0
  6
CONTINUOUS
 62
    7
 10
-650.96875000000011
 20
1044.150024
 11
-650.96875000000011
 21
1045.9251399999998
  0
LINE
  8
_0-0_0
  6
CONTINUOUS
 62
    7
 10
-646.16870100000017
 20
1043.650024
 11
-650.46874999999989
 21
1043.650024
  0
LINE
  8
_0-0_0
  6
CONTINUOUS
 62
    7
 10
-645.96874999999989
 20
1043.25
 11
-645.96874999999989
 21
1043.450012
  0
LINE
  8
_0-0_0
  6
CONTINUOUS
 62
    7
 10
-645.96874999999989
 20
1043.25
 11
-645.46875
 21
1043.25
  0
LINE
  8
_0-0_0
  6
CONTINUOUS
 62
    7
 10
-640.46875000000011
 20
1042.75
 11
-645.46875
 21
1042.75
  0
ARC
  8
_0-0_0
  6
CONTINUOUS
 62
    7
 10
-640.46875000000011
 20
1043.25
 40
0.5
 50
269.99999700000001
 51
0
  0
LINE
  8
_0-0_0
  6
CONTINUOUS
 62
    7
 10
-650.6504520000002
 20
1067.0500179999999
 11
-650.67083700000023
 21
1067.051025
  0
LINE
  8
_0-0_0
  6
CONTINUOUS
 62
    7
 10
-650.67083700000023
 20
1067.051025
 11
-650.69122299999992
 21
1067.054169
  0
LINE
  8
_0-0_0
  6
CONTINUOUS
 62
    7
 10
-650.69122299999992
 20
1067.054169
 11
-650.71807900000033
 21
1067.061768
  0
LINE
  8
_0-0_0
  6
CONTINUOUS
 62
    7
 10
-650.71807900000033
 20
1067.061768
 11
-650.74371300000007
 21
1067.07312
  0
LINE
  8
_0-0_0
  6
CONTINUOUS
 62
    7
 10
-650.74371300000007
 20
1067.07312
 11
-650.76751700000034
 21
1067.088013
  0
LINE
  8
_0-0_0
  6
CONTINUOUS
 62
    7
 10
-650.76751700000034
 20
1067.088013
 11
-650.78424100000007
 21
1067.1015009999999
  0
LINE
  8
_0-0_0
  6
CONTINUOUS
 62
    7
 10
-650.78424100000007
 20
1067.1015009999999
 11
-650.79974399999981
 21
1067.1167599999999
  0
LINE
  8
_0-0_0
  6
CONTINUOUS
 62
    7
 10
-650.79974399999981
 20
1067.1167599999999
 11
-650.82666000000006
 21
1067.151398
  0
LINE
  8
_0-0_0
  6
CONTINUOUS
 62
    7
 10
-650.82666000000006
 20
1067.151398
 11
-650.8477170000001
 21
1067.1897280000001
  0
LINE
  8
_0-0_0
  6
CONTINUOUS
 62
    7
 10
-650.8477170000001
 20
1067.1897280000001
 11
-650.85967999999991
 21
1067.2196349999999
  0
LINE
  8
_0-0_0
  6
CONTINUOUS
 62
    7
 10
-650.85967999999991
 20
1067.2196349999999
 11
-650.86871299999996
 21
1067.25
  0
LINE
  8
_0-0_0
  6
CONTINUOUS
 62
    7
 10
-645.96874999999989
 20
1071.150024
 11
-645.96874999999989
 21
1072.25
  0
LINE
  8
_0-0_0
  6
CONTINUOUS
 62
    7
 10
-651.46875
 20
1068.6000059999999
 11
-650.96875000000011
 21
1068.6000059999999
  0
LINE
  8
_0-0_0
  6
CONTINUOUS
 62
    7
 10
-651.46875
 20
1071.150024
 11
-645.96874999999989
 21
1071.150024
  0
ARC
  8
_0-0_0
  6
CONTINUOUS
 62
    7
 10
-546.96874999999989
 20
1068.950012
 40
0.5
 50
269.99999700000001
 51
0
  0
ARC
  8
_0-0_0
  6
CONTINUOUS
 62
    7
 10
-559.46875000000011
 20
1069.75
 40
0.5
 50
90.000003000000007
 51
179.99999099999999
  0
LINE
  8
_0-0_0
  6
CONTINUOUS
 62
    7
 10
-559.96875
 20
1068.950012
 11
-559.96875
 21
1069.75
  0
LINE
  8
_0-0_0
  6
CONTINUOUS
 62
    7
 10
-639.7687380000001
 20
1045.1328429999999
 11
-639.7687380000001
 21
1043.150024
  0
LINE
  8
_0-0_0
  6
CONTINUOUS
 62
    7
 10
-639.7687380000001
 20
1043.150024
 11
-638.76873800000033
 21
1043.150024
  0
LINE
  8
_0-0_0
  6
CONTINUOUS
 62
    7
 10
-638.46874999999989
 20
1045.150024
 11
-571.46875000000011
 21
1045.150024
  0
LINE
  8
_0-0_0
  6
CONTINUOUS
 62
    7
 10
-638.76873800000033
 20
1043.150024
 11
-571.16870100000017
 21
1043.150024
  0
LINE
  8
_0-0_0
  6
CONTINUOUS
 62
    7
 10
-571.16870100000017
 20
1043.150024
 11
-570.16870100000006
 21
1043.150024
  0
LINE
  8
_0-0_0
  6
CONTINUOUS
 62
    7
 10
-570.16870100000006
 20
1045.1328429999999
 11
-570.16870100000006
 21
1043.150024
  0
LINE
  8
_0-0_0
  6
CONTINUOUS
 62
    7
 10
-559.96875
 20
1043.25
 11
-560.46874999999989
 21
1042.75
  0
ARC
  8
_0-0_0
  6
CONTINUOUS
 62
    7
 10
-559.76873800000021
 20
1043.450012
 40
0.2
 50
90.000003000000007
 51
179.99999099999999
  0
ARC
  8
_0-0_0
  6
CONTINUOUS
 62
    7
 10
-555.46875
 20
1044.150024
 40
0.5
 50
269.99999700000001
 51
0
  0
LINE
  8
_0-0_0
  6
CONTINUOUS
 62
    7
 10
-555.28698699999984
 20
1046.8500059999999
 11
-555.26660200000015
 21
1046.8489989999998
  0
LINE
  8
_0-0_0
  6
CONTINUOUS
 62
    7
 10
-555.26660200000015
 20
1046.8489989999998
 11
-555.24621600000012
 21
1046.8458559999999
  0
LINE
  8
_0-0_0
  6
CONTINUOUS
 62
    7
 10
-555.24621600000012
 20
1046.8458559999999
 11
-555.21942100000024
 21
1046.8382569999999
  0
LINE
  8
_0-0_0
  6
CONTINUOUS
 62
    7
 10
-555.21942100000024
 20
1046.8382569999999
 11
-555.19378700000016
 21
1046.826904
  0
LINE
  8
_0-0_0
  6
CONTINUOUS
 62
    7
 10
-555.19378700000016
 20
1046.826904
 11
-555.16998300000023
 21
1046.8120120000001
  0
LINE
  8
_0-0_0
  6
CONTINUOUS
 62
    7
 10
-555.16998300000023
 20
1046.8120120000001
 11
-555.15319799999997
 21
1046.7984920000001
  0
LINE
  8
_0-0_0
  6
CONTINUOUS
 62
    7
 10
-555.15319799999997
 20
1046.7984920000001
 11
-555.13769500000024
 21
1046.7832639999999
  0
LINE
  8
_0-0_0
  6
CONTINUOUS
 62
    7
 10
-555.13769500000024
 20
1046.7832639999999
 11
-555.11084000000017
 21
1046.7486269999999
  0
LINE
  8
_0-0_0
  6
CONTINUOUS
 62
    7
 10
-555.11084000000017
 20
1046.7486269999999
 11
-555.08978300000012
 21
1046.7102970000001
  0
LINE
  8
_0-0_0
  6
CONTINUOUS
 62
    7
 10
-555.08978300000012
 20
1046.7102970000001
 11
-555.07775900000013
 21
1046.680359
  0
LINE
  8
_0-0_0
  6
CONTINUOUS
 62
    7
 10
-555.07775900000013
 20
1046.680359
 11
-555.06872600000008
 21
1046.650024
  0
LINE
  8
_0-0_0
  6
CONTINUOUS
 62
    7
 10
-555.28698699999984
 20
1046.8500059999999
 11
-555.46875
 21
1046.8500059999999
  0
LINE
  8
_0-0_0
  6
CONTINUOUS
 62
    7
 10
-559.96875
 20
1048.150024
 11
-559.96875
 21
1047.096436
  0
LINE
  8
_0-0_0
  6
CONTINUOUS
 62
    7
 10
-559.96875
 20
1048.150024
 11
-559.96875
 21
1065.75
  0
LINE
  8
_0-0_0
  6
CONTINUOUS
 62
    7
 10
-559.96875
 20
1067.727386
 11
-559.96875
 21
1065.75
  0
ARC
  8
_0-0_0
  6
CONTINUOUS
 62
    7
 10
-560.46874999999989
 20
1066.505005
 40
0.5
 50
0
 51
123.74898500000002
  0
ARC
  8
_0-0_0
  6
CONTINUOUS
 62
    7
 10
-559.7984620000002
 20
1047.0233149999999
 40
0.1734229999999999
 50
181.12417600000003
 51
270.64883800000007
  0
LINE
  8
_0-0_0
  6
CONTINUOUS
 62
    7
 10
-559.97277800000006
 20
1047.0500180000001
 11
-559.97265600000003
 21
1047.019867
  0
ARC
  8
_0-0_0
  6
CONTINUOUS
 62
    7
 10
-564.66870099999994
 20
1069.75
 40
0.5
 50
0
 51
90.000003000000007
  0
ARC
  8
_0-0_0
  6
CONTINUOUS
 62
    7
 10
-640.96875
 20
1068.75
 40
2.7000000000000002
 50
285.68033600000007
 51
0.0000000000000381
  0
ARC
  8
_0-0_0
  6
CONTINUOUS
 62
    7
 10
-623.96875000000011
 20
1052.950012
 40
3
 50
269.99999700000001
 51
0
  0
LINE
  8
_0-0_0
  6
CONTINUOUS
 62
    7
 10
-620.96875000000011
 20
1052.950012
 11
-620.96875000000011
 21
1066.5500180000001
  0
ARC
  8
_0-0_0
  6
CONTINUOUS
 62
    7
 10
-623.96875000000011
 20
1066.5500180000001
 40
3
 50
0
 51
90.000003000000007
  0
ARC
  8
_0-0_0
  6
CONTINUOUS
 62
    7
 10
-628.46875000000011
 20
1062.25
 40
4.5
 50
269.99999700000001
 51
90.000002999999992
  0
LINE
  8
_0-0_0
  6
CONTINUOUS
 62
    7
 10
-628.46875000000011
 20
1057.75
 11
-633.46875
 21
1057.75
  0
ARC
  8
_0-0_0
  6
CONTINUOUS
 62
    7
 10
-633.46875
 20
1062.25
 40
4.5
 50
90.000003000000007
 51
269.99999700000006
  0
LINE
  8
_0-0_0
  6
CONTINUOUS
 62
    7
 10
-633.46875
 20
1066.75
 11
-628.46875000000011
 21
1066.75
  0
ARC
  8
_0-0_0
  6
CONTINUOUS
 62
    7
 10
-581.96875000000011
 20
1052.950012
 40
3
 50
179.99999099999999
 51
269.99999700000001
  0
LINE
  8
_0-0_0
  6
CONTINUOUS
 62
    7
 10
-584.96875000000011
 20
1066.5500180000001
 11
-584.96875000000011
 21
1052.950012
  0
ARC
  8
_0-0_0
  6
CONTINUOUS
 62
    7
 10
-581.96875000000011
 20
1066.5500180000001
 40
3
 50
90.000003000000007
 51
179.99999099999999
  0
ARC
  8
_0-0_0
  6
CONTINUOUS
 62
    7
 10
-572.46874999999989
 20
1062.25
 40
4.5
 50
269.99999700000001
 51
90.000002999999992
  0
LINE
  8
_0-0_0
  6
CONTINUOUS
 62
    7
 10
-572.46874999999989
 20
1057.75
 11
-577.46875000000011
 21
1057.75
  0
ARC
  8
_0-0_0
  6
CONTINUOUS
 62
    7
 10
-577.46875000000011
 20
1062.25
 40
4.5
 50
90.000003000000007
 51
269.99999700000006
  0
LINE
  8
_0-0_0
  6
CONTINUOUS
 62
    7
 10
-577.46875000000011
 20
1066.75
 11
-572.46874999999989
 21
1066.75
  0
LINE
  8
_0-0_0
  6
CONTINUOUS
 62
    7
 10
-650.46874999999989
 20
1067.0500179999999
 11
-650.6504520000002
 21
1067.0500179999999
  0
LINE
  8
_0-0_0
  6
CONTINUOUS
 62
    7
 10
-645.96874999999989
 20
1048.950012
 11
-645.96874999999989
 21
1047.2916870000001
  0
LINE
  8
_0-0_0
  6
CONTINUOUS
 62
    7
 10
-645.96874999999989
 20
1048.950012
 11
-645.96874999999989
 21
1065.450012
  0
LINE
  8
_0-0_0
  6
CONTINUOUS
 62
    7
 10
-645.96874999999989
 20
1066.9162899999999
 11
-645.96874999999989
 21
1065.450012
  0
ARC
  8
_0-0_0
  6
CONTINUOUS
 62
    7
 10
-646.13903800000003
 20
1047.023285
 40
0.1734209999999999
 50
269.35085600000002
 51
358.87625300000002
  0
LINE
  8
_0-0_0
  6
CONTINUOUS
 62
    7
 10
-645.96472200000017
 20
1047.0500180000001
 11
-645.96478300000001
 21
1047.019867
  0
LINE
  8
_0-0_0
  6
CONTINUOUS
 62
    7
 10
-645.96472200000017
 20
1066.8500060000001
 11
-645.96478300000001
 21
1066.8801269999999
  0
ARC
  8
_0-0_0
  6
CONTINUOUS
 62
    7
 10
-646.13903800000003
 20
1066.8767089999999
 40
0.1734219999999999
 50
1.1236539999999999
 51
90.649110000000007
  0
LINE
  8
_0-0_0
  6
CONTINUOUS
 62
    7
 10
-650.46874999999989
 20
1046.8500059999999
 11
-650.6504520000002
 21
1046.8500059999999
  0
LINE
  8
_0-0_0
  6
CONTINUOUS
 62
    7
 10
-650.65051300000005
 20
1046.8500059999999
 11
-650.67083700000023
 21
1046.8489989999998
  0
LINE
  8
_0-0_0
  6
CONTINUOUS
 62
    7
 10
-650.67083700000023
 20
1046.8489989999998
 11
-650.69122299999992
 21
1046.8458249999999
  0
LINE
  8
_0-0_0
  6
CONTINUOUS
 62
    7
 10
-650.69122299999992
 20
1046.8458249999999
 11
-650.71807900000033
 21
1046.8382569999999
  0
LINE
  8
_0-0_0
  6
CONTINUOUS
 62
    7
 10
-650.71807900000033
 20
1046.8382569999999
 11
-650.74371300000007
 21
1046.826904
  0
LINE
  8
_0-0_0
  6
CONTINUOUS
 62
    7
 10
-650.74371300000007
 20
1046.826904
 11
-650.76751700000034
 21
1046.8120120000001
  0
LINE
  8
_0-0_0
  6
CONTINUOUS
 62
    7
 10
-650.76751700000034
 20
1046.8120120000001
 11
-650.78424100000007
 21
1046.7984920000001
  0
LINE
  8
_0-0_0
  6
CONTINUOUS
 62
    7
 10
-650.78424100000007
 20
1046.7984920000001
 11
-650.79974399999981
 21
1046.7832639999999
  0
LINE
  8
_0-0_0
  6
CONTINUOUS
 62
    7
 10
-650.79974399999981
 20
1046.7832639999999
 11
-650.82666000000006
 21
1046.7486269999999
  0
LINE
  8
_0-0_0
  6
CONTINUOUS
 62
    7
 10
-650.82666000000006
 20
1046.7486269999999
 11
-650.8477170000001
 21
1046.7102970000001
  0
LINE
  8
_0-0_0
  6
CONTINUOUS
 62
    7
 10
-650.8477170000001
 20
1046.7102970000001
 11
-650.85967999999991
 21
1046.680359
  0
LINE
  8
_0-0_0
  6
CONTINUOUS
 62
    7
 10
-650.85967999999991
 20
1046.680359
 11
-650.86871299999996
 21
1046.650024
  0
ARC
  8
_0-0_0
  6
CONTINUOUS
 62
    7
 10
-650.46874999999989
 20
1044.150024
 40
0.5
 50
179.99999099999999
 51
269.99999700000001
  0
ARC
  8
_0-0_0
  6
CONTINUOUS
 62
    7
 10
-646.16870100000017
 20
1043.450012
 40
0.2
 50
0
 51
90.000003000000007
  0
LINE
  8
_0-0_0
  6
CONTINUOUS
 62
    7
 10
-645.96874999999989
 20
1043.25
 11
-645.46875
 21
1042.75
  0
LINE
  8
_0-0_0
  6
CONTINUOUS
 62
    7
 10
-651.96874999999989
 20
1069.0942989999999
 11
-651.96874999999989
 21
1070.650024
  0
ARC
  8
_0-0_0
  6
CONTINUOUS
 62
    7
 10
-651.4818120000001
 20
1069.0976559999999
 40
0.4869939999999999
 50
180.39493000000002
 51
203.93946700000001
  0
ARC
  8
_0-0_0
  6
CONTINUOUS
 62
    7
 10
-651.46875
 20
1069.1000060000001
 40
0.5
 50
203.57823099999999
 51
269.99999700000001
  0
ARC
  8
_0-0_0
  6
CONTINUOUS
 62
    7
 10
-651.46875
 20
1070.650024
 40
0.5
 50
90.000003000000007
 51
179.99999099999999
  0
LINE
  8
_0-0_0
  6
CONTINUOUS
 62
    7
 10
-559.96875
 20
1068.450012
 11
-559.46875000000011
 21
1068.450012
  0
LINE
  8
_0-0_0
  6
CONTINUOUS
 62
    7
 10
-559.46875000000011
 20
1068.450012
 11
-546.96874999999989
 21
1068.450012
  0
ARC
  8
_0-0_0
  6
CONTINUOUS
 62
    7
 10
-559.46875000000011
 20
1068.950012
 40
0.5
 50
179.99999099999999
 51
269.99999700000001
  0
LINE
  8
_0-0_0
  6
CONTINUOUS
 62
    7
 10
-559.96875
 20
1068.0839839999999
 11
-559.96875
 21
1068.450012
  0
LINE
  8
_0-0_0
  6
CONTINUOUS
 62
    7
 10
-559.96875
 20
1067.833496
 11
-559.96875
 21
1067.727386
  0
LINE
  8
_0-0_0
  6
CONTINUOUS
 62
    7
 10
-559.96875
 20
1068.0839839999999
 11
-559.96875
 21
1067.833496
  0
CIRCLE
  8
_0-0_0
  6
CONTINUOUS
 62
    7
 10
-640.96875
 20
1068.75
 40
1.4750000000000001
  0
CIRCLE
  8
_0-0_0
  6
CONTINUOUS
 62
    7
 10
-561.96874999999989
 20
1068.75
 40
1.4750000000000001
  0
LINE
  8
_0-0_0
  6
CONTINUOUS
 62
    7
 10
-651.96874999999989
 20
1048.950012
 11
-651.96874999999989
 21
1046.450012
  0
LINE
  8
_0-0_0
  6
CONTINUOUS
 62
    7
 10
-651.96874999999989
 20
1048.950012
 11
-651.96874999999989
 21
1061.75
  0
LINE
  8
_0-0_0
  6
CONTINUOUS
 62
    7
 10
-651.96874999999989
 20
1065.25
 11
-651.96874999999989
 21
1061.75
  0
LINE
  8
_0-0_0
  6
CONTINUOUS
 62
    7
 10
-651.96874999999989
 20
1065.25
 11
-651.96874999999989
 21
1065.6000059999999
  0
LINE
  8
_0-0_0
  6
CONTINUOUS
 62
    7
 10
-651.96874999999989
 20
1069.0942989999999
 11
-651.96874999999989
 21
1065.6000059999999
  0
LINE
  8
_0-0_0
  6
CONTINUOUS
 62
    7
 10
-651.96874999999989
 20
1070.942902
 11
-651.96874999999989
 21
1070.650024
  0
LINE
  8
_0-0_0
  6
CONTINUOUS
 62
    7
 10
-651.96874999999989
 20
1070.942902
 11
-651.96874999999989
 21
1071
  0
LINE
  8
_0-0_0
  6
CONTINUOUS
 62
    7
 10
-650.96820100000014
 20
1045.950012
 11
-651.46875
 21
1045.950012
  0
LINE
  8
_0-0_0
  6
CONTINUOUS
 62
    7
 10
-554.97992000000022
 20
1046.150024
 11
-547.96875
 21
1046.150024
  0
LINE
  8
_0-0_0
  6
CONTINUOUS
 62
    7
 10
-547.96875
 20
1046.150024
 11
-543.293274
 21
1046.150024
  0
LINE
  8
_0-0_0
  6
CONTINUOUS
 62
    7
 10
-547.96875
 20
1046.150024
 11
-547.96875
 21
1048.150024
  0
LINE
  8
_0-0_0
  6
CONTINUOUS
 62
    7
 10
-547.96875
 20
1051.650024
 11
-547.96875
 21
1048.650024
  0
LINE
  8
_0-0_0
  6
CONTINUOUS
 62
    7
 10
-547.96875
 20
1048.650024
 11
-547.96875
 21
1048.150024
  0
LINE
  8
_0-0_0
  6
CONTINUOUS
 62
    7
 10
-547.96875
 20
1051.650024
 11
-547.96875
 21
1052.150024
  0
ARC
  8
_0-0_0
  6
CONTINUOUS
 62
    7
 10
-553.96875
 20
1051.450012
 40
0.500016
 50
180.00117
 51
359.995611
  0
LINE
  8
_0-0_0
  6
CONTINUOUS
 62
    7
 10
-553.46875000000011
 20
1051.450012
 11
-553.46875000000011
 21
1063.450012
  0
ARC
  8
_0-0_0
  6
CONTINUOUS
 62
    7
 10
-553.96875
 20
1063.450012
 40
0.500016
 50
0.001164
 51
179.99560600000004
  0
LINE
  8
_0-0_0
  6
CONTINUOUS
 62
    7
 10
-554.46874999999989
 20
1051.450012
 11
-554.46874999999989
 21
1063.450012
  0
ARC
  8
_0-0_0
  6
CONTINUOUS
 62
    7
 10
-552.46875
 20
1051.450012
 40
0.500016
 50
180.00117
 51
359.995611
  0
LINE
  8
_0-0_0
  6
CONTINUOUS
 62
    7
 10
-551.96875000000011
 20
1051.450012
 11
-551.96875000000011
 21
1063.450012
  0
ARC
  8
_0-0_0
  6
CONTINUOUS
 62
    7
 10
-552.46875
 20
1063.450012
 40
0.500016
 50
0.001164
 51
179.99560600000004
  0
LINE
  8
_0-0_0
  6
CONTINUOUS
 62
    7
 10
-552.96874999999989
 20
1051.450012
 11
-552.96874999999989
 21
1063.450012
  0
ARC
  8
_0-0_0
  6
CONTINUOUS
 62
    7
 10
-550.96875
 20
1051.450012
 40
0.500016
 50
180.00117
 51
359.995611
  0
LINE
  8
_0-0_0
  6
CONTINUOUS
 62
    7
 10
-550.46875000000011
 20
1051.450012
 11
-550.46875000000011
 21
1063.450012
  0
ARC
  8
_0-0_0
  6
CONTINUOUS
 62
    7
 10
-550.96875
 20
1063.450012
 40
0.500016
 50
0.001164
 51
179.99560600000004
  0
LINE
  8
_0-0_0
  6
CONTINUOUS
 62
    7
 10
-551.46874999999989
 20
1051.450012
 11
-551.46874999999989
 21
1063.450012
  0
ARC
  8
_0-0_0
  6
CONTINUOUS
 62
    7
 10
-549.46875
 20
1051.450012
 40
0.500016
 50
180.00117
 51
359.995611
  0
LINE
  8
_0-0_0
  6
CONTINUOUS
 62
    7
 10
-548.96875000000011
 20
1051.450012
 11
-548.96875000000011
 21
1063.450012
  0
ARC
  8
_0-0_0
  6
CONTINUOUS
 62
    7
 10
-549.46875
 20
1063.450012
 40
0.500016
 50
0.001164
 51
179.99560600000004
  0
LINE
  8
_0-0_0
  6
CONTINUOUS
 62
    7
 10
-549.96874999999989
 20
1051.450012
 11
-549.96874999999989
 21
1063.450012
  0
LINE
  8
_0-0_0
  6
CONTINUOUS
 62
    7
 10
-559.96875
 20
1067.75
 11
-543.293274
 21
1067.75
  0
LINE
  8
_0-0_0
  6
CONTINUOUS
 62
    7
 10
-651.46875
 20
1071.5
 11
-645.96874999999989
 21
1071.5
  0
ARC
  8
_0-0_0
  6
CONTINUOUS
 62
    7
 10
-651.46875
 20
1071
 40
0.5
 50
90.000003000000007
 51
179.99999099999999
  0
ARC
  8
_0-0_0
  6
CONTINUOUS
 62
    7
 10
-651.46875
 20
1046.450012
 40
0.5
 50
179.99999099999999
 51
269.99999700000001
  0
ARC
  8
_0-0_0
  6
CONTINUOUS
 62
    7
 10
-651.46875
 20
1061.75
 40
0.5
 50
90.000003000000007
 51
179.99999099999999
  0
ARC
  8
_0-0_0
  6
CONTINUOUS
 62
    7
 10
-543.293274
 20
1048.150024
 40
2
 50
269.99999700000001
 51
288.43501300000003
  0
LINE
  8
_0-0_0
  6
CONTINUOUS
 62
    7
 10
-547.96875
 20
1046.150024
 11
-547.96875
 21
1046.400085
  0
LINE
  8
_0-0_0
  6
CONTINUOUS
 62
    7
 10
-547.96875
 20
1051.650024
 11
-543.293274
 21
1051.650024
  0
LINE
  8
_0-0_0
  6
CONTINUOUS
 62
    7
 10
-542.66082799999992
 20
1067.647369
 11
-542.78033500000004
 21
1067.6829829999999
  0
LINE
  8
_0-0_0
  6
CONTINUOUS
 62
    7
 10
-542.78033500000004
 20
1067.6829829999999
 11
-542.90185599999984
 21
1067.7108759999999
  0
LINE
  8
_0-0_0
  6
CONTINUOUS
 62
    7
 10
-542.90185599999984
 20
1067.7108759999999
 11
-543.02502399999992
 21
1067.7309270000001
  0
LINE
  8
_0-0_0
  6
CONTINUOUS
 62
    7
 10
-543.02502399999992
 20
1067.7309270000001
 11
-543.1492310000001
 21
1067.7430420000001
  0
LINE
  8
_0-0_0
  6
CONTINUOUS
 62
    7
 10
-543.1492310000001
 20
1067.7430420000001
 11
-543.27404800000011
 21
1067.7471620000001
  0
LINE
  8
_0-0_0
  6
CONTINUOUS
 62
    7
 10
-543.27404800000011
 20
1067.7471620000001
 11
-543.293274
 21
1067.7471009999999
  0
ARC
  8
_0-0_0
  6
CONTINUOUS
 62
    7
 10
-543.293274
 20
1065.75
 40
2
 50
71.565000999999995
 51
90.000003000000007
  0
LINE
  8
_0-0_0
  6
CONTINUOUS
 62
    7
 10
-626.99719199999993
 20
1058.150024
 11
-634.940247
 21
1058.150024
  0
ARC
  8
_0-0_0
  6
CONTINUOUS
 62
    7
 10
-634.940247
 20
1058.650024
 40
0.5
 50
210.00000299999999
 51
269.99999700000001
  0
LINE
  8
_0-0_0
  6
CONTINUOUS
 62
    7
 10
-635.37329100000011
 20
1058.400024
 11
-637.45172100000013
 21
1062
  0
ARC
  8
_0-0_0
  6
CONTINUOUS
 62
    7
 10
-637.01873800000021
 20
1062.25
 40
0.5
 50
149.99999700000001
 51
210.00000299999996
  0
LINE
  8
_0-0_0
  6
CONTINUOUS
 62
    7
 10
-637.45172100000013
 20
1062.5
 11
-635.37329100000011
 21
1066.1000060000001
  0
ARC
  8
_0-0_0
  6
CONTINUOUS
 62
    7
 10
-634.940247
 20
1065.8500060000001
 40
0.5
 50
90.000003000000007
 51
149.99999700000001
  0
LINE
  8
_0-0_0
  6
CONTINUOUS
 62
    7
 10
-634.940247
 20
1066.3500059999999
 11
-626.99719199999993
 21
1066.3500059999999
  0
ARC
  8
_0-0_0
  6
CONTINUOUS
 62
    7
 10
-626.99719199999993
 20
1065.8500060000001
 40
0.5
 50
30.000001000000001
 51
90.000003000000007
  0
LINE
  8
_0-0_0
  6
CONTINUOUS
 62
    7
 10
-626.56420900000001
 20
1066.1000060000001
 11
-624.48571800000013
 21
1062.5
  0
ARC
  8
_0-0_0
  6
CONTINUOUS
 62
    7
 10
-624.91870100000006
 20
1062.25
 40
0.5
 50
329.99998900000003
 51
30.000000999999983
  0
LINE
  8
_0-0_0
  6
CONTINUOUS
 62
    7
 10
-624.48571800000013
 20
1062
 11
-626.56420900000001
 21
1058.400024
  0
ARC
  8
_0-0_0
  6
CONTINUOUS
 62
    7
 10
-626.99719199999993
 20
1058.650024
 40
0.5
 50
269.99999700000001
 51
329.99998900000003
  0
ARC
  8
_0-0_0
  6
CONTINUOUS
 62
    7
 10
-578.99798599999997
 20
1058.75
 40
0.5
 50
210.00000299999999
 51
269.99999700000001
  0
LINE
  8
_0-0_0
  6
CONTINUOUS
 62
    7
 10
-579.43103000000008
 20
1058.5
 11
-581.45172100000025
 21
1062
  0
ARC
  8
_0-0_0
  6
CONTINUOUS
 62
    7
 10
-581.01873800000033
 20
1062.25
 40
0.5
 50
149.99999700000001
 51
210.00000299999996
  0
LINE
  8
_0-0_0
  6
CONTINUOUS
 62
    7
 10
-581.45172100000025
 20
1062.5
 11
-579.43103000000008
 21
1066
  0
ARC
  8
_0-0_0
  6
CONTINUOUS
 62
    7
 10
-578.99798599999997
 20
1065.75
 40
0.5
 50
90.000003000000007
 51
149.99999700000001
  0
LINE
  8
_0-0_0
  6
CONTINUOUS
 62
    7
 10
-578.99798599999997
 20
1066.25
 11
-570.93945299999984
 21
1066.25
  0
ARC
  8
_0-0_0
  6
CONTINUOUS
 62
    7
 10
-570.93945299999984
 20
1065.75
 40
0.5
 50
30.000001000000001
 51
90.000003000000007
  0
LINE
  8
_0-0_0
  6
CONTINUOUS
 62
    7
 10
-570.50646999999992
 20
1066
 11
-568.48571800000025
 21
1062.5
  0
ARC
  8
_0-0_0
  6
CONTINUOUS
 62
    7
 10
-568.91870100000017
 20
1062.25
 40
0.5
 50
329.99998900000003
 51
30.000000999999983
  0
LINE
  8
_0-0_0
  6
CONTINUOUS
 62
    7
 10
-568.48571800000025
 20
1062
 11
-570.50646999999992
 21
1058.5
  0
ARC
  8
_0-0_0
  6
CONTINUOUS
 62
    7
 10
-570.93945299999984
 20
1058.75
 40
0.5
 50
269.99999700000001
 51
329.99998900000003
  0
LINE
  8
_0-0_0
  6
CONTINUOUS
 62
    7
 10
-570.93945299999984
 20
1058.25
 11
-578.99798599999997
 21
1058.25
  0
LINE
  8
_0-0_0
  6
CONTINUOUS
 62
    7
 10
-648.96874999999989
 20
1066.8804319999999
 11
-648.96874999999989
 21
1066.0541990000002
  0
LINE
  8
_0-0_0
  6
CONTINUOUS
 62
    7
 10
-651.46875
 20
1062.25
 11
-649.26873800000033
 21
1062.25
  0
LINE
  8
_0-0_0
  6
CONTINUOUS
 62
    7
 10
-648.96874999999989
 20
1062.5500179999999
 11
-648.96874999999989
 21
1064.7783199999999
  0
LINE
  8
_0-0_0
  6
CONTINUOUS
 62
    7
 10
-648.96874999999989
 20
1067.049683
 11
-648.96874999999989
 21
1066.8804319999999
  0
LINE
  8
_0-0_0
  6
CONTINUOUS
 62
    7
 10
-640.76873800000021
 20
1067.650024
 11
-641.16870099999994
 21
1067.650024
  0
LINE
  8
_0-0_0
  6
CONTINUOUS
 62
    7
 10
-640.76873800000021
 20
1067.650024
 11
-640.76873800000021
 21
1068.3000179999999
  0
ARC
  8
_0-0_0
  6
CONTINUOUS
 62
    7
 10
-640.5187380000001
 20
1068.3000179999999
 40
0.25
 50
90.000003000000007
 51
179.99999099999999
  0
LINE
  8
_0-0_0
  6
CONTINUOUS
 62
    7
 10
-640.5187380000001
 20
1068.5500179999999
 11
-639.86871300000007
 21
1068.5500179999999
  0
LINE
  8
_0-0_0
  6
CONTINUOUS
 62
    7
 10
-639.86871300000007
 20
1068.5500179999999
 11
-639.86871300000007
 21
1068.950012
  0
LINE
  8
_0-0_0
  6
CONTINUOUS
 62
    7
 10
-640.5187380000001
 20
1068.950012
 11
-639.86871300000007
 21
1068.950012
  0
ARC
  8
_0-0_0
  6
CONTINUOUS
 62
    7
 10
-640.5187380000001
 20
1069.200012
 40
0.25
 50
179.99999099999999
 51
269.99999700000001
  0
LINE
  8
_0-0_0
  6
CONTINUOUS
 62
    7
 10
-640.76873800000021
 20
1069.8500060000001
 11
-640.76873800000021
 21
1069.200012
  0
LINE
  8
_0-0_0
  6
CONTINUOUS
 62
    7
 10
-640.76873800000021
 20
1069.8500060000001
 11
-641.16870099999994
 21
1069.8500060000001
  0
LINE
  8
_0-0_0
  6
CONTINUOUS
 62
    7
 10
-641.16870099999994
 20
1069.8500060000001
 11
-641.16870099999994
 21
1069.200012
  0
ARC
  8
_0-0_0
  6
CONTINUOUS
 62
    7
 10
-641.41870100000006
 20
1069.200012
 40
0.25
 50
269.99999700000001
 51
0
  0
LINE
  8
_0-0_0
  6
CONTINUOUS
 62
    7
 10
-641.41870100000006
 20
1068.950012
 11
-642.06872600000008
 21
1068.950012
  0
LINE
  8
_0-0_0
  6
CONTINUOUS
 62
    7
 10
-642.06872600000008
 20
1068.5500179999999
 11
-642.06872600000008
 21
1068.950012
  0
LINE
  8
_0-0_0
  6
CONTINUOUS
 62
    7
 10
-641.41870100000006
 20
1068.5500179999999
 11
-642.06872600000008
 21
1068.5500179999999
  0
ARC
  8
_0-0_0
  6
CONTINUOUS
 62
    7
 10
-641.41870100000006
 20
1068.3000179999999
 40
0.25
 50
0
 51
90.000003000000007
  0
LINE
  8
_0-0_0
  6
CONTINUOUS
 62
    7
 10
-641.16870099999994
 20
1067.650024
 11
-641.16870099999994
 21
1068.3000179999999
  0
LINE
  8
_0-0_0
  6
CONTINUOUS
 62
    7
 10
-561.7687380000001
 20
1067.650024
 11
-562.16870100000017
 21
1067.650024
  0
LINE
  8
_0-0_0
  6
CONTINUOUS
 62
    7
 10
-561.7687380000001
 20
1067.650024
 11
-561.7687380000001
 21
1068.3000179999999
  0
ARC
  8
_0-0_0
  6
CONTINUOUS
 62
    7
 10
-561.51873800000033
 20
1068.3000179999999
 40
0.25
 50
90.000003000000007
 51
179.99999099999999
  0
LINE
  8
_0-0_0
  6
CONTINUOUS
 62
    7
 10
-561.51873800000033
 20
1068.5500179999999
 11
-560.86871299999996
 21
1068.5500179999999
  0
LINE
  8
_0-0_0
  6
CONTINUOUS
 62
    7
 10
-560.86871299999996
 20
1068.5500179999999
 11
-560.86871299999996
 21
1068.950012
  0
LINE
  8
_0-0_0
  6
CONTINUOUS
 62
    7
 10
-561.51873800000033
 20
1068.950012
 11
-560.86871299999996
 21
1068.950012
  0
ARC
  8
_0-0_0
  6
CONTINUOUS
 62
    7
 10
-561.51873800000033
 20
1069.200012
 40
0.25
 50
179.99999099999999
 51
269.99999700000001
  0
LINE
  8
_0-0_0
  6
CONTINUOUS
 62
    7
 10
-561.7687380000001
 20
1069.8500060000001
 11
-561.7687380000001
 21
1069.200012
  0
LINE
  8
_0-0_0
  6
CONTINUOUS
 62
    7
 10
-561.7687380000001
 20
1069.8500060000001
 11
-562.16870100000017
 21
1069.8500060000001
  0
LINE
  8
_0-0_0
  6
CONTINUOUS
 62
    7
 10
-562.16870100000017
 20
1069.8500060000001
 11
-562.16870100000017
 21
1069.200012
  0
ARC
  8
_0-0_0
  6
CONTINUOUS
 62
    7
 10
-562.41870099999994
 20
1069.200012
 40
0.25
 50
269.99999700000001
 51
0
  0
LINE
  8
_0-0_0
  6
CONTINUOUS
 62
    7
 10
-562.41870099999994
 20
1068.950012
 11
-563.06872599999997
 21
1068.950012
  0
LINE
  8
_0-0_0
  6
CONTINUOUS
 62
    7
 10
-563.06872599999997
 20
1068.5500179999999
 11
-563.06872599999997
 21
1068.950012
  0
LINE
  8
_0-0_0
  6
CONTINUOUS
 62
    7
 10
-562.41870099999994
 20
1068.5500179999999
 11
-563.06872599999997
 21
1068.5500179999999
  0
ARC
  8
_0-0_0
  6
CONTINUOUS
 62
    7
 10
-562.41870099999994
 20
1068.3000179999999
 40
0.25
 50
0
 51
90.000003000000007
  0
LINE
  8
_0-0_0
  6
CONTINUOUS
 62
    7
 10
-562.16870100000017
 20
1067.650024
 11
-562.16870100000017
 21
1068.3000179999999
  0
LINE
  8
_0-0_0
  6
CONTINUOUS
 62
    7
 10
-542.21875000000011
 20
1046.3999940000001
 11
-542.66082799999992
 21
1046.2526250000001
  0
LINE
  8
_0-0_0
  6
CONTINUOUS
 62
    7
 10
-538.49438499999985
 20
1051.650024
 11
-537.8010250000001
 21
1051.650024
  0
LINE
  8
_0-0_0
  6
CONTINUOUS
 62
    7
 10
-538.49438499999985
 20
1051.650024
 11
-542.81897000000004
 21
1051.650024
  0
LINE
  8
_0-0_0
  6
CONTINUOUS
 62
    7
 10
-543.293274
 20
1051.650024
 11
-542.81897000000004
 21
1051.650024
  0
LINE
  8
_0-0_0
  6
CONTINUOUS
 62
    7
 10
-538.33630399999993
 20
1066.205841
 11
-542.66082799999992
 21
1067.647369
  0
LINE
  8
_0-0_0
  6
CONTINUOUS
 62
    7
 10
-648.96874999999989
 20
1066.0541990000002
 11
-648.96874999999989
 21
1064.7783199999999
  0
ARC
  8
_0-0_0
  6
CONTINUOUS
 62
    7
 10
-649.26873800000033
 20
1062.5500179999999
 40
0.2999999999999999
 50
269.99999700000001
 51
0
  0
LINE
  8
_0-0_0
  6
CONTINUOUS
 62
    7
 10
-651.42437800000016
 20
1066.3287049999999
 11
-651.42437800000016
 21
1063
  0
LINE
  8
_0-0_0
  6
CONTINUOUS
 62
    7
 10
-651.42437800000016
 20
1067.5
 11
-651.42437800000016
 21
1066.3287049999999
  0
LINE
  8
_0-0_0
  6
CONTINUOUS
 62
    7
 10
-536.96875000000011
 20
1050.8999629999998
 11
-536.96875000000011
 21
1052.0209960000002
  0
LINE
  8
_0-0_0
  6
CONTINUOUS
 62
    7
 10
-536.96875000000011
 20
1052.9423219999999
 11
-536.96875000000011
 21
1052.0209960000002
  0
LINE
  8
_0-0_0
  6
CONTINUOUS
 62
    7
 10
-537.26873800000021
 20
1054.7380069999999
 11
-537.20996099999991
 21
1054.49118
  0
LINE
  8
_0-0_0
  6
CONTINUOUS
 62
    7
 10
-537.20996099999991
 20
1054.49118
 11
-537.1601559999998
 21
1054.298828
  0
LINE
  8
_0-0_0
  6
CONTINUOUS
 62
    7
 10
-537.1601559999998
 20
1054.298828
 11
-537.08904999999993
 21
1054.0330510000001
  0
LINE
  8
_0-0_0
  6
CONTINUOUS
 62
    7
 10
-537.08904999999993
 20
1054.0330510000001
 11
-537.05609099999992
 21
1053.906342
  0
LINE
  8
_0-0_0
  6
CONTINUOUS
 62
    7
 10
-537.05609099999992
 20
1053.906342
 11
-537.03082299999994
 21
1053.802917
  0
LINE
  8
_0-0_0
  6
CONTINUOUS
 62
    7
 10
-537.03082299999994
 20
1053.802917
 11
-537.00878899999998
 21
1053.702972
  0
LINE
  8
_0-0_0
  6
CONTINUOUS
 62
    7
 10
-537.00878899999998
 20
1053.702972
 11
-536.98742700000003
 21
1053.585266
  0
LINE
  8
_0-0_0
  6
CONTINUOUS
 62
    7
 10
-536.98742700000003
 20
1053.585266
 11
-536.97882100000027
 21
1053.523132
  0
LINE
  8
_0-0_0
  6
CONTINUOUS
 62
    7
 10
-536.97882100000027
 20
1053.523132
 11
-536.97277800000018
 21
1053.462524
  0
LINE
  8
_0-0_0
  6
CONTINUOUS
 62
    7
 10
-536.97277800000018
 20
1053.462524
 11
-536.96972700000003
 21
1053.4132999999999
  0
LINE
  8
_0-0_0
  6
CONTINUOUS
 62
    7
 10
-536.96972700000003
 20
1053.4132999999999
 11
-536.96875000000011
 21
1053.365051
  0
LINE
  8
_0-0_0
  6
CONTINUOUS
 62
    7
 10
-537.26873800000021
 20
1059.1620479999999
 11
-537.35217300000033
 21
1058.7833560000001
  0
LINE
  8
_0-0_0
  6
CONTINUOUS
 62
    7
 10
-537.35217300000033
 20
1058.7833560000001
 11
-537.39227300000005
 21
1058.591827
  0
LINE
  8
_0-0_0
  6
CONTINUOUS
 62
    7
 10
-537.39227300000005
 20
1058.591827
 11
-537.44836399999997
 21
1058.301819
  0
LINE
  8
_0-0_0
  6
CONTINUOUS
 62
    7
 10
-537.44836399999997
 20
1058.301819
 11
-537.4859620000002
 21
1058.082214
  0
LINE
  8
_0-0_0
  6
CONTINUOUS
 62
    7
 10
-537.4859620000002
 20
1058.082214
 11
-537.51861599999995
 21
1057.860962
  0
LINE
  8
_0-0_0
  6
CONTINUOUS
 62
    7
 10
-537.51861599999995
 20
1057.860962
 11
-537.54577599999993
 21
1057.634155
  0
LINE
  8
_0-0_0
  6
CONTINUOUS
 62
    7
 10
-537.54577599999993
 20
1057.634155
 11
-537.56585700000005
 21
1057.4067690000002
  0
LINE
  8
_0-0_0
  6
CONTINUOUS
 62
    7
 10
-537.56585700000005
 20
1057.4067690000002
 11
-537.5729980000001
 21
1057.29303
  0
LINE
  8
_0-0_0
  6
CONTINUOUS
 62
    7
 10
-537.5729980000001
 20
1057.29303
 11
-537.57812500000011
 21
1057.1793520000001
  0
LINE
  8
_0-0_0
  6
CONTINUOUS
 62
    7
 10
-537.57812500000011
 20
1057.1793520000001
 11
-537.58184799999992
 21
1057.027924
  0
LINE
  8
_0-0_0
  6
CONTINUOUS
 62
    7
 10
-537.58184799999992
 20
1057.027924
 11
-537.58190900000011
 21
1056.8766780000001
  0
LINE
  8
_0-0_0
  6
CONTINUOUS
 62
    7
 10
-537.58190900000011
 20
1056.8766780000001
 11
-537.57836900000018
 21
1056.7256159999999
  0
LINE
  8
_0-0_0
  6
CONTINUOUS
 62
    7
 10
-537.57836900000018
 20
1056.7256159999999
 11
-537.568848
 21
1056.5370790000002
  0
LINE
  8
_0-0_0
  6
CONTINUOUS
 62
    7
 10
-537.568848
 20
1056.5370790000002
 11
-537.55395500000009
 21
1056.3488159999999
  0
LINE
  8
_0-0_0
  6
CONTINUOUS
 62
    7
 10
-537.55395500000009
 20
1056.3488159999999
 11
-537.53405800000019
 21
1056.160889
  0
LINE
  8
_0-0_0
  6
CONTINUOUS
 62
    7
 10
-537.53405800000019
 20
1056.160889
 11
-537.51770000000022
 21
1056.032013
  0
LINE
  8
_0-0_0
  6
CONTINUOUS
 62
    7
 10
-537.51770000000022
 20
1056.032013
 11
-537.49926800000003
 21
1055.9033509999999
  0
LINE
  8
_0-0_0
  6
CONTINUOUS
 62
    7
 10
-537.49926800000003
 20
1055.9033509999999
 11
-537.475098
 21
1055.7514039999999
  0
LINE
  8
_0-0_0
  6
CONTINUOUS
 62
    7
 10
-537.475098
 20
1055.7514039999999
 11
-537.44873100000007
 21
1055.6000670000001
  0
LINE
  8
_0-0_0
  6
CONTINUOUS
 62
    7
 10
-537.44873100000007
 20
1055.6000670000001
 11
-537.39251700000011
 21
1055.309448
  0
LINE
  8
_0-0_0
  6
CONTINUOUS
 62
    7
 10
-537.39251700000011
 20
1055.309448
 11
-537.35235600000021
 21
1055.117493
  0
LINE
  8
_0-0_0
  6
CONTINUOUS
 62
    7
 10
-537.35235600000021
 20
1055.117493
 11
-537.26873800000021
 21
1054.7380069999999
  0
LINE
  8
_0-0_0
  6
CONTINUOUS
 62
    7
 10
-537.26873800000021
 20
1059.1620479999999
 11
-537.20996099999991
 21
1059.4088750000001
  0
LINE
  8
_0-0_0
  6
CONTINUOUS
 62
    7
 10
-537.20996099999991
 20
1059.4088750000001
 11
-537.1601559999998
 21
1059.6011960000001
  0
LINE
  8
_0-0_0
  6
CONTINUOUS
 62
    7
 10
-537.1601559999998
 20
1059.6011960000001
 11
-537.08904999999993
 21
1059.866943
  0
LINE
  8
_0-0_0
  6
CONTINUOUS
 62
    7
 10
-537.08904999999993
 20
1059.866943
 11
-537.05609099999992
 21
1059.9936519999999
  0
LINE
  8
_0-0_0
  6
CONTINUOUS
 62
    7
 10
-537.05609099999992
 20
1059.9936519999999
 11
-537.03082299999994
 21
1060.097076
  0
LINE
  8
_0-0_0
  6
CONTINUOUS
 62
    7
 10
-537.03082299999994
 20
1060.097076
 11
-537.00878899999998
 21
1060.197052
  0
LINE
  8
_0-0_0
  6
CONTINUOUS
 62
    7
 10
-537.00878899999998
 20
1060.197052
 11
-536.98742700000003
 21
1060.314758
  0
LINE
  8
_0-0_0
  6
CONTINUOUS
 62
    7
 10
-536.98742700000003
 20
1060.314758
 11
-536.97882100000027
 21
1060.376892
  0
LINE
  8
_0-0_0
  6
CONTINUOUS
 62
    7
 10
-536.97882100000027
 20
1060.376892
 11
-536.97277800000018
 21
1060.4375
  0
LINE
  8
_0-0_0
  6
CONTINUOUS
 62
    7
 10
-536.97277800000018
 20
1060.4375
 11
-536.96972700000003
 21
1060.486725
  0
LINE
  8
_0-0_0
  6
CONTINUOUS
 62
    7
 10
-536.96972700000003
 20
1060.486725
 11
-536.96875000000011
 21
1060.5349429999999
  0
LINE
  8
_0-0_0
  6
CONTINUOUS
 62
    7
 10
-536.96875000000011
 20
1064.3084720000002
 11
-536.96875000000011
 21
1060.957703
  0
ARC
  8
_0-0_0
  6
CONTINUOUS
 62
    7
 10
-538.96875
 20
1064.3084720000002
 40
2
 50
0
 51
71.565000999999995
  0
CIRCLE
  8
_0-0_0
  6
CONTINUOUS
 62
    7
 10
-630.96874999999989
 20
1062.25
 40
2.5
  0
CIRCLE
  8
_0-0_0
  6
CONTINUOUS
 62
    7
 10
-574.96875
 20
1062.25
 40
2.5
  0
LINE
  8
_0-0_0
  6
CONTINUOUS
 62
    7
 10
-651.56872599999997
 20
1066.208862
 11
-651.56872599999997
 21
1063.25
  0
LINE
  8
_0-0_0
  6
CONTINUOUS
 62
    7
 10
-651.56872599999997
 20
1067.25
 11
-651.56872599999997
 21
1066.208862
  0
LINE
  8
_0-0_0
  6
CONTINUOUS
 62
    7
 10
-521.96875000000011
 20
1047.424561
 11
-521.96875000000011
 21
1047.571289
  0
LINE
  8
_0-0_0
  6
CONTINUOUS
 62
    7
 10
-521.96875000000011
 20
1047.2340389999999
 11
-521.96875000000011
 21
1047.424561
  0
LINE
  8
_0-0_0
  6
CONTINUOUS
 62
    7
 10
-521.96875000000011
 20
1047.059021
 11
-521.96875000000011
 21
1047.2340389999999
  0
LINE
  8
_0-0_0
  6
CONTINUOUS
 62
    7
 10
-521.96875000000011
 20
1046.9014280000001
 11
-521.96875000000011
 21
1047.059021
  0
LINE
  8
_0-0_0
  6
CONTINUOUS
 62
    7
 10
-521.96875000000011
 20
1046.7629999999999
 11
-521.96875000000011
 21
1046.9014280000001
  0
LINE
  8
_0-0_0
  6
CONTINUOUS
 62
    7
 10
-521.96875000000011
 20
1046.6452330000002
 11
-521.96875000000011
 21
1046.7629999999999
  0
LINE
  8
_0-0_0
  6
CONTINUOUS
 62
    7
 10
-521.96875000000011
 20
1046.400024
 11
-521.96875000000011
 21
1046.6452330000002
  0
LINE
  8
_0-0_0
  6
CONTINUOUS
 62
    7
 10
-521.96875000000011
 20
1046.4766850000001
 11
-521.96875000000011
 21
1046.549438
  0
LINE
  8
_0-0_0
  6
CONTINUOUS
 62
    7
 10
-521.96875000000011
 20
1046.4277039999999
 11
-521.96875000000011
 21
1046.4766850000001
  0
LINE
  8
_0-0_0
  6
CONTINUOUS
 62
    7
 10
-521.96875000000011
 20
1046.4030760000001
 11
-521.96875000000011
 21
1046.4277039999999
  0
LINE
  8
_0-0_0
  6
CONTINUOUS
 62
    7
 10
-521.96875000000011
 20
1046.400024
 11
-521.96875000000011
 21
1046.4030760000001
  0
LINE
  8
_0-0_0
  6
CONTINUOUS
 62
    7
 10
-521.96875000000011
 20
1050.8969119999999
 11
-521.96875000000011
 21
1050.900024
  0
LINE
  8
_0-0_0
  6
CONTINUOUS
 62
    7
 10
-521.96875000000011
 20
1050.872314
 11
-521.96875000000011
 21
1050.8969119999999
  0
LINE
  8
_0-0_0
  6
CONTINUOUS
 62
    7
 10
-521.96875000000011
 20
1050.8233340000002
 11
-521.96875000000011
 21
1050.900024
  0
LINE
  8
_0-0_0
  6
CONTINUOUS
 62
    7
 10
-521.96875000000011
 20
1050.7505489999999
 11
-521.96875000000011
 21
1050.8233340000002
  0
LINE
  8
_0-0_0
  6
CONTINUOUS
 62
    7
 10
-521.96875000000011
 20
1050.6547849999999
 11
-521.96875000000011
 21
1050.7505489999999
  0
LINE
  8
_0-0_0
  6
CONTINUOUS
 62
    7
 10
-521.96875000000011
 20
1050.6245730000001
 11
-521.96875000000011
 21
1050.6547849999999
  0
LINE
  8
_0-0_0
  6
CONTINUOUS
 62
    7
 10
-521.96875000000011
 20
1050.537018
 11
-521.96875000000011
 21
1050.6245730000001
  0
LINE
  8
_0-0_0
  6
CONTINUOUS
 62
    7
 10
-521.96875000000011
 20
1050.39859
 11
-521.96875000000011
 21
1050.537018
  0
LINE
  8
_0-0_0
  6
CONTINUOUS
 62
    7
 10
-521.96875000000011
 20
1050.2409969999999
 11
-521.96875000000011
 21
1050.39859
  0
LINE
  8
_0-0_0
  6
CONTINUOUS
 62
    7
 10
-521.96875000000011
 20
1050.065979
 11
-521.96875000000011
 21
1050.2409969999999
  0
LINE
  8
_0-0_0
  6
CONTINUOUS
 62
    7
 10
-521.96875000000011
 20
1049.8754269999999
 11
-521.96875000000011
 21
1050.065979
  0
LINE
  8
_0-0_0
  6
CONTINUOUS
 62
    7
 10
-521.96875000000011
 20
1049.671478
 11
-521.96875000000011
 21
1049.8754269999999
  0
LINE
  8
_0-0_0
  6
CONTINUOUS
 62
    7
 10
-521.96875000000011
 20
1049.4563290000001
 11
-521.96875000000011
 21
1049.671478
  0
LINE
  8
_0-0_0
  6
CONTINUOUS
 62
    7
 10
-521.96875000000011
 20
1049.2323610000001
 11
-521.96875000000011
 21
1049.4563290000001
  0
LINE
  8
_0-0_0
  6
CONTINUOUS
 62
    7
 10
-521.96875000000011
 20
1049.001984
 11
-521.96875000000011
 21
1049.2323610000001
  0
LINE
  8
_0-0_0
  6
CONTINUOUS
 62
    7
 10
-521.96875000000011
 20
1048.7677610000001
 11
-521.96875000000011
 21
1049.001984
  0
LINE
  8
_0-0_0
  6
CONTINUOUS
 62
    7
 10
-521.96875000000011
 20
1048.5322570000001
 11
-521.96875000000011
 21
1048.7677610000001
  0
LINE
  8
_0-0_0
  6
CONTINUOUS
 62
    7
 10
-521.96875000000011
 20
1048.298035
 11
-521.96875000000011
 21
1048.5322570000001
  0
LINE
  8
_0-0_0
  6
CONTINUOUS
 62
    7
 10
-521.96875000000011
 20
1048.0676570000001
 11
-521.96875000000011
 21
1048.298035
  0
LINE
  8
_0-0_0
  6
CONTINUOUS
 62
    7
 10
-521.96875000000011
 20
1047.843689
 11
-521.96875000000011
 21
1048.0676570000001
  0
LINE
  8
_0-0_0
  6
CONTINUOUS
 62
    7
 10
-521.96875000000011
 20
1047.6285400000002
 11
-521.96875000000011
 21
1047.843689
  0
LINE
  8
_0-0_0
  6
CONTINUOUS
 62
    7
 10
-521.96875000000011
 20
1047.571289
 11
-521.96875000000011
 21
1047.6285400000002
  0
LINE
  8
_0-0_0
  6
CONTINUOUS
 62
    7
 10
-536.96875000000011
 20
1055.38797
 11
-536.96875000000011
 21
1054.342316
  0
LINE
  8
_0-0_0
  6
CONTINUOUS
 62
    7
 10
-536.96875000000011
 20
1053.0577089999999
 11
-536.96875000000011
 21
1054.342316
  0
LINE
  8
_0-0_0
  6
CONTINUOUS
 62
    7
 10
-536.96875000000011
 20
1052.9423219999999
 11
-536.96875000000011
 21
1053.0577089999999
  0
LINE
  8
_0-0_0
  6
CONTINUOUS
 62
    7
 10
-536.96875000000011
 20
1055.38797
 11
-536.96875000000011
 21
1058.512054
  0
LINE
  8
_0-0_0
  6
CONTINUOUS
 62
    7
 10
-536.96875000000011
 20
1060.957703
 11
-536.96875000000011
 21
1060.842316
  0
LINE
  8
_0-0_0
  6
CONTINUOUS
 62
    7
 10
-536.96875000000011
 20
1059.5577089999999
 11
-536.96875000000011
 21
1060.842316
  0
LINE
  8
_0-0_0
  6
CONTINUOUS
 62
    7
 10
-536.96875000000011
 20
1059.5577089999999
 11
-536.96875000000011
 21
1058.512054
  0
LINE
  8
_0-0_0
  6
CONTINUOUS
 62
    7
 10
-536.96875000000011
 20
1060.842316
 11
-527.26092500000004
 21
1060.842316
  0
LINE
  8
_0-0_0
  6
CONTINUOUS
 62
    7
 10
-527.26092500000004
 20
1063.450012
 11
-527.2064210000002
 21
1063.3800659999999
  0
LINE
  8
_0-0_0
  6
CONTINUOUS
 62
    7
 10
-527.2064210000002
 20
1063.3800659999999
 11
-527.15533499999992
 21
1063.3112489999999
  0
LINE
  8
_0-0_0
  6
CONTINUOUS
 62
    7
 10
-527.15533499999992
 20
1063.3112489999999
 11
-527.10766600000022
 21
1063.2437439999999
  0
LINE
  8
_0-0_0
  6
CONTINUOUS
 62
    7
 10
-527.10766600000022
 20
1063.2437439999999
 11
-527.06317100000035
 21
1063.177185
  0
LINE
  8
_0-0_0
  6
CONTINUOUS
 62
    7
 10
-527.06317100000035
 20
1063.177185
 11
-527.00848399999995
 21
1063.089661
  0
LINE
  8
_0-0_0
  6
CONTINUOUS
 62
    7
 10
-527.00848399999995
 20
1063.089661
 11
-526.9589840000001
 21
1063.0035400000002
  0
LINE
  8
_0-0_0
  6
CONTINUOUS
 62
    7
 10
-526.9589840000001
 20
1063.0035400000002
 11
-526.91449000000023
 21
1062.9187010000001
  0
LINE
  8
_0-0_0
  6
CONTINUOUS
 62
    7
 10
-526.91449000000023
 20
1062.9187010000001
 11
-526.86755400000004
 21
1062.8183900000001
  0
LINE
  8
_0-0_0
  6
CONTINUOUS
 62
    7
 10
-526.86755400000004
 20
1062.8183900000001
 11
-526.82733199999996
 21
1062.719482
  0
LINE
  8
_0-0_0
  6
CONTINUOUS
 62
    7
 10
-526.82733199999996
 20
1062.719482
 11
-526.7936400000001
 21
1062.6217040000001
  0
LINE
  8
_0-0_0
  6
CONTINUOUS
 62
    7
 10
-526.7936400000001
 20
1062.6217040000001
 11
-526.76635700000008
 21
1062.5249019999999
  0
LINE
  8
_0-0_0
  6
CONTINUOUS
 62
    7
 10
-526.76635700000008
 20
1062.5249019999999
 11
-526.74530000000004
 21
1062.428864
  0
LINE
  8
_0-0_0
  6
CONTINUOUS
 62
    7
 10
-526.74530000000004
 20
1062.428864
 11
-526.72937000000002
 21
1062.325012
  0
LINE
  8
_0-0_0
  6
CONTINUOUS
 62
    7
 10
-526.72937000000002
 20
1062.325012
 11
-526.72064200000023
 21
1062.2215880000001
  0
LINE
  8
_0-0_0
  6
CONTINUOUS
 62
    7
 10
-526.72064200000023
 20
1062.2215880000001
 11
-526.71899399999995
 21
1062.1183470000001
  0
LINE
  8
_0-0_0
  6
CONTINUOUS
 62
    7
 10
-526.71899399999995
 20
1062.1183470000001
 11
-526.72448700000007
 21
1062.0150450000001
  0
LINE
  8
_0-0_0
  6
CONTINUOUS
 62
    7
 10
-526.72448700000007
 20
1062.0150450000001
 11
-526.73706100000004
 21
1061.9114689999999
  0
LINE
  8
_0-0_0
  6
CONTINUOUS
 62
    7
 10
-526.73706100000004
 20
1061.9114689999999
 11
-526.75689700000009
 21
1061.8073119999999
  0
LINE
  8
_0-0_0
  6
CONTINUOUS
 62
    7
 10
-526.75689700000009
 20
1061.8073119999999
 11
-526.78405800000007
 21
1061.702362
  0
LINE
  8
_0-0_0
  6
CONTINUOUS
 62
    7
 10
-526.78405800000007
 20
1061.702362
 11
-526.81866500000035
 21
1061.596313
  0
LINE
  8
_0-0_0
  6
CONTINUOUS
 62
    7
 10
-526.81866500000035
 20
1061.596313
 11
-526.86102299999982
 21
1061.488953
  0
LINE
  8
_0-0_0
  6
CONTINUOUS
 62
    7
 10
-526.86102299999982
 20
1061.488953
 11
-526.91137700000024
 21
1061.379944
  0
LINE
  8
_0-0_0
  6
CONTINUOUS
 62
    7
 10
-526.91137700000024
 20
1061.379944
 11
-526.96557600000017
 21
1061.2767940000001
  0
LINE
  8
_0-0_0
  6
CONTINUOUS
 62
    7
 10
-526.96557600000017
 20
1061.2767940000001
 11
-527.02728300000024
 21
1061.1717530000001
  0
LINE
  8
_0-0_0
  6
CONTINUOUS
 62
    7
 10
-527.02728300000024
 20
1061.1717530000001
 11
-527.09680200000003
 21
1061.0645140000001
  0
LINE
  8
_0-0_0
  6
CONTINUOUS
 62
    7
 10
-527.09680200000003
 20
1061.0645140000001
 11
-527.17456100000015
 21
1060.9548030000001
  0
LINE
  8
_0-0_0
  6
CONTINUOUS
 62
    7
 10
-527.17456100000015
 20
1060.9548030000001
 11
-527.26092500000004
 21
1060.842316
  0
LINE
  8
_0-0_0
  6
CONTINUOUS
 62
    7
 10
-536.96875000000011
 20
1063.450012
 11
-527.26092500000004
 21
1063.450012
  0
LINE
  8
_0-0_0
  6
CONTINUOUS
 62
    7
 10
-527.21875000000011
 20
1063.450012
 11
-527.26092500000004
 21
1063.450012
  0
LINE
  8
_0-0_0
  6
CONTINUOUS
 62
    7
 10
-536.96875000000011
 20
1053.0577089999999
 11
-527.26092500000004
 21
1053.0577089999999
  0
LINE
  8
_0-0_0
  6
CONTINUOUS
 62
    7
 10
-527.26092500000004
 20
1053.0577089999999
 11
-527.2064210000002
 21
1052.987762
  0
LINE
  8
_0-0_0
  6
CONTINUOUS
 62
    7
 10
-527.2064210000002
 20
1052.987762
 11
-527.15533499999992
 21
1052.9189449999999
  0
LINE
  8
_0-0_0
  6
CONTINUOUS
 62
    7
 10
-527.15533499999992
 20
1052.9189449999999
 11
-527.10766600000022
 21
1052.8514400000001
  0
LINE
  8
_0-0_0
  6
CONTINUOUS
 62
    7
 10
-527.10766600000022
 20
1052.8514400000001
 11
-527.06317100000035
 21
1052.7848819999999
  0
LINE
  8
_0-0_0
  6
CONTINUOUS
 62
    7
 10
-527.06317100000035
 20
1052.7848819999999
 11
-527.00848399999995
 21
1052.697357
  0
LINE
  8
_0-0_0
  6
CONTINUOUS
 62
    7
 10
-527.00848399999995
 20
1052.697357
 11
-526.9589840000001
 21
1052.6112370000001
  0
LINE
  8
_0-0_0
  6
CONTINUOUS
 62
    7
 10
-526.9589840000001
 20
1052.6112370000001
 11
-526.91449000000023
 21
1052.5264280000001
  0
LINE
  8
_0-0_0
  6
CONTINUOUS
 62
    7
 10
-526.91449000000023
 20
1052.5264280000001
 11
-526.86755400000004
 21
1052.4260859999999
  0
LINE
  8
_0-0_0
  6
CONTINUOUS
 62
    7
 10
-526.86755400000004
 20
1052.4260859999999
 11
-526.82733199999996
 21
1052.3271790000001
  0
LINE
  8
_0-0_0
  6
CONTINUOUS
 62
    7
 10
-526.82733199999996
 20
1052.3271790000001
 11
-526.7936400000001
 21
1052.2294010000001
  0
LINE
  8
_0-0_0
  6
CONTINUOUS
 62
    7
 10
-526.7936400000001
 20
1052.2294010000001
 11
-526.76635700000008
 21
1052.132599
  0
LINE
  8
_0-0_0
  6
CONTINUOUS
 62
    7
 10
-526.76635700000008
 20
1052.132599
 11
-526.74530000000004
 21
1052.03656
  0
LINE
  8
_0-0_0
  6
CONTINUOUS
 62
    7
 10
-526.74530000000004
 20
1052.03656
 11
-526.72937000000002
 21
1051.9327089999999
  0
LINE
  8
_0-0_0
  6
CONTINUOUS
 62
    7
 10
-526.72937000000002
 20
1051.9327089999999
 11
-526.72064200000023
 21
1051.829285
  0
LINE
  8
_0-0_0
  6
CONTINUOUS
 62
    7
 10
-526.72064200000023
 20
1051.829285
 11
-526.71899399999995
 21
1051.726044
  0
LINE
  8
_0-0_0
  6
CONTINUOUS
 62
    7
 10
-526.71899399999995
 20
1051.726044
 11
-526.72448700000007
 21
1051.622742
  0
LINE
  8
_0-0_0
  6
CONTINUOUS
 62
    7
 10
-526.72448700000007
 20
1051.622742
 11
-526.73706100000004
 21
1051.5191650000002
  0
LINE
  8
_0-0_0
  6
CONTINUOUS
 62
    7
 10
-526.73706100000004
 20
1051.5191650000002
 11
-526.75689700000009
 21
1051.4150090000001
  0
LINE
  8
_0-0_0
  6
CONTINUOUS
 62
    7
 10
-526.75689700000009
 20
1051.4150090000001
 11
-526.78405800000007
 21
1051.3100589999999
  0
LINE
  8
_0-0_0
  6
CONTINUOUS
 62
    7
 10
-526.78405800000007
 20
1051.3100589999999
 11
-526.81866500000035
 21
1051.2040099999999
  0
LINE
  8
_0-0_0
  6
CONTINUOUS
 62
    7
 10
-526.81866500000035
 20
1051.2040099999999
 11
-526.86102299999982
 21
1051.0966189999999
  0
LINE
  8
_0-0_0
  6
CONTINUOUS
 62
    7
 10
-526.86102299999982
 20
1051.0966189999999
 11
-526.91137700000024
 21
1050.9876399999998
  0
LINE
  8
_0-0_0
  6
CONTINUOUS
 62
    7
 10
-526.91137700000024
 20
1050.9876399999998
 11
-526.95703099999992
 21
1050.8999629999998
  0
LINE
  8
_0-0_0
  6
CONTINUOUS
 62
    7
 10
-521.96875000000011
 20
1047.424561
 11
-521.71875
 21
1047.400024
  0
LINE
  8
_0-0_0
  6
CONTINUOUS
 62
    7
 10
-521.96875000000011
 20
1047.6285400000002
 11
-521.71875
 21
1047.400024
  0
LINE
  8
_0-0_0
  6
CONTINUOUS
 62
    7
 10
-521.96875000000011
 20
1047.2340389999999
 11
-521.71875
 21
1047.1805420000001
  0
LINE
  8
_0-0_0
  6
CONTINUOUS
 62
    7
 10
-521.96875000000011
 20
1047.424561
 11
-521.71875
 21
1047.1805420000001
  0
LINE
  8
_0-0_0
  6
CONTINUOUS
 62
    7
 10
-521.96875000000011
 20
1047.059021
 11
-521.71875
 21
1046.977173
  0
LINE
  8
_0-0_0
  6
CONTINUOUS
 62
    7
 10
-521.96875000000011
 20
1047.2340389999999
 11
-521.71875
 21
1046.977173
  0
LINE
  8
_0-0_0
  6
CONTINUOUS
 62
    7
 10
-521.96875000000011
 20
1046.9014280000001
 11
-521.71875
 21
1046.7921450000001
  0
LINE
  8
_0-0_0
  6
CONTINUOUS
 62
    7
 10
-521.96875000000011
 20
1047.059021
 11
-521.71875
 21
1046.7921450000001
  0
LINE
  8
_0-0_0
  6
CONTINUOUS
 62
    7
 10
-521.96875000000011
 20
1046.7629999999999
 11
-521.71875
 21
1046.6274720000001
  0
LINE
  8
_0-0_0
  6
CONTINUOUS
 62
    7
 10
-521.96875000000011
 20
1046.9014280000001
 11
-521.71875
 21
1046.6274720000001
  0
LINE
  8
_0-0_0
  6
CONTINUOUS
 62
    7
 10
-521.96875000000011
 20
1046.6452330000002
 11
-521.71875
 21
1046.4849550000001
  0
LINE
  8
_0-0_0
  6
CONTINUOUS
 62
    7
 10
-521.96875000000011
 20
1046.7629999999999
 11
-521.71875
 21
1046.4849550000001
  0
LINE
  8
_0-0_0
  6
CONTINUOUS
 62
    7
 10
-521.96875000000011
 20
1046.549438
 11
-521.71875
 21
1046.3661500000001
  0
LINE
  8
_0-0_0
  6
CONTINUOUS
 62
    7
 10
-521.96875000000011
 20
1046.6452330000002
 11
-521.71875
 21
1046.3661500000001
  0
LINE
  8
_0-0_0
  6
CONTINUOUS
 62
    7
 10
-521.96875000000011
 20
1046.4766850000001
 11
-521.71875
 21
1046.272369
  0
LINE
  8
_0-0_0
  6
CONTINUOUS
 62
    7
 10
-521.96875000000011
 20
1046.549438
 11
-521.71875
 21
1046.272369
  0
LINE
  8
_0-0_0
  6
CONTINUOUS
 62
    7
 10
-521.96875000000011
 20
1046.4277039999999
 11
-521.71875
 21
1046.204651
  0
LINE
  8
_0-0_0
  6
CONTINUOUS
 62
    7
 10
-521.96875000000011
 20
1046.4766850000001
 11
-521.71875
 21
1046.204651
  0
LINE
  8
_0-0_0
  6
CONTINUOUS
 62
    7
 10
-521.96875000000011
 20
1046.4030760000001
 11
-521.71875
 21
1046.1636960000001
  0
LINE
  8
_0-0_0
  6
CONTINUOUS
 62
    7
 10
-521.96875000000011
 20
1046.4277039999999
 11
-521.71875
 21
1046.1636960000001
  0
LINE
  8
_0-0_0
  6
CONTINUOUS
 62
    7
 10
-521.96875000000011
 20
1046.4030760000001
 11
-521.71875
 21
1046.150024
  0
LINE
  8
_0-0_0
  6
CONTINUOUS
 62
    7
 10
-521.96875000000011
 20
1050.8969119999999
 11
-521.71875
 21
1051.150024
  0
LINE
  8
_0-0_0
  6
CONTINUOUS
 62
    7
 10
-521.96875000000011
 20
1050.872314
 11
-521.71875
 21
1051.1363220000001
  0
LINE
  8
_0-0_0
  6
CONTINUOUS
 62
    7
 10
-521.96875000000011
 20
1050.8969119999999
 11
-521.71875
 21
1051.1363220000001
  0
LINE
  8
_0-0_0
  6
CONTINUOUS
 62
    7
 10
-521.96875000000011
 20
1050.8233340000002
 11
-521.71875
 21
1051.0953669999999
  0
LINE
  8
_0-0_0
  6
CONTINUOUS
 62
    7
 10
-521.96875000000011
 20
1050.872314
 11
-521.71875
 21
1051.0953669999999
  0
LINE
  8
_0-0_0
  6
CONTINUOUS
 62
    7
 10
-521.96875000000011
 20
1050.7505489999999
 11
-521.71875
 21
1051.0276490000001
  0
LINE
  8
_0-0_0
  6
CONTINUOUS
 62
    7
 10
-521.96875000000011
 20
1050.8233340000002
 11
-521.71875
 21
1051.0276490000001
  0
LINE
  8
_0-0_0
  6
CONTINUOUS
 62
    7
 10
-521.96875000000011
 20
1050.6547849999999
 11
-521.71875
 21
1050.9338680000001
  0
LINE
  8
_0-0_0
  6
CONTINUOUS
 62
    7
 10
-521.96875000000011
 20
1050.7505489999999
 11
-521.71875
 21
1050.9338680000001
  0
LINE
  8
_0-0_0
  6
CONTINUOUS
 62
    7
 10
-521.96875000000011
 20
1050.6547849999999
 11
-521.8387449999999
 21
1050.738617
  0
LINE
  8
_0-0_0
  6
CONTINUOUS
 62
    7
 10
-521.96875000000011
 20
1050.537018
 11
-521.71875
 21
1050.815063
  0
LINE
  8
_0-0_0
  6
CONTINUOUS
 62
    7
 10
-521.8387449999999
 20
1050.738617
 11
-521.71875
 21
1050.815063
  0
LINE
  8
_0-0_0
  6
CONTINUOUS
 62
    7
 10
-521.96875000000011
 20
1050.39859
 11
-521.71875
 21
1050.672546
  0
LINE
  8
_0-0_0
  6
CONTINUOUS
 62
    7
 10
-521.96875000000011
 20
1050.537018
 11
-521.71875
 21
1050.672546
  0
LINE
  8
_0-0_0
  6
CONTINUOUS
 62
    7
 10
-521.96875000000011
 20
1050.2409969999999
 11
-521.71875
 21
1050.5078739999999
  0
LINE
  8
_0-0_0
  6
CONTINUOUS
 62
    7
 10
-521.96875000000011
 20
1050.39859
 11
-521.71875
 21
1050.5078739999999
  0
LINE
  8
_0-0_0
  6
CONTINUOUS
 62
    7
 10
-521.96875000000011
 20
1050.065979
 11
-521.71875
 21
1050.3228450000001
  0
LINE
  8
_0-0_0
  6
CONTINUOUS
 62
    7
 10
-521.96875000000011
 20
1050.2409969999999
 11
-521.71875
 21
1050.3228450000001
  0
LINE
  8
_0-0_0
  6
CONTINUOUS
 62
    7
 10
-521.96875000000011
 20
1049.8754269999999
 11
-521.71875
 21
1050.1194760000001
  0
LINE
  8
_0-0_0
  6
CONTINUOUS
 62
    7
 10
-521.96875000000011
 20
1050.065979
 11
-521.71875
 21
1050.1194760000001
  0
LINE
  8
_0-0_0
  6
CONTINUOUS
 62
    7
 10
-521.96875000000011
 20
1049.671478
 11
-521.71875
 21
1049.900024
  0
LINE
  8
_0-0_0
  6
CONTINUOUS
 62
    7
 10
-521.96875000000011
 20
1049.8754269999999
 11
-521.71875
 21
1049.900024
  0
LINE
  8
_0-0_0
  6
CONTINUOUS
 62
    7
 10
-521.96875000000011
 20
1049.4563290000001
 11
-521.71875
 21
1049.6668399999999
  0
LINE
  8
_0-0_0
  6
CONTINUOUS
 62
    7
 10
-521.96875000000011
 20
1049.671478
 11
-521.71875
 21
1049.6668399999999
  0
LINE
  8
_0-0_0
  6
CONTINUOUS
 62
    7
 10
-521.96875000000011
 20
1049.2323610000001
 11
-521.71875
 21
1049.422546
  0
LINE
  8
_0-0_0
  6
CONTINUOUS
 62
    7
 10
-521.96875000000011
 20
1049.4563290000001
 11
-521.71875
 21
1049.422546
  0
LINE
  8
_0-0_0
  6
CONTINUOUS
 62
    7
 10
-521.96875000000011
 20
1049.001984
 11
-521.71875
 21
1049.1698000000001
  0
LINE
  8
_0-0_0
  6
CONTINUOUS
 62
    7
 10
-521.96875000000011
 20
1049.2323610000001
 11
-521.71875
 21
1049.1698000000001
  0
LINE
  8
_0-0_0
  6
CONTINUOUS
 62
    7
 10
-521.96875000000011
 20
1048.7677610000001
 11
-521.71875
 21
1048.9113160000002
  0
LINE
  8
_0-0_0
  6
CONTINUOUS
 62
    7
 10
-521.96875000000011
 20
1049.001984
 11
-521.71875
 21
1048.9113160000002
  0
LINE
  8
_0-0_0
  6
CONTINUOUS
 62
    7
 10
-521.96875000000011
 20
1048.5322570000001
 11
-521.71875
 21
1048.650024
  0
LINE
  8
_0-0_0
  6
CONTINUOUS
 62
    7
 10
-521.96875000000011
 20
1048.7677610000001
 11
-521.71875
 21
1048.650024
  0
LINE
  8
_0-0_0
  6
CONTINUOUS
 62
    7
 10
-521.96875000000011
 20
1048.298035
 11
-521.71875
 21
1048.388672
  0
LINE
  8
_0-0_0
  6
CONTINUOUS
 62
    7
 10
-521.96875000000011
 20
1048.5322570000001
 11
-521.71875
 21
1048.388672
  0
LINE
  8
_0-0_0
  6
CONTINUOUS
 62
    7
 10
-521.96875000000011
 20
1048.0676570000001
 11
-521.71875
 21
1048.1302189999999
  0
LINE
  8
_0-0_0
  6
CONTINUOUS
 62
    7
 10
-521.96875000000011
 20
1048.298035
 11
-521.71875
 21
1048.1302189999999
  0
LINE
  8
_0-0_0
  6
CONTINUOUS
 62
    7
 10
-521.96875000000011
 20
1047.843689
 11
-521.71875
 21
1047.8774719999999
  0
LINE
  8
_0-0_0
  6
CONTINUOUS
 62
    7
 10
-521.96875000000011
 20
1048.0676570000001
 11
-521.71875
 21
1047.8774719999999
  0
LINE
  8
_0-0_0
  6
CONTINUOUS
 62
    7
 10
-521.96875000000011
 20
1047.6285400000002
 11
-521.71875
 21
1047.6331789999999
  0
LINE
  8
_0-0_0
  6
CONTINUOUS
 62
    7
 10
-521.96875000000011
 20
1047.843689
 11
-521.71875
 21
1047.6331789999999
  0
LINE
  8
_0-0_0
  6
CONTINUOUS
 62
    7
 10
-536.96875000000011
 20
1054.342316
 11
-527.26092500000004
 21
1054.342316
  0
LINE
  8
_0-0_0
  6
CONTINUOUS
 62
    7
 10
-527.26092500000004
 20
1054.342316
 11
-527.16656499999988
 21
1054.5889280000001
  0
LINE
  8
_0-0_0
  6
CONTINUOUS
 62
    7
 10
-527.16656499999988
 20
1054.5889280000001
 11
-527.08264199999996
 21
1054.8289180000002
  0
LINE
  8
_0-0_0
  6
CONTINUOUS
 62
    7
 10
-527.08264199999996
 20
1054.8289180000002
 11
-527.00848399999995
 21
1055.0630190000002
  0
LINE
  8
_0-0_0
  6
CONTINUOUS
 62
    7
 10
-527.00848399999995
 20
1055.0630190000002
 11
-526.94360400000005
 21
1055.2920530000001
  0
LINE
  8
_0-0_0
  6
CONTINUOUS
 62
    7
 10
-526.94360400000005
 20
1055.2920530000001
 11
-526.88757299999997
 21
1055.5167240000001
  0
LINE
  8
_0-0_0
  6
CONTINUOUS
 62
    7
 10
-526.88757299999997
 20
1055.5167240000001
 11
-526.83996600000012
 21
1055.737701
  0
LINE
  8
_0-0_0
  6
CONTINUOUS
 62
    7
 10
-526.83996600000012
 20
1055.737701
 11
-526.80059799999992
 21
1055.955627
  0
LINE
  8
_0-0_0
  6
CONTINUOUS
 62
    7
 10
-526.80059799999992
 20
1055.955627
 11
-526.76910399999997
 21
1056.1710820000001
  0
LINE
  8
_0-0_0
  6
CONTINUOUS
 62
    7
 10
-526.76910399999997
 20
1056.1710820000001
 11
-526.74530000000004
 21
1056.3846129999999
  0
LINE
  8
_0-0_0
  6
CONTINUOUS
 62
    7
 10
-526.74530000000004
 20
1056.3846129999999
 11
-526.72937000000002
 21
1056.592316
  0
LINE
  8
_0-0_0
  6
CONTINUOUS
 62
    7
 10
-526.72937000000002
 20
1056.592316
 11
-526.72064200000023
 21
1056.799164
  0
LINE
  8
_0-0_0
  6
CONTINUOUS
 62
    7
 10
-526.72064200000023
 20
1056.799164
 11
-526.71899399999995
 21
1057.0056460000001
  0
LINE
  8
_0-0_0
  6
CONTINUOUS
 62
    7
 10
-526.71899399999995
 20
1057.0056460000001
 11
-526.72448700000007
 21
1057.212219
  0
LINE
  8
_0-0_0
  6
CONTINUOUS
 62
    7
 10
-526.72448700000007
 20
1057.212219
 11
-526.73706100000004
 21
1057.4194030000001
  0
LINE
  8
_0-0_0
  6
CONTINUOUS
 62
    7
 10
-526.73706100000004
 20
1057.4194030000001
 11
-526.75689700000009
 21
1057.627716
  0
LINE
  8
_0-0_0
  6
CONTINUOUS
 62
    7
 10
-526.75689700000009
 20
1057.627716
 11
-526.78405800000007
 21
1057.837616
  0
LINE
  8
_0-0_0
  6
CONTINUOUS
 62
    7
 10
-526.78405800000007
 20
1057.837616
 11
-526.81866500000035
 21
1058.049683
  0
LINE
  8
_0-0_0
  6
CONTINUOUS
 62
    7
 10
-526.81866500000035
 20
1058.049683
 11
-526.86102299999982
 21
1058.264435
  0
LINE
  8
_0-0_0
  6
CONTINUOUS
 62
    7
 10
-526.86102299999982
 20
1058.264435
 11
-526.91137700000024
 21
1058.4824520000002
  0
LINE
  8
_0-0_0
  6
CONTINUOUS
 62
    7
 10
-526.91137700000024
 20
1058.4824520000002
 11
-526.96557600000017
 21
1058.688721
  0
LINE
  8
_0-0_0
  6
CONTINUOUS
 62
    7
 10
-526.96557600000017
 20
1058.688721
 11
-527.02728300000024
 21
1058.8988340000001
  0
LINE
  8
_0-0_0
  6
CONTINUOUS
 62
    7
 10
-527.02728300000024
 20
1058.8988340000001
 11
-527.09680200000003
 21
1059.113312
  0
LINE
  8
_0-0_0
  6
CONTINUOUS
 62
    7
 10
-527.09680200000003
 20
1059.113312
 11
-527.17456100000015
 21
1059.332733
  0
LINE
  8
_0-0_0
  6
CONTINUOUS
 62
    7
 10
-527.17456100000015
 20
1059.332733
 11
-527.26092500000004
 21
1059.5577089999999
  0
LINE
  8
_0-0_0
  6
CONTINUOUS
 62
    7
 10
-536.96875000000011
 20
1059.5577089999999
 11
-527.26092500000004
 21
1059.5577089999999
  0
ARC
  8
_0-0_0
  6
CONTINUOUS
 62
    7
 10
-532.13244599999996
 20
1053.700012
 40
4.9136889999999998
 50
352.48898799999995
 51
7.5110139999999577
  0
ARC
  8
_0-0_0
  6
CONTINUOUS
 62
    7
 10
-532.14263900000014
 20
1060.2008970000002
 40
4.9238749999999998
 50
352.49423299999995
 51
1.5359699999999901
  0
ARC
  8
_0-0_0
  6
CONTINUOUS
 62
    7
 10
-532.18066399999998
 20
1060.1959529999999
 40
4.9620009999999999
 50
1.5813010000000001
 51
7.4847919999999997
  0
LINE
  8
_0-0_0
  6
CONTINUOUS
 62
    7
 10
-525.96874999999989
 20
1059.6815490000001
 11
-525.96874999999989
 21
1062.200012
  0
LINE
  8
_0-0_0
  6
CONTINUOUS
 62
    7
 10
-525.96874999999989
 20
1051.700012
 11
-525.96874999999989
 21
1059.6815490000001
  0
LINE
  8
_0-0_0
  6
CONTINUOUS
 62
    7
 10
-512.21875000000011
 20
1047.424561
 11
-512.46874999999989
 21
1047.400024
  0
LINE
  8
_0-0_0
  6
CONTINUOUS
 62
    7
 10
-512.46874999999989
 20
1047.400024
 11
-521.71875
 21
1047.400024
  0
LINE
  8
_0-0_0
  6
CONTINUOUS
 62
    7
 10
-512.21875000000011
 20
1047.6285400000002
 11
-512.46874999999989
 21
1047.400024
  0
LINE
  8
_0-0_0
  6
CONTINUOUS
 62
    7
 10
-512.21875000000011
 20
1047.6285400000002
 11
-521.96875000000011
 21
1047.6285400000002
  0
LINE
  8
_0-0_0
  6
CONTINUOUS
 62
    7
 10
-512.21875000000011
 20
1047.2340389999999
 11
-512.46874999999989
 21
1047.1805420000001
  0
LINE
  8
_0-0_0
  6
CONTINUOUS
 62
    7
 10
-512.46874999999989
 20
1047.1805420000001
 11
-521.71875
 21
1047.1805420000001
  0
LINE
  8
_0-0_0
  6
CONTINUOUS
 62
    7
 10
-512.21875000000011
 20
1047.424561
 11
-512.46874999999989
 21
1047.1805420000001
  0
LINE
  8
_0-0_0
  6
CONTINUOUS
 62
    7
 10
-512.21875000000011
 20
1047.059021
 11
-512.46874999999989
 21
1046.977173
  0
LINE
  8
_0-0_0
  6
CONTINUOUS
 62
    7
 10
-512.46874999999989
 20
1046.977173
 11
-521.71875
 21
1046.977173
  0
LINE
  8
_0-0_0
  6
CONTINUOUS
 62
    7
 10
-512.21875000000011
 20
1047.2340389999999
 11
-512.46874999999989
 21
1046.977173
  0
LINE
  8
_0-0_0
  6
CONTINUOUS
 62
    7
 10
-512.21875000000011
 20
1046.9014280000001
 11
-512.46874999999989
 21
1046.7921450000001
  0
LINE
  8
_0-0_0
  6
CONTINUOUS
 62
    7
 10
-512.46874999999989
 20
1046.7921450000001
 11
-521.71875
 21
1046.7921450000001
  0
LINE
  8
_0-0_0
  6
CONTINUOUS
 62
    7
 10
-512.21875000000011
 20
1047.059021
 11
-512.46874999999989
 21
1046.7921450000001
  0
LINE
  8
_0-0_0
  6
CONTINUOUS
 62
    7
 10
-512.21875000000011
 20
1046.7629999999999
 11
-512.46874999999989
 21
1046.6274720000001
  0
LINE
  8
_0-0_0
  6
CONTINUOUS
 62
    7
 10
-512.46874999999989
 20
1046.6274720000001
 11
-521.71875
 21
1046.6274720000001
  0
LINE
  8
_0-0_0
  6
CONTINUOUS
 62
    7
 10
-512.21875000000011
 20
1046.9014280000001
 11
-512.46874999999989
 21
1046.6274720000001
  0
LINE
  8
_0-0_0
  6
CONTINUOUS
 62
    7
 10
-512.21875000000011
 20
1046.6452330000002
 11
-512.46874999999989
 21
1046.4849550000001
  0
LINE
  8
_0-0_0
  6
CONTINUOUS
 62
    7
 10
-512.46874999999989
 20
1046.4849550000001
 11
-521.71875
 21
1046.4849550000001
  0
LINE
  8
_0-0_0
  6
CONTINUOUS
 62
    7
 10
-512.21875000000011
 20
1046.7629999999999
 11
-512.46874999999989
 21
1046.4849550000001
  0
LINE
  8
_0-0_0
  6
CONTINUOUS
 62
    7
 10
-512.21875000000011
 20
1046.549438
 11
-512.46874999999989
 21
1046.3661500000001
  0
LINE
  8
_0-0_0
  6
CONTINUOUS
 62
    7
 10
-512.46874999999989
 20
1046.3661500000001
 11
-521.71875
 21
1046.3661500000001
  0
LINE
  8
_0-0_0
  6
CONTINUOUS
 62
    7
 10
-512.21875000000011
 20
1046.6452330000002
 11
-512.46874999999989
 21
1046.3661500000001
  0
LINE
  8
_0-0_0
  6
CONTINUOUS
 62
    7
 10
-512.21875000000011
 20
1046.4766850000001
 11
-512.46874999999989
 21
1046.272369
  0
LINE
  8
_0-0_0
  6
CONTINUOUS
 62
    7
 10
-512.46874999999989
 20
1046.272369
 11
-521.71875
 21
1046.272369
  0
LINE
  8
_0-0_0
  6
CONTINUOUS
 62
    7
 10
-512.21875000000011
 20
1046.549438
 11
-512.46874999999989
 21
1046.272369
  0
LINE
  8
_0-0_0
  6
CONTINUOUS
 62
    7
 10
-512.21875000000011
 20
1046.4277039999999
 11
-512.46874999999989
 21
1046.204651
  0
LINE
  8
_0-0_0
  6
CONTINUOUS
 62
    7
 10
-512.46874999999989
 20
1046.204651
 11
-521.71875
 21
1046.204651
  0
LINE
  8
_0-0_0
  6
CONTINUOUS
 62
    7
 10
-512.21875000000011
 20
1046.4766850000001
 11
-512.46874999999989
 21
1046.204651
  0
LINE
  8
_0-0_0
  6
CONTINUOUS
 62
    7
 10
-512.21875000000011
 20
1046.4030760000001
 11
-512.46874999999989
 21
1046.1636960000001
  0
LINE
  8
_0-0_0
  6
CONTINUOUS
 62
    7
 10
-512.46874999999989
 20
1046.1636960000001
 11
-521.71875
 21
1046.1636960000001
  0
LINE
  8
_0-0_0
  6
CONTINUOUS
 62
    7
 10
-512.21875000000011
 20
1046.4277039999999
 11
-512.46874999999989
 21
1046.1636960000001
  0
LINE
  8
_0-0_0
  6
CONTINUOUS
 62
    7
 10
-512.46874999999989
 20
1046.150024
 11
-521.71875
 21
1046.150024
  0
LINE
  8
_0-0_0
  6
CONTINUOUS
 62
    7
 10
-512.21875000000011
 20
1046.4030760000001
 11
-512.46874999999989
 21
1046.150024
  0
LINE
  8
_0-0_0
  6
CONTINUOUS
 62
    7
 10
-512.21875000000011
 20
1050.8969119999999
 11
-512.46874999999989
 21
1051.150024
  0
LINE
  8
_0-0_0
  6
CONTINUOUS
 62
    7
 10
-512.46874999999989
 20
1051.150024
 11
-521.71875
 21
1051.150024
  0
LINE
  8
_0-0_0
  6
CONTINUOUS
 62
    7
 10
-512.21875000000011
 20
1050.872314
 11
-512.46874999999989
 21
1051.1363220000001
  0
LINE
  8
_0-0_0
  6
CONTINUOUS
 62
    7
 10
-512.46874999999989
 20
1051.1363220000001
 11
-521.71875
 21
1051.1363220000001
  0
LINE
  8
_0-0_0
  6
CONTINUOUS
 62
    7
 10
-512.21875000000011
 20
1050.8969119999999
 11
-512.46874999999989
 21
1051.1363220000001
  0
LINE
  8
_0-0_0
  6
CONTINUOUS
 62
    7
 10
-512.21875000000011
 20
1050.8233340000002
 11
-512.46874999999989
 21
1051.0953669999999
  0
LINE
  8
_0-0_0
  6
CONTINUOUS
 62
    7
 10
-512.46874999999989
 20
1051.0953669999999
 11
-521.71875
 21
1051.0953669999999
  0
LINE
  8
_0-0_0
  6
CONTINUOUS
 62
    7
 10
-512.21875000000011
 20
1050.872314
 11
-512.46874999999989
 21
1051.0953669999999
  0
LINE
  8
_0-0_0
  6
CONTINUOUS
 62
    7
 10
-512.21875000000011
 20
1050.7505489999999
 11
-512.46874999999989
 21
1051.0276490000001
  0
LINE
  8
_0-0_0
  6
CONTINUOUS
 62
    7
 10
-512.46874999999989
 20
1051.0276490000001
 11
-521.71875
 21
1051.0276490000001
  0
LINE
  8
_0-0_0
  6
CONTINUOUS
 62
    7
 10
-512.21875000000011
 20
1050.8233340000002
 11
-512.46874999999989
 21
1051.0276490000001
  0
LINE
  8
_0-0_0
  6
CONTINUOUS
 62
    7
 10
-512.21875000000011
 20
1050.6547849999999
 11
-512.46874999999989
 21
1050.9338680000001
  0
LINE
  8
_0-0_0
  6
CONTINUOUS
 62
    7
 10
-512.46874999999989
 20
1050.9338680000001
 11
-521.71875
 21
1050.9338680000001
  0
LINE
  8
_0-0_0
  6
CONTINUOUS
 62
    7
 10
-512.21875000000011
 20
1050.7505489999999
 11
-512.46874999999989
 21
1050.9338680000001
  0
LINE
  8
_0-0_0
  6
CONTINUOUS
 62
    7
 10
-512.46874999999989
 20
1050.815063
 11
-521.71875
 21
1050.815063
  0
LINE
  8
_0-0_0
  6
CONTINUOUS
 62
    7
 10
-512.34869400000014
 20
1050.738617
 11
-512.46874999999989
 21
1050.815063
  0
LINE
  8
_0-0_0
  6
CONTINUOUS
 62
    7
 10
-512.21875000000011
 20
1050.6547849999999
 11
-512.34869400000014
 21
1050.738617
  0
LINE
  8
_0-0_0
  6
CONTINUOUS
 62
    7
 10
-512.21875000000011
 20
1050.537018
 11
-512.46874999999989
 21
1050.815063
  0
LINE
  8
_0-0_0
  6
CONTINUOUS
 62
    7
 10
-512.21875000000011
 20
1050.39859
 11
-512.46874999999989
 21
1050.672546
  0
LINE
  8
_0-0_0
  6
CONTINUOUS
 62
    7
 10
-512.46874999999989
 20
1050.672546
 11
-521.71875
 21
1050.672546
  0
LINE
  8
_0-0_0
  6
CONTINUOUS
 62
    7
 10
-512.21875000000011
 20
1050.537018
 11
-512.46874999999989
 21
1050.672546
  0
LINE
  8
_0-0_0
  6
CONTINUOUS
 62
    7
 10
-512.21875000000011
 20
1050.2409969999999
 11
-512.46874999999989
 21
1050.5078739999999
  0
LINE
  8
_0-0_0
  6
CONTINUOUS
 62
    7
 10
-512.46874999999989
 20
1050.5078739999999
 11
-521.71875
 21
1050.5078739999999
  0
LINE
  8
_0-0_0
  6
CONTINUOUS
 62
    7
 10
-512.21875000000011
 20
1050.39859
 11
-512.46874999999989
 21
1050.5078739999999
  0
LINE
  8
_0-0_0
  6
CONTINUOUS
 62
    7
 10
-512.21875000000011
 20
1050.065979
 11
-512.46874999999989
 21
1050.3228450000001
  0
LINE
  8
_0-0_0
  6
CONTINUOUS
 62
    7
 10
-512.46874999999989
 20
1050.3228450000001
 11
-521.71875
 21
1050.3228450000001
  0
LINE
  8
_0-0_0
  6
CONTINUOUS
 62
    7
 10
-512.21875000000011
 20
1050.2409969999999
 11
-512.46874999999989
 21
1050.3228450000001
  0
LINE
  8
_0-0_0
  6
CONTINUOUS
 62
    7
 10
-512.21875000000011
 20
1049.8754269999999
 11
-512.46874999999989
 21
1050.1194760000001
  0
LINE
  8
_0-0_0
  6
CONTINUOUS
 62
    7
 10
-512.46874999999989
 20
1050.1194760000001
 11
-521.71875
 21
1050.1194760000001
  0
LINE
  8
_0-0_0
  6
CONTINUOUS
 62
    7
 10
-512.21875000000011
 20
1050.065979
 11
-512.46874999999989
 21
1050.1194760000001
  0
LINE
  8
_0-0_0
  6
CONTINUOUS
 62
    7
 10
-512.21875000000011
 20
1049.671478
 11
-512.46874999999989
 21
1049.900024
  0
LINE
  8
_0-0_0
  6
CONTINUOUS
 62
    7
 10
-512.46874999999989
 20
1049.900024
 11
-521.71875
 21
1049.900024
  0
LINE
  8
_0-0_0
  6
CONTINUOUS
 62
    7
 10
-512.21875000000011
 20
1049.671478
 11
-521.96875000000011
 21
1049.671478
  0
LINE
  8
_0-0_0
  6
CONTINUOUS
 62
    7
 10
-512.21875000000011
 20
1049.8754269999999
 11
-512.46874999999989
 21
1049.900024
  0
LINE
  8
_0-0_0
  6
CONTINUOUS
 62
    7
 10
-512.21875000000011
 20
1049.4563290000001
 11
-512.46874999999989
 21
1049.6668399999999
  0
LINE
  8
_0-0_0
  6
CONTINUOUS
 62
    7
 10
-512.46874999999989
 20
1049.6668399999999
 11
-521.71875
 21
1049.6668399999999
  0
LINE
  8
_0-0_0
  6
CONTINUOUS
 62
    7
 10
-512.21875000000011
 20
1049.4563290000001
 11
-521.96875000000011
 21
1049.4563290000001
  0
LINE
  8
_0-0_0
  6
CONTINUOUS
 62
    7
 10
-512.21875000000011
 20
1049.671478
 11
-512.46874999999989
 21
1049.6668399999999
  0
LINE
  8
_0-0_0
  6
CONTINUOUS
 62
    7
 10
-512.21875000000011
 20
1049.2323610000001
 11
-512.46874999999989
 21
1049.422546
  0
LINE
  8
_0-0_0
  6
CONTINUOUS
 62
    7
 10
-512.46874999999989
 20
1049.422546
 11
-521.71875
 21
1049.422546
  0
LINE
  8
_0-0_0
  6
CONTINUOUS
 62
    7
 10
-512.21875000000011
 20
1049.2323610000001
 11
-521.96875000000011
 21
1049.2323610000001
  0
LINE
  8
_0-0_0
  6
CONTINUOUS
 62
    7
 10
-512.21875000000011
 20
1049.4563290000001
 11
-512.46874999999989
 21
1049.422546
  0
LINE
  8
_0-0_0
  6
CONTINUOUS
 62
    7
 10
-512.21875000000011
 20
1049.001984
 11
-512.46874999999989
 21
1049.1698000000001
  0
LINE
  8
_0-0_0
  6
CONTINUOUS
 62
    7
 10
-512.46874999999989
 20
1049.1698000000001
 11
-521.71875
 21
1049.1698000000001
  0
LINE
  8
_0-0_0
  6
CONTINUOUS
 62
    7
 10
-512.21875000000011
 20
1049.001984
 11
-521.96875000000011
 21
1049.001984
  0
LINE
  8
_0-0_0
  6
CONTINUOUS
 62
    7
 10
-512.21875000000011
 20
1049.2323610000001
 11
-512.46874999999989
 21
1049.1698000000001
  0
LINE
  8
_0-0_0
  6
CONTINUOUS
 62
    7
 10
-512.21875000000011
 20
1048.7677610000001
 11
-512.46874999999989
 21
1048.9113160000002
  0
LINE
  8
_0-0_0
  6
CONTINUOUS
 62
    7
 10
-512.46874999999989
 20
1048.9113160000002
 11
-521.71875
 21
1048.9113160000002
  0
LINE
  8
_0-0_0
  6
CONTINUOUS
 62
    7
 10
-512.21875000000011
 20
1048.7677610000001
 11
-521.96875000000011
 21
1048.7677610000001
  0
LINE
  8
_0-0_0
  6
CONTINUOUS
 62
    7
 10
-512.21875000000011
 20
1049.001984
 11
-512.46874999999989
 21
1048.9113160000002
  0
LINE
  8
_0-0_0
  6
CONTINUOUS
 62
    7
 10
-512.21875000000011
 20
1048.5322570000001
 11
-512.46874999999989
 21
1048.650024
  0
LINE
  8
_0-0_0
  6
CONTINUOUS
 62
    7
 10
-512.46874999999989
 20
1048.650024
 11
-521.71875
 21
1048.650024
  0
LINE
  8
_0-0_0
  6
CONTINUOUS
 62
    7
 10
-512.21875000000011
 20
1048.5322570000001
 11
-521.96875000000011
 21
1048.5322570000001
  0
LINE
  8
_0-0_0
  6
CONTINUOUS
 62
    7
 10
-512.21875000000011
 20
1048.7677610000001
 11
-512.46874999999989
 21
1048.650024
  0
LINE
  8
_0-0_0
  6
CONTINUOUS
 62
    7
 10
-512.21875000000011
 20
1048.298035
 11
-512.46874999999989
 21
1048.388672
  0
LINE
  8
_0-0_0
  6
CONTINUOUS
 62
    7
 10
-512.46874999999989
 20
1048.388672
 11
-521.71875
 21
1048.388672
  0
LINE
  8
_0-0_0
  6
CONTINUOUS
 62
    7
 10
-512.21875000000011
 20
1048.298035
 11
-521.96875000000011
 21
1048.298035
  0
LINE
  8
_0-0_0
  6
CONTINUOUS
 62
    7
 10
-512.21875000000011
 20
1048.5322570000001
 11
-512.46874999999989
 21
1048.388672
  0
LINE
  8
_0-0_0
  6
CONTINUOUS
 62
    7
 10
-512.21875000000011
 20
1048.0676570000001
 11
-512.46874999999989
 21
1048.1302189999999
  0
LINE
  8
_0-0_0
  6
CONTINUOUS
 62
    7
 10
-512.46874999999989
 20
1048.1302189999999
 11
-521.71875
 21
1048.1302189999999
  0
LINE
  8
_0-0_0
  6
CONTINUOUS
 62
    7
 10
-512.21875000000011
 20
1048.0676570000001
 11
-521.96875000000011
 21
1048.0676570000001
  0
LINE
  8
_0-0_0
  6
CONTINUOUS
 62
    7
 10
-512.21875000000011
 20
1048.298035
 11
-512.46874999999989
 21
1048.1302189999999
  0
LINE
  8
_0-0_0
  6
CONTINUOUS
 62
    7
 10
-512.21875000000011
 20
1047.843689
 11
-512.46874999999989
 21
1047.8774719999999
  0
LINE
  8
_0-0_0
  6
CONTINUOUS
 62
    7
 10
-512.46874999999989
 20
1047.8774719999999
 11
-521.71875
 21
1047.8774719999999
  0
LINE
  8
_0-0_0
  6
CONTINUOUS
 62
    7
 10
-512.21875000000011
 20
1047.843689
 11
-521.96875000000011
 21
1047.843689
  0
LINE
  8
_0-0_0
  6
CONTINUOUS
 62
    7
 10
-512.21875000000011
 20
1048.0676570000001
 11
-512.46874999999989
 21
1047.8774719999999
  0
LINE
  8
_0-0_0
  6
CONTINUOUS
 62
    7
 10
-512.21875000000011
 20
1047.6285400000002
 11
-512.46874999999989
 21
1047.6331789999999
  0
LINE
  8
_0-0_0
  6
CONTINUOUS
 62
    7
 10
-512.46874999999989
 20
1047.6331789999999
 11
-521.71875
 21
1047.6331789999999
  0
LINE
  8
_0-0_0
  6
CONTINUOUS
 62
    7
 10
-512.21875000000011
 20
1047.843689
 11
-512.46874999999989
 21
1047.6331789999999
  0
LINE
  8
_0-0_0
  6
CONTINUOUS
 62
    7
 10
-511.96875
 20
1046.650024
 11
-511.96875
 21
1050.405182
  0
LINE
  8
_0-0_0
  6
CONTINUOUS
 62
    7
 10
-511.96875
 20
1050.405182
 11
-511.96875
 21
1050.650024
  0
LINE
  8
_0-0_0
  6
CONTINUOUS
 62
    7
 10
-525.56872599999997
 20
1051.950012
 11
-525.56872599999997
 21
1054.450012
  0
LINE
  8
_0-0_0
  6
CONTINUOUS
 62
    7
 10
-525.56872599999997
 20
1054.450012
 11
-525.56872599999997
 21
1061.950012
  0
LINE
  8
_0-0_0
  6
CONTINUOUS
 62
    7
 10
-524.76873800000033
 20
1052.4118960000001
 11
-524.76873800000033
 21
1054.6809390000001
  0
LINE
  8
_0-0_0
  6
CONTINUOUS
 62
    7
 10
-524.76873800000033
 20
1054.6809390000001
 11
-524.76873800000033
 21
1061.4881290000001
  0
LINE
  8
_0-0_0
  6
CONTINUOUS
 62
    7
 10
-466.76873800000021
 20
1052.950012
 11
-466.76873800000021
 21
1052.9513550000001
  0
LINE
  8
_0-0_0
  6
CONTINUOUS
 62
    7
 10
-466.76873800000021
 20
1052.9513550000001
 11
-466.76873800000021
 21
1060.950012
  0
LINE
  8
_0-0_0
  6
CONTINUOUS
 62
    7
 10
-521.96875000000011
 20
1067.4969180000001
 11
-521.96875000000011
 21
1067.5
  0
LINE
  8
_0-0_0
  6
CONTINUOUS
 62
    7
 10
-521.96875000000011
 20
1067.4722899999999
 11
-521.96875000000011
 21
1067.4969180000001
  0
LINE
  8
_0-0_0
  6
CONTINUOUS
 62
    7
 10
-521.96875000000011
 20
1067.4233399999998
 11
-521.96875000000011
 21
1067.5
  0
LINE
  8
_0-0_0
  6
CONTINUOUS
 62
    7
 10
-521.96875000000011
 20
1067.350555
 11
-521.96875000000011
 21
1067.4233399999998
  0
LINE
  8
_0-0_0
  6
CONTINUOUS
 62
    7
 10
-521.96875000000011
 20
1067.2547609999999
 11
-521.96875000000011
 21
1067.350555
  0
LINE
  8
_0-0_0
  6
CONTINUOUS
 62
    7
 10
-521.96875000000011
 20
1067.2245790000002
 11
-521.96875000000011
 21
1067.2547609999999
  0
LINE
  8
_0-0_0
  6
CONTINUOUS
 62
    7
 10
-521.96875000000011
 20
1067.1370239999999
 11
-521.96875000000011
 21
1067.2245790000002
  0
LINE
  8
_0-0_0
  6
CONTINUOUS
 62
    7
 10
-521.96875000000011
 20
1066.9985959999999
 11
-521.96875000000011
 21
1067.1370239999999
  0
LINE
  8
_0-0_0
  6
CONTINUOUS
 62
    7
 10
-521.96875000000011
 20
1066.841003
 11
-521.96875000000011
 21
1066.9985959999999
  0
LINE
  8
_0-0_0
  6
CONTINUOUS
 62
    7
 10
-521.96875000000011
 20
1066.6659849999999
 11
-521.96875000000011
 21
1066.841003
  0
LINE
  8
_0-0_0
  6
CONTINUOUS
 62
    7
 10
-521.96875000000011
 20
1066.4754330000001
 11
-521.96875000000011
 21
1066.6659849999999
  0
LINE
  8
_0-0_0
  6
CONTINUOUS
 62
    7
 10
-521.96875000000011
 20
1066.2714840000001
 11
-521.96875000000011
 21
1066.4754330000001
  0
LINE
  8
_0-0_0
  6
CONTINUOUS
 62
    7
 10
-521.96875000000011
 20
1066.056335
 11
-521.96875000000011
 21
1066.2714840000001
  0
LINE
  8
_0-0_0
  6
CONTINUOUS
 62
    7
 10
-521.96875000000011
 20
1065.8323359999999
 11
-521.96875000000011
 21
1066.056335
  0
LINE
  8
_0-0_0
  6
CONTINUOUS
 62
    7
 10
-521.96875000000011
 20
1065.6019900000001
 11
-521.96875000000011
 21
1065.8323359999999
  0
LINE
  8
_0-0_0
  6
CONTINUOUS
 62
    7
 10
-521.96875000000011
 20
1065.367767
 11
-521.96875000000011
 21
1065.6019900000001
  0
LINE
  8
_0-0_0
  6
CONTINUOUS
 62
    7
 10
-521.96875000000011
 20
1065.132263
 11
-521.96875000000011
 21
1065.367767
  0
LINE
  8
_0-0_0
  6
CONTINUOUS
 62
    7
 10
-521.96875000000011
 20
1064.8980409999999
 11
-521.96875000000011
 21
1065.132263
  0
LINE
  8
_0-0_0
  6
CONTINUOUS
 62
    7
 10
-521.96875000000011
 20
1064.6676640000001
 11
-521.96875000000011
 21
1064.8980409999999
  0
LINE
  8
_0-0_0
  6
CONTINUOUS
 62
    7
 10
-521.96875000000011
 20
1064.443665
 11
-521.96875000000011
 21
1064.6676640000001
  0
LINE
  8
_0-0_0
  6
CONTINUOUS
 62
    7
 10
-521.96875000000011
 20
1064.2285160000001
 11
-521.96875000000011
 21
1064.443665
  0
LINE
  8
_0-0_0
  6
CONTINUOUS
 62
    7
 10
-521.96875000000011
 20
1064.1712950000001
 11
-521.96875000000011
 21
1064.2285160000001
  0
LINE
  8
_0-0_0
  6
CONTINUOUS
 62
    7
 10
-521.96875000000011
 20
1067.4969180000001
 11
-521.71875
 21
1067.75
  0
LINE
  8
_0-0_0
  6
CONTINUOUS
 62
    7
 10
-521.96875000000011
 20
1067.4722899999999
 11
-521.71875
 21
1067.736328
  0
LINE
  8
_0-0_0
  6
CONTINUOUS
 62
    7
 10
-521.96875000000011
 20
1067.4969180000001
 11
-521.71875
 21
1067.736328
  0
LINE
  8
_0-0_0
  6
CONTINUOUS
 62
    7
 10
-521.96875000000011
 20
1067.4233399999998
 11
-521.71875
 21
1067.6953739999999
  0
LINE
  8
_0-0_0
  6
CONTINUOUS
 62
    7
 10
-521.96875000000011
 20
1067.4722899999999
 11
-521.71875
 21
1067.6953739999999
  0
LINE
  8
_0-0_0
  6
CONTINUOUS
 62
    7
 10
-521.96875000000011
 20
1067.350555
 11
-521.71875
 21
1067.627655
  0
LINE
  8
_0-0_0
  6
CONTINUOUS
 62
    7
 10
-521.96875000000011
 20
1067.4233399999998
 11
-521.71875
 21
1067.627655
  0
LINE
  8
_0-0_0
  6
CONTINUOUS
 62
    7
 10
-521.96875000000011
 20
1067.2547609999999
 11
-521.71875
 21
1067.5338750000001
  0
LINE
  8
_0-0_0
  6
CONTINUOUS
 62
    7
 10
-521.96875000000011
 20
1067.350555
 11
-521.71875
 21
1067.5338750000001
  0
LINE
  8
_0-0_0
  6
CONTINUOUS
 62
    7
 10
-521.96875000000011
 20
1067.2547609999999
 11
-521.8387449999999
 21
1067.3386230000001
  0
LINE
  8
_0-0_0
  6
CONTINUOUS
 62
    7
 10
-521.96875000000011
 20
1067.1370239999999
 11
-521.71875
 21
1067.41507
  0
LINE
  8
_0-0_0
  6
CONTINUOUS
 62
    7
 10
-521.8387449999999
 20
1067.3386230000001
 11
-521.71875
 21
1067.41507
  0
LINE
  8
_0-0_0
  6
CONTINUOUS
 62
    7
 10
-521.96875000000011
 20
1066.9985959999999
 11
-521.71875
 21
1067.2725519999999
  0
LINE
  8
_0-0_0
  6
CONTINUOUS
 62
    7
 10
-521.96875000000011
 20
1067.1370239999999
 11
-521.71875
 21
1067.2725519999999
  0
LINE
  8
_0-0_0
  6
CONTINUOUS
 62
    7
 10
-521.96875000000011
 20
1066.841003
 11
-521.71875
 21
1067.10788
  0
LINE
  8
_0-0_0
  6
CONTINUOUS
 62
    7
 10
-521.96875000000011
 20
1066.9985959999999
 11
-521.71875
 21
1067.10788
  0
LINE
  8
_0-0_0
  6
CONTINUOUS
 62
    7
 10
-521.96875000000011
 20
1066.6659849999999
 11
-521.71875
 21
1066.9228210000001
  0
LINE
  8
_0-0_0
  6
CONTINUOUS
 62
    7
 10
-521.96875000000011
 20
1066.841003
 11
-521.71875
 21
1066.9228210000001
  0
LINE
  8
_0-0_0
  6
CONTINUOUS
 62
    7
 10
-521.96875000000011
 20
1066.4754330000001
 11
-521.71875
 21
1066.719482
  0
LINE
  8
_0-0_0
  6
CONTINUOUS
 62
    7
 10
-521.96875000000011
 20
1066.6659849999999
 11
-521.71875
 21
1066.719482
  0
LINE
  8
_0-0_0
  6
CONTINUOUS
 62
    7
 10
-521.96875000000011
 20
1066.2714840000001
 11
-521.71875
 21
1066.5
  0
LINE
  8
_0-0_0
  6
CONTINUOUS
 62
    7
 10
-521.96875000000011
 20
1066.4754330000001
 11
-521.71875
 21
1066.5
  0
LINE
  8
_0-0_0
  6
CONTINUOUS
 62
    7
 10
-521.96875000000011
 20
1066.056335
 11
-521.71875
 21
1066.266846
  0
LINE
  8
_0-0_0
  6
CONTINUOUS
 62
    7
 10
-521.96875000000011
 20
1066.2714840000001
 11
-521.71875
 21
1066.266846
  0
LINE
  8
_0-0_0
  6
CONTINUOUS
 62
    7
 10
-521.96875000000011
 20
1065.8323359999999
 11
-521.71875
 21
1066.0225519999999
  0
LINE
  8
_0-0_0
  6
CONTINUOUS
 62
    7
 10
-521.96875000000011
 20
1066.056335
 11
-521.71875
 21
1066.0225519999999
  0
LINE
  8
_0-0_0
  6
CONTINUOUS
 62
    7
 10
-521.96875000000011
 20
1065.6019900000001
 11
-521.71875
 21
1065.769775
  0
LINE
  8
_0-0_0
  6
CONTINUOUS
 62
    7
 10
-521.96875000000011
 20
1065.8323359999999
 11
-521.71875
 21
1065.769775
  0
LINE
  8
_0-0_0
  6
CONTINUOUS
 62
    7
 10
-521.96875000000011
 20
1065.367767
 11
-521.71875
 21
1065.5113219999998
  0
LINE
  8
_0-0_0
  6
CONTINUOUS
 62
    7
 10
-521.96875000000011
 20
1065.6019900000001
 11
-521.71875
 21
1065.5113219999998
  0
LINE
  8
_0-0_0
  6
CONTINUOUS
 62
    7
 10
-521.96875000000011
 20
1065.132263
 11
-521.71875
 21
1065.25
  0
LINE
  8
_0-0_0
  6
CONTINUOUS
 62
    7
 10
-521.96875000000011
 20
1065.367767
 11
-521.71875
 21
1065.25
  0
LINE
  8
_0-0_0
  6
CONTINUOUS
 62
    7
 10
-521.96875000000011
 20
1064.8980409999999
 11
-521.71875
 21
1064.9886779999999
  0
LINE
  8
_0-0_0
  6
CONTINUOUS
 62
    7
 10
-521.96875000000011
 20
1065.132263
 11
-521.71875
 21
1064.9886779999999
  0
LINE
  8
_0-0_0
  6
CONTINUOUS
 62
    7
 10
-521.96875000000011
 20
1064.6676640000001
 11
-521.71875
 21
1064.730225
  0
LINE
  8
_0-0_0
  6
CONTINUOUS
 62
    7
 10
-521.96875000000011
 20
1064.8980409999999
 11
-521.71875
 21
1064.730225
  0
LINE
  8
_0-0_0
  6
CONTINUOUS
 62
    7
 10
-521.96875000000011
 20
1064.443665
 11
-521.71875
 21
1064.477478
  0
LINE
  8
_0-0_0
  6
CONTINUOUS
 62
    7
 10
-521.96875000000011
 20
1064.6676640000001
 11
-521.71875
 21
1064.477478
  0
LINE
  8
_0-0_0
  6
CONTINUOUS
 62
    7
 10
-521.96875000000011
 20
1064.2285160000001
 11
-521.71875
 21
1064.233154
  0
LINE
  8
_0-0_0
  6
CONTINUOUS
 62
    7
 10
-521.96875000000011
 20
1064.443665
 11
-521.71875
 21
1064.233154
  0
LINE
  8
_0-0_0
  6
CONTINUOUS
 62
    7
 10
-521.96875000000011
 20
1064.0245669999999
 11
-521.96875000000011
 21
1064.1712950000001
  0
LINE
  8
_0-0_0
  6
CONTINUOUS
 62
    7
 10
-521.96875000000011
 20
1064.0245669999999
 11
-521.71875
 21
1064
  0
LINE
  8
_0-0_0
  6
CONTINUOUS
 62
    7
 10
-521.96875000000011
 20
1064.2285160000001
 11
-521.71875
 21
1064
  0
LINE
  8
_0-0_0
  6
CONTINUOUS
 62
    7
 10
-521.96875000000011
 20
1063.8340450000001
 11
-521.96875000000011
 21
1064.0245669999999
  0
LINE
  8
_0-0_0
  6
CONTINUOUS
 62
    7
 10
-521.96875000000011
 20
1063.6590269999999
 11
-521.96875000000011
 21
1063.8340450000001
  0
LINE
  8
_0-0_0
  6
CONTINUOUS
 62
    7
 10
-521.96875000000011
 20
1063.501434
 11
-521.96875000000011
 21
1063.6590269999999
  0
LINE
  8
_0-0_0
  6
CONTINUOUS
 62
    7
 10
-521.96875000000011
 20
1063.3630069999999
 11
-521.96875000000011
 21
1063.501434
  0
LINE
  8
_0-0_0
  6
CONTINUOUS
 62
    7
 10
-521.96875000000011
 20
1063.2452389999999
 11
-521.96875000000011
 21
1063.3630069999999
  0
LINE
  8
_0-0_0
  6
CONTINUOUS
 62
    7
 10
-521.96875000000011
 20
1063.149445
 11
-521.96875000000011
 21
1063.2452389999999
  0
LINE
  8
_0-0_0
  6
CONTINUOUS
 62
    7
 10
-521.96875000000011
 20
1063
 11
-521.96875000000011
 21
1063.149445
  0
LINE
  8
_0-0_0
  6
CONTINUOUS
 62
    7
 10
-521.96875000000011
 20
1063.0277100000001
 11
-521.96875000000011
 21
1063.0766599999999
  0
LINE
  8
_0-0_0
  6
CONTINUOUS
 62
    7
 10
-521.96875000000011
 20
1063.0030819999999
 11
-521.96875000000011
 21
1063.0277100000001
  0
LINE
  8
_0-0_0
  6
CONTINUOUS
 62
    7
 10
-521.96875000000011
 20
1063
 11
-521.96875000000011
 21
1063.0030819999999
  0
LINE
  8
_0-0_0
  6
CONTINUOUS
 62
    7
 10
-512.21875000000011
 20
1067.4969180000001
 11
-512.46874999999989
 21
1067.75
  0
LINE
  8
_0-0_0
  6
CONTINUOUS
 62
    7
 10
-512.46874999999989
 20
1067.75
 11
-521.71875
 21
1067.75
  0
LINE
  8
_0-0_0
  6
CONTINUOUS
 62
    7
 10
-512.21875000000011
 20
1067.4722899999999
 11
-512.46874999999989
 21
1067.736328
  0
LINE
  8
_0-0_0
  6
CONTINUOUS
 62
    7
 10
-512.46874999999989
 20
1067.736328
 11
-521.71875
 21
1067.736328
  0
LINE
  8
_0-0_0
  6
CONTINUOUS
 62
    7
 10
-512.21875000000011
 20
1067.4969180000001
 11
-512.46874999999989
 21
1067.736328
  0
LINE
  8
_0-0_0
  6
CONTINUOUS
 62
    7
 10
-512.21875000000011
 20
1067.4233399999998
 11
-512.46874999999989
 21
1067.6953739999999
  0
LINE
  8
_0-0_0
  6
CONTINUOUS
 62
    7
 10
-512.46874999999989
 20
1067.6953739999999
 11
-521.71875
 21
1067.6953739999999
  0
LINE
  8
_0-0_0
  6
CONTINUOUS
 62
    7
 10
-512.21875000000011
 20
1067.4722899999999
 11
-512.46874999999989
 21
1067.6953739999999
  0
LINE
  8
_0-0_0
  6
CONTINUOUS
 62
    7
 10
-512.21875000000011
 20
1067.350555
 11
-512.46874999999989
 21
1067.627655
  0
LINE
  8
_0-0_0
  6
CONTINUOUS
 62
    7
 10
-512.46874999999989
 20
1067.627655
 11
-521.71875
 21
1067.627655
  0
LINE
  8
_0-0_0
  6
CONTINUOUS
 62
    7
 10
-512.21875000000011
 20
1067.4233399999998
 11
-512.46874999999989
 21
1067.627655
  0
LINE
  8
_0-0_0
  6
CONTINUOUS
 62
    7
 10
-512.21875000000011
 20
1067.2547609999999
 11
-512.46874999999989
 21
1067.5338750000001
  0
LINE
  8
_0-0_0
  6
CONTINUOUS
 62
    7
 10
-512.46874999999989
 20
1067.5338750000001
 11
-521.71875
 21
1067.5338750000001
  0
LINE
  8
_0-0_0
  6
CONTINUOUS
 62
    7
 10
-512.21875000000011
 20
1067.350555
 11
-512.46874999999989
 21
1067.5338750000001
  0
LINE
  8
_0-0_0
  6
CONTINUOUS
 62
    7
 10
-512.46874999999989
 20
1067.41507
 11
-521.71875
 21
1067.41507
  0
LINE
  8
_0-0_0
  6
CONTINUOUS
 62
    7
 10
-512.34869400000014
 20
1067.3386230000001
 11
-512.46874999999989
 21
1067.41507
  0
LINE
  8
_0-0_0
  6
CONTINUOUS
 62
    7
 10
-512.21875000000011
 20
1067.2547609999999
 11
-512.34869400000014
 21
1067.3386230000001
  0
LINE
  8
_0-0_0
  6
CONTINUOUS
 62
    7
 10
-512.21875000000011
 20
1067.1370239999999
 11
-512.46874999999989
 21
1067.41507
  0
LINE
  8
_0-0_0
  6
CONTINUOUS
 62
    7
 10
-512.21875000000011
 20
1066.9985959999999
 11
-512.46874999999989
 21
1067.2725519999999
  0
LINE
  8
_0-0_0
  6
CONTINUOUS
 62
    7
 10
-512.46874999999989
 20
1067.2725519999999
 11
-521.71875
 21
1067.2725519999999
  0
LINE
  8
_0-0_0
  6
CONTINUOUS
 62
    7
 10
-512.21875000000011
 20
1067.1370239999999
 11
-512.46874999999989
 21
1067.2725519999999
  0
LINE
  8
_0-0_0
  6
CONTINUOUS
 62
    7
 10
-512.21875000000011
 20
1066.841003
 11
-512.46874999999989
 21
1067.10788
  0
LINE
  8
_0-0_0
  6
CONTINUOUS
 62
    7
 10
-512.46874999999989
 20
1067.10788
 11
-521.71875
 21
1067.10788
  0
LINE
  8
_0-0_0
  6
CONTINUOUS
 62
    7
 10
-512.21875000000011
 20
1066.9985959999999
 11
-512.46874999999989
 21
1067.10788
  0
LINE
  8
_0-0_0
  6
CONTINUOUS
 62
    7
 10
-512.21875000000011
 20
1066.6659849999999
 11
-512.46874999999989
 21
1066.9228210000001
  0
LINE
  8
_0-0_0
  6
CONTINUOUS
 62
    7
 10
-512.46874999999989
 20
1066.9228210000001
 11
-521.71875
 21
1066.9228210000001
  0
LINE
  8
_0-0_0
  6
CONTINUOUS
 62
    7
 10
-512.21875000000011
 20
1066.841003
 11
-512.46874999999989
 21
1066.9228210000001
  0
LINE
  8
_0-0_0
  6
CONTINUOUS
 62
    7
 10
-512.21875000000011
 20
1066.4754330000001
 11
-512.46874999999989
 21
1066.719482
  0
LINE
  8
_0-0_0
  6
CONTINUOUS
 62
    7
 10
-512.46874999999989
 20
1066.719482
 11
-521.71875
 21
1066.719482
  0
LINE
  8
_0-0_0
  6
CONTINUOUS
 62
    7
 10
-512.21875000000011
 20
1066.6659849999999
 11
-512.46874999999989
 21
1066.719482
  0
LINE
  8
_0-0_0
  6
CONTINUOUS
 62
    7
 10
-512.21875000000011
 20
1066.2714840000001
 11
-512.46874999999989
 21
1066.5
  0
LINE
  8
_0-0_0
  6
CONTINUOUS
 62
    7
 10
-512.46874999999989
 20
1066.5
 11
-521.71875
 21
1066.5
  0
LINE
  8
_0-0_0
  6
CONTINUOUS
 62
    7
 10
-512.21875000000011
 20
1066.2714840000001
 11
-521.96875000000011
 21
1066.2714840000001
  0
LINE
  8
_0-0_0
  6
CONTINUOUS
 62
    7
 10
-512.21875000000011
 20
1066.4754330000001
 11
-512.46874999999989
 21
1066.5
  0
LINE
  8
_0-0_0
  6
CONTINUOUS
 62
    7
 10
-512.21875000000011
 20
1066.056335
 11
-512.46874999999989
 21
1066.266846
  0
LINE
  8
_0-0_0
  6
CONTINUOUS
 62
    7
 10
-512.46874999999989
 20
1066.266846
 11
-521.71875
 21
1066.266846
  0
LINE
  8
_0-0_0
  6
CONTINUOUS
 62
    7
 10
-512.21875000000011
 20
1066.056335
 11
-521.96875000000011
 21
1066.056335
  0
LINE
  8
_0-0_0
  6
CONTINUOUS
 62
    7
 10
-512.21875000000011
 20
1066.2714840000001
 11
-512.46874999999989
 21
1066.266846
  0
LINE
  8
_0-0_0
  6
CONTINUOUS
 62
    7
 10
-512.21875000000011
 20
1065.8323359999999
 11
-512.46874999999989
 21
1066.0225519999999
  0
LINE
  8
_0-0_0
  6
CONTINUOUS
 62
    7
 10
-512.46874999999989
 20
1066.0225519999999
 11
-521.71875
 21
1066.0225519999999
  0
LINE
  8
_0-0_0
  6
CONTINUOUS
 62
    7
 10
-512.21875000000011
 20
1065.8323359999999
 11
-521.96875000000011
 21
1065.8323359999999
  0
LINE
  8
_0-0_0
  6
CONTINUOUS
 62
    7
 10
-512.21875000000011
 20
1066.056335
 11
-512.46874999999989
 21
1066.0225519999999
  0
LINE
  8
_0-0_0
  6
CONTINUOUS
 62
    7
 10
-512.21875000000011
 20
1065.6019900000001
 11
-512.46874999999989
 21
1065.769775
  0
LINE
  8
_0-0_0
  6
CONTINUOUS
 62
    7
 10
-512.46874999999989
 20
1065.769775
 11
-521.71875
 21
1065.769775
  0
LINE
  8
_0-0_0
  6
CONTINUOUS
 62
    7
 10
-512.21875000000011
 20
1065.6019900000001
 11
-521.96875000000011
 21
1065.6019900000001
  0
LINE
  8
_0-0_0
  6
CONTINUOUS
 62
    7
 10
-512.21875000000011
 20
1065.8323359999999
 11
-512.46874999999989
 21
1065.769775
  0
LINE
  8
_0-0_0
  6
CONTINUOUS
 62
    7
 10
-512.21875000000011
 20
1065.367767
 11
-512.46874999999989
 21
1065.5113219999998
  0
LINE
  8
_0-0_0
  6
CONTINUOUS
 62
    7
 10
-512.46874999999989
 20
1065.5113219999998
 11
-521.71875
 21
1065.5113219999998
  0
LINE
  8
_0-0_0
  6
CONTINUOUS
 62
    7
 10
-512.21875000000011
 20
1065.367767
 11
-521.96875000000011
 21
1065.367767
  0
LINE
  8
_0-0_0
  6
CONTINUOUS
 62
    7
 10
-512.21875000000011
 20
1065.6019900000001
 11
-512.46874999999989
 21
1065.5113219999998
  0
LINE
  8
_0-0_0
  6
CONTINUOUS
 62
    7
 10
-512.21875000000011
 20
1065.132263
 11
-512.46874999999989
 21
1065.25
  0
LINE
  8
_0-0_0
  6
CONTINUOUS
 62
    7
 10
-512.46874999999989
 20
1065.25
 11
-521.71875
 21
1065.25
  0
LINE
  8
_0-0_0
  6
CONTINUOUS
 62
    7
 10
-512.21875000000011
 20
1065.132263
 11
-521.96875000000011
 21
1065.132263
  0
LINE
  8
_0-0_0
  6
CONTINUOUS
 62
    7
 10
-512.21875000000011
 20
1065.367767
 11
-512.46874999999989
 21
1065.25
  0
LINE
  8
_0-0_0
  6
CONTINUOUS
 62
    7
 10
-512.21875000000011
 20
1064.8980409999999
 11
-512.46874999999989
 21
1064.9886779999999
  0
LINE
  8
_0-0_0
  6
CONTINUOUS
 62
    7
 10
-512.46874999999989
 20
1064.9886779999999
 11
-521.71875
 21
1064.9886779999999
  0
LINE
  8
_0-0_0
  6
CONTINUOUS
 62
    7
 10
-512.21875000000011
 20
1064.8980409999999
 11
-521.96875000000011
 21
1064.8980409999999
  0
LINE
  8
_0-0_0
  6
CONTINUOUS
 62
    7
 10
-512.21875000000011
 20
1065.132263
 11
-512.46874999999989
 21
1064.9886779999999
  0
LINE
  8
_0-0_0
  6
CONTINUOUS
 62
    7
 10
-512.21875000000011
 20
1064.6676640000001
 11
-512.46874999999989
 21
1064.730225
  0
LINE
  8
_0-0_0
  6
CONTINUOUS
 62
    7
 10
-512.46874999999989
 20
1064.730225
 11
-521.71875
 21
1064.730225
  0
LINE
  8
_0-0_0
  6
CONTINUOUS
 62
    7
 10
-512.21875000000011
 20
1064.6676640000001
 11
-521.96875000000011
 21
1064.6676640000001
  0
LINE
  8
_0-0_0
  6
CONTINUOUS
 62
    7
 10
-512.21875000000011
 20
1064.8980409999999
 11
-512.46874999999989
 21
1064.730225
  0
LINE
  8
_0-0_0
  6
CONTINUOUS
 62
    7
 10
-512.21875000000011
 20
1064.443665
 11
-512.46874999999989
 21
1064.477478
  0
LINE
  8
_0-0_0
  6
CONTINUOUS
 62
    7
 10
-512.46874999999989
 20
1064.477478
 11
-521.71875
 21
1064.477478
  0
LINE
  8
_0-0_0
  6
CONTINUOUS
 62
    7
 10
-512.21875000000011
 20
1064.443665
 11
-521.96875000000011
 21
1064.443665
  0
LINE
  8
_0-0_0
  6
CONTINUOUS
 62
    7
 10
-512.21875000000011
 20
1064.6676640000001
 11
-512.46874999999989
 21
1064.477478
  0
LINE
  8
_0-0_0
  6
CONTINUOUS
 62
    7
 10
-512.21875000000011
 20
1064.2285160000001
 11
-512.46874999999989
 21
1064.233154
  0
LINE
  8
_0-0_0
  6
CONTINUOUS
 62
    7
 10
-512.46874999999989
 20
1064.233154
 11
-521.71875
 21
1064.233154
  0
LINE
  8
_0-0_0
  6
CONTINUOUS
 62
    7
 10
-512.21875000000011
 20
1064.2285160000001
 11
-521.96875000000011
 21
1064.2285160000001
  0
LINE
  8
_0-0_0
  6
CONTINUOUS
 62
    7
 10
-512.21875000000011
 20
1064.443665
 11
-512.46874999999989
 21
1064.233154
  0
LINE
  8
_0-0_0
  6
CONTINUOUS
 62
    7
 10
-512.21875000000011
 20
1064.0245669999999
 11
-512.46874999999989
 21
1064
  0
LINE
  8
_0-0_0
  6
CONTINUOUS
 62
    7
 10
-512.46874999999989
 20
1064
 11
-521.71875
 21
1064
  0
LINE
  8
_0-0_0
  6
CONTINUOUS
 62
    7
 10
-512.21875000000011
 20
1064.2285160000001
 11
-512.46874999999989
 21
1064
  0
LINE
  8
_0-0_0
  6
CONTINUOUS
 62
    7
 10
-521.96875000000011
 20
1063.8340450000001
 11
-521.71875
 21
1063.7805480000002
  0
LINE
  8
_0-0_0
  6
CONTINUOUS
 62
    7
 10
-521.96875000000011
 20
1064.0245669999999
 11
-521.71875
 21
1063.7805480000002
  0
LINE
  8
_0-0_0
  6
CONTINUOUS
 62
    7
 10
-521.96875000000011
 20
1063.6590269999999
 11
-521.71875
 21
1063.5771790000001
  0
LINE
  8
_0-0_0
  6
CONTINUOUS
 62
    7
 10
-521.96875000000011
 20
1063.8340450000001
 11
-521.71875
 21
1063.5771790000001
  0
LINE
  8
_0-0_0
  6
CONTINUOUS
 62
    7
 10
-521.96875000000011
 20
1063.501434
 11
-521.71875
 21
1063.392151
  0
LINE
  8
_0-0_0
  6
CONTINUOUS
 62
    7
 10
-521.96875000000011
 20
1063.6590269999999
 11
-521.71875
 21
1063.392151
  0
LINE
  8
_0-0_0
  6
CONTINUOUS
 62
    7
 10
-521.96875000000011
 20
1063.3630069999999
 11
-521.71875
 21
1063.227478
  0
LINE
  8
_0-0_0
  6
CONTINUOUS
 62
    7
 10
-521.96875000000011
 20
1063.501434
 11
-521.71875
 21
1063.227478
  0
LINE
  8
_0-0_0
  6
CONTINUOUS
 62
    7
 10
-521.96875000000011
 20
1063.2452389999999
 11
-521.71875
 21
1063.084961
  0
LINE
  8
_0-0_0
  6
CONTINUOUS
 62
    7
 10
-521.96875000000011
 20
1063.3630069999999
 11
-521.71875
 21
1063.084961
  0
LINE
  8
_0-0_0
  6
CONTINUOUS
 62
    7
 10
-521.96875000000011
 20
1063.149445
 11
-521.71875
 21
1062.966156
  0
LINE
  8
_0-0_0
  6
CONTINUOUS
 62
    7
 10
-521.96875000000011
 20
1063.2452389999999
 11
-521.71875
 21
1062.966156
  0
LINE
  8
_0-0_0
  6
CONTINUOUS
 62
    7
 10
-521.96875000000011
 20
1063.0766599999999
 11
-521.71875
 21
1062.8723749999999
  0
LINE
  8
_0-0_0
  6
CONTINUOUS
 62
    7
 10
-521.96875000000011
 20
1063.149445
 11
-521.71875
 21
1062.8723749999999
  0
LINE
  8
_0-0_0
  6
CONTINUOUS
 62
    7
 10
-521.96875000000011
 20
1063.0277100000001
 11
-521.71875
 21
1062.8046260000001
  0
LINE
  8
_0-0_0
  6
CONTINUOUS
 62
    7
 10
-521.96875000000011
 20
1063.0766599999999
 11
-521.71875
 21
1062.8046260000001
  0
LINE
  8
_0-0_0
  6
CONTINUOUS
 62
    7
 10
-521.96875000000011
 20
1063.0030819999999
 11
-521.71875
 21
1062.763702
  0
LINE
  8
_0-0_0
  6
CONTINUOUS
 62
    7
 10
-521.96875000000011
 20
1063.0277100000001
 11
-521.71875
 21
1062.763702
  0
LINE
  8
_0-0_0
  6
CONTINUOUS
 62
    7
 10
-521.96875000000011
 20
1063.0030819999999
 11
-521.71875
 21
1062.75
  0
LINE
  8
_0-0_0
  6
CONTINUOUS
 62
    7
 10
-511.96875
 20
1067.0051879999999
 11
-511.96875
 21
1067.25
  0
LINE
  8
_0-0_0
  6
CONTINUOUS
 62
    7
 10
-512.21875000000011
 20
1064.0245669999999
 11
-512.46874999999989
 21
1063.7805480000002
  0
LINE
  8
_0-0_0
  6
CONTINUOUS
 62
    7
 10
-512.21875000000011
 20
1063.8340450000001
 11
-512.46874999999989
 21
1063.7805480000002
  0
LINE
  8
_0-0_0
  6
CONTINUOUS
 62
    7
 10
-512.21875000000011
 20
1063.8340450000001
 11
-512.46874999999989
 21
1063.5771790000001
  0
LINE
  8
_0-0_0
  6
CONTINUOUS
 62
    7
 10
-512.21875000000011
 20
1063.6590269999999
 11
-512.46874999999989
 21
1063.5771790000001
  0
LINE
  8
_0-0_0
  6
CONTINUOUS
 62
    7
 10
-512.21875000000011
 20
1063.6590269999999
 11
-512.46874999999989
 21
1063.392151
  0
LINE
  8
_0-0_0
  6
CONTINUOUS
 62
    7
 10
-512.21875000000011
 20
1063.501434
 11
-512.46874999999989
 21
1063.392151
  0
LINE
  8
_0-0_0
  6
CONTINUOUS
 62
    7
 10
-512.21875000000011
 20
1063.501434
 11
-512.46874999999989
 21
1063.227478
  0
LINE
  8
_0-0_0
  6
CONTINUOUS
 62
    7
 10
-512.21875000000011
 20
1063.3630069999999
 11
-512.46874999999989
 21
1063.227478
  0
LINE
  8
_0-0_0
  6
CONTINUOUS
 62
    7
 10
-512.21875000000011
 20
1063.3630069999999
 11
-512.46874999999989
 21
1063.084961
  0
LINE
  8
_0-0_0
  6
CONTINUOUS
 62
    7
 10
-512.21875000000011
 20
1063.2452389999999
 11
-512.46874999999989
 21
1063.084961
  0
LINE
  8
_0-0_0
  6
CONTINUOUS
 62
    7
 10
-512.21875000000011
 20
1063.2452389999999
 11
-512.46874999999989
 21
1062.966156
  0
LINE
  8
_0-0_0
  6
CONTINUOUS
 62
    7
 10
-512.21875000000011
 20
1063.149445
 11
-512.46874999999989
 21
1062.966156
  0
LINE
  8
_0-0_0
  6
CONTINUOUS
 62
    7
 10
-512.21875000000011
 20
1063.149445
 11
-512.46874999999989
 21
1062.8723749999999
  0
LINE
  8
_0-0_0
  6
CONTINUOUS
 62
    7
 10
-512.21875000000011
 20
1063.0766599999999
 11
-512.46874999999989
 21
1062.8723749999999
  0
LINE
  8
_0-0_0
  6
CONTINUOUS
 62
    7
 10
-512.21875000000011
 20
1063.0766599999999
 11
-512.46874999999989
 21
1062.8046260000001
  0
LINE
  8
_0-0_0
  6
CONTINUOUS
 62
    7
 10
-512.21875000000011
 20
1063.0277100000001
 11
-512.46874999999989
 21
1062.8046260000001
  0
LINE
  8
_0-0_0
  6
CONTINUOUS
 62
    7
 10
-512.21875000000011
 20
1063.0277100000001
 11
-512.46874999999989
 21
1062.763702
  0
LINE
  8
_0-0_0
  6
CONTINUOUS
 62
    7
 10
-512.21875000000011
 20
1063.0030819999999
 11
-512.46874999999989
 21
1062.763702
  0
LINE
  8
_0-0_0
  6
CONTINUOUS
 62
    7
 10
-512.21875000000011
 20
1063.0030819999999
 11
-512.46874999999989
 21
1062.75
  0
LINE
  8
_0-0_0
  6
CONTINUOUS
 62
    7
 10
-511.96875
 20
1063.25
 11
-511.96875
 21
1067.0051879999999
  0
LINE
  8
_0-0_0
  6
CONTINUOUS
 62
    7
 10
-512.46874999999989
 20
1063.7805480000002
 11
-521.71875
 21
1063.7805480000002
  0
LINE
  8
_0-0_0
  6
CONTINUOUS
 62
    7
 10
-512.46874999999989
 20
1063.5771790000001
 11
-521.71875
 21
1063.5771790000001
  0
LINE
  8
_0-0_0
  6
CONTINUOUS
 62
    7
 10
-512.46874999999989
 20
1063.392151
 11
-521.71875
 21
1063.392151
  0
LINE
  8
_0-0_0
  6
CONTINUOUS
 62
    7
 10
-512.46874999999989
 20
1063.227478
 11
-521.71875
 21
1063.227478
  0
LINE
  8
_0-0_0
  6
CONTINUOUS
 62
    7
 10
-512.46874999999989
 20
1063.084961
 11
-521.71875
 21
1063.084961
  0
LINE
  8
_0-0_0
  6
CONTINUOUS
 62
    7
 10
-512.46874999999989
 20
1062.966156
 11
-521.71875
 21
1062.966156
  0
LINE
  8
_0-0_0
  6
CONTINUOUS
 62
    7
 10
-512.46874999999989
 20
1062.8723749999999
 11
-521.71875
 21
1062.8723749999999
  0
LINE
  8
_0-0_0
  6
CONTINUOUS
 62
    7
 10
-512.46874999999989
 20
1062.8046260000001
 11
-521.71875
 21
1062.8046260000001
  0
LINE
  8
_0-0_0
  6
CONTINUOUS
 62
    7
 10
-512.46874999999989
 20
1062.763702
 11
-521.71875
 21
1062.763702
  0
LINE
  8
_0-0_0
  6
CONTINUOUS
 62
    7
 10
-512.46874999999989
 20
1062.75
 11
-521.71875
 21
1062.75
  0
LINE
  8
_0-0_0
  6
CONTINUOUS
 62
    7
 10
-648.96874999999989
 20
1063
 11
-651.42437800000016
 21
1063
  0
LINE
  8
_0-0_0
  6
CONTINUOUS
 62
    7
 10
-650.92334000000017
 20
1067.5
 11
-651.42437800000016
 21
1067.5
  0
LINE
  8
_0-0_0
  6
CONTINUOUS
 62
    7
 10
-651.56872599999997
 20
1063.25
 11
-651.42437800000016
 21
1063
  0
LINE
  8
_0-0_0
  6
CONTINUOUS
 62
    7
 10
-651.56872599999997
 20
1067.25
 11
-651.42437800000016
 21
1067.5
  0
LINE
  8
_0-0_0
  6
CONTINUOUS
 62
    7
 10
-547.96875
 20
1046.400024
 11
-521.96875000000011
 21
1046.400024
  0
LINE
  8
_0-0_0
  6
CONTINUOUS
 62
    7
 10
-547.96875
 20
1050.900024
 11
-521.96875000000011
 21
1050.900024
  0
LINE
  8
_0-0_0
  6
CONTINUOUS
 62
    7
 10
-521.96875000000011
 20
1046.400024
 11
-521.71875
 21
1046.150024
  0
LINE
  8
_0-0_0
  6
CONTINUOUS
 62
    7
 10
-521.96875000000011
 20
1050.900024
 11
-521.71875
 21
1051.150024
  0
LINE
  8
_0-0_0
  6
CONTINUOUS
 62
    7
 10
-525.96874999999989
 20
1062.200012
 11
-527.21875000000011
 21
1063.450012
  0
LINE
  8
_0-0_0
  6
CONTINUOUS
 62
    7
 10
-525.96874999999989
 20
1051.700012
 11
-526.76873800000021
 21
1050.8999940000001
  0
LINE
  8
_0-0_0
  6
CONTINUOUS
 62
    7
 10
-511.96875
 20
1046.650024
 11
-512.46856700000001
 21
1046.1501459999999
  0
LINE
  8
_0-0_0
  6
CONTINUOUS
 62
    7
 10
-511.96875
 20
1050.650024
 11
-512.46856700000001
 21
1051.1498409999999
  0
LINE
  8
_0-0_0
  6
CONTINUOUS
 62
    7
 10
-525.96874999999989
 20
1051.950012
 11
-525.56872599999997
 21
1051.950012
  0
LINE
  8
_0-0_0
  6
CONTINUOUS
 62
    7
 10
-525.96874999999989
 20
1061.950012
 11
-525.56872599999997
 21
1061.950012
  0
LINE
  8
_0-0_0
  6
CONTINUOUS
 62
    7
 10
-524.76873800000033
 20
1052.4118960000001
 11
-525.56872599999997
 21
1051.950012
  0
LINE
  8
_0-0_0
  6
CONTINUOUS
 62
    7
 10
-524.76873800000033
 20
1061.4881290000001
 11
-525.56872599999997
 21
1061.950012
  0
LINE
  8
_0-0_0
  6
CONTINUOUS
 62
    7
 10
-524.76873800000033
 20
1052.950012
 11
-466.76873800000021
 21
1052.950012
  0
LINE
  8
_0-0_0
  6
CONTINUOUS
 62
    7
 10
-524.76873800000033
 20
1060.950012
 11
-466.76873800000021
 21
1060.950012
  0
LINE
  8
_0-0_0
  6
CONTINUOUS
 62
    7
 10
-542.21875000000011
 20
1067.5
 11
-521.96875000000011
 21
1067.5
  0
LINE
  8
_0-0_0
  6
CONTINUOUS
 62
    7
 10
-521.96875000000011
 20
1067.5
 11
-521.71875
 21
1067.75
  0
LINE
  8
_0-0_0
  6
CONTINUOUS
 62
    7
 10
-526.76873800000021
 20
1063
 11
-521.96875000000011
 21
1063
  0
LINE
  8
_0-0_0
  6
CONTINUOUS
 62
    7
 10
-521.96875000000011
 20
1063
 11
-521.71875
 21
1062.75
  0
LINE
  8
_0-0_0
  6
CONTINUOUS
 62
    7
 10
-511.96875
 20
1067.25
 11
-512.46856700000001
 21
1067.749847
  0
LINE
  8
_0-0_0
  6
CONTINUOUS
 62
    7
 10
-511.96875
 20
1063.25
 11
-512.46856700000001
 21
1062.750153
  0
LINE
  8
_0-0_0
  6
CONTINUOUS
 62
    7
 10
2316.0311279999996
 20
1099.150024
 11
2316.0311279999996
 21
1086.150024
  0
LINE
  8
_0-0_0
  6
CONTINUOUS
 62
    7
 10
-656.96875000000011
 20
1099.150024
 11
-656.96875000000011
 21
1086.150024
  0
LINE
  8
_0-0_0
  6
CONTINUOUS
 62
    7
 10
-656.96875000000011
 20
1099.150024
 11
2316.0311279999996
 21
1099.150024
  0
LINE
  8
_0-0_0
  6
CONTINUOUS
 62
    7
 10
-656.96875000000011
 20
1099.150024
 11
-656.96875000000011
 21
1117.75
  0
LINE
  8
_0-0_0
  6
CONTINUOUS
 62
    7
 10
-656.96875000000011
 20
1120.25
 11
-656.96875000000011
 21
1117.75
  0
LINE
  8
_0-0_0
  6
CONTINUOUS
 62
    7
 10
-656.96875000000011
 20
1120.75
 11
-656.96875000000011
 21
1120.25
  0
LINE
  8
_0-0_0
  6
CONTINUOUS
 62
    7
 10
-656.96875000000011
 20
1072.75
 11
-656.96875000000011
 21
1072.25
  0
LINE
  8
_0-0_0
  6
CONTINUOUS
 62
    7
 10
-656.96875000000011
 20
1077.75
 11
-656.96875000000011
 21
1072.75
  0
LINE
  8
_0-0_0
  6
CONTINUOUS
 62
    7
 10
-656.96875000000011
 20
1078.25
 11
-656.96875000000011
 21
1077.75
  0
LINE
  8
_0-0_0
  6
CONTINUOUS
 62
    7
 10
-656.96875000000011
 20
1078.75
 11
-656.96875000000011
 21
1078.25
  0
LINE
  8
_0-0_0
  6
CONTINUOUS
 62
    7
 10
-656.96875000000011
 20
1081.950012
 11
-656.96875000000011
 21
1078.75
  0
LINE
  8
_0-0_0
  6
CONTINUOUS
 62
    7
 10
-656.96875000000011
 20
1081.950012
 11
-656.96875000000011
 21
1086.150024
  0
LINE
  8
_0-0_0
  6
CONTINUOUS
 62
    7
 10
-656.96875000000011
 20
1086.150024
 11
2316.0311279999996
 21
1086.150024
  0
LINE
  8
_0-0_0
  6
CONTINUOUS
 62
    7
 10
2316.0311279999996
 20
1081.950012
 11
2316.0311279999996
 21
1086.150024
  0
LINE
  8
_0-0_0
  6
CONTINUOUS
 62
    7
 10
2316.0311279999996
 20
1078.75
 11
2316.0311279999996
 21
1081.950012
  0
LINE
  8
_0-0_0
  6
CONTINUOUS
 62
    7
 10
2316.0311279999996
 20
1078.75
 11
2316.0311279999996
 21
1078.25
  0
LINE
  8
_0-0_0
  6
CONTINUOUS
 62
    7
 10
2316.0311279999996
 20
1078.25
 11
2316.0311279999996
 21
1077.75
  0
LINE
  8
_0-0_0
  6
CONTINUOUS
 62
    7
 10
2316.0311279999996
 20
1077.75
 11
2316.0311279999996
 21
1072.75
  0
LINE
  8
_0-0_0
  6
CONTINUOUS
 62
    7
 10
2316.0311279999996
 20
1072.75
 11
2316.0311279999996
 21
1072.25
  0
LINE
  8
_0-0_0
  6
CONTINUOUS
 62
    7
 10
2316.0311279999996
 20
1120.75
 11
2316.0311279999996
 21
1120.25
  0
LINE
  8
_0-0_0
  6
CONTINUOUS
 62
    7
 10
2316.0311279999996
 20
1117.75
 11
2316.0311279999996
 21
1120.25
  0
LINE
  8
_0-0_0
  6
CONTINUOUS
 62
    7
 10
2316.0311279999996
 20
1099.150024
 11
2316.0311279999996
 21
1117.75
  0
CIRCLE
  8
_0-0_0
  6
CONTINUOUS
 62
    7
 10
2279.5311280000005
 20
1108.25
 40
6
  0
CIRCLE
  8
_0-0_0
  6
CONTINUOUS
 62
    7
 10
2179.5311279999996
 20
1108.25
 40
6
  0
CIRCLE
  8
_0-0_0
  6
CONTINUOUS
 62
    7
 10
2079.5311280000001
 20
1108.25
 40
6
  0
CIRCLE
  8
_0-0_0
  6
CONTINUOUS
 62
    7
 10
1979.5311280000001
 20
1108.25
 40
6
  0
CIRCLE
  8
_0-0_0
  6
CONTINUOUS
 62
    7
 10
1879.5311279999999
 20
1108.25
 40
6
  0
CIRCLE
  8
_0-0_0
  6
CONTINUOUS
 62
    7
 10
1779.5311279999996
 20
1108.25
 40
6
  0
CIRCLE
  8
_0-0_0
  6
CONTINUOUS
 62
    7
 10
1679.5311280000001
 20
1108.25
 40
6
  0
CIRCLE
  8
_0-0_0
  6
CONTINUOUS
 62
    7
 10
1579.5311279999999
 20
1108.25
 40
6
  0
CIRCLE
  8
_0-0_0
  6
CONTINUOUS
 62
    7
 10
1479.5311279999999
 20
1108.25
 40
6
  0
CIRCLE
  8
_0-0_0
  6
CONTINUOUS
 62
    7
 10
1379.5311279999999
 20
1108.25
 40
6
  0
CIRCLE
  8
_0-0_0
  6
CONTINUOUS
 62
    7
 10
1279.5313719999999
 20
1108.25
 40
6
  0
CIRCLE
  8
_0-0_0
  6
CONTINUOUS
 62
    7
 10
1179.531311
 20
1108.25
 40
6
  0
CIRCLE
  8
_0-0_0
  6
CONTINUOUS
 62
    7
 10
1079.531311
 20
1108.25
 40
6
  0
CIRCLE
  8
_0-0_0
  6
CONTINUOUS
 62
    7
 10
979.53131099999996
 20
1108.25
 40
6
  0
CIRCLE
  8
_0-0_0
  6
CONTINUOUS
 62
    7
 10
879.53131099999996
 20
1108.25
 40
6
  0
CIRCLE
  8
_0-0_0
  6
CONTINUOUS
 62
    7
 10
779.53131099999985
 20
1108.25
 40
6
  0
CIRCLE
  8
_0-0_0
  6
CONTINUOUS
 62
    7
 10
679.53131099999996
 20
1108.25
 40
6
  0
CIRCLE
  8
_0-0_0
  6
CONTINUOUS
 62
    7
 10
579.53131099999996
 20
1108.25
 40
6
  0
CIRCLE
  8
_0-0_0
  6
CONTINUOUS
 62
    7
 10
479.53131100000002
 20
1108.25
 40
6
  0
CIRCLE
  8
_0-0_0
  6
CONTINUOUS
 62
    7
 10
379.5313109999999
 20
1108.25
 40
6
  0
CIRCLE
  8
_0-0_0
  6
CONTINUOUS
 62
    7
 10
279.53124999999994
 20
1108.25
 40
6
  0
CIRCLE
  8
_0-0_0
  6
CONTINUOUS
 62
    7
 10
179.53125
 20
1108.25
 40
6
  0
CIRCLE
  8
_0-0_0
  6
CONTINUOUS
 62
    7
 10
79.531250000000057
 20
1108.25
 40
6
  0
CIRCLE
  8
_0-0_0
  6
CONTINUOUS
 62
    7
 10
-20.468750000000057
 20
1108.25
 40
6
  0
CIRCLE
  8
_0-0_0
  6
CONTINUOUS
 62
    7
 10
-120.46875
 20
1108.25
 40
6
  0
CIRCLE
  8
_0-0_0
  6
CONTINUOUS
 62
    7
 10
-220.46872000000002
 20
1108.25
 40
6
  0
CIRCLE
  8
_0-0_0
  6
CONTINUOUS
 62
    7
 10
-320.46874999999989
 20
1108.25
 40
6
  0
CIRCLE
  8
_0-0_0
  6
CONTINUOUS
 62
    7
 10
-420.46875
 20
1108.25
 40
6
  0
CIRCLE
  8
_0-0_0
  6
CONTINUOUS
 62
    7
 10
-520.46875000000011
 20
1108.25
 40
6
  0
CIRCLE
  8
_0-0_0
  6
CONTINUOUS
 62
    7
 10
-620.46874999999989
 20
1108.25
 40
6
  0
LINE
  8
_0-0_0
  6
CONTINUOUS
 62
    7
 10
-656.96875000000011
 20
1117.75
 11
2316.0311279999996
 21
1117.75
  0
LINE
  8
_0-0_0
  6
CONTINUOUS
 62
    7
 10
-656.96875000000011
 20
1120.75
 11
2316.0311279999996
 21
1120.75
  0
LINE
  8
_0-0_0
  6
CONTINUOUS
 62
    7
 10
-656.96875000000011
 20
1120.25
 11
-659.46874999999989
 21
1120.25
  0
LINE
  8
_0-0_0
  6
CONTINUOUS
 62
    7
 10
-659.46874999999989
 20
1120.25
 11
-659.46874999999989
 21
1119.75
  0
LINE
  8
_0-0_0
  6
CONTINUOUS
 62
    7
 10
-659.46874999999989
 20
1119.75
 11
-659.46874999999989
 21
1079.25
  0
LINE
  8
_0-0_0
  6
CONTINUOUS
 62
    7
 10
-656.96875000000011
 20
1078.75
 11
-659.46874999999989
 21
1078.75
  0
LINE
  8
_0-0_0
  6
CONTINUOUS
 62
    7
 10
-659.46874999999989
 20
1079.25
 11
-659.46874999999989
 21
1078.75
  0
LINE
  8
_0-0_0
  6
CONTINUOUS
 62
    7
 10
-659.46874999999989
 20
1078.75
 11
-659.46874999999989
 21
1077.75
  0
LINE
  8
_0-0_0
  6
CONTINUOUS
 62
    7
 10
-659.46874999999989
 20
1077.75
 11
-659.46874999999989
 21
1073.25
  0
LINE
  8
_0-0_0
  6
CONTINUOUS
 62
    7
 10
-656.96875000000011
 20
1072.75
 11
-659.46874999999989
 21
1072.75
  0
LINE
  8
_0-0_0
  6
CONTINUOUS
 62
    7
 10
-659.46874999999989
 20
1073.25
 11
-659.46874999999989
 21
1072.75
  0
LINE
  8
_0-0_0
  6
CONTINUOUS
 62
    7
 10
-656.96875000000011
 20
1072.25
 11
2316.0311279999996
 21
1072.25
  0
LINE
  8
_0-0_0
  6
CONTINUOUS
 62
    7
 10
-656.96875000000011
 20
1078.25
 11
2316.0311279999996
 21
1078.25
  0
LINE
  8
_0-0_0
  6
CONTINUOUS
 62
    7
 10
-656.96875000000011
 20
1081.950012
 11
2316.0311279999996
 21
1081.950012
  0
LINE
  8
_0-0_0
  6
CONTINUOUS
 62
    7
 10
2316.0311279999996
 20
1120.25
 11
2318.5311280000005
 21
1120.25
  0
LINE
  8
_0-0_0
  6
CONTINUOUS
 62
    7
 10
2318.5311280000005
 20
1120.25
 11
2318.5311280000005
 21
1119.75
  0
LINE
  8
_0-0_0
  6
CONTINUOUS
 62
    7
 10
2318.5311280000005
 20
1119.75
 11
2318.5311280000005
 21
1079.25
  0
LINE
  8
_0-0_0
  6
CONTINUOUS
 62
    7
 10
2316.0311279999996
 20
1078.75
 11
2318.5311280000005
 21
1078.75
  0
LINE
  8
_0-0_0
  6
CONTINUOUS
 62
    7
 10
2318.5311280000005
 20
1079.25
 11
2318.5311280000005
 21
1078.75
  0
LINE
  8
_0-0_0
  6
CONTINUOUS
 62
    7
 10
2318.5311280000005
 20
1078.75
 11
2318.5311280000005
 21
1077.75
  0
LINE
  8
_0-0_0
  6
CONTINUOUS
 62
    7
 10
2318.5311280000005
 20
1077.75
 11
2318.5311280000005
 21
1073.25
  0
LINE
  8
_0-0_0
  6
CONTINUOUS
 62
    7
 10
2316.0311279999996
 20
1072.75
 11
2318.5311280000005
 21
1072.75
  0
LINE
  8
_0-0_0
  6
CONTINUOUS
 62
    7
 10
2318.5311280000005
 20
1073.25
 11
2318.5311280000005
 21
1072.75
  0
ARC
  8
_0-0_0
  6
CONTINUOUS
 62
    7
 10
-599.46874999999989
 20
1073.25
 40
0.5
 50
269.99999700000001
 51
0
  0
LINE
  8
_0-0_0
  6
CONTINUOUS
 62
    7
 10
-599.46874999999989
 20
1072.75
 11
-606.46875
 21
1072.75
  0
ARC
  8
_0-0_0
  6
CONTINUOUS
 62
    7
 10
-606.46875
 20
1073.25
 40
0.5
 50
179.99999099999999
 51
269.99999700000001
  0
LINE
  8
_0-0_0
  6
CONTINUOUS
 62
    7
 10
-606.96874999999989
 20
1077.25
 11
-606.96874999999989
 21
1073.25
  0
ARC
  8
_0-0_0
  6
CONTINUOUS
 62
    7
 10
-606.46875
 20
1077.25
 40
0.5
 50
90.000003000000007
 51
179.99999099999999
  0
ARC
  8
_0-0_0
  6
CONTINUOUS
 62
    7
 10
-599.46874999999989
 20
1077.25
 40
0.5
 50
0
 51
90.000003000000007
  0
LINE
  8
_0-0_0
  6
CONTINUOUS
 62
    7
 10
-606.46875
 20
1077.75
 11
-599.46874999999989
 21
1077.75
  0
LINE
  8
_0-0_0
  6
CONTINUOUS
 62
    7
 10
2316.0311279999996
 20
1120.75
 11
2316.0311279999996
 21
1120.450012
  0
LINE
  8
_0-0_0
  6
CONTINUOUS
 62
    7
 10
2316.0311279999996
 20
1120.450012
 11
2316.0311279999996
 21
1120.25
  0
CIRCLE
  8
_0-0_0
  6
CONTINUOUS
 62
    7
 10
2279.5311280000005
 20
1108.25
 40
5.5
  0
CIRCLE
  8
_0-0_0
  6
CONTINUOUS
 62
    7
 10
2179.5311279999996
 20
1108.25
 40
5.5
  0
CIRCLE
  8
_0-0_0
  6
CONTINUOUS
 62
    7
 10
2079.5311280000001
 20
1108.25
 40
5.5
  0
CIRCLE
  8
_0-0_0
  6
CONTINUOUS
 62
    7
 10
1979.5311280000001
 20
1108.25
 40
5.5
  0
CIRCLE
  8
_0-0_0
  6
CONTINUOUS
 62
    7
 10
1879.5311279999999
 20
1108.25
 40
5.5
  0
CIRCLE
  8
_0-0_0
  6
CONTINUOUS
 62
    7
 10
1779.5311279999996
 20
1108.25
 40
5.5
  0
CIRCLE
  8
_0-0_0
  6
CONTINUOUS
 62
    7
 10
1679.5311280000001
 20
1108.25
 40
5.5
  0
CIRCLE
  8
_0-0_0
  6
CONTINUOUS
 62
    7
 10
1579.5311279999999
 20
1108.25
 40
5.5
  0
CIRCLE
  8
_0-0_0
  6
CONTINUOUS
 62
    7
 10
1479.5311279999999
 20
1108.25
 40
5.5
  0
CIRCLE
  8
_0-0_0
  6
CONTINUOUS
 62
    7
 10
1379.5311279999999
 20
1108.25
 40
5.5
  0
CIRCLE
  8
_0-0_0
  6
CONTINUOUS
 62
    7
 10
1279.5313719999999
 20
1108.25
 40
5.5
  0
CIRCLE
  8
_0-0_0
  6
CONTINUOUS
 62
    7
 10
1179.531311
 20
1108.25
 40
5.5
  0
CIRCLE
  8
_0-0_0
  6
CONTINUOUS
 62
    7
 10
1079.531311
 20
1108.25
 40
5.5
  0
CIRCLE
  8
_0-0_0
  6
CONTINUOUS
 62
    7
 10
979.53131099999996
 20
1108.25
 40
5.5
  0
CIRCLE
  8
_0-0_0
  6
CONTINUOUS
 62
    7
 10
879.53131099999996
 20
1108.25
 40
5.5
  0
CIRCLE
  8
_0-0_0
  6
CONTINUOUS
 62
    7
 10
779.53131099999985
 20
1108.25
 40
5.5
  0
CIRCLE
  8
_0-0_0
  6
CONTINUOUS
 62
    7
 10
679.53131099999996
 20
1108.25
 40
5.5
  0
CIRCLE
  8
_0-0_0
  6
CONTINUOUS
 62
    7
 10
579.53131099999996
 20
1108.25
 40
5.5
  0
CIRCLE
  8
_0-0_0
  6
CONTINUOUS
 62
    7
 10
479.53131100000002
 20
1108.25
 40
5.5
  0
CIRCLE
  8
_0-0_0
  6
CONTINUOUS
 62
    7
 10
379.5313109999999
 20
1108.25
 40
5.5
  0
CIRCLE
  8
_0-0_0
  6
CONTINUOUS
 62
    7
 10
279.53124999999994
 20
1108.25
 40
5.5
  0
CIRCLE
  8
_0-0_0
  6
CONTINUOUS
 62
    7
 10
179.53125
 20
1108.25
 40
5.5
  0
CIRCLE
  8
_0-0_0
  6
CONTINUOUS
 62
    7
 10
79.531250000000057
 20
1108.25
 40
5.5
  0
CIRCLE
  8
_0-0_0
  6
CONTINUOUS
 62
    7
 10
-20.468750000000057
 20
1108.25
 40
5.5
  0
CIRCLE
  8
_0-0_0
  6
CONTINUOUS
 62
    7
 10
-120.46875
 20
1108.25
 40
5.5
  0
CIRCLE
  8
_0-0_0
  6
CONTINUOUS
 62
    7
 10
-220.46872000000002
 20
1108.25
 40
5.5
  0
CIRCLE
  8
_0-0_0
  6
CONTINUOUS
 62
    7
 10
-320.46874999999989
 20
1108.25
 40
5.5
  0
CIRCLE
  8
_0-0_0
  6
CONTINUOUS
 62
    7
 10
-420.46875
 20
1108.25
 40
5.5
  0
CIRCLE
  8
_0-0_0
  6
CONTINUOUS
 62
    7
 10
-520.46875000000011
 20
1108.25
 40
5.5
  0
CIRCLE
  8
_0-0_0
  6
CONTINUOUS
 62
    7
 10
-620.46874999999989
 20
1108.25
 40
5.5
  0
LINE
  8
_0-0_0
  6
CONTINUOUS
 62
    7
 10
-598.96875
 20
1073.25
 11
-598.96875
 21
1077.25
  0
CIRCLE
  8
_0-0_0
  6
CONTINUOUS
 62
    7
 10
2279.5311280000005
 20
1108.25
 40
3.5
  0
CIRCLE
  8
_0-0_0
  6
CONTINUOUS
 62
    7
 10
2179.5311279999996
 20
1108.25
 40
3.5
  0
CIRCLE
  8
_0-0_0
  6
CONTINUOUS
 62
    7
 10
2079.5311280000001
 20
1108.25
 40
3.5
  0
CIRCLE
  8
_0-0_0
  6
CONTINUOUS
 62
    7
 10
1979.5311280000001
 20
1108.25
 40
3.5
  0
CIRCLE
  8
_0-0_0
  6
CONTINUOUS
 62
    7
 10
1879.5311279999999
 20
1108.25
 40
3.5
  0
CIRCLE
  8
_0-0_0
  6
CONTINUOUS
 62
    7
 10
1779.5311279999996
 20
1108.25
 40
3.5
  0
CIRCLE
  8
_0-0_0
  6
CONTINUOUS
 62
    7
 10
1679.5311280000001
 20
1108.25
 40
3.5
  0
CIRCLE
  8
_0-0_0
  6
CONTINUOUS
 62
    7
 10
1579.5311279999999
 20
1108.25
 40
3.5
  0
CIRCLE
  8
_0-0_0
  6
CONTINUOUS
 62
    7
 10
1479.5311279999999
 20
1108.25
 40
3.5
  0
CIRCLE
  8
_0-0_0
  6
CONTINUOUS
 62
    7
 10
1379.5311279999999
 20
1108.25
 40
3.5
  0
CIRCLE
  8
_0-0_0
  6
CONTINUOUS
 62
    7
 10
1279.5313719999999
 20
1108.25
 40
3.5
  0
CIRCLE
  8
_0-0_0
  6
CONTINUOUS
 62
    7
 10
1179.531311
 20
1108.25
 40
3.5
  0
CIRCLE
  8
_0-0_0
  6
CONTINUOUS
 62
    7
 10
1079.531311
 20
1108.25
 40
3.5
  0
CIRCLE
  8
_0-0_0
  6
CONTINUOUS
 62
    7
 10
979.53131099999996
 20
1108.25
 40
3.5
  0
CIRCLE
  8
_0-0_0
  6
CONTINUOUS
 62
    7
 10
879.53131099999996
 20
1108.25
 40
3.5
  0
CIRCLE
  8
_0-0_0
  6
CONTINUOUS
 62
    7
 10
779.53131099999985
 20
1108.25
 40
3.5
  0
CIRCLE
  8
_0-0_0
  6
CONTINUOUS
 62
    7
 10
679.53131099999996
 20
1108.25
 40
3.5
  0
CIRCLE
  8
_0-0_0
  6
CONTINUOUS
 62
    7
 10
579.53131099999996
 20
1108.25
 40
3.5
  0
CIRCLE
  8
_0-0_0
  6
CONTINUOUS
 62
    7
 10
479.53131100000002
 20
1108.25
 40
3.5
  0
CIRCLE
  8
_0-0_0
  6
CONTINUOUS
 62
    7
 10
379.5313109999999
 20
1108.25
 40
3.5
  0
CIRCLE
  8
_0-0_0
  6
CONTINUOUS
 62
    7
 10
279.53124999999994
 20
1108.25
 40
3.5
  0
CIRCLE
  8
_0-0_0
  6
CONTINUOUS
 62
    7
 10
179.53125
 20
1108.25
 40
3.5
  0
CIRCLE
  8
_0-0_0
  6
CONTINUOUS
 62
    7
 10
79.531250000000057
 20
1108.25
 40
3.5
  0
CIRCLE
  8
_0-0_0
  6
CONTINUOUS
 62
    7
 10
-20.468750000000057
 20
1108.25
 40
3.5
  0
CIRCLE
  8
_0-0_0
  6
CONTINUOUS
 62
    7
 10
-120.46875
 20
1108.25
 40
3.5
  0
CIRCLE
  8
_0-0_0
  6
CONTINUOUS
 62
    7
 10
-220.46872000000002
 20
1108.25
 40
3.5
  0
CIRCLE
  8
_0-0_0
  6
CONTINUOUS
 62
    7
 10
-320.46874999999989
 20
1108.25
 40
3.5
  0
CIRCLE
  8
_0-0_0
  6
CONTINUOUS
 62
    7
 10
-420.46875
 20
1108.25
 40
3.5
  0
CIRCLE
  8
_0-0_0
  6
CONTINUOUS
 62
    7
 10
-520.46875000000011
 20
1108.25
 40
3.5
  0
CIRCLE
  8
_0-0_0
  6
CONTINUOUS
 62
    7
 10
-620.46874999999989
 20
1108.25
 40
3.5
  0
ARC
  8
_0-0_0
  6
CONTINUOUS
 62
    7
 10
-601.66870100000006
 20
1076.950012
 40
0.2
 50
339.62356199999999
 51
90.000002999999978
  0
LINE
  8
_0-0_0
  6
CONTINUOUS
 62
    7
 10
-601.48126200000024
 20
1076.880371
 11
-602.78125000000011
 21
1073.380371
  0
ARC
  8
_0-0_0
  6
CONTINUOUS
 62
    7
 10
-602.96875000000011
 20
1073.450012
 40
0.2
 50
200.37643
 51
339.62356199999999
  0
LINE
  8
_0-0_0
  6
CONTINUOUS
 62
    7
 10
-604.45623800000033
 20
1076.880371
 11
-603.15625000000011
 21
1073.380371
  0
ARC
  8
_0-0_0
  6
CONTINUOUS
 62
    7
 10
-604.26873800000033
 20
1076.950012
 40
0.2
 50
90.000003000000007
 51
200.37643
  0
LINE
  8
_0-0_0
  6
CONTINUOUS
 62
    7
 10
-604.26873800000033
 20
1077.150024
 11
-601.66870100000006
 21
1077.150024
  0
ARC
  8
_0-0_0
  6
CONTINUOUS
 62
    7
 10
2235.7310789999997
 20
1076.950012
 40
0.2
 50
90.000003000000007
 51
200.37643
  0
LINE
  8
_0-0_0
  6
CONTINUOUS
 62
    7
 10
2235.7310789999997
 20
1077.150024
 11
2238.331177
 21
1077.150024
  0
ARC
  8
_0-0_0
  6
CONTINUOUS
 62
    7
 10
2233.5311279999996
 20
1077.25
 40
0.5
 50
90.000003000000007
 51
179.99999099999999
  0
LINE
  8
_0-0_0
  6
CONTINUOUS
 62
    7
 10
2233.0311279999996
 20
1077.25
 11
2233.0311279999996
 21
1073.25
  0
ARC
  8
_0-0_0
  6
CONTINUOUS
 62
    7
 10
2233.5311279999996
 20
1073.25
 40
0.5
 50
179.99999099999999
 51
269.99999700000001
  0
LINE
  8
_0-0_0
  6
CONTINUOUS
 62
    7
 10
2240.5311279999996
 20
1072.75
 11
2233.5311279999996
 21
1072.75
  0
ARC
  8
_0-0_0
  6
CONTINUOUS
 62
    7
 10
2240.5311279999996
 20
1073.25
 40
0.5
 50
269.99999700000001
 51
0
  0
LINE
  8
_0-0_0
  6
CONTINUOUS
 62
    7
 10
2241.0311279999996
 20
1073.25
 11
2241.0311279999996
 21
1077.25
  0
ARC
  8
_0-0_0
  6
CONTINUOUS
 62
    7
 10
2240.5311279999996
 20
1077.25
 40
0.5
 50
0
 51
90.000003000000007
  0
LINE
  8
_0-0_0
  6
CONTINUOUS
 62
    7
 10
2233.5311279999996
 20
1077.75
 11
2240.5311279999996
 21
1077.75
  0
LINE
  8
_0-0_0
  6
CONTINUOUS
 62
    7
 10
2235.5435789999997
 20
1076.880371
 11
2236.8436280000001
 21
1073.380371
  0
ARC
  8
_0-0_0
  6
CONTINUOUS
 62
    7
 10
2237.0311280000001
 20
1073.450012
 40
0.2
 50
200.37643
 51
339.62356199999999
  0
LINE
  8
_0-0_0
  6
CONTINUOUS
 62
    7
 10
2238.518677
 20
1076.880371
 11
2237.2186280000001
 21
1073.380371
  0
ARC
  8
_0-0_0
  6
CONTINUOUS
 62
    7
 10
2238.331177
 20
1076.950012
 40
0.2
 50
339.62356199999999
 51
90.000002999999978
  0
LINE
  8
_0-0_0
  6
CONTINUOUS
 62
    7
 10
-714.89337199999989
 20
1070.25
 11
-714.79339599999992
 21
1070.25
  0
LINE
  8
_0-0_0
  6
CONTINUOUS
 62
    7
 10
-699.09338400000024
 20
1070.25
 11
-699.79339599999992
 21
1070.25
  0
LINE
  8
_0-0_0
  6
CONTINUOUS
 62
    7
 10
-699.09338400000024
 20
1070.25
 11
-697.893372
 21
1070.25
  0
ARC
  8
_0-0_0
  6
CONTINUOUS
 62
    7
 10
-697.893372
 20
1069.75
 40
0.5
 50
0
 51
90.000003000000007
  0
ARC
  8
_0-0_0
  6
CONTINUOUS
 62
    7
 10
-699.09338400000024
 20
1069.75
 40
0.5
 50
90.000003000000007
 51
179.99999099999999
  0
ARC
  8
_0-0_0
  6
CONTINUOUS
 62
    7
 10
-714.89337199999989
 20
1069.75
 40
0.5
 50
90.000003000000007
 51
179.99999099999999
  0
ARC
  8
_0-0_0
  6
CONTINUOUS
 62
    7
 10
-713.39337199999989
 20
1070.75
 40
0.5
 50
90.000003000000007
 51
126.868797
  0
LINE
  8
_0-0_0
  6
CONTINUOUS
 62
    7
 10
-711.89337199999989
 20
1071.25
 11
-713.39337199999989
 21
1071.25
  0
ARC
  8
_0-0_0
  6
CONTINUOUS
 62
    7
 10
-711.89337199999989
 20
1072.25
 40
1
 50
269.99999700000001
 51
0
  0
LINE
  8
_0-0_0
  6
CONTINUOUS
 62
    7
 10
-710.89337200000011
 20
1072.75
 11
-710.89337200000011
 21
1072.25
  0
LINE
  8
_0-0_0
  6
CONTINUOUS
 62
    7
 10
-710.39337199999989
 20
1072.75
 11
-710.39337199999989
 21
1071.75
  0
ARC
  8
_0-0_0
  6
CONTINUOUS
 62
    7
 10
-711.89337199999989
 20
1071.75
 40
1.5
 50
336.42205899999999
 51
0
  0
ARC
  8
_0-0_0
  6
CONTINUOUS
 62
    7
 10
-700.29339600000014
 20
1071.75
 40
1.5
 50
179.99999099999999
 51
203.57793100000001
  0
LINE
  8
_0-0_0
  6
CONTINUOUS
 62
    7
 10
-698.29339599999992
 20
1070.75
 11
-698.29339599999992
 21
1070.25
  0
ARC
  8
_0-0_0
  6
CONTINUOUS
 62
    7
 10
-698.79339600000014
 20
1070.75
 40
0.5
 50
0
 51
90.000003000000007
  0
LINE
  8
_0-0_0
  6
CONTINUOUS
 62
    7
 10
-700.29339600000014
 20
1071.25
 11
-698.79339600000014
 21
1071.25
  0
ARC
  8
_0-0_0
  6
CONTINUOUS
 62
    7
 10
-700.29339600000014
 20
1072.25
 40
1
 50
179.99999099999999
 51
269.99999700000001
  0
LINE
  8
_0-0_0
  6
CONTINUOUS
 62
    7
 10
-701.29339599999992
 20
1072.75
 11
-701.29339599999992
 21
1072.25
  0
LINE
  8
_0-0_0
  6
CONTINUOUS
 62
    7
 10
-701.79339600000014
 20
1072.75
 11
-701.79339600000014
 21
1071.75
  0
LINE
  8
_0-0_0
  6
CONTINUOUS
 62
    7
 10
-697.39337200000011
 20
1043.25
 11
-697.39337200000011
 21
1044.150024
  0
LINE
  8
_0-0_0
  6
CONTINUOUS
 62
    7
 10
-697.39337200000011
 20
1044.150024
 11
-697.39337200000011
 21
1046.650024
  0
LINE
  8
_0-0_0
  6
CONTINUOUS
 62
    7
 10
-697.39337200000011
 20
1046.650024
 11
-697.39337200000011
 21
1067.25
  0
LINE
  8
_0-0_0
  6
CONTINUOUS
 62
    7
 10
-697.39337200000011
 20
1067.25
 11
-697.39337200000011
 21
1069.75
  0
LINE
  8
_0-0_0
  6
CONTINUOUS
 62
    7
 10
-699.59338400000013
 20
1069.75
 11
-699.59338400000013
 21
1068.505005
  0
LINE
  8
_0-0_0
  6
CONTINUOUS
 62
    7
 10
-701.99340799999993
 20
1071.150024
 11
-701.99340799999993
 21
1072.5500180000001
  0
ARC
  8
_0-0_0
  6
CONTINUOUS
 62
    7
 10
-702.49340800000016
 20
1072.5500180000001
 40
0.5
 50
0
 51
23.579369
  0
LINE
  8
_0-0_0
  6
CONTINUOUS
 62
    7
 10
-710.1933590000001
 20
1071.150024
 11
-710.1933590000001
 21
1072.5500180000001
  0
ARC
  8
_0-0_0
  6
CONTINUOUS
 62
    7
 10
-709.69335900000021
 20
1072.5500180000001
 40
0.5
 50
156.420635
 51
179.99999099999999
  0
LINE
  8
_0-0_0
  6
CONTINUOUS
 62
    7
 10
-715.39337200000011
 20
1043.25
 11
-715.39337200000011
 21
1053.450012
  0
LINE
  8
_0-0_0
  6
CONTINUOUS
 62
    7
 10
-715.39337200000011
 20
1053.450012
 11
-715.39337200000011
 21
1054.450012
  0
LINE
  8
_0-0_0
  6
CONTINUOUS
 62
    7
 10
-715.39337200000011
 20
1054.450012
 11
-715.39337200000011
 21
1059.450012
  0
LINE
  8
_0-0_0
  6
CONTINUOUS
 62
    7
 10
-715.39337200000011
 20
1059.450012
 11
-715.39337200000011
 21
1060.450012
  0
LINE
  8
_0-0_0
  6
CONTINUOUS
 62
    7
 10
-715.39337200000011
 20
1069.75
 11
-715.39337200000011
 21
1060.450012
  0
ARC
  8
_0-0_0
  6
CONTINUOUS
 62
    7
 10
-714.29339600000003
 20
1059.450012
 40
0.5
 50
0
 51
90.000003000000007
  0
LINE
  8
_0-0_0
  6
CONTINUOUS
 62
    7
 10
-714.19335900000021
 20
1060.400024
 11
-714.29339600000003
 21
1060.400024
  0
ARC
  8
_0-0_0
  6
CONTINUOUS
 62
    7
 10
-714.19335900000021
 20
1059.900024
 40
0.5
 50
0
 51
90.000003000000007
  0
LINE
  8
_0-0_0
  6
CONTINUOUS
 62
    7
 10
-713.79339600000014
 20
1059.450012
 11
-713.79339600000014
 21
1054.450012
  0
ARC
  8
_0-0_0
  6
CONTINUOUS
 62
    7
 10
-714.29339600000003
 20
1054.450012
 40
0.5
 50
269.99999700000001
 51
0
  0
ARC
  8
_0-0_0
  6
CONTINUOUS
 62
    7
 10
-714.19335900000021
 20
1054.3500059999999
 40
0.5
 50
269.99999700000001
 51
0
  0
LINE
  8
_0-0_0
  6
CONTINUOUS
 62
    7
 10
-714.29339600000003
 20
1053.8500060000001
 11
-714.19335900000021
 21
1053.8500060000001
  0
LINE
  8
_0-0_0
  6
CONTINUOUS
 62
    7
 10
-696.59338400000013
 20
1068.75
 11
-697.39337200000011
 21
1068.75
  0
LINE
  8
_0-0_0
  6
CONTINUOUS
 62
    7
 10
-696.59338400000013
 20
1069.5500180000001
 11
-697.39337200000011
 21
1069.5500180000001
  0
LINE
  8
_0-0_0
  6
CONTINUOUS
 62
    7
 10
-696.59338400000013
 20
1068.5500179999999
 11
-696.59338400000013
 21
1069.5500180000001
  0
LINE
  8
_0-0_0
  6
CONTINUOUS
 62
    7
 10
-696.59338400000013
 20
1049.950012
 11
-697.39337200000011
 21
1049.950012
  0
LINE
  8
_0-0_0
  6
CONTINUOUS
 62
    7
 10
-696.59338400000013
 20
1049.950012
 11
-696.59338400000013
 21
1052.950012
  0
LINE
  8
_0-0_0
  6
CONTINUOUS
 62
    7
 10
-696.59338400000013
 20
1065.1877139999999
 11
-696.59338400000013
 21
1052.950012
  0
LINE
  8
_0-0_0
  6
CONTINUOUS
 62
    7
 10
-696.59338400000013
 20
1065.1877139999999
 11
-696.59338400000013
 21
1066.150482
  0
LINE
  8
_0-0_0
  6
CONTINUOUS
 62
    7
 10
-697.39337200000011
 20
1066.150482
 11
-697.39337200000011
 21
1068.75
  0
ARC
  8
_0-0_0
  6
CONTINUOUS
 62
    7
 10
-703.00830099999996
 20
1065.4320680000001
 40
5.7120379999999997
 50
18.558475999999999
 51
26.433648000000002
  0
ARC
  8
_0-0_0
  6
CONTINUOUS
 62
    7
 10
-697.59338400000024
 20
1067.25
 40
0.2
 50
269.99999700000001
 51
0
  0
ARC
  8
_0-0_0
  6
CONTINUOUS
 62
    7
 10
-697.59338400000024
 20
1046.650024
 40
0.2
 50
0
 51
90.000003000000007
  0
ARC
  8
_0-0_0
  6
CONTINUOUS
 62
    7
 10
-703.00817899999993
 20
1048.468048
 40
5.711964
 50
333.565022
 51
341.44031000000001
  0
ARC
  8
_0-0_0
  6
CONTINUOUS
 62
    7
 10
-697.893372
 20
1044.150024
 40
0.5
 50
269.99999700000001
 51
0
  0
LINE
  8
_0-0_0
  6
CONTINUOUS
 62
    7
 10
-697.893372
 20
1043.25
 11
-697.39337200000011
 21
1043.25
  0
LINE
  8
_0-0_0
  6
CONTINUOUS
 62
    7
 10
-697.39337200000011
 20
1043.25
 11
-697.893372
 21
1042.75
  0
ARC
  8
_0-0_0
  6
CONTINUOUS
 62
    7
 10
-699.59338400000013
 20
1065.75
 40
2.2999999999999998
 50
34.417387999999995
 51
79.713437000000013
  0
LINE
  8
_0-0_0
  6
CONTINUOUS
 62
    7
 10
-697.65472399999987
 20
1067.0500179999999
 11
-697.69604500000025
 21
1067.0500179999999
  0
LINE
  8
_0-0_0
  6
CONTINUOUS
 62
    7
 10
-697.65472399999987
 20
1067.0500179999999
 11
-697.64514200000019
 21
1067.051025
  0
LINE
  8
_0-0_0
  6
CONTINUOUS
 62
    7
 10
-697.64514200000019
 20
1067.051025
 11
-697.63562000000002
 21
1067.0542300000002
  0
LINE
  8
_0-0_0
  6
CONTINUOUS
 62
    7
 10
-697.63562000000002
 20
1067.0542300000002
 11
-697.62640400000009
 21
1067.0596310000001
  0
LINE
  8
_0-0_0
  6
CONTINUOUS
 62
    7
 10
-697.62640400000009
 20
1067.0596310000001
 11
-697.61761500000011
 21
1067.067139
  0
LINE
  8
_0-0_0
  6
CONTINUOUS
 62
    7
 10
-697.61761500000011
 20
1067.067139
 11
-697.60217300000022
 21
1067.087769
  0
LINE
  8
_0-0_0
  6
CONTINUOUS
 62
    7
 10
-697.60217300000022
 20
1067.087769
 11
-697.59045400000014
 21
1067.115051
  0
LINE
  8
_0-0_0
  6
CONTINUOUS
 62
    7
 10
-697.59045400000014
 20
1067.115051
 11
-697.58325200000024
 21
1067.1471860000001
  0
LINE
  8
_0-0_0
  6
CONTINUOUS
 62
    7
 10
-697.58325200000024
 20
1067.1471860000001
 11
-697.58136000000025
 21
1067.182251
  0
LINE
  8
_0-0_0
  6
CONTINUOUS
 62
    7
 10
-697.58136000000025
 20
1067.182251
 11
-697.58520500000009
 21
1067.2184139999999
  0
LINE
  8
_0-0_0
  6
CONTINUOUS
 62
    7
 10
-697.58520500000009
 20
1067.2184139999999
 11
-697.59338400000024
 21
1067.25
  0
ARC
  8
_0-0_0
  6
CONTINUOUS
 62
    7
 10
-699.09338400000024
 20
1068.505005
 40
0.5
 50
179.99999099999999
 51
259.71343899999994
  0
LINE
  8
_0-0_0
  6
CONTINUOUS
 62
    7
 10
-699.79339599999992
 20
1068.6000059999999
 11
-699.79339599999992
 21
1068.3065799999999
  0
LINE
  8
_0-0_0
  6
CONTINUOUS
 62
    7
 10
-699.79339599999992
 20
1068.6000059999999
 11
-699.79339599999992
 21
1070.650024
  0
ARC
  8
_0-0_0
  6
CONTINUOUS
 62
    7
 10
-700.29339600000014
 20
1070.650024
 40
0.5
 50
0
 51
90.000003000000007
  0
LINE
  8
_0-0_0
  6
CONTINUOUS
 62
    7
 10
-700.29339600000014
 20
1071.150024
 11
-703.03625499999998
 21
1071.150024
  0
ARC
  8
_0-0_0
  6
CONTINUOUS
 62
    7
 10
-714.29339600000003
 20
1060.900024
 40
0.5
 50
179.99999099999999
 51
269.99999700000001
  0
LINE
  8
_0-0_0
  6
CONTINUOUS
 62
    7
 10
-714.79339599999992
 20
1070.650024
 11
-714.79339599999992
 21
1060.900024
  0
LINE
  8
_0-0_0
  6
CONTINUOUS
 62
    7
 10
-709.15051300000005
 20
1071.150024
 11
-714.29339600000003
 21
1071.150024
  0
ARC
  8
_0-0_0
  6
CONTINUOUS
 62
    7
 10
-714.29339600000003
 20
1070.650024
 40
0.5
 50
90.000003000000007
 51
179.99999099999999
  0
LINE
  8
_0-0_0
  6
CONTINUOUS
 62
    7
 10
-715.59338400000024
 20
1068.75
 11
-715.39337200000011
 21
1068.75
  0
LINE
  8
_0-0_0
  6
CONTINUOUS
 62
    7
 10
-715.59338400000024
 20
1069.5500180000001
 11
-715.39337200000011
 21
1069.5500180000001
  0
LINE
  8
_0-0_0
  6
CONTINUOUS
 62
    7
 10
-715.59338400000024
 20
1069.5500180000001
 11
-715.59338400000024
 21
1068.7501219999999
  0
LINE
  8
_0-0_0
  6
CONTINUOUS
 62
    7
 10
-715.59338400000024
 20
1049.950012
 11
-715.39337200000011
 21
1049.950012
  0
LINE
  8
_0-0_0
  6
CONTINUOUS
 62
    7
 10
-715.59338400000024
 20
1052.950012
 11
-715.59338400000024
 21
1049.950012
  0
LINE
  8
_0-0_0
  6
CONTINUOUS
 62
    7
 10
-715.59338400000024
 20
1065.1877139999999
 11
-715.59338400000024
 21
1052.950012
  0
LINE
  8
_0-0_0
  6
CONTINUOUS
 62
    7
 10
-715.59338400000024
 20
1066.150482
 11
-715.59338400000024
 21
1065.1877139999999
  0
ARC
  8
_0-0_0
  6
CONTINUOUS
 62
    7
 10
-714.89337199999989
 20
1059.450012
 40
0.5
 50
90.000003000000007
 51
179.99999099999999
  0
ARC
  8
_0-0_0
  6
CONTINUOUS
 62
    7
 10
-714.89337199999989
 20
1054.450012
 40
0.5
 50
179.99999099999999
 51
269.99999700000001
  0
LINE
  8
_0-0_0
  6
CONTINUOUS
 62
    7
 10
-715.39337200000011
 20
1043.25
 11
-714.89337199999989
 21
1043.25
  0
LINE
  8
_0-0_0
  6
CONTINUOUS
 62
    7
 10
-715.39337200000011
 20
1043.25
 11
-714.89337199999989
 21
1042.75
  0
LINE
  8
_0-0_0
  6
CONTINUOUS
 62
    7
 10
-714.29339600000003
 20
1059.950012
 11
-714.89337199999989
 21
1059.950012
  0
LINE
  8
_0-0_0
  6
CONTINUOUS
 62
    7
 10
-713.69335899999999
 20
1059.900024
 11
-713.69335899999999
 21
1054.3500059999999
  0
LINE
  8
_0-0_0
  6
CONTINUOUS
 62
    7
 10
-697.893372
 20
1043.25
 11
-714.89337199999989
 21
1043.25
  0
LINE
  8
_0-0_0
  6
CONTINUOUS
 62
    7
 10
-714.89337199999989
 20
1053.950012
 11
-714.29339600000003
 21
1053.950012
  0
ARC
  8
_0-0_0
  6
CONTINUOUS
 62
    7
 10
-714.29339600000003
 20
1053.3500060000001
 40
0.5
 50
90.000003000000007
 51
179.99999099999999
  0
LINE
  8
_0-0_0
  6
CONTINUOUS
 62
    7
 10
-696.59338400000013
 20
1066.150482
 11
-696.59338400000013
 21
1068.75
  0
LINE
  8
_0-0_0
  6
CONTINUOUS
 62
    7
 10
-697.59338400000024
 20
1067.0500179999999
 11
-697.65472399999987
 21
1067.0500179999999
  0
LINE
  8
_0-0_0
  6
CONTINUOUS
 62
    7
 10
-697.69604500000025
 20
1067.0500179999999
 11
-697.69824199999982
 21
1067.0500179999999
  0
LINE
  8
_0-0_0
  6
CONTINUOUS
 62
    7
 10
-697.82989499999996
 20
1047.0500180000001
 11
-697.79296900000008
 21
1046.9797669999998
  0
LINE
  8
_0-0_0
  6
CONTINUOUS
 62
    7
 10
-697.79296900000008
 20
1046.9797669999998
 11
-697.7733770000001
 21
1046.9453129999999
  0
LINE
  8
_0-0_0
  6
CONTINUOUS
 62
    7
 10
-697.7733770000001
 20
1046.9453129999999
 11
-697.74731500000007
 21
1046.9034419999998
  0
LINE
  8
_0-0_0
  6
CONTINUOUS
 62
    7
 10
-697.74731500000007
 20
1046.9034419999998
 11
-697.73400900000024
 21
1046.884399
  0
LINE
  8
_0-0_0
  6
CONTINUOUS
 62
    7
 10
-697.73400900000024
 20
1046.884399
 11
-697.71563700000024
 21
1046.86203
  0
LINE
  8
_0-0_0
  6
CONTINUOUS
 62
    7
 10
-697.71563700000024
 20
1046.86203
 11
-697.70281999999986
 21
1046.85141
  0
LINE
  8
_0-0_0
  6
CONTINUOUS
 62
    7
 10
-697.70281999999986
 20
1046.85141
 11
-697.69824199999982
 21
1046.8500059999999
  0
LINE
  8
_0-0_0
  6
CONTINUOUS
 62
    7
 10
-697.69604500000025
 20
1046.8500059999999
 11
-697.69824199999982
 21
1046.8500059999999
  0
LINE
  8
_0-0_0
  6
CONTINUOUS
 62
    7
 10
-697.82989499999996
 20
1066.8500060000001
 11
-697.79296900000008
 21
1066.9202270000001
  0
LINE
  8
_0-0_0
  6
CONTINUOUS
 62
    7
 10
-697.79296900000008
 20
1066.9202270000001
 11
-697.7733770000001
 21
1066.954712
  0
LINE
  8
_0-0_0
  6
CONTINUOUS
 62
    7
 10
-697.7733770000001
 20
1066.954712
 11
-697.74731500000007
 21
1066.9965520000001
  0
LINE
  8
_0-0_0
  6
CONTINUOUS
 62
    7
 10
-697.74731500000007
 20
1066.9965520000001
 11
-697.73400900000024
 21
1067.015594
  0
LINE
  8
_0-0_0
  6
CONTINUOUS
 62
    7
 10
-697.73400900000024
 20
1067.015594
 11
-697.71563700000024
 21
1067.037994
  0
LINE
  8
_0-0_0
  6
CONTINUOUS
 62
    7
 10
-697.71563700000024
 20
1067.037994
 11
-697.70281999999986
 21
1067.0486149999999
  0
LINE
  8
_0-0_0
  6
CONTINUOUS
 62
    7
 10
-697.70281999999986
 20
1067.0486149999999
 11
-697.69824199999982
 21
1067.0500179999999
  0
LINE
  8
_0-0_0
  6
CONTINUOUS
 62
    7
 10
-697.69604500000025
 20
1046.8500059999999
 11
-697.65472399999987
 21
1046.8500059999999
  0
LINE
  8
_0-0_0
  6
CONTINUOUS
 62
    7
 10
-697.59338400000024
 20
1046.8500059999999
 11
-697.65472399999987
 21
1046.8500059999999
  0
LINE
  8
_0-0_0
  6
CONTINUOUS
 62
    7
 10
-697.65472399999987
 20
1046.8500059999999
 11
-697.64514200000019
 21
1046.8489690000001
  0
LINE
  8
_0-0_0
  6
CONTINUOUS
 62
    7
 10
-697.64514200000019
 20
1046.8489690000001
 11
-697.63562000000002
 21
1046.8457639999999
  0
LINE
  8
_0-0_0
  6
CONTINUOUS
 62
    7
 10
-697.63562000000002
 20
1046.8457639999999
 11
-697.62640400000009
 21
1046.8403929999999
  0
LINE
  8
_0-0_0
  6
CONTINUOUS
 62
    7
 10
-697.62640400000009
 20
1046.8403929999999
 11
-697.61761500000011
 21
1046.8328860000001
  0
LINE
  8
_0-0_0
  6
CONTINUOUS
 62
    7
 10
-697.61761500000011
 20
1046.8328860000001
 11
-697.60217300000022
 21
1046.8122559999999
  0
LINE
  8
_0-0_0
  6
CONTINUOUS
 62
    7
 10
-697.60217300000022
 20
1046.8122559999999
 11
-697.59045400000014
 21
1046.7849729999998
  0
LINE
  8
_0-0_0
  6
CONTINUOUS
 62
    7
 10
-697.59045400000014
 20
1046.7849729999998
 11
-697.58325200000024
 21
1046.7528380000001
  0
LINE
  8
_0-0_0
  6
CONTINUOUS
 62
    7
 10
-697.58325200000024
 20
1046.7528380000001
 11
-697.58136000000025
 21
1046.7177730000001
  0
LINE
  8
_0-0_0
  6
CONTINUOUS
 62
    7
 10
-697.58136000000025
 20
1046.7177730000001
 11
-697.58520500000009
 21
1046.6816100000001
  0
LINE
  8
_0-0_0
  6
CONTINUOUS
 62
    7
 10
-697.58520500000009
 20
1046.6816100000001
 11
-697.59338400000024
 21
1046.650024
  0
ARC
  8
_0-0_0
  6
CONTINUOUS
 62
    7
 10
-699.59338400000013
 20
1048.150024
 40
2.2999999999999998
 50
280.28656300000006
 51
325.58260500000006
  0
LINE
  8
_0-0_0
  6
CONTINUOUS
 62
    7
 10
-697.893372
 20
1043.650024
 11
-699.09338400000024
 21
1043.650024
  0
LINE
  8
_0-0_0
  6
CONTINUOUS
 62
    7
 10
-697.893372
 20
1042.75
 11
-714.89337199999989
 21
1042.75
  0
LINE
  8
_0-0_0
  6
CONTINUOUS
 62
    7
 10
-699.79339599999992
 20
1068.3065799999999
 11
-699.793091
 21
1068.2901609999999
  0
ARC
  8
_0-0_0
  6
CONTINUOUS
 62
    7
 10
-699.29339600000003
 20
1068.3065799999999
 40
0.5
 50
181.88290099999998
 51
260.07179799999994
  0
LINE
  8
_0-0_0
  6
CONTINUOUS
 62
    7
 10
-700.29339600000014
 20
1069.0942989999999
 11
-700.09338400000036
 21
1068.8999940000001
  0
LINE
  8
_0-0_0
  6
CONTINUOUS
 62
    7
 10
-700.09338400000036
 20
1068.8999940000001
 11
-699.79339599999992
 21
1068.6000059999999
  0
LINE
  8
_0-0_0
  6
CONTINUOUS
 62
    7
 10
-699.79339599999992
 20
1068.6000059999999
 11
-700.09338400000036
 21
1068.6000059999999
  0
ARC
  8
_0-0_0
  6
CONTINUOUS
 62
    7
 10
-703.03625499999998
 20
1071.650024
 40
0.5
 50
225
 51
269.99999700000001
  0
ARC
  8
_0-0_0
  6
CONTINUOUS
 62
    7
 10
-709.15051300000005
 20
1071.650024
 40
0.5
 50
269.99999700000001
 51
314.99999200000002
  0
LINE
  8
_0-0_0
  6
CONTINUOUS
 62
    7
 10
-715.59338400000024
 20
1068.75
 11
-715.59338400000024
 21
1066.150482
  0
LINE
  8
_0-0_0
  6
CONTINUOUS
 62
    7
 10
-697.39337200000011
 20
1069.5500489999999
 11
-697.39337200000011
 21
1069.75
  0
CIRCLE
  8
_0-0_0
  6
CONTINUOUS
 62
    7
 10
-706.09338400000036
 20
1068.75
 40
2.25
  0
ARC
  8
_0-0_0
  6
CONTINUOUS
 62
    7
 10
-706.09338400000036
 20
1048.650024
 40
1.75
 50
179.99999099999999
 51
359.99998299999993
  0
LINE
  8
_0-0_0
  6
CONTINUOUS
 62
    7
 10
-707.84338400000013
 20
1048.900024
 11
-707.84338400000013
 21
1048.650024
  0
ARC
  8
_0-0_0
  6
CONTINUOUS
 62
    7
 10
-706.09338400000036
 20
1048.900024
 40
1.75
 50
0
 51
179.99999099999999
  0
LINE
  8
_0-0_0
  6
CONTINUOUS
 62
    7
 10
-704.34338400000024
 20
1048.650024
 11
-704.34338400000024
 21
1048.900024
  0
ARC
  8
_0-0_0
  6
CONTINUOUS
 62
    7
 10
-700.39337200000011
 20
1048.950012
 40
3
 50
269.99999700000001
 51
0
  0
LINE
  8
_0-0_0
  6
CONTINUOUS
 62
    7
 10
-714.79339599999992
 20
1053.3500060000001
 11
-714.79339599999992
 21
1052.5
  0
LINE
  8
_0-0_0
  6
CONTINUOUS
 62
    7
 10
-714.79339599999992
 20
1046.450012
 11
-714.79339599999992
 21
1052.5
  0
ARC
  8
_0-0_0
  6
CONTINUOUS
 62
    7
 10
-699.79339599999992
 20
1065.450012
 40
2.3999999999999999
 50
0
 51
80.071809999999985
  0
LINE
  8
_0-0_0
  6
CONTINUOUS
 62
    7
 10
-697.39337200000011
 20
1048.950012
 11
-697.39337200000011
 21
1061.75
  0
LINE
  8
_0-0_0
  6
CONTINUOUS
 62
    7
 10
-697.39337200000011
 20
1061.75
 11
-697.39337200000011
 21
1065.450012
  0
ARC
  8
_0-0_0
  6
CONTINUOUS
 62
    7
 10
-699.09338400000024
 20
1045.3950199999999
 40
0.5
 50
100.28656100000001
 51
179.99999099999999
  0
LINE
  8
_0-0_0
  6
CONTINUOUS
 62
    7
 10
-699.59338400000013
 20
1044.150024
 11
-699.59338400000013
 21
1045.3950199999999
  0
ARC
  8
_0-0_0
  6
CONTINUOUS
 62
    7
 10
-699.09338400000024
 20
1044.150024
 40
0.5
 50
179.99999099999999
 51
269.99999700000001
  0
LINE
  8
_0-0_0
  6
CONTINUOUS
 62
    7
 10
-708.79693600000019
 20
1071.2964480000001
 11
-708.73980699999981
 21
1071.3535770000001
  0
ARC
  8
_0-0_0
  6
CONTINUOUS
 62
    7
 10
-708.38629200000014
 20
1071
 40
0.5
 50
90.000003000000007
 51
135
  0
LINE
  8
_0-0_0
  6
CONTINUOUS
 62
    7
 10
-703.80047600000023
 20
1071.5
 11
-708.38629200000014
 21
1071.5
  0
ARC
  8
_0-0_0
  6
CONTINUOUS
 62
    7
 10
-703.80047600000023
 20
1071
 40
0.5
 50
45.00000099999999
 51
90.000002999999992
  0
LINE
  8
_0-0_0
  6
CONTINUOUS
 62
    7
 10
-703.38983200000018
 20
1071.2964480000001
 11
-703.44696100000021
 21
1071.3535770000001
  0
ARC
  8
_0-0_0
  6
CONTINUOUS
 62
    7
 10
-700.09338400000036
 20
1065.6000059999999
 40
3
 50
90.000003000000007
 51
179.99999099999999
  0
LINE
  8
_0-0_0
  6
CONTINUOUS
 62
    7
 10
-712.09338400000036
 20
1052
 11
-714.29339600000003
 21
1052
  0
ARC
  8
_0-0_0
  6
CONTINUOUS
 62
    7
 10
-712.09338400000036
 20
1049
 40
3
 50
0
 51
90.000003000000007
  0
LINE
  8
_0-0_0
  6
CONTINUOUS
 62
    7
 10
-709.09338400000036
 20
1049
 11
-709.09338400000036
 21
1046.450012
  0
LINE
  8
_0-0_0
  6
CONTINUOUS
 62
    7
 10
-708.59338400000013
 20
1045.950012
 11
-700.39337200000011
 21
1045.950012
  0
LINE
  8
_0-0_0
  6
CONTINUOUS
 62
    7
 10
-700.09338400000036
 20
1062.25
 11
-697.893372
 21
1062.25
  0
ARC
  8
_0-0_0
  6
CONTINUOUS
 62
    7
 10
-700.09338400000036
 20
1065.25
 40
3
 50
179.99999099999999
 51
269.99999700000001
  0
LINE
  8
_0-0_0
  6
CONTINUOUS
 62
    7
 10
-703.09338400000036
 20
1065.25
 11
-703.09338400000036
 21
1065.6000059999999
  0
CIRCLE
  8
_0-0_0
  6
CONTINUOUS
 62
    7
 10
-706.09338400000036
 20
1068.75
 40
2.0499999999999998
  0
ARC
  8
_0-0_0
  6
CONTINUOUS
 62
    7
 10
-706.09338400000036
 20
1048.650024
 40
1.5500000000000003
 50
179.99999099999999
 51
0
  0
LINE
  8
_0-0_0
  6
CONTINUOUS
 62
    7
 10
-707.643372
 20
1048.900024
 11
-707.643372
 21
1048.650024
  0
ARC
  8
_0-0_0
  6
CONTINUOUS
 62
    7
 10
-706.09338400000036
 20
1048.900024
 40
1.5500000000000003
 50
0
 51
179.99999099999999
  0
LINE
  8
_0-0_0
  6
CONTINUOUS
 62
    7
 10
-704.54339600000003
 20
1048.650024
 11
-704.54339600000003
 21
1048.900024
  0
LINE
  8
_0-0_0
  6
CONTINUOUS
 62
    7
 10
-714.29339600000003
 20
1045.950012
 11
-708.59338400000013
 21
1045.950012
  0
ARC
  8
_0-0_0
  6
CONTINUOUS
 62
    7
 10
-714.29339600000003
 20
1046.450012
 40
0.5
 50
179.99999099999999
 51
269.99999700000001
  0
ARC
  8
_0-0_0
  6
CONTINUOUS
 62
    7
 10
-714.29339600000003
 20
1052.5
 40
0.5
 50
179.99999099999999
 51
269.99999700000001
  0
ARC
  8
_0-0_0
  6
CONTINUOUS
 62
    7
 10
-697.893372
 20
1061.75
 40
0.5
 50
0
 51
90.000003000000007
  0
ARC
  8
_0-0_0
  6
CONTINUOUS
 62
    7
 10
-708.59338400000013
 20
1046.450012
 40
0.5
 50
179.99999099999999
 51
269.99999700000001
  0
CIRCLE
  8
_0-0_0
  6
CONTINUOUS
 62
    7
 10
-700.09338400000036
 20
1065.25
 40
2.25
  0
CIRCLE
  8
_0-0_0
  6
CONTINUOUS
 62
    7
 10
-712.09338400000036
 20
1048.650024
 40
2.25
  0
CIRCLE
  8
_0-0_0
  6
CONTINUOUS
 62
    7
 10
-700.09338400000036
 20
1065.25
 40
2
  0
CIRCLE
  8
_0-0_0
  6
CONTINUOUS
 62
    7
 10
-712.09338400000036
 20
1048.650024
 40
2
  0
LINE
  8
_0-0_0
  6
CONTINUOUS
 62
    7
 10
-701.24340799999993
 20
1065.25
 11
-700.675476
 21
1066.25
  0
LINE
  8
_0-0_0
  6
CONTINUOUS
 62
    7
 10
-700.675476
 20
1064.25
 11
-701.24340799999993
 21
1065.25
  0
LINE
  8
_0-0_0
  6
CONTINUOUS
 62
    7
 10
-699.51129200000003
 20
1064.25
 11
-700.675476
 21
1064.25
  0
LINE
  8
_0-0_0
  6
CONTINUOUS
 62
    7
 10
-698.9433590000001
 20
1065.25
 11
-699.51129200000003
 21
1064.25
  0
LINE
  8
_0-0_0
  6
CONTINUOUS
 62
    7
 10
-699.51129200000003
 20
1066.25
 11
-698.9433590000001
 21
1065.25
  0
LINE
  8
_0-0_0
  6
CONTINUOUS
 62
    7
 10
-700.675476
 20
1066.25
 11
-699.51129200000003
 21
1066.25
  0
LINE
  8
_0-0_0
  6
CONTINUOUS
 62
    7
 10
-713.24340799999993
 20
1048.650024
 11
-712.675476
 21
1049.650024
  0
LINE
  8
_0-0_0
  6
CONTINUOUS
 62
    7
 10
-712.675476
 20
1047.650024
 11
-713.24340799999993
 21
1048.650024
  0
LINE
  8
_0-0_0
  6
CONTINUOUS
 62
    7
 10
-711.51129200000003
 20
1047.650024
 11
-712.675476
 21
1047.650024
  0
LINE
  8
_0-0_0
  6
CONTINUOUS
 62
    7
 10
-710.9433590000001
 20
1048.650024
 11
-711.51129200000003
 21
1047.650024
  0
LINE
  8
_0-0_0
  6
CONTINUOUS
 62
    7
 10
-711.51129200000003
 20
1049.650024
 11
-710.9433590000001
 21
1048.650024
  0
LINE
  8
_0-0_0
  6
CONTINUOUS
 62
    7
 10
-712.675476
 20
1049.650024
 11
-711.51129200000003
 21
1049.650024
  0
LINE
  8
_0-0_0
  6
CONTINUOUS
 62
    7
 10
-697.39337200000011
 20
1066.0503229999999
 11
-697.39337200000011
 21
1066.0563050000001
  0
LINE
  8
_0-0_0
  6
CONTINUOUS
 62
    7
 10
-697.39337200000011
 20
1067.25
 11
-697.39373800000021
 21
1067.2379149999999
  0
LINE
  8
_0-0_0
  6
CONTINUOUS
 62
    7
 10
-697.39373800000021
 20
1046.6621089999999
 11
-697.39337200000011
 21
1046.650024
  0
LINE
  8
_0-0_0
  6
CONTINUOUS
 62
    7
 10
-697.39410399999997
 20
1061.7767329999999
 11
-697.39337200000011
 21
1061.75
  0
LINE
  8
_0-0_0
  6
CONTINUOUS
 62
    7
 10
-691.893372
 20
1099.150024
 11
-691.893372
 21
1086.150024
  0
LINE
  8
_0-0_0
  6
CONTINUOUS
 62
    7
 10
-691.69335900000021
 20
1099.150024
 11
-691.893372
 21
1099.150024
  0
LINE
  8
_0-0_0
  6
CONTINUOUS
 62
    7
 10
-691.69335900000021
 20
1086.150024
 11
-691.893372
 21
1086.150024
  0
LINE
  8
_0-0_0
  6
CONTINUOUS
 62
    7
 10
-691.69335900000021
 20
1099.150024
 11
-691.69335900000021
 21
1117.75
  0
LINE
  8
_0-0_0
  6
CONTINUOUS
 62
    7
 10
-691.59338400000024
 20
1117.75
 11
-691.69335900000021
 21
1117.75
  0
LINE
  8
_0-0_0
  6
CONTINUOUS
 62
    7
 10
-691.59338400000024
 20
1120.25
 11
-691.59338400000024
 21
1117.75
  0
ARC
  8
_0-0_0
  6
CONTINUOUS
 62
    7
 10
-692.09338400000013
 20
1120.25
 40
0.5
 50
0
 51
90.000003000000007
  0
LINE
  8
_0-0_0
  6
CONTINUOUS
 62
    7
 10
-692.09338400000013
 20
1120.75
 11
-695.09338400000013
 21
1120.75
  0
ARC
  8
_0-0_0
  6
CONTINUOUS
 62
    7
 10
-695.09338400000013
 20
1120.25
 40
0.5
 50
90.000003000000007
 51
179.99999099999999
  0
ARC
  8
_0-0_0
  6
CONTINUOUS
 62
    7
 10
-699.59338400000013
 20
1072.75
 40
0.5
 50
179.99999099999999
 51
269.99999700000001
  0
LINE
  8
_0-0_0
  6
CONTINUOUS
 62
    7
 10
-697.09338400000036
 20
1072.25
 11
-699.59338400000013
 21
1072.25
  0
ARC
  8
_0-0_0
  6
CONTINUOUS
 62
    7
 10
-697.09338400000036
 20
1072.75
 40
0.5
 50
269.99999700000001
 51
0
  0
LINE
  8
_0-0_0
  6
CONTINUOUS
 62
    7
 10
-696.59338400000013
 20
1077.75
 11
-696.59338400000013
 21
1072.75
  0
ARC
  8
_0-0_0
  6
CONTINUOUS
 62
    7
 10
-696.09338400000024
 20
1077.75
 40
0.5
 50
90.000003000000007
 51
179.99999099999999
  0
LINE
  8
_0-0_0
  6
CONTINUOUS
 62
    7
 10
-692.09338400000013
 20
1078.25
 11
-696.09338400000024
 21
1078.25
  0
ARC
  8
_0-0_0
  6
CONTINUOUS
 62
    7
 10
-692.09338400000013
 20
1078.75
 40
0.5
 50
269.99999700000001
 51
0
  0
LINE
  8
_0-0_0
  6
CONTINUOUS
 62
    7
 10
-691.59338400000024
 20
1081.950012
 11
-691.59338400000024
 21
1078.75
  0
LINE
  8
_0-0_0
  6
CONTINUOUS
 62
    7
 10
-691.69335900000021
 20
1081.950012
 11
-691.59338400000024
 21
1081.950012
  0
LINE
  8
_0-0_0
  6
CONTINUOUS
 62
    7
 10
-691.69335900000021
 20
1081.950012
 11
-691.69335900000021
 21
1086.150024
  0
LINE
  8
_0-0_0
  6
CONTINUOUS
 62
    7
 10
-692.59338400000036
 20
1120.25
 11
-710.39337199999989
 21
1120.25
  0
ARC
  8
_0-0_0
  6
CONTINUOUS
 62
    7
 10
-692.59338400000036
 20
1119.75
 40
0.5
 50
0
 51
90.000003000000007
  0
LINE
  8
_0-0_0
  6
CONTINUOUS
 62
    7
 10
-692.09338400000013
 20
1119.75
 11
-692.09338400000013
 21
1079.25
  0
ARC
  8
_0-0_0
  6
CONTINUOUS
 62
    7
 10
-692.59338400000036
 20
1079.25
 40
0.5
 50
269.99999700000001
 51
0
  0
LINE
  8
_0-0_0
  6
CONTINUOUS
 62
    7
 10
-696.09338400000024
 20
1078.75
 11
-692.59338400000036
 21
1078.75
  0
ARC
  8
_0-0_0
  6
CONTINUOUS
 62
    7
 10
-696.09338400000024
 20
1077.75
 40
1
 50
90.000003000000007
 51
179.99999099999999
  0
LINE
  8
_0-0_0
  6
CONTINUOUS
 62
    7
 10
-697.09338400000036
 20
1077.75
 11
-697.09338400000036
 21
1073.25
  0
ARC
  8
_0-0_0
  6
CONTINUOUS
 62
    7
 10
-697.59338400000024
 20
1073.25
 40
0.5
 50
269.99999700000001
 51
0
  0
LINE
  8
_0-0_0
  6
CONTINUOUS
 62
    7
 10
-714.59338400000013
 20
1072.75
 11
-697.59338400000024
 21
1072.75
  0
LINE
  8
_0-0_0
  6
CONTINUOUS
 62
    7
 10
-696.09338400000024
 20
1120.450012
 11
-696.09338400000024
 21
1120.25
  0
ARC
  8
_0-0_0
  6
CONTINUOUS
 62
    7
 10
-696.393372
 20
1120.450012
 40
0.2999999999999999
 50
0
 51
90.000003000000007
  0
LINE
  8
_0-0_0
  6
CONTINUOUS
 62
    7
 10
-696.393372
 20
1120.75
 11
-711.09338400000024
 21
1120.75
  0
ARC
  8
_0-0_0
  6
CONTINUOUS
 62
    7
 10
-711.09338400000024
 20
1120.450012
 40
0.2999999999999999
 50
90.000003000000007
 51
179.99999099999999
  0
LINE
  8
_0-0_0
  6
CONTINUOUS
 62
    7
 10
-711.393372
 20
1120.450012
 11
-711.393372
 21
1117.25
  0
LINE
  8
_0-0_0
  6
CONTINUOUS
 62
    7
 10
-711.393372
 20
1117.25
 11
-717.09338400000024
 21
1117.25
  0
LINE
  8
_0-0_0
  6
CONTINUOUS
 62
    7
 10
-717.09338400000024
 20
1117.25
 11
-717.89337199999989
 21
1116.450012
  0
ARC
  8
_0-0_0
  6
CONTINUOUS
 62
    7
 10
-710.39337199999989
 20
1119.75
 40
0.5
 50
90.000003000000007
 51
179.99999099999999
  0
LINE
  8
_0-0_0
  6
CONTINUOUS
 62
    7
 10
-710.89337200000011
 20
1119.75
 11
-710.89337200000011
 21
1116.950012
  0
ARC
  8
_0-0_0
  6
CONTINUOUS
 62
    7
 10
-711.393372
 20
1116.950012
 40
0.5
 50
269.99999700000001
 51
0
  0
LINE
  8
_0-0_0
  6
CONTINUOUS
 62
    7
 10
-711.393372
 20
1116.450012
 11
-719.59338400000036
 21
1116.450012
  0
ARC
  8
_0-0_0
  6
CONTINUOUS
 62
    7
 10
-719.59338400000036
 20
1115.950012
 40
0.5
 50
90.000003000000007
 51
179.99999099999999
  0
LINE
  8
_0-0_0
  6
CONTINUOUS
 62
    7
 10
-720.09338400000024
 20
1079.25
 11
-720.09338400000024
 21
1115.950012
  0
ARC
  8
_0-0_0
  6
CONTINUOUS
 62
    7
 10
-719.59338400000036
 20
1079.25
 40
0.5
 50
179.99999099999999
 51
269.99999700000001
  0
LINE
  8
_0-0_0
  6
CONTINUOUS
 62
    7
 10
-719.59338400000036
 20
1078.75
 11
-716.09338400000013
 21
1078.75
  0
ARC
  8
_0-0_0
  6
CONTINUOUS
 62
    7
 10
-716.09338400000013
 20
1077.75
 40
1
 50
0
 51
90.000003000000007
  0
LINE
  8
_0-0_0
  6
CONTINUOUS
 62
    7
 10
-715.09338400000036
 20
1073.25
 11
-715.09338400000036
 21
1077.75
  0
ARC
  8
_0-0_0
  6
CONTINUOUS
 62
    7
 10
-714.59338400000013
 20
1073.25
 40
0.5
 50
179.99999099999999
 51
269.99999700000001
  0
CIRCLE
  8
_0-0_0
  6
CONTINUOUS
 62
    7
 10
-706.09338400000036
 20
1081.75
 40
2.0670000000000002
  0
LINE
  8
_0-0_0
  6
CONTINUOUS
 62
    7
 10
-718.09338400000036
 20
1116.75
 11
-718.09338400000036
 21
1116.450012
  0
LINE
  8
_0-0_0
  6
CONTINUOUS
 62
    7
 10
-718.09338400000036
 20
1116.75
 11
-720.09338400000024
 21
1116.75
  0
ARC
  8
_0-0_0
  6
CONTINUOUS
 62
    7
 10
-720.09338400000024
 20
1116.25
 40
0.5
 50
90.000003000000007
 51
179.99999099999999
  0
LINE
  8
_0-0_0
  6
CONTINUOUS
 62
    7
 10
-720.59338400000013
 20
1116.25
 11
-720.59338400000013
 21
1078.75
  0
ARC
  8
_0-0_0
  6
CONTINUOUS
 62
    7
 10
-720.09338400000024
 20
1078.75
 40
0.5
 50
179.99999099999999
 51
269.99999700000001
  0
LINE
  8
_0-0_0
  6
CONTINUOUS
 62
    7
 10
-716.09338400000013
 20
1078.25
 11
-720.09338400000024
 21
1078.25
  0
ARC
  8
_0-0_0
  6
CONTINUOUS
 62
    7
 10
-716.09338400000013
 20
1077.75
 40
0.5
 50
0
 51
90.000003000000007
  0
LINE
  8
_0-0_0
  6
CONTINUOUS
 62
    7
 10
-715.59338400000024
 20
1072.75
 11
-715.59338400000024
 21
1077.75
  0
ARC
  8
_0-0_0
  6
CONTINUOUS
 62
    7
 10
-715.09338400000036
 20
1072.75
 40
0.5
 50
179.99999099999999
 51
269.99999700000001
  0
LINE
  8
_0-0_0
  6
CONTINUOUS
 62
    7
 10
-715.09338400000036
 20
1072.25
 11
-712.59338400000024
 21
1072.25
  0
ARC
  8
_0-0_0
  6
CONTINUOUS
 62
    7
 10
-712.59338400000024
 20
1072.75
 40
0.5
 50
269.99999700000001
 51
0
  0
LINE
  8
_0-0_0
  6
CONTINUOUS
 62
    7
 10
-696.59338400000013
 20
1072.75
 11
-696.49340800000016
 21
1072.75
  0
LINE
  8
_0-0_0
  6
CONTINUOUS
 62
    7
 10
-696.49340800000016
 20
1072.75
 11
-696.49340800000016
 21
1073.25
  0
LINE
  8
_0-0_0
  6
CONTINUOUS
 62
    7
 10
-696.49340800000016
 20
1077.25
 11
-696.49340800000016
 21
1073.25
  0
LINE
  8
_0-0_0
  6
CONTINUOUS
 62
    7
 10
-696.59338400000013
 20
1077.75
 11
-696.49340800000016
 21
1077.75
  0
LINE
  8
_0-0_0
  6
CONTINUOUS
 62
    7
 10
-696.49340800000016
 20
1077.25
 11
-696.49340800000016
 21
1077.75
  0
LINE
  8
_0-0_0
  6
CONTINUOUS
 62
    7
 10
-696.393372
 20
1073.25
 11
-696.393372
 21
1073.380371
  0
LINE
  8
_0-0_0
  6
CONTINUOUS
 62
    7
 10
-696.393372
 20
1076.880371
 11
-696.393372
 21
1073.380371
  0
LINE
  8
_0-0_0
  6
CONTINUOUS
 62
    7
 10
-696.49340800000016
 20
1077.150024
 11
-696.393372
 21
1077.150024
  0
LINE
  8
_0-0_0
  6
CONTINUOUS
 62
    7
 10
-696.393372
 20
1076.880371
 11
-696.393372
 21
1077.150024
  0
LINE
  8
_0-0_0
  6
CONTINUOUS
 62
    7
 10
-696.49340800000016
 20
1072.75
 11
-696.49340800000016
 21
1072.7510990000001
  0
LINE
  8
_0-0_0
  6
CONTINUOUS
 62
    7
 10
-696.393372
 20
1073.25
 11
-696.393372
 21
1073.251129
  0
LINE
  8
_0-0_0
  6
CONTINUOUS
 62
    7
 10
-696.49340800000016
 20
1073.25
 11
-696.393372
 21
1073.25
  0
LINE
  8
_0-0_0
  6
CONTINUOUS
 62
    7
 10
-696.49340800000016
 20
1073.25
 11
-696.393372
 21
1073.25
  0
ENDSEC
  0
EOF
