  0
SECTION
  2
HEADER
  9
$ACADVER
  1
AC1009
  9
$INSBASE
 10
0
 20
0
 30
0
  9
$EXTMIN
 10
0
 20
0
  9
$EXTMAX
 10
841
 20
594
  9
$LIMMIN
 10
0
 20
0
  9
$LIMMAX
 10
841
 20
594
  9
$LTSCALE
 40
1
  0
ENDSEC
  0
SECTION
  2
TABLES
  0
TABLE
  2
LTYPE
 70
     9
  0
LTYPE
  2
CONTINUOUS
 70
    64
  3
実線
 72
    65
 73
     0
 40
0.0
  0
LTYPE
  2
DASHED1
 70
    64
  3
--  --  --  --  --  --  --  --  
 72
    65
 73
     2
 40
2.5
 49
1.25
 49
-1.25
  0
LTYPE
  2
DASHED2
 70
    64
  3
----    ----    ----    ----    
 72
    65
 73
     2
 40
5.0
 49
2.5
 49
-2.5
  0
LTYPE
  2
DASHED3
 70
    64
  3
------  ------  ------  ------  
 72
    65
 73
     2
 40
5.0
 49
3.75
 49
-1.25
  0
LTYPE
  2
CENTER1
 70
    64
  3
----- - ----- - ----- - ----- - 
 72
    65
 73
     4
 40
10.0
 49
6.25
 49
-1.25
 49
1.25
 49
-1.25
  0
LTYPE
  2
CENTER2
 70
    64
  3
----------  --  ----------  --  
 72
    65
 73
     4
 40
20.0
 49
12.5
 49
-2.5
 49
2.5
 49
-2.5
  0
LTYPE
  2
PHANTOM1
 70
    64
  3
--- - - --- - - --- - - --- - - 
 72
    65
 73
     6
 40
10.0
 49
3.25
 49
-1.25
 49
1.25
 49
-1.25
 49
1.25
 49
-1.25
  0
LTYPE
  2
PHANTOM2
 70
    64
  3
--------  -  -  --------  -  -  
 72
    65
 73
     6
 40
20.0
 49
10.0
 49
-2.5
 49
1.25
 49
-2.5
 49
1.25
 49
-2.5
  0
LTYPE
  2
DOT
 70
    64
  3
-   -   -   -   -   -   -   -   
 72
    65
 73
     2
 40
2.5
 49
0.625
 49
-1.875
  0
LTYPE
  2
DUMMY
 70
    64
  3
ダミー
 72
    65
 73
     0
 40
0.0
  0
LTYPE
  2
RAND1
 70
    64
  3
ランダム線1
 72
    65
 73
     4
 40
10.0
 49
1.0
 49
-2.0
 49
3.0
 49
-4.0
  0
LTYPE
  2
RAND2
 70
    64
  3
ランダム線2
 72
    65
 73
     4
 40
14.0
 49
2.0
 49
-3.0
 49
4.0
 49
-5.0
  0
LTYPE
  2
RAND3
 70
    64
  3
ランダム線3
 72
    65
 73
     4
 40
18.0
 49
3.0
 49
-4.0
 49
5.0
 49
-6.0
  0
LTYPE
  2
RAND4
 70
    64
  3
ランダム線4
 72
    65
 73
     4
 40
22.0
 49
4.0
 49
-5.0
 49
6.0
 49
-7.0
  0
LTYPE
  2
RAND5
 70
    64
  3
ランダム線5
 72
    65
 73
     4
 40
26.0
 49
5.0
 49
-6.0
 49
7.0
 49
-8.0
  0
LTYPE
  2
LONG1
 70
    64
  3
----------  --  ----------  --  
 72
    65
 73
     4
 40
40.0
 49
32.5
 49
-2.5
 49
2.5
 49
-2.5
  0
LTYPE
  2
LONG2
 70
    64
  3
--------  -  -  --------  -  -  
 72
    65
 73
     6
 40
40.0
 49
30.0
 49
-2.5
 49
1.25
 49
-2.5
 49
1.25
 49
-2.5
  0
LTYPE
  2
LONG3
 70
    64
  3
+++++++++++++++..+++++++++++++++
 72
    65
 73
     2
 40
40.0
 49
37.5
 49
-2.5
  0
LTYPE
  2
LONG4
 70
    64
  3
+++++++++++++++..+++++++++++++++
 72
    65
 73
     2
 40
80.0
 49
75.0
 49
-5.0
  0
LTYPE
  2
LONG5
 70
    64
  3
----------  --  ----------  --  
 72
    65
 73
     4
 40
60.0
 49
37.5
 49
-7.5
 49
7.5
 49
-7.5
  0
LTYPE
  2
dashed
 70
   64
  3
-------   -------------   ------
 72
   65
 73
    2
 40
7.5
 49
6
 49
-1.5
  0
LTYPE
  2
dashed_spaced
 70
   64
  3
----        --------        ----
 72
   65
 73
    2
 40
12
 49
6
 49
-6
  0
LTYPE
  2
long_dashed_dotted
 70
   64
  3
------------- --- --------------
 72
   65
 73
    4
 40
15.25
 49
12
 49
-1.5
 49
0.25
 49
-1.5
  0
LTYPE
  2
long_dashed_double-dotted
 70
   64
  3
----------- --- --- ------------
 72
   65
 73
    6
 40
17
 49
12
 49
-1.5
 49
0.25
 49
-1.5
 49
0.25
 49
-1.5
  0
LTYPE
  2
long_dashed_triplicate-dotted
 70
   64
  3
--------- --- --- --- ----------
 72
   65
 73
    8
 40
18.75
 49
12
 49
-1.5
 49
0.25
 49
-1.5
 49
0.25
 49
-1.5
 49
0.25
 49
-1.5
  0
LTYPE
  2
dotted
 70
   64
  3
   -       -       -       -    
 72
   65
 73
    2
 40
1.75
 49
0.25
 49
-1.5
  0
LTYPE
  2
chain
 70
   64
  3
-------------- -- --------------
 72
   65
 73
    4
 40
18.5
 49
12
 49
-1.5
 49
3.5
 49
-1.5
  0
LTYPE
  2
chain_double_dash
 70
   64
  3
------------ -- -- -------------
 72
   65
 73
    6
 40
23.5
 49
12
 49
-1.5
 49
3.5
 49
-1.5
 49
3.5
 49
-1.5
  0
LTYPE
  2
dashed_dotted
 70
   64
  3
-----------     -     ----------
 72
   65
 73
    4
 40
9.25
 49
6
 49
-1.5
 49
0.25
 49
-1.5
  0
LTYPE
  2
double-dashed_dotted
 70
   64
  3
------   -----------   -   -----
 72
   65
 73
    6
 40
16.75
 49
6
 49
-1.5
 49
6
 49
-1.5
 49
0.25
 49
-1.5
  0
LTYPE
  2
dashed_double-dotted
 70
   64
  3
---------    -    -    ---------
 72
   65
 73
    6
 40
11
 49
6
 49
-1.5
 49
0.25
 49
-1.5
 49
0.25
 49
-1.5
  0
LTYPE
  2
double-dashed_double-dotted
 70
   64
  3
-----   ---------   -   -   ----
 72
   65
 73
    8
 40
18.5
 49
6
 49
-1.5
 49
6
 49
-1.5
 49
0.25
 49
-1.5
 49
0.25
 49
-1.5
  0
LTYPE
  2
dashed_triplicate-dotted
 70
   64
  3
-------    -    -    -    ------
 72
   65
 73
    8
 40
12.75
 49
6
 49
-1.5
 49
0.25
 49
-1.5
 49
0.25
 49
-1.5
 49
0.25
 49
-1.5
  0
LTYPE
  2
double-dashed_triplicate-dotted
 70
   64
  3
-----  ---------  -  -  -  -----
 72
   65
 73
   10
 40
20.25
 49
6
 49
-1.5
 49
6
 49
-1.5
 49
0.25
 49
-1.5
 49
0.25
 49
-1.5
 49
0.25
 49
-1.5
  0
LTYPE
  2
undefined
 70
   64
  3
--------------------------------
 72
   65
 73
    0
 40
0
  0
ENDTAB
  0
TABLE
  2
STYLE
  5
3
100
AcDbSymbolTable
 70
     1
  0
STYLE
  5
10
100
AcDbSymbolTableRecord
100
AcDbTextStyleTableRecord
  2
STANDARD
 70
     0
 40
0.0
 41
1.0
 50
0.0
 71
     0
 42
0.2
  3
txt
  4
bigfont.shx
  0
STYLE
  5
26
100
AcDbSymbolTableRecord
100
AcDbTextStyleTableRecord
  2
TATEGAKI
 70
    68
 40
0.0
 41
1.0
 50
0.0
 71
     0
 42
1.0
  3
txt
  4
bigfont.shx
  0
ENDTAB
  0
TABLE
  2
LAYER
 70
    2
  0
LAYER
  2
_0-0_0
 70
   64
 62
    7
  6
CONTINUOUS
  0
LAYER
  2
ADD_LINE
 70
   64
 62
    7
  6
CONTINUOUS
  0
ENDTAB
  0
ENDSEC
  0
SECTION
  2
BLOCKS
  0
ENDSEC
  0
SECTION
  2
ENTITIES
  0
ARC
  8
_0-0_0
  6
CONTINUOUS
 62
    7
 10
-17.668900000000008
 20
468.35000600000001
 40
0.2
 50
269.99999700000001
 51
20.376440000000013
  0
LINE
  8
_0-0_0
  6
CONTINUOUS
 62
    7
 10
-17.481415000000027
 20
468.419647
 11
-18.781418000000031
 21
471.919647
  0
ARC
  8
_0-0_0
  6
CONTINUOUS
 62
    7
 10
-18.968903000000068
 20
471.85000600000001
 40
0.2
 50
20.376439999999999
 51
159.62355600000001
  0
LINE
  8
_0-0_0
  6
CONTINUOUS
 62
    7
 10
-20.456375000000037
 20
468.419647
 11
-19.156387000000052
 21
471.919647
  0
ARC
  8
_0-0_0
  6
CONTINUOUS
 62
    7
 10
-20.268906000000015
 20
468.35000600000001
 40
0.2
 50
159.62355600000001
 51
269.99999700000001
  0
LINE
  8
_0-0_0
  6
CONTINUOUS
 62
    7
 10
-20.268906000000015
 20
468.15002399999997
 11
-17.668900000000008
 21
468.15002399999997
  0
LINE
  8
_0-0_0
  6
CONTINUOUS
 62
    7
 10
-95.78235600000005
 20
522.75051899999994
 11
-95.78235600000005
 21
522.74951199999998
  0
LINE
  8
_0-0_0
  6
CONTINUOUS
 62
    7
 10
-66.468903000000068
 20
476.25
 11
-61.468903000000068
 21
476.25
  0
LINE
  8
_0-0_0
  6
CONTINUOUS
 62
    7
 10
-61.468903000000068
 20
476.25
 11
-59.668900000000008
 21
476.25
  0
LINE
  8
_0-0_0
  6
CONTINUOUS
 62
    7
 10
-59.668900000000008
 20
476.25
 11
-58.968903000000068
 21
476.25
  0
ARC
  8
_0-0_0
  6
CONTINUOUS
 62
    7
 10
-59.668900000000008
 20
475.75
 40
0.5
 50
0
 51
90.000003000000007
  0
ARC
  8
_0-0_0
  6
CONTINUOUS
 62
    7
 10
-66.468903000000068
 20
475.75
 40
0.5
 50
90.000003000000007
 51
179.99999099999999
  0
ARC
  8
_0-0_0
  6
CONTINUOUS
 62
    7
 10
37.031096999999932
 20
475.75
 40
0.5
 50
0
 51
90.000003000000007
  0
LINE
  8
_0-0_0
  6
CONTINUOUS
 62
    7
 10
-58.968903000000068
 20
476.25
 11
-58.968903000000068
 21
474.75
  0
LINE
  8
_0-0_0
  6
CONTINUOUS
 62
    7
 10
-58.968903000000068
 20
476.75
 11
-58.968903000000068
 21
476.25
  0
LINE
  8
_0-0_0
  6
CONTINUOUS
 62
    7
 10
-58.968903000000068
 20
477.25
 11
-58.968903000000068
 21
476.75
  0
LINE
  8
_0-0_0
  6
CONTINUOUS
 62
    7
 10
-58.968903000000068
 20
478.25
 11
-58.968903000000068
 21
477.25
  0
LINE
  8
_0-0_0
  6
CONTINUOUS
 62
    7
 10
-54.968903000000068
 20
476.25
 11
-54.268898000000036
 21
476.25
  0
LINE
  8
_0-0_0
  6
CONTINUOUS
 62
    7
 10
-59.168900000000008
 20
475.75
 11
-59.168900000000008
 21
474.75
  0
LINE
  8
_0-0_0
  6
CONTINUOUS
 62
    7
 10
-55.968903000000068
 20
449.25
 11
-55.968903000000068
 21
450.85000600000001
  0
LINE
  8
_0-0_0
  6
CONTINUOUS
 62
    7
 10
-55.968903000000068
 20
449.25
 11
-61.468903000000068
 21
449.25
  0
LINE
  8
_0-0_0
  6
CONTINUOUS
 62
    7
 10
-39.968903000000068
 20
455.95001200000002
 11
2.0310969999999315
 21
455.95001200000002
  0
LINE
  8
_0-0_0
  6
CONTINUOUS
 62
    7
 10
-39.968903000000068
 20
475.55001800000002
 11
2.0310969999999315
 21
475.55001800000002
  0
LINE
  8
_0-0_0
  6
CONTINUOUS
 62
    7
 10
23.531096999999932
 20
449.25
 11
14.031096999999932
 21
449.25
  0
LINE
  8
_0-0_0
  6
CONTINUOUS
 62
    7
 10
14.031096999999932
 20
449.25
 11
14.031096999999932
 21
450.85000600000001
  0
ARC
  8
_0-0_0
  6
CONTINUOUS
 62
    7
 10
13.731093999999985
 20
450.85000600000001
 40
0.2999999999999999
 50
0
 51
90.000003000000007
  0
LINE
  8
_0-0_0
  6
CONTINUOUS
 62
    7
 10
13.031096999999932
 20
451.15002399999997
 11
13.731093999999985
 21
451.15002399999997
  0
LINE
  8
_0-0_0
  6
CONTINUOUS
 62
    7
 10
12.531096999999932
 20
451.55001800000002
 11
13.031096999999932
 21
451.55001800000002
  0
LINE
  8
_0-0_0
  6
CONTINUOUS
 62
    7
 10
-0.9689030000000684
 20
451.55001800000002
 11
12.531096999999932
 21
451.55001800000002
  0
ARC
  8
_0-0_0
  6
CONTINUOUS
 62
    7
 10
-3.4689030000000685
 20
451.55001800000002
 40
2.5
 50
0
 51
90.000003000000007
  0
LINE
  8
_0-0_0
  6
CONTINUOUS
 62
    7
 10
-34.468903000000068
 20
454.05001800000002
 11
-3.4689030000000685
 21
454.05001800000002
  0
ARC
  8
_0-0_0
  6
CONTINUOUS
 62
    7
 10
-34.468903000000068
 20
451.55001800000002
 40
2.5
 50
90.000003000000007
 51
179.99999099999999
  0
LINE
  8
_0-0_0
  6
CONTINUOUS
 62
    7
 10
-54.468903000000068
 20
451.55001800000002
 11
-36.968903000000068
 21
451.55001800000002
  0
LINE
  8
_0-0_0
  6
CONTINUOUS
 62
    7
 10
-54.968903000000068
 20
451.55001800000002
 11
-54.468903000000068
 21
451.55001800000002
  0
LINE
  8
_0-0_0
  6
CONTINUOUS
 62
    7
 10
-55.668900000000008
 20
451.15002399999997
 11
-54.968903000000068
 21
451.15002399999997
  0
ARC
  8
_0-0_0
  6
CONTINUOUS
 62
    7
 10
-55.668900000000008
 20
450.85000600000001
 40
0.2999999999999999
 50
90.000003000000007
 51
179.99999099999999
  0
LINE
  8
_0-0_0
  6
CONTINUOUS
 62
    7
 10
-66.968903000000068
 20
473.97485399999999
 11
-66.968903000000068
 21
475.75
  0
LINE
  8
_0-0_0
  6
CONTINUOUS
 62
    7
 10
-61.968903000000068
 20
476.25
 11
-61.968903000000068
 21
476.65002399999997
  0
LINE
  8
_0-0_0
  6
CONTINUOUS
 62
    7
 10
-61.968903000000068
 20
477.15002399999997
 11
-61.968903000000068
 21
476.65002399999997
  0
LINE
  8
_0-0_0
  6
CONTINUOUS
 62
    7
 10
37.531096999999932
 20
478.25
 11
37.531096999999932
 21
476.75
  0
LINE
  8
_0-0_0
  6
CONTINUOUS
 62
    7
 10
37.531096999999932
 20
476.75
 11
37.531096999999932
 21
475.75
  0
LINE
  8
_0-0_0
  6
CONTINUOUS
 62
    7
 10
37.531096999999932
 20
474.95001200000002
 11
37.531096999999932
 21
475.75
  0
LINE
  8
_0-0_0
  6
CONTINUOUS
 62
    7
 10
37.031096999999932
 20
476.25
 11
37.531096999999932
 21
476.25
  0
LINE
  8
_0-0_0
  6
CONTINUOUS
 62
    7
 10
24.531096999999932
 20
476.25
 11
37.031096999999932
 21
476.25
  0
LINE
  8
_0-0_0
  6
CONTINUOUS
 62
    7
 10
37.531096999999932
 20
478.25
 11
37.531096999999932
 21
477.25
  0
LINE
  8
_0-0_0
  6
CONTINUOUS
 62
    7
 10
37.531096999999932
 20
476.75
 11
37.531096999999932
 21
476.25
  0
LINE
  8
_0-0_0
  6
CONTINUOUS
 62
    7
 10
37.531096999999932
 20
477.25
 11
37.531096999999932
 21
476.75
  0
ARC
  8
_0-0_0
  6
CONTINUOUS
 62
    7
 10
-56.968903000000068
 20
474.75
 40
2
 50
179.99999099999999
 51
0
  0
LINE
  8
_0-0_0
  6
CONTINUOUS
 62
    7
 10
24.031096999999932
 20
476.25
 11
24.531096999999932
 21
476.25
  0
LINE
  8
_0-0_0
  6
CONTINUOUS
 62
    7
 10
24.031096999999932
 20
475.75
 11
24.031096999999932
 21
476.25
  0
LINE
  8
_0-0_0
  6
CONTINUOUS
 62
    7
 10
24.031096999999932
 20
474.75
 11
24.031096999999932
 21
474.95001200000002
  0
ARC
  8
_0-0_0
  6
CONTINUOUS
 62
    7
 10
22.031096999999932
 20
474.75
 40
2
 50
179.99999099999999
 51
0
  0
LINE
  8
_0-0_0
  6
CONTINUOUS
 62
    7
 10
20.031096999999932
 20
476.25
 11
20.031096999999932
 21
474.75
  0
LINE
  8
_0-0_0
  6
CONTINUOUS
 62
    7
 10
19.331099999999992
 20
476.25
 11
20.031096999999932
 21
476.25
  0
LINE
  8
_0-0_0
  6
CONTINUOUS
 62
    7
 10
-54.968903000000068
 20
474.75
 11
-54.968903000000068
 21
476.25
  0
LINE
  8
_0-0_0
  6
CONTINUOUS
 62
    7
 10
-58.968903000000068
 20
477.25
 11
37.531096999999932
 21
477.25
  0
ARC
  8
_0-0_0
  6
CONTINUOUS
 62
    7
 10
-54.268898000000036
 20
475.75
 40
0.5
 50
90.000003000000007
 51
179.99999099999999
  0
ARC
  8
_0-0_0
  6
CONTINUOUS
 62
    7
 10
-56.968903000000068
 20
474.75
 40
2.2000000000000002
 50
179.99999099999999
 51
0
  0
LINE
  8
_0-0_0
  6
CONTINUOUS
 62
    7
 10
-54.968903000000068
 20
451.15002399999997
 11
-54.468903000000068
 21
451.15002399999997
  0
LINE
  8
_0-0_0
  6
CONTINUOUS
 62
    7
 10
-54.468903000000068
 20
451.55001800000002
 11
-54.468903000000068
 21
451.15002399999997
  0
LINE
  8
_0-0_0
  6
CONTINUOUS
 62
    7
 10
-36.968903000000068
 20
451.55001800000002
 11
-0.9689030000000684
 21
451.55001800000002
  0
LINE
  8
_0-0_0
  6
CONTINUOUS
 62
    7
 10
12.531096999999932
 20
451.15002399999997
 11
13.031096999999932
 21
451.15002399999997
  0
LINE
  8
_0-0_0
  6
CONTINUOUS
 62
    7
 10
12.531096999999932
 20
451.55001800000002
 11
12.531096999999932
 21
451.15002399999997
  0
LINE
  8
_0-0_0
  6
CONTINUOUS
 62
    7
 10
23.531096999999932
 20
448.75
 11
14.531096999999932
 21
448.75
  0
ARC
  8
_0-0_0
  6
CONTINUOUS
 62
    7
 10
14.531096999999932
 20
449.25
 40
0.5
 50
179.99999099999999
 51
269.99999700000001
  0
LINE
  8
_0-0_0
  6
CONTINUOUS
 62
    7
 10
23.531096999999932
 20
449.25
 11
24.031096999999932
 21
449.25
  0
LINE
  8
_0-0_0
  6
CONTINUOUS
 62
    7
 10
24.031096999999932
 20
449.25
 11
24.031096999999932
 21
449.45001200000002
  0
LINE
  8
_0-0_0
  6
CONTINUOUS
 62
    7
 10
28.531096999999932
 20
449.65002399999997
 11
24.231093999999985
 21
449.65002399999997
  0
LINE
  8
_0-0_0
  6
CONTINUOUS
 62
    7
 10
29.031096999999932
 20
450.15002399999997
 11
29.031096999999932
 21
451.92514
  0
ARC
  8
_0-0_0
  6
CONTINUOUS
 62
    7
 10
25.983138999999937
 20
451.86901899999998
 40
3.0490550000000001
 50
1.0548960000000001
 51
14.838094000000002
  0
LINE
  8
_0-0_0
  6
CONTINUOUS
 62
    7
 10
28.531096999999932
 20
452.85000600000001
 11
24.163558999999964
 21
452.85000600000001
  0
LINE
  8
_0-0_0
  6
CONTINUOUS
 62
    7
 10
24.031096999999932
 20
452.99145499999997
 11
24.031096999999932
 21
453.09643599999998
  0
ARC
  8
_0-0_0
  6
CONTINUOUS
 62
    7
 10
22.031096999999932
 20
474.75
 40
2.2000000000000002
 50
179.99999099999999
 51
303.74900400000001
  0
LINE
  8
_0-0_0
  6
CONTINUOUS
 62
    7
 10
19.831099999999992
 20
475.75
 11
19.831099999999992
 21
474.75
  0
LINE
  8
_0-0_0
  6
CONTINUOUS
 62
    7
 10
19.331099999999992
 20
476.25
 11
-54.268898000000036
 21
476.25
  0
LINE
  8
_0-0_0
  6
CONTINUOUS
 62
    7
 10
-54.768898000000036
 20
474.75
 11
-54.768898000000036
 21
475.75
  0
LINE
  8
_0-0_0
  6
CONTINUOUS
 62
    7
 10
-54.268898000000036
 20
474.55001800000002
 11
-54.268898000000036
 21
474.75
  0
ARC
  8
_0-0_0
  6
CONTINUOUS
 62
    7
 10
-53.268898000000036
 20
474.55001800000002
 40
1
 50
90.000003000000007
 51
179.99999099999999
  0
LINE
  8
_0-0_0
  6
CONTINUOUS
 62
    7
 10
-53.268898000000036
 20
475.55001800000002
 11
-39.968903000000068
 21
475.55001800000002
  0
LINE
  8
_0-0_0
  6
CONTINUOUS
 62
    7
 10
2.0310969999999315
 20
475.55001800000002
 11
16.031096999999932
 21
475.55001800000002
  0
ARC
  8
_0-0_0
  6
CONTINUOUS
 62
    7
 10
16.031096999999932
 20
472.55001800000002
 40
3
 50
0
 51
90.000003000000007
  0
LINE
  8
_0-0_0
  6
CONTINUOUS
 62
    7
 10
19.031096999999932
 20
458.95001200000002
 11
19.031096999999932
 21
472.55001800000002
  0
ARC
  8
_0-0_0
  6
CONTINUOUS
 62
    7
 10
16.031096999999932
 20
458.95001200000002
 40
3
 50
269.99999700000001
 51
0
  0
LINE
  8
_0-0_0
  6
CONTINUOUS
 62
    7
 10
16.031096999999932
 20
455.95001200000002
 11
2.0310969999999315
 21
455.95001200000002
  0
LINE
  8
_0-0_0
  6
CONTINUOUS
 62
    7
 10
-39.968903000000068
 20
455.95001200000002
 11
-53.968903000000068
 21
455.95001200000002
  0
ARC
  8
_0-0_0
  6
CONTINUOUS
 62
    7
 10
-53.968903000000068
 20
458.95001200000002
 40
3
 50
179.99999099999999
 51
269.99999700000001
  0
LINE
  8
_0-0_0
  6
CONTINUOUS
 62
    7
 10
-56.968903000000068
 20
471.18771400000003
 11
-56.968903000000068
 21
458.95001200000002
  0
ARC
  8
_0-0_0
  6
CONTINUOUS
 62
    7
 10
-55.968903000000068
 20
471.18771400000003
 40
1
 50
105.68034800000001
 51
179.99999100000002
  0
ARC
  8
_0-0_0
  6
CONTINUOUS
 62
    7
 10
-63.920937000000038
 20
474.03100599999999
 40
3.0490550000000001
 50
181.05489
 51
194.838089
  0
LINE
  8
_0-0_0
  6
CONTINUOUS
 62
    7
 10
-62.101357000000007
 20
473.05001800000002
 11
-66.468903000000068
 21
473.05001800000002
  0
LINE
  8
_0-0_0
  6
CONTINUOUS
 62
    7
 10
-61.968903000000068
 20
452.99145499999997
 11
-61.968903000000068
 21
453.29168700000002
  0
LINE
  8
_0-0_0
  6
CONTINUOUS
 62
    7
 10
-62.101357000000007
 20
452.85000600000001
 11
-66.468903000000068
 21
452.85000600000001
  0
ARC
  8
_0-0_0
  6
CONTINUOUS
 62
    7
 10
-63.919754000000012
 20
451.86834700000003
 40
3.050319
 50
165.15540799999999
 51
178.932897
  0
LINE
  8
_0-0_0
  6
CONTINUOUS
 62
    7
 10
-66.968903000000068
 20
450.15002399999997
 11
-66.968903000000068
 21
451.92514
  0
LINE
  8
_0-0_0
  6
CONTINUOUS
 62
    7
 10
-62.168900000000008
 20
449.65002399999997
 11
-66.468903000000068
 21
449.65002399999997
  0
LINE
  8
_0-0_0
  6
CONTINUOUS
 62
    7
 10
-61.968903000000068
 20
449.25
 11
-61.968903000000068
 21
449.45001200000002
  0
LINE
  8
_0-0_0
  6
CONTINUOUS
 62
    7
 10
-61.968903000000068
 20
449.25
 11
-61.468903000000068
 21
449.25
  0
LINE
  8
_0-0_0
  6
CONTINUOUS
 62
    7
 10
-56.468903000000068
 20
448.75
 11
-61.468903000000068
 21
448.75
  0
ARC
  8
_0-0_0
  6
CONTINUOUS
 62
    7
 10
-56.468903000000068
 20
449.25
 40
0.5
 50
269.99999700000001
 51
0
  0
LINE
  8
_0-0_0
  6
CONTINUOUS
 62
    7
 10
-66.650642000000062
 20
473.05001800000002
 11
-66.670998000000054
 21
473.05102499999998
  0
LINE
  8
_0-0_0
  6
CONTINUOUS
 62
    7
 10
-66.670998000000054
 20
473.05102499999998
 11
-66.691399000000047
 21
473.054169
  0
LINE
  8
_0-0_0
  6
CONTINUOUS
 62
    7
 10
-66.691399000000047
 20
473.054169
 11
-66.718224000000021
 21
473.06176799999997
  0
LINE
  8
_0-0_0
  6
CONTINUOUS
 62
    7
 10
-66.718224000000021
 20
473.06176799999997
 11
-66.743866000000025
 21
473.07312000000002
  0
LINE
  8
_0-0_0
  6
CONTINUOUS
 62
    7
 10
-66.743866000000025
 20
473.07312000000002
 11
-66.767670000000066
 21
473.08801299999999
  0
LINE
  8
_0-0_0
  6
CONTINUOUS
 62
    7
 10
-66.767670000000066
 20
473.08801299999999
 11
-66.784424000000058
 21
473.10150099999998
  0
LINE
  8
_0-0_0
  6
CONTINUOUS
 62
    7
 10
-66.784424000000058
 20
473.10150099999998
 11
-66.799927000000025
 21
473.11676
  0
LINE
  8
_0-0_0
  6
CONTINUOUS
 62
    7
 10
-66.799927000000025
 20
473.11676
 11
-66.826820000000055
 21
473.15139799999997
  0
LINE
  8
_0-0_0
  6
CONTINUOUS
 62
    7
 10
-66.826820000000055
 20
473.15139799999997
 11
-66.847862000000021
 21
473.189728
  0
LINE
  8
_0-0_0
  6
CONTINUOUS
 62
    7
 10
-66.847862000000021
 20
473.189728
 11
-66.859863000000018
 21
473.21963499999998
  0
LINE
  8
_0-0_0
  6
CONTINUOUS
 62
    7
 10
-66.859863000000018
 20
473.21963499999998
 11
-66.868904000000043
 21
473.25
  0
LINE
  8
_0-0_0
  6
CONTINUOUS
 62
    7
 10
-61.968903000000068
 20
477.15002399999997
 11
-61.968903000000068
 21
478.25
  0
LINE
  8
_0-0_0
  6
CONTINUOUS
 62
    7
 10
-67.468903000000068
 20
474.60000600000001
 11
-66.968903000000068
 21
474.60000600000001
  0
LINE
  8
_0-0_0
  6
CONTINUOUS
 62
    7
 10
-67.468903000000068
 20
477.15002399999997
 11
-61.968903000000068
 21
477.15002399999997
  0
ARC
  8
_0-0_0
  6
CONTINUOUS
 62
    7
 10
37.031096999999932
 20
474.95001200000002
 40
0.5
 50
269.99999700000001
 51
0
  0
ARC
  8
_0-0_0
  6
CONTINUOUS
 62
    7
 10
24.531096999999932
 20
475.75
 40
0.5
 50
90.000003000000007
 51
179.99999099999999
  0
LINE
  8
_0-0_0
  6
CONTINUOUS
 62
    7
 10
24.031096999999932
 20
474.95001200000002
 11
24.031096999999932
 21
475.75
  0
LINE
  8
_0-0_0
  6
CONTINUOUS
 62
    7
 10
-55.768898000000036
 20
451.13284299999998
 11
-55.768898000000036
 21
449.15002399999997
  0
LINE
  8
_0-0_0
  6
CONTINUOUS
 62
    7
 10
-55.768898000000036
 20
449.15002399999997
 11
-54.768898000000036
 21
449.15002399999997
  0
LINE
  8
_0-0_0
  6
CONTINUOUS
 62
    7
 10
-54.468903000000068
 20
451.15002399999997
 11
12.531096999999932
 21
451.15002399999997
  0
LINE
  8
_0-0_0
  6
CONTINUOUS
 62
    7
 10
-54.768898000000036
 20
449.15002399999997
 11
12.831099999999992
 21
449.15002399999997
  0
LINE
  8
_0-0_0
  6
CONTINUOUS
 62
    7
 10
12.831099999999992
 20
449.15002399999997
 11
13.831099999999992
 21
449.15002399999997
  0
LINE
  8
_0-0_0
  6
CONTINUOUS
 62
    7
 10
13.831099999999992
 20
451.13284299999998
 11
13.831099999999992
 21
449.15002399999997
  0
LINE
  8
_0-0_0
  6
CONTINUOUS
 62
    7
 10
24.031096999999932
 20
449.25
 11
23.531096999999932
 21
448.75
  0
ARC
  8
_0-0_0
  6
CONTINUOUS
 62
    7
 10
24.231093999999985
 20
449.45001200000002
 40
0.2
 50
90.000003000000007
 51
179.99999099999999
  0
ARC
  8
_0-0_0
  6
CONTINUOUS
 62
    7
 10
28.531096999999932
 20
450.15002399999997
 40
0.5
 50
269.99999700000001
 51
0
  0
LINE
  8
_0-0_0
  6
CONTINUOUS
 62
    7
 10
28.712844999999959
 20
452.85000600000001
 11
28.733199999999954
 21
452.84899899999999
  0
LINE
  8
_0-0_0
  6
CONTINUOUS
 62
    7
 10
28.733199999999954
 20
452.84899899999999
 11
28.753600999999946
 21
452.84585600000003
  0
LINE
  8
_0-0_0
  6
CONTINUOUS
 62
    7
 10
28.753600999999946
 20
452.84585600000003
 11
28.78042599999992
 21
452.838257
  0
LINE
  8
_0-0_0
  6
CONTINUOUS
 62
    7
 10
28.78042599999992
 20
452.838257
 11
28.806061
 21
452.82690400000001
  0
LINE
  8
_0-0_0
  6
CONTINUOUS
 62
    7
 10
28.806061
 20
452.82690400000001
 11
28.82986399999993
 21
452.81201199999998
  0
LINE
  8
_0-0_0
  6
CONTINUOUS
 62
    7
 10
28.82986399999993
 20
452.81201199999998
 11
28.846618999999919
 21
452.79849200000001
  0
LINE
  8
_0-0_0
  6
CONTINUOUS
 62
    7
 10
28.846618999999919
 20
452.79849200000001
 11
28.862121999999999
 21
452.78326399999997
  0
LINE
  8
_0-0_0
  6
CONTINUOUS
 62
    7
 10
28.862121999999999
 20
452.78326399999997
 11
28.889022999999952
 21
452.748627
  0
LINE
  8
_0-0_0
  6
CONTINUOUS
 62
    7
 10
28.889022999999952
 20
452.748627
 11
28.910064999999918
 21
452.71029700000003
  0
LINE
  8
_0-0_0
  6
CONTINUOUS
 62
    7
 10
28.910064999999918
 20
452.71029700000003
 11
28.922057999999993
 21
452.68035900000001
  0
LINE
  8
_0-0_0
  6
CONTINUOUS
 62
    7
 10
28.922057999999993
 20
452.68035900000001
 11
28.931106999999997
 21
452.65002399999997
  0
LINE
  8
_0-0_0
  6
CONTINUOUS
 62
    7
 10
28.712844999999959
 20
452.85000600000001
 11
28.531096999999932
 21
452.85000600000001
  0
LINE
  8
_0-0_0
  6
CONTINUOUS
 62
    7
 10
24.031096999999932
 20
454.15002399999997
 11
24.031096999999932
 21
453.09643599999998
  0
LINE
  8
_0-0_0
  6
CONTINUOUS
 62
    7
 10
24.031096999999932
 20
454.15002399999997
 11
24.031096999999932
 21
471.75
  0
LINE
  8
_0-0_0
  6
CONTINUOUS
 62
    7
 10
24.031096999999932
 20
473.72738600000002
 11
24.031096999999932
 21
471.75
  0
ARC
  8
_0-0_0
  6
CONTINUOUS
 62
    7
 10
23.531096999999932
 20
472.50500499999998
 40
0.5
 50
0
 51
123.74898500000002
  0
ARC
  8
_0-0_0
  6
CONTINUOUS
 62
    7
 10
24.201384999999959
 20
453.02331500000003
 40
0.1734229999999999
 50
181.12417600000003
 51
270.64883800000007
  0
LINE
  8
_0-0_0
  6
CONTINUOUS
 62
    7
 10
24.027053999999964
 20
453.05001800000002
 11
24.027144999999962
 21
453.01986699999998
  0
ARC
  8
_0-0_0
  6
CONTINUOUS
 62
    7
 10
19.331099999999992
 20
475.75
 40
0.5
 50
0
 51
90.000003000000007
  0
ARC
  8
_0-0_0
  6
CONTINUOUS
 62
    7
 10
-56.968903000000068
 20
474.75
 40
2.7000000000000002
 50
285.68033600000007
 51
0.0000000000000381
  0
ARC
  8
_0-0_0
  6
CONTINUOUS
 62
    7
 10
-39.968903000000068
 20
458.95001200000002
 40
3
 50
269.99999700000001
 51
0
  0
LINE
  8
_0-0_0
  6
CONTINUOUS
 62
    7
 10
-36.968903000000068
 20
458.95001200000002
 11
-36.968903000000068
 21
472.55001800000002
  0
ARC
  8
_0-0_0
  6
CONTINUOUS
 62
    7
 10
-39.968903000000068
 20
472.55001800000002
 40
3
 50
0
 51
90.000003000000007
  0
ARC
  8
_0-0_0
  6
CONTINUOUS
 62
    7
 10
-44.468903000000068
 20
468.25
 40
4.5
 50
269.99999700000001
 51
90.000002999999992
  0
LINE
  8
_0-0_0
  6
CONTINUOUS
 62
    7
 10
-44.468903000000068
 20
463.75
 11
-49.468903000000068
 21
463.75
  0
ARC
  8
_0-0_0
  6
CONTINUOUS
 62
    7
 10
-49.468903000000068
 20
468.25
 40
4.5
 50
90.000003000000007
 51
269.99999700000006
  0
LINE
  8
_0-0_0
  6
CONTINUOUS
 62
    7
 10
-49.468903000000068
 20
472.75
 11
-44.468903000000068
 21
472.75
  0
ARC
  8
_0-0_0
  6
CONTINUOUS
 62
    7
 10
2.0310969999999315
 20
458.95001200000002
 40
3
 50
179.99999099999999
 51
269.99999700000001
  0
LINE
  8
_0-0_0
  6
CONTINUOUS
 62
    7
 10
-0.9689030000000684
 20
472.55001800000002
 11
-0.9689030000000684
 21
458.95001200000002
  0
ARC
  8
_0-0_0
  6
CONTINUOUS
 62
    7
 10
2.0310969999999315
 20
472.55001800000002
 40
3
 50
90.000003000000007
 51
179.99999099999999
  0
ARC
  8
_0-0_0
  6
CONTINUOUS
 62
    7
 10
11.531096999999932
 20
468.25
 40
4.5
 50
269.99999700000001
 51
90.000002999999992
  0
LINE
  8
_0-0_0
  6
CONTINUOUS
 62
    7
 10
11.531096999999932
 20
463.75
 11
6.5310969999999315
 21
463.75
  0
ARC
  8
_0-0_0
  6
CONTINUOUS
 62
    7
 10
6.5310969999999315
 20
468.25
 40
4.5
 50
90.000003000000007
 51
269.99999700000006
  0
LINE
  8
_0-0_0
  6
CONTINUOUS
 62
    7
 10
6.5310969999999315
 20
472.75
 11
11.531096999999932
 21
472.75
  0
LINE
  8
_0-0_0
  6
CONTINUOUS
 62
    7
 10
-66.468903000000068
 20
473.05001800000002
 11
-66.650642000000062
 21
473.05001800000002
  0
LINE
  8
_0-0_0
  6
CONTINUOUS
 62
    7
 10
-61.968903000000068
 20
454.95001200000002
 11
-61.968903000000068
 21
453.29168700000002
  0
LINE
  8
_0-0_0
  6
CONTINUOUS
 62
    7
 10
-61.968903000000068
 20
454.95001200000002
 11
-61.968903000000068
 21
471.45001200000002
  0
LINE
  8
_0-0_0
  6
CONTINUOUS
 62
    7
 10
-61.968903000000068
 20
472.91629
 11
-61.968903000000068
 21
471.45001200000002
  0
ARC
  8
_0-0_0
  6
CONTINUOUS
 62
    7
 10
-62.139191000000039
 20
453.02328499999999
 40
0.1734209999999999
 50
269.35085600000002
 51
358.87625300000002
  0
LINE
  8
_0-0_0
  6
CONTINUOUS
 62
    7
 10
-61.964859000000047
 20
453.05001800000002
 11
-61.964935000000025
 21
453.01986699999998
  0
LINE
  8
_0-0_0
  6
CONTINUOUS
 62
    7
 10
-61.964859000000047
 20
472.85000600000001
 11
-61.964935000000025
 21
472.88012700000002
  0
ARC
  8
_0-0_0
  6
CONTINUOUS
 62
    7
 10
-62.139191000000039
 20
472.87670900000001
 40
0.1734219999999999
 50
1.1236539999999999
 51
90.649110000000007
  0
LINE
  8
_0-0_0
  6
CONTINUOUS
 62
    7
 10
-66.468903000000068
 20
452.85000600000001
 11
-66.650642000000062
 21
452.85000600000001
  0
LINE
  8
_0-0_0
  6
CONTINUOUS
 62
    7
 10
-66.650650000000041
 20
452.85000600000001
 11
-66.670998000000054
 21
452.84899899999999
  0
LINE
  8
_0-0_0
  6
CONTINUOUS
 62
    7
 10
-66.670998000000054
 20
452.84899899999999
 11
-66.691406000000029
 21
452.84582499999999
  0
LINE
  8
_0-0_0
  6
CONTINUOUS
 62
    7
 10
-66.691406000000029
 20
452.84582499999999
 11
-66.718224000000021
 21
452.838257
  0
LINE
  8
_0-0_0
  6
CONTINUOUS
 62
    7
 10
-66.718224000000021
 20
452.838257
 11
-66.743866000000025
 21
452.82690400000001
  0
LINE
  8
_0-0_0
  6
CONTINUOUS
 62
    7
 10
-66.743866000000025
 20
452.82690400000001
 11
-66.767670000000066
 21
452.81201199999998
  0
LINE
  8
_0-0_0
  6
CONTINUOUS
 62
    7
 10
-66.767670000000066
 20
452.81201199999998
 11
-66.784424000000058
 21
452.79849200000001
  0
LINE
  8
_0-0_0
  6
CONTINUOUS
 62
    7
 10
-66.784424000000058
 20
452.79849200000001
 11
-66.799927000000025
 21
452.78326399999997
  0
LINE
  8
_0-0_0
  6
CONTINUOUS
 62
    7
 10
-66.799927000000025
 20
452.78326399999997
 11
-66.826820000000055
 21
452.748627
  0
LINE
  8
_0-0_0
  6
CONTINUOUS
 62
    7
 10
-66.826820000000055
 20
452.748627
 11
-66.847862000000021
 21
452.71029700000003
  0
LINE
  8
_0-0_0
  6
CONTINUOUS
 62
    7
 10
-66.847862000000021
 20
452.71029700000003
 11
-66.859863000000018
 21
452.68035900000001
  0
LINE
  8
_0-0_0
  6
CONTINUOUS
 62
    7
 10
-66.859863000000018
 20
452.68035900000001
 11
-66.868904000000043
 21
452.65002399999997
  0
ARC
  8
_0-0_0
  6
CONTINUOUS
 62
    7
 10
-66.468903000000068
 20
450.15002399999997
 40
0.5
 50
179.99999099999999
 51
269.99999700000001
  0
ARC
  8
_0-0_0
  6
CONTINUOUS
 62
    7
 10
-62.168900000000008
 20
449.45001200000002
 40
0.2
 50
0
 51
90.000003000000007
  0
LINE
  8
_0-0_0
  6
CONTINUOUS
 62
    7
 10
-61.968903000000068
 20
449.25
 11
-61.468903000000068
 21
448.75
  0
LINE
  8
_0-0_0
  6
CONTINUOUS
 62
    7
 10
-67.968903000000068
 20
475.09429899999998
 11
-67.968903000000068
 21
476.65002399999997
  0
ARC
  8
_0-0_0
  6
CONTINUOUS
 62
    7
 10
-67.48199500000004
 20
475.09765599999997
 40
0.4869939999999999
 50
180.39493000000002
 51
203.93946700000001
  0
ARC
  8
_0-0_0
  6
CONTINUOUS
 62
    7
 10
-67.468903000000068
 20
475.10000600000001
 40
0.5
 50
203.57823099999999
 51
269.99999700000001
  0
ARC
  8
_0-0_0
  6
CONTINUOUS
 62
    7
 10
-67.468903000000068
 20
476.65002399999997
 40
0.5
 50
90.000003000000007
 51
179.99999099999999
  0
LINE
  8
_0-0_0
  6
CONTINUOUS
 62
    7
 10
24.031096999999932
 20
474.45001200000002
 11
24.531096999999932
 21
474.45001200000002
  0
LINE
  8
_0-0_0
  6
CONTINUOUS
 62
    7
 10
24.531096999999932
 20
474.45001200000002
 11
37.031096999999932
 21
474.45001200000002
  0
ARC
  8
_0-0_0
  6
CONTINUOUS
 62
    7
 10
24.531096999999932
 20
474.95001200000002
 40
0.5
 50
179.99999099999999
 51
269.99999700000001
  0
LINE
  8
_0-0_0
  6
CONTINUOUS
 62
    7
 10
24.031096999999932
 20
474.08398399999999
 11
24.031096999999932
 21
474.45001200000002
  0
LINE
  8
_0-0_0
  6
CONTINUOUS
 62
    7
 10
24.031096999999932
 20
473.83349600000003
 11
24.031096999999932
 21
473.72738600000002
  0
LINE
  8
_0-0_0
  6
CONTINUOUS
 62
    7
 10
24.031096999999932
 20
474.08398399999999
 11
24.031096999999932
 21
473.83349600000003
  0
CIRCLE
  8
_0-0_0
  6
CONTINUOUS
 62
    7
 10
-56.968903000000068
 20
474.75
 40
1.4750000000000001
  0
CIRCLE
  8
_0-0_0
  6
CONTINUOUS
 62
    7
 10
22.031096999999932
 20
474.75
 40
1.4750000000000001
  0
LINE
  8
_0-0_0
  6
CONTINUOUS
 62
    7
 10
-67.968903000000068
 20
454.95001200000002
 11
-67.968903000000068
 21
452.45001200000002
  0
LINE
  8
_0-0_0
  6
CONTINUOUS
 62
    7
 10
-67.968903000000068
 20
454.95001200000002
 11
-67.968903000000068
 21
467.75
  0
LINE
  8
_0-0_0
  6
CONTINUOUS
 62
    7
 10
-67.968903000000068
 20
471.25
 11
-67.968903000000068
 21
467.75
  0
LINE
  8
_0-0_0
  6
CONTINUOUS
 62
    7
 10
-67.968903000000068
 20
471.25
 11
-67.968903000000068
 21
471.60000600000001
  0
LINE
  8
_0-0_0
  6
CONTINUOUS
 62
    7
 10
-67.968903000000068
 20
475.09429899999998
 11
-67.968903000000068
 21
471.60000600000001
  0
LINE
  8
_0-0_0
  6
CONTINUOUS
 62
    7
 10
-67.968903000000068
 20
476.942902
 11
-67.968903000000068
 21
476.65002399999997
  0
LINE
  8
_0-0_0
  6
CONTINUOUS
 62
    7
 10
-67.968903000000068
 20
476.942902
 11
-67.968903000000068
 21
477
  0
LINE
  8
_0-0_0
  6
CONTINUOUS
 62
    7
 10
-66.968369000000052
 20
451.95001200000002
 11
-67.468903000000068
 21
451.95001200000002
  0
LINE
  8
_0-0_0
  6
CONTINUOUS
 62
    7
 10
29.019896999999958
 20
452.15002399999997
 11
36.031096999999932
 21
452.15002399999997
  0
LINE
  8
_0-0_0
  6
CONTINUOUS
 62
    7
 10
36.031096999999932
 20
452.15002399999997
 11
40.706542999999954
 21
452.15002399999997
  0
LINE
  8
_0-0_0
  6
CONTINUOUS
 62
    7
 10
36.031096999999932
 20
452.15002399999997
 11
36.031096999999932
 21
454.15002399999997
  0
LINE
  8
_0-0_0
  6
CONTINUOUS
 62
    7
 10
36.031096999999932
 20
457.65002399999997
 11
36.031096999999932
 21
454.65002399999997
  0
LINE
  8
_0-0_0
  6
CONTINUOUS
 62
    7
 10
36.031096999999932
 20
454.65002399999997
 11
36.031096999999932
 21
454.15002399999997
  0
LINE
  8
_0-0_0
  6
CONTINUOUS
 62
    7
 10
36.031096999999932
 20
457.65002399999997
 11
36.031096999999932
 21
458.15002399999997
  0
ARC
  8
_0-0_0
  6
CONTINUOUS
 62
    7
 10
30.031081999999969
 20
457.45001200000002
 40
0.500016
 50
180.00117
 51
359.995611
  0
LINE
  8
_0-0_0
  6
CONTINUOUS
 62
    7
 10
30.531096999999932
 20
457.45001200000002
 11
30.531096999999932
 21
469.45001200000002
  0
ARC
  8
_0-0_0
  6
CONTINUOUS
 62
    7
 10
30.031081999999969
 20
469.45001200000002
 40
0.500016
 50
0.001164
 51
179.99560600000004
  0
LINE
  8
_0-0_0
  6
CONTINUOUS
 62
    7
 10
29.531096999999932
 20
457.45001200000002
 11
29.531096999999932
 21
469.45001200000002
  0
ARC
  8
_0-0_0
  6
CONTINUOUS
 62
    7
 10
31.531081999999969
 20
457.45001200000002
 40
0.500016
 50
180.00117
 51
359.995611
  0
LINE
  8
_0-0_0
  6
CONTINUOUS
 62
    7
 10
32.031096999999932
 20
457.45001200000002
 11
32.031096999999932
 21
469.45001200000002
  0
ARC
  8
_0-0_0
  6
CONTINUOUS
 62
    7
 10
31.531081999999969
 20
469.45001200000002
 40
0.500016
 50
0.001164
 51
179.99560600000004
  0
LINE
  8
_0-0_0
  6
CONTINUOUS
 62
    7
 10
31.031096999999932
 20
457.45001200000002
 11
31.031096999999932
 21
469.45001200000002
  0
ARC
  8
_0-0_0
  6
CONTINUOUS
 62
    7
 10
33.031081999999969
 20
457.45001200000002
 40
0.500016
 50
180.00117
 51
359.995611
  0
LINE
  8
_0-0_0
  6
CONTINUOUS
 62
    7
 10
33.531096999999932
 20
457.45001200000002
 11
33.531096999999932
 21
469.45001200000002
  0
ARC
  8
_0-0_0
  6
CONTINUOUS
 62
    7
 10
33.031081999999969
 20
469.45001200000002
 40
0.500016
 50
0.001164
 51
179.99560600000004
  0
LINE
  8
_0-0_0
  6
CONTINUOUS
 62
    7
 10
32.531096999999932
 20
457.45001200000002
 11
32.531096999999932
 21
469.45001200000002
  0
ARC
  8
_0-0_0
  6
CONTINUOUS
 62
    7
 10
34.531081999999969
 20
457.45001200000002
 40
0.500016
 50
180.00117
 51
359.995611
  0
LINE
  8
_0-0_0
  6
CONTINUOUS
 62
    7
 10
35.031096999999932
 20
457.45001200000002
 11
35.031096999999932
 21
469.45001200000002
  0
ARC
  8
_0-0_0
  6
CONTINUOUS
 62
    7
 10
34.531081999999969
 20
469.45001200000002
 40
0.500016
 50
0.001164
 51
179.99560600000004
  0
LINE
  8
_0-0_0
  6
CONTINUOUS
 62
    7
 10
34.031096999999932
 20
457.45001200000002
 11
34.031096999999932
 21
469.45001200000002
  0
LINE
  8
_0-0_0
  6
CONTINUOUS
 62
    7
 10
24.031096999999932
 20
473.75
 11
40.706542999999954
 21
473.75
  0
LINE
  8
_0-0_0
  6
CONTINUOUS
 62
    7
 10
-67.468903000000068
 20
477.5
 11
-61.968903000000068
 21
477.5
  0
ARC
  8
_0-0_0
  6
CONTINUOUS
 62
    7
 10
-67.468903000000068
 20
477
 40
0.5
 50
90.000003000000007
 51
179.99999099999999
  0
ARC
  8
_0-0_0
  6
CONTINUOUS
 62
    7
 10
-67.468903000000068
 20
452.45001200000002
 40
0.5
 50
179.99999099999999
 51
269.99999700000001
  0
ARC
  8
_0-0_0
  6
CONTINUOUS
 62
    7
 10
-67.468903000000068
 20
467.75
 40
0.5
 50
90.000003000000007
 51
179.99999099999999
  0
ARC
  8
_0-0_0
  6
CONTINUOUS
 62
    7
 10
40.706542999999954
 20
454.15002399999997
 40
2
 50
269.99999700000001
 51
288.43501300000003
  0
LINE
  8
_0-0_0
  6
CONTINUOUS
 62
    7
 10
36.031096999999932
 20
452.15002399999997
 11
36.031096999999932
 21
452.40008499999999
  0
LINE
  8
_0-0_0
  6
CONTINUOUS
 62
    7
 10
36.031096999999932
 20
457.65002399999997
 11
40.706542999999954
 21
457.65002399999997
  0
LINE
  8
_0-0_0
  6
CONTINUOUS
 62
    7
 10
41.339003999999932
 20
473.64736900000003
 11
41.21949799999993
 21
473.68298299999998
  0
LINE
  8
_0-0_0
  6
CONTINUOUS
 62
    7
 10
41.21949799999993
 20
473.68298299999998
 11
41.097945999999979
 21
473.71087599999998
  0
LINE
  8
_0-0_0
  6
CONTINUOUS
 62
    7
 10
41.097945999999979
 20
473.71087599999998
 11
40.974807999999939
 21
473.73092700000001
  0
LINE
  8
_0-0_0
  6
CONTINUOUS
 62
    7
 10
40.974807999999939
 20
473.73092700000001
 11
40.850585999999964
 21
473.743042
  0
LINE
  8
_0-0_0
  6
CONTINUOUS
 62
    7
 10
40.850585999999964
 20
473.743042
 11
40.725768999999957
 21
473.747162
  0
LINE
  8
_0-0_0
  6
CONTINUOUS
 62
    7
 10
40.725768999999957
 20
473.747162
 11
40.706542999999954
 21
473.74710099999999
  0
ARC
  8
_0-0_0
  6
CONTINUOUS
 62
    7
 10
40.706542999999954
 20
471.75
 40
2
 50
71.565000999999995
 51
90.000003000000007
  0
LINE
  8
_0-0_0
  6
CONTINUOUS
 62
    7
 10
-42.997360000000072
 20
464.15002399999997
 11
-50.940437000000031
 21
464.15002399999997
  0
ARC
  8
_0-0_0
  6
CONTINUOUS
 62
    7
 10
-50.940437000000031
 20
464.65002399999997
 40
0.5
 50
210.00000299999999
 51
269.99999700000001
  0
LINE
  8
_0-0_0
  6
CONTINUOUS
 62
    7
 10
-51.373451000000045
 20
464.40002399999997
 11
-53.45191200000005
 21
468
  0
ARC
  8
_0-0_0
  6
CONTINUOUS
 62
    7
 10
-53.018898000000036
 20
468.25
 40
0.5
 50
149.99999700000001
 51
210.00000299999996
  0
LINE
  8
_0-0_0
  6
CONTINUOUS
 62
    7
 10
-53.45191200000005
 20
468.5
 11
-51.373451000000045
 21
472.10000600000001
  0
ARC
  8
_0-0_0
  6
CONTINUOUS
 62
    7
 10
-50.940437000000031
 20
471.85000600000001
 40
0.5
 50
90.000003000000007
 51
149.99999700000001
  0
LINE
  8
_0-0_0
  6
CONTINUOUS
 62
    7
 10
-50.940437000000031
 20
472.35000600000001
 11
-42.997360000000072
 21
472.35000600000001
  0
ARC
  8
_0-0_0
  6
CONTINUOUS
 62
    7
 10
-42.997360000000072
 20
471.85000600000001
 40
0.5
 50
30.000001000000001
 51
90.000003000000007
  0
LINE
  8
_0-0_0
  6
CONTINUOUS
 62
    7
 10
-42.564346000000057
 20
472.10000600000001
 11
-40.48588600000005
 21
468.5
  0
ARC
  8
_0-0_0
  6
CONTINUOUS
 62
    7
 10
-40.918900000000008
 20
468.25
 40
0.5
 50
329.99998900000003
 51
30.000000999999983
  0
LINE
  8
_0-0_0
  6
CONTINUOUS
 62
    7
 10
-40.48588600000005
 20
468
 11
-42.564346000000057
 21
464.40002399999997
  0
ARC
  8
_0-0_0
  6
CONTINUOUS
 62
    7
 10
-42.997360000000072
 20
464.65002399999997
 40
0.5
 50
269.99999700000001
 51
329.99998900000003
  0
ARC
  8
_0-0_0
  6
CONTINUOUS
 62
    7
 10
5.0018309999999246
 20
464.75
 40
0.5
 50
210.00000299999999
 51
269.99999700000001
  0
LINE
  8
_0-0_0
  6
CONTINUOUS
 62
    7
 10
4.5688169999999673
 20
464.5
 11
2.5480959999999868
 21
468
  0
ARC
  8
_0-0_0
  6
CONTINUOUS
 62
    7
 10
2.9810939999999846
 20
468.25
 40
0.5
 50
149.99999700000001
 51
210.00000299999996
  0
LINE
  8
_0-0_0
  6
CONTINUOUS
 62
    7
 10
2.5480959999999868
 20
468.5
 11
4.5688169999999673
 21
472
  0
ARC
  8
_0-0_0
  6
CONTINUOUS
 62
    7
 10
5.0018309999999246
 20
471.75
 40
0.5
 50
90.000003000000007
 51
149.99999700000001
  0
LINE
  8
_0-0_0
  6
CONTINUOUS
 62
    7
 10
5.0018309999999246
 20
472.25
 11
13.060378999999955
 21
472.25
  0
ARC
  8
_0-0_0
  6
CONTINUOUS
 62
    7
 10
13.060378999999955
 20
471.75
 40
0.5
 50
30.000001000000001
 51
90.000003000000007
  0
LINE
  8
_0-0_0
  6
CONTINUOUS
 62
    7
 10
13.493392999999969
 20
472
 11
15.51411399999995
 21
468.5
  0
ARC
  8
_0-0_0
  6
CONTINUOUS
 62
    7
 10
15.081099999999992
 20
468.25
 40
0.5
 50
329.99998900000003
 51
30.000000999999983
  0
LINE
  8
_0-0_0
  6
CONTINUOUS
 62
    7
 10
15.51411399999995
 20
468
 11
13.493392999999969
 21
464.5
  0
ARC
  8
_0-0_0
  6
CONTINUOUS
 62
    7
 10
13.060378999999955
 20
464.75
 40
0.5
 50
269.99999700000001
 51
329.99998900000003
  0
LINE
  8
_0-0_0
  6
CONTINUOUS
 62
    7
 10
13.060378999999955
 20
464.25
 11
5.0018309999999246
 21
464.25
  0
LINE
  8
_0-0_0
  6
CONTINUOUS
 62
    7
 10
-64.968903000000068
 20
472.88043199999998
 11
-64.968903000000068
 21
472.05419899999998
  0
LINE
  8
_0-0_0
  6
CONTINUOUS
 62
    7
 10
-67.468903000000068
 20
468.25
 11
-65.268906000000015
 21
468.25
  0
LINE
  8
_0-0_0
  6
CONTINUOUS
 62
    7
 10
-64.968903000000068
 20
468.55001800000002
 11
-64.968903000000068
 21
470.77832000000001
  0
LINE
  8
_0-0_0
  6
CONTINUOUS
 62
    7
 10
-64.968903000000068
 20
473.04968300000002
 11
-64.968903000000068
 21
472.88043199999998
  0
LINE
  8
_0-0_0
  6
CONTINUOUS
 62
    7
 10
-56.768898000000036
 20
473.65002399999997
 11
-57.168900000000008
 21
473.65002399999997
  0
LINE
  8
_0-0_0
  6
CONTINUOUS
 62
    7
 10
-56.768898000000036
 20
473.65002399999997
 11
-56.768898000000036
 21
474.30001800000002
  0
ARC
  8
_0-0_0
  6
CONTINUOUS
 62
    7
 10
-56.518898000000036
 20
474.30001800000002
 40
0.25
 50
90.000003000000007
 51
179.99999099999999
  0
LINE
  8
_0-0_0
  6
CONTINUOUS
 62
    7
 10
-56.518898000000036
 20
474.55001800000002
 11
-55.868904000000043
 21
474.55001800000002
  0
LINE
  8
_0-0_0
  6
CONTINUOUS
 62
    7
 10
-55.868904000000043
 20
474.55001800000002
 11
-55.868904000000043
 21
474.95001200000002
  0
LINE
  8
_0-0_0
  6
CONTINUOUS
 62
    7
 10
-56.518898000000036
 20
474.95001200000002
 11
-55.868904000000043
 21
474.95001200000002
  0
ARC
  8
_0-0_0
  6
CONTINUOUS
 62
    7
 10
-56.518898000000036
 20
475.20001200000002
 40
0.25
 50
179.99999099999999
 51
269.99999700000001
  0
LINE
  8
_0-0_0
  6
CONTINUOUS
 62
    7
 10
-56.768898000000036
 20
475.85000600000001
 11
-56.768898000000036
 21
475.20001200000002
  0
LINE
  8
_0-0_0
  6
CONTINUOUS
 62
    7
 10
-56.768898000000036
 20
475.85000600000001
 11
-57.168900000000008
 21
475.85000600000001
  0
LINE
  8
_0-0_0
  6
CONTINUOUS
 62
    7
 10
-57.168900000000008
 20
475.85000600000001
 11
-57.168900000000008
 21
475.20001200000002
  0
ARC
  8
_0-0_0
  6
CONTINUOUS
 62
    7
 10
-57.418900000000008
 20
475.20001200000002
 40
0.25
 50
269.99999700000001
 51
0
  0
LINE
  8
_0-0_0
  6
CONTINUOUS
 62
    7
 10
-57.418900000000008
 20
474.95001200000002
 11
-58.068901000000039
 21
474.95001200000002
  0
LINE
  8
_0-0_0
  6
CONTINUOUS
 62
    7
 10
-58.068901000000039
 20
474.55001800000002
 11
-58.068901000000039
 21
474.95001200000002
  0
LINE
  8
_0-0_0
  6
CONTINUOUS
 62
    7
 10
-57.418900000000008
 20
474.55001800000002
 11
-58.068901000000039
 21
474.55001800000002
  0
ARC
  8
_0-0_0
  6
CONTINUOUS
 62
    7
 10
-57.418900000000008
 20
474.30001800000002
 40
0.25
 50
0
 51
90.000003000000007
  0
LINE
  8
_0-0_0
  6
CONTINUOUS
 62
    7
 10
-57.168900000000008
 20
473.65002399999997
 11
-57.168900000000008
 21
474.30001800000002
  0
LINE
  8
_0-0_0
  6
CONTINUOUS
 62
    7
 10
22.231093999999985
 20
473.65002399999997
 11
21.831099999999992
 21
473.65002399999997
  0
LINE
  8
_0-0_0
  6
CONTINUOUS
 62
    7
 10
22.231093999999985
 20
473.65002399999997
 11
22.231093999999985
 21
474.30001800000002
  0
ARC
  8
_0-0_0
  6
CONTINUOUS
 62
    7
 10
22.481093999999985
 20
474.30001800000002
 40
0.25
 50
90.000003000000007
 51
179.99999099999999
  0
LINE
  8
_0-0_0
  6
CONTINUOUS
 62
    7
 10
22.481093999999985
 20
474.55001800000002
 11
23.131102999999939
 21
474.55001800000002
  0
LINE
  8
_0-0_0
  6
CONTINUOUS
 62
    7
 10
23.131102999999939
 20
474.55001800000002
 11
23.131102999999939
 21
474.95001200000002
  0
LINE
  8
_0-0_0
  6
CONTINUOUS
 62
    7
 10
22.481093999999985
 20
474.95001200000002
 11
23.131102999999939
 21
474.95001200000002
  0
ARC
  8
_0-0_0
  6
CONTINUOUS
 62
    7
 10
22.481093999999985
 20
475.20001200000002
 40
0.25
 50
179.99999099999999
 51
269.99999700000001
  0
LINE
  8
_0-0_0
  6
CONTINUOUS
 62
    7
 10
22.231093999999985
 20
475.85000600000001
 11
22.231093999999985
 21
475.20001200000002
  0
LINE
  8
_0-0_0
  6
CONTINUOUS
 62
    7
 10
22.231093999999985
 20
475.85000600000001
 11
21.831099999999992
 21
475.85000600000001
  0
LINE
  8
_0-0_0
  6
CONTINUOUS
 62
    7
 10
21.831099999999992
 20
475.85000600000001
 11
21.831099999999992
 21
475.20001200000002
  0
ARC
  8
_0-0_0
  6
CONTINUOUS
 62
    7
 10
21.581099999999992
 20
475.20001200000002
 40
0.25
 50
269.99999700000001
 51
0
  0
LINE
  8
_0-0_0
  6
CONTINUOUS
 62
    7
 10
21.581099999999992
 20
474.95001200000002
 11
20.931106999999997
 21
474.95001200000002
  0
LINE
  8
_0-0_0
  6
CONTINUOUS
 62
    7
 10
20.931106999999997
 20
474.55001800000002
 11
20.931106999999997
 21
474.95001200000002
  0
LINE
  8
_0-0_0
  6
CONTINUOUS
 62
    7
 10
21.581099999999992
 20
474.55001800000002
 11
20.931106999999997
 21
474.55001800000002
  0
ARC
  8
_0-0_0
  6
CONTINUOUS
 62
    7
 10
21.581099999999992
 20
474.30001800000002
 40
0.25
 50
0
 51
90.000003000000007
  0
LINE
  8
_0-0_0
  6
CONTINUOUS
 62
    7
 10
21.831099999999992
 20
473.65002399999997
 11
21.831099999999992
 21
474.30001800000002
  0
LINE
  8
_0-0_0
  6
CONTINUOUS
 62
    7
 10
41.781096999999932
 20
452.39999399999999
 11
41.339003999999932
 21
452.25262500000002
  0
LINE
  8
_0-0_0
  6
CONTINUOUS
 62
    7
 10
45.505446999999947
 20
457.65002399999997
 11
46.198806999999988
 21
457.65002399999997
  0
LINE
  8
_0-0_0
  6
CONTINUOUS
 62
    7
 10
45.505446999999947
 20
457.65002399999997
 11
41.180892999999969
 21
457.65002399999997
  0
LINE
  8
_0-0_0
  6
CONTINUOUS
 62
    7
 10
40.706542999999954
 20
457.65002399999997
 11
41.180892999999969
 21
457.65002399999997
  0
LINE
  8
_0-0_0
  6
CONTINUOUS
 62
    7
 10
45.663558999999964
 20
472.20584100000002
 11
41.339003999999932
 21
473.64736900000003
  0
LINE
  8
_0-0_0
  6
CONTINUOUS
 62
    7
 10
-64.968903000000068
 20
472.05419899999998
 11
-64.968903000000068
 21
470.77832000000001
  0
ARC
  8
_0-0_0
  6
CONTINUOUS
 62
    7
 10
-65.268906000000015
 20
468.55001800000002
 40
0.2999999999999999
 50
269.99999700000001
 51
0
  0
LINE
  8
_0-0_0
  6
CONTINUOUS
 62
    7
 10
-67.424568000000022
 20
472.32870500000001
 11
-67.424568000000022
 21
469
  0
LINE
  8
_0-0_0
  6
CONTINUOUS
 62
    7
 10
-67.424568000000022
 20
473.5
 11
-67.424568000000022
 21
472.32870500000001
  0
LINE
  8
_0-0_0
  6
CONTINUOUS
 62
    7
 10
47.031096999999932
 20
456.89996300000001
 11
47.031096999999932
 21
458.02099600000003
  0
LINE
  8
_0-0_0
  6
CONTINUOUS
 62
    7
 10
47.031096999999932
 20
458.94232199999999
 11
47.031096999999932
 21
458.02099600000003
  0
LINE
  8
_0-0_0
  6
CONTINUOUS
 62
    7
 10
46.731093999999985
 20
460.73800699999998
 11
46.789901999999984
 21
460.49117999999999
  0
LINE
  8
_0-0_0
  6
CONTINUOUS
 62
    7
 10
46.789901999999984
 20
460.49117999999999
 11
46.839660999999978
 21
460.29882800000001
  0
LINE
  8
_0-0_0
  6
CONTINUOUS
 62
    7
 10
46.839660999999978
 20
460.29882800000001
 11
46.910797000000002
 21
460.033051
  0
LINE
  8
_0-0_0
  6
CONTINUOUS
 62
    7
 10
46.910797000000002
 20
460.033051
 11
46.943755999999951
 21
459.906342
  0
LINE
  8
_0-0_0
  6
CONTINUOUS
 62
    7
 10
46.943755999999951
 20
459.906342
 11
46.969008999999971
 21
459.80291699999998
  0
LINE
  8
_0-0_0
  6
CONTINUOUS
 62
    7
 10
46.969008999999971
 20
459.80291699999998
 11
46.991042999999991
 21
459.70297199999999
  0
LINE
  8
_0-0_0
  6
CONTINUOUS
 62
    7
 10
46.991042999999991
 20
459.70297199999999
 11
47.012420999999961
 21
459.58526599999999
  0
LINE
  8
_0-0_0
  6
CONTINUOUS
 62
    7
 10
47.012420999999961
 20
459.58526599999999
 11
47.020995999999968
 21
459.52313199999998
  0
LINE
  8
_0-0_0
  6
CONTINUOUS
 62
    7
 10
47.020995999999968
 20
459.52313199999998
 11
47.027068999999983
 21
459.46252399999997
  0
LINE
  8
_0-0_0
  6
CONTINUOUS
 62
    7
 10
47.027068999999983
 20
459.46252399999997
 11
47.030074999999954
 21
459.41329999999999
  0
LINE
  8
_0-0_0
  6
CONTINUOUS
 62
    7
 10
47.030074999999954
 20
459.41329999999999
 11
47.031096999999932
 21
459.36505099999999
  0
LINE
  8
_0-0_0
  6
CONTINUOUS
 62
    7
 10
46.731093999999985
 20
465.16204800000003
 11
46.647643999999957
 21
464.78335600000003
  0
LINE
  8
_0-0_0
  6
CONTINUOUS
 62
    7
 10
46.647643999999957
 20
464.78335600000003
 11
46.607543999999962
 21
464.59182700000002
  0
LINE
  8
_0-0_0
  6
CONTINUOUS
 62
    7
 10
46.607543999999962
 20
464.59182700000002
 11
46.551468
 21
464.30181900000002
  0
LINE
  8
_0-0_0
  6
CONTINUOUS
 62
    7
 10
46.551468
 20
464.30181900000002
 11
46.513869999999997
 21
464.08221400000002
  0
LINE
  8
_0-0_0
  6
CONTINUOUS
 62
    7
 10
46.513869999999997
 20
464.08221400000002
 11
46.481215999999961
 21
463.86096199999997
  0
LINE
  8
_0-0_0
  6
CONTINUOUS
 62
    7
 10
46.481215999999961
 20
463.86096199999997
 11
46.454055999999923
 21
463.63415500000002
  0
LINE
  8
_0-0_0
  6
CONTINUOUS
 62
    7
 10
46.454055999999923
 20
463.63415500000002
 11
46.433989999999994
 21
463.406769
  0
LINE
  8
_0-0_0
  6
CONTINUOUS
 62
    7
 10
46.433989999999994
 20
463.406769
 11
46.426833999999985
 21
463.29302999999999
  0
LINE
  8
_0-0_0
  6
CONTINUOUS
 62
    7
 10
46.426833999999985
 20
463.29302999999999
 11
46.421676999999931
 21
463.17935199999999
  0
LINE
  8
_0-0_0
  6
CONTINUOUS
 62
    7
 10
46.421676999999931
 20
463.17935199999999
 11
46.417968999999971
 21
463.02792399999998
  0
LINE
  8
_0-0_0
  6
CONTINUOUS
 62
    7
 10
46.417968999999971
 20
463.02792399999998
 11
46.417907999999954
 21
462.87667800000003
  0
LINE
  8
_0-0_0
  6
CONTINUOUS
 62
    7
 10
46.417907999999954
 20
462.87667800000003
 11
46.421477999999979
 21
462.725616
  0
LINE
  8
_0-0_0
  6
CONTINUOUS
 62
    7
 10
46.421477999999979
 20
462.725616
 11
46.430983999999967
 21
462.53707900000001
  0
LINE
  8
_0-0_0
  6
CONTINUOUS
 62
    7
 10
46.430983999999967
 20
462.53707900000001
 11
46.44586199999992
 21
462.348816
  0
LINE
  8
_0-0_0
  6
CONTINUOUS
 62
    7
 10
46.44586199999992
 20
462.348816
 11
46.465774999999951
 21
462.160889
  0
LINE
  8
_0-0_0
  6
CONTINUOUS
 62
    7
 10
46.465774999999951
 20
462.160889
 11
46.48216199999996
 21
462.03201300000001
  0
LINE
  8
_0-0_0
  6
CONTINUOUS
 62
    7
 10
46.48216199999996
 20
462.03201300000001
 11
46.500579999999957
 21
461.90335099999999
  0
LINE
  8
_0-0_0
  6
CONTINUOUS
 62
    7
 10
46.500579999999957
 20
461.90335099999999
 11
46.524733999999967
 21
461.75140399999998
  0
LINE
  8
_0-0_0
  6
CONTINUOUS
 62
    7
 10
46.524733999999967
 20
461.75140399999998
 11
46.551131999999939
 21
461.60006700000002
  0
LINE
  8
_0-0_0
  6
CONTINUOUS
 62
    7
 10
46.551131999999939
 20
461.60006700000002
 11
46.607299999999952
 21
461.30944799999997
  0
LINE
  8
_0-0_0
  6
CONTINUOUS
 62
    7
 10
46.607299999999952
 20
461.30944799999997
 11
46.647460999999964
 21
461.11749300000002
  0
LINE
  8
_0-0_0
  6
CONTINUOUS
 62
    7
 10
46.647460999999964
 20
461.11749300000002
 11
46.731093999999985
 21
460.73800699999998
  0
LINE
  8
_0-0_0
  6
CONTINUOUS
 62
    7
 10
46.731109999999944
 20
465.16204800000003
 11
46.789901999999984
 21
465.40887500000002
  0
LINE
  8
_0-0_0
  6
CONTINUOUS
 62
    7
 10
46.789901999999984
 20
465.40887500000002
 11
46.839660999999978
 21
465.60119600000002
  0
LINE
  8
_0-0_0
  6
CONTINUOUS
 62
    7
 10
46.839660999999978
 20
465.60119600000002
 11
46.910781999999926
 21
465.86694299999999
  0
LINE
  8
_0-0_0
  6
CONTINUOUS
 62
    7
 10
46.910781999999926
 20
465.86694299999999
 11
46.943740999999932
 21
465.993652
  0
LINE
  8
_0-0_0
  6
CONTINUOUS
 62
    7
 10
46.943740999999932
 20
465.993652
 11
46.969008999999971
 21
466.09707600000002
  0
LINE
  8
_0-0_0
  6
CONTINUOUS
 62
    7
 10
46.969008999999971
 20
466.09707600000002
 11
46.991042999999991
 21
466.19705199999999
  0
LINE
  8
_0-0_0
  6
CONTINUOUS
 62
    7
 10
46.991042999999991
 20
466.19705199999999
 11
47.012420999999961
 21
466.31475799999998
  0
LINE
  8
_0-0_0
  6
CONTINUOUS
 62
    7
 10
47.012420999999961
 20
466.31475799999998
 11
47.020995999999968
 21
466.376892
  0
LINE
  8
_0-0_0
  6
CONTINUOUS
 62
    7
 10
47.020995999999968
 20
466.376892
 11
47.027068999999983
 21
466.4375
  0
LINE
  8
_0-0_0
  6
CONTINUOUS
 62
    7
 10
47.027068999999983
 20
466.4375
 11
47.030074999999954
 21
466.48672499999998
  0
LINE
  8
_0-0_0
  6
CONTINUOUS
 62
    7
 10
47.030074999999954
 20
466.48672499999998
 11
47.031096999999932
 21
466.534943
  0
LINE
  8
_0-0_0
  6
CONTINUOUS
 62
    7
 10
47.031096999999932
 20
470.30847199999999
 11
47.031096999999932
 21
466.95770299999998
  0
ARC
  8
_0-0_0
  6
CONTINUOUS
 62
    7
 10
45.031096999999932
 20
470.30847199999999
 40
2
 50
0
 51
71.565000999999995
  0
CIRCLE
  8
_0-0_0
  6
CONTINUOUS
 62
    7
 10
-46.968903000000068
 20
468.25
 40
2.5
  0
CIRCLE
  8
_0-0_0
  6
CONTINUOUS
 62
    7
 10
9.0310969999999315
 20
468.25
 40
2.5
  0
LINE
  8
_0-0_0
  6
CONTINUOUS
 62
    7
 10
-67.568901000000039
 20
472.20886200000001
 11
-67.568901000000039
 21
469.25
  0
LINE
  8
_0-0_0
  6
CONTINUOUS
 62
    7
 10
-67.568901000000039
 20
473.25
 11
-67.568901000000039
 21
472.20886200000001
  0
LINE
  8
_0-0_0
  6
CONTINUOUS
 62
    7
 10
62.031096999999932
 20
453.42456099999998
 11
62.031096999999932
 21
453.57128899999998
  0
LINE
  8
_0-0_0
  6
CONTINUOUS
 62
    7
 10
62.031096999999932
 20
453.234039
 11
62.031096999999932
 21
453.42456099999998
  0
LINE
  8
_0-0_0
  6
CONTINUOUS
 62
    7
 10
62.031096999999932
 20
453.05902099999997
 11
62.031096999999932
 21
453.234039
  0
LINE
  8
_0-0_0
  6
CONTINUOUS
 62
    7
 10
62.031096999999932
 20
452.90142800000001
 11
62.031096999999932
 21
453.05902099999997
  0
LINE
  8
_0-0_0
  6
CONTINUOUS
 62
    7
 10
62.031096999999932
 20
452.76299999999998
 11
62.031096999999932
 21
452.90142800000001
  0
LINE
  8
_0-0_0
  6
CONTINUOUS
 62
    7
 10
62.031096999999932
 20
452.64523300000002
 11
62.031096999999932
 21
452.76299999999998
  0
LINE
  8
_0-0_0
  6
CONTINUOUS
 62
    7
 10
62.031096999999932
 20
452.40002399999997
 11
62.031096999999932
 21
452.64523300000002
  0
LINE
  8
_0-0_0
  6
CONTINUOUS
 62
    7
 10
62.031096999999932
 20
452.47668499999997
 11
62.031096999999932
 21
452.54943800000001
  0
LINE
  8
_0-0_0
  6
CONTINUOUS
 62
    7
 10
62.031096999999932
 20
452.42770400000001
 11
62.031096999999932
 21
452.47668499999997
  0
LINE
  8
_0-0_0
  6
CONTINUOUS
 62
    7
 10
62.031096999999932
 20
452.403076
 11
62.031096999999932
 21
452.42770400000001
  0
LINE
  8
_0-0_0
  6
CONTINUOUS
 62
    7
 10
62.031096999999932
 20
452.40002399999997
 11
62.031096999999932
 21
452.403076
  0
LINE
  8
_0-0_0
  6
CONTINUOUS
 62
    7
 10
62.031096999999932
 20
456.89691199999999
 11
62.031096999999932
 21
456.90002399999997
  0
LINE
  8
_0-0_0
  6
CONTINUOUS
 62
    7
 10
62.031096999999932
 20
456.87231400000002
 11
62.031096999999932
 21
456.90002399999997
  0
LINE
  8
_0-0_0
  6
CONTINUOUS
 62
    7
 10
62.031096999999932
 20
456.82333399999999
 11
62.031096999999932
 21
456.87231400000002
  0
LINE
  8
_0-0_0
  6
CONTINUOUS
 62
    7
 10
62.031096999999932
 20
456.75054899999998
 11
62.031096999999932
 21
456.82333399999999
  0
LINE
  8
_0-0_0
  6
CONTINUOUS
 62
    7
 10
62.031096999999932
 20
456.654785
 11
62.031096999999932
 21
456.75054899999998
  0
LINE
  8
_0-0_0
  6
CONTINUOUS
 62
    7
 10
62.031096999999932
 20
456.624573
 11
62.031096999999932
 21
456.654785
  0
LINE
  8
_0-0_0
  6
CONTINUOUS
 62
    7
 10
62.031096999999932
 20
456.53701799999999
 11
62.031096999999932
 21
456.624573
  0
LINE
  8
_0-0_0
  6
CONTINUOUS
 62
    7
 10
62.031096999999932
 20
456.39859000000001
 11
62.031096999999932
 21
456.53701799999999
  0
LINE
  8
_0-0_0
  6
CONTINUOUS
 62
    7
 10
62.031096999999932
 20
456.24099699999999
 11
62.031096999999932
 21
456.39859000000001
  0
LINE
  8
_0-0_0
  6
CONTINUOUS
 62
    7
 10
62.031096999999932
 20
456.06597900000003
 11
62.031096999999932
 21
456.24099699999999
  0
LINE
  8
_0-0_0
  6
CONTINUOUS
 62
    7
 10
62.031096999999932
 20
455.875427
 11
62.031096999999932
 21
456.06597900000003
  0
LINE
  8
_0-0_0
  6
CONTINUOUS
 62
    7
 10
62.031096999999932
 20
455.67147799999998
 11
62.031096999999932
 21
455.875427
  0
LINE
  8
_0-0_0
  6
CONTINUOUS
 62
    7
 10
62.031096999999932
 20
455.45632899999998
 11
62.031096999999932
 21
455.67147799999998
  0
LINE
  8
_0-0_0
  6
CONTINUOUS
 62
    7
 10
62.031096999999932
 20
455.23236100000003
 11
62.031096999999932
 21
455.45632899999998
  0
LINE
  8
_0-0_0
  6
CONTINUOUS
 62
    7
 10
62.031096999999932
 20
455.00198399999999
 11
62.031096999999932
 21
455.23236100000003
  0
LINE
  8
_0-0_0
  6
CONTINUOUS
 62
    7
 10
62.031096999999932
 20
454.76776100000001
 11
62.031096999999932
 21
455.00198399999999
  0
LINE
  8
_0-0_0
  6
CONTINUOUS
 62
    7
 10
62.031096999999932
 20
454.53225700000002
 11
62.031096999999932
 21
454.76776100000001
  0
LINE
  8
_0-0_0
  6
CONTINUOUS
 62
    7
 10
62.031096999999932
 20
454.29803500000003
 11
62.031096999999932
 21
454.53225700000002
  0
LINE
  8
_0-0_0
  6
CONTINUOUS
 62
    7
 10
62.031096999999932
 20
454.067657
 11
62.031096999999932
 21
454.29803500000003
  0
LINE
  8
_0-0_0
  6
CONTINUOUS
 62
    7
 10
62.031096999999932
 20
453.84368899999998
 11
62.031096999999932
 21
454.067657
  0
LINE
  8
_0-0_0
  6
CONTINUOUS
 62
    7
 10
62.031096999999932
 20
453.62853999999999
 11
62.031096999999932
 21
453.84368899999998
  0
LINE
  8
_0-0_0
  6
CONTINUOUS
 62
    7
 10
62.031096999999932
 20
453.57128899999998
 11
62.031096999999932
 21
453.62853999999999
  0
LINE
  8
_0-0_0
  6
CONTINUOUS
 62
    7
 10
47.031096999999932
 20
461.38797
 11
47.031096999999932
 21
460.34231599999998
  0
LINE
  8
_0-0_0
  6
CONTINUOUS
 62
    7
 10
47.031096999999932
 20
459.05770899999999
 11
47.031096999999932
 21
460.34231599999998
  0
LINE
  8
_0-0_0
  6
CONTINUOUS
 62
    7
 10
47.031096999999932
 20
458.94232199999999
 11
47.031096999999932
 21
459.05770899999999
  0
LINE
  8
_0-0_0
  6
CONTINUOUS
 62
    7
 10
47.031096999999932
 20
461.38797
 11
47.031096999999932
 21
464.51205399999998
  0
LINE
  8
_0-0_0
  6
CONTINUOUS
 62
    7
 10
47.031096999999932
 20
466.95770299999998
 11
47.031096999999932
 21
466.84231599999998
  0
LINE
  8
_0-0_0
  6
CONTINUOUS
 62
    7
 10
47.031096999999932
 20
465.55770899999999
 11
47.031096999999932
 21
466.84231599999998
  0
LINE
  8
_0-0_0
  6
CONTINUOUS
 62
    7
 10
47.031096999999932
 20
465.55770899999999
 11
47.031096999999932
 21
464.51205399999998
  0
LINE
  8
_0-0_0
  6
CONTINUOUS
 62
    7
 10
47.031096999999932
 20
466.84231599999998
 11
56.738922000000002
 21
466.84231599999998
  0
LINE
  8
_0-0_0
  6
CONTINUOUS
 62
    7
 10
56.738922000000002
 20
469.45001200000002
 11
56.793410999999992
 21
469.380066
  0
LINE
  8
_0-0_0
  6
CONTINUOUS
 62
    7
 10
56.793410999999992
 20
469.380066
 11
56.844512999999949
 21
469.31124899999998
  0
LINE
  8
_0-0_0
  6
CONTINUOUS
 62
    7
 10
56.844512999999949
 20
469.31124899999998
 11
56.892150999999956
 21
469.24374399999999
  0
LINE
  8
_0-0_0
  6
CONTINUOUS
 62
    7
 10
56.892150999999956
 20
469.24374399999999
 11
56.936644999999999
 21
469.17718500000001
  0
LINE
  8
_0-0_0
  6
CONTINUOUS
 62
    7
 10
56.936644999999999
 20
469.17718500000001
 11
56.991362999999978
 21
469.08966099999998
  0
LINE
  8
_0-0_0
  6
CONTINUOUS
 62
    7
 10
56.991362999999978
 20
469.08966099999998
 11
57.040877999999964
 21
469.00353999999999
  0
LINE
  8
_0-0_0
  6
CONTINUOUS
 62
    7
 10
57.040877999999964
 20
469.00353999999999
 11
57.085341999999969
 21
468.918701
  0
LINE
  8
_0-0_0
  6
CONTINUOUS
 62
    7
 10
57.085341999999969
 20
468.918701
 11
57.132308999999964
 21
468.81839000000002
  0
LINE
  8
_0-0_0
  6
CONTINUOUS
 62
    7
 10
57.132308999999964
 20
468.81839000000002
 11
57.172515999999973
 21
468.71948200000003
  0
LINE
  8
_0-0_0
  6
CONTINUOUS
 62
    7
 10
57.172515999999973
 20
468.71948200000003
 11
57.206176999999968
 21
468.62170400000002
  0
LINE
  8
_0-0_0
  6
CONTINUOUS
 62
    7
 10
57.206176999999968
 20
468.62170400000002
 11
57.233474999999999
 21
468.524902
  0
LINE
  8
_0-0_0
  6
CONTINUOUS
 62
    7
 10
57.233474999999999
 20
468.524902
 11
57.254516999999964
 21
468.42886399999998
  0
LINE
  8
_0-0_0
  6
CONTINUOUS
 62
    7
 10
57.254516999999964
 20
468.42886399999998
 11
57.27044699999999
 21
468.32501200000002
  0
LINE
  8
_0-0_0
  6
CONTINUOUS
 62
    7
 10
57.27044699999999
 20
468.32501200000002
 11
57.279204999999934
 21
468.221588
  0
LINE
  8
_0-0_0
  6
CONTINUOUS
 62
    7
 10
57.279204999999934
 20
468.221588
 11
57.28083799999996
 21
468.11834700000003
  0
LINE
  8
_0-0_0
  6
CONTINUOUS
 62
    7
 10
57.28083799999996
 20
468.11834700000003
 11
57.27537499999994
 21
468.01504499999999
  0
LINE
  8
_0-0_0
  6
CONTINUOUS
 62
    7
 10
57.27537499999994
 20
468.01504499999999
 11
57.262755999999968
 21
467.91146900000001
  0
LINE
  8
_0-0_0
  6
CONTINUOUS
 62
    7
 10
57.262755999999968
 20
467.91146900000001
 11
57.242949999999951
 21
467.80731200000002
  0
LINE
  8
_0-0_0
  6
CONTINUOUS
 62
    7
 10
57.242949999999951
 20
467.80731200000002
 11
57.215804999999932
 21
467.70236199999999
  0
LINE
  8
_0-0_0
  6
CONTINUOUS
 62
    7
 10
57.215804999999932
 20
467.70236199999999
 11
57.181151999999997
 21
467.59631300000001
  0
LINE
  8
_0-0_0
  6
CONTINUOUS
 62
    7
 10
57.181151999999997
 20
467.59631300000001
 11
57.138808999999924
 21
467.48895299999998
  0
LINE
  8
_0-0_0
  6
CONTINUOUS
 62
    7
 10
57.138808999999924
 20
467.48895299999998
 11
57.088485999999989
 21
467.37994400000002
  0
LINE
  8
_0-0_0
  6
CONTINUOUS
 62
    7
 10
57.088485999999989
 20
467.37994400000002
 11
57.034240999999952
 21
467.276794
  0
LINE
  8
_0-0_0
  6
CONTINUOUS
 62
    7
 10
57.034240999999952
 20
467.276794
 11
56.972533999999996
 21
467.17175300000002
  0
LINE
  8
_0-0_0
  6
CONTINUOUS
 62
    7
 10
56.972533999999996
 20
467.17175300000002
 11
56.903014999999982
 21
467.06451399999997
  0
LINE
  8
_0-0_0
  6
CONTINUOUS
 62
    7
 10
56.903014999999982
 20
467.06451399999997
 11
56.825301999999965
 21
466.95480300000003
  0
LINE
  8
_0-0_0
  6
CONTINUOUS
 62
    7
 10
56.825301999999965
 20
466.95480300000003
 11
56.738922000000002
 21
466.84231599999998
  0
LINE
  8
_0-0_0
  6
CONTINUOUS
 62
    7
 10
47.031096999999932
 20
469.45001200000002
 11
56.738922000000002
 21
469.45001200000002
  0
LINE
  8
_0-0_0
  6
CONTINUOUS
 62
    7
 10
56.781096999999932
 20
469.45001200000002
 11
56.738922000000002
 21
469.45001200000002
  0
LINE
  8
_0-0_0
  6
CONTINUOUS
 62
    7
 10
47.031096999999932
 20
459.05770899999999
 11
56.738922000000002
 21
459.05770899999999
  0
LINE
  8
_0-0_0
  6
CONTINUOUS
 62
    7
 10
56.738922000000002
 20
459.05770899999999
 11
56.793410999999992
 21
458.98776199999998
  0
LINE
  8
_0-0_0
  6
CONTINUOUS
 62
    7
 10
56.793410999999992
 20
458.98776199999998
 11
56.844512999999949
 21
458.91894500000001
  0
LINE
  8
_0-0_0
  6
CONTINUOUS
 62
    7
 10
56.844512999999949
 20
458.91894500000001
 11
56.892150999999956
 21
458.85144000000003
  0
LINE
  8
_0-0_0
  6
CONTINUOUS
 62
    7
 10
56.892150999999956
 20
458.85144000000003
 11
56.936644999999999
 21
458.78488199999998
  0
LINE
  8
_0-0_0
  6
CONTINUOUS
 62
    7
 10
56.936644999999999
 20
458.78488199999998
 11
56.991362999999978
 21
458.69735700000001
  0
LINE
  8
_0-0_0
  6
CONTINUOUS
 62
    7
 10
56.991362999999978
 20
458.69735700000001
 11
57.040877999999964
 21
458.61123700000002
  0
LINE
  8
_0-0_0
  6
CONTINUOUS
 62
    7
 10
57.040877999999964
 20
458.61123700000002
 11
57.085341999999969
 21
458.52642800000001
  0
LINE
  8
_0-0_0
  6
CONTINUOUS
 62
    7
 10
57.085341999999969
 20
458.52642800000001
 11
57.132308999999964
 21
458.426086
  0
LINE
  8
_0-0_0
  6
CONTINUOUS
 62
    7
 10
57.132308999999964
 20
458.426086
 11
57.172515999999973
 21
458.327179
  0
LINE
  8
_0-0_0
  6
CONTINUOUS
 62
    7
 10
57.172515999999973
 20
458.327179
 11
57.206176999999968
 21
458.229401
  0
LINE
  8
_0-0_0
  6
CONTINUOUS
 62
    7
 10
57.206176999999968
 20
458.229401
 11
57.233474999999999
 21
458.13259900000003
  0
LINE
  8
_0-0_0
  6
CONTINUOUS
 62
    7
 10
57.233474999999999
 20
458.13259900000003
 11
57.254516999999964
 21
458.03656000000001
  0
LINE
  8
_0-0_0
  6
CONTINUOUS
 62
    7
 10
57.254516999999964
 20
458.03656000000001
 11
57.27044699999999
 21
457.93270899999999
  0
LINE
  8
_0-0_0
  6
CONTINUOUS
 62
    7
 10
57.27044699999999
 20
457.93270899999999
 11
57.279204999999934
 21
457.82928500000003
  0
LINE
  8
_0-0_0
  6
CONTINUOUS
 62
    7
 10
57.279204999999934
 20
457.82928500000003
 11
57.28083799999996
 21
457.726044
  0
LINE
  8
_0-0_0
  6
CONTINUOUS
 62
    7
 10
57.28083799999996
 20
457.726044
 11
57.27537499999994
 21
457.62274200000002
  0
LINE
  8
_0-0_0
  6
CONTINUOUS
 62
    7
 10
57.27537499999994
 20
457.62274200000002
 11
57.262755999999968
 21
457.51916499999999
  0
LINE
  8
_0-0_0
  6
CONTINUOUS
 62
    7
 10
57.262755999999968
 20
457.51916499999999
 11
57.242949999999951
 21
457.415009
  0
LINE
  8
_0-0_0
  6
CONTINUOUS
 62
    7
 10
57.242949999999951
 20
457.415009
 11
57.215804999999932
 21
457.31005900000002
  0
LINE
  8
_0-0_0
  6
CONTINUOUS
 62
    7
 10
57.215804999999932
 20
457.31005900000002
 11
57.181151999999997
 21
457.20400999999998
  0
LINE
  8
_0-0_0
  6
CONTINUOUS
 62
    7
 10
57.181151999999997
 20
457.20400999999998
 11
57.138808999999924
 21
457.09661899999998
  0
LINE
  8
_0-0_0
  6
CONTINUOUS
 62
    7
 10
57.138808999999924
 20
457.09661899999998
 11
57.088485999999989
 21
456.98764
  0
LINE
  8
_0-0_0
  6
CONTINUOUS
 62
    7
 10
57.088485999999989
 20
456.98764
 11
57.04280099999994
 21
456.89996300000001
  0
LINE
  8
_0-0_0
  6
CONTINUOUS
 62
    7
 10
62.031096999999932
 20
453.42456099999998
 11
62.281096999999932
 21
453.40002399999997
  0
LINE
  8
_0-0_0
  6
CONTINUOUS
 62
    7
 10
62.031096999999932
 20
453.62853999999999
 11
62.281096999999932
 21
453.40002399999997
  0
LINE
  8
_0-0_0
  6
CONTINUOUS
 62
    7
 10
62.031096999999932
 20
453.234039
 11
62.281096999999932
 21
453.180542
  0
LINE
  8
_0-0_0
  6
CONTINUOUS
 62
    7
 10
62.031096999999932
 20
453.42456099999998
 11
62.281096999999932
 21
453.180542
  0
LINE
  8
_0-0_0
  6
CONTINUOUS
 62
    7
 10
62.031096999999932
 20
453.05902099999997
 11
62.281096999999932
 21
452.97717299999999
  0
LINE
  8
_0-0_0
  6
CONTINUOUS
 62
    7
 10
62.031096999999932
 20
453.234039
 11
62.281096999999932
 21
452.97717299999999
  0
LINE
  8
_0-0_0
  6
CONTINUOUS
 62
    7
 10
62.031096999999932
 20
452.90142800000001
 11
62.281096999999932
 21
452.792145
  0
LINE
  8
_0-0_0
  6
CONTINUOUS
 62
    7
 10
62.031096999999932
 20
453.05902099999997
 11
62.281096999999932
 21
452.792145
  0
LINE
  8
_0-0_0
  6
CONTINUOUS
 62
    7
 10
62.031096999999932
 20
452.76299999999998
 11
62.281096999999932
 21
452.62747200000001
  0
LINE
  8
_0-0_0
  6
CONTINUOUS
 62
    7
 10
62.031096999999932
 20
452.90142800000001
 11
62.281096999999932
 21
452.62747200000001
  0
LINE
  8
_0-0_0
  6
CONTINUOUS
 62
    7
 10
62.031096999999932
 20
452.64523300000002
 11
62.281096999999932
 21
452.48495500000001
  0
LINE
  8
_0-0_0
  6
CONTINUOUS
 62
    7
 10
62.031096999999932
 20
452.76299999999998
 11
62.281096999999932
 21
452.48495500000001
  0
LINE
  8
_0-0_0
  6
CONTINUOUS
 62
    7
 10
62.031096999999932
 20
452.54943800000001
 11
62.281096999999932
 21
452.36615
  0
LINE
  8
_0-0_0
  6
CONTINUOUS
 62
    7
 10
62.031096999999932
 20
452.64523300000002
 11
62.281096999999932
 21
452.36615
  0
LINE
  8
_0-0_0
  6
CONTINUOUS
 62
    7
 10
62.031096999999932
 20
452.47668499999997
 11
62.281096999999932
 21
452.27236900000003
  0
LINE
  8
_0-0_0
  6
CONTINUOUS
 62
    7
 10
62.031096999999932
 20
452.54943800000001
 11
62.281096999999932
 21
452.27236900000003
  0
LINE
  8
_0-0_0
  6
CONTINUOUS
 62
    7
 10
62.031096999999932
 20
452.42770400000001
 11
62.281096999999932
 21
452.20465100000001
  0
LINE
  8
_0-0_0
  6
CONTINUOUS
 62
    7
 10
62.031096999999932
 20
452.47668499999997
 11
62.281096999999932
 21
452.20465100000001
  0
LINE
  8
_0-0_0
  6
CONTINUOUS
 62
    7
 10
62.031096999999932
 20
452.403076
 11
62.281096999999932
 21
452.16369600000002
  0
LINE
  8
_0-0_0
  6
CONTINUOUS
 62
    7
 10
62.031096999999932
 20
452.42770400000001
 11
62.281096999999932
 21
452.16369600000002
  0
LINE
  8
_0-0_0
  6
CONTINUOUS
 62
    7
 10
62.031096999999932
 20
452.403076
 11
62.281096999999932
 21
452.15002399999997
  0
LINE
  8
_0-0_0
  6
CONTINUOUS
 62
    7
 10
62.031096999999932
 20
456.89691199999999
 11
62.281096999999932
 21
457.15002399999997
  0
LINE
  8
_0-0_0
  6
CONTINUOUS
 62
    7
 10
62.031096999999932
 20
456.87231400000002
 11
62.281096999999932
 21
457.13632200000001
  0
LINE
  8
_0-0_0
  6
CONTINUOUS
 62
    7
 10
62.031096999999932
 20
456.89691199999999
 11
62.281096999999932
 21
457.13632200000001
  0
LINE
  8
_0-0_0
  6
CONTINUOUS
 62
    7
 10
62.031096999999932
 20
456.82333399999999
 11
62.281096999999932
 21
457.09536700000001
  0
LINE
  8
_0-0_0
  6
CONTINUOUS
 62
    7
 10
62.031096999999932
 20
456.87231400000002
 11
62.281096999999932
 21
457.09536700000001
  0
LINE
  8
_0-0_0
  6
CONTINUOUS
 62
    7
 10
62.031096999999932
 20
456.75054899999998
 11
62.281096999999932
 21
457.027649
  0
LINE
  8
_0-0_0
  6
CONTINUOUS
 62
    7
 10
62.031096999999932
 20
456.82333399999999
 11
62.281096999999932
 21
457.027649
  0
LINE
  8
_0-0_0
  6
CONTINUOUS
 62
    7
 10
62.031096999999932
 20
456.654785
 11
62.281096999999932
 21
456.93386800000002
  0
LINE
  8
_0-0_0
  6
CONTINUOUS
 62
    7
 10
62.031096999999932
 20
456.75054899999998
 11
62.281096999999932
 21
456.93386800000002
  0
LINE
  8
_0-0_0
  6
CONTINUOUS
 62
    7
 10
62.031096999999932
 20
456.654785
 11
62.16107199999999
 21
456.73861699999998
  0
LINE
  8
_0-0_0
  6
CONTINUOUS
 62
    7
 10
62.031096999999932
 20
456.53701799999999
 11
62.281096999999932
 21
456.81506300000001
  0
LINE
  8
_0-0_0
  6
CONTINUOUS
 62
    7
 10
62.16107199999999
 20
456.73861699999998
 11
62.281096999999932
 21
456.81506300000001
  0
LINE
  8
_0-0_0
  6
CONTINUOUS
 62
    7
 10
62.031096999999932
 20
456.39859000000001
 11
62.281096999999932
 21
456.67254600000001
  0
LINE
  8
_0-0_0
  6
CONTINUOUS
 62
    7
 10
62.031096999999932
 20
456.53701799999999
 11
62.281096999999932
 21
456.67254600000001
  0
LINE
  8
_0-0_0
  6
CONTINUOUS
 62
    7
 10
62.031096999999932
 20
456.24099699999999
 11
62.281096999999932
 21
456.50787400000002
  0
LINE
  8
_0-0_0
  6
CONTINUOUS
 62
    7
 10
62.031096999999932
 20
456.39859000000001
 11
62.281096999999932
 21
456.50787400000002
  0
LINE
  8
_0-0_0
  6
CONTINUOUS
 62
    7
 10
62.031096999999932
 20
456.06597900000003
 11
62.281096999999932
 21
456.32284499999997
  0
LINE
  8
_0-0_0
  6
CONTINUOUS
 62
    7
 10
62.031096999999932
 20
456.24099699999999
 11
62.281096999999932
 21
456.32284499999997
  0
LINE
  8
_0-0_0
  6
CONTINUOUS
 62
    7
 10
62.031096999999932
 20
455.875427
 11
62.281096999999932
 21
456.11947600000002
  0
LINE
  8
_0-0_0
  6
CONTINUOUS
 62
    7
 10
62.031096999999932
 20
456.06597900000003
 11
62.281096999999932
 21
456.11947600000002
  0
LINE
  8
_0-0_0
  6
CONTINUOUS
 62
    7
 10
62.031096999999932
 20
455.67147799999998
 11
62.281096999999932
 21
455.90002399999997
  0
LINE
  8
_0-0_0
  6
CONTINUOUS
 62
    7
 10
62.031096999999932
 20
455.875427
 11
62.281096999999932
 21
455.90002399999997
  0
LINE
  8
_0-0_0
  6
CONTINUOUS
 62
    7
 10
62.031096999999932
 20
455.45632899999998
 11
62.281096999999932
 21
455.66683999999998
  0
LINE
  8
_0-0_0
  6
CONTINUOUS
 62
    7
 10
62.031096999999932
 20
455.67147799999998
 11
62.281096999999932
 21
455.66683999999998
  0
LINE
  8
_0-0_0
  6
CONTINUOUS
 62
    7
 10
62.031096999999932
 20
455.23236100000003
 11
62.281096999999932
 21
455.42254600000001
  0
LINE
  8
_0-0_0
  6
CONTINUOUS
 62
    7
 10
62.031096999999932
 20
455.45632899999998
 11
62.281096999999932
 21
455.42254600000001
  0
LINE
  8
_0-0_0
  6
CONTINUOUS
 62
    7
 10
62.031096999999932
 20
455.00198399999999
 11
62.281096999999932
 21
455.16980000000001
  0
LINE
  8
_0-0_0
  6
CONTINUOUS
 62
    7
 10
62.031096999999932
 20
455.23236100000003
 11
62.281096999999932
 21
455.16980000000001
  0
LINE
  8
_0-0_0
  6
CONTINUOUS
 62
    7
 10
62.031096999999932
 20
454.76776100000001
 11
62.281096999999932
 21
454.911316
  0
LINE
  8
_0-0_0
  6
CONTINUOUS
 62
    7
 10
62.031096999999932
 20
455.00198399999999
 11
62.281096999999932
 21
454.911316
  0
LINE
  8
_0-0_0
  6
CONTINUOUS
 62
    7
 10
62.031096999999932
 20
454.53225700000002
 11
62.281096999999932
 21
454.65002399999997
  0
LINE
  8
_0-0_0
  6
CONTINUOUS
 62
    7
 10
62.031096999999932
 20
454.76776100000001
 11
62.281096999999932
 21
454.65002399999997
  0
LINE
  8
_0-0_0
  6
CONTINUOUS
 62
    7
 10
62.031096999999932
 20
454.29803500000003
 11
62.281096999999932
 21
454.38867199999999
  0
LINE
  8
_0-0_0
  6
CONTINUOUS
 62
    7
 10
62.031096999999932
 20
454.53225700000002
 11
62.281096999999932
 21
454.38867199999999
  0
LINE
  8
_0-0_0
  6
CONTINUOUS
 62
    7
 10
62.031096999999932
 20
454.067657
 11
62.281096999999932
 21
454.13021900000001
  0
LINE
  8
_0-0_0
  6
CONTINUOUS
 62
    7
 10
62.031096999999932
 20
454.29803500000003
 11
62.281096999999932
 21
454.13021900000001
  0
LINE
  8
_0-0_0
  6
CONTINUOUS
 62
    7
 10
62.031096999999932
 20
453.84368899999998
 11
62.281096999999932
 21
453.87747200000001
  0
LINE
  8
_0-0_0
  6
CONTINUOUS
 62
    7
 10
62.031096999999932
 20
454.067657
 11
62.281096999999932
 21
453.87747200000001
  0
LINE
  8
_0-0_0
  6
CONTINUOUS
 62
    7
 10
62.031096999999932
 20
453.62853999999999
 11
62.281096999999932
 21
453.63317899999998
  0
LINE
  8
_0-0_0
  6
CONTINUOUS
 62
    7
 10
62.031096999999932
 20
453.84368899999998
 11
62.281096999999932
 21
453.63317899999998
  0
LINE
  8
_0-0_0
  6
CONTINUOUS
 62
    7
 10
47.031096999999932
 20
460.34231599999998
 11
56.738922000000002
 21
460.34231599999998
  0
LINE
  8
_0-0_0
  6
CONTINUOUS
 62
    7
 10
56.738922000000002
 20
460.34231599999998
 11
56.833251999999959
 21
460.58892800000001
  0
LINE
  8
_0-0_0
  6
CONTINUOUS
 62
    7
 10
56.833251999999959
 20
460.58892800000001
 11
56.917205999999965
 21
460.82891799999999
  0
LINE
  8
_0-0_0
  6
CONTINUOUS
 62
    7
 10
56.917205999999965
 20
460.82891799999999
 11
56.991362999999978
 21
461.063019
  0
LINE
  8
_0-0_0
  6
CONTINUOUS
 62
    7
 10
56.991362999999978
 20
461.063019
 11
57.056243999999992
 21
461.29205300000001
  0
LINE
  8
_0-0_0
  6
CONTINUOUS
 62
    7
 10
57.056243999999992
 20
461.29205300000001
 11
57.112288999999919
 21
461.51672400000001
  0
LINE
  8
_0-0_0
  6
CONTINUOUS
 62
    7
 10
57.112288999999919
 20
461.51672400000001
 11
57.159850999999946
 21
461.73770100000002
  0
LINE
  8
_0-0_0
  6
CONTINUOUS
 62
    7
 10
57.159850999999946
 20
461.73770100000002
 11
57.199248999999952
 21
461.95562699999999
  0
LINE
  8
_0-0_0
  6
CONTINUOUS
 62
    7
 10
57.199248999999952
 20
461.95562699999999
 11
57.230742999999961
 21
462.17108200000001
  0
LINE
  8
_0-0_0
  6
CONTINUOUS
 62
    7
 10
57.230742999999961
 20
462.17108200000001
 11
57.254516999999964
 21
462.384613
  0
LINE
  8
_0-0_0
  6
CONTINUOUS
 62
    7
 10
57.254516999999964
 20
462.384613
 11
57.27044699999999
 21
462.59231599999998
  0
LINE
  8
_0-0_0
  6
CONTINUOUS
 62
    7
 10
57.27044699999999
 20
462.59231599999998
 11
57.279204999999934
 21
462.79916400000002
  0
LINE
  8
_0-0_0
  6
CONTINUOUS
 62
    7
 10
57.279204999999934
 20
462.79916400000002
 11
57.28083799999996
 21
463.00564600000001
  0
LINE
  8
_0-0_0
  6
CONTINUOUS
 62
    7
 10
57.28083799999996
 20
463.00564600000001
 11
57.27537499999994
 21
463.212219
  0
LINE
  8
_0-0_0
  6
CONTINUOUS
 62
    7
 10
57.27537499999994
 20
463.212219
 11
57.262755999999968
 21
463.41940299999999
  0
LINE
  8
_0-0_0
  6
CONTINUOUS
 62
    7
 10
57.262755999999968
 20
463.41940299999999
 11
57.242949999999951
 21
463.62771600000002
  0
LINE
  8
_0-0_0
  6
CONTINUOUS
 62
    7
 10
57.242949999999951
 20
463.62771600000002
 11
57.215804999999932
 21
463.83761600000003
  0
LINE
  8
_0-0_0
  6
CONTINUOUS
 62
    7
 10
57.215804999999932
 20
463.83761600000003
 11
57.181151999999997
 21
464.04968300000002
  0
LINE
  8
_0-0_0
  6
CONTINUOUS
 62
    7
 10
57.181151999999997
 20
464.04968300000002
 11
57.138808999999924
 21
464.26443499999999
  0
LINE
  8
_0-0_0
  6
CONTINUOUS
 62
    7
 10
57.138808999999924
 20
464.26443499999999
 11
57.088485999999989
 21
464.48245200000002
  0
LINE
  8
_0-0_0
  6
CONTINUOUS
 62
    7
 10
57.088485999999989
 20
464.48245200000002
 11
57.034240999999952
 21
464.68872099999999
  0
LINE
  8
_0-0_0
  6
CONTINUOUS
 62
    7
 10
57.034240999999952
 20
464.68872099999999
 11
56.972533999999996
 21
464.89883400000002
  0
LINE
  8
_0-0_0
  6
CONTINUOUS
 62
    7
 10
56.972533999999996
 20
464.89883400000002
 11
56.903014999999982
 21
465.11331200000001
  0
LINE
  8
_0-0_0
  6
CONTINUOUS
 62
    7
 10
56.903014999999982
 20
465.11331200000001
 11
56.825301999999965
 21
465.33273300000002
  0
LINE
  8
_0-0_0
  6
CONTINUOUS
 62
    7
 10
56.825301999999965
 20
465.33273300000002
 11
56.738922000000002
 21
465.55770899999999
  0
LINE
  8
_0-0_0
  6
CONTINUOUS
 62
    7
 10
47.031096999999932
 20
465.55770899999999
 11
56.738922000000002
 21
465.55770899999999
  0
ARC
  8
_0-0_0
  6
CONTINUOUS
 62
    7
 10
51.867370999999935
 20
459.70001200000002
 40
4.9136889999999998
 50
352.48898799999995
 51
7.5110139999999577
  0
ARC
  8
_0-0_0
  6
CONTINUOUS
 62
    7
 10
51.857207999999957
 20
466.200897
 40
4.9238749999999998
 50
352.49423299999995
 51
1.5359699999999901
  0
ARC
  8
_0-0_0
  6
CONTINUOUS
 62
    7
 10
51.819182999999953
 20
466.19595299999997
 40
4.9620009999999999
 50
1.5813010000000001
 51
7.4847919999999997
  0
LINE
  8
_0-0_0
  6
CONTINUOUS
 62
    7
 10
58.031096999999932
 20
465.68154900000002
 11
58.031096999999932
 21
468.20001200000002
  0
LINE
  8
_0-0_0
  6
CONTINUOUS
 62
    7
 10
58.031096999999932
 20
457.70001200000002
 11
58.031096999999932
 21
465.68154900000002
  0
LINE
  8
_0-0_0
  6
CONTINUOUS
 62
    7
 10
71.781096999999932
 20
453.42456099999998
 11
71.531096999999932
 21
453.40002399999997
  0
LINE
  8
_0-0_0
  6
CONTINUOUS
 62
    7
 10
71.531096999999932
 20
453.40002399999997
 11
62.281096999999932
 21
453.40002399999997
  0
LINE
  8
_0-0_0
  6
CONTINUOUS
 62
    7
 10
71.781096999999932
 20
453.62853999999999
 11
71.531096999999932
 21
453.40002399999997
  0
LINE
  8
_0-0_0
  6
CONTINUOUS
 62
    7
 10
71.781096999999932
 20
453.62853999999999
 11
62.031096999999932
 21
453.62853999999999
  0
LINE
  8
_0-0_0
  6
CONTINUOUS
 62
    7
 10
71.781096999999932
 20
453.234039
 11
71.531096999999932
 21
453.180542
  0
LINE
  8
_0-0_0
  6
CONTINUOUS
 62
    7
 10
71.531096999999932
 20
453.180542
 11
62.281096999999932
 21
453.180542
  0
LINE
  8
_0-0_0
  6
CONTINUOUS
 62
    7
 10
71.781096999999932
 20
453.42456099999998
 11
71.531096999999932
 21
453.180542
  0
LINE
  8
_0-0_0
  6
CONTINUOUS
 62
    7
 10
71.781096999999932
 20
453.05902099999997
 11
71.531096999999932
 21
452.97717299999999
  0
LINE
  8
_0-0_0
  6
CONTINUOUS
 62
    7
 10
71.531096999999932
 20
452.97717299999999
 11
62.281096999999932
 21
452.97717299999999
  0
LINE
  8
_0-0_0
  6
CONTINUOUS
 62
    7
 10
71.781096999999932
 20
453.234039
 11
71.531096999999932
 21
452.97717299999999
  0
LINE
  8
_0-0_0
  6
CONTINUOUS
 62
    7
 10
71.781096999999932
 20
452.90142800000001
 11
71.531096999999932
 21
452.792145
  0
LINE
  8
_0-0_0
  6
CONTINUOUS
 62
    7
 10
71.531096999999932
 20
452.792145
 11
62.281096999999932
 21
452.792145
  0
LINE
  8
_0-0_0
  6
CONTINUOUS
 62
    7
 10
71.781096999999932
 20
453.05902099999997
 11
71.531096999999932
 21
452.792145
  0
LINE
  8
_0-0_0
  6
CONTINUOUS
 62
    7
 10
71.781096999999932
 20
452.76299999999998
 11
71.531096999999932
 21
452.62747200000001
  0
LINE
  8
_0-0_0
  6
CONTINUOUS
 62
    7
 10
71.531096999999932
 20
452.62747200000001
 11
62.281096999999932
 21
452.62747200000001
  0
LINE
  8
_0-0_0
  6
CONTINUOUS
 62
    7
 10
71.781096999999932
 20
452.90142800000001
 11
71.531096999999932
 21
452.62747200000001
  0
LINE
  8
_0-0_0
  6
CONTINUOUS
 62
    7
 10
71.781096999999932
 20
452.64523300000002
 11
71.531096999999932
 21
452.48495500000001
  0
LINE
  8
_0-0_0
  6
CONTINUOUS
 62
    7
 10
71.531096999999932
 20
452.48495500000001
 11
62.281096999999932
 21
452.48495500000001
  0
LINE
  8
_0-0_0
  6
CONTINUOUS
 62
    7
 10
71.781096999999932
 20
452.76299999999998
 11
71.531096999999932
 21
452.48495500000001
  0
LINE
  8
_0-0_0
  6
CONTINUOUS
 62
    7
 10
71.781096999999932
 20
452.54943800000001
 11
71.531096999999932
 21
452.36615
  0
LINE
  8
_0-0_0
  6
CONTINUOUS
 62
    7
 10
71.531096999999932
 20
452.36615
 11
62.281096999999932
 21
452.36615
  0
LINE
  8
_0-0_0
  6
CONTINUOUS
 62
    7
 10
71.781096999999932
 20
452.64523300000002
 11
71.531096999999932
 21
452.36615
  0
LINE
  8
_0-0_0
  6
CONTINUOUS
 62
    7
 10
71.781096999999932
 20
452.47668499999997
 11
71.531096999999932
 21
452.27236900000003
  0
LINE
  8
_0-0_0
  6
CONTINUOUS
 62
    7
 10
71.531096999999932
 20
452.27236900000003
 11
62.281096999999932
 21
452.27236900000003
  0
LINE
  8
_0-0_0
  6
CONTINUOUS
 62
    7
 10
71.781096999999932
 20
452.54943800000001
 11
71.531096999999932
 21
452.27236900000003
  0
LINE
  8
_0-0_0
  6
CONTINUOUS
 62
    7
 10
71.781096999999932
 20
452.42770400000001
 11
71.531096999999932
 21
452.20465100000001
  0
LINE
  8
_0-0_0
  6
CONTINUOUS
 62
    7
 10
71.531096999999932
 20
452.20465100000001
 11
62.281096999999932
 21
452.20465100000001
  0
LINE
  8
_0-0_0
  6
CONTINUOUS
 62
    7
 10
71.781096999999932
 20
452.47668499999997
 11
71.531096999999932
 21
452.20465100000001
  0
LINE
  8
_0-0_0
  6
CONTINUOUS
 62
    7
 10
71.781096999999932
 20
452.403076
 11
71.531096999999932
 21
452.16369600000002
  0
LINE
  8
_0-0_0
  6
CONTINUOUS
 62
    7
 10
71.531096999999932
 20
452.16369600000002
 11
62.281096999999932
 21
452.16369600000002
  0
LINE
  8
_0-0_0
  6
CONTINUOUS
 62
    7
 10
71.781096999999932
 20
452.42770400000001
 11
71.531096999999932
 21
452.16369600000002
  0
LINE
  8
_0-0_0
  6
CONTINUOUS
 62
    7
 10
71.531096999999932
 20
452.15002399999997
 11
62.281096999999932
 21
452.15002399999997
  0
LINE
  8
_0-0_0
  6
CONTINUOUS
 62
    7
 10
71.781096999999932
 20
452.403076
 11
71.531096999999932
 21
452.15002399999997
  0
LINE
  8
_0-0_0
  6
CONTINUOUS
 62
    7
 10
71.781096999999932
 20
456.89691199999999
 11
71.531096999999932
 21
457.15002399999997
  0
LINE
  8
_0-0_0
  6
CONTINUOUS
 62
    7
 10
71.531096999999932
 20
457.15002399999997
 11
62.281096999999932
 21
457.15002399999997
  0
LINE
  8
_0-0_0
  6
CONTINUOUS
 62
    7
 10
71.781096999999932
 20
456.87231400000002
 11
71.531096999999932
 21
457.13632200000001
  0
LINE
  8
_0-0_0
  6
CONTINUOUS
 62
    7
 10
71.531096999999932
 20
457.13632200000001
 11
62.281096999999932
 21
457.13632200000001
  0
LINE
  8
_0-0_0
  6
CONTINUOUS
 62
    7
 10
71.781096999999932
 20
456.89691199999999
 11
71.531096999999932
 21
457.13632200000001
  0
LINE
  8
_0-0_0
  6
CONTINUOUS
 62
    7
 10
71.781096999999932
 20
456.82333399999999
 11
71.531096999999932
 21
457.09536700000001
  0
LINE
  8
_0-0_0
  6
CONTINUOUS
 62
    7
 10
71.531096999999932
 20
457.09536700000001
 11
62.281096999999932
 21
457.09536700000001
  0
LINE
  8
_0-0_0
  6
CONTINUOUS
 62
    7
 10
71.781096999999932
 20
456.87231400000002
 11
71.531096999999932
 21
457.09536700000001
  0
LINE
  8
_0-0_0
  6
CONTINUOUS
 62
    7
 10
71.781096999999932
 20
456.75054899999998
 11
71.531096999999932
 21
457.027649
  0
LINE
  8
_0-0_0
  6
CONTINUOUS
 62
    7
 10
71.531096999999932
 20
457.027649
 11
62.281096999999932
 21
457.027649
  0
LINE
  8
_0-0_0
  6
CONTINUOUS
 62
    7
 10
71.781096999999932
 20
456.82333399999999
 11
71.531096999999932
 21
457.027649
  0
LINE
  8
_0-0_0
  6
CONTINUOUS
 62
    7
 10
71.781096999999932
 20
456.654785
 11
71.531096999999932
 21
456.93386800000002
  0
LINE
  8
_0-0_0
  6
CONTINUOUS
 62
    7
 10
71.531096999999932
 20
456.93386800000002
 11
62.281096999999932
 21
456.93386800000002
  0
LINE
  8
_0-0_0
  6
CONTINUOUS
 62
    7
 10
71.781096999999932
 20
456.75054899999998
 11
71.531096999999932
 21
456.93386800000002
  0
LINE
  8
_0-0_0
  6
CONTINUOUS
 62
    7
 10
71.531096999999932
 20
456.81506300000001
 11
62.281096999999932
 21
456.81506300000001
  0
LINE
  8
_0-0_0
  6
CONTINUOUS
 62
    7
 10
71.651137999999946
 20
456.73861699999998
 11
71.531096999999932
 21
456.81506300000001
  0
LINE
  8
_0-0_0
  6
CONTINUOUS
 62
    7
 10
71.781096999999932
 20
456.654785
 11
71.651137999999946
 21
456.73861699999998
  0
LINE
  8
_0-0_0
  6
CONTINUOUS
 62
    7
 10
71.781096999999932
 20
456.53701799999999
 11
71.531096999999932
 21
456.81506300000001
  0
LINE
  8
_0-0_0
  6
CONTINUOUS
 62
    7
 10
71.781096999999932
 20
456.39859000000001
 11
71.531096999999932
 21
456.67254600000001
  0
LINE
  8
_0-0_0
  6
CONTINUOUS
 62
    7
 10
71.531096999999932
 20
456.67254600000001
 11
62.281096999999932
 21
456.67254600000001
  0
LINE
  8
_0-0_0
  6
CONTINUOUS
 62
    7
 10
71.781096999999932
 20
456.53701799999999
 11
71.531096999999932
 21
456.67254600000001
  0
LINE
  8
_0-0_0
  6
CONTINUOUS
 62
    7
 10
71.781096999999932
 20
456.24099699999999
 11
71.531096999999932
 21
456.50787400000002
  0
LINE
  8
_0-0_0
  6
CONTINUOUS
 62
    7
 10
71.531096999999932
 20
456.50787400000002
 11
62.281096999999932
 21
456.50787400000002
  0
LINE
  8
_0-0_0
  6
CONTINUOUS
 62
    7
 10
71.781096999999932
 20
456.39859000000001
 11
71.531096999999932
 21
456.50787400000002
  0
LINE
  8
_0-0_0
  6
CONTINUOUS
 62
    7
 10
71.781096999999932
 20
456.06597900000003
 11
71.531096999999932
 21
456.32284499999997
  0
LINE
  8
_0-0_0
  6
CONTINUOUS
 62
    7
 10
71.531096999999932
 20
456.32284499999997
 11
62.281096999999932
 21
456.32284499999997
  0
LINE
  8
_0-0_0
  6
CONTINUOUS
 62
    7
 10
71.781096999999932
 20
456.24099699999999
 11
71.531096999999932
 21
456.32284499999997
  0
LINE
  8
_0-0_0
  6
CONTINUOUS
 62
    7
 10
71.781096999999932
 20
455.875427
 11
71.531096999999932
 21
456.11947600000002
  0
LINE
  8
_0-0_0
  6
CONTINUOUS
 62
    7
 10
71.531096999999932
 20
456.11947600000002
 11
62.281096999999932
 21
456.11947600000002
  0
LINE
  8
_0-0_0
  6
CONTINUOUS
 62
    7
 10
71.781096999999932
 20
456.06597900000003
 11
71.531096999999932
 21
456.11947600000002
  0
LINE
  8
_0-0_0
  6
CONTINUOUS
 62
    7
 10
71.781096999999932
 20
455.67147799999998
 11
71.531096999999932
 21
455.90002399999997
  0
LINE
  8
_0-0_0
  6
CONTINUOUS
 62
    7
 10
71.531096999999932
 20
455.90002399999997
 11
62.281096999999932
 21
455.90002399999997
  0
LINE
  8
_0-0_0
  6
CONTINUOUS
 62
    7
 10
71.781096999999932
 20
455.67147799999998
 11
62.031096999999932
 21
455.67147799999998
  0
LINE
  8
_0-0_0
  6
CONTINUOUS
 62
    7
 10
71.781096999999932
 20
455.875427
 11
71.531096999999932
 21
455.90002399999997
  0
LINE
  8
_0-0_0
  6
CONTINUOUS
 62
    7
 10
71.781096999999932
 20
455.45632899999998
 11
71.531096999999932
 21
455.66683999999998
  0
LINE
  8
_0-0_0
  6
CONTINUOUS
 62
    7
 10
71.531096999999932
 20
455.66683999999998
 11
62.281096999999932
 21
455.66683999999998
  0
LINE
  8
_0-0_0
  6
CONTINUOUS
 62
    7
 10
71.781096999999932
 20
455.45632899999998
 11
62.031096999999932
 21
455.45632899999998
  0
LINE
  8
_0-0_0
  6
CONTINUOUS
 62
    7
 10
71.781096999999932
 20
455.67147799999998
 11
71.531096999999932
 21
455.66683999999998
  0
LINE
  8
_0-0_0
  6
CONTINUOUS
 62
    7
 10
71.781096999999932
 20
455.23236100000003
 11
71.531096999999932
 21
455.42254600000001
  0
LINE
  8
_0-0_0
  6
CONTINUOUS
 62
    7
 10
71.531096999999932
 20
455.42254600000001
 11
62.281096999999932
 21
455.42254600000001
  0
LINE
  8
_0-0_0
  6
CONTINUOUS
 62
    7
 10
71.781096999999932
 20
455.23236100000003
 11
62.031096999999932
 21
455.23236100000003
  0
LINE
  8
_0-0_0
  6
CONTINUOUS
 62
    7
 10
71.781096999999932
 20
455.45632899999998
 11
71.531096999999932
 21
455.42254600000001
  0
LINE
  8
_0-0_0
  6
CONTINUOUS
 62
    7
 10
71.781096999999932
 20
455.00198399999999
 11
71.531096999999932
 21
455.16980000000001
  0
LINE
  8
_0-0_0
  6
CONTINUOUS
 62
    7
 10
71.531096999999932
 20
455.16980000000001
 11
62.281096999999932
 21
455.16980000000001
  0
LINE
  8
_0-0_0
  6
CONTINUOUS
 62
    7
 10
71.781096999999932
 20
455.00198399999999
 11
62.031096999999932
 21
455.00198399999999
  0
LINE
  8
_0-0_0
  6
CONTINUOUS
 62
    7
 10
71.781096999999932
 20
455.23236100000003
 11
71.531096999999932
 21
455.16980000000001
  0
LINE
  8
_0-0_0
  6
CONTINUOUS
 62
    7
 10
71.781096999999932
 20
454.76776100000001
 11
71.531096999999932
 21
454.911316
  0
LINE
  8
_0-0_0
  6
CONTINUOUS
 62
    7
 10
71.531096999999932
 20
454.911316
 11
62.281096999999932
 21
454.911316
  0
LINE
  8
_0-0_0
  6
CONTINUOUS
 62
    7
 10
71.781096999999932
 20
454.76776100000001
 11
62.031096999999932
 21
454.76776100000001
  0
LINE
  8
_0-0_0
  6
CONTINUOUS
 62
    7
 10
71.781096999999932
 20
455.00198399999999
 11
71.531096999999932
 21
454.911316
  0
LINE
  8
_0-0_0
  6
CONTINUOUS
 62
    7
 10
71.781096999999932
 20
454.53225700000002
 11
71.531096999999932
 21
454.65002399999997
  0
LINE
  8
_0-0_0
  6
CONTINUOUS
 62
    7
 10
71.531096999999932
 20
454.65002399999997
 11
62.281096999999932
 21
454.65002399999997
  0
LINE
  8
_0-0_0
  6
CONTINUOUS
 62
    7
 10
71.781096999999932
 20
454.53225700000002
 11
62.031096999999932
 21
454.53225700000002
  0
LINE
  8
_0-0_0
  6
CONTINUOUS
 62
    7
 10
71.781096999999932
 20
454.76776100000001
 11
71.531096999999932
 21
454.65002399999997
  0
LINE
  8
_0-0_0
  6
CONTINUOUS
 62
    7
 10
71.781096999999932
 20
454.29803500000003
 11
71.531096999999932
 21
454.38867199999999
  0
LINE
  8
_0-0_0
  6
CONTINUOUS
 62
    7
 10
71.531096999999932
 20
454.38867199999999
 11
62.281096999999932
 21
454.38867199999999
  0
LINE
  8
_0-0_0
  6
CONTINUOUS
 62
    7
 10
71.781096999999932
 20
454.29803500000003
 11
62.031096999999932
 21
454.29803500000003
  0
LINE
  8
_0-0_0
  6
CONTINUOUS
 62
    7
 10
71.781096999999932
 20
454.53225700000002
 11
71.531096999999932
 21
454.38867199999999
  0
LINE
  8
_0-0_0
  6
CONTINUOUS
 62
    7
 10
71.781096999999932
 20
454.067657
 11
71.531096999999932
 21
454.13021900000001
  0
LINE
  8
_0-0_0
  6
CONTINUOUS
 62
    7
 10
71.531096999999932
 20
454.13021900000001
 11
62.281096999999932
 21
454.13021900000001
  0
LINE
  8
_0-0_0
  6
CONTINUOUS
 62
    7
 10
71.781096999999932
 20
454.067657
 11
62.031096999999932
 21
454.067657
  0
LINE
  8
_0-0_0
  6
CONTINUOUS
 62
    7
 10
71.781096999999932
 20
454.29803500000003
 11
71.531096999999932
 21
454.13021900000001
  0
LINE
  8
_0-0_0
  6
CONTINUOUS
 62
    7
 10
71.781096999999932
 20
453.84368899999998
 11
71.531096999999932
 21
453.87747200000001
  0
LINE
  8
_0-0_0
  6
CONTINUOUS
 62
    7
 10
71.531096999999932
 20
453.87747200000001
 11
62.281096999999932
 21
453.87747200000001
  0
LINE
  8
_0-0_0
  6
CONTINUOUS
 62
    7
 10
71.781096999999932
 20
453.84368899999998
 11
62.031096999999932
 21
453.84368899999998
  0
LINE
  8
_0-0_0
  6
CONTINUOUS
 62
    7
 10
71.781096999999932
 20
454.067657
 11
71.531096999999932
 21
453.87747200000001
  0
LINE
  8
_0-0_0
  6
CONTINUOUS
 62
    7
 10
71.781096999999932
 20
453.62853999999999
 11
71.531096999999932
 21
453.63317899999998
  0
LINE
  8
_0-0_0
  6
CONTINUOUS
 62
    7
 10
71.531096999999932
 20
453.63317899999998
 11
62.281096999999932
 21
453.63317899999998
  0
LINE
  8
_0-0_0
  6
CONTINUOUS
 62
    7
 10
71.781096999999932
 20
453.84368899999998
 11
71.531096999999932
 21
453.63317899999998
  0
LINE
  8
_0-0_0
  6
CONTINUOUS
 62
    7
 10
72.031096999999932
 20
452.65002399999997
 11
72.031096999999932
 21
456.40518200000002
  0
LINE
  8
_0-0_0
  6
CONTINUOUS
 62
    7
 10
72.031096999999932
 20
456.40518200000002
 11
72.031096999999932
 21
456.65002399999997
  0
LINE
  8
_0-0_0
  6
CONTINUOUS
 62
    7
 10
58.431090999999924
 20
457.95001200000002
 11
58.431090999999924
 21
460.45001200000002
  0
LINE
  8
_0-0_0
  6
CONTINUOUS
 62
    7
 10
58.431090999999924
 20
460.45001200000002
 11
58.431090999999924
 21
467.95001200000002
  0
LINE
  8
_0-0_0
  6
CONTINUOUS
 62
    7
 10
59.231093999999985
 20
458.41189600000001
 11
59.231093999999985
 21
460.68093900000002
  0
LINE
  8
_0-0_0
  6
CONTINUOUS
 62
    7
 10
59.231093999999985
 20
460.68093900000002
 11
59.231093999999985
 21
467.48812900000001
  0
LINE
  8
_0-0_0
  6
CONTINUOUS
 62
    7
 10
117.23107899999997
 20
458.95001200000002
 11
117.23107899999997
 21
458.95135499999998
  0
LINE
  8
_0-0_0
  6
CONTINUOUS
 62
    7
 10
117.23107899999997
 20
458.95135499999998
 11
117.23107899999997
 21
466.95001200000002
  0
LINE
  8
_0-0_0
  6
CONTINUOUS
 62
    7
 10
62.031096999999932
 20
473.49691799999999
 11
62.031096999999932
 21
473.5
  0
LINE
  8
_0-0_0
  6
CONTINUOUS
 62
    7
 10
62.031096999999932
 20
473.47228999999999
 11
62.031096999999932
 21
473.49691799999999
  0
LINE
  8
_0-0_0
  6
CONTINUOUS
 62
    7
 10
62.031096999999932
 20
473.42334
 11
62.031096999999932
 21
473.47228999999999
  0
LINE
  8
_0-0_0
  6
CONTINUOUS
 62
    7
 10
62.031096999999932
 20
473.35055499999999
 11
62.031096999999932
 21
473.42334
  0
LINE
  8
_0-0_0
  6
CONTINUOUS
 62
    7
 10
62.031096999999932
 20
473.25476099999997
 11
62.031096999999932
 21
473.35055499999999
  0
LINE
  8
_0-0_0
  6
CONTINUOUS
 62
    7
 10
62.031096999999932
 20
473.22457900000001
 11
62.031096999999932
 21
473.25476099999997
  0
LINE
  8
_0-0_0
  6
CONTINUOUS
 62
    7
 10
62.031096999999932
 20
473.137024
 11
62.031096999999932
 21
473.22457900000001
  0
LINE
  8
_0-0_0
  6
CONTINUOUS
 62
    7
 10
62.031096999999932
 20
472.99859600000002
 11
62.031096999999932
 21
473.137024
  0
LINE
  8
_0-0_0
  6
CONTINUOUS
 62
    7
 10
62.031096999999932
 20
472.841003
 11
62.031096999999932
 21
472.99859600000002
  0
LINE
  8
_0-0_0
  6
CONTINUOUS
 62
    7
 10
62.031096999999932
 20
472.66598499999998
 11
62.031096999999932
 21
472.841003
  0
LINE
  8
_0-0_0
  6
CONTINUOUS
 62
    7
 10
62.031096999999932
 20
472.47543300000001
 11
62.031096999999932
 21
472.66598499999998
  0
LINE
  8
_0-0_0
  6
CONTINUOUS
 62
    7
 10
62.031096999999932
 20
472.27148399999999
 11
62.031096999999932
 21
472.47543300000001
  0
LINE
  8
_0-0_0
  6
CONTINUOUS
 62
    7
 10
62.031096999999932
 20
472.05633499999999
 11
62.031096999999932
 21
472.27148399999999
  0
LINE
  8
_0-0_0
  6
CONTINUOUS
 62
    7
 10
62.031096999999932
 20
471.832336
 11
62.031096999999932
 21
472.05633499999999
  0
LINE
  8
_0-0_0
  6
CONTINUOUS
 62
    7
 10
62.031096999999932
 20
471.60199
 11
62.031096999999932
 21
471.832336
  0
LINE
  8
_0-0_0
  6
CONTINUOUS
 62
    7
 10
62.031096999999932
 20
471.36776700000001
 11
62.031096999999932
 21
471.60199
  0
LINE
  8
_0-0_0
  6
CONTINUOUS
 62
    7
 10
62.031096999999932
 20
471.13226300000002
 11
62.031096999999932
 21
471.36776700000001
  0
LINE
  8
_0-0_0
  6
CONTINUOUS
 62
    7
 10
62.031096999999932
 20
470.89804099999998
 11
62.031096999999932
 21
471.13226300000002
  0
LINE
  8
_0-0_0
  6
CONTINUOUS
 62
    7
 10
62.031096999999932
 20
470.667664
 11
62.031096999999932
 21
470.89804099999998
  0
LINE
  8
_0-0_0
  6
CONTINUOUS
 62
    7
 10
62.031096999999932
 20
470.44366500000001
 11
62.031096999999932
 21
470.667664
  0
LINE
  8
_0-0_0
  6
CONTINUOUS
 62
    7
 10
62.031096999999932
 20
470.22851600000001
 11
62.031096999999932
 21
470.44366500000001
  0
LINE
  8
_0-0_0
  6
CONTINUOUS
 62
    7
 10
62.031096999999932
 20
470.17129499999999
 11
62.031096999999932
 21
470.22851600000001
  0
LINE
  8
_0-0_0
  6
CONTINUOUS
 62
    7
 10
62.031096999999932
 20
473.49691799999999
 11
62.281096999999932
 21
473.75
  0
LINE
  8
_0-0_0
  6
CONTINUOUS
 62
    7
 10
62.031096999999932
 20
473.47228999999999
 11
62.281096999999932
 21
473.73632800000001
  0
LINE
  8
_0-0_0
  6
CONTINUOUS
 62
    7
 10
62.031096999999932
 20
473.49691799999999
 11
62.281096999999932
 21
473.73632800000001
  0
LINE
  8
_0-0_0
  6
CONTINUOUS
 62
    7
 10
62.031096999999932
 20
473.42334
 11
62.281096999999932
 21
473.69537400000002
  0
LINE
  8
_0-0_0
  6
CONTINUOUS
 62
    7
 10
62.031096999999932
 20
473.47228999999999
 11
62.281096999999932
 21
473.69537400000002
  0
LINE
  8
_0-0_0
  6
CONTINUOUS
 62
    7
 10
62.031096999999932
 20
473.35055499999999
 11
62.281096999999932
 21
473.627655
  0
LINE
  8
_0-0_0
  6
CONTINUOUS
 62
    7
 10
62.031096999999932
 20
473.42334
 11
62.281096999999932
 21
473.627655
  0
LINE
  8
_0-0_0
  6
CONTINUOUS
 62
    7
 10
62.031096999999932
 20
473.25476099999997
 11
62.281096999999932
 21
473.53387500000002
  0
LINE
  8
_0-0_0
  6
CONTINUOUS
 62
    7
 10
62.031096999999932
 20
473.35055499999999
 11
62.281096999999932
 21
473.53387500000002
  0
LINE
  8
_0-0_0
  6
CONTINUOUS
 62
    7
 10
62.031096999999932
 20
473.25476099999997
 11
62.16107199999999
 21
473.33862299999998
  0
LINE
  8
_0-0_0
  6
CONTINUOUS
 62
    7
 10
62.031096999999932
 20
473.137024
 11
62.281096999999932
 21
473.41507000000001
  0
LINE
  8
_0-0_0
  6
CONTINUOUS
 62
    7
 10
62.16107199999999
 20
473.33862299999998
 11
62.281096999999932
 21
473.41507000000001
  0
LINE
  8
_0-0_0
  6
CONTINUOUS
 62
    7
 10
62.031096999999932
 20
472.99859600000002
 11
62.281096999999932
 21
473.27255200000002
  0
LINE
  8
_0-0_0
  6
CONTINUOUS
 62
    7
 10
62.031096999999932
 20
473.137024
 11
62.281096999999932
 21
473.27255200000002
  0
LINE
  8
_0-0_0
  6
CONTINUOUS
 62
    7
 10
62.031096999999932
 20
472.841003
 11
62.281096999999932
 21
473.10788000000002
  0
LINE
  8
_0-0_0
  6
CONTINUOUS
 62
    7
 10
62.031096999999932
 20
472.99859600000002
 11
62.281096999999932
 21
473.10788000000002
  0
LINE
  8
_0-0_0
  6
CONTINUOUS
 62
    7
 10
62.031096999999932
 20
472.66598499999998
 11
62.281096999999932
 21
472.922821
  0
LINE
  8
_0-0_0
  6
CONTINUOUS
 62
    7
 10
62.031096999999932
 20
472.841003
 11
62.281096999999932
 21
472.922821
  0
LINE
  8
_0-0_0
  6
CONTINUOUS
 62
    7
 10
62.031096999999932
 20
472.47543300000001
 11
62.281096999999932
 21
472.71948200000003
  0
LINE
  8
_0-0_0
  6
CONTINUOUS
 62
    7
 10
62.031096999999932
 20
472.66598499999998
 11
62.281096999999932
 21
472.71948200000003
  0
LINE
  8
_0-0_0
  6
CONTINUOUS
 62
    7
 10
62.031096999999932
 20
472.27148399999999
 11
62.281096999999932
 21
472.5
  0
LINE
  8
_0-0_0
  6
CONTINUOUS
 62
    7
 10
62.031096999999932
 20
472.47543300000001
 11
62.281096999999932
 21
472.5
  0
LINE
  8
_0-0_0
  6
CONTINUOUS
 62
    7
 10
62.031096999999932
 20
472.05633499999999
 11
62.281096999999932
 21
472.26684599999999
  0
LINE
  8
_0-0_0
  6
CONTINUOUS
 62
    7
 10
62.031096999999932
 20
472.27148399999999
 11
62.281096999999932
 21
472.26684599999999
  0
LINE
  8
_0-0_0
  6
CONTINUOUS
 62
    7
 10
62.031096999999932
 20
471.832336
 11
62.281096999999932
 21
472.02255200000002
  0
LINE
  8
_0-0_0
  6
CONTINUOUS
 62
    7
 10
62.031096999999932
 20
472.05633499999999
 11
62.281096999999932
 21
472.02255200000002
  0
LINE
  8
_0-0_0
  6
CONTINUOUS
 62
    7
 10
62.031096999999932
 20
471.60199
 11
62.281096999999932
 21
471.76977499999998
  0
LINE
  8
_0-0_0
  6
CONTINUOUS
 62
    7
 10
62.031096999999932
 20
471.832336
 11
62.281096999999932
 21
471.76977499999998
  0
LINE
  8
_0-0_0
  6
CONTINUOUS
 62
    7
 10
62.031096999999932
 20
471.36776700000001
 11
62.281096999999932
 21
471.51132200000001
  0
LINE
  8
_0-0_0
  6
CONTINUOUS
 62
    7
 10
62.031096999999932
 20
471.60199
 11
62.281096999999932
 21
471.51132200000001
  0
LINE
  8
_0-0_0
  6
CONTINUOUS
 62
    7
 10
62.031096999999932
 20
471.13226300000002
 11
62.281096999999932
 21
471.25
  0
LINE
  8
_0-0_0
  6
CONTINUOUS
 62
    7
 10
62.031096999999932
 20
471.36776700000001
 11
62.281096999999932
 21
471.25
  0
LINE
  8
_0-0_0
  6
CONTINUOUS
 62
    7
 10
62.031096999999932
 20
470.89804099999998
 11
62.281096999999932
 21
470.98867799999999
  0
LINE
  8
_0-0_0
  6
CONTINUOUS
 62
    7
 10
62.031096999999932
 20
471.13226300000002
 11
62.281096999999932
 21
470.98867799999999
  0
LINE
  8
_0-0_0
  6
CONTINUOUS
 62
    7
 10
62.031096999999932
 20
470.667664
 11
62.281096999999932
 21
470.73022500000002
  0
LINE
  8
_0-0_0
  6
CONTINUOUS
 62
    7
 10
62.031096999999932
 20
470.89804099999998
 11
62.281096999999932
 21
470.73022500000002
  0
LINE
  8
_0-0_0
  6
CONTINUOUS
 62
    7
 10
62.031096999999932
 20
470.44366500000001
 11
62.281096999999932
 21
470.47747800000002
  0
LINE
  8
_0-0_0
  6
CONTINUOUS
 62
    7
 10
62.031096999999932
 20
470.667664
 11
62.281096999999932
 21
470.47747800000002
  0
LINE
  8
_0-0_0
  6
CONTINUOUS
 62
    7
 10
62.031096999999932
 20
470.22851600000001
 11
62.281096999999932
 21
470.23315400000001
  0
LINE
  8
_0-0_0
  6
CONTINUOUS
 62
    7
 10
62.031096999999932
 20
470.44366500000001
 11
62.281096999999932
 21
470.23315400000001
  0
LINE
  8
_0-0_0
  6
CONTINUOUS
 62
    7
 10
62.031096999999932
 20
470.02456699999999
 11
62.031096999999932
 21
470.17129499999999
  0
LINE
  8
_0-0_0
  6
CONTINUOUS
 62
    7
 10
62.031096999999932
 20
470.02456699999999
 11
62.281096999999932
 21
470
  0
LINE
  8
_0-0_0
  6
CONTINUOUS
 62
    7
 10
62.031096999999932
 20
470.22851600000001
 11
62.281096999999932
 21
470
  0
LINE
  8
_0-0_0
  6
CONTINUOUS
 62
    7
 10
62.031096999999932
 20
469.834045
 11
62.031096999999932
 21
470.02456699999999
  0
LINE
  8
_0-0_0
  6
CONTINUOUS
 62
    7
 10
62.031096999999932
 20
469.65902699999998
 11
62.031096999999932
 21
469.834045
  0
LINE
  8
_0-0_0
  6
CONTINUOUS
 62
    7
 10
62.031096999999932
 20
469.50143400000002
 11
62.031096999999932
 21
469.65902699999998
  0
LINE
  8
_0-0_0
  6
CONTINUOUS
 62
    7
 10
62.031096999999932
 20
469.36300699999998
 11
62.031096999999932
 21
469.50143400000002
  0
LINE
  8
_0-0_0
  6
CONTINUOUS
 62
    7
 10
62.031096999999932
 20
469.24523900000003
 11
62.031096999999932
 21
469.36300699999998
  0
LINE
  8
_0-0_0
  6
CONTINUOUS
 62
    7
 10
62.031096999999932
 20
469.14944500000001
 11
62.031096999999932
 21
469.24523900000003
  0
LINE
  8
_0-0_0
  6
CONTINUOUS
 62
    7
 10
62.031096999999932
 20
469.07666
 11
62.031096999999932
 21
469.14944500000001
  0
LINE
  8
_0-0_0
  6
CONTINUOUS
 62
    7
 10
62.031096999999932
 20
469.02771000000001
 11
62.031096999999932
 21
469.07666
  0
LINE
  8
_0-0_0
  6
CONTINUOUS
 62
    7
 10
62.031096999999932
 20
469.00308200000001
 11
62.031096999999932
 21
469.02771000000001
  0
LINE
  8
_0-0_0
  6
CONTINUOUS
 62
    7
 10
62.031096999999932
 20
469
 11
62.031096999999932
 21
469.00308200000001
  0
LINE
  8
_0-0_0
  6
CONTINUOUS
 62
    7
 10
71.781096999999932
 20
473.49691799999999
 11
71.531096999999932
 21
473.75
  0
LINE
  8
_0-0_0
  6
CONTINUOUS
 62
    7
 10
71.531096999999932
 20
473.75
 11
62.281096999999932
 21
473.75
  0
LINE
  8
_0-0_0
  6
CONTINUOUS
 62
    7
 10
71.781096999999932
 20
473.47228999999999
 11
71.531096999999932
 21
473.73632800000001
  0
LINE
  8
_0-0_0
  6
CONTINUOUS
 62
    7
 10
71.531096999999932
 20
473.73632800000001
 11
62.281096999999932
 21
473.73632800000001
  0
LINE
  8
_0-0_0
  6
CONTINUOUS
 62
    7
 10
71.781096999999932
 20
473.49691799999999
 11
71.531096999999932
 21
473.73632800000001
  0
LINE
  8
_0-0_0
  6
CONTINUOUS
 62
    7
 10
71.781096999999932
 20
473.42334
 11
71.531096999999932
 21
473.69537400000002
  0
LINE
  8
_0-0_0
  6
CONTINUOUS
 62
    7
 10
71.531096999999932
 20
473.69537400000002
 11
62.281096999999932
 21
473.69537400000002
  0
LINE
  8
_0-0_0
  6
CONTINUOUS
 62
    7
 10
71.781096999999932
 20
473.47228999999999
 11
71.531096999999932
 21
473.69537400000002
  0
LINE
  8
_0-0_0
  6
CONTINUOUS
 62
    7
 10
71.781096999999932
 20
473.35055499999999
 11
71.531096999999932
 21
473.627655
  0
LINE
  8
_0-0_0
  6
CONTINUOUS
 62
    7
 10
71.531096999999932
 20
473.627655
 11
62.281096999999932
 21
473.627655
  0
LINE
  8
_0-0_0
  6
CONTINUOUS
 62
    7
 10
71.781096999999932
 20
473.42334
 11
71.531096999999932
 21
473.627655
  0
LINE
  8
_0-0_0
  6
CONTINUOUS
 62
    7
 10
71.781096999999932
 20
473.25476099999997
 11
71.531096999999932
 21
473.53387500000002
  0
LINE
  8
_0-0_0
  6
CONTINUOUS
 62
    7
 10
71.531096999999932
 20
473.53387500000002
 11
62.281096999999932
 21
473.53387500000002
  0
LINE
  8
_0-0_0
  6
CONTINUOUS
 62
    7
 10
71.781096999999932
 20
473.35055499999999
 11
71.531096999999932
 21
473.53387500000002
  0
LINE
  8
_0-0_0
  6
CONTINUOUS
 62
    7
 10
71.531096999999932
 20
473.41507000000001
 11
62.281096999999932
 21
473.41507000000001
  0
LINE
  8
_0-0_0
  6
CONTINUOUS
 62
    7
 10
71.651137999999946
 20
473.33862299999998
 11
71.531096999999932
 21
473.41507000000001
  0
LINE
  8
_0-0_0
  6
CONTINUOUS
 62
    7
 10
71.781096999999932
 20
473.25476099999997
 11
71.651137999999946
 21
473.33862299999998
  0
LINE
  8
_0-0_0
  6
CONTINUOUS
 62
    7
 10
71.781096999999932
 20
473.137024
 11
71.531096999999932
 21
473.41507000000001
  0
LINE
  8
_0-0_0
  6
CONTINUOUS
 62
    7
 10
71.781096999999932
 20
472.99859600000002
 11
71.531096999999932
 21
473.27255200000002
  0
LINE
  8
_0-0_0
  6
CONTINUOUS
 62
    7
 10
71.531096999999932
 20
473.27255200000002
 11
62.281096999999932
 21
473.27255200000002
  0
LINE
  8
_0-0_0
  6
CONTINUOUS
 62
    7
 10
71.781096999999932
 20
473.137024
 11
71.531096999999932
 21
473.27255200000002
  0
LINE
  8
_0-0_0
  6
CONTINUOUS
 62
    7
 10
71.781096999999932
 20
472.841003
 11
71.531096999999932
 21
473.10788000000002
  0
LINE
  8
_0-0_0
  6
CONTINUOUS
 62
    7
 10
71.531096999999932
 20
473.10788000000002
 11
62.281096999999932
 21
473.10788000000002
  0
LINE
  8
_0-0_0
  6
CONTINUOUS
 62
    7
 10
71.781096999999932
 20
472.99859600000002
 11
71.531096999999932
 21
473.10788000000002
  0
LINE
  8
_0-0_0
  6
CONTINUOUS
 62
    7
 10
71.781096999999932
 20
472.66598499999998
 11
71.531096999999932
 21
472.922821
  0
LINE
  8
_0-0_0
  6
CONTINUOUS
 62
    7
 10
71.531096999999932
 20
472.922821
 11
62.281096999999932
 21
472.922821
  0
LINE
  8
_0-0_0
  6
CONTINUOUS
 62
    7
 10
71.781096999999932
 20
472.841003
 11
71.531096999999932
 21
472.922821
  0
LINE
  8
_0-0_0
  6
CONTINUOUS
 62
    7
 10
71.781096999999932
 20
472.47543300000001
 11
71.531096999999932
 21
472.71948200000003
  0
LINE
  8
_0-0_0
  6
CONTINUOUS
 62
    7
 10
71.531096999999932
 20
472.71948200000003
 11
62.281096999999932
 21
472.71948200000003
  0
LINE
  8
_0-0_0
  6
CONTINUOUS
 62
    7
 10
71.781096999999932
 20
472.66598499999998
 11
71.531096999999932
 21
472.71948200000003
  0
LINE
  8
_0-0_0
  6
CONTINUOUS
 62
    7
 10
71.781096999999932
 20
472.27148399999999
 11
71.531096999999932
 21
472.5
  0
LINE
  8
_0-0_0
  6
CONTINUOUS
 62
    7
 10
71.531096999999932
 20
472.5
 11
62.281096999999932
 21
472.5
  0
LINE
  8
_0-0_0
  6
CONTINUOUS
 62
    7
 10
71.781096999999932
 20
472.27148399999999
 11
62.031096999999932
 21
472.27148399999999
  0
LINE
  8
_0-0_0
  6
CONTINUOUS
 62
    7
 10
71.781096999999932
 20
472.47543300000001
 11
71.531096999999932
 21
472.5
  0
LINE
  8
_0-0_0
  6
CONTINUOUS
 62
    7
 10
71.781096999999932
 20
472.05633499999999
 11
71.531096999999932
 21
472.26684599999999
  0
LINE
  8
_0-0_0
  6
CONTINUOUS
 62
    7
 10
71.531096999999932
 20
472.26684599999999
 11
62.281096999999932
 21
472.26684599999999
  0
LINE
  8
_0-0_0
  6
CONTINUOUS
 62
    7
 10
71.781096999999932
 20
472.05633499999999
 11
62.031096999999932
 21
472.05633499999999
  0
LINE
  8
_0-0_0
  6
CONTINUOUS
 62
    7
 10
71.781096999999932
 20
472.27148399999999
 11
71.531096999999932
 21
472.26684599999999
  0
LINE
  8
_0-0_0
  6
CONTINUOUS
 62
    7
 10
71.781096999999932
 20
471.832336
 11
71.531096999999932
 21
472.02255200000002
  0
LINE
  8
_0-0_0
  6
CONTINUOUS
 62
    7
 10
71.531096999999932
 20
472.02255200000002
 11
62.281096999999932
 21
472.02255200000002
  0
LINE
  8
_0-0_0
  6
CONTINUOUS
 62
    7
 10
71.781096999999932
 20
471.832336
 11
62.031096999999932
 21
471.832336
  0
LINE
  8
_0-0_0
  6
CONTINUOUS
 62
    7
 10
71.781096999999932
 20
472.05633499999999
 11
71.531096999999932
 21
472.02255200000002
  0
LINE
  8
_0-0_0
  6
CONTINUOUS
 62
    7
 10
71.781096999999932
 20
471.60199
 11
71.531096999999932
 21
471.76977499999998
  0
LINE
  8
_0-0_0
  6
CONTINUOUS
 62
    7
 10
71.531096999999932
 20
471.76977499999998
 11
62.281096999999932
 21
471.76977499999998
  0
LINE
  8
_0-0_0
  6
CONTINUOUS
 62
    7
 10
71.781096999999932
 20
471.60199
 11
62.031096999999932
 21
471.60199
  0
LINE
  8
_0-0_0
  6
CONTINUOUS
 62
    7
 10
71.781096999999932
 20
471.832336
 11
71.531096999999932
 21
471.76977499999998
  0
LINE
  8
_0-0_0
  6
CONTINUOUS
 62
    7
 10
71.781096999999932
 20
471.36776700000001
 11
71.531096999999932
 21
471.51132200000001
  0
LINE
  8
_0-0_0
  6
CONTINUOUS
 62
    7
 10
71.531096999999932
 20
471.51132200000001
 11
62.281096999999932
 21
471.51132200000001
  0
LINE
  8
_0-0_0
  6
CONTINUOUS
 62
    7
 10
71.781096999999932
 20
471.36776700000001
 11
62.031096999999932
 21
471.36776700000001
  0
LINE
  8
_0-0_0
  6
CONTINUOUS
 62
    7
 10
71.781096999999932
 20
471.60199
 11
71.531096999999932
 21
471.51132200000001
  0
LINE
  8
_0-0_0
  6
CONTINUOUS
 62
    7
 10
71.781096999999932
 20
471.13226300000002
 11
71.531096999999932
 21
471.25
  0
LINE
  8
_0-0_0
  6
CONTINUOUS
 62
    7
 10
71.531096999999932
 20
471.25
 11
62.281096999999932
 21
471.25
  0
LINE
  8
_0-0_0
  6
CONTINUOUS
 62
    7
 10
71.781096999999932
 20
471.13226300000002
 11
62.031096999999932
 21
471.13226300000002
  0
LINE
  8
_0-0_0
  6
CONTINUOUS
 62
    7
 10
71.781096999999932
 20
471.36776700000001
 11
71.531096999999932
 21
471.25
  0
LINE
  8
_0-0_0
  6
CONTINUOUS
 62
    7
 10
71.781096999999932
 20
470.89804099999998
 11
71.531096999999932
 21
470.98867799999999
  0
LINE
  8
_0-0_0
  6
CONTINUOUS
 62
    7
 10
71.531096999999932
 20
470.98867799999999
 11
62.281096999999932
 21
470.98867799999999
  0
LINE
  8
_0-0_0
  6
CONTINUOUS
 62
    7
 10
71.781096999999932
 20
470.89804099999998
 11
62.031096999999932
 21
470.89804099999998
  0
LINE
  8
_0-0_0
  6
CONTINUOUS
 62
    7
 10
71.781096999999932
 20
471.13226300000002
 11
71.531096999999932
 21
470.98867799999999
  0
LINE
  8
_0-0_0
  6
CONTINUOUS
 62
    7
 10
71.781096999999932
 20
470.667664
 11
71.531096999999932
 21
470.73022500000002
  0
LINE
  8
_0-0_0
  6
CONTINUOUS
 62
    7
 10
71.531096999999932
 20
470.73022500000002
 11
62.281096999999932
 21
470.73022500000002
  0
LINE
  8
_0-0_0
  6
CONTINUOUS
 62
    7
 10
71.781096999999932
 20
470.667664
 11
62.031096999999932
 21
470.667664
  0
LINE
  8
_0-0_0
  6
CONTINUOUS
 62
    7
 10
71.781096999999932
 20
470.89804099999998
 11
71.531096999999932
 21
470.73022500000002
  0
LINE
  8
_0-0_0
  6
CONTINUOUS
 62
    7
 10
71.781096999999932
 20
470.44366500000001
 11
71.531096999999932
 21
470.47747800000002
  0
LINE
  8
_0-0_0
  6
CONTINUOUS
 62
    7
 10
71.531096999999932
 20
470.47747800000002
 11
62.281096999999932
 21
470.47747800000002
  0
LINE
  8
_0-0_0
  6
CONTINUOUS
 62
    7
 10
71.781096999999932
 20
470.44366500000001
 11
62.031096999999932
 21
470.44366500000001
  0
LINE
  8
_0-0_0
  6
CONTINUOUS
 62
    7
 10
71.781096999999932
 20
470.667664
 11
71.531096999999932
 21
470.47747800000002
  0
LINE
  8
_0-0_0
  6
CONTINUOUS
 62
    7
 10
71.781096999999932
 20
470.22851600000001
 11
71.531096999999932
 21
470.23315400000001
  0
LINE
  8
_0-0_0
  6
CONTINUOUS
 62
    7
 10
71.531096999999932
 20
470.23315400000001
 11
62.281096999999932
 21
470.23315400000001
  0
LINE
  8
_0-0_0
  6
CONTINUOUS
 62
    7
 10
71.781096999999932
 20
470.22851600000001
 11
62.031096999999932
 21
470.22851600000001
  0
LINE
  8
_0-0_0
  6
CONTINUOUS
 62
    7
 10
71.781096999999932
 20
470.44366500000001
 11
71.531096999999932
 21
470.23315400000001
  0
LINE
  8
_0-0_0
  6
CONTINUOUS
 62
    7
 10
71.781096999999932
 20
470.02456699999999
 11
71.531096999999932
 21
470
  0
LINE
  8
_0-0_0
  6
CONTINUOUS
 62
    7
 10
71.531096999999932
 20
470
 11
62.281096999999932
 21
470
  0
LINE
  8
_0-0_0
  6
CONTINUOUS
 62
    7
 10
71.781096999999932
 20
470.22851600000001
 11
71.531096999999932
 21
470
  0
LINE
  8
_0-0_0
  6
CONTINUOUS
 62
    7
 10
62.031096999999932
 20
469.834045
 11
62.281096999999932
 21
469.78054800000001
  0
LINE
  8
_0-0_0
  6
CONTINUOUS
 62
    7
 10
62.031096999999932
 20
470.02456699999999
 11
62.281096999999932
 21
469.78054800000001
  0
LINE
  8
_0-0_0
  6
CONTINUOUS
 62
    7
 10
62.031096999999932
 20
469.65902699999998
 11
62.281096999999932
 21
469.577179
  0
LINE
  8
_0-0_0
  6
CONTINUOUS
 62
    7
 10
62.031096999999932
 20
469.834045
 11
62.281096999999932
 21
469.577179
  0
LINE
  8
_0-0_0
  6
CONTINUOUS
 62
    7
 10
62.031096999999932
 20
469.50143400000002
 11
62.281096999999932
 21
469.39215100000001
  0
LINE
  8
_0-0_0
  6
CONTINUOUS
 62
    7
 10
62.031096999999932
 20
469.65902699999998
 11
62.281096999999932
 21
469.39215100000001
  0
LINE
  8
_0-0_0
  6
CONTINUOUS
 62
    7
 10
62.031096999999932
 20
469.36300699999998
 11
62.281096999999932
 21
469.22747800000002
  0
LINE
  8
_0-0_0
  6
CONTINUOUS
 62
    7
 10
62.031096999999932
 20
469.50143400000002
 11
62.281096999999932
 21
469.22747800000002
  0
LINE
  8
_0-0_0
  6
CONTINUOUS
 62
    7
 10
62.031096999999932
 20
469.24523900000003
 11
62.281096999999932
 21
469.08496100000002
  0
LINE
  8
_0-0_0
  6
CONTINUOUS
 62
    7
 10
62.031096999999932
 20
469.36300699999998
 11
62.281096999999932
 21
469.08496100000002
  0
LINE
  8
_0-0_0
  6
CONTINUOUS
 62
    7
 10
62.031096999999932
 20
469.14944500000001
 11
62.281096999999932
 21
468.96615600000001
  0
LINE
  8
_0-0_0
  6
CONTINUOUS
 62
    7
 10
62.031096999999932
 20
469.24523900000003
 11
62.281096999999932
 21
468.96615600000001
  0
LINE
  8
_0-0_0
  6
CONTINUOUS
 62
    7
 10
62.031096999999932
 20
469.07666
 11
62.281096999999932
 21
468.87237499999998
  0
LINE
  8
_0-0_0
  6
CONTINUOUS
 62
    7
 10
62.031096999999932
 20
469.14944500000001
 11
62.281096999999932
 21
468.87237499999998
  0
LINE
  8
_0-0_0
  6
CONTINUOUS
 62
    7
 10
62.031096999999932
 20
469.02771000000001
 11
62.281096999999932
 21
468.80462599999998
  0
LINE
  8
_0-0_0
  6
CONTINUOUS
 62
    7
 10
62.031096999999932
 20
469.07666
 11
62.281096999999932
 21
468.80462599999998
  0
LINE
  8
_0-0_0
  6
CONTINUOUS
 62
    7
 10
62.031096999999932
 20
469.00308200000001
 11
62.281096999999932
 21
468.76370200000002
  0
LINE
  8
_0-0_0
  6
CONTINUOUS
 62
    7
 10
62.031096999999932
 20
469.02771000000001
 11
62.281096999999932
 21
468.76370200000002
  0
LINE
  8
_0-0_0
  6
CONTINUOUS
 62
    7
 10
62.031096999999932
 20
469.00308200000001
 11
62.281096999999932
 21
468.75
  0
LINE
  8
_0-0_0
  6
CONTINUOUS
 62
    7
 10
72.031096999999932
 20
473.00518799999998
 11
72.031096999999932
 21
473.25
  0
LINE
  8
_0-0_0
  6
CONTINUOUS
 62
    7
 10
71.781096999999932
 20
470.02456699999999
 11
71.531096999999932
 21
469.78054800000001
  0
LINE
  8
_0-0_0
  6
CONTINUOUS
 62
    7
 10
71.781096999999932
 20
469.834045
 11
71.531096999999932
 21
469.78054800000001
  0
LINE
  8
_0-0_0
  6
CONTINUOUS
 62
    7
 10
71.781096999999932
 20
469.834045
 11
71.531096999999932
 21
469.577179
  0
LINE
  8
_0-0_0
  6
CONTINUOUS
 62
    7
 10
71.781096999999932
 20
469.65902699999998
 11
71.531096999999932
 21
469.577179
  0
LINE
  8
_0-0_0
  6
CONTINUOUS
 62
    7
 10
71.781096999999932
 20
469.65902699999998
 11
71.531096999999932
 21
469.39215100000001
  0
LINE
  8
_0-0_0
  6
CONTINUOUS
 62
    7
 10
71.781096999999932
 20
469.50143400000002
 11
71.531096999999932
 21
469.39215100000001
  0
LINE
  8
_0-0_0
  6
CONTINUOUS
 62
    7
 10
71.781096999999932
 20
469.50143400000002
 11
71.531096999999932
 21
469.22747800000002
  0
LINE
  8
_0-0_0
  6
CONTINUOUS
 62
    7
 10
71.781096999999932
 20
469.36300699999998
 11
71.531096999999932
 21
469.22747800000002
  0
LINE
  8
_0-0_0
  6
CONTINUOUS
 62
    7
 10
71.781096999999932
 20
469.36300699999998
 11
71.531096999999932
 21
469.08496100000002
  0
LINE
  8
_0-0_0
  6
CONTINUOUS
 62
    7
 10
71.781096999999932
 20
469.24523900000003
 11
71.531096999999932
 21
469.08496100000002
  0
LINE
  8
_0-0_0
  6
CONTINUOUS
 62
    7
 10
71.781096999999932
 20
469.24523900000003
 11
71.531096999999932
 21
468.96615600000001
  0
LINE
  8
_0-0_0
  6
CONTINUOUS
 62
    7
 10
71.781096999999932
 20
469.14944500000001
 11
71.531096999999932
 21
468.96615600000001
  0
LINE
  8
_0-0_0
  6
CONTINUOUS
 62
    7
 10
71.781096999999932
 20
469.14944500000001
 11
71.531096999999932
 21
468.87237499999998
  0
LINE
  8
_0-0_0
  6
CONTINUOUS
 62
    7
 10
71.781096999999932
 20
469.07666
 11
71.531096999999932
 21
468.87237499999998
  0
LINE
  8
_0-0_0
  6
CONTINUOUS
 62
    7
 10
71.781096999999932
 20
469.07666
 11
71.531096999999932
 21
468.80462599999998
  0
LINE
  8
_0-0_0
  6
CONTINUOUS
 62
    7
 10
71.781096999999932
 20
469.02771000000001
 11
71.531096999999932
 21
468.80462599999998
  0
LINE
  8
_0-0_0
  6
CONTINUOUS
 62
    7
 10
71.781096999999932
 20
469.02771000000001
 11
71.531096999999932
 21
468.76370200000002
  0
LINE
  8
_0-0_0
  6
CONTINUOUS
 62
    7
 10
71.781096999999932
 20
469.00308200000001
 11
71.531096999999932
 21
468.76370200000002
  0
LINE
  8
_0-0_0
  6
CONTINUOUS
 62
    7
 10
71.781096999999932
 20
469.00308200000001
 11
71.531096999999932
 21
468.75
  0
LINE
  8
_0-0_0
  6
CONTINUOUS
 62
    7
 10
72.031096999999932
 20
469.25
 11
72.031096999999932
 21
473.00518799999998
  0
LINE
  8
_0-0_0
  6
CONTINUOUS
 62
    7
 10
71.531096999999932
 20
469.78054800000001
 11
62.281096999999932
 21
469.78054800000001
  0
LINE
  8
_0-0_0
  6
CONTINUOUS
 62
    7
 10
71.531096999999932
 20
469.577179
 11
62.281096999999932
 21
469.577179
  0
LINE
  8
_0-0_0
  6
CONTINUOUS
 62
    7
 10
71.531096999999932
 20
469.39215100000001
 11
62.281096999999932
 21
469.39215100000001
  0
LINE
  8
_0-0_0
  6
CONTINUOUS
 62
    7
 10
71.531096999999932
 20
469.22747800000002
 11
62.281096999999932
 21
469.22747800000002
  0
LINE
  8
_0-0_0
  6
CONTINUOUS
 62
    7
 10
71.531096999999932
 20
469.08496100000002
 11
62.281096999999932
 21
469.08496100000002
  0
LINE
  8
_0-0_0
  6
CONTINUOUS
 62
    7
 10
71.531096999999932
 20
468.96615600000001
 11
62.281096999999932
 21
468.96615600000001
  0
LINE
  8
_0-0_0
  6
CONTINUOUS
 62
    7
 10
71.531096999999932
 20
468.87237499999998
 11
62.281096999999932
 21
468.87237499999998
  0
LINE
  8
_0-0_0
  6
CONTINUOUS
 62
    7
 10
71.531096999999932
 20
468.80462599999998
 11
62.281096999999932
 21
468.80462599999998
  0
LINE
  8
_0-0_0
  6
CONTINUOUS
 62
    7
 10
71.531096999999932
 20
468.76370200000002
 11
62.281096999999932
 21
468.76370200000002
  0
LINE
  8
_0-0_0
  6
CONTINUOUS
 62
    7
 10
71.531096999999932
 20
468.75
 11
62.281096999999932
 21
468.75
  0
LINE
  8
_0-0_0
  6
CONTINUOUS
 62
    7
 10
-64.968903000000068
 20
469
 11
-67.424568000000022
 21
469
  0
LINE
  8
_0-0_0
  6
CONTINUOUS
 62
    7
 10
-66.92349200000001
 20
473.5
 11
-67.424568000000022
 21
473.5
  0
LINE
  8
_0-0_0
  6
CONTINUOUS
 62
    7
 10
-67.568901000000039
 20
469.25
 11
-67.424568000000022
 21
469
  0
LINE
  8
_0-0_0
  6
CONTINUOUS
 62
    7
 10
-67.568901000000039
 20
473.25
 11
-67.424568000000022
 21
473.5
  0
LINE
  8
_0-0_0
  6
CONTINUOUS
 62
    7
 10
36.031096999999932
 20
452.40002399999997
 11
62.031096999999932
 21
452.40002399999997
  0
LINE
  8
_0-0_0
  6
CONTINUOUS
 62
    7
 10
36.031096999999932
 20
456.90002399999997
 11
62.031096999999932
 21
456.90002399999997
  0
LINE
  8
_0-0_0
  6
CONTINUOUS
 62
    7
 10
62.031096999999932
 20
452.40002399999997
 11
62.281096999999932
 21
452.15002399999997
  0
LINE
  8
_0-0_0
  6
CONTINUOUS
 62
    7
 10
62.031096999999932
 20
456.90002399999997
 11
62.281096999999932
 21
457.15002399999997
  0
LINE
  8
_0-0_0
  6
CONTINUOUS
 62
    7
 10
58.031096999999932
 20
468.20001200000002
 11
56.781096999999932
 21
469.45001200000002
  0
LINE
  8
_0-0_0
  6
CONTINUOUS
 62
    7
 10
58.031096999999932
 20
457.70001200000002
 11
57.231093999999985
 21
456.89999399999999
  0
LINE
  8
_0-0_0
  6
CONTINUOUS
 62
    7
 10
72.031096999999932
 20
452.65002399999997
 11
71.531264999999962
 21
452.15014600000001
  0
LINE
  8
_0-0_0
  6
CONTINUOUS
 62
    7
 10
72.031096999999932
 20
456.65002399999997
 11
71.531264999999962
 21
457.14984099999998
  0
LINE
  8
_0-0_0
  6
CONTINUOUS
 62
    7
 10
58.031096999999932
 20
457.95001200000002
 11
58.431090999999924
 21
457.95001200000002
  0
LINE
  8
_0-0_0
  6
CONTINUOUS
 62
    7
 10
58.031096999999932
 20
467.95001200000002
 11
58.431090999999924
 21
467.95001200000002
  0
LINE
  8
_0-0_0
  6
CONTINUOUS
 62
    7
 10
59.231093999999985
 20
458.41189600000001
 11
58.431090999999924
 21
457.95001200000002
  0
LINE
  8
_0-0_0
  6
CONTINUOUS
 62
    7
 10
59.231093999999985
 20
467.48812900000001
 11
58.431090999999924
 21
467.95001200000002
  0
LINE
  8
_0-0_0
  6
CONTINUOUS
 62
    7
 10
59.231093999999985
 20
458.95001200000002
 11
117.23107899999997
 21
458.95001200000002
  0
LINE
  8
_0-0_0
  6
CONTINUOUS
 62
    7
 10
59.231093999999985
 20
466.95001200000002
 11
117.23107899999997
 21
466.95001200000002
  0
LINE
  8
_0-0_0
  6
CONTINUOUS
 62
    7
 10
41.78106699999995
 20
473.5
 11
62.031096999999932
 21
473.5
  0
LINE
  8
_0-0_0
  6
CONTINUOUS
 62
    7
 10
62.031096999999932
 20
473.5
 11
62.281096999999932
 21
473.75
  0
LINE
  8
_0-0_0
  6
CONTINUOUS
 62
    7
 10
57.231093999999985
 20
469
 11
62.031096999999932
 21
469
  0
LINE
  8
_0-0_0
  6
CONTINUOUS
 62
    7
 10
62.031096999999932
 20
469
 11
62.281096999999932
 21
468.75
  0
LINE
  8
_0-0_0
  6
CONTINUOUS
 62
    7
 10
72.031096999999932
 20
473.25
 11
71.531264999999962
 21
473.74984699999999
  0
LINE
  8
_0-0_0
  6
CONTINUOUS
 62
    7
 10
72.031096999999932
 20
469.25
 11
71.531264999999962
 21
468.75015300000001
  0
LINE
  8
_0-0_0
  6
CONTINUOUS
 62
    7
 10
1000.031189
 20
505.15002399999997
 11
1000.031189
 21
492.15002399999997
  0
LINE
  8
_0-0_0
  6
CONTINUOUS
 62
    7
 10
-72.968903000000068
 20
505.15002399999997
 11
-72.968903000000068
 21
492.15002399999997
  0
LINE
  8
_0-0_0
  6
CONTINUOUS
 62
    7
 10
-72.968903000000068
 20
505.15002399999997
 11
1000.031189
 21
505.15002399999997
  0
LINE
  8
_0-0_0
  6
CONTINUOUS
 62
    7
 10
-72.968903000000068
 20
505.15002399999997
 11
-72.968903000000068
 21
523.75
  0
LINE
  8
_0-0_0
  6
CONTINUOUS
 62
    7
 10
-72.968903000000068
 20
526.25
 11
-72.968903000000068
 21
523.75
  0
LINE
  8
_0-0_0
  6
CONTINUOUS
 62
    7
 10
-72.968903000000068
 20
526.75
 11
-72.968903000000068
 21
526.25
  0
LINE
  8
_0-0_0
  6
CONTINUOUS
 62
    7
 10
-72.968903000000068
 20
478.75
 11
-72.968903000000068
 21
478.25
  0
LINE
  8
_0-0_0
  6
CONTINUOUS
 62
    7
 10
-72.968903000000068
 20
483.75
 11
-72.968903000000068
 21
478.75
  0
LINE
  8
_0-0_0
  6
CONTINUOUS
 62
    7
 10
-72.968903000000068
 20
484.25
 11
-72.968903000000068
 21
483.75
  0
LINE
  8
_0-0_0
  6
CONTINUOUS
 62
    7
 10
-72.968903000000068
 20
484.75
 11
-72.968903000000068
 21
484.25
  0
LINE
  8
_0-0_0
  6
CONTINUOUS
 62
    7
 10
-72.968903000000068
 20
487.95001200000002
 11
-72.968903000000068
 21
484.75
  0
LINE
  8
_0-0_0
  6
CONTINUOUS
 62
    7
 10
-72.968903000000068
 20
487.95001200000002
 11
-72.968903000000068
 21
492.15002399999997
  0
LINE
  8
_0-0_0
  6
CONTINUOUS
 62
    7
 10
-72.968903000000068
 20
492.15002399999997
 11
1000.031189
 21
492.15002399999997
  0
LINE
  8
_0-0_0
  6
CONTINUOUS
 62
    7
 10
1000.031189
 20
487.95001200000002
 11
1000.031189
 21
492.15002399999997
  0
LINE
  8
_0-0_0
  6
CONTINUOUS
 62
    7
 10
1000.031189
 20
484.75
 11
1000.031189
 21
487.95001200000002
  0
LINE
  8
_0-0_0
  6
CONTINUOUS
 62
    7
 10
1000.031189
 20
484.75
 11
1000.031189
 21
484.25
  0
LINE
  8
_0-0_0
  6
CONTINUOUS
 62
    7
 10
1000.031189
 20
484.25
 11
1000.031189
 21
483.75
  0
LINE
  8
_0-0_0
  6
CONTINUOUS
 62
    7
 10
1000.031189
 20
483.75
 11
1000.031189
 21
478.75
  0
LINE
  8
_0-0_0
  6
CONTINUOUS
 62
    7
 10
1000.031189
 20
478.75
 11
1000.031189
 21
478.25
  0
LINE
  8
_0-0_0
  6
CONTINUOUS
 62
    7
 10
1000.031189
 20
526.75
 11
1000.031189
 21
526.25
  0
LINE
  8
_0-0_0
  6
CONTINUOUS
 62
    7
 10
1000.031189
 20
523.75
 11
1000.031189
 21
526.25
  0
LINE
  8
_0-0_0
  6
CONTINUOUS
 62
    7
 10
1000.031189
 20
505.15002399999997
 11
1000.031189
 21
523.75
  0
CIRCLE
  8
_0-0_0
  6
CONTINUOUS
 62
    7
 10
963.53118900000004
 20
514.25
 40
6
  0
CIRCLE
  8
_0-0_0
  6
CONTINUOUS
 62
    7
 10
863.53106699999989
 20
514.25
 40
6
  0
CIRCLE
  8
_0-0_0
  6
CONTINUOUS
 62
    7
 10
763.53106700000001
 20
514.25
 40
6
  0
CIRCLE
  8
_0-0_0
  6
CONTINUOUS
 62
    7
 10
663.53106700000001
 20
514.25
 40
6
  0
CIRCLE
  8
_0-0_0
  6
CONTINUOUS
 62
    7
 10
563.53106700000001
 20
514.25
 40
6
  0
CIRCLE
  8
_0-0_0
  6
CONTINUOUS
 62
    7
 10
463.53106700000001
 20
514.25
 40
6
  0
CIRCLE
  8
_0-0_0
  6
CONTINUOUS
 62
    7
 10
363.53112799999997
 20
514.25
 40
6
  0
CIRCLE
  8
_0-0_0
  6
CONTINUOUS
 62
    7
 10
263.53112799999997
 20
514.25
 40
6
  0
CIRCLE
  8
_0-0_0
  6
CONTINUOUS
 62
    7
 10
163.53112799999997
 20
514.25
 40
6
  0
CIRCLE
  8
_0-0_0
  6
CONTINUOUS
 62
    7
 10
63.531096999999932
 20
514.25
 40
6
  0
CIRCLE
  8
_0-0_0
  6
CONTINUOUS
 62
    7
 10
-36.468903000000068
 20
514.25
 40
6
  0
LINE
  8
_0-0_0
  6
CONTINUOUS
 62
    7
 10
-72.968903000000068
 20
523.75
 11
1000.031189
 21
523.75
  0
LINE
  8
_0-0_0
  6
CONTINUOUS
 62
    7
 10
-72.968903000000068
 20
526.75
 11
1000.031189
 21
526.75
  0
LINE
  8
_0-0_0
  6
CONTINUOUS
 62
    7
 10
-72.968903000000068
 20
526.25
 11
-75.468903000000068
 21
526.25
  0
LINE
  8
_0-0_0
  6
CONTINUOUS
 62
    7
 10
-75.468903000000068
 20
526.25
 11
-75.468903000000068
 21
525.75
  0
LINE
  8
_0-0_0
  6
CONTINUOUS
 62
    7
 10
-75.468903000000068
 20
525.75
 11
-75.468903000000068
 21
485.25
  0
LINE
  8
_0-0_0
  6
CONTINUOUS
 62
    7
 10
-72.968903000000068
 20
484.75
 11
-75.468903000000068
 21
484.75
  0
LINE
  8
_0-0_0
  6
CONTINUOUS
 62
    7
 10
-75.468903000000068
 20
485.25
 11
-75.468903000000068
 21
484.75
  0
LINE
  8
_0-0_0
  6
CONTINUOUS
 62
    7
 10
-75.468903000000068
 20
484.75
 11
-75.468903000000068
 21
483.75
  0
LINE
  8
_0-0_0
  6
CONTINUOUS
 62
    7
 10
-75.468903000000068
 20
483.75
 11
-75.468903000000068
 21
479.25
  0
LINE
  8
_0-0_0
  6
CONTINUOUS
 62
    7
 10
-72.968903000000068
 20
478.75
 11
-75.468903000000068
 21
478.75
  0
LINE
  8
_0-0_0
  6
CONTINUOUS
 62
    7
 10
-75.468903000000068
 20
479.25
 11
-75.468903000000068
 21
478.75
  0
LINE
  8
_0-0_0
  6
CONTINUOUS
 62
    7
 10
-72.968903000000068
 20
478.25
 11
1000.031189
 21
478.25
  0
LINE
  8
_0-0_0
  6
CONTINUOUS
 62
    7
 10
-72.968903000000068
 20
484.25
 11
1000.031189
 21
484.25
  0
LINE
  8
_0-0_0
  6
CONTINUOUS
 62
    7
 10
-72.968903000000068
 20
487.95001200000002
 11
1000.031189
 21
487.95001200000002
  0
LINE
  8
_0-0_0
  6
CONTINUOUS
 62
    7
 10
1000.031189
 20
526.25
 11
1002.531189
 21
526.25
  0
LINE
  8
_0-0_0
  6
CONTINUOUS
 62
    7
 10
1002.531189
 20
526.25
 11
1002.531189
 21
525.75
  0
LINE
  8
_0-0_0
  6
CONTINUOUS
 62
    7
 10
1002.531189
 20
525.75
 11
1002.531189
 21
485.25
  0
LINE
  8
_0-0_0
  6
CONTINUOUS
 62
    7
 10
1000.031189
 20
484.75
 11
1002.531189
 21
484.75
  0
LINE
  8
_0-0_0
  6
CONTINUOUS
 62
    7
 10
1002.531189
 20
485.25
 11
1002.531189
 21
484.75
  0
LINE
  8
_0-0_0
  6
CONTINUOUS
 62
    7
 10
1002.531189
 20
484.75
 11
1002.531189
 21
483.75
  0
LINE
  8
_0-0_0
  6
CONTINUOUS
 62
    7
 10
1002.531189
 20
483.75
 11
1002.531189
 21
479.25
  0
LINE
  8
_0-0_0
  6
CONTINUOUS
 62
    7
 10
1000.031189
 20
478.75
 11
1002.531189
 21
478.75
  0
LINE
  8
_0-0_0
  6
CONTINUOUS
 62
    7
 10
1002.531189
 20
479.25
 11
1002.531189
 21
478.75
  0
ARC
  8
_0-0_0
  6
CONTINUOUS
 62
    7
 10
-15.468903000000068
 20
479.25
 40
0.5
 50
269.99999700000001
 51
0
  0
LINE
  8
_0-0_0
  6
CONTINUOUS
 62
    7
 10
-15.468903000000068
 20
478.75
 11
-22.468903000000068
 21
478.75
  0
ARC
  8
_0-0_0
  6
CONTINUOUS
 62
    7
 10
-22.468903000000068
 20
479.25
 40
0.5
 50
179.99999099999999
 51
269.99999700000001
  0
LINE
  8
_0-0_0
  6
CONTINUOUS
 62
    7
 10
-22.968903000000068
 20
483.25
 11
-22.968903000000068
 21
479.25
  0
ARC
  8
_0-0_0
  6
CONTINUOUS
 62
    7
 10
-22.468903000000068
 20
483.25
 40
0.5
 50
90.000003000000007
 51
179.99999099999999
  0
ARC
  8
_0-0_0
  6
CONTINUOUS
 62
    7
 10
-15.468903000000068
 20
483.25
 40
0.5
 50
0
 51
90.000003000000007
  0
LINE
  8
_0-0_0
  6
CONTINUOUS
 62
    7
 10
-22.468903000000068
 20
483.75
 11
-15.468903000000068
 21
483.75
  0
LINE
  8
_0-0_0
  6
CONTINUOUS
 62
    7
 10
1000.031189
 20
526.75
 11
1000.031189
 21
526.45001200000002
  0
LINE
  8
_0-0_0
  6
CONTINUOUS
 62
    7
 10
1000.031189
 20
526.45001200000002
 11
1000.031189
 21
526.25
  0
CIRCLE
  8
_0-0_0
  6
CONTINUOUS
 62
    7
 10
963.53118900000004
 20
514.25
 40
5.5
  0
CIRCLE
  8
_0-0_0
  6
CONTINUOUS
 62
    7
 10
863.53106699999989
 20
514.25
 40
5.5
  0
CIRCLE
  8
_0-0_0
  6
CONTINUOUS
 62
    7
 10
763.53106700000001
 20
514.25
 40
5.5
  0
CIRCLE
  8
_0-0_0
  6
CONTINUOUS
 62
    7
 10
663.53106700000001
 20
514.25
 40
5.5
  0
CIRCLE
  8
_0-0_0
  6
CONTINUOUS
 62
    7
 10
563.53106700000001
 20
514.25
 40
5.5
  0
CIRCLE
  8
_0-0_0
  6
CONTINUOUS
 62
    7
 10
463.53106700000001
 20
514.25
 40
5.5
  0
CIRCLE
  8
_0-0_0
  6
CONTINUOUS
 62
    7
 10
363.53112799999997
 20
514.25
 40
5.5
  0
CIRCLE
  8
_0-0_0
  6
CONTINUOUS
 62
    7
 10
263.53112799999997
 20
514.25
 40
5.5
  0
CIRCLE
  8
_0-0_0
  6
CONTINUOUS
 62
    7
 10
163.53112799999997
 20
514.25
 40
5.5
  0
CIRCLE
  8
_0-0_0
  6
CONTINUOUS
 62
    7
 10
63.531096999999932
 20
514.25
 40
5.5
  0
CIRCLE
  8
_0-0_0
  6
CONTINUOUS
 62
    7
 10
-36.468903000000068
 20
514.25
 40
5.5
  0
LINE
  8
_0-0_0
  6
CONTINUOUS
 62
    7
 10
-14.968903000000068
 20
479.25
 11
-14.968903000000068
 21
483.25
  0
CIRCLE
  8
_0-0_0
  6
CONTINUOUS
 62
    7
 10
963.53118900000004
 20
514.25
 40
3.5
  0
CIRCLE
  8
_0-0_0
  6
CONTINUOUS
 62
    7
 10
863.53106699999989
 20
514.25
 40
3.5
  0
CIRCLE
  8
_0-0_0
  6
CONTINUOUS
 62
    7
 10
763.53106700000001
 20
514.25
 40
3.5
  0
CIRCLE
  8
_0-0_0
  6
CONTINUOUS
 62
    7
 10
663.53106700000001
 20
514.25
 40
3.5
  0
CIRCLE
  8
_0-0_0
  6
CONTINUOUS
 62
    7
 10
563.53106700000001
 20
514.25
 40
3.5
  0
CIRCLE
  8
_0-0_0
  6
CONTINUOUS
 62
    7
 10
463.53106700000001
 20
514.25
 40
3.5
  0
CIRCLE
  8
_0-0_0
  6
CONTINUOUS
 62
    7
 10
363.53112799999997
 20
514.25
 40
3.5
  0
CIRCLE
  8
_0-0_0
  6
CONTINUOUS
 62
    7
 10
263.53112799999997
 20
514.25
 40
3.5
  0
CIRCLE
  8
_0-0_0
  6
CONTINUOUS
 62
    7
 10
163.53112799999997
 20
514.25
 40
3.5
  0
CIRCLE
  8
_0-0_0
  6
CONTINUOUS
 62
    7
 10
63.531096999999932
 20
514.25
 40
3.5
  0
CIRCLE
  8
_0-0_0
  6
CONTINUOUS
 62
    7
 10
-36.468903000000068
 20
514.25
 40
3.5
  0
ARC
  8
_0-0_0
  6
CONTINUOUS
 62
    7
 10
-17.668900000000008
 20
482.95001200000002
 40
0.2
 50
339.62356199999999
 51
90.000002999999978
  0
LINE
  8
_0-0_0
  6
CONTINUOUS
 62
    7
 10
-17.481415000000027
 20
482.88037100000003
 11
-18.781418000000031
 21
479.38037100000003
  0
ARC
  8
_0-0_0
  6
CONTINUOUS
 62
    7
 10
-18.968903000000068
 20
479.45001200000002
 40
0.2
 50
200.37643
 51
339.62356199999999
  0
LINE
  8
_0-0_0
  6
CONTINUOUS
 62
    7
 10
-20.456375000000037
 20
482.88037100000003
 11
-19.156387000000052
 21
479.38037100000003
  0
ARC
  8
_0-0_0
  6
CONTINUOUS
 62
    7
 10
-20.268906000000015
 20
482.95001200000002
 40
0.2
 50
90.000003000000007
 51
200.37643
  0
LINE
  8
_0-0_0
  6
CONTINUOUS
 62
    7
 10
-20.268906000000015
 20
483.15002399999997
 11
-17.668900000000008
 21
483.15002399999997
  0
ARC
  8
_0-0_0
  6
CONTINUOUS
 62
    7
 10
919.73113999999987
 20
482.95001200000002
 40
0.2
 50
90.000003000000007
 51
200.37643
  0
LINE
  8
_0-0_0
  6
CONTINUOUS
 62
    7
 10
919.73113999999987
 20
483.15002399999997
 11
922.33111600000007
 21
483.15002399999997
  0
ARC
  8
_0-0_0
  6
CONTINUOUS
 62
    7
 10
917.53118900000004
 20
483.25
 40
0.5
 50
90.000003000000007
 51
179.99999099999999
  0
LINE
  8
_0-0_0
  6
CONTINUOUS
 62
    7
 10
917.03118900000004
 20
483.25
 11
917.03118900000004
 21
479.25
  0
ARC
  8
_0-0_0
  6
CONTINUOUS
 62
    7
 10
917.53118900000004
 20
479.25
 40
0.5
 50
179.99999099999999
 51
269.99999700000001
  0
LINE
  8
_0-0_0
  6
CONTINUOUS
 62
    7
 10
924.53118900000004
 20
478.75
 11
917.53118900000004
 21
478.75
  0
ARC
  8
_0-0_0
  6
CONTINUOUS
 62
    7
 10
924.53118900000004
 20
479.25
 40
0.5
 50
269.99999700000001
 51
0
  0
LINE
  8
_0-0_0
  6
CONTINUOUS
 62
    7
 10
925.03118900000004
 20
479.25
 11
925.03118900000004
 21
483.25
  0
ARC
  8
_0-0_0
  6
CONTINUOUS
 62
    7
 10
924.53118900000004
 20
483.25
 40
0.5
 50
0
 51
90.000003000000007
  0
LINE
  8
_0-0_0
  6
CONTINUOUS
 62
    7
 10
917.53118900000004
 20
483.75
 11
924.53118900000004
 21
483.75
  0
LINE
  8
_0-0_0
  6
CONTINUOUS
 62
    7
 10
919.54363999999987
 20
482.88037100000003
 11
920.84368900000004
 21
479.38037100000003
  0
ARC
  8
_0-0_0
  6
CONTINUOUS
 62
    7
 10
921.03118900000004
 20
479.45001200000002
 40
0.2
 50
200.37643
 51
339.62356199999999
  0
LINE
  8
_0-0_0
  6
CONTINUOUS
 62
    7
 10
922.51861600000007
 20
482.88037100000003
 11
921.21868900000004
 21
479.38037100000003
  0
ARC
  8
_0-0_0
  6
CONTINUOUS
 62
    7
 10
922.33111600000007
 20
482.95001200000002
 40
0.2
 50
339.62356199999999
 51
90.000002999999978
  0
LINE
  8
_0-0_0
  6
CONTINUOUS
 62
    7
 10
-130.893551
 20
476.25
 11
-130.79355600000008
 21
476.25
  0
LINE
  8
_0-0_0
  6
CONTINUOUS
 62
    7
 10
-115.09355200000005
 20
476.25
 11
-115.79355600000008
 21
476.25
  0
LINE
  8
_0-0_0
  6
CONTINUOUS
 62
    7
 10
-115.09355200000005
 20
476.25
 11
-113.893551
 21
476.25
  0
ARC
  8
_0-0_0
  6
CONTINUOUS
 62
    7
 10
-113.893551
 20
475.75
 40
0.5
 50
0
 51
90.000003000000007
  0
ARC
  8
_0-0_0
  6
CONTINUOUS
 62
    7
 10
-115.09355200000005
 20
475.75
 40
0.5
 50
90.000003000000007
 51
179.99999099999999
  0
ARC
  8
_0-0_0
  6
CONTINUOUS
 62
    7
 10
-130.893551
 20
475.75
 40
0.5
 50
90.000003000000007
 51
179.99999099999999
  0
ARC
  8
_0-0_0
  6
CONTINUOUS
 62
    7
 10
-129.393551
 20
476.75
 40
0.5
 50
90.000003000000007
 51
126.868797
  0
LINE
  8
_0-0_0
  6
CONTINUOUS
 62
    7
 10
-127.893551
 20
477.25
 11
-129.393551
 21
477.25
  0
ARC
  8
_0-0_0
  6
CONTINUOUS
 62
    7
 10
-127.893551
 20
478.25
 40
1
 50
269.99999700000001
 51
0
  0
LINE
  8
_0-0_0
  6
CONTINUOUS
 62
    7
 10
-126.893551
 20
478.75
 11
-126.893551
 21
478.25
  0
LINE
  8
_0-0_0
  6
CONTINUOUS
 62
    7
 10
-126.393551
 20
478.75
 11
-126.393551
 21
477.75
  0
ARC
  8
_0-0_0
  6
CONTINUOUS
 62
    7
 10
-127.893551
 20
477.75
 40
1.5
 50
336.42205899999999
 51
0
  0
ARC
  8
_0-0_0
  6
CONTINUOUS
 62
    7
 10
-116.29355200000009
 20
477.75
 40
1.5
 50
179.99999099999999
 51
203.57793100000001
  0
LINE
  8
_0-0_0
  6
CONTINUOUS
 62
    7
 10
-114.29355200000009
 20
476.75
 11
-114.29355200000009
 21
476.25
  0
ARC
  8
_0-0_0
  6
CONTINUOUS
 62
    7
 10
-114.79355200000009
 20
476.75
 40
0.5
 50
0
 51
90.000003000000007
  0
LINE
  8
_0-0_0
  6
CONTINUOUS
 62
    7
 10
-116.29355200000009
 20
477.25
 11
-114.79355200000009
 21
477.25
  0
ARC
  8
_0-0_0
  6
CONTINUOUS
 62
    7
 10
-116.29355200000009
 20
478.25
 40
1
 50
179.99999099999999
 51
269.99999700000001
  0
LINE
  8
_0-0_0
  6
CONTINUOUS
 62
    7
 10
-117.29355200000009
 20
478.75
 11
-117.29355200000009
 21
478.25
  0
LINE
  8
_0-0_0
  6
CONTINUOUS
 62
    7
 10
-117.79355200000009
 20
478.75
 11
-117.79355200000009
 21
477.75
  0
LINE
  8
_0-0_0
  6
CONTINUOUS
 62
    7
 10
-113.393551
 20
449.25
 11
-113.393551
 21
450.15002399999997
  0
LINE
  8
_0-0_0
  6
CONTINUOUS
 62
    7
 10
-113.393551
 20
450.15002399999997
 11
-113.393551
 21
452.65002399999997
  0
LINE
  8
_0-0_0
  6
CONTINUOUS
 62
    7
 10
-113.393551
 20
452.65002399999997
 11
-113.393551
 21
473.25
  0
LINE
  8
_0-0_0
  6
CONTINUOUS
 62
    7
 10
-113.393551
 20
473.25
 11
-113.393551
 21
475.75
  0
LINE
  8
_0-0_0
  6
CONTINUOUS
 62
    7
 10
-115.59355200000005
 20
475.75
 11
-115.59355200000005
 21
474.50500499999998
  0
LINE
  8
_0-0_0
  6
CONTINUOUS
 62
    7
 10
-117.99355300000002
 20
477.15002399999997
 11
-117.99355300000002
 21
478.55001800000002
  0
ARC
  8
_0-0_0
  6
CONTINUOUS
 62
    7
 10
-118.49355300000002
 20
478.55001800000002
 40
0.5
 50
0
 51
23.579369
  0
LINE
  8
_0-0_0
  6
CONTINUOUS
 62
    7
 10
-126.19355000000007
 20
477.15002399999997
 11
-126.19355000000007
 21
478.55001800000002
  0
ARC
  8
_0-0_0
  6
CONTINUOUS
 62
    7
 10
-125.69355000000007
 20
478.55001800000002
 40
0.5
 50
156.420635
 51
179.99999099999999
  0
LINE
  8
_0-0_0
  6
CONTINUOUS
 62
    7
 10
-131.393551
 20
449.25
 11
-131.393551
 21
459.45001200000002
  0
LINE
  8
_0-0_0
  6
CONTINUOUS
 62
    7
 10
-131.393551
 20
459.45001200000002
 11
-131.393551
 21
460.45001200000002
  0
LINE
  8
_0-0_0
  6
CONTINUOUS
 62
    7
 10
-131.393551
 20
460.45001200000002
 11
-131.393551
 21
465.45001200000002
  0
LINE
  8
_0-0_0
  6
CONTINUOUS
 62
    7
 10
-131.393551
 20
465.45001200000002
 11
-131.393551
 21
466.45001200000002
  0
LINE
  8
_0-0_0
  6
CONTINUOUS
 62
    7
 10
-131.393551
 20
475.75
 11
-131.393551
 21
466.45001200000002
  0
ARC
  8
_0-0_0
  6
CONTINUOUS
 62
    7
 10
-130.29355200000009
 20
465.45001200000002
 40
0.5
 50
0
 51
90.000003000000007
  0
LINE
  8
_0-0_0
  6
CONTINUOUS
 62
    7
 10
-130.19355200000007
 20
466.40002399999997
 11
-130.29355200000009
 21
466.40002399999997
  0
ARC
  8
_0-0_0
  6
CONTINUOUS
 62
    7
 10
-130.19355200000007
 20
465.90002399999997
 40
0.5
 50
0
 51
90.000003000000007
  0
LINE
  8
_0-0_0
  6
CONTINUOUS
 62
    7
 10
-129.79355200000009
 20
465.45001200000002
 11
-129.79355200000009
 21
460.45001200000002
  0
ARC
  8
_0-0_0
  6
CONTINUOUS
 62
    7
 10
-130.29355200000009
 20
460.45001200000002
 40
0.5
 50
269.99999700000001
 51
0
  0
ARC
  8
_0-0_0
  6
CONTINUOUS
 62
    7
 10
-130.19355200000007
 20
460.35000600000001
 40
0.5
 50
269.99999700000001
 51
0
  0
LINE
  8
_0-0_0
  6
CONTINUOUS
 62
    7
 10
-130.29355200000009
 20
459.85000600000001
 11
-130.19355200000007
 21
459.85000600000001
  0
LINE
  8
_0-0_0
  6
CONTINUOUS
 62
    7
 10
-112.59355200000005
 20
474.75
 11
-113.393551
 21
474.75
  0
LINE
  8
_0-0_0
  6
CONTINUOUS
 62
    7
 10
-112.59355200000005
 20
475.55001800000002
 11
-113.393551
 21
475.55001800000002
  0
LINE
  8
_0-0_0
  6
CONTINUOUS
 62
    7
 10
-112.59355200000005
 20
474.55001800000002
 11
-112.59355200000005
 21
475.55001800000002
  0
LINE
  8
_0-0_0
  6
CONTINUOUS
 62
    7
 10
-112.59355200000005
 20
455.95001200000002
 11
-113.393551
 21
455.95001200000002
  0
LINE
  8
_0-0_0
  6
CONTINUOUS
 62
    7
 10
-112.59355200000005
 20
455.95001200000002
 11
-112.59355200000005
 21
458.95001200000002
  0
LINE
  8
_0-0_0
  6
CONTINUOUS
 62
    7
 10
-112.59355200000005
 20
471.18771400000003
 11
-112.59355200000005
 21
458.95001200000002
  0
LINE
  8
_0-0_0
  6
CONTINUOUS
 62
    7
 10
-112.59355200000005
 20
471.18771400000003
 11
-112.59355200000005
 21
472.15048200000001
  0
LINE
  8
_0-0_0
  6
CONTINUOUS
 62
    7
 10
-113.393551
 20
472.15048200000001
 11
-113.393551
 21
474.75
  0
ARC
  8
_0-0_0
  6
CONTINUOUS
 62
    7
 10
-119.00847600000009
 20
471.43206800000002
 40
5.7120379999999997
 50
18.558475999999999
 51
26.433648000000002
  0
ARC
  8
_0-0_0
  6
CONTINUOUS
 62
    7
 10
-113.59355200000005
 20
473.25
 40
0.2
 50
269.99999700000001
 51
0
  0
ARC
  8
_0-0_0
  6
CONTINUOUS
 62
    7
 10
-113.59355200000005
 20
452.65002399999997
 40
0.2
 50
0
 51
90.000003000000007
  0
ARC
  8
_0-0_0
  6
CONTINUOUS
 62
    7
 10
-119.00836200000003
 20
454.46804800000001
 40
5.711964
 50
333.565022
 51
341.44031000000001
  0
ARC
  8
_0-0_0
  6
CONTINUOUS
 62
    7
 10
-113.893551
 20
450.15002399999997
 40
0.5
 50
269.99999700000001
 51
0
  0
LINE
  8
_0-0_0
  6
CONTINUOUS
 62
    7
 10
-113.893551
 20
449.25
 11
-113.393551
 21
449.25
  0
LINE
  8
_0-0_0
  6
CONTINUOUS
 62
    7
 10
-113.393551
 20
449.25
 11
-113.893551
 21
448.75
  0
ARC
  8
_0-0_0
  6
CONTINUOUS
 62
    7
 10
-115.59355200000005
 20
471.75
 40
2.2999999999999998
 50
34.417387999999995
 51
79.713437000000013
  0
LINE
  8
_0-0_0
  6
CONTINUOUS
 62
    7
 10
-113.65486900000008
 20
473.05001800000002
 11
-113.69618200000002
 21
473.05001800000002
  0
LINE
  8
_0-0_0
  6
CONTINUOUS
 62
    7
 10
-113.65486900000008
 20
473.05001800000002
 11
-113.645309
 21
473.05102499999998
  0
LINE
  8
_0-0_0
  6
CONTINUOUS
 62
    7
 10
-113.645309
 20
473.05102499999998
 11
-113.63581900000008
 21
473.05423000000002
  0
LINE
  8
_0-0_0
  6
CONTINUOUS
 62
    7
 10
-113.63581900000008
 20
473.05423000000002
 11
-113.62656400000003
 21
473.05963100000002
  0
LINE
  8
_0-0_0
  6
CONTINUOUS
 62
    7
 10
-113.62656400000003
 20
473.05963100000002
 11
-113.61776700000007
 21
473.067139
  0
LINE
  8
_0-0_0
  6
CONTINUOUS
 62
    7
 10
-113.61776700000007
 20
473.067139
 11
-113.60236700000007
 21
473.08776899999998
  0
LINE
  8
_0-0_0
  6
CONTINUOUS
 62
    7
 10
-113.60236700000007
 20
473.08776899999998
 11
-113.59059100000002
 21
473.11505099999999
  0
LINE
  8
_0-0_0
  6
CONTINUOUS
 62
    7
 10
-113.59059100000002
 20
473.11505099999999
 11
-113.58341200000007
 21
473.14718599999998
  0
LINE
  8
_0-0_0
  6
CONTINUOUS
 62
    7
 10
-113.58341200000007
 20
473.14718599999998
 11
-113.58152000000007
 21
473.18225100000001
  0
LINE
  8
_0-0_0
  6
CONTINUOUS
 62
    7
 10
-113.58152000000007
 20
473.18225100000001
 11
-113.58536500000002
 21
473.218414
  0
LINE
  8
_0-0_0
  6
CONTINUOUS
 62
    7
 10
-113.58536500000002
 20
473.218414
 11
-113.59355200000005
 21
473.25
  0
ARC
  8
_0-0_0
  6
CONTINUOUS
 62
    7
 10
-115.09355200000005
 20
474.50500499999998
 40
0.5
 50
179.99999099999999
 51
259.71343899999994
  0
LINE
  8
_0-0_0
  6
CONTINUOUS
 62
    7
 10
-115.79355200000009
 20
474.60000600000001
 11
-115.79355200000009
 21
474.30658
  0
LINE
  8
_0-0_0
  6
CONTINUOUS
 62
    7
 10
-115.79355200000009
 20
474.60000600000001
 11
-115.79355200000009
 21
476.65002399999997
  0
ARC
  8
_0-0_0
  6
CONTINUOUS
 62
    7
 10
-116.29355200000009
 20
476.65002399999997
 40
0.5
 50
0
 51
90.000003000000007
  0
LINE
  8
_0-0_0
  6
CONTINUOUS
 62
    7
 10
-116.29355200000009
 20
477.15002399999997
 11
-119.03644600000007
 21
477.15002399999997
  0
ARC
  8
_0-0_0
  6
CONTINUOUS
 62
    7
 10
-130.29355200000009
 20
466.90002399999997
 40
0.5
 50
179.99999099999999
 51
269.99999700000001
  0
LINE
  8
_0-0_0
  6
CONTINUOUS
 62
    7
 10
-130.79355200000009
 20
476.65002399999997
 11
-130.79355200000009
 21
466.90002399999997
  0
LINE
  8
_0-0_0
  6
CONTINUOUS
 62
    7
 10
-125.15065800000002
 20
477.15002399999997
 11
-130.29355200000009
 21
477.15002399999997
  0
ARC
  8
_0-0_0
  6
CONTINUOUS
 62
    7
 10
-130.29355200000009
 20
476.65002399999997
 40
0.5
 50
90.000003000000007
 51
179.99999099999999
  0
LINE
  8
_0-0_0
  6
CONTINUOUS
 62
    7
 10
-131.59355200000005
 20
474.75
 11
-131.393551
 21
474.75
  0
LINE
  8
_0-0_0
  6
CONTINUOUS
 62
    7
 10
-131.59355200000005
 20
475.55001800000002
 11
-131.393551
 21
475.55001800000002
  0
LINE
  8
_0-0_0
  6
CONTINUOUS
 62
    7
 10
-131.59355200000005
 20
475.55001800000002
 11
-131.59355200000005
 21
474.75012199999998
  0
LINE
  8
_0-0_0
  6
CONTINUOUS
 62
    7
 10
-131.59355200000005
 20
455.95001200000002
 11
-131.393551
 21
455.95001200000002
  0
LINE
  8
_0-0_0
  6
CONTINUOUS
 62
    7
 10
-131.59355200000005
 20
458.95001200000002
 11
-131.59355200000005
 21
455.95001200000002
  0
LINE
  8
_0-0_0
  6
CONTINUOUS
 62
    7
 10
-131.59355200000005
 20
471.18771400000003
 11
-131.59355200000005
 21
458.95001200000002
  0
LINE
  8
_0-0_0
  6
CONTINUOUS
 62
    7
 10
-131.59355200000005
 20
472.15048200000001
 11
-131.59355200000005
 21
471.18771400000003
  0
ARC
  8
_0-0_0
  6
CONTINUOUS
 62
    7
 10
-130.893551
 20
465.45001200000002
 40
0.5
 50
90.000003000000007
 51
179.99999099999999
  0
ARC
  8
_0-0_0
  6
CONTINUOUS
 62
    7
 10
-130.893551
 20
460.45001200000002
 40
0.5
 50
179.99999099999999
 51
269.99999700000001
  0
LINE
  8
_0-0_0
  6
CONTINUOUS
 62
    7
 10
-131.393551
 20
449.25
 11
-130.893551
 21
449.25
  0
LINE
  8
_0-0_0
  6
CONTINUOUS
 62
    7
 10
-131.393551
 20
449.25
 11
-130.893551
 21
448.75
  0
LINE
  8
_0-0_0
  6
CONTINUOUS
 62
    7
 10
-130.29355200000009
 20
465.95001200000002
 11
-130.893551
 21
465.95001200000002
  0
LINE
  8
_0-0_0
  6
CONTINUOUS
 62
    7
 10
-129.69355200000007
 20
465.90002399999997
 11
-129.69355200000007
 21
460.35000600000001
  0
LINE
  8
_0-0_0
  6
CONTINUOUS
 62
    7
 10
-113.893551
 20
449.25
 11
-130.893551
 21
449.25
  0
LINE
  8
_0-0_0
  6
CONTINUOUS
 62
    7
 10
-130.893551
 20
459.95001200000002
 11
-130.29355200000009
 21
459.95001200000002
  0
ARC
  8
_0-0_0
  6
CONTINUOUS
 62
    7
 10
-130.29355200000009
 20
459.35000600000001
 40
0.5
 50
90.000003000000007
 51
179.99999099999999
  0
LINE
  8
_0-0_0
  6
CONTINUOUS
 62
    7
 10
-112.59355200000005
 20
472.15048200000001
 11
-112.59355200000005
 21
474.75
  0
LINE
  8
_0-0_0
  6
CONTINUOUS
 62
    7
 10
-113.59355200000005
 20
473.05001800000002
 11
-113.65486900000008
 21
473.05001800000002
  0
LINE
  8
_0-0_0
  6
CONTINUOUS
 62
    7
 10
-113.69618200000002
 20
473.05001800000002
 11
-113.69841000000008
 21
473.05001800000002
  0
LINE
  8
_0-0_0
  6
CONTINUOUS
 62
    7
 10
-113.83008600000005
 20
453.05001800000002
 11
-113.79316000000006
 21
452.97976699999998
  0
LINE
  8
_0-0_0
  6
CONTINUOUS
 62
    7
 10
-113.79316000000006
 20
452.97976699999998
 11
-113.7735560000001
 21
452.945313
  0
LINE
  8
_0-0_0
  6
CONTINUOUS
 62
    7
 10
-113.7735560000001
 20
452.945313
 11
-113.74747100000002
 21
452.90344199999998
  0
LINE
  8
_0-0_0
  6
CONTINUOUS
 62
    7
 10
-113.74747100000002
 20
452.90344199999998
 11
-113.73416100000009
 21
452.88439899999997
  0
LINE
  8
_0-0_0
  6
CONTINUOUS
 62
    7
 10
-113.73416100000009
 20
452.88439899999997
 11
-113.71580500000005
 21
452.86203
  0
LINE
  8
_0-0_0
  6
CONTINUOUS
 62
    7
 10
-113.71580500000005
 20
452.86203
 11
-113.70301100000006
 21
452.85140999999999
  0
LINE
  8
_0-0_0
  6
CONTINUOUS
 62
    7
 10
-113.70301100000006
 20
452.85140999999999
 11
-113.69841000000008
 21
452.85000600000001
  0
LINE
  8
_0-0_0
  6
CONTINUOUS
 62
    7
 10
-113.69618200000002
 20
452.85000600000001
 11
-113.69841000000008
 21
452.85000600000001
  0
LINE
  8
_0-0_0
  6
CONTINUOUS
 62
    7
 10
-113.83008600000005
 20
472.85000600000001
 11
-113.79316000000006
 21
472.92022700000001
  0
LINE
  8
_0-0_0
  6
CONTINUOUS
 62
    7
 10
-113.79316000000006
 20
472.92022700000001
 11
-113.773552
 21
472.95471199999997
  0
LINE
  8
_0-0_0
  6
CONTINUOUS
 62
    7
 10
-113.773552
 20
472.95471199999997
 11
-113.74747100000002
 21
472.99655200000001
  0
LINE
  8
_0-0_0
  6
CONTINUOUS
 62
    7
 10
-113.74747100000002
 20
472.99655200000001
 11
-113.73416100000009
 21
473.01559400000002
  0
LINE
  8
_0-0_0
  6
CONTINUOUS
 62
    7
 10
-113.73416100000009
 20
473.01559400000002
 11
-113.71580500000005
 21
473.03799400000003
  0
LINE
  8
_0-0_0
  6
CONTINUOUS
 62
    7
 10
-113.71580500000005
 20
473.03799400000003
 11
-113.70301100000006
 21
473.04861499999998
  0
LINE
  8
_0-0_0
  6
CONTINUOUS
 62
    7
 10
-113.70301100000006
 20
473.04861499999998
 11
-113.69841000000008
 21
473.05001800000002
  0
LINE
  8
_0-0_0
  6
CONTINUOUS
 62
    7
 10
-113.69618200000002
 20
452.85000600000001
 11
-113.65486900000008
 21
452.85000600000001
  0
LINE
  8
_0-0_0
  6
CONTINUOUS
 62
    7
 10
-113.59355200000005
 20
452.85000600000001
 11
-113.65486900000008
 21
452.85000600000001
  0
LINE
  8
_0-0_0
  6
CONTINUOUS
 62
    7
 10
-113.65486900000008
 20
452.85000600000001
 11
-113.645309
 21
452.84896900000001
  0
LINE
  8
_0-0_0
  6
CONTINUOUS
 62
    7
 10
-113.645309
 20
452.84896900000001
 11
-113.63581900000008
 21
452.84576399999997
  0
LINE
  8
_0-0_0
  6
CONTINUOUS
 62
    7
 10
-113.63581900000008
 20
452.84576399999997
 11
-113.62656400000003
 21
452.84039300000001
  0
LINE
  8
_0-0_0
  6
CONTINUOUS
 62
    7
 10
-113.62656400000003
 20
452.84039300000001
 11
-113.61776700000007
 21
452.83288599999997
  0
LINE
  8
_0-0_0
  6
CONTINUOUS
 62
    7
 10
-113.61776700000007
 20
452.83288599999997
 11
-113.60236700000007
 21
452.81225599999999
  0
LINE
  8
_0-0_0
  6
CONTINUOUS
 62
    7
 10
-113.60236700000007
 20
452.81225599999999
 11
-113.59059100000002
 21
452.78497299999998
  0
LINE
  8
_0-0_0
  6
CONTINUOUS
 62
    7
 10
-113.59059100000002
 20
452.78497299999998
 11
-113.58341200000007
 21
452.752838
  0
LINE
  8
_0-0_0
  6
CONTINUOUS
 62
    7
 10
-113.58341200000007
 20
452.752838
 11
-113.58152000000007
 21
452.71777300000002
  0
LINE
  8
_0-0_0
  6
CONTINUOUS
 62
    7
 10
-113.58152000000007
 20
452.71777300000002
 11
-113.58536500000002
 21
452.68160999999998
  0
LINE
  8
_0-0_0
  6
CONTINUOUS
 62
    7
 10
-113.58536500000002
 20
452.68160999999998
 11
-113.59355200000005
 21
452.65002399999997
  0
ARC
  8
_0-0_0
  6
CONTINUOUS
 62
    7
 10
-115.59355200000005
 20
454.15002399999997
 40
2.2999999999999998
 50
280.28656300000006
 51
325.58260500000006
  0
LINE
  8
_0-0_0
  6
CONTINUOUS
 62
    7
 10
-113.893551
 20
449.65002399999997
 11
-115.09355200000005
 21
449.65002399999997
  0
LINE
  8
_0-0_0
  6
CONTINUOUS
 62
    7
 10
-113.893551
 20
448.75
 11
-130.893551
 21
448.75
  0
LINE
  8
_0-0_0
  6
CONTINUOUS
 62
    7
 10
-115.79355200000009
 20
474.30658
 11
-115.79328200000009
 21
474.29016100000001
  0
ARC
  8
_0-0_0
  6
CONTINUOUS
 62
    7
 10
-115.29355200000009
 20
474.30658
 40
0.5
 50
181.88290099999998
 51
260.07179799999994
  0
LINE
  8
_0-0_0
  6
CONTINUOUS
 62
    7
 10
-116.29355200000009
 20
475.09429899999998
 11
-116.09355200000005
 21
474.89999399999999
  0
LINE
  8
_0-0_0
  6
CONTINUOUS
 62
    7
 10
-116.09355200000005
 20
474.89999399999999
 11
-115.79355200000009
 21
474.60000600000001
  0
LINE
  8
_0-0_0
  6
CONTINUOUS
 62
    7
 10
-115.79355200000009
 20
474.60000600000001
 11
-116.09355200000005
 21
474.60000600000001
  0
ARC
  8
_0-0_0
  6
CONTINUOUS
 62
    7
 10
-119.03644600000007
 20
477.65002399999997
 40
0.5
 50
225
 51
269.99999700000001
  0
ARC
  8
_0-0_0
  6
CONTINUOUS
 62
    7
 10
-125.15065800000002
 20
477.65002399999997
 40
0.5
 50
269.99999700000001
 51
314.99999200000002
  0
LINE
  8
_0-0_0
  6
CONTINUOUS
 62
    7
 10
-131.59355200000005
 20
474.75
 11
-131.59355200000005
 21
472.15048200000001
  0
LINE
  8
_0-0_0
  6
CONTINUOUS
 62
    7
 10
-113.393551
 20
475.550049
 11
-113.393551
 21
475.75
  0
CIRCLE
  8
_0-0_0
  6
CONTINUOUS
 62
    7
 10
-122.09355200000005
 20
474.75
 40
2.25
  0
ARC
  8
_0-0_0
  6
CONTINUOUS
 62
    7
 10
-122.09355200000005
 20
454.65002399999997
 40
1.75
 50
179.99999099999999
 51
359.99998299999993
  0
LINE
  8
_0-0_0
  6
CONTINUOUS
 62
    7
 10
-123.84355200000005
 20
454.90002399999997
 11
-123.84355200000005
 21
454.65002399999997
  0
ARC
  8
_0-0_0
  6
CONTINUOUS
 62
    7
 10
-122.09355200000005
 20
454.90002399999997
 40
1.75
 50
0
 51
179.99999099999999
  0
LINE
  8
_0-0_0
  6
CONTINUOUS
 62
    7
 10
-120.34355200000005
 20
454.65002399999997
 11
-120.34355200000005
 21
454.90002399999997
  0
ARC
  8
_0-0_0
  6
CONTINUOUS
 62
    7
 10
-116.393551
 20
454.95001200000002
 40
3
 50
269.99999700000001
 51
0
  0
LINE
  8
_0-0_0
  6
CONTINUOUS
 62
    7
 10
-130.79355200000009
 20
459.35000600000001
 11
-130.79355200000009
 21
458.5
  0
LINE
  8
_0-0_0
  6
CONTINUOUS
 62
    7
 10
-130.79355200000009
 20
452.45001200000002
 11
-130.79355200000009
 21
458.5
  0
ARC
  8
_0-0_0
  6
CONTINUOUS
 62
    7
 10
-115.79355200000009
 20
471.45001200000002
 40
2.3999999999999999
 50
0
 51
80.071809999999985
  0
LINE
  8
_0-0_0
  6
CONTINUOUS
 62
    7
 10
-113.393551
 20
454.95001200000002
 11
-113.393551
 21
467.75
  0
LINE
  8
_0-0_0
  6
CONTINUOUS
 62
    7
 10
-113.393551
 20
467.75
 11
-113.393551
 21
471.45001200000002
  0
ARC
  8
_0-0_0
  6
CONTINUOUS
 62
    7
 10
-115.09355200000005
 20
451.39501999999999
 40
0.5
 50
100.28656100000001
 51
179.99999099999999
  0
LINE
  8
_0-0_0
  6
CONTINUOUS
 62
    7
 10
-115.59355200000005
 20
450.15002399999997
 11
-115.59355200000005
 21
451.39501999999999
  0
ARC
  8
_0-0_0
  6
CONTINUOUS
 62
    7
 10
-115.09355200000005
 20
450.15002399999997
 40
0.5
 50
179.99999099999999
 51
269.99999700000001
  0
LINE
  8
_0-0_0
  6
CONTINUOUS
 62
    7
 10
-124.79710399999999
 20
477.296448
 11
-124.73999800000001
 21
477.35357699999997
  0
ARC
  8
_0-0_0
  6
CONTINUOUS
 62
    7
 10
-124.38644399999998
 20
477
 40
0.5
 50
90.000003000000007
 51
135
  0
LINE
  8
_0-0_0
  6
CONTINUOUS
 62
    7
 10
-119.800659
 20
477.5
 11
-124.38644399999998
 21
477.5
  0
ARC
  8
_0-0_0
  6
CONTINUOUS
 62
    7
 10
-119.800659
 20
477
 40
0.5
 50
45.00000099999999
 51
90.000002999999992
  0
LINE
  8
_0-0_0
  6
CONTINUOUS
 62
    7
 10
-119.38999899999999
 20
477.296448
 11
-119.44710500000008
 21
477.35357699999997
  0
ARC
  8
_0-0_0
  6
CONTINUOUS
 62
    7
 10
-116.09355200000005
 20
471.60000600000001
 40
3
 50
90.000003000000007
 51
179.99999099999999
  0
LINE
  8
_0-0_0
  6
CONTINUOUS
 62
    7
 10
-128.09355200000005
 20
458
 11
-130.29355200000009
 21
458
  0
ARC
  8
_0-0_0
  6
CONTINUOUS
 62
    7
 10
-128.09355200000005
 20
455
 40
3
 50
0
 51
90.000003000000007
  0
LINE
  8
_0-0_0
  6
CONTINUOUS
 62
    7
 10
-125.09355200000005
 20
455
 11
-125.09355200000005
 21
452.45001200000002
  0
LINE
  8
_0-0_0
  6
CONTINUOUS
 62
    7
 10
-124.59355200000005
 20
451.95001200000002
 11
-116.393551
 21
451.95001200000002
  0
LINE
  8
_0-0_0
  6
CONTINUOUS
 62
    7
 10
-116.09355200000005
 20
468.25
 11
-113.893551
 21
468.25
  0
ARC
  8
_0-0_0
  6
CONTINUOUS
 62
    7
 10
-116.09355200000005
 20
471.25
 40
3
 50
179.99999099999999
 51
269.99999700000001
  0
LINE
  8
_0-0_0
  6
CONTINUOUS
 62
    7
 10
-119.09355200000005
 20
471.25
 11
-119.09355200000005
 21
471.60000600000001
  0
CIRCLE
  8
_0-0_0
  6
CONTINUOUS
 62
    7
 10
-122.09355200000005
 20
474.75
 40
2.0499999999999998
  0
ARC
  8
_0-0_0
  6
CONTINUOUS
 62
    7
 10
-122.09355200000005
 20
454.65002399999997
 40
1.55
 50
179.99999099999999
 51
0
  0
LINE
  8
_0-0_0
  6
CONTINUOUS
 62
    7
 10
-123.643551
 20
454.90002399999997
 11
-123.643551
 21
454.65002399999997
  0
ARC
  8
_0-0_0
  6
CONTINUOUS
 62
    7
 10
-122.09355200000005
 20
454.90002399999997
 40
1.55
 50
0
 51
179.99999099999999
  0
LINE
  8
_0-0_0
  6
CONTINUOUS
 62
    7
 10
-120.54355200000009
 20
454.65002399999997
 11
-120.54355200000009
 21
454.90002399999997
  0
LINE
  8
_0-0_0
  6
CONTINUOUS
 62
    7
 10
-130.29355200000009
 20
451.95001200000002
 11
-124.59355200000005
 21
451.95001200000002
  0
ARC
  8
_0-0_0
  6
CONTINUOUS
 62
    7
 10
-130.29355200000009
 20
452.45001200000002
 40
0.5
 50
179.99999099999999
 51
269.99999700000001
  0
ARC
  8
_0-0_0
  6
CONTINUOUS
 62
    7
 10
-130.29355200000009
 20
458.5
 40
0.5
 50
179.99999099999999
 51
269.99999700000001
  0
ARC
  8
_0-0_0
  6
CONTINUOUS
 62
    7
 10
-113.893551
 20
467.75
 40
0.5
 50
0
 51
90.000003000000007
  0
ARC
  8
_0-0_0
  6
CONTINUOUS
 62
    7
 10
-124.59355200000005
 20
452.45001200000002
 40
0.5
 50
179.99999099999999
 51
269.99999700000001
  0
CIRCLE
  8
_0-0_0
  6
CONTINUOUS
 62
    7
 10
-116.09355200000005
 20
471.25
 40
2.25
  0
CIRCLE
  8
_0-0_0
  6
CONTINUOUS
 62
    7
 10
-128.09355200000005
 20
454.65002399999997
 40
2.25
  0
CIRCLE
  8
_0-0_0
  6
CONTINUOUS
 62
    7
 10
-116.09355200000005
 20
471.25
 40
2
  0
CIRCLE
  8
_0-0_0
  6
CONTINUOUS
 62
    7
 10
-128.09355200000005
 20
454.65002399999997
 40
2
  0
LINE
  8
_0-0_0
  6
CONTINUOUS
 62
    7
 10
-117.24355300000002
 20
471.25
 11
-116.675659
 21
472.25
  0
LINE
  8
_0-0_0
  6
CONTINUOUS
 62
    7
 10
-116.675659
 20
470.25
 11
-117.24355300000002
 21
471.25
  0
LINE
  8
_0-0_0
  6
CONTINUOUS
 62
    7
 10
-115.51144399999998
 20
470.25
 11
-116.675659
 21
470.25
  0
LINE
  8
_0-0_0
  6
CONTINUOUS
 62
    7
 10
-114.94355000000007
 20
471.25
 11
-115.51144399999998
 21
470.25
  0
LINE
  8
_0-0_0
  6
CONTINUOUS
 62
    7
 10
-115.51144399999998
 20
472.25
 11
-114.94355000000007
 21
471.25
  0
LINE
  8
_0-0_0
  6
CONTINUOUS
 62
    7
 10
-116.675659
 20
472.25
 11
-115.51144399999998
 21
472.25
  0
LINE
  8
_0-0_0
  6
CONTINUOUS
 62
    7
 10
-129.24355300000002
 20
454.65002399999997
 11
-128.675659
 21
455.65002399999997
  0
LINE
  8
_0-0_0
  6
CONTINUOUS
 62
    7
 10
-128.675659
 20
453.65002399999997
 11
-129.24355300000002
 21
454.65002399999997
  0
LINE
  8
_0-0_0
  6
CONTINUOUS
 62
    7
 10
-127.51144399999998
 20
453.65002399999997
 11
-128.675659
 21
453.65002399999997
  0
LINE
  8
_0-0_0
  6
CONTINUOUS
 62
    7
 10
-126.94355000000007
 20
454.65002399999997
 11
-127.51144399999998
 21
453.65002399999997
  0
LINE
  8
_0-0_0
  6
CONTINUOUS
 62
    7
 10
-127.51144399999998
 20
455.65002399999997
 11
-126.94355000000007
 21
454.65002399999997
  0
LINE
  8
_0-0_0
  6
CONTINUOUS
 62
    7
 10
-128.675659
 20
455.65002399999997
 11
-127.51144399999998
 21
455.65002399999997
  0
LINE
  8
_0-0_0
  6
CONTINUOUS
 62
    7
 10
-113.39355499999999
 20
472.05032299999999
 11
-113.393551
 21
472.05630500000001
  0
LINE
  8
_0-0_0
  6
CONTINUOUS
 62
    7
 10
-113.393551
 20
473.25
 11
-113.39392100000009
 21
473.23791499999999
  0
LINE
  8
_0-0_0
  6
CONTINUOUS
 62
    7
 10
-113.39392100000009
 20
452.66210899999999
 11
-113.393551
 21
452.65002399999997
  0
LINE
  8
_0-0_0
  6
CONTINUOUS
 62
    7
 10
-113.39426800000001
 20
467.77673299999998
 11
-113.393551
 21
467.75
  0
LINE
  8
_0-0_0
  6
CONTINUOUS
 62
    7
 10
-107.893551
 20
505.15002399999997
 11
-107.893551
 21
492.15002399999997
  0
LINE
  8
_0-0_0
  6
CONTINUOUS
 62
    7
 10
-107.69355000000007
 20
505.15002399999997
 11
-107.893551
 21
505.15002399999997
  0
LINE
  8
_0-0_0
  6
CONTINUOUS
 62
    7
 10
-107.69355000000007
 20
492.15002399999997
 11
-107.893551
 21
492.15002399999997
  0
LINE
  8
_0-0_0
  6
CONTINUOUS
 62
    7
 10
-107.69355000000007
 20
505.15002399999997
 11
-107.69355000000007
 21
523.75
  0
LINE
  8
_0-0_0
  6
CONTINUOUS
 62
    7
 10
-107.59355200000005
 20
523.75
 11
-107.69355000000007
 21
523.75
  0
LINE
  8
_0-0_0
  6
CONTINUOUS
 62
    7
 10
-107.59355200000005
 20
526.25
 11
-107.59355200000005
 21
523.75
  0
ARC
  8
_0-0_0
  6
CONTINUOUS
 62
    7
 10
-108.09355200000005
 20
526.25
 40
0.5
 50
0
 51
90.000003000000007
  0
LINE
  8
_0-0_0
  6
CONTINUOUS
 62
    7
 10
-108.09355200000005
 20
526.75
 11
-111.09355200000005
 21
526.75
  0
ARC
  8
_0-0_0
  6
CONTINUOUS
 62
    7
 10
-111.09355200000005
 20
526.25
 40
0.5
 50
90.000003000000007
 51
179.99999099999999
  0
ARC
  8
_0-0_0
  6
CONTINUOUS
 62
    7
 10
-115.59355200000005
 20
478.75
 40
0.5
 50
179.99999099999999
 51
269.99999700000001
  0
LINE
  8
_0-0_0
  6
CONTINUOUS
 62
    7
 10
-113.09355200000005
 20
478.25
 11
-115.59355200000005
 21
478.25
  0
ARC
  8
_0-0_0
  6
CONTINUOUS
 62
    7
 10
-113.09355200000005
 20
478.75
 40
0.5
 50
269.99999700000001
 51
0
  0
LINE
  8
_0-0_0
  6
CONTINUOUS
 62
    7
 10
-112.59355200000005
 20
483.75
 11
-112.59355200000005
 21
478.75
  0
ARC
  8
_0-0_0
  6
CONTINUOUS
 62
    7
 10
-112.09355200000005
 20
483.75
 40
0.5
 50
90.000003000000007
 51
179.99999099999999
  0
LINE
  8
_0-0_0
  6
CONTINUOUS
 62
    7
 10
-108.09355200000005
 20
484.25
 11
-112.09355200000005
 21
484.25
  0
ARC
  8
_0-0_0
  6
CONTINUOUS
 62
    7
 10
-108.09355200000005
 20
484.75
 40
0.5
 50
269.99999700000001
 51
0
  0
LINE
  8
_0-0_0
  6
CONTINUOUS
 62
    7
 10
-107.59355200000005
 20
487.95001200000002
 11
-107.59355200000005
 21
484.75
  0
LINE
  8
_0-0_0
  6
CONTINUOUS
 62
    7
 10
-107.69355000000007
 20
487.95001200000002
 11
-107.59355200000005
 21
487.95001200000002
  0
LINE
  8
_0-0_0
  6
CONTINUOUS
 62
    7
 10
-107.69355000000007
 20
487.95001200000002
 11
-107.69355000000007
 21
492.15002399999997
  0
LINE
  8
_0-0_0
  6
CONTINUOUS
 62
    7
 10
-108.59355200000005
 20
526.25
 11
-126.393551
 21
526.25
  0
ARC
  8
_0-0_0
  6
CONTINUOUS
 62
    7
 10
-108.59355200000005
 20
525.75
 40
0.5
 50
0
 51
90.000003000000007
  0
LINE
  8
_0-0_0
  6
CONTINUOUS
 62
    7
 10
-108.09355200000005
 20
525.75
 11
-108.09355200000005
 21
485.25
  0
ARC
  8
_0-0_0
  6
CONTINUOUS
 62
    7
 10
-108.59355200000005
 20
485.25
 40
0.5
 50
269.99999700000001
 51
0
  0
LINE
  8
_0-0_0
  6
CONTINUOUS
 62
    7
 10
-112.09355200000005
 20
484.75
 11
-108.59355200000005
 21
484.75
  0
ARC
  8
_0-0_0
  6
CONTINUOUS
 62
    7
 10
-112.09355200000005
 20
483.75
 40
1
 50
90.000003000000007
 51
179.99999099999999
  0
LINE
  8
_0-0_0
  6
CONTINUOUS
 62
    7
 10
-113.09355200000005
 20
483.75
 11
-113.09355200000005
 21
479.25
  0
ARC
  8
_0-0_0
  6
CONTINUOUS
 62
    7
 10
-113.59355200000005
 20
479.25
 40
0.5
 50
269.99999700000001
 51
0
  0
LINE
  8
_0-0_0
  6
CONTINUOUS
 62
    7
 10
-130.59355200000005
 20
478.75
 11
-113.59355200000005
 21
478.75
  0
LINE
  8
_0-0_0
  6
CONTINUOUS
 62
    7
 10
-112.09355200000005
 20
526.45001200000002
 11
-112.09355200000005
 21
526.25
  0
ARC
  8
_0-0_0
  6
CONTINUOUS
 62
    7
 10
-112.393551
 20
526.45001200000002
 40
0.2999999999999999
 50
0
 51
90.000003000000007
  0
LINE
  8
_0-0_0
  6
CONTINUOUS
 62
    7
 10
-112.393551
 20
526.75
 11
-127.09355200000005
 21
526.75
  0
ARC
  8
_0-0_0
  6
CONTINUOUS
 62
    7
 10
-127.09355200000005
 20
526.45001200000002
 40
0.2999999999999999
 50
90.000003000000007
 51
179.99999099999999
  0
LINE
  8
_0-0_0
  6
CONTINUOUS
 62
    7
 10
-127.393551
 20
526.45001200000002
 11
-127.393551
 21
523.25
  0
LINE
  8
_0-0_0
  6
CONTINUOUS
 62
    7
 10
-127.393551
 20
523.25
 11
-133.09355200000005
 21
523.25
  0
LINE
  8
_0-0_0
  6
CONTINUOUS
 62
    7
 10
-133.09355200000005
 20
523.25
 11
-133.893551
 21
522.45001200000002
  0
ARC
  8
_0-0_0
  6
CONTINUOUS
 62
    7
 10
-126.393551
 20
525.75
 40
0.5
 50
90.000003000000007
 51
179.99999099999999
  0
LINE
  8
_0-0_0
  6
CONTINUOUS
 62
    7
 10
-126.893551
 20
525.75
 11
-126.893551
 21
522.95001200000002
  0
ARC
  8
_0-0_0
  6
CONTINUOUS
 62
    7
 10
-127.393551
 20
522.95001200000002
 40
0.5
 50
269.99999700000001
 51
0
  0
LINE
  8
_0-0_0
  6
CONTINUOUS
 62
    7
 10
-127.393551
 20
522.45001200000002
 11
-135.59355200000005
 21
522.45001200000002
  0
ARC
  8
_0-0_0
  6
CONTINUOUS
 62
    7
 10
-135.59355200000005
 20
521.95001200000002
 40
0.5
 50
90.000003000000007
 51
179.99999099999999
  0
LINE
  8
_0-0_0
  6
CONTINUOUS
 62
    7
 10
-136.09355200000005
 20
485.25
 11
-136.09355200000005
 21
521.95001200000002
  0
ARC
  8
_0-0_0
  6
CONTINUOUS
 62
    7
 10
-135.59355200000005
 20
485.25
 40
0.5
 50
179.99999099999999
 51
269.99999700000001
  0
LINE
  8
_0-0_0
  6
CONTINUOUS
 62
    7
 10
-135.59355200000005
 20
484.75
 11
-132.09355200000005
 21
484.75
  0
ARC
  8
_0-0_0
  6
CONTINUOUS
 62
    7
 10
-132.09355200000005
 20
483.75
 40
1
 50
0
 51
90.000003000000007
  0
LINE
  8
_0-0_0
  6
CONTINUOUS
 62
    7
 10
-131.09355200000005
 20
479.25
 11
-131.09355200000005
 21
483.75
  0
ARC
  8
_0-0_0
  6
CONTINUOUS
 62
    7
 10
-130.59355200000005
 20
479.25
 40
0.5
 50
179.99999099999999
 51
269.99999700000001
  0
CIRCLE
  8
_0-0_0
  6
CONTINUOUS
 62
    7
 10
-122.09355200000005
 20
487.75
 40
2.0670000000000002
  0
LINE
  8
_0-0_0
  6
CONTINUOUS
 62
    7
 10
-134.09355200000005
 20
522.75
 11
-134.09355200000005
 21
522.45001200000002
  0
LINE
  8
_0-0_0
  6
CONTINUOUS
 62
    7
 10
-134.09355200000005
 20
522.75
 11
-136.09355200000005
 21
522.75
  0
ARC
  8
_0-0_0
  6
CONTINUOUS
 62
    7
 10
-136.09355200000005
 20
522.25
 40
0.5
 50
90.000003000000007
 51
179.99999099999999
  0
LINE
  8
_0-0_0
  6
CONTINUOUS
 62
    7
 10
-136.59355200000005
 20
522.25
 11
-136.59355200000005
 21
484.75
  0
ARC
  8
_0-0_0
  6
CONTINUOUS
 62
    7
 10
-136.09355200000005
 20
484.75
 40
0.5
 50
179.99999099999999
 51
269.99999700000001
  0
LINE
  8
_0-0_0
  6
CONTINUOUS
 62
    7
 10
-132.09355200000005
 20
484.25
 11
-136.09355200000005
 21
484.25
  0
ARC
  8
_0-0_0
  6
CONTINUOUS
 62
    7
 10
-132.09355200000005
 20
483.75
 40
0.5
 50
0
 51
90.000003000000007
  0
LINE
  8
_0-0_0
  6
CONTINUOUS
 62
    7
 10
-131.59355200000005
 20
478.75
 11
-131.59355200000005
 21
483.75
  0
ARC
  8
_0-0_0
  6
CONTINUOUS
 62
    7
 10
-131.09355200000005
 20
478.75
 40
0.5
 50
179.99999099999999
 51
269.99999700000001
  0
LINE
  8
_0-0_0
  6
CONTINUOUS
 62
    7
 10
-131.09355200000005
 20
478.25
 11
-128.59355200000005
 21
478.25
  0
ARC
  8
_0-0_0
  6
CONTINUOUS
 62
    7
 10
-128.59355200000005
 20
478.75
 40
0.5
 50
269.99999700000001
 51
0
  0
LINE
  8
_0-0_0
  6
CONTINUOUS
 62
    7
 10
-112.59355200000005
 20
478.75
 11
-112.49355300000002
 21
478.75
  0
LINE
  8
_0-0_0
  6
CONTINUOUS
 62
    7
 10
-112.49355300000002
 20
478.75
 11
-112.49355300000002
 21
479.25
  0
LINE
  8
_0-0_0
  6
CONTINUOUS
 62
    7
 10
-112.49355300000002
 20
483.25
 11
-112.49355300000002
 21
479.25
  0
LINE
  8
_0-0_0
  6
CONTINUOUS
 62
    7
 10
-112.59355200000005
 20
483.75
 11
-112.49355300000002
 21
483.75
  0
LINE
  8
_0-0_0
  6
CONTINUOUS
 62
    7
 10
-112.49355300000002
 20
483.25
 11
-112.49355300000002
 21
483.75
  0
LINE
  8
_0-0_0
  6
CONTINUOUS
 62
    7
 10
-112.393551
 20
479.25
 11
-112.393551
 21
479.38037100000003
  0
LINE
  8
_0-0_0
  6
CONTINUOUS
 62
    7
 10
-112.393551
 20
482.88037100000003
 11
-112.393551
 21
479.38037100000003
  0
LINE
  8
_0-0_0
  6
CONTINUOUS
 62
    7
 10
-112.49355300000002
 20
483.15002399999997
 11
-112.393551
 21
483.15002399999997
  0
LINE
  8
_0-0_0
  6
CONTINUOUS
 62
    7
 10
-112.393551
 20
482.88037100000003
 11
-112.393551
 21
483.15002399999997
  0
LINE
  8
_0-0_0
  6
CONTINUOUS
 62
    7
 10
-112.49355300000002
 20
479.25
 11
-112.393551
 21
479.25
  0
LINE
  8
_0-0_0
  6
CONTINUOUS
 62
    7
 10
-112.49355300000002
 20
479.25
 11
-112.393551
 21
479.25
  0
ENDSEC
  0
EOF
