  0
SECTION
  2
HEADER
  9
$ACADVER
  1
AC1009
  9
$INSBASE
 10
0
 20
0
 30
0
  9
$EXTMIN
 10
0
 20
0
  9
$EXTMAX
 10
420.5
 20
297
  9
$LIMMIN
 10
0
 20
0
  9
$LIMMAX
 10
420.5
 20
297
  9
$LTSCALE
 40
0.5
  0
ENDSEC
  0
SECTION
  2
TABLES
  0
TABLE
  2
LTYPE
 70
     9
  0
LTYPE
  2
CONTINUOUS
 70
    64
  3
実線
 72
    65
 73
     0
 40
0.0
  0
LTYPE
  2
DASHED1
 70
    64
  3
--  --  --  --  --  --  --  --  
 72
    65
 73
     2
 40
2.5
 49
1.25
 49
-1.25
  0
LTYPE
  2
DASHED2
 70
    64
  3
----    ----    ----    ----    
 72
    65
 73
     2
 40
5.0
 49
2.5
 49
-2.5
  0
LTYPE
  2
DASHED3
 70
    64
  3
------  ------  ------  ------  
 72
    65
 73
     2
 40
5.0
 49
3.75
 49
-1.25
  0
LTYPE
  2
CENTER1
 70
    64
  3
----- - ----- - ----- - ----- - 
 72
    65
 73
     4
 40
10.0
 49
6.25
 49
-1.25
 49
1.25
 49
-1.25
  0
LTYPE
  2
CENTER2
 70
    64
  3
----------  --  ----------  --  
 72
    65
 73
     4
 40
20.0
 49
12.5
 49
-2.5
 49
2.5
 49
-2.5
  0
LTYPE
  2
PHANTOM1
 70
    64
  3
--- - - --- - - --- - - --- - - 
 72
    65
 73
     6
 40
10.0
 49
3.25
 49
-1.25
 49
1.25
 49
-1.25
 49
1.25
 49
-1.25
  0
LTYPE
  2
PHANTOM2
 70
    64
  3
--------  -  -  --------  -  -  
 72
    65
 73
     6
 40
20.0
 49
10.0
 49
-2.5
 49
1.25
 49
-2.5
 49
1.25
 49
-2.5
  0
LTYPE
  2
DOT
 70
    64
  3
-   -   -   -   -   -   -   -   
 72
    65
 73
     2
 40
2.5
 49
0.625
 49
-1.875
  0
LTYPE
  2
DUMMY
 70
    64
  3
ダミー
 72
    65
 73
     0
 40
0.0
  0
LTYPE
  2
RAND1
 70
    64
  3
ランダム線1
 72
    65
 73
     4
 40
10.0
 49
1.0
 49
-2.0
 49
3.0
 49
-4.0
  0
LTYPE
  2
RAND2
 70
    64
  3
ランダム線2
 72
    65
 73
     4
 40
14.0
 49
2.0
 49
-3.0
 49
4.0
 49
-5.0
  0
LTYPE
  2
RAND3
 70
    64
  3
ランダム線3
 72
    65
 73
     4
 40
18.0
 49
3.0
 49
-4.0
 49
5.0
 49
-6.0
  0
LTYPE
  2
RAND4
 70
    64
  3
ランダム線4
 72
    65
 73
     4
 40
22.0
 49
4.0
 49
-5.0
 49
6.0
 49
-7.0
  0
LTYPE
  2
RAND5
 70
    64
  3
ランダム線5
 72
    65
 73
     4
 40
26.0
 49
5.0
 49
-6.0
 49
7.0
 49
-8.0
  0
LTYPE
  2
LONG1
 70
    64
  3
----------  --  ----------  --  
 72
    65
 73
     4
 40
40.0
 49
32.5
 49
-2.5
 49
2.5
 49
-2.5
  0
LTYPE
  2
LONG2
 70
    64
  3
--------  -  -  --------  -  -  
 72
    65
 73
     6
 40
40.0
 49
30.0
 49
-2.5
 49
1.25
 49
-2.5
 49
1.25
 49
-2.5
  0
LTYPE
  2
LONG3
 70
    64
  3
+++++++++++++++..+++++++++++++++
 72
    65
 73
     2
 40
40.0
 49
37.5
 49
-2.5
  0
LTYPE
  2
LONG4
 70
    64
  3
+++++++++++++++..+++++++++++++++
 72
    65
 73
     2
 40
80.0
 49
75.0
 49
-5.0
  0
LTYPE
  2
LONG5
 70
    64
  3
----------  --  ----------  --  
 72
    65
 73
     4
 40
60.0
 49
37.5
 49
-7.5
 49
7.5
 49
-7.5
  0
LTYPE
  2
dashed
 70
   64
  3
-------   -------------   ------
 72
   65
 73
    2
 40
7.5
 49
6
 49
-1.5
  0
LTYPE
  2
dashed_spaced
 70
   64
  3
----        --------        ----
 72
   65
 73
    2
 40
12
 49
6
 49
-6
  0
LTYPE
  2
long_dashed_dotted
 70
   64
  3
------------- --- --------------
 72
   65
 73
    4
 40
15.25
 49
12
 49
-1.5
 49
0.25
 49
-1.5
  0
LTYPE
  2
long_dashed_double-dotted
 70
   64
  3
----------- --- --- ------------
 72
   65
 73
    6
 40
17
 49
12
 49
-1.5
 49
0.25
 49
-1.5
 49
0.25
 49
-1.5
  0
LTYPE
  2
long_dashed_triplicate-dotted
 70
   64
  3
--------- --- --- --- ----------
 72
   65
 73
    8
 40
18.75
 49
12
 49
-1.5
 49
0.25
 49
-1.5
 49
0.25
 49
-1.5
 49
0.25
 49
-1.5
  0
LTYPE
  2
dotted
 70
   64
  3
   -       -       -       -    
 72
   65
 73
    2
 40
1.75
 49
0.25
 49
-1.5
  0
LTYPE
  2
chain
 70
   64
  3
-------------- -- --------------
 72
   65
 73
    4
 40
18.5
 49
12
 49
-1.5
 49
3.5
 49
-1.5
  0
LTYPE
  2
chain_double_dash
 70
   64
  3
------------ -- -- -------------
 72
   65
 73
    6
 40
23.5
 49
12
 49
-1.5
 49
3.5
 49
-1.5
 49
3.5
 49
-1.5
  0
LTYPE
  2
dashed_dotted
 70
   64
  3
-----------     -     ----------
 72
   65
 73
    4
 40
9.25
 49
6
 49
-1.5
 49
0.25
 49
-1.5
  0
LTYPE
  2
double-dashed_dotted
 70
   64
  3
------   -----------   -   -----
 72
   65
 73
    6
 40
16.75
 49
6
 49
-1.5
 49
6
 49
-1.5
 49
0.25
 49
-1.5
  0
LTYPE
  2
dashed_double-dotted
 70
   64
  3
---------    -    -    ---------
 72
   65
 73
    6
 40
11
 49
6
 49
-1.5
 49
0.25
 49
-1.5
 49
0.25
 49
-1.5
  0
LTYPE
  2
double-dashed_double-dotted
 70
   64
  3
-----   ---------   -   -   ----
 72
   65
 73
    8
 40
18.5
 49
6
 49
-1.5
 49
6
 49
-1.5
 49
0.25
 49
-1.5
 49
0.25
 49
-1.5
  0
LTYPE
  2
dashed_triplicate-dotted
 70
   64
  3
-------    -    -    -    ------
 72
   65
 73
    8
 40
12.75
 49
6
 49
-1.5
 49
0.25
 49
-1.5
 49
0.25
 49
-1.5
 49
0.25
 49
-1.5
  0
LTYPE
  2
double-dashed_triplicate-dotted
 70
   64
  3
-----  ---------  -  -  -  -----
 72
   65
 73
   10
 40
20.25
 49
6
 49
-1.5
 49
6
 49
-1.5
 49
0.25
 49
-1.5
 49
0.25
 49
-1.5
 49
0.25
 49
-1.5
  0
LTYPE
  2
undefined
 70
   64
  3
--------------------------------
 72
   65
 73
    0
 40
0
  0
ENDTAB
  0
TABLE
  2
STYLE
  5
3
100
AcDbSymbolTable
 70
     1
  0
STYLE
  5
10
100
AcDbSymbolTableRecord
100
AcDbTextStyleTableRecord
  2
STANDARD
 70
     0
 40
0.0
 41
1.0
 50
0.0
 71
     0
 42
0.2
  3
txt
  4
bigfont.shx
  0
STYLE
  5
26
100
AcDbSymbolTableRecord
100
AcDbTextStyleTableRecord
  2
TATEGAKI
 70
    68
 40
0.0
 41
1.0
 50
0.0
 71
     0
 42
1.0
  3
txt
  4
bigfont.shx
  0
ENDTAB
  0
TABLE
  2
LAYER
 70
    2
  0
LAYER
  2
_0-0_0
 70
   64
 62
    7
  6
CONTINUOUS
  0
LAYER
  2
ADD_LINE
 70
   64
 62
    7
  6
CONTINUOUS
  0
ENDTAB
  0
ENDSEC
  0
SECTION
  2
BLOCKS
  0
ENDSEC
  0
SECTION
  2
ENTITIES
  0
ARC
  8
_0-0_0
  6
CONTINUOUS
 62
    7
 10
148.3311765
 20
214.60000600000001
 40
0.2
 50
269.99999700000001
 51
20.376440000000013
  0
LINE
  8
_0-0_0
  6
CONTINUOUS
 62
    7
 10
148.51864649999999
 20
214.669647
 11
147.2186585
 21
218.169647
  0
ARC
  8
_0-0_0
  6
CONTINUOUS
 62
    7
 10
147.0311585
 20
218.10000600000001
 40
0.2
 50
20.376439999999999
 51
159.62355600000001
  0
LINE
  8
_0-0_0
  6
CONTINUOUS
 62
    7
 10
145.54367049999999
 20
214.669647
 11
146.84368849999998
 21
218.169647
  0
ARC
  8
_0-0_0
  6
CONTINUOUS
 62
    7
 10
145.73117049999999
 20
214.60000600000001
 40
0.2
 50
159.62355600000001
 51
269.99999700000001
  0
LINE
  8
_0-0_0
  6
CONTINUOUS
 62
    7
 10
145.73117049999999
 20
214.39999399999999
 11
148.3311765
 21
214.39999399999999
  0
LINE
  8
_0-0_0
  6
CONTINUOUS
 62
    7
 10
70.217712500000005
 20
269.000519
 11
70.217712500000005
 21
268.99951199999998
  0
LINE
  8
_0-0_0
  6
CONTINUOUS
 62
    7
 10
99.531158500000004
 20
222.5
 11
104.5311585
 21
222.5
  0
LINE
  8
_0-0_0
  6
CONTINUOUS
 62
    7
 10
104.5311585
 20
222.5
 11
106.3311765
 21
222.5
  0
LINE
  8
_0-0_0
  6
CONTINUOUS
 62
    7
 10
106.3311765
 20
222.5
 11
107.0311585
 21
222.5
  0
ARC
  8
_0-0_0
  6
CONTINUOUS
 62
    7
 10
106.3311765
 20
222
 40
0.5
 50
0
 51
90.000003000000007
  0
ARC
  8
_0-0_0
  6
CONTINUOUS
 62
    7
 10
99.531158500000004
 20
222
 40
0.5
 50
90.000003000000007
 51
179.99999099999999
  0
ARC
  8
_0-0_0
  6
CONTINUOUS
 62
    7
 10
203.0311585
 20
222
 40
0.5
 50
0
 51
90.000003000000007
  0
LINE
  8
_0-0_0
  6
CONTINUOUS
 62
    7
 10
107.0311585
 20
222.5
 11
107.0311585
 21
221
  0
LINE
  8
_0-0_0
  6
CONTINUOUS
 62
    7
 10
107.0311585
 20
223
 11
107.0311585
 21
222.5
  0
LINE
  8
_0-0_0
  6
CONTINUOUS
 62
    7
 10
107.0311585
 20
223.5
 11
107.0311585
 21
223
  0
LINE
  8
_0-0_0
  6
CONTINUOUS
 62
    7
 10
107.0311585
 20
224.5
 11
107.0311585
 21
223.5
  0
LINE
  8
_0-0_0
  6
CONTINUOUS
 62
    7
 10
111.0311585
 20
222.5
 11
111.73117049999999
 21
222.5
  0
LINE
  8
_0-0_0
  6
CONTINUOUS
 62
    7
 10
106.8311765
 20
222
 11
106.8311765
 21
221
  0
LINE
  8
_0-0_0
  6
CONTINUOUS
 62
    7
 10
110.0311585
 20
195.5
 11
110.0311585
 21
197.10000600000001
  0
LINE
  8
_0-0_0
  6
CONTINUOUS
 62
    7
 10
110.0311585
 20
195.5
 11
104.5311585
 21
195.5
  0
LINE
  8
_0-0_0
  6
CONTINUOUS
 62
    7
 10
126.0311585
 20
202.20001199999999
 11
168.0311585
 21
202.20001199999999
  0
LINE
  8
_0-0_0
  6
CONTINUOUS
 62
    7
 10
126.0311585
 20
221.79998800000001
 11
168.0311585
 21
221.79998800000001
  0
LINE
  8
_0-0_0
  6
CONTINUOUS
 62
    7
 10
189.5311585
 20
195.5
 11
180.0311585
 21
195.5
  0
LINE
  8
_0-0_0
  6
CONTINUOUS
 62
    7
 10
180.0311585
 20
195.5
 11
180.0311585
 21
197.10000600000001
  0
ARC
  8
_0-0_0
  6
CONTINUOUS
 62
    7
 10
179.73117049999999
 20
197.10000600000001
 40
0.2999999999999999
 50
0
 51
90.000003000000007
  0
LINE
  8
_0-0_0
  6
CONTINUOUS
 62
    7
 10
179.0311585
 20
197.39999399999999
 11
179.73117049999999
 21
197.39999399999999
  0
LINE
  8
_0-0_0
  6
CONTINUOUS
 62
    7
 10
178.5311585
 20
197.80001799999999
 11
179.0311585
 21
197.80001799999999
  0
LINE
  8
_0-0_0
  6
CONTINUOUS
 62
    7
 10
165.0311585
 20
197.80001799999999
 11
178.5311585
 21
197.80001799999999
  0
ARC
  8
_0-0_0
  6
CONTINUOUS
 62
    7
 10
162.5311585
 20
197.80001799999999
 40
2.5
 50
0
 51
90.000003000000007
  0
LINE
  8
_0-0_0
  6
CONTINUOUS
 62
    7
 10
131.5311585
 20
200.30001799999999
 11
162.5311585
 21
200.30001799999999
  0
ARC
  8
_0-0_0
  6
CONTINUOUS
 62
    7
 10
131.5311585
 20
197.80001799999999
 40
2.5
 50
90.000003000000007
 51
179.99999099999999
  0
LINE
  8
_0-0_0
  6
CONTINUOUS
 62
    7
 10
111.5311585
 20
197.80001799999999
 11
129.0311585
 21
197.80001799999999
  0
LINE
  8
_0-0_0
  6
CONTINUOUS
 62
    7
 10
111.0311585
 20
197.80001799999999
 11
111.5311585
 21
197.80001799999999
  0
LINE
  8
_0-0_0
  6
CONTINUOUS
 62
    7
 10
110.3311765
 20
197.39999399999999
 11
111.0311585
 21
197.39999399999999
  0
ARC
  8
_0-0_0
  6
CONTINUOUS
 62
    7
 10
110.3311765
 20
197.10000600000001
 40
0.2999999999999999
 50
90.000003000000007
 51
179.99999099999999
  0
LINE
  8
_0-0_0
  6
CONTINUOUS
 62
    7
 10
99.031158500000004
 20
220.22485399999999
 11
99.031158500000004
 21
222
  0
LINE
  8
_0-0_0
  6
CONTINUOUS
 62
    7
 10
104.0311585
 20
222.5
 11
104.0311585
 21
222.89999399999999
  0
LINE
  8
_0-0_0
  6
CONTINUOUS
 62
    7
 10
104.0311585
 20
223.39999399999999
 11
104.0311585
 21
222.89999399999999
  0
LINE
  8
_0-0_0
  6
CONTINUOUS
 62
    7
 10
203.5311585
 20
224.5
 11
203.5311585
 21
223
  0
LINE
  8
_0-0_0
  6
CONTINUOUS
 62
    7
 10
203.5311585
 20
223
 11
203.5311585
 21
222
  0
LINE
  8
_0-0_0
  6
CONTINUOUS
 62
    7
 10
203.5311585
 20
221.20001199999999
 11
203.5311585
 21
222
  0
LINE
  8
_0-0_0
  6
CONTINUOUS
 62
    7
 10
203.0311585
 20
222.5
 11
203.5311585
 21
222.5
  0
LINE
  8
_0-0_0
  6
CONTINUOUS
 62
    7
 10
190.5311585
 20
222.5
 11
203.0311585
 21
222.5
  0
LINE
  8
_0-0_0
  6
CONTINUOUS
 62
    7
 10
203.5311585
 20
224.5
 11
203.5311585
 21
223.5
  0
LINE
  8
_0-0_0
  6
CONTINUOUS
 62
    7
 10
203.5311585
 20
223
 11
203.5311585
 21
222.5
  0
LINE
  8
_0-0_0
  6
CONTINUOUS
 62
    7
 10
203.5311585
 20
223.5
 11
203.5311585
 21
223
  0
ARC
  8
_0-0_0
  6
CONTINUOUS
 62
    7
 10
109.0311585
 20
221
 40
2
 50
179.99999099999999
 51
0
  0
LINE
  8
_0-0_0
  6
CONTINUOUS
 62
    7
 10
190.0311585
 20
222.5
 11
190.5311585
 21
222.5
  0
LINE
  8
_0-0_0
  6
CONTINUOUS
 62
    7
 10
190.0311585
 20
222
 11
190.0311585
 21
222.5
  0
LINE
  8
_0-0_0
  6
CONTINUOUS
 62
    7
 10
190.0311585
 20
221
 11
190.0311585
 21
221.20001199999999
  0
ARC
  8
_0-0_0
  6
CONTINUOUS
 62
    7
 10
188.0311585
 20
221
 40
2
 50
179.99999099999999
 51
0
  0
LINE
  8
_0-0_0
  6
CONTINUOUS
 62
    7
 10
186.0311585
 20
222.5
 11
186.0311585
 21
221
  0
LINE
  8
_0-0_0
  6
CONTINUOUS
 62
    7
 10
185.3311765
 20
222.5
 11
186.0311585
 21
222.5
  0
LINE
  8
_0-0_0
  6
CONTINUOUS
 62
    7
 10
111.0311585
 20
221
 11
111.0311585
 21
222.5
  0
LINE
  8
_0-0_0
  6
CONTINUOUS
 62
    7
 10
107.0311585
 20
223.5
 11
203.5311585
 21
223.5
  0
ARC
  8
_0-0_0
  6
CONTINUOUS
 62
    7
 10
111.73117049999999
 20
222
 40
0.5
 50
90.000003000000007
 51
179.99999099999999
  0
ARC
  8
_0-0_0
  6
CONTINUOUS
 62
    7
 10
109.0311585
 20
221
 40
2.2000000000000002
 50
179.99999099999999
 51
0
  0
LINE
  8
_0-0_0
  6
CONTINUOUS
 62
    7
 10
111.0311585
 20
197.39999399999999
 11
111.5311585
 21
197.39999399999999
  0
LINE
  8
_0-0_0
  6
CONTINUOUS
 62
    7
 10
111.5311585
 20
197.80001799999999
 11
111.5311585
 21
197.39999399999999
  0
LINE
  8
_0-0_0
  6
CONTINUOUS
 62
    7
 10
129.0311585
 20
197.80001799999999
 11
165.0311585
 21
197.80001799999999
  0
LINE
  8
_0-0_0
  6
CONTINUOUS
 62
    7
 10
178.5311585
 20
197.39999399999999
 11
179.0311585
 21
197.39999399999999
  0
LINE
  8
_0-0_0
  6
CONTINUOUS
 62
    7
 10
178.5311585
 20
197.80001799999999
 11
178.5311585
 21
197.39999399999999
  0
LINE
  8
_0-0_0
  6
CONTINUOUS
 62
    7
 10
189.5311585
 20
195
 11
180.5311585
 21
195
  0
ARC
  8
_0-0_0
  6
CONTINUOUS
 62
    7
 10
180.5311585
 20
195.5
 40
0.5
 50
179.99999099999999
 51
269.99999700000001
  0
LINE
  8
_0-0_0
  6
CONTINUOUS
 62
    7
 10
189.5311585
 20
195.5
 11
190.0311585
 21
195.5
  0
LINE
  8
_0-0_0
  6
CONTINUOUS
 62
    7
 10
190.0311585
 20
195.5
 11
190.0311585
 21
195.70001199999999
  0
LINE
  8
_0-0_0
  6
CONTINUOUS
 62
    7
 10
194.5311585
 20
195.89999399999999
 11
190.23117049999999
 21
195.89999399999999
  0
LINE
  8
_0-0_0
  6
CONTINUOUS
 62
    7
 10
195.0311585
 20
196.39999399999999
 11
195.0311585
 21
198.17514
  0
ARC
  8
_0-0_0
  6
CONTINUOUS
 62
    7
 10
191.9832155
 20
198.11901900000001
 40
3.0490550000000001
 50
1.0548960000000001
 51
14.838094000000002
  0
LINE
  8
_0-0_0
  6
CONTINUOUS
 62
    7
 10
194.5311585
 20
199.10000600000001
 11
190.1636355
 21
199.10000600000001
  0
LINE
  8
_0-0_0
  6
CONTINUOUS
 62
    7
 10
190.0311585
 20
199.24142499999999
 11
190.0311585
 21
199.34643600000001
  0
ARC
  8
_0-0_0
  6
CONTINUOUS
 62
    7
 10
188.0311585
 20
221
 40
2.2000000000000002
 50
179.99999099999999
 51
303.74900400000001
  0
LINE
  8
_0-0_0
  6
CONTINUOUS
 62
    7
 10
185.8311765
 20
222
 11
185.8311765
 21
221
  0
LINE
  8
_0-0_0
  6
CONTINUOUS
 62
    7
 10
185.3311765
 20
222.5
 11
111.73117049999999
 21
222.5
  0
LINE
  8
_0-0_0
  6
CONTINUOUS
 62
    7
 10
111.23117049999999
 20
221
 11
111.23117049999999
 21
222
  0
LINE
  8
_0-0_0
  6
CONTINUOUS
 62
    7
 10
111.73117049999999
 20
220.79998800000001
 11
111.73117049999999
 21
221
  0
ARC
  8
_0-0_0
  6
CONTINUOUS
 62
    7
 10
112.73117049999999
 20
220.79998800000001
 40
1
 50
90.000003000000007
 51
179.99999099999999
  0
LINE
  8
_0-0_0
  6
CONTINUOUS
 62
    7
 10
112.73117049999999
 20
221.79998800000001
 11
126.0311585
 21
221.79998800000001
  0
LINE
  8
_0-0_0
  6
CONTINUOUS
 62
    7
 10
168.0311585
 20
221.79998800000001
 11
182.0311585
 21
221.79998800000001
  0
ARC
  8
_0-0_0
  6
CONTINUOUS
 62
    7
 10
182.0311585
 20
218.79998800000001
 40
3
 50
0
 51
90.000003000000007
  0
LINE
  8
_0-0_0
  6
CONTINUOUS
 62
    7
 10
185.0311585
 20
205.20001199999999
 11
185.0311585
 21
218.79998800000001
  0
ARC
  8
_0-0_0
  6
CONTINUOUS
 62
    7
 10
182.0311585
 20
205.20001199999999
 40
3
 50
269.99999700000001
 51
0
  0
LINE
  8
_0-0_0
  6
CONTINUOUS
 62
    7
 10
182.0311585
 20
202.20001199999999
 11
168.0311585
 21
202.20001199999999
  0
LINE
  8
_0-0_0
  6
CONTINUOUS
 62
    7
 10
126.0311585
 20
202.20001199999999
 11
112.0311585
 21
202.20001199999999
  0
ARC
  8
_0-0_0
  6
CONTINUOUS
 62
    7
 10
112.0311585
 20
205.20001199999999
 40
3
 50
179.99999099999999
 51
269.99999700000001
  0
LINE
  8
_0-0_0
  6
CONTINUOUS
 62
    7
 10
109.0311585
 20
217.437714
 11
109.0311585
 21
205.20001199999999
  0
ARC
  8
_0-0_0
  6
CONTINUOUS
 62
    7
 10
110.0311585
 20
217.437714
 40
1
 50
105.68034800000001
 51
179.99999100000002
  0
ARC
  8
_0-0_0
  6
CONTINUOUS
 62
    7
 10
102.07913249999999
 20
220.28097500000001
 40
3.0490550000000001
 50
181.05489
 51
194.838089
  0
LINE
  8
_0-0_0
  6
CONTINUOUS
 62
    7
 10
103.89871249999999
 20
219.29998800000001
 11
99.531158500000004
 21
219.29998800000001
  0
LINE
  8
_0-0_0
  6
CONTINUOUS
 62
    7
 10
104.0311585
 20
199.24142499999999
 11
104.0311585
 21
199.541687
  0
LINE
  8
_0-0_0
  6
CONTINUOUS
 62
    7
 10
103.89871249999999
 20
199.10000600000001
 11
99.531158500000004
 21
199.10000600000001
  0
ARC
  8
_0-0_0
  6
CONTINUOUS
 62
    7
 10
102.08032249999999
 20
198.118347
 40
3.050319
 50
165.15540799999999
 51
178.932897
  0
LINE
  8
_0-0_0
  6
CONTINUOUS
 62
    7
 10
99.031158500000004
 20
196.39999399999999
 11
99.031158500000004
 21
198.17514
  0
LINE
  8
_0-0_0
  6
CONTINUOUS
 62
    7
 10
103.8311765
 20
195.89999399999999
 11
99.531158500000004
 21
195.89999399999999
  0
LINE
  8
_0-0_0
  6
CONTINUOUS
 62
    7
 10
104.0311585
 20
195.5
 11
104.0311585
 21
195.70001199999999
  0
LINE
  8
_0-0_0
  6
CONTINUOUS
 62
    7
 10
104.0311585
 20
195.5
 11
104.5311585
 21
195.5
  0
LINE
  8
_0-0_0
  6
CONTINUOUS
 62
    7
 10
109.5311585
 20
195
 11
104.5311585
 21
195
  0
ARC
  8
_0-0_0
  6
CONTINUOUS
 62
    7
 10
109.5311585
 20
195.5
 40
0.5
 50
269.99999700000001
 51
0
  0
LINE
  8
_0-0_0
  6
CONTINUOUS
 62
    7
 10
99.349426499999993
 20
219.29998800000001
 11
99.3290705
 21
219.30102500000001
  0
LINE
  8
_0-0_0
  6
CONTINUOUS
 62
    7
 10
99.3290705
 20
219.30102500000001
 11
99.308654499999989
 21
219.304169
  0
LINE
  8
_0-0_0
  6
CONTINUOUS
 62
    7
 10
99.308654499999989
 20
219.304169
 11
99.281829499999986
 21
219.311768
  0
LINE
  8
_0-0_0
  6
CONTINUOUS
 62
    7
 10
99.281829499999986
 20
219.311768
 11
99.25619549999999
 21
219.32311999999999
  0
LINE
  8
_0-0_0
  6
CONTINUOUS
 62
    7
 10
99.25619549999999
 20
219.32311999999999
 11
99.232391500000006
 21
219.33801299999999
  0
LINE
  8
_0-0_0
  6
CONTINUOUS
 62
    7
 10
99.232391500000006
 20
219.33801299999999
 11
99.215637499999985
 21
219.35150100000001
  0
LINE
  8
_0-0_0
  6
CONTINUOUS
 62
    7
 10
99.215637499999985
 20
219.35150100000001
 11
99.20013449999999
 21
219.36672999999999
  0
LINE
  8
_0-0_0
  6
CONTINUOUS
 62
    7
 10
99.20013449999999
 20
219.36672999999999
 11
99.1732485
 21
219.401398
  0
LINE
  8
_0-0_0
  6
CONTINUOUS
 62
    7
 10
99.1732485
 20
219.401398
 11
99.152191499999986
 21
219.439728
  0
LINE
  8
_0-0_0
  6
CONTINUOUS
 62
    7
 10
99.152191499999986
 20
219.439728
 11
99.140197499999999
 21
219.46963500000001
  0
LINE
  8
_0-0_0
  6
CONTINUOUS
 62
    7
 10
99.140197499999999
 20
219.46963500000001
 11
99.131164499999983
 21
219.5
  0
LINE
  8
_0-0_0
  6
CONTINUOUS
 62
    7
 10
104.0311585
 20
223.39999399999999
 11
104.0311585
 21
224.5
  0
LINE
  8
_0-0_0
  6
CONTINUOUS
 62
    7
 10
98.531158500000004
 20
220.85000600000001
 11
99.031158500000004
 21
220.85000600000001
  0
LINE
  8
_0-0_0
  6
CONTINUOUS
 62
    7
 10
98.531158500000004
 20
223.39999399999999
 11
104.0311585
 21
223.39999399999999
  0
ARC
  8
_0-0_0
  6
CONTINUOUS
 62
    7
 10
203.0311585
 20
221.20001199999999
 40
0.5
 50
269.99999700000001
 51
0
  0
ARC
  8
_0-0_0
  6
CONTINUOUS
 62
    7
 10
190.5311585
 20
222
 40
0.5
 50
90.000003000000007
 51
179.99999099999999
  0
LINE
  8
_0-0_0
  6
CONTINUOUS
 62
    7
 10
190.0311585
 20
221.20001199999999
 11
190.0311585
 21
222
  0
LINE
  8
_0-0_0
  6
CONTINUOUS
 62
    7
 10
110.23117049999999
 20
197.38284300000001
 11
110.23117049999999
 21
195.39999399999999
  0
LINE
  8
_0-0_0
  6
CONTINUOUS
 62
    7
 10
110.23117049999999
 20
195.39999399999999
 11
111.23117049999999
 21
195.39999399999999
  0
LINE
  8
_0-0_0
  6
CONTINUOUS
 62
    7
 10
111.5311585
 20
197.39999399999999
 11
178.5311585
 21
197.39999399999999
  0
LINE
  8
_0-0_0
  6
CONTINUOUS
 62
    7
 10
111.23117049999999
 20
195.39999399999999
 11
178.8311765
 21
195.39999399999999
  0
LINE
  8
_0-0_0
  6
CONTINUOUS
 62
    7
 10
178.8311765
 20
195.39999399999999
 11
179.8311765
 21
195.39999399999999
  0
LINE
  8
_0-0_0
  6
CONTINUOUS
 62
    7
 10
179.8311765
 20
197.38284300000001
 11
179.8311765
 21
195.39999399999999
  0
LINE
  8
_0-0_0
  6
CONTINUOUS
 62
    7
 10
190.0311585
 20
195.5
 11
189.5311585
 21
195
  0
ARC
  8
_0-0_0
  6
CONTINUOUS
 62
    7
 10
190.23117049999999
 20
195.70001199999999
 40
0.2
 50
90.000003000000007
 51
179.99999099999999
  0
ARC
  8
_0-0_0
  6
CONTINUOUS
 62
    7
 10
194.5311585
 20
196.39999399999999
 40
0.5
 50
269.99999700000001
 51
0
  0
LINE
  8
_0-0_0
  6
CONTINUOUS
 62
    7
 10
194.71292149999999
 20
199.10000600000001
 11
194.73327649999999
 21
199.09899899999999
  0
LINE
  8
_0-0_0
  6
CONTINUOUS
 62
    7
 10
194.73327649999999
 20
199.09899899999999
 11
194.75366249999999
 21
199.09582499999999
  0
LINE
  8
_0-0_0
  6
CONTINUOUS
 62
    7
 10
194.75366249999999
 20
199.09582499999999
 11
194.78048749999999
 21
199.088257
  0
LINE
  8
_0-0_0
  6
CONTINUOUS
 62
    7
 10
194.78048749999999
 20
199.088257
 11
194.80612149999999
 21
199.076874
  0
LINE
  8
_0-0_0
  6
CONTINUOUS
 62
    7
 10
194.80612149999999
 20
199.076874
 11
194.8299255
 21
199.061981
  0
LINE
  8
_0-0_0
  6
CONTINUOUS
 62
    7
 10
194.8299255
 20
199.061981
 11
194.84667949999999
 21
199.04849200000001
  0
LINE
  8
_0-0_0
  6
CONTINUOUS
 62
    7
 10
194.84667949999999
 20
199.04849200000001
 11
194.86218249999999
 21
199.033264
  0
LINE
  8
_0-0_0
  6
CONTINUOUS
 62
    7
 10
194.86218249999999
 20
199.033264
 11
194.88909949999999
 21
198.998627
  0
LINE
  8
_0-0_0
  6
CONTINUOUS
 62
    7
 10
194.88909949999999
 20
198.998627
 11
194.91012549999999
 21
198.960297
  0
LINE
  8
_0-0_0
  6
CONTINUOUS
 62
    7
 10
194.91012549999999
 20
198.960297
 11
194.92211950000001
 21
198.93035900000001
  0
LINE
  8
_0-0_0
  6
CONTINUOUS
 62
    7
 10
194.92211950000001
 20
198.93035900000001
 11
194.93118250000001
 21
198.89999399999999
  0
LINE
  8
_0-0_0
  6
CONTINUOUS
 62
    7
 10
194.71292149999999
 20
199.10000600000001
 11
194.5311585
 21
199.10000600000001
  0
LINE
  8
_0-0_0
  6
CONTINUOUS
 62
    7
 10
190.0311585
 20
200.39999399999999
 11
190.0311585
 21
199.34643600000001
  0
LINE
  8
_0-0_0
  6
CONTINUOUS
 62
    7
 10
190.0311585
 20
200.39999399999999
 11
190.0311585
 21
218
  0
LINE
  8
_0-0_0
  6
CONTINUOUS
 62
    7
 10
190.0311585
 20
219.977386
 11
190.0311585
 21
218
  0
ARC
  8
_0-0_0
  6
CONTINUOUS
 62
    7
 10
189.5311585
 20
218.75500500000001
 40
0.5
 50
0
 51
123.74898500000002
  0
ARC
  8
_0-0_0
  6
CONTINUOUS
 62
    7
 10
190.2014465
 20
199.27328499999999
 40
0.1734229999999999
 50
181.12417600000003
 51
270.64883800000007
  0
LINE
  8
_0-0_0
  6
CONTINUOUS
 62
    7
 10
190.0271305
 20
199.30001799999999
 11
190.0272215
 21
199.269867
  0
ARC
  8
_0-0_0
  6
CONTINUOUS
 62
    7
 10
185.3311765
 20
222
 40
0.5
 50
0
 51
90.000003000000007
  0
ARC
  8
_0-0_0
  6
CONTINUOUS
 62
    7
 10
109.0311585
 20
221
 40
2.7000000000000002
 50
285.68033600000007
 51
0.0000000000000381
  0
ARC
  8
_0-0_0
  6
CONTINUOUS
 62
    7
 10
126.0311585
 20
205.20001199999999
 40
3
 50
269.99999700000001
 51
0
  0
LINE
  8
_0-0_0
  6
CONTINUOUS
 62
    7
 10
129.0311585
 20
205.20001199999999
 11
129.0311585
 21
218.79998800000001
  0
ARC
  8
_0-0_0
  6
CONTINUOUS
 62
    7
 10
126.0311585
 20
218.79998800000001
 40
3
 50
0
 51
90.000003000000007
  0
ARC
  8
_0-0_0
  6
CONTINUOUS
 62
    7
 10
121.5311585
 20
214.5
 40
4.5
 50
269.99999700000001
 51
90.000002999999992
  0
LINE
  8
_0-0_0
  6
CONTINUOUS
 62
    7
 10
121.5311585
 20
210
 11
116.5311585
 21
210
  0
ARC
  8
_0-0_0
  6
CONTINUOUS
 62
    7
 10
116.5311585
 20
214.5
 40
4.5
 50
90.000003000000007
 51
269.99999700000006
  0
LINE
  8
_0-0_0
  6
CONTINUOUS
 62
    7
 10
116.5311585
 20
219
 11
121.5311585
 21
219
  0
ARC
  8
_0-0_0
  6
CONTINUOUS
 62
    7
 10
168.0311585
 20
205.20001199999999
 40
3
 50
179.99999099999999
 51
269.99999700000001
  0
LINE
  8
_0-0_0
  6
CONTINUOUS
 62
    7
 10
165.0311585
 20
218.79998800000001
 11
165.0311585
 21
205.20001199999999
  0
ARC
  8
_0-0_0
  6
CONTINUOUS
 62
    7
 10
168.0311585
 20
218.79998800000001
 40
3
 50
90.000003000000007
 51
179.99999099999999
  0
ARC
  8
_0-0_0
  6
CONTINUOUS
 62
    7
 10
177.5311585
 20
214.5
 40
4.5
 50
269.99999700000001
 51
90.000002999999992
  0
LINE
  8
_0-0_0
  6
CONTINUOUS
 62
    7
 10
177.5311585
 20
210
 11
172.5311585
 21
210
  0
ARC
  8
_0-0_0
  6
CONTINUOUS
 62
    7
 10
172.5311585
 20
214.5
 40
4.5
 50
90.000003000000007
 51
269.99999700000006
  0
LINE
  8
_0-0_0
  6
CONTINUOUS
 62
    7
 10
172.5311585
 20
219
 11
177.5311585
 21
219
  0
LINE
  8
_0-0_0
  6
CONTINUOUS
 62
    7
 10
99.531158500000004
 20
219.29998800000001
 11
99.349426499999993
 21
219.29998800000001
  0
LINE
  8
_0-0_0
  6
CONTINUOUS
 62
    7
 10
104.0311585
 20
201.20001199999999
 11
104.0311585
 21
199.541687
  0
LINE
  8
_0-0_0
  6
CONTINUOUS
 62
    7
 10
104.0311585
 20
201.20001199999999
 11
104.0311585
 21
217.70001199999999
  0
LINE
  8
_0-0_0
  6
CONTINUOUS
 62
    7
 10
104.0311585
 20
219.16629
 11
104.0311585
 21
217.70001199999999
  0
ARC
  8
_0-0_0
  6
CONTINUOUS
 62
    7
 10
103.8608705
 20
199.27328499999999
 40
0.1734209999999999
 50
269.35085600000002
 51
358.87625300000002
  0
LINE
  8
_0-0_0
  6
CONTINUOUS
 62
    7
 10
104.03521749999999
 20
199.30001799999999
 11
104.03512549999999
 21
199.269867
  0
LINE
  8
_0-0_0
  6
CONTINUOUS
 62
    7
 10
104.03521749999999
 20
219.10000600000001
 11
104.03512549999999
 21
219.13012699999999
  0
ARC
  8
_0-0_0
  6
CONTINUOUS
 62
    7
 10
103.8608705
 20
219.12670900000001
 40
0.1734219999999999
 50
1.1236539999999999
 51
90.649110000000007
  0
LINE
  8
_0-0_0
  6
CONTINUOUS
 62
    7
 10
99.531158500000004
 20
199.10000600000001
 11
99.349426499999993
 21
199.10000600000001
  0
LINE
  8
_0-0_0
  6
CONTINUOUS
 62
    7
 10
99.349426499999993
 20
199.10000600000001
 11
99.3290705
 21
199.09899899999999
  0
LINE
  8
_0-0_0
  6
CONTINUOUS
 62
    7
 10
99.3290705
 20
199.09899899999999
 11
99.308654499999989
 21
199.09582499999999
  0
LINE
  8
_0-0_0
  6
CONTINUOUS
 62
    7
 10
99.308654499999989
 20
199.09582499999999
 11
99.281829499999986
 21
199.088257
  0
LINE
  8
_0-0_0
  6
CONTINUOUS
 62
    7
 10
99.281829499999986
 20
199.088257
 11
99.25619549999999
 21
199.076874
  0
LINE
  8
_0-0_0
  6
CONTINUOUS
 62
    7
 10
99.25619549999999
 20
199.076874
 11
99.232391500000006
 21
199.061981
  0
LINE
  8
_0-0_0
  6
CONTINUOUS
 62
    7
 10
99.232391500000006
 20
199.061981
 11
99.215637499999985
 21
199.04849200000001
  0
LINE
  8
_0-0_0
  6
CONTINUOUS
 62
    7
 10
99.215637499999985
 20
199.04849200000001
 11
99.20013449999999
 21
199.033264
  0
LINE
  8
_0-0_0
  6
CONTINUOUS
 62
    7
 10
99.20013449999999
 20
199.033264
 11
99.1732485
 21
198.998627
  0
LINE
  8
_0-0_0
  6
CONTINUOUS
 62
    7
 10
99.1732485
 20
198.998627
 11
99.152191499999986
 21
198.960297
  0
LINE
  8
_0-0_0
  6
CONTINUOUS
 62
    7
 10
99.152191499999986
 20
198.960297
 11
99.140197499999999
 21
198.93035900000001
  0
LINE
  8
_0-0_0
  6
CONTINUOUS
 62
    7
 10
99.140197499999999
 20
198.93035900000001
 11
99.131164499999983
 21
198.89999399999999
  0
ARC
  8
_0-0_0
  6
CONTINUOUS
 62
    7
 10
99.531158500000004
 20
196.39999399999999
 40
0.5
 50
179.99999099999999
 51
269.99999700000001
  0
ARC
  8
_0-0_0
  6
CONTINUOUS
 62
    7
 10
103.8311765
 20
195.70001199999999
 40
0.2
 50
0
 51
90.000003000000007
  0
LINE
  8
_0-0_0
  6
CONTINUOUS
 62
    7
 10
104.0311585
 20
195.5
 11
104.5311585
 21
195
  0
LINE
  8
_0-0_0
  6
CONTINUOUS
 62
    7
 10
98.031158500000004
 20
221.344269
 11
98.031158500000004
 21
222.89999399999999
  0
ARC
  8
_0-0_0
  6
CONTINUOUS
 62
    7
 10
98.518066500000003
 20
221.34762599999999
 40
0.4869939999999999
 50
180.39493000000002
 51
203.93946700000001
  0
ARC
  8
_0-0_0
  6
CONTINUOUS
 62
    7
 10
98.531158500000004
 20
221.35000600000001
 40
0.5
 50
203.57823099999999
 51
269.99999700000001
  0
ARC
  8
_0-0_0
  6
CONTINUOUS
 62
    7
 10
98.531158500000004
 20
222.89999399999999
 40
0.5
 50
90.000003000000007
 51
179.99999099999999
  0
LINE
  8
_0-0_0
  6
CONTINUOUS
 62
    7
 10
190.0311585
 20
220.70001199999999
 11
190.5311585
 21
220.70001199999999
  0
LINE
  8
_0-0_0
  6
CONTINUOUS
 62
    7
 10
190.5311585
 20
220.70001199999999
 11
203.0311585
 21
220.70001199999999
  0
ARC
  8
_0-0_0
  6
CONTINUOUS
 62
    7
 10
190.5311585
 20
221.20001199999999
 40
0.5
 50
179.99999099999999
 51
269.99999700000001
  0
LINE
  8
_0-0_0
  6
CONTINUOUS
 62
    7
 10
190.0311585
 20
220.33398399999999
 11
190.0311585
 21
220.70001199999999
  0
LINE
  8
_0-0_0
  6
CONTINUOUS
 62
    7
 10
190.0311585
 20
220.083496
 11
190.0311585
 21
219.977386
  0
LINE
  8
_0-0_0
  6
CONTINUOUS
 62
    7
 10
190.0311585
 20
220.33398399999999
 11
190.0311585
 21
220.083496
  0
CIRCLE
  8
_0-0_0
  6
CONTINUOUS
 62
    7
 10
109.0311585
 20
221
 40
1.4750000000000001
  0
CIRCLE
  8
_0-0_0
  6
CONTINUOUS
 62
    7
 10
188.0311585
 20
221
 40
1.4750000000000001
  0
LINE
  8
_0-0_0
  6
CONTINUOUS
 62
    7
 10
98.031158500000004
 20
201.20001199999999
 11
98.031158500000004
 21
198.70001199999999
  0
LINE
  8
_0-0_0
  6
CONTINUOUS
 62
    7
 10
98.031158500000004
 20
201.20001199999999
 11
98.031158500000004
 21
214
  0
LINE
  8
_0-0_0
  6
CONTINUOUS
 62
    7
 10
98.031158500000004
 20
217.5
 11
98.031158500000004
 21
214
  0
LINE
  8
_0-0_0
  6
CONTINUOUS
 62
    7
 10
98.031158500000004
 20
217.5
 11
98.031158500000004
 21
217.85000600000001
  0
LINE
  8
_0-0_0
  6
CONTINUOUS
 62
    7
 10
98.031158500000004
 20
221.344269
 11
98.031158500000004
 21
217.85000600000001
  0
LINE
  8
_0-0_0
  6
CONTINUOUS
 62
    7
 10
98.031158500000004
 20
223.192902
 11
98.031158500000004
 21
222.89999399999999
  0
LINE
  8
_0-0_0
  6
CONTINUOUS
 62
    7
 10
98.031158500000004
 20
223.192902
 11
98.031158500000004
 21
223.25
  0
LINE
  8
_0-0_0
  6
CONTINUOUS
 62
    7
 10
99.03170750000001
 20
198.20001199999999
 11
98.531158500000004
 21
198.20001199999999
  0
LINE
  8
_0-0_0
  6
CONTINUOUS
 62
    7
 10
195.0199585
 20
198.39999399999999
 11
202.0311585
 21
198.39999399999999
  0
LINE
  8
_0-0_0
  6
CONTINUOUS
 62
    7
 10
202.0311585
 20
198.39999399999999
 11
206.7066035
 21
198.39999399999999
  0
LINE
  8
_0-0_0
  6
CONTINUOUS
 62
    7
 10
202.0311585
 20
198.39999399999999
 11
202.0311585
 21
200.39999399999999
  0
LINE
  8
_0-0_0
  6
CONTINUOUS
 62
    7
 10
202.0311585
 20
203.89999399999999
 11
202.0311585
 21
200.89999399999999
  0
LINE
  8
_0-0_0
  6
CONTINUOUS
 62
    7
 10
202.0311585
 20
200.89999399999999
 11
202.0311585
 21
200.39999399999999
  0
LINE
  8
_0-0_0
  6
CONTINUOUS
 62
    7
 10
202.0311585
 20
203.89999399999999
 11
202.0311585
 21
204.39999399999999
  0
ARC
  8
_0-0_0
  6
CONTINUOUS
 62
    7
 10
196.0311585
 20
203.70001199999999
 40
0.500016
 50
180.00117
 51
359.995611
  0
LINE
  8
_0-0_0
  6
CONTINUOUS
 62
    7
 10
196.5311585
 20
203.70001199999999
 11
196.5311585
 21
215.70001199999999
  0
ARC
  8
_0-0_0
  6
CONTINUOUS
 62
    7
 10
196.0311585
 20
215.69998200000001
 40
0.500016
 50
0.001164
 51
179.99560600000004
  0
LINE
  8
_0-0_0
  6
CONTINUOUS
 62
    7
 10
195.5311585
 20
203.70001199999999
 11
195.5311585
 21
215.70001199999999
  0
ARC
  8
_0-0_0
  6
CONTINUOUS
 62
    7
 10
197.5311585
 20
203.70001199999999
 40
0.500016
 50
180.00117
 51
359.995611
  0
LINE
  8
_0-0_0
  6
CONTINUOUS
 62
    7
 10
198.0311585
 20
203.70001199999999
 11
198.0311585
 21
215.70001199999999
  0
ARC
  8
_0-0_0
  6
CONTINUOUS
 62
    7
 10
197.5311585
 20
215.69998200000001
 40
0.500016
 50
0.001164
 51
179.99560600000004
  0
LINE
  8
_0-0_0
  6
CONTINUOUS
 62
    7
 10
197.0311585
 20
203.70001199999999
 11
197.0311585
 21
215.70001199999999
  0
ARC
  8
_0-0_0
  6
CONTINUOUS
 62
    7
 10
199.0311585
 20
203.70001199999999
 40
0.500016
 50
180.00117
 51
359.995611
  0
LINE
  8
_0-0_0
  6
CONTINUOUS
 62
    7
 10
199.5311585
 20
203.70001199999999
 11
199.5311585
 21
215.70001199999999
  0
ARC
  8
_0-0_0
  6
CONTINUOUS
 62
    7
 10
199.0311585
 20
215.69998200000001
 40
0.500016
 50
0.001164
 51
179.99560600000004
  0
LINE
  8
_0-0_0
  6
CONTINUOUS
 62
    7
 10
198.5311585
 20
203.70001199999999
 11
198.5311585
 21
215.70001199999999
  0
ARC
  8
_0-0_0
  6
CONTINUOUS
 62
    7
 10
200.5311585
 20
203.70001199999999
 40
0.500016
 50
180.00117
 51
359.995611
  0
LINE
  8
_0-0_0
  6
CONTINUOUS
 62
    7
 10
201.0311585
 20
203.70001199999999
 11
201.0311585
 21
215.70001199999999
  0
ARC
  8
_0-0_0
  6
CONTINUOUS
 62
    7
 10
200.5311585
 20
215.69998200000001
 40
0.500016
 50
0.001164
 51
179.99560600000004
  0
LINE
  8
_0-0_0
  6
CONTINUOUS
 62
    7
 10
200.0311585
 20
203.70001199999999
 11
200.0311585
 21
215.70001199999999
  0
LINE
  8
_0-0_0
  6
CONTINUOUS
 62
    7
 10
190.0311585
 20
220
 11
206.7066035
 21
220
  0
LINE
  8
_0-0_0
  6
CONTINUOUS
 62
    7
 10
98.531158500000004
 20
223.75
 11
104.0311585
 21
223.75
  0
ARC
  8
_0-0_0
  6
CONTINUOUS
 62
    7
 10
98.531158500000004
 20
223.25
 40
0.5
 50
90.000003000000007
 51
179.99999099999999
  0
ARC
  8
_0-0_0
  6
CONTINUOUS
 62
    7
 10
98.531158500000004
 20
198.70001199999999
 40
0.5
 50
179.99999099999999
 51
269.99999700000001
  0
ARC
  8
_0-0_0
  6
CONTINUOUS
 62
    7
 10
98.531158500000004
 20
214
 40
0.5
 50
90.000003000000007
 51
179.99999099999999
  0
ARC
  8
_0-0_0
  6
CONTINUOUS
 62
    7
 10
206.7066035
 20
200.39999399999999
 40
2
 50
269.99999700000001
 51
288.43501300000003
  0
LINE
  8
_0-0_0
  6
CONTINUOUS
 62
    7
 10
202.0311585
 20
198.39999399999999
 11
202.0311585
 21
198.65005500000001
  0
LINE
  8
_0-0_0
  6
CONTINUOUS
 62
    7
 10
202.0311585
 20
203.89999399999999
 11
206.7066035
 21
203.89999399999999
  0
LINE
  8
_0-0_0
  6
CONTINUOUS
 62
    7
 10
207.33908049999999
 20
219.897369
 11
207.2195735
 21
219.93298300000001
  0
LINE
  8
_0-0_0
  6
CONTINUOUS
 62
    7
 10
207.2195735
 20
219.93298300000001
 11
207.09802249999998
 21
219.96087600000001
  0
LINE
  8
_0-0_0
  6
CONTINUOUS
 62
    7
 10
207.09802249999998
 20
219.96087600000001
 11
206.9748835
 21
219.980896
  0
LINE
  8
_0-0_0
  6
CONTINUOUS
 62
    7
 10
206.9748835
 20
219.980896
 11
206.85064650000001
 21
219.993011
  0
LINE
  8
_0-0_0
  6
CONTINUOUS
 62
    7
 10
206.85064650000001
 20
219.993011
 11
206.7258305
 21
219.997162
  0
LINE
  8
_0-0_0
  6
CONTINUOUS
 62
    7
 10
206.7258305
 20
219.997162
 11
206.7066035
 21
219.99707000000001
  0
ARC
  8
_0-0_0
  6
CONTINUOUS
 62
    7
 10
206.7066035
 20
218
 40
2
 50
71.565000999999995
 51
90.000003000000007
  0
LINE
  8
_0-0_0
  6
CONTINUOUS
 62
    7
 10
123.00271649999999
 20
210.39999399999999
 11
115.05963149999999
 21
210.39999399999999
  0
ARC
  8
_0-0_0
  6
CONTINUOUS
 62
    7
 10
115.05963149999999
 20
210.89999399999999
 40
0.5
 50
210.00000299999999
 51
269.99999700000001
  0
LINE
  8
_0-0_0
  6
CONTINUOUS
 62
    7
 10
114.62661750000001
 20
210.64999399999999
 11
112.5481565
 21
214.25
  0
ARC
  8
_0-0_0
  6
CONTINUOUS
 62
    7
 10
112.98117049999999
 20
214.5
 40
0.5
 50
149.99999700000001
 51
210.00000299999996
  0
LINE
  8
_0-0_0
  6
CONTINUOUS
 62
    7
 10
112.5481565
 20
214.75
 11
114.62661750000001
 21
218.35000600000001
  0
ARC
  8
_0-0_0
  6
CONTINUOUS
 62
    7
 10
115.05963149999999
 20
218.10000600000001
 40
0.5
 50
90.000003000000007
 51
149.99999700000001
  0
LINE
  8
_0-0_0
  6
CONTINUOUS
 62
    7
 10
115.05963149999999
 20
218.60000600000001
 11
123.00271649999999
 21
218.60000600000001
  0
ARC
  8
_0-0_0
  6
CONTINUOUS
 62
    7
 10
123.00271649999999
 20
218.10000600000001
 40
0.5
 50
30.000001000000001
 51
90.000003000000007
  0
LINE
  8
_0-0_0
  6
CONTINUOUS
 62
    7
 10
123.43572950000001
 20
218.35000600000001
 11
125.51419049999998
 21
214.75
  0
ARC
  8
_0-0_0
  6
CONTINUOUS
 62
    7
 10
125.0811765
 20
214.5
 40
0.5
 50
329.99998900000003
 51
30.000000999999983
  0
LINE
  8
_0-0_0
  6
CONTINUOUS
 62
    7
 10
125.51419049999998
 20
214.25
 11
123.43572950000001
 21
210.64999399999999
  0
ARC
  8
_0-0_0
  6
CONTINUOUS
 62
    7
 10
123.00271649999999
 20
210.89999399999999
 40
0.5
 50
269.99999700000001
 51
329.99998900000003
  0
ARC
  8
_0-0_0
  6
CONTINUOUS
 62
    7
 10
171.0018925
 20
211
 40
0.5
 50
210.00000299999999
 51
269.99999700000001
  0
LINE
  8
_0-0_0
  6
CONTINUOUS
 62
    7
 10
170.56887849999998
 20
210.75
 11
168.5481565
 21
214.25
  0
ARC
  8
_0-0_0
  6
CONTINUOUS
 62
    7
 10
168.98117049999999
 20
214.5
 40
0.5
 50
149.99999700000001
 51
210.00000299999996
  0
LINE
  8
_0-0_0
  6
CONTINUOUS
 62
    7
 10
168.5481565
 20
214.75
 11
170.56887849999998
 21
218.25
  0
ARC
  8
_0-0_0
  6
CONTINUOUS
 62
    7
 10
171.0018925
 20
218
 40
0.5
 50
90.000003000000007
 51
149.99999700000001
  0
LINE
  8
_0-0_0
  6
CONTINUOUS
 62
    7
 10
171.0018925
 20
218.5
 11
179.06045549999999
 21
218.5
  0
ARC
  8
_0-0_0
  6
CONTINUOUS
 62
    7
 10
179.06045549999999
 20
218
 40
0.5
 50
30.000001000000001
 51
90.000003000000007
  0
LINE
  8
_0-0_0
  6
CONTINUOUS
 62
    7
 10
179.4934695
 20
218.25
 11
181.51419049999998
 21
214.75
  0
ARC
  8
_0-0_0
  6
CONTINUOUS
 62
    7
 10
181.0811765
 20
214.5
 40
0.5
 50
329.99998900000003
 51
30.000000999999983
  0
LINE
  8
_0-0_0
  6
CONTINUOUS
 62
    7
 10
181.51419049999998
 20
214.25
 11
179.4934695
 21
210.75
  0
ARC
  8
_0-0_0
  6
CONTINUOUS
 62
    7
 10
179.06045549999999
 20
211
 40
0.5
 50
269.99999700000001
 51
329.99998900000003
  0
LINE
  8
_0-0_0
  6
CONTINUOUS
 62
    7
 10
179.06045549999999
 20
210.5
 11
171.0018925
 21
210.5
  0
LINE
  8
_0-0_0
  6
CONTINUOUS
 62
    7
 10
101.0311585
 20
219.13043200000001
 11
101.0311585
 21
218.30419900000001
  0
LINE
  8
_0-0_0
  6
CONTINUOUS
 62
    7
 10
98.531158500000004
 20
214.5
 11
100.73117049999999
 21
214.5
  0
LINE
  8
_0-0_0
  6
CONTINUOUS
 62
    7
 10
101.0311585
 20
214.79998800000001
 11
101.0311585
 21
217.02829
  0
LINE
  8
_0-0_0
  6
CONTINUOUS
 62
    7
 10
101.0311585
 20
219.29968299999999
 11
101.0311585
 21
219.13043200000001
  0
LINE
  8
_0-0_0
  6
CONTINUOUS
 62
    7
 10
109.23117049999999
 20
219.89999399999999
 11
108.8311765
 21
219.89999399999999
  0
LINE
  8
_0-0_0
  6
CONTINUOUS
 62
    7
 10
109.23117049999999
 20
219.89999399999999
 11
109.23117049999999
 21
220.54998800000001
  0
ARC
  8
_0-0_0
  6
CONTINUOUS
 62
    7
 10
109.48117049999999
 20
220.54998800000001
 40
0.25
 50
90.000003000000007
 51
179.99999099999999
  0
LINE
  8
_0-0_0
  6
CONTINUOUS
 62
    7
 10
109.48117049999999
 20
220.79998800000001
 11
110.13116449999998
 21
220.79998800000001
  0
LINE
  8
_0-0_0
  6
CONTINUOUS
 62
    7
 10
110.13116449999998
 20
220.79998800000001
 11
110.13116449999998
 21
221.20001199999999
  0
LINE
  8
_0-0_0
  6
CONTINUOUS
 62
    7
 10
109.48117049999999
 20
221.20001199999999
 11
110.13116449999998
 21
221.20001199999999
  0
ARC
  8
_0-0_0
  6
CONTINUOUS
 62
    7
 10
109.48117049999999
 20
221.45001199999999
 40
0.25
 50
179.99999099999999
 51
269.99999700000001
  0
LINE
  8
_0-0_0
  6
CONTINUOUS
 62
    7
 10
109.23117049999999
 20
222.10000600000001
 11
109.23117049999999
 21
221.45001199999999
  0
LINE
  8
_0-0_0
  6
CONTINUOUS
 62
    7
 10
109.23117049999999
 20
222.10000600000001
 11
108.8311765
 21
222.10000600000001
  0
LINE
  8
_0-0_0
  6
CONTINUOUS
 62
    7
 10
108.8311765
 20
222.10000600000001
 11
108.8311765
 21
221.45001199999999
  0
ARC
  8
_0-0_0
  6
CONTINUOUS
 62
    7
 10
108.5811765
 20
221.45001199999999
 40
0.25
 50
269.99999700000001
 51
0
  0
LINE
  8
_0-0_0
  6
CONTINUOUS
 62
    7
 10
108.5811765
 20
221.20001199999999
 11
107.9311525
 21
221.20001199999999
  0
LINE
  8
_0-0_0
  6
CONTINUOUS
 62
    7
 10
107.9311525
 20
220.79998800000001
 11
107.9311525
 21
221.20001199999999
  0
LINE
  8
_0-0_0
  6
CONTINUOUS
 62
    7
 10
108.5811765
 20
220.79998800000001
 11
107.9311525
 21
220.79998800000001
  0
ARC
  8
_0-0_0
  6
CONTINUOUS
 62
    7
 10
108.5811765
 20
220.54998800000001
 40
0.25
 50
0
 51
90.000003000000007
  0
LINE
  8
_0-0_0
  6
CONTINUOUS
 62
    7
 10
108.8311765
 20
219.89999399999999
 11
108.8311765
 21
220.54998800000001
  0
LINE
  8
_0-0_0
  6
CONTINUOUS
 62
    7
 10
188.23117049999999
 20
219.89999399999999
 11
187.8311765
 21
219.89999399999999
  0
LINE
  8
_0-0_0
  6
CONTINUOUS
 62
    7
 10
188.23117049999999
 20
219.89999399999999
 11
188.23117049999999
 21
220.54998800000001
  0
ARC
  8
_0-0_0
  6
CONTINUOUS
 62
    7
 10
188.48117049999999
 20
220.54998800000001
 40
0.25
 50
90.000003000000007
 51
179.99999099999999
  0
LINE
  8
_0-0_0
  6
CONTINUOUS
 62
    7
 10
188.48117049999999
 20
220.79998800000001
 11
189.13116449999998
 21
220.79998800000001
  0
LINE
  8
_0-0_0
  6
CONTINUOUS
 62
    7
 10
189.13116449999998
 20
220.79998800000001
 11
189.13116449999998
 21
221.20001199999999
  0
LINE
  8
_0-0_0
  6
CONTINUOUS
 62
    7
 10
188.48117049999999
 20
221.20001199999999
 11
189.13116449999998
 21
221.20001199999999
  0
ARC
  8
_0-0_0
  6
CONTINUOUS
 62
    7
 10
188.48117049999999
 20
221.45001199999999
 40
0.25
 50
179.99999099999999
 51
269.99999700000001
  0
LINE
  8
_0-0_0
  6
CONTINUOUS
 62
    7
 10
188.23117049999999
 20
222.10000600000001
 11
188.23117049999999
 21
221.45001199999999
  0
LINE
  8
_0-0_0
  6
CONTINUOUS
 62
    7
 10
188.23117049999999
 20
222.10000600000001
 11
187.8311765
 21
222.10000600000001
  0
LINE
  8
_0-0_0
  6
CONTINUOUS
 62
    7
 10
187.8311765
 20
222.10000600000001
 11
187.8311765
 21
221.45001199999999
  0
ARC
  8
_0-0_0
  6
CONTINUOUS
 62
    7
 10
187.5811765
 20
221.45001199999999
 40
0.25
 50
269.99999700000001
 51
0
  0
LINE
  8
_0-0_0
  6
CONTINUOUS
 62
    7
 10
187.5811765
 20
221.20001199999999
 11
186.93118250000001
 21
221.20001199999999
  0
LINE
  8
_0-0_0
  6
CONTINUOUS
 62
    7
 10
186.93118250000001
 20
220.79998800000001
 11
186.93118250000001
 21
221.20001199999999
  0
LINE
  8
_0-0_0
  6
CONTINUOUS
 62
    7
 10
187.5811765
 20
220.79998800000001
 11
186.93118250000001
 21
220.79998800000001
  0
ARC
  8
_0-0_0
  6
CONTINUOUS
 62
    7
 10
187.5811765
 20
220.54998800000001
 40
0.25
 50
0
 51
90.000003000000007
  0
LINE
  8
_0-0_0
  6
CONTINUOUS
 62
    7
 10
187.8311765
 20
219.89999399999999
 11
187.8311765
 21
220.54998800000001
  0
LINE
  8
_0-0_0
  6
CONTINUOUS
 62
    7
 10
207.7811585
 20
198.64999399999999
 11
207.33908049999999
 21
198.50262499999999
  0
LINE
  8
_0-0_0
  6
CONTINUOUS
 62
    7
 10
211.50552349999998
 20
203.89999399999999
 11
212.19888350000002
 21
203.89999399999999
  0
LINE
  8
_0-0_0
  6
CONTINUOUS
 62
    7
 10
211.50552349999998
 20
203.89999399999999
 11
207.1809695
 21
203.89999399999999
  0
LINE
  8
_0-0_0
  6
CONTINUOUS
 62
    7
 10
206.7066035
 20
203.89999399999999
 11
207.1809695
 21
203.89999399999999
  0
LINE
  8
_0-0_0
  6
CONTINUOUS
 62
    7
 10
211.66360450000002
 20
218.45584099999999
 11
207.33908049999999
 21
219.897369
  0
LINE
  8
_0-0_0
  6
CONTINUOUS
 62
    7
 10
101.0311585
 20
218.30419900000001
 11
101.0311585
 21
217.02829
  0
ARC
  8
_0-0_0
  6
CONTINUOUS
 62
    7
 10
100.73117049999999
 20
214.79998800000001
 40
0.2999999999999999
 50
269.99999700000001
 51
0
  0
LINE
  8
_0-0_0
  6
CONTINUOUS
 62
    7
 10
98.575500500000004
 20
218.57870500000001
 11
98.575500500000004
 21
215.25
  0
LINE
  8
_0-0_0
  6
CONTINUOUS
 62
    7
 10
98.575500500000004
 20
219.75
 11
98.575500500000004
 21
218.57870500000001
  0
LINE
  8
_0-0_0
  6
CONTINUOUS
 62
    7
 10
213.0311585
 20
203.14996300000001
 11
213.0311585
 21
204.270996
  0
LINE
  8
_0-0_0
  6
CONTINUOUS
 62
    7
 10
213.0311585
 20
205.19232199999999
 11
213.0311585
 21
204.270996
  0
LINE
  8
_0-0_0
  6
CONTINUOUS
 62
    7
 10
212.73117050000002
 20
206.98800700000001
 11
212.78994749999998
 21
206.74118000000001
  0
LINE
  8
_0-0_0
  6
CONTINUOUS
 62
    7
 10
212.78994749999998
 20
206.74118000000001
 11
212.8397215
 21
206.54882799999999
  0
LINE
  8
_0-0_0
  6
CONTINUOUS
 62
    7
 10
212.8397215
 20
206.54882799999999
 11
212.91085850000002
 21
206.283051
  0
LINE
  8
_0-0_0
  6
CONTINUOUS
 62
    7
 10
212.91085850000002
 20
206.283051
 11
212.94381750000002
 21
206.15631099999999
  0
LINE
  8
_0-0_0
  6
CONTINUOUS
 62
    7
 10
212.94381750000002
 20
206.15631099999999
 11
212.96908550000001
 21
206.05291700000001
  0
LINE
  8
_0-0_0
  6
CONTINUOUS
 62
    7
 10
212.96908550000001
 20
206.05291700000001
 11
212.99111949999997
 21
205.95297199999999
  0
LINE
  8
_0-0_0
  6
CONTINUOUS
 62
    7
 10
212.99111949999997
 20
205.95297199999999
 11
213.01248149999998
 21
205.83526599999999
  0
LINE
  8
_0-0_0
  6
CONTINUOUS
 62
    7
 10
213.01248149999998
 20
205.83526599999999
 11
213.02105749999998
 21
205.773132
  0
LINE
  8
_0-0_0
  6
CONTINUOUS
 62
    7
 10
213.02105749999998
 20
205.773132
 11
213.0271305
 21
205.712524
  0
LINE
  8
_0-0_0
  6
CONTINUOUS
 62
    7
 10
213.0271305
 20
205.712524
 11
213.03012050000001
 21
205.66326900000001
  0
LINE
  8
_0-0_0
  6
CONTINUOUS
 62
    7
 10
213.03012050000001
 20
205.66326900000001
 11
213.0311585
 21
205.61505099999999
  0
LINE
  8
_0-0_0
  6
CONTINUOUS
 62
    7
 10
212.73117050000002
 20
211.41201799999999
 11
212.64770549999997
 21
211.033356
  0
LINE
  8
_0-0_0
  6
CONTINUOUS
 62
    7
 10
212.64770549999997
 20
211.033356
 11
212.60760449999998
 21
210.84182699999999
  0
LINE
  8
_0-0_0
  6
CONTINUOUS
 62
    7
 10
212.60760449999998
 20
210.84182699999999
 11
212.55154449999998
 21
210.55178799999999
  0
LINE
  8
_0-0_0
  6
CONTINUOUS
 62
    7
 10
212.55154449999998
 20
210.55178799999999
 11
212.51394649999997
 21
210.33221399999999
  0
LINE
  8
_0-0_0
  6
CONTINUOUS
 62
    7
 10
212.51394649999997
 20
210.33221399999999
 11
212.4812925
 21
210.110962
  0
LINE
  8
_0-0_0
  6
CONTINUOUS
 62
    7
 10
212.4812925
 20
210.110962
 11
212.45413250000001
 21
209.88415499999999
  0
LINE
  8
_0-0_0
  6
CONTINUOUS
 62
    7
 10
212.45413250000001
 20
209.88415499999999
 11
212.43405150000001
 21
209.656769
  0
LINE
  8
_0-0_0
  6
CONTINUOUS
 62
    7
 10
212.43405150000001
 20
209.656769
 11
212.42691050000002
 21
209.54302999999999
  0
LINE
  8
_0-0_0
  6
CONTINUOUS
 62
    7
 10
212.42691050000002
 20
209.54302999999999
 11
212.42172249999999
 21
209.42935199999999
  0
LINE
  8
_0-0_0
  6
CONTINUOUS
 62
    7
 10
212.42172249999999
 20
209.42935199999999
 11
212.41802949999999
 21
209.27792400000001
  0
LINE
  8
_0-0_0
  6
CONTINUOUS
 62
    7
 10
212.41802949999999
 20
209.27792400000001
 11
212.41796849999997
 21
209.12664799999999
  0
LINE
  8
_0-0_0
  6
CONTINUOUS
 62
    7
 10
212.41796849999997
 20
209.12664799999999
 11
212.42153949999999
 21
208.975616
  0
LINE
  8
_0-0_0
  6
CONTINUOUS
 62
    7
 10
212.42153949999999
 20
208.975616
 11
212.4310605
 21
208.787048
  0
LINE
  8
_0-0_0
  6
CONTINUOUS
 62
    7
 10
212.4310605
 20
208.787048
 11
212.44592249999999
 21
208.598816
  0
LINE
  8
_0-0_0
  6
CONTINUOUS
 62
    7
 10
212.44592249999999
 20
208.598816
 11
212.46585049999999
 21
208.41085799999999
  0
LINE
  8
_0-0_0
  6
CONTINUOUS
 62
    7
 10
212.46585049999999
 20
208.41085799999999
 11
212.48220850000001
 21
208.281982
  0
LINE
  8
_0-0_0
  6
CONTINUOUS
 62
    7
 10
212.48220850000001
 20
208.281982
 11
212.50064049999997
 21
208.15335099999999
  0
LINE
  8
_0-0_0
  6
CONTINUOUS
 62
    7
 10
212.50064049999997
 20
208.15335099999999
 11
212.5248105
 21
208.00140400000001
  0
LINE
  8
_0-0_0
  6
CONTINUOUS
 62
    7
 10
212.5248105
 20
208.00140400000001
 11
212.55117749999999
 21
207.850067
  0
LINE
  8
_0-0_0
  6
CONTINUOUS
 62
    7
 10
212.55117749999999
 20
207.850067
 11
212.60736049999997
 21
207.559448
  0
LINE
  8
_0-0_0
  6
CONTINUOUS
 62
    7
 10
212.60736049999997
 20
207.559448
 11
212.64752149999998
 21
207.367493
  0
LINE
  8
_0-0_0
  6
CONTINUOUS
 62
    7
 10
212.64752149999998
 20
207.367493
 11
212.73117050000002
 21
206.98800700000001
  0
LINE
  8
_0-0_0
  6
CONTINUOUS
 62
    7
 10
212.73117050000002
 20
211.41201799999999
 11
212.78994749999998
 21
211.65887499999999
  0
LINE
  8
_0-0_0
  6
CONTINUOUS
 62
    7
 10
212.78994749999998
 20
211.65887499999999
 11
212.8397215
 21
211.85119599999999
  0
LINE
  8
_0-0_0
  6
CONTINUOUS
 62
    7
 10
212.8397215
 20
211.85119599999999
 11
212.91085850000002
 21
212.11694299999999
  0
LINE
  8
_0-0_0
  6
CONTINUOUS
 62
    7
 10
212.91085850000002
 20
212.11694299999999
 11
212.94381750000002
 21
212.243652
  0
LINE
  8
_0-0_0
  6
CONTINUOUS
 62
    7
 10
212.94381750000002
 20
212.243652
 11
212.96908550000001
 21
212.34707599999999
  0
LINE
  8
_0-0_0
  6
CONTINUOUS
 62
    7
 10
212.96908550000001
 20
212.34707599999999
 11
212.99111949999997
 21
212.44705200000001
  0
LINE
  8
_0-0_0
  6
CONTINUOUS
 62
    7
 10
212.99111949999997
 20
212.44705200000001
 11
213.01248149999998
 21
212.56475800000001
  0
LINE
  8
_0-0_0
  6
CONTINUOUS
 62
    7
 10
213.01248149999998
 20
212.56475800000001
 11
213.02105749999998
 21
212.626892
  0
LINE
  8
_0-0_0
  6
CONTINUOUS
 62
    7
 10
213.02105749999998
 20
212.626892
 11
213.0271305
 21
212.6875
  0
LINE
  8
_0-0_0
  6
CONTINUOUS
 62
    7
 10
213.0271305
 20
212.6875
 11
213.03012050000001
 21
212.73672500000001
  0
LINE
  8
_0-0_0
  6
CONTINUOUS
 62
    7
 10
213.03012050000001
 20
212.73672500000001
 11
213.0311585
 21
212.784943
  0
LINE
  8
_0-0_0
  6
CONTINUOUS
 62
    7
 10
213.0311585
 20
216.55847199999999
 11
213.0311585
 21
213.20770300000001
  0
ARC
  8
_0-0_0
  6
CONTINUOUS
 62
    7
 10
211.0311585
 20
216.55847199999999
 40
2
 50
0
 51
71.565000999999995
  0
CIRCLE
  8
_0-0_0
  6
CONTINUOUS
 62
    7
 10
119.0311585
 20
214.5
 40
2.5
  0
CIRCLE
  8
_0-0_0
  6
CONTINUOUS
 62
    7
 10
175.0311585
 20
214.5
 40
2.5
  0
LINE
  8
_0-0_0
  6
CONTINUOUS
 62
    7
 10
98.431152499999996
 20
218.45886200000001
 11
98.431152499999996
 21
215.5
  0
LINE
  8
_0-0_0
  6
CONTINUOUS
 62
    7
 10
98.431152499999996
 20
219.5
 11
98.431152499999996
 21
218.45886200000001
  0
LINE
  8
_0-0_0
  6
CONTINUOUS
 62
    7
 10
228.0311585
 20
199.67456100000001
 11
228.0311585
 21
199.82128900000001
  0
LINE
  8
_0-0_0
  6
CONTINUOUS
 62
    7
 10
228.0311585
 20
199.484039
 11
228.0311585
 21
199.67456100000001
  0
LINE
  8
_0-0_0
  6
CONTINUOUS
 62
    7
 10
228.0311585
 20
199.309021
 11
228.0311585
 21
199.484039
  0
LINE
  8
_0-0_0
  6
CONTINUOUS
 62
    7
 10
228.0311585
 20
199.15142800000001
 11
228.0311585
 21
199.309021
  0
LINE
  8
_0-0_0
  6
CONTINUOUS
 62
    7
 10
228.0311585
 20
199.01300000000001
 11
228.0311585
 21
199.15142800000001
  0
LINE
  8
_0-0_0
  6
CONTINUOUS
 62
    7
 10
228.0311585
 20
198.89523299999999
 11
228.0311585
 21
199.01300000000001
  0
LINE
  8
_0-0_0
  6
CONTINUOUS
 62
    7
 10
228.0311585
 20
198.79943800000001
 11
228.0311585
 21
198.89523299999999
  0
LINE
  8
_0-0_0
  6
CONTINUOUS
 62
    7
 10
228.0311585
 20
198.64999399999999
 11
228.0311585
 21
198.79943800000001
  0
LINE
  8
_0-0_0
  6
CONTINUOUS
 62
    7
 10
228.0311585
 20
198.67770400000001
 11
228.0311585
 21
198.726685
  0
LINE
  8
_0-0_0
  6
CONTINUOUS
 62
    7
 10
228.0311585
 20
198.653076
 11
228.0311585
 21
198.67770400000001
  0
LINE
  8
_0-0_0
  6
CONTINUOUS
 62
    7
 10
228.0311585
 20
198.64999399999999
 11
228.0311585
 21
198.653076
  0
LINE
  8
_0-0_0
  6
CONTINUOUS
 62
    7
 10
228.0311585
 20
203.14691199999999
 11
228.0311585
 21
203.14999399999999
  0
LINE
  8
_0-0_0
  6
CONTINUOUS
 62
    7
 10
228.0311585
 20
203.12231399999999
 11
228.0311585
 21
203.14999399999999
  0
LINE
  8
_0-0_0
  6
CONTINUOUS
 62
    7
 10
228.0311585
 20
203.07333399999999
 11
228.0311585
 21
203.12231399999999
  0
LINE
  8
_0-0_0
  6
CONTINUOUS
 62
    7
 10
228.0311585
 20
203.00054900000001
 11
228.0311585
 21
203.07333399999999
  0
LINE
  8
_0-0_0
  6
CONTINUOUS
 62
    7
 10
228.0311585
 20
202.90475499999999
 11
228.0311585
 21
203.00054900000001
  0
LINE
  8
_0-0_0
  6
CONTINUOUS
 62
    7
 10
228.0311585
 20
202.874573
 11
228.0311585
 21
202.90475499999999
  0
LINE
  8
_0-0_0
  6
CONTINUOUS
 62
    7
 10
228.0311585
 20
202.78701799999999
 11
228.0311585
 21
202.874573
  0
LINE
  8
_0-0_0
  6
CONTINUOUS
 62
    7
 10
228.0311585
 20
202.64859000000001
 11
228.0311585
 21
202.78701799999999
  0
LINE
  8
_0-0_0
  6
CONTINUOUS
 62
    7
 10
228.0311585
 20
202.49099699999999
 11
228.0311585
 21
202.64859000000001
  0
LINE
  8
_0-0_0
  6
CONTINUOUS
 62
    7
 10
228.0311585
 20
202.315979
 11
228.0311585
 21
202.49099699999999
  0
LINE
  8
_0-0_0
  6
CONTINUOUS
 62
    7
 10
228.0311585
 20
202.125427
 11
228.0311585
 21
202.315979
  0
LINE
  8
_0-0_0
  6
CONTINUOUS
 62
    7
 10
228.0311585
 20
201.92147800000001
 11
228.0311585
 21
202.125427
  0
LINE
  8
_0-0_0
  6
CONTINUOUS
 62
    7
 10
228.0311585
 20
201.70632900000001
 11
228.0311585
 21
201.92147800000001
  0
LINE
  8
_0-0_0
  6
CONTINUOUS
 62
    7
 10
228.0311585
 20
201.482361
 11
228.0311585
 21
201.70632900000001
  0
LINE
  8
_0-0_0
  6
CONTINUOUS
 62
    7
 10
228.0311585
 20
201.25198399999999
 11
228.0311585
 21
201.482361
  0
LINE
  8
_0-0_0
  6
CONTINUOUS
 62
    7
 10
228.0311585
 20
201.01776100000001
 11
228.0311585
 21
201.25198399999999
  0
LINE
  8
_0-0_0
  6
CONTINUOUS
 62
    7
 10
228.0311585
 20
200.78225699999999
 11
228.0311585
 21
201.01776100000001
  0
LINE
  8
_0-0_0
  6
CONTINUOUS
 62
    7
 10
228.0311585
 20
200.548035
 11
228.0311585
 21
200.78225699999999
  0
LINE
  8
_0-0_0
  6
CONTINUOUS
 62
    7
 10
228.0311585
 20
200.317657
 11
228.0311585
 21
200.548035
  0
LINE
  8
_0-0_0
  6
CONTINUOUS
 62
    7
 10
228.0311585
 20
200.09368900000001
 11
228.0311585
 21
200.317657
  0
LINE
  8
_0-0_0
  6
CONTINUOUS
 62
    7
 10
228.0311585
 20
199.87853999999999
 11
228.0311585
 21
200.09368900000001
  0
LINE
  8
_0-0_0
  6
CONTINUOUS
 62
    7
 10
228.0311585
 20
199.82128900000001
 11
228.0311585
 21
199.87853999999999
  0
LINE
  8
_0-0_0
  6
CONTINUOUS
 62
    7
 10
213.0311585
 20
207.63793899999999
 11
213.0311585
 21
206.59231600000001
  0
LINE
  8
_0-0_0
  6
CONTINUOUS
 62
    7
 10
213.0311585
 20
205.30770899999999
 11
213.0311585
 21
206.59231600000001
  0
LINE
  8
_0-0_0
  6
CONTINUOUS
 62
    7
 10
213.0311585
 20
205.19232199999999
 11
213.0311585
 21
205.30770899999999
  0
LINE
  8
_0-0_0
  6
CONTINUOUS
 62
    7
 10
213.0311585
 20
207.63793899999999
 11
213.0311585
 21
210.76205400000001
  0
LINE
  8
_0-0_0
  6
CONTINUOUS
 62
    7
 10
213.0311585
 20
213.20770300000001
 11
213.0311585
 21
213.09231600000001
  0
LINE
  8
_0-0_0
  6
CONTINUOUS
 62
    7
 10
213.0311585
 20
211.80770899999999
 11
213.0311585
 21
213.09231600000001
  0
LINE
  8
_0-0_0
  6
CONTINUOUS
 62
    7
 10
213.0311585
 20
211.80770899999999
 11
213.0311585
 21
210.76205400000001
  0
LINE
  8
_0-0_0
  6
CONTINUOUS
 62
    7
 10
213.0311585
 20
213.09231600000001
 11
222.73898350000002
 21
213.09231600000001
  0
LINE
  8
_0-0_0
  6
CONTINUOUS
 62
    7
 10
222.73898350000002
 20
215.70001199999999
 11
222.79348749999997
 21
215.630066
  0
LINE
  8
_0-0_0
  6
CONTINUOUS
 62
    7
 10
222.79348749999997
 20
215.630066
 11
222.84457350000002
 21
215.561249
  0
LINE
  8
_0-0_0
  6
CONTINUOUS
 62
    7
 10
222.84457350000002
 20
215.561249
 11
222.89221149999997
 21
215.49374399999999
  0
LINE
  8
_0-0_0
  6
CONTINUOUS
 62
    7
 10
222.89221149999997
 20
215.49374399999999
 11
222.93670650000001
 21
215.42718500000001
  0
LINE
  8
_0-0_0
  6
CONTINUOUS
 62
    7
 10
222.93670650000001
 20
215.42718500000001
 11
222.99142449999999
 21
215.33966100000001
  0
LINE
  8
_0-0_0
  6
CONTINUOUS
 62
    7
 10
222.99142449999999
 20
215.33966100000001
 11
223.04092450000002
 21
215.25353999999999
  0
LINE
  8
_0-0_0
  6
CONTINUOUS
 62
    7
 10
223.04092450000002
 20
215.25353999999999
 11
223.0854185
 21
215.168701
  0
LINE
  8
_0-0_0
  6
CONTINUOUS
 62
    7
 10
223.0854185
 20
215.168701
 11
223.13235450000002
 21
215.06838999999999
  0
LINE
  8
_0-0_0
  6
CONTINUOUS
 62
    7
 10
223.13235450000002
 20
215.06838999999999
 11
223.17257649999999
 21
214.969482
  0
LINE
  8
_0-0_0
  6
CONTINUOUS
 62
    7
 10
223.17257649999999
 20
214.969482
 11
223.20623749999999
 21
214.87170399999999
  0
LINE
  8
_0-0_0
  6
CONTINUOUS
 62
    7
 10
223.20623749999999
 20
214.87170399999999
 11
223.23355049999998
 21
214.774902
  0
LINE
  8
_0-0_0
  6
CONTINUOUS
 62
    7
 10
223.23355049999998
 20
214.774902
 11
223.25457749999998
 21
214.678864
  0
LINE
  8
_0-0_0
  6
CONTINUOUS
 62
    7
 10
223.25457749999998
 20
214.678864
 11
223.27050750000001
 21
214.57501199999999
  0
LINE
  8
_0-0_0
  6
CONTINUOUS
 62
    7
 10
223.27050750000001
 20
214.57501199999999
 11
223.27926650000001
 21
214.47155799999999
  0
LINE
  8
_0-0_0
  6
CONTINUOUS
 62
    7
 10
223.27926650000001
 20
214.47155799999999
 11
223.28091449999999
 21
214.368347
  0
LINE
  8
_0-0_0
  6
CONTINUOUS
 62
    7
 10
223.28091449999999
 20
214.368347
 11
223.27542149999999
 21
214.26504499999999
  0
LINE
  8
_0-0_0
  6
CONTINUOUS
 62
    7
 10
223.27542149999999
 20
214.26504499999999
 11
223.26281749999998
 21
214.161438
  0
LINE
  8
_0-0_0
  6
CONTINUOUS
 62
    7
 10
223.26281749999998
 20
214.161438
 11
223.24301150000002
 21
214.057312
  0
LINE
  8
_0-0_0
  6
CONTINUOUS
 62
    7
 10
223.24301150000002
 20
214.057312
 11
223.21585049999999
 21
213.95233200000001
  0
LINE
  8
_0-0_0
  6
CONTINUOUS
 62
    7
 10
223.21585049999999
 20
213.95233200000001
 11
223.18121350000001
 21
213.84631300000001
  0
LINE
  8
_0-0_0
  6
CONTINUOUS
 62
    7
 10
223.18121350000001
 20
213.84631300000001
 11
223.13888550000001
 21
213.738922
  0
LINE
  8
_0-0_0
  6
CONTINUOUS
 62
    7
 10
223.13888550000001
 20
213.738922
 11
223.08853149999999
 21
213.62994399999999
  0
LINE
  8
_0-0_0
  6
CONTINUOUS
 62
    7
 10
223.08853149999999
 20
213.62994399999999
 11
223.03430149999997
 21
213.526794
  0
LINE
  8
_0-0_0
  6
CONTINUOUS
 62
    7
 10
223.03430149999997
 20
213.526794
 11
222.97259550000001
 21
213.42172199999999
  0
LINE
  8
_0-0_0
  6
CONTINUOUS
 62
    7
 10
222.97259550000001
 20
213.42172199999999
 11
222.9030765
 21
213.314514
  0
LINE
  8
_0-0_0
  6
CONTINUOUS
 62
    7
 10
222.9030765
 20
213.314514
 11
222.82534750000002
 21
213.204803
  0
LINE
  8
_0-0_0
  6
CONTINUOUS
 62
    7
 10
222.82534750000002
 20
213.204803
 11
222.73898350000002
 21
213.09231600000001
  0
LINE
  8
_0-0_0
  6
CONTINUOUS
 62
    7
 10
213.0311585
 20
215.70001199999999
 11
222.73898350000002
 21
215.70001199999999
  0
LINE
  8
_0-0_0
  6
CONTINUOUS
 62
    7
 10
222.7811585
 20
215.70001199999999
 11
222.73898350000002
 21
215.70001199999999
  0
LINE
  8
_0-0_0
  6
CONTINUOUS
 62
    7
 10
213.0311585
 20
205.30770899999999
 11
222.73898350000002
 21
205.30770899999999
  0
LINE
  8
_0-0_0
  6
CONTINUOUS
 62
    7
 10
222.73898350000002
 20
205.30770899999999
 11
222.79348749999997
 21
205.237762
  0
LINE
  8
_0-0_0
  6
CONTINUOUS
 62
    7
 10
222.79348749999997
 20
205.237762
 11
222.84457350000002
 21
205.16894500000001
  0
LINE
  8
_0-0_0
  6
CONTINUOUS
 62
    7
 10
222.84457350000002
 20
205.16894500000001
 11
222.89221149999997
 21
205.10144
  0
LINE
  8
_0-0_0
  6
CONTINUOUS
 62
    7
 10
222.89221149999997
 20
205.10144
 11
222.93670650000001
 21
205.03488200000001
  0
LINE
  8
_0-0_0
  6
CONTINUOUS
 62
    7
 10
222.93670650000001
 20
205.03488200000001
 11
222.99142449999999
 21
204.94735700000001
  0
LINE
  8
_0-0_0
  6
CONTINUOUS
 62
    7
 10
222.99142449999999
 20
204.94735700000001
 11
223.04092450000002
 21
204.86123699999999
  0
LINE
  8
_0-0_0
  6
CONTINUOUS
 62
    7
 10
223.04092450000002
 20
204.86123699999999
 11
223.0854185
 21
204.776398
  0
LINE
  8
_0-0_0
  6
CONTINUOUS
 62
    7
 10
223.0854185
 20
204.776398
 11
223.13235450000002
 21
204.676086
  0
LINE
  8
_0-0_0
  6
CONTINUOUS
 62
    7
 10
223.13235450000002
 20
204.676086
 11
223.17257649999999
 21
204.577179
  0
LINE
  8
_0-0_0
  6
CONTINUOUS
 62
    7
 10
223.17257649999999
 20
204.577179
 11
223.20623749999999
 21
204.479401
  0
LINE
  8
_0-0_0
  6
CONTINUOUS
 62
    7
 10
223.20623749999999
 20
204.479401
 11
223.23355049999998
 21
204.382599
  0
LINE
  8
_0-0_0
  6
CONTINUOUS
 62
    7
 10
223.23355049999998
 20
204.382599
 11
223.25457749999998
 21
204.28656000000001
  0
LINE
  8
_0-0_0
  6
CONTINUOUS
 62
    7
 10
223.25457749999998
 20
204.28656000000001
 11
223.27050750000001
 21
204.18270899999999
  0
LINE
  8
_0-0_0
  6
CONTINUOUS
 62
    7
 10
223.27050750000001
 20
204.18270899999999
 11
223.27926650000001
 21
204.07925399999999
  0
LINE
  8
_0-0_0
  6
CONTINUOUS
 62
    7
 10
223.27926650000001
 20
204.07925399999999
 11
223.28091449999999
 21
203.976044
  0
LINE
  8
_0-0_0
  6
CONTINUOUS
 62
    7
 10
223.28091449999999
 20
203.976044
 11
223.27542149999999
 21
203.87274199999999
  0
LINE
  8
_0-0_0
  6
CONTINUOUS
 62
    7
 10
223.27542149999999
 20
203.87274199999999
 11
223.26281749999998
 21
203.76913500000001
  0
LINE
  8
_0-0_0
  6
CONTINUOUS
 62
    7
 10
223.26281749999998
 20
203.76913500000001
 11
223.24301150000002
 21
203.665009
  0
LINE
  8
_0-0_0
  6
CONTINUOUS
 62
    7
 10
223.24301150000002
 20
203.665009
 11
223.21585049999999
 21
203.56002799999999
  0
LINE
  8
_0-0_0
  6
CONTINUOUS
 62
    7
 10
223.21585049999999
 20
203.56002799999999
 11
223.18121350000001
 21
203.45401000000001
  0
LINE
  8
_0-0_0
  6
CONTINUOUS
 62
    7
 10
223.18121350000001
 20
203.45401000000001
 11
223.13888550000001
 21
203.346619
  0
LINE
  8
_0-0_0
  6
CONTINUOUS
 62
    7
 10
223.13888550000001
 20
203.346619
 11
223.08853149999999
 21
203.23764
  0
LINE
  8
_0-0_0
  6
CONTINUOUS
 62
    7
 10
223.08853149999999
 20
203.23764
 11
223.04287749999997
 21
203.14996300000001
  0
LINE
  8
_0-0_0
  6
CONTINUOUS
 62
    7
 10
228.0311585
 20
199.67456100000001
 11
228.2811585
 21
199.64999399999999
  0
LINE
  8
_0-0_0
  6
CONTINUOUS
 62
    7
 10
228.0311585
 20
199.87853999999999
 11
228.2811585
 21
199.64999399999999
  0
LINE
  8
_0-0_0
  6
CONTINUOUS
 62
    7
 10
228.0311585
 20
199.484039
 11
228.2811585
 21
199.430542
  0
LINE
  8
_0-0_0
  6
CONTINUOUS
 62
    7
 10
228.0311585
 20
199.67456100000001
 11
228.2811585
 21
199.430542
  0
LINE
  8
_0-0_0
  6
CONTINUOUS
 62
    7
 10
228.0311585
 20
199.309021
 11
228.2811585
 21
199.22717299999999
  0
LINE
  8
_0-0_0
  6
CONTINUOUS
 62
    7
 10
228.0311585
 20
199.484039
 11
228.2811585
 21
199.22717299999999
  0
LINE
  8
_0-0_0
  6
CONTINUOUS
 62
    7
 10
228.0311585
 20
199.15142800000001
 11
228.2811585
 21
199.042145
  0
LINE
  8
_0-0_0
  6
CONTINUOUS
 62
    7
 10
228.0311585
 20
199.309021
 11
228.2811585
 21
199.042145
  0
LINE
  8
_0-0_0
  6
CONTINUOUS
 62
    7
 10
228.0311585
 20
199.01300000000001
 11
228.2811585
 21
198.87747200000001
  0
LINE
  8
_0-0_0
  6
CONTINUOUS
 62
    7
 10
228.0311585
 20
199.15142800000001
 11
228.2811585
 21
198.87747200000001
  0
LINE
  8
_0-0_0
  6
CONTINUOUS
 62
    7
 10
228.0311585
 20
198.89523299999999
 11
228.2811585
 21
198.73495500000001
  0
LINE
  8
_0-0_0
  6
CONTINUOUS
 62
    7
 10
228.0311585
 20
199.01300000000001
 11
228.2811585
 21
198.73495500000001
  0
LINE
  8
_0-0_0
  6
CONTINUOUS
 62
    7
 10
228.0311585
 20
198.79943800000001
 11
228.2811585
 21
198.61615
  0
LINE
  8
_0-0_0
  6
CONTINUOUS
 62
    7
 10
228.0311585
 20
198.89523299999999
 11
228.2811585
 21
198.61615
  0
LINE
  8
_0-0_0
  6
CONTINUOUS
 62
    7
 10
228.0311585
 20
198.726685
 11
228.2811585
 21
198.522369
  0
LINE
  8
_0-0_0
  6
CONTINUOUS
 62
    7
 10
228.0311585
 20
198.79943800000001
 11
228.2811585
 21
198.522369
  0
LINE
  8
_0-0_0
  6
CONTINUOUS
 62
    7
 10
228.0311585
 20
198.67770400000001
 11
228.2811585
 21
198.45462000000001
  0
LINE
  8
_0-0_0
  6
CONTINUOUS
 62
    7
 10
228.0311585
 20
198.726685
 11
228.2811585
 21
198.45462000000001
  0
LINE
  8
_0-0_0
  6
CONTINUOUS
 62
    7
 10
228.0311585
 20
198.653076
 11
228.2811585
 21
198.41369599999999
  0
LINE
  8
_0-0_0
  6
CONTINUOUS
 62
    7
 10
228.0311585
 20
198.67770400000001
 11
228.2811585
 21
198.41369599999999
  0
LINE
  8
_0-0_0
  6
CONTINUOUS
 62
    7
 10
228.0311585
 20
198.653076
 11
228.2811585
 21
198.39999399999999
  0
LINE
  8
_0-0_0
  6
CONTINUOUS
 62
    7
 10
228.0311585
 20
203.14691199999999
 11
228.2811585
 21
203.39999399999999
  0
LINE
  8
_0-0_0
  6
CONTINUOUS
 62
    7
 10
228.0311585
 20
203.12231399999999
 11
228.2811585
 21
203.38632200000001
  0
LINE
  8
_0-0_0
  6
CONTINUOUS
 62
    7
 10
228.0311585
 20
203.14691199999999
 11
228.2811585
 21
203.38632200000001
  0
LINE
  8
_0-0_0
  6
CONTINUOUS
 62
    7
 10
228.0311585
 20
203.07333399999999
 11
228.2811585
 21
203.34536700000001
  0
LINE
  8
_0-0_0
  6
CONTINUOUS
 62
    7
 10
228.0311585
 20
203.12231399999999
 11
228.2811585
 21
203.34536700000001
  0
LINE
  8
_0-0_0
  6
CONTINUOUS
 62
    7
 10
228.0311585
 20
203.00054900000001
 11
228.2811585
 21
203.277649
  0
LINE
  8
_0-0_0
  6
CONTINUOUS
 62
    7
 10
228.0311585
 20
203.07333399999999
 11
228.2811585
 21
203.277649
  0
LINE
  8
_0-0_0
  6
CONTINUOUS
 62
    7
 10
228.0311585
 20
202.90475499999999
 11
228.2811585
 21
203.18386799999999
  0
LINE
  8
_0-0_0
  6
CONTINUOUS
 62
    7
 10
228.0311585
 20
203.00054900000001
 11
228.2811585
 21
203.18386799999999
  0
LINE
  8
_0-0_0
  6
CONTINUOUS
 62
    7
 10
228.0311585
 20
202.90475499999999
 11
228.16113250000001
 21
202.988617
  0
LINE
  8
_0-0_0
  6
CONTINUOUS
 62
    7
 10
228.0311585
 20
202.78701799999999
 11
228.2811585
 21
203.06506300000001
  0
LINE
  8
_0-0_0
  6
CONTINUOUS
 62
    7
 10
228.16113250000001
 20
202.988617
 11
228.2811585
 21
203.06506300000001
  0
LINE
  8
_0-0_0
  6
CONTINUOUS
 62
    7
 10
228.0311585
 20
202.64859000000001
 11
228.2811585
 21
202.92254600000001
  0
LINE
  8
_0-0_0
  6
CONTINUOUS
 62
    7
 10
228.0311585
 20
202.78701799999999
 11
228.2811585
 21
202.92254600000001
  0
LINE
  8
_0-0_0
  6
CONTINUOUS
 62
    7
 10
228.0311585
 20
202.49099699999999
 11
228.2811585
 21
202.75787399999999
  0
LINE
  8
_0-0_0
  6
CONTINUOUS
 62
    7
 10
228.0311585
 20
202.64859000000001
 11
228.2811585
 21
202.75787399999999
  0
LINE
  8
_0-0_0
  6
CONTINUOUS
 62
    7
 10
228.0311585
 20
202.315979
 11
228.2811585
 21
202.572845
  0
LINE
  8
_0-0_0
  6
CONTINUOUS
 62
    7
 10
228.0311585
 20
202.49099699999999
 11
228.2811585
 21
202.572845
  0
LINE
  8
_0-0_0
  6
CONTINUOUS
 62
    7
 10
228.0311585
 20
202.125427
 11
228.2811585
 21
202.36947599999999
  0
LINE
  8
_0-0_0
  6
CONTINUOUS
 62
    7
 10
228.0311585
 20
202.315979
 11
228.2811585
 21
202.36947599999999
  0
LINE
  8
_0-0_0
  6
CONTINUOUS
 62
    7
 10
228.0311585
 20
201.92147800000001
 11
228.2811585
 21
202.14999399999999
  0
LINE
  8
_0-0_0
  6
CONTINUOUS
 62
    7
 10
228.0311585
 20
202.125427
 11
228.2811585
 21
202.14999399999999
  0
LINE
  8
_0-0_0
  6
CONTINUOUS
 62
    7
 10
228.0311585
 20
201.70632900000001
 11
228.2811585
 21
201.91684000000001
  0
LINE
  8
_0-0_0
  6
CONTINUOUS
 62
    7
 10
228.0311585
 20
201.92147800000001
 11
228.2811585
 21
201.91684000000001
  0
LINE
  8
_0-0_0
  6
CONTINUOUS
 62
    7
 10
228.0311585
 20
201.482361
 11
228.2811585
 21
201.67254600000001
  0
LINE
  8
_0-0_0
  6
CONTINUOUS
 62
    7
 10
228.0311585
 20
201.70632900000001
 11
228.2811585
 21
201.67254600000001
  0
LINE
  8
_0-0_0
  6
CONTINUOUS
 62
    7
 10
228.0311585
 20
201.25198399999999
 11
228.2811585
 21
201.419769
  0
LINE
  8
_0-0_0
  6
CONTINUOUS
 62
    7
 10
228.0311585
 20
201.482361
 11
228.2811585
 21
201.419769
  0
LINE
  8
_0-0_0
  6
CONTINUOUS
 62
    7
 10
228.0311585
 20
201.01776100000001
 11
228.2811585
 21
201.161316
  0
LINE
  8
_0-0_0
  6
CONTINUOUS
 62
    7
 10
228.0311585
 20
201.25198399999999
 11
228.2811585
 21
201.161316
  0
LINE
  8
_0-0_0
  6
CONTINUOUS
 62
    7
 10
228.0311585
 20
200.78225699999999
 11
228.2811585
 21
200.89999399999999
  0
LINE
  8
_0-0_0
  6
CONTINUOUS
 62
    7
 10
228.0311585
 20
201.01776100000001
 11
228.2811585
 21
200.89999399999999
  0
LINE
  8
_0-0_0
  6
CONTINUOUS
 62
    7
 10
228.0311585
 20
200.548035
 11
228.2811585
 21
200.63867200000001
  0
LINE
  8
_0-0_0
  6
CONTINUOUS
 62
    7
 10
228.0311585
 20
200.78225699999999
 11
228.2811585
 21
200.63867200000001
  0
LINE
  8
_0-0_0
  6
CONTINUOUS
 62
    7
 10
228.0311585
 20
200.317657
 11
228.2811585
 21
200.38021900000001
  0
LINE
  8
_0-0_0
  6
CONTINUOUS
 62
    7
 10
228.0311585
 20
200.548035
 11
228.2811585
 21
200.38021900000001
  0
LINE
  8
_0-0_0
  6
CONTINUOUS
 62
    7
 10
228.0311585
 20
200.09368900000001
 11
228.2811585
 21
200.12747200000001
  0
LINE
  8
_0-0_0
  6
CONTINUOUS
 62
    7
 10
228.0311585
 20
200.317657
 11
228.2811585
 21
200.12747200000001
  0
LINE
  8
_0-0_0
  6
CONTINUOUS
 62
    7
 10
228.0311585
 20
199.87853999999999
 11
228.2811585
 21
199.88314800000001
  0
LINE
  8
_0-0_0
  6
CONTINUOUS
 62
    7
 10
228.0311585
 20
200.09368900000001
 11
228.2811585
 21
199.88314800000001
  0
LINE
  8
_0-0_0
  6
CONTINUOUS
 62
    7
 10
213.0311585
 20
206.59231600000001
 11
222.73898350000002
 21
206.59231600000001
  0
LINE
  8
_0-0_0
  6
CONTINUOUS
 62
    7
 10
222.73898350000002
 20
206.59231600000001
 11
222.83331249999998
 21
206.83892800000001
  0
LINE
  8
_0-0_0
  6
CONTINUOUS
 62
    7
 10
222.83331249999998
 20
206.83892800000001
 11
222.91726649999998
 21
207.07888800000001
  0
LINE
  8
_0-0_0
  6
CONTINUOUS
 62
    7
 10
222.91726649999998
 20
207.07888800000001
 11
222.99142449999999
 21
207.313019
  0
LINE
  8
_0-0_0
  6
CONTINUOUS
 62
    7
 10
222.99142449999999
 20
207.313019
 11
223.05630450000001
 21
207.54205300000001
  0
LINE
  8
_0-0_0
  6
CONTINUOUS
 62
    7
 10
223.05630450000001
 20
207.54205300000001
 11
223.11233549999997
 21
207.76672400000001
  0
LINE
  8
_0-0_0
  6
CONTINUOUS
 62
    7
 10
223.11233549999997
 20
207.76672400000001
 11
223.15991250000002
 21
207.98770099999999
  0
LINE
  8
_0-0_0
  6
CONTINUOUS
 62
    7
 10
223.15991250000002
 20
207.98770099999999
 11
223.19931050000002
 21
208.20562699999999
  0
LINE
  8
_0-0_0
  6
CONTINUOUS
 62
    7
 10
223.19931050000002
 20
208.20562699999999
 11
223.23080449999998
 21
208.42108200000001
  0
LINE
  8
_0-0_0
  6
CONTINUOUS
 62
    7
 10
223.23080449999998
 20
208.42108200000001
 11
223.25457749999998
 21
208.634613
  0
LINE
  8
_0-0_0
  6
CONTINUOUS
 62
    7
 10
223.25457749999998
 20
208.634613
 11
223.27050750000001
 21
208.84231600000001
  0
LINE
  8
_0-0_0
  6
CONTINUOUS
 62
    7
 10
223.27050750000001
 20
208.84231600000001
 11
223.27926650000001
 21
209.04916399999999
  0
LINE
  8
_0-0_0
  6
CONTINUOUS
 62
    7
 10
223.27926650000001
 20
209.04916399999999
 11
223.28091449999999
 21
209.25564600000001
  0
LINE
  8
_0-0_0
  6
CONTINUOUS
 62
    7
 10
223.28091449999999
 20
209.25564600000001
 11
223.27542149999999
 21
209.462219
  0
LINE
  8
_0-0_0
  6
CONTINUOUS
 62
    7
 10
223.27542149999999
 20
209.462219
 11
223.26281749999998
 21
209.66940299999999
  0
LINE
  8
_0-0_0
  6
CONTINUOUS
 62
    7
 10
223.26281749999998
 20
209.66940299999999
 11
223.24301150000002
 21
209.87771599999999
  0
LINE
  8
_0-0_0
  6
CONTINUOUS
 62
    7
 10
223.24301150000002
 20
209.87771599999999
 11
223.21585049999999
 21
210.087616
  0
LINE
  8
_0-0_0
  6
CONTINUOUS
 62
    7
 10
223.21585049999999
 20
210.087616
 11
223.18121350000001
 21
210.29968299999999
  0
LINE
  8
_0-0_0
  6
CONTINUOUS
 62
    7
 10
223.18121350000001
 20
210.29968299999999
 11
223.13888550000001
 21
210.51443499999999
  0
LINE
  8
_0-0_0
  6
CONTINUOUS
 62
    7
 10
223.13888550000001
 20
210.51443499999999
 11
223.08853149999999
 21
210.73245199999999
  0
LINE
  8
_0-0_0
  6
CONTINUOUS
 62
    7
 10
223.08853149999999
 20
210.73245199999999
 11
223.03430149999997
 21
210.93872099999999
  0
LINE
  8
_0-0_0
  6
CONTINUOUS
 62
    7
 10
223.03430149999997
 20
210.93872099999999
 11
222.97259550000001
 21
211.14883399999999
  0
LINE
  8
_0-0_0
  6
CONTINUOUS
 62
    7
 10
222.97259550000001
 20
211.14883399999999
 11
222.9030765
 21
211.36331200000001
  0
LINE
  8
_0-0_0
  6
CONTINUOUS
 62
    7
 10
222.9030765
 20
211.36331200000001
 11
222.82534750000002
 21
211.58273299999999
  0
LINE
  8
_0-0_0
  6
CONTINUOUS
 62
    7
 10
222.82534750000002
 20
211.58273299999999
 11
222.73898350000002
 21
211.80770899999999
  0
LINE
  8
_0-0_0
  6
CONTINUOUS
 62
    7
 10
213.0311585
 20
211.80770899999999
 11
222.73898350000002
 21
211.80770899999999
  0
ARC
  8
_0-0_0
  6
CONTINUOUS
 62
    7
 10
217.86743150000001
 20
205.95001199999999
 40
4.9136889999999998
 50
352.48898799999995
 51
7.5110139999999577
  0
ARC
  8
_0-0_0
  6
CONTINUOUS
 62
    7
 10
217.85726949999997
 20
212.450897
 40
4.9238749999999998
 50
352.49423299999995
 51
1.5359699999999901
  0
ARC
  8
_0-0_0
  6
CONTINUOUS
 62
    7
 10
217.81924449999997
 20
212.445953
 40
4.9620009999999999
 50
1.5813010000000001
 51
7.4847919999999997
  0
LINE
  8
_0-0_0
  6
CONTINUOUS
 62
    7
 10
224.0311585
 20
211.93154899999999
 11
224.0311585
 21
214.45001199999999
  0
LINE
  8
_0-0_0
  6
CONTINUOUS
 62
    7
 10
224.0311585
 20
203.95001199999999
 11
224.0311585
 21
211.93154899999999
  0
LINE
  8
_0-0_0
  6
CONTINUOUS
 62
    7
 10
237.7811585
 20
199.67456100000001
 11
237.5311585
 21
199.64999399999999
  0
LINE
  8
_0-0_0
  6
CONTINUOUS
 62
    7
 10
237.5311585
 20
199.64999399999999
 11
228.2811585
 21
199.64999399999999
  0
LINE
  8
_0-0_0
  6
CONTINUOUS
 62
    7
 10
237.7811585
 20
199.87853999999999
 11
237.5311585
 21
199.64999399999999
  0
LINE
  8
_0-0_0
  6
CONTINUOUS
 62
    7
 10
237.7811585
 20
199.87853999999999
 11
228.0311585
 21
199.87853999999999
  0
LINE
  8
_0-0_0
  6
CONTINUOUS
 62
    7
 10
237.7811585
 20
199.484039
 11
237.5311585
 21
199.430542
  0
LINE
  8
_0-0_0
  6
CONTINUOUS
 62
    7
 10
237.5311585
 20
199.430542
 11
228.2811585
 21
199.430542
  0
LINE
  8
_0-0_0
  6
CONTINUOUS
 62
    7
 10
237.7811585
 20
199.67456100000001
 11
237.5311585
 21
199.430542
  0
LINE
  8
_0-0_0
  6
CONTINUOUS
 62
    7
 10
237.7811585
 20
199.309021
 11
237.5311585
 21
199.22717299999999
  0
LINE
  8
_0-0_0
  6
CONTINUOUS
 62
    7
 10
237.5311585
 20
199.22717299999999
 11
228.2811585
 21
199.22717299999999
  0
LINE
  8
_0-0_0
  6
CONTINUOUS
 62
    7
 10
237.7811585
 20
199.484039
 11
237.5311585
 21
199.22717299999999
  0
LINE
  8
_0-0_0
  6
CONTINUOUS
 62
    7
 10
237.7811585
 20
199.15142800000001
 11
237.5311585
 21
199.042145
  0
LINE
  8
_0-0_0
  6
CONTINUOUS
 62
    7
 10
237.5311585
 20
199.042145
 11
228.2811585
 21
199.042145
  0
LINE
  8
_0-0_0
  6
CONTINUOUS
 62
    7
 10
237.7811585
 20
199.309021
 11
237.5311585
 21
199.042145
  0
LINE
  8
_0-0_0
  6
CONTINUOUS
 62
    7
 10
237.7811585
 20
199.01300000000001
 11
237.5311585
 21
198.87747200000001
  0
LINE
  8
_0-0_0
  6
CONTINUOUS
 62
    7
 10
237.5311585
 20
198.87747200000001
 11
228.2811585
 21
198.87747200000001
  0
LINE
  8
_0-0_0
  6
CONTINUOUS
 62
    7
 10
237.7811585
 20
199.15142800000001
 11
237.5311585
 21
198.87747200000001
  0
LINE
  8
_0-0_0
  6
CONTINUOUS
 62
    7
 10
237.7811585
 20
198.89523299999999
 11
237.5311585
 21
198.73495500000001
  0
LINE
  8
_0-0_0
  6
CONTINUOUS
 62
    7
 10
237.5311585
 20
198.73495500000001
 11
228.2811585
 21
198.73495500000001
  0
LINE
  8
_0-0_0
  6
CONTINUOUS
 62
    7
 10
237.7811585
 20
199.01300000000001
 11
237.5311585
 21
198.73495500000001
  0
LINE
  8
_0-0_0
  6
CONTINUOUS
 62
    7
 10
237.7811585
 20
198.79943800000001
 11
237.5311585
 21
198.61615
  0
LINE
  8
_0-0_0
  6
CONTINUOUS
 62
    7
 10
237.5311585
 20
198.61615
 11
228.2811585
 21
198.61615
  0
LINE
  8
_0-0_0
  6
CONTINUOUS
 62
    7
 10
237.7811585
 20
198.89523299999999
 11
237.5311585
 21
198.61615
  0
LINE
  8
_0-0_0
  6
CONTINUOUS
 62
    7
 10
237.7811585
 20
198.726685
 11
237.5311585
 21
198.522369
  0
LINE
  8
_0-0_0
  6
CONTINUOUS
 62
    7
 10
237.5311585
 20
198.522369
 11
228.2811585
 21
198.522369
  0
LINE
  8
_0-0_0
  6
CONTINUOUS
 62
    7
 10
237.7811585
 20
198.79943800000001
 11
237.5311585
 21
198.522369
  0
LINE
  8
_0-0_0
  6
CONTINUOUS
 62
    7
 10
237.7811585
 20
198.67770400000001
 11
237.5311585
 21
198.45462000000001
  0
LINE
  8
_0-0_0
  6
CONTINUOUS
 62
    7
 10
237.5311585
 20
198.45462000000001
 11
228.2811585
 21
198.45462000000001
  0
LINE
  8
_0-0_0
  6
CONTINUOUS
 62
    7
 10
237.7811585
 20
198.726685
 11
237.5311585
 21
198.45462000000001
  0
LINE
  8
_0-0_0
  6
CONTINUOUS
 62
    7
 10
237.7811585
 20
198.653076
 11
237.5311585
 21
198.41369599999999
  0
LINE
  8
_0-0_0
  6
CONTINUOUS
 62
    7
 10
237.5311585
 20
198.41369599999999
 11
228.2811585
 21
198.41369599999999
  0
LINE
  8
_0-0_0
  6
CONTINUOUS
 62
    7
 10
237.7811585
 20
198.67770400000001
 11
237.5311585
 21
198.41369599999999
  0
LINE
  8
_0-0_0
  6
CONTINUOUS
 62
    7
 10
237.5311585
 20
198.39999399999999
 11
228.2811585
 21
198.39999399999999
  0
LINE
  8
_0-0_0
  6
CONTINUOUS
 62
    7
 10
237.7811585
 20
198.653076
 11
237.5311585
 21
198.39999399999999
  0
LINE
  8
_0-0_0
  6
CONTINUOUS
 62
    7
 10
237.7811585
 20
203.14691199999999
 11
237.5311585
 21
203.39999399999999
  0
LINE
  8
_0-0_0
  6
CONTINUOUS
 62
    7
 10
237.5311585
 20
203.39999399999999
 11
228.2811585
 21
203.39999399999999
  0
LINE
  8
_0-0_0
  6
CONTINUOUS
 62
    7
 10
237.7811585
 20
203.12231399999999
 11
237.5311585
 21
203.38632200000001
  0
LINE
  8
_0-0_0
  6
CONTINUOUS
 62
    7
 10
237.5311585
 20
203.38632200000001
 11
228.2811585
 21
203.38632200000001
  0
LINE
  8
_0-0_0
  6
CONTINUOUS
 62
    7
 10
237.7811585
 20
203.14691199999999
 11
237.5311585
 21
203.38632200000001
  0
LINE
  8
_0-0_0
  6
CONTINUOUS
 62
    7
 10
237.7811585
 20
203.07333399999999
 11
237.5311585
 21
203.34536700000001
  0
LINE
  8
_0-0_0
  6
CONTINUOUS
 62
    7
 10
237.5311585
 20
203.34536700000001
 11
228.2811585
 21
203.34536700000001
  0
LINE
  8
_0-0_0
  6
CONTINUOUS
 62
    7
 10
237.7811585
 20
203.12231399999999
 11
237.5311585
 21
203.34536700000001
  0
LINE
  8
_0-0_0
  6
CONTINUOUS
 62
    7
 10
237.7811585
 20
203.00054900000001
 11
237.5311585
 21
203.277649
  0
LINE
  8
_0-0_0
  6
CONTINUOUS
 62
    7
 10
237.5311585
 20
203.277649
 11
228.2811585
 21
203.277649
  0
LINE
  8
_0-0_0
  6
CONTINUOUS
 62
    7
 10
237.7811585
 20
203.07333399999999
 11
237.5311585
 21
203.277649
  0
LINE
  8
_0-0_0
  6
CONTINUOUS
 62
    7
 10
237.7811585
 20
202.90475499999999
 11
237.5311585
 21
203.18386799999999
  0
LINE
  8
_0-0_0
  6
CONTINUOUS
 62
    7
 10
237.5311585
 20
203.18386799999999
 11
228.2811585
 21
203.18386799999999
  0
LINE
  8
_0-0_0
  6
CONTINUOUS
 62
    7
 10
237.7811585
 20
203.00054900000001
 11
237.5311585
 21
203.18386799999999
  0
LINE
  8
_0-0_0
  6
CONTINUOUS
 62
    7
 10
237.5311585
 20
203.06506300000001
 11
228.2811585
 21
203.06506300000001
  0
LINE
  8
_0-0_0
  6
CONTINUOUS
 62
    7
 10
237.65121449999998
 20
202.988617
 11
237.5311585
 21
203.06506300000001
  0
LINE
  8
_0-0_0
  6
CONTINUOUS
 62
    7
 10
237.7811585
 20
202.90475499999999
 11
237.65121449999998
 21
202.988617
  0
LINE
  8
_0-0_0
  6
CONTINUOUS
 62
    7
 10
237.7811585
 20
202.78701799999999
 11
237.5311585
 21
203.06506300000001
  0
LINE
  8
_0-0_0
  6
CONTINUOUS
 62
    7
 10
237.7811585
 20
202.64859000000001
 11
237.5311585
 21
202.92254600000001
  0
LINE
  8
_0-0_0
  6
CONTINUOUS
 62
    7
 10
237.5311585
 20
202.92254600000001
 11
228.2811585
 21
202.92254600000001
  0
LINE
  8
_0-0_0
  6
CONTINUOUS
 62
    7
 10
237.7811585
 20
202.78701799999999
 11
237.5311585
 21
202.92254600000001
  0
LINE
  8
_0-0_0
  6
CONTINUOUS
 62
    7
 10
237.7811585
 20
202.49099699999999
 11
237.5311585
 21
202.75787399999999
  0
LINE
  8
_0-0_0
  6
CONTINUOUS
 62
    7
 10
237.5311585
 20
202.75787399999999
 11
228.2811585
 21
202.75787399999999
  0
LINE
  8
_0-0_0
  6
CONTINUOUS
 62
    7
 10
237.7811585
 20
202.64859000000001
 11
237.5311585
 21
202.75787399999999
  0
LINE
  8
_0-0_0
  6
CONTINUOUS
 62
    7
 10
237.7811585
 20
202.315979
 11
237.5311585
 21
202.572845
  0
LINE
  8
_0-0_0
  6
CONTINUOUS
 62
    7
 10
237.5311585
 20
202.572845
 11
228.2811585
 21
202.572845
  0
LINE
  8
_0-0_0
  6
CONTINUOUS
 62
    7
 10
237.7811585
 20
202.49099699999999
 11
237.5311585
 21
202.572845
  0
LINE
  8
_0-0_0
  6
CONTINUOUS
 62
    7
 10
237.7811585
 20
202.125427
 11
237.5311585
 21
202.36947599999999
  0
LINE
  8
_0-0_0
  6
CONTINUOUS
 62
    7
 10
237.5311585
 20
202.36947599999999
 11
228.2811585
 21
202.36947599999999
  0
LINE
  8
_0-0_0
  6
CONTINUOUS
 62
    7
 10
237.7811585
 20
202.315979
 11
237.5311585
 21
202.36947599999999
  0
LINE
  8
_0-0_0
  6
CONTINUOUS
 62
    7
 10
237.7811585
 20
201.92147800000001
 11
237.5311585
 21
202.14999399999999
  0
LINE
  8
_0-0_0
  6
CONTINUOUS
 62
    7
 10
237.5311585
 20
202.14999399999999
 11
228.2811585
 21
202.14999399999999
  0
LINE
  8
_0-0_0
  6
CONTINUOUS
 62
    7
 10
237.7811585
 20
201.92147800000001
 11
228.0311585
 21
201.92147800000001
  0
LINE
  8
_0-0_0
  6
CONTINUOUS
 62
    7
 10
237.7811585
 20
202.125427
 11
237.5311585
 21
202.14999399999999
  0
LINE
  8
_0-0_0
  6
CONTINUOUS
 62
    7
 10
237.7811585
 20
201.70632900000001
 11
237.5311585
 21
201.91684000000001
  0
LINE
  8
_0-0_0
  6
CONTINUOUS
 62
    7
 10
237.5311585
 20
201.91684000000001
 11
228.2811585
 21
201.91684000000001
  0
LINE
  8
_0-0_0
  6
CONTINUOUS
 62
    7
 10
237.7811585
 20
201.70632900000001
 11
228.0311585
 21
201.70632900000001
  0
LINE
  8
_0-0_0
  6
CONTINUOUS
 62
    7
 10
237.7811585
 20
201.92147800000001
 11
237.5311585
 21
201.91684000000001
  0
LINE
  8
_0-0_0
  6
CONTINUOUS
 62
    7
 10
237.7811585
 20
201.482361
 11
237.5311585
 21
201.67254600000001
  0
LINE
  8
_0-0_0
  6
CONTINUOUS
 62
    7
 10
237.5311585
 20
201.67254600000001
 11
228.2811585
 21
201.67254600000001
  0
LINE
  8
_0-0_0
  6
CONTINUOUS
 62
    7
 10
237.7811585
 20
201.482361
 11
228.0311585
 21
201.482361
  0
LINE
  8
_0-0_0
  6
CONTINUOUS
 62
    7
 10
237.7811585
 20
201.70632900000001
 11
237.5311585
 21
201.67254600000001
  0
LINE
  8
_0-0_0
  6
CONTINUOUS
 62
    7
 10
237.7811585
 20
201.25198399999999
 11
237.5311585
 21
201.419769
  0
LINE
  8
_0-0_0
  6
CONTINUOUS
 62
    7
 10
237.5311585
 20
201.419769
 11
228.2811585
 21
201.419769
  0
LINE
  8
_0-0_0
  6
CONTINUOUS
 62
    7
 10
237.7811585
 20
201.25198399999999
 11
228.0311585
 21
201.25198399999999
  0
LINE
  8
_0-0_0
  6
CONTINUOUS
 62
    7
 10
237.7811585
 20
201.482361
 11
237.5311585
 21
201.419769
  0
LINE
  8
_0-0_0
  6
CONTINUOUS
 62
    7
 10
237.7811585
 20
201.01776100000001
 11
237.5311585
 21
201.161316
  0
LINE
  8
_0-0_0
  6
CONTINUOUS
 62
    7
 10
237.5311585
 20
201.161316
 11
228.2811585
 21
201.161316
  0
LINE
  8
_0-0_0
  6
CONTINUOUS
 62
    7
 10
237.7811585
 20
201.01776100000001
 11
228.0311585
 21
201.01776100000001
  0
LINE
  8
_0-0_0
  6
CONTINUOUS
 62
    7
 10
237.7811585
 20
201.25198399999999
 11
237.5311585
 21
201.161316
  0
LINE
  8
_0-0_0
  6
CONTINUOUS
 62
    7
 10
237.7811585
 20
200.78225699999999
 11
237.5311585
 21
200.89999399999999
  0
LINE
  8
_0-0_0
  6
CONTINUOUS
 62
    7
 10
237.5311585
 20
200.89999399999999
 11
228.2811585
 21
200.89999399999999
  0
LINE
  8
_0-0_0
  6
CONTINUOUS
 62
    7
 10
237.7811585
 20
200.78225699999999
 11
228.0311585
 21
200.78225699999999
  0
LINE
  8
_0-0_0
  6
CONTINUOUS
 62
    7
 10
237.7811585
 20
201.01776100000001
 11
237.5311585
 21
200.89999399999999
  0
LINE
  8
_0-0_0
  6
CONTINUOUS
 62
    7
 10
237.7811585
 20
200.548035
 11
237.5311585
 21
200.63867200000001
  0
LINE
  8
_0-0_0
  6
CONTINUOUS
 62
    7
 10
237.5311585
 20
200.63867200000001
 11
228.2811585
 21
200.63867200000001
  0
LINE
  8
_0-0_0
  6
CONTINUOUS
 62
    7
 10
237.7811585
 20
200.548035
 11
228.0311585
 21
200.548035
  0
LINE
  8
_0-0_0
  6
CONTINUOUS
 62
    7
 10
237.7811585
 20
200.78225699999999
 11
237.5311585
 21
200.63867200000001
  0
LINE
  8
_0-0_0
  6
CONTINUOUS
 62
    7
 10
237.7811585
 20
200.317657
 11
237.5311585
 21
200.38021900000001
  0
LINE
  8
_0-0_0
  6
CONTINUOUS
 62
    7
 10
237.5311585
 20
200.38021900000001
 11
228.2811585
 21
200.38021900000001
  0
LINE
  8
_0-0_0
  6
CONTINUOUS
 62
    7
 10
237.7811585
 20
200.317657
 11
228.0311585
 21
200.317657
  0
LINE
  8
_0-0_0
  6
CONTINUOUS
 62
    7
 10
237.7811585
 20
200.548035
 11
237.5311585
 21
200.38021900000001
  0
LINE
  8
_0-0_0
  6
CONTINUOUS
 62
    7
 10
237.7811585
 20
200.09368900000001
 11
237.5311585
 21
200.12747200000001
  0
LINE
  8
_0-0_0
  6
CONTINUOUS
 62
    7
 10
237.5311585
 20
200.12747200000001
 11
228.2811585
 21
200.12747200000001
  0
LINE
  8
_0-0_0
  6
CONTINUOUS
 62
    7
 10
237.7811585
 20
200.09368900000001
 11
228.0311585
 21
200.09368900000001
  0
LINE
  8
_0-0_0
  6
CONTINUOUS
 62
    7
 10
237.7811585
 20
200.317657
 11
237.5311585
 21
200.12747200000001
  0
LINE
  8
_0-0_0
  6
CONTINUOUS
 62
    7
 10
237.7811585
 20
199.87853999999999
 11
237.5311585
 21
199.88314800000001
  0
LINE
  8
_0-0_0
  6
CONTINUOUS
 62
    7
 10
237.5311585
 20
199.88314800000001
 11
228.2811585
 21
199.88314800000001
  0
LINE
  8
_0-0_0
  6
CONTINUOUS
 62
    7
 10
237.7811585
 20
200.09368900000001
 11
237.5311585
 21
199.88314800000001
  0
LINE
  8
_0-0_0
  6
CONTINUOUS
 62
    7
 10
238.0311585
 20
198.89999399999999
 11
238.0311585
 21
202.655182
  0
LINE
  8
_0-0_0
  6
CONTINUOUS
 62
    7
 10
238.0311585
 20
202.655182
 11
238.0311585
 21
202.89999399999999
  0
LINE
  8
_0-0_0
  6
CONTINUOUS
 62
    7
 10
224.4311525
 20
204.20001199999999
 11
224.4311525
 21
206.70001199999999
  0
LINE
  8
_0-0_0
  6
CONTINUOUS
 62
    7
 10
224.4311525
 20
206.70001199999999
 11
224.4311525
 21
214.20001199999999
  0
LINE
  8
_0-0_0
  6
CONTINUOUS
 62
    7
 10
225.23117050000002
 20
204.66189600000001
 11
225.23117050000002
 21
206.930939
  0
LINE
  8
_0-0_0
  6
CONTINUOUS
 62
    7
 10
225.23117050000002
 20
206.930939
 11
225.23117050000002
 21
213.73812899999999
  0
LINE
  8
_0-0_0
  6
CONTINUOUS
 62
    7
 10
283.23117050000002
 20
205.20001199999999
 11
283.23117050000002
 21
205.20135500000001
  0
LINE
  8
_0-0_0
  6
CONTINUOUS
 62
    7
 10
283.23117050000002
 20
205.20135500000001
 11
283.23117050000002
 21
213.20001199999999
  0
LINE
  8
_0-0_0
  6
CONTINUOUS
 62
    7
 10
228.0311585
 20
219.74691799999999
 11
228.0311585
 21
219.75
  0
LINE
  8
_0-0_0
  6
CONTINUOUS
 62
    7
 10
228.0311585
 20
219.72228999999999
 11
228.0311585
 21
219.75
  0
LINE
  8
_0-0_0
  6
CONTINUOUS
 62
    7
 10
228.0311585
 20
219.67334
 11
228.0311585
 21
219.72228999999999
  0
LINE
  8
_0-0_0
  6
CONTINUOUS
 62
    7
 10
228.0311585
 20
219.60055500000001
 11
228.0311585
 21
219.67334
  0
LINE
  8
_0-0_0
  6
CONTINUOUS
 62
    7
 10
228.0311585
 20
219.504761
 11
228.0311585
 21
219.60055500000001
  0
LINE
  8
_0-0_0
  6
CONTINUOUS
 62
    7
 10
228.0311585
 20
219.474548
 11
228.0311585
 21
219.504761
  0
LINE
  8
_0-0_0
  6
CONTINUOUS
 62
    7
 10
228.0311585
 20
219.387024
 11
228.0311585
 21
219.474548
  0
LINE
  8
_0-0_0
  6
CONTINUOUS
 62
    7
 10
228.0311585
 20
219.24856600000001
 11
228.0311585
 21
219.387024
  0
LINE
  8
_0-0_0
  6
CONTINUOUS
 62
    7
 10
228.0311585
 20
219.091003
 11
228.0311585
 21
219.24856600000001
  0
LINE
  8
_0-0_0
  6
CONTINUOUS
 62
    7
 10
228.0311585
 20
218.91598500000001
 11
228.0311585
 21
219.091003
  0
LINE
  8
_0-0_0
  6
CONTINUOUS
 62
    7
 10
228.0311585
 20
218.72543300000001
 11
228.0311585
 21
218.91598500000001
  0
LINE
  8
_0-0_0
  6
CONTINUOUS
 62
    7
 10
228.0311585
 20
218.52148399999999
 11
228.0311585
 21
218.72543300000001
  0
LINE
  8
_0-0_0
  6
CONTINUOUS
 62
    7
 10
228.0311585
 20
218.30633499999999
 11
228.0311585
 21
218.52148399999999
  0
LINE
  8
_0-0_0
  6
CONTINUOUS
 62
    7
 10
228.0311585
 20
218.082336
 11
228.0311585
 21
218.30633499999999
  0
LINE
  8
_0-0_0
  6
CONTINUOUS
 62
    7
 10
228.0311585
 20
217.85199
 11
228.0311585
 21
218.082336
  0
LINE
  8
_0-0_0
  6
CONTINUOUS
 62
    7
 10
228.0311585
 20
217.61776699999999
 11
228.0311585
 21
217.85199
  0
LINE
  8
_0-0_0
  6
CONTINUOUS
 62
    7
 10
228.0311585
 20
217.38223300000001
 11
228.0311585
 21
217.61776699999999
  0
LINE
  8
_0-0_0
  6
CONTINUOUS
 62
    7
 10
228.0311585
 20
217.14801
 11
228.0311585
 21
217.38223300000001
  0
LINE
  8
_0-0_0
  6
CONTINUOUS
 62
    7
 10
228.0311585
 20
216.917664
 11
228.0311585
 21
217.14801
  0
LINE
  8
_0-0_0
  6
CONTINUOUS
 62
    7
 10
228.0311585
 20
216.69366500000001
 11
228.0311585
 21
216.917664
  0
LINE
  8
_0-0_0
  6
CONTINUOUS
 62
    7
 10
228.0311585
 20
216.47851600000001
 11
228.0311585
 21
216.69366500000001
  0
LINE
  8
_0-0_0
  6
CONTINUOUS
 62
    7
 10
228.0311585
 20
216.42129499999999
 11
228.0311585
 21
216.47851600000001
  0
LINE
  8
_0-0_0
  6
CONTINUOUS
 62
    7
 10
228.0311585
 20
219.74691799999999
 11
228.2811585
 21
220
  0
LINE
  8
_0-0_0
  6
CONTINUOUS
 62
    7
 10
228.0311585
 20
219.72228999999999
 11
228.2811585
 21
219.98629800000001
  0
LINE
  8
_0-0_0
  6
CONTINUOUS
 62
    7
 10
228.0311585
 20
219.74691799999999
 11
228.2811585
 21
219.98629800000001
  0
LINE
  8
_0-0_0
  6
CONTINUOUS
 62
    7
 10
228.0311585
 20
219.67334
 11
228.2811585
 21
219.94537399999999
  0
LINE
  8
_0-0_0
  6
CONTINUOUS
 62
    7
 10
228.0311585
 20
219.72228999999999
 11
228.2811585
 21
219.94537399999999
  0
LINE
  8
_0-0_0
  6
CONTINUOUS
 62
    7
 10
228.0311585
 20
219.60055500000001
 11
228.2811585
 21
219.877655
  0
LINE
  8
_0-0_0
  6
CONTINUOUS
 62
    7
 10
228.0311585
 20
219.67334
 11
228.2811585
 21
219.877655
  0
LINE
  8
_0-0_0
  6
CONTINUOUS
 62
    7
 10
228.0311585
 20
219.504761
 11
228.2811585
 21
219.78387499999999
  0
LINE
  8
_0-0_0
  6
CONTINUOUS
 62
    7
 10
228.0311585
 20
219.60055500000001
 11
228.2811585
 21
219.78387499999999
  0
LINE
  8
_0-0_0
  6
CONTINUOUS
 62
    7
 10
228.0311585
 20
219.504761
 11
228.16113250000001
 21
219.58862300000001
  0
LINE
  8
_0-0_0
  6
CONTINUOUS
 62
    7
 10
228.0311585
 20
219.387024
 11
228.2811585
 21
219.66506999999999
  0
LINE
  8
_0-0_0
  6
CONTINUOUS
 62
    7
 10
228.16113250000001
 20
219.58862300000001
 11
228.2811585
 21
219.66506999999999
  0
LINE
  8
_0-0_0
  6
CONTINUOUS
 62
    7
 10
228.0311585
 20
219.24856600000001
 11
228.2811585
 21
219.52255199999999
  0
LINE
  8
_0-0_0
  6
CONTINUOUS
 62
    7
 10
228.0311585
 20
219.387024
 11
228.2811585
 21
219.52255199999999
  0
LINE
  8
_0-0_0
  6
CONTINUOUS
 62
    7
 10
228.0311585
 20
219.091003
 11
228.2811585
 21
219.35784899999999
  0
LINE
  8
_0-0_0
  6
CONTINUOUS
 62
    7
 10
228.0311585
 20
219.24856600000001
 11
228.2811585
 21
219.35784899999999
  0
LINE
  8
_0-0_0
  6
CONTINUOUS
 62
    7
 10
228.0311585
 20
218.91598500000001
 11
228.2811585
 21
219.172821
  0
LINE
  8
_0-0_0
  6
CONTINUOUS
 62
    7
 10
228.0311585
 20
219.091003
 11
228.2811585
 21
219.172821
  0
LINE
  8
_0-0_0
  6
CONTINUOUS
 62
    7
 10
228.0311585
 20
218.72543300000001
 11
228.2811585
 21
218.96945199999999
  0
LINE
  8
_0-0_0
  6
CONTINUOUS
 62
    7
 10
228.0311585
 20
218.91598500000001
 11
228.2811585
 21
218.96945199999999
  0
LINE
  8
_0-0_0
  6
CONTINUOUS
 62
    7
 10
228.0311585
 20
218.52148399999999
 11
228.2811585
 21
218.75
  0
LINE
  8
_0-0_0
  6
CONTINUOUS
 62
    7
 10
228.0311585
 20
218.72543300000001
 11
228.2811585
 21
218.75
  0
LINE
  8
_0-0_0
  6
CONTINUOUS
 62
    7
 10
228.0311585
 20
218.30633499999999
 11
228.2811585
 21
218.51684599999999
  0
LINE
  8
_0-0_0
  6
CONTINUOUS
 62
    7
 10
228.0311585
 20
218.52148399999999
 11
228.2811585
 21
218.51684599999999
  0
LINE
  8
_0-0_0
  6
CONTINUOUS
 62
    7
 10
228.0311585
 20
218.082336
 11
228.2811585
 21
218.27255199999999
  0
LINE
  8
_0-0_0
  6
CONTINUOUS
 62
    7
 10
228.0311585
 20
218.30633499999999
 11
228.2811585
 21
218.27255199999999
  0
LINE
  8
_0-0_0
  6
CONTINUOUS
 62
    7
 10
228.0311585
 20
217.85199
 11
228.2811585
 21
218.01977500000001
  0
LINE
  8
_0-0_0
  6
CONTINUOUS
 62
    7
 10
228.0311585
 20
218.082336
 11
228.2811585
 21
218.01977500000001
  0
LINE
  8
_0-0_0
  6
CONTINUOUS
 62
    7
 10
228.0311585
 20
217.61776699999999
 11
228.2811585
 21
217.76132200000001
  0
LINE
  8
_0-0_0
  6
CONTINUOUS
 62
    7
 10
228.0311585
 20
217.85199
 11
228.2811585
 21
217.76132200000001
  0
LINE
  8
_0-0_0
  6
CONTINUOUS
 62
    7
 10
228.0311585
 20
217.38223300000001
 11
228.2811585
 21
217.5
  0
LINE
  8
_0-0_0
  6
CONTINUOUS
 62
    7
 10
228.0311585
 20
217.61776699999999
 11
228.2811585
 21
217.5
  0
LINE
  8
_0-0_0
  6
CONTINUOUS
 62
    7
 10
228.0311585
 20
217.14801
 11
228.2811585
 21
217.23867799999999
  0
LINE
  8
_0-0_0
  6
CONTINUOUS
 62
    7
 10
228.0311585
 20
217.38223300000001
 11
228.2811585
 21
217.23867799999999
  0
LINE
  8
_0-0_0
  6
CONTINUOUS
 62
    7
 10
228.0311585
 20
216.917664
 11
228.2811585
 21
216.98022499999999
  0
LINE
  8
_0-0_0
  6
CONTINUOUS
 62
    7
 10
228.0311585
 20
217.14801
 11
228.2811585
 21
216.98022499999999
  0
LINE
  8
_0-0_0
  6
CONTINUOUS
 62
    7
 10
228.0311585
 20
216.69366500000001
 11
228.2811585
 21
216.72744800000001
  0
LINE
  8
_0-0_0
  6
CONTINUOUS
 62
    7
 10
228.0311585
 20
216.917664
 11
228.2811585
 21
216.72744800000001
  0
LINE
  8
_0-0_0
  6
CONTINUOUS
 62
    7
 10
228.0311585
 20
216.47851600000001
 11
228.2811585
 21
216.48315400000001
  0
LINE
  8
_0-0_0
  6
CONTINUOUS
 62
    7
 10
228.0311585
 20
216.69366500000001
 11
228.2811585
 21
216.48315400000001
  0
LINE
  8
_0-0_0
  6
CONTINUOUS
 62
    7
 10
228.0311585
 20
216.27456699999999
 11
228.0311585
 21
216.42129499999999
  0
LINE
  8
_0-0_0
  6
CONTINUOUS
 62
    7
 10
228.0311585
 20
216.27456699999999
 11
228.2811585
 21
216.25
  0
LINE
  8
_0-0_0
  6
CONTINUOUS
 62
    7
 10
228.0311585
 20
216.47851600000001
 11
228.2811585
 21
216.25
  0
LINE
  8
_0-0_0
  6
CONTINUOUS
 62
    7
 10
228.0311585
 20
216.084045
 11
228.0311585
 21
216.27456699999999
  0
LINE
  8
_0-0_0
  6
CONTINUOUS
 62
    7
 10
228.0311585
 20
215.908997
 11
228.0311585
 21
216.084045
  0
LINE
  8
_0-0_0
  6
CONTINUOUS
 62
    7
 10
228.0311585
 20
215.75143399999999
 11
228.0311585
 21
215.908997
  0
LINE
  8
_0-0_0
  6
CONTINUOUS
 62
    7
 10
228.0311585
 20
215.61300700000001
 11
228.0311585
 21
215.75143399999999
  0
LINE
  8
_0-0_0
  6
CONTINUOUS
 62
    7
 10
228.0311585
 20
215.495239
 11
228.0311585
 21
215.61300700000001
  0
LINE
  8
_0-0_0
  6
CONTINUOUS
 62
    7
 10
228.0311585
 20
215.39944499999999
 11
228.0311585
 21
215.495239
  0
LINE
  8
_0-0_0
  6
CONTINUOUS
 62
    7
 10
228.0311585
 20
215.32666
 11
228.0311585
 21
215.39944499999999
  0
LINE
  8
_0-0_0
  6
CONTINUOUS
 62
    7
 10
228.0311585
 20
215.27771000000001
 11
228.0311585
 21
215.32666
  0
LINE
  8
_0-0_0
  6
CONTINUOUS
 62
    7
 10
228.0311585
 20
215.25
 11
228.0311585
 21
215.27771000000001
  0
LINE
  8
_0-0_0
  6
CONTINUOUS
 62
    7
 10
228.0311585
 20
215.25
 11
228.0311585
 21
215.25308200000001
  0
LINE
  8
_0-0_0
  6
CONTINUOUS
 62
    7
 10
237.7811585
 20
219.74691799999999
 11
237.5311585
 21
220
  0
LINE
  8
_0-0_0
  6
CONTINUOUS
 62
    7
 10
237.5311585
 20
220
 11
228.2811585
 21
220
  0
LINE
  8
_0-0_0
  6
CONTINUOUS
 62
    7
 10
237.7811585
 20
219.72228999999999
 11
237.5311585
 21
219.98629800000001
  0
LINE
  8
_0-0_0
  6
CONTINUOUS
 62
    7
 10
237.5311585
 20
219.98629800000001
 11
228.2811585
 21
219.98629800000001
  0
LINE
  8
_0-0_0
  6
CONTINUOUS
 62
    7
 10
237.7811585
 20
219.74691799999999
 11
237.5311585
 21
219.98629800000001
  0
LINE
  8
_0-0_0
  6
CONTINUOUS
 62
    7
 10
237.7811585
 20
219.67334
 11
237.5311585
 21
219.94537399999999
  0
LINE
  8
_0-0_0
  6
CONTINUOUS
 62
    7
 10
237.5311585
 20
219.94537399999999
 11
228.2811585
 21
219.94537399999999
  0
LINE
  8
_0-0_0
  6
CONTINUOUS
 62
    7
 10
237.7811585
 20
219.72228999999999
 11
237.5311585
 21
219.94537399999999
  0
LINE
  8
_0-0_0
  6
CONTINUOUS
 62
    7
 10
237.7811585
 20
219.60055500000001
 11
237.5311585
 21
219.877655
  0
LINE
  8
_0-0_0
  6
CONTINUOUS
 62
    7
 10
237.5311585
 20
219.877655
 11
228.2811585
 21
219.877655
  0
LINE
  8
_0-0_0
  6
CONTINUOUS
 62
    7
 10
237.7811585
 20
219.67334
 11
237.5311585
 21
219.877655
  0
LINE
  8
_0-0_0
  6
CONTINUOUS
 62
    7
 10
237.7811585
 20
219.504761
 11
237.5311585
 21
219.78387499999999
  0
LINE
  8
_0-0_0
  6
CONTINUOUS
 62
    7
 10
237.5311585
 20
219.78387499999999
 11
228.2811585
 21
219.78387499999999
  0
LINE
  8
_0-0_0
  6
CONTINUOUS
 62
    7
 10
237.7811585
 20
219.60055500000001
 11
237.5311585
 21
219.78387499999999
  0
LINE
  8
_0-0_0
  6
CONTINUOUS
 62
    7
 10
237.5311585
 20
219.66506999999999
 11
228.2811585
 21
219.66506999999999
  0
LINE
  8
_0-0_0
  6
CONTINUOUS
 62
    7
 10
237.65121449999998
 20
219.58862300000001
 11
237.5311585
 21
219.66506999999999
  0
LINE
  8
_0-0_0
  6
CONTINUOUS
 62
    7
 10
237.7811585
 20
219.504761
 11
237.65121449999998
 21
219.58862300000001
  0
LINE
  8
_0-0_0
  6
CONTINUOUS
 62
    7
 10
237.7811585
 20
219.387024
 11
237.5311585
 21
219.66506999999999
  0
LINE
  8
_0-0_0
  6
CONTINUOUS
 62
    7
 10
237.7811585
 20
219.24856600000001
 11
237.5311585
 21
219.52255199999999
  0
LINE
  8
_0-0_0
  6
CONTINUOUS
 62
    7
 10
237.5311585
 20
219.52255199999999
 11
228.2811585
 21
219.52255199999999
  0
LINE
  8
_0-0_0
  6
CONTINUOUS
 62
    7
 10
237.7811585
 20
219.387024
 11
237.5311585
 21
219.52255199999999
  0
LINE
  8
_0-0_0
  6
CONTINUOUS
 62
    7
 10
237.7811585
 20
219.091003
 11
237.5311585
 21
219.35784899999999
  0
LINE
  8
_0-0_0
  6
CONTINUOUS
 62
    7
 10
237.5311585
 20
219.35784899999999
 11
228.2811585
 21
219.35784899999999
  0
LINE
  8
_0-0_0
  6
CONTINUOUS
 62
    7
 10
237.7811585
 20
219.24856600000001
 11
237.5311585
 21
219.35784899999999
  0
LINE
  8
_0-0_0
  6
CONTINUOUS
 62
    7
 10
237.7811585
 20
218.91598500000001
 11
237.5311585
 21
219.172821
  0
LINE
  8
_0-0_0
  6
CONTINUOUS
 62
    7
 10
237.5311585
 20
219.172821
 11
228.2811585
 21
219.172821
  0
LINE
  8
_0-0_0
  6
CONTINUOUS
 62
    7
 10
237.7811585
 20
219.091003
 11
237.5311585
 21
219.172821
  0
LINE
  8
_0-0_0
  6
CONTINUOUS
 62
    7
 10
237.7811585
 20
218.72543300000001
 11
237.5311585
 21
218.96945199999999
  0
LINE
  8
_0-0_0
  6
CONTINUOUS
 62
    7
 10
237.5311585
 20
218.96945199999999
 11
228.2811585
 21
218.96945199999999
  0
LINE
  8
_0-0_0
  6
CONTINUOUS
 62
    7
 10
237.7811585
 20
218.91598500000001
 11
237.5311585
 21
218.96945199999999
  0
LINE
  8
_0-0_0
  6
CONTINUOUS
 62
    7
 10
237.7811585
 20
218.52148399999999
 11
237.5311585
 21
218.75
  0
LINE
  8
_0-0_0
  6
CONTINUOUS
 62
    7
 10
237.5311585
 20
218.75
 11
228.2811585
 21
218.75
  0
LINE
  8
_0-0_0
  6
CONTINUOUS
 62
    7
 10
237.7811585
 20
218.52148399999999
 11
228.0311585
 21
218.52148399999999
  0
LINE
  8
_0-0_0
  6
CONTINUOUS
 62
    7
 10
237.7811585
 20
218.72543300000001
 11
237.5311585
 21
218.75
  0
LINE
  8
_0-0_0
  6
CONTINUOUS
 62
    7
 10
237.7811585
 20
218.30633499999999
 11
237.5311585
 21
218.51684599999999
  0
LINE
  8
_0-0_0
  6
CONTINUOUS
 62
    7
 10
237.5311585
 20
218.51684599999999
 11
228.2811585
 21
218.51684599999999
  0
LINE
  8
_0-0_0
  6
CONTINUOUS
 62
    7
 10
237.7811585
 20
218.30633499999999
 11
228.0311585
 21
218.30633499999999
  0
LINE
  8
_0-0_0
  6
CONTINUOUS
 62
    7
 10
237.7811585
 20
218.52148399999999
 11
237.5311585
 21
218.51684599999999
  0
LINE
  8
_0-0_0
  6
CONTINUOUS
 62
    7
 10
237.7811585
 20
218.082336
 11
237.5311585
 21
218.27255199999999
  0
LINE
  8
_0-0_0
  6
CONTINUOUS
 62
    7
 10
237.5311585
 20
218.27255199999999
 11
228.2811585
 21
218.27255199999999
  0
LINE
  8
_0-0_0
  6
CONTINUOUS
 62
    7
 10
237.7811585
 20
218.082336
 11
228.0311585
 21
218.082336
  0
LINE
  8
_0-0_0
  6
CONTINUOUS
 62
    7
 10
237.7811585
 20
218.30633499999999
 11
237.5311585
 21
218.27255199999999
  0
LINE
  8
_0-0_0
  6
CONTINUOUS
 62
    7
 10
237.7811585
 20
217.85199
 11
237.5311585
 21
218.01977500000001
  0
LINE
  8
_0-0_0
  6
CONTINUOUS
 62
    7
 10
237.5311585
 20
218.01977500000001
 11
228.2811585
 21
218.01977500000001
  0
LINE
  8
_0-0_0
  6
CONTINUOUS
 62
    7
 10
237.7811585
 20
217.85199
 11
228.0311585
 21
217.85199
  0
LINE
  8
_0-0_0
  6
CONTINUOUS
 62
    7
 10
237.7811585
 20
218.082336
 11
237.5311585
 21
218.01977500000001
  0
LINE
  8
_0-0_0
  6
CONTINUOUS
 62
    7
 10
237.7811585
 20
217.61776699999999
 11
237.5311585
 21
217.76132200000001
  0
LINE
  8
_0-0_0
  6
CONTINUOUS
 62
    7
 10
237.5311585
 20
217.76132200000001
 11
228.2811585
 21
217.76132200000001
  0
LINE
  8
_0-0_0
  6
CONTINUOUS
 62
    7
 10
237.7811585
 20
217.61776699999999
 11
228.0311585
 21
217.61776699999999
  0
LINE
  8
_0-0_0
  6
CONTINUOUS
 62
    7
 10
237.7811585
 20
217.85199
 11
237.5311585
 21
217.76132200000001
  0
LINE
  8
_0-0_0
  6
CONTINUOUS
 62
    7
 10
237.7811585
 20
217.38223300000001
 11
237.5311585
 21
217.5
  0
LINE
  8
_0-0_0
  6
CONTINUOUS
 62
    7
 10
237.5311585
 20
217.5
 11
228.2811585
 21
217.5
  0
LINE
  8
_0-0_0
  6
CONTINUOUS
 62
    7
 10
237.7811585
 20
217.38223300000001
 11
228.0311585
 21
217.38223300000001
  0
LINE
  8
_0-0_0
  6
CONTINUOUS
 62
    7
 10
237.7811585
 20
217.61776699999999
 11
237.5311585
 21
217.5
  0
LINE
  8
_0-0_0
  6
CONTINUOUS
 62
    7
 10
237.7811585
 20
217.14801
 11
237.5311585
 21
217.23867799999999
  0
LINE
  8
_0-0_0
  6
CONTINUOUS
 62
    7
 10
237.5311585
 20
217.23867799999999
 11
228.2811585
 21
217.23867799999999
  0
LINE
  8
_0-0_0
  6
CONTINUOUS
 62
    7
 10
237.7811585
 20
217.14801
 11
228.0311585
 21
217.14801
  0
LINE
  8
_0-0_0
  6
CONTINUOUS
 62
    7
 10
237.7811585
 20
217.38223300000001
 11
237.5311585
 21
217.23867799999999
  0
LINE
  8
_0-0_0
  6
CONTINUOUS
 62
    7
 10
237.7811585
 20
216.917664
 11
237.5311585
 21
216.98022499999999
  0
LINE
  8
_0-0_0
  6
CONTINUOUS
 62
    7
 10
237.5311585
 20
216.98022499999999
 11
228.2811585
 21
216.98022499999999
  0
LINE
  8
_0-0_0
  6
CONTINUOUS
 62
    7
 10
237.7811585
 20
216.917664
 11
228.0311585
 21
216.917664
  0
LINE
  8
_0-0_0
  6
CONTINUOUS
 62
    7
 10
237.7811585
 20
217.14801
 11
237.5311585
 21
216.98022499999999
  0
LINE
  8
_0-0_0
  6
CONTINUOUS
 62
    7
 10
237.7811585
 20
216.69366500000001
 11
237.5311585
 21
216.72744800000001
  0
LINE
  8
_0-0_0
  6
CONTINUOUS
 62
    7
 10
237.5311585
 20
216.72744800000001
 11
228.2811585
 21
216.72744800000001
  0
LINE
  8
_0-0_0
  6
CONTINUOUS
 62
    7
 10
237.7811585
 20
216.69366500000001
 11
228.0311585
 21
216.69366500000001
  0
LINE
  8
_0-0_0
  6
CONTINUOUS
 62
    7
 10
237.7811585
 20
216.917664
 11
237.5311585
 21
216.72744800000001
  0
LINE
  8
_0-0_0
  6
CONTINUOUS
 62
    7
 10
237.7811585
 20
216.47851600000001
 11
237.5311585
 21
216.48315400000001
  0
LINE
  8
_0-0_0
  6
CONTINUOUS
 62
    7
 10
237.5311585
 20
216.48315400000001
 11
228.2811585
 21
216.48315400000001
  0
LINE
  8
_0-0_0
  6
CONTINUOUS
 62
    7
 10
237.7811585
 20
216.47851600000001
 11
228.0311585
 21
216.47851600000001
  0
LINE
  8
_0-0_0
  6
CONTINUOUS
 62
    7
 10
237.7811585
 20
216.69366500000001
 11
237.5311585
 21
216.48315400000001
  0
LINE
  8
_0-0_0
  6
CONTINUOUS
 62
    7
 10
237.7811585
 20
216.27456699999999
 11
237.5311585
 21
216.25
  0
LINE
  8
_0-0_0
  6
CONTINUOUS
 62
    7
 10
237.5311585
 20
216.25
 11
228.2811585
 21
216.25
  0
LINE
  8
_0-0_0
  6
CONTINUOUS
 62
    7
 10
237.7811585
 20
216.47851600000001
 11
237.5311585
 21
216.25
  0
LINE
  8
_0-0_0
  6
CONTINUOUS
 62
    7
 10
228.0311585
 20
216.084045
 11
228.2811585
 21
216.03054800000001
  0
LINE
  8
_0-0_0
  6
CONTINUOUS
 62
    7
 10
228.0311585
 20
216.27456699999999
 11
228.2811585
 21
216.03054800000001
  0
LINE
  8
_0-0_0
  6
CONTINUOUS
 62
    7
 10
228.0311585
 20
215.908997
 11
228.2811585
 21
215.827179
  0
LINE
  8
_0-0_0
  6
CONTINUOUS
 62
    7
 10
228.0311585
 20
216.084045
 11
228.2811585
 21
215.827179
  0
LINE
  8
_0-0_0
  6
CONTINUOUS
 62
    7
 10
228.0311585
 20
215.75143399999999
 11
228.2811585
 21
215.64215100000001
  0
LINE
  8
_0-0_0
  6
CONTINUOUS
 62
    7
 10
228.0311585
 20
215.908997
 11
228.2811585
 21
215.64215100000001
  0
LINE
  8
_0-0_0
  6
CONTINUOUS
 62
    7
 10
228.0311585
 20
215.61300700000001
 11
228.2811585
 21
215.47744800000001
  0
LINE
  8
_0-0_0
  6
CONTINUOUS
 62
    7
 10
228.0311585
 20
215.75143399999999
 11
228.2811585
 21
215.47744800000001
  0
LINE
  8
_0-0_0
  6
CONTINUOUS
 62
    7
 10
228.0311585
 20
215.495239
 11
228.2811585
 21
215.33493000000001
  0
LINE
  8
_0-0_0
  6
CONTINUOUS
 62
    7
 10
228.0311585
 20
215.61300700000001
 11
228.2811585
 21
215.33493000000001
  0
LINE
  8
_0-0_0
  6
CONTINUOUS
 62
    7
 10
228.0311585
 20
215.39944499999999
 11
228.2811585
 21
215.21612500000001
  0
LINE
  8
_0-0_0
  6
CONTINUOUS
 62
    7
 10
228.0311585
 20
215.495239
 11
228.2811585
 21
215.21612500000001
  0
LINE
  8
_0-0_0
  6
CONTINUOUS
 62
    7
 10
228.0311585
 20
215.32666
 11
228.2811585
 21
215.12237500000001
  0
LINE
  8
_0-0_0
  6
CONTINUOUS
 62
    7
 10
228.0311585
 20
215.39944499999999
 11
228.2811585
 21
215.12237500000001
  0
LINE
  8
_0-0_0
  6
CONTINUOUS
 62
    7
 10
228.0311585
 20
215.27771000000001
 11
228.2811585
 21
215.05462600000001
  0
LINE
  8
_0-0_0
  6
CONTINUOUS
 62
    7
 10
228.0311585
 20
215.32666
 11
228.2811585
 21
215.05462600000001
  0
LINE
  8
_0-0_0
  6
CONTINUOUS
 62
    7
 10
228.0311585
 20
215.25308200000001
 11
228.2811585
 21
215.01370199999999
  0
LINE
  8
_0-0_0
  6
CONTINUOUS
 62
    7
 10
228.0311585
 20
215.27771000000001
 11
228.2811585
 21
215.01370199999999
  0
LINE
  8
_0-0_0
  6
CONTINUOUS
 62
    7
 10
228.0311585
 20
215.25308200000001
 11
228.2811585
 21
215
  0
LINE
  8
_0-0_0
  6
CONTINUOUS
 62
    7
 10
238.0311585
 20
219.255157
 11
238.0311585
 21
219.5
  0
LINE
  8
_0-0_0
  6
CONTINUOUS
 62
    7
 10
237.7811585
 20
216.27456699999999
 11
237.5311585
 21
216.03054800000001
  0
LINE
  8
_0-0_0
  6
CONTINUOUS
 62
    7
 10
237.7811585
 20
216.084045
 11
237.5311585
 21
216.03054800000001
  0
LINE
  8
_0-0_0
  6
CONTINUOUS
 62
    7
 10
237.7811585
 20
216.084045
 11
237.5311585
 21
215.827179
  0
LINE
  8
_0-0_0
  6
CONTINUOUS
 62
    7
 10
237.7811585
 20
215.908997
 11
237.5311585
 21
215.827179
  0
LINE
  8
_0-0_0
  6
CONTINUOUS
 62
    7
 10
237.7811585
 20
215.908997
 11
237.5311585
 21
215.64215100000001
  0
LINE
  8
_0-0_0
  6
CONTINUOUS
 62
    7
 10
237.7811585
 20
215.75143399999999
 11
237.5311585
 21
215.64215100000001
  0
LINE
  8
_0-0_0
  6
CONTINUOUS
 62
    7
 10
237.7811585
 20
215.75143399999999
 11
237.5311585
 21
215.47744800000001
  0
LINE
  8
_0-0_0
  6
CONTINUOUS
 62
    7
 10
237.7811585
 20
215.61300700000001
 11
237.5311585
 21
215.47744800000001
  0
LINE
  8
_0-0_0
  6
CONTINUOUS
 62
    7
 10
237.7811585
 20
215.61300700000001
 11
237.5311585
 21
215.33493000000001
  0
LINE
  8
_0-0_0
  6
CONTINUOUS
 62
    7
 10
237.7811585
 20
215.495239
 11
237.5311585
 21
215.33493000000001
  0
LINE
  8
_0-0_0
  6
CONTINUOUS
 62
    7
 10
237.7811585
 20
215.495239
 11
237.5311585
 21
215.21612500000001
  0
LINE
  8
_0-0_0
  6
CONTINUOUS
 62
    7
 10
237.7811585
 20
215.39944499999999
 11
237.5311585
 21
215.21612500000001
  0
LINE
  8
_0-0_0
  6
CONTINUOUS
 62
    7
 10
237.7811585
 20
215.39944499999999
 11
237.5311585
 21
215.12237500000001
  0
LINE
  8
_0-0_0
  6
CONTINUOUS
 62
    7
 10
237.7811585
 20
215.32666
 11
237.5311585
 21
215.12237500000001
  0
LINE
  8
_0-0_0
  6
CONTINUOUS
 62
    7
 10
237.7811585
 20
215.32666
 11
237.5311585
 21
215.05462600000001
  0
LINE
  8
_0-0_0
  6
CONTINUOUS
 62
    7
 10
237.7811585
 20
215.27771000000001
 11
237.5311585
 21
215.05462600000001
  0
LINE
  8
_0-0_0
  6
CONTINUOUS
 62
    7
 10
237.7811585
 20
215.27771000000001
 11
237.5311585
 21
215.01370199999999
  0
LINE
  8
_0-0_0
  6
CONTINUOUS
 62
    7
 10
237.7811585
 20
215.25308200000001
 11
237.5311585
 21
215.01370199999999
  0
LINE
  8
_0-0_0
  6
CONTINUOUS
 62
    7
 10
237.7811585
 20
215.25308200000001
 11
237.5311585
 21
215
  0
LINE
  8
_0-0_0
  6
CONTINUOUS
 62
    7
 10
238.0311585
 20
215.5
 11
238.0311585
 21
219.255157
  0
LINE
  8
_0-0_0
  6
CONTINUOUS
 62
    7
 10
237.5311585
 20
216.03054800000001
 11
228.2811585
 21
216.03054800000001
  0
LINE
  8
_0-0_0
  6
CONTINUOUS
 62
    7
 10
237.5311585
 20
215.827179
 11
228.2811585
 21
215.827179
  0
LINE
  8
_0-0_0
  6
CONTINUOUS
 62
    7
 10
237.5311585
 20
215.64215100000001
 11
228.2811585
 21
215.64215100000001
  0
LINE
  8
_0-0_0
  6
CONTINUOUS
 62
    7
 10
237.5311585
 20
215.47744800000001
 11
228.2811585
 21
215.47744800000001
  0
LINE
  8
_0-0_0
  6
CONTINUOUS
 62
    7
 10
237.5311585
 20
215.33493000000001
 11
228.2811585
 21
215.33493000000001
  0
LINE
  8
_0-0_0
  6
CONTINUOUS
 62
    7
 10
237.5311585
 20
215.21612500000001
 11
228.2811585
 21
215.21612500000001
  0
LINE
  8
_0-0_0
  6
CONTINUOUS
 62
    7
 10
237.5311585
 20
215.12237500000001
 11
228.2811585
 21
215.12237500000001
  0
LINE
  8
_0-0_0
  6
CONTINUOUS
 62
    7
 10
237.5311585
 20
215.05462600000001
 11
228.2811585
 21
215.05462600000001
  0
LINE
  8
_0-0_0
  6
CONTINUOUS
 62
    7
 10
237.5311585
 20
215.01370199999999
 11
228.2811585
 21
215.01370199999999
  0
LINE
  8
_0-0_0
  6
CONTINUOUS
 62
    7
 10
237.5311585
 20
215
 11
228.2811585
 21
215
  0
LINE
  8
_0-0_0
  6
CONTINUOUS
 62
    7
 10
101.0311585
 20
215.25
 11
98.575500500000004
 21
215.25
  0
LINE
  8
_0-0_0
  6
CONTINUOUS
 62
    7
 10
99.076568500000008
 20
219.75
 11
98.575500500000004
 21
219.75
  0
LINE
  8
_0-0_0
  6
CONTINUOUS
 62
    7
 10
98.431152499999996
 20
215.5
 11
98.575500500000004
 21
215.25
  0
LINE
  8
_0-0_0
  6
CONTINUOUS
 62
    7
 10
98.431152499999996
 20
219.5
 11
98.575500500000004
 21
219.75
  0
LINE
  8
_0-0_0
  6
CONTINUOUS
 62
    7
 10
202.0311585
 20
198.64999399999999
 11
228.0311585
 21
198.64999399999999
  0
LINE
  8
_0-0_0
  6
CONTINUOUS
 62
    7
 10
202.0311585
 20
203.14999399999999
 11
228.0311585
 21
203.14999399999999
  0
LINE
  8
_0-0_0
  6
CONTINUOUS
 62
    7
 10
228.0311585
 20
198.64999399999999
 11
228.2811585
 21
198.39999399999999
  0
LINE
  8
_0-0_0
  6
CONTINUOUS
 62
    7
 10
228.0311585
 20
203.14999399999999
 11
228.2811585
 21
203.39999399999999
  0
LINE
  8
_0-0_0
  6
CONTINUOUS
 62
    7
 10
224.0311585
 20
214.45001199999999
 11
222.7811585
 21
215.70001199999999
  0
LINE
  8
_0-0_0
  6
CONTINUOUS
 62
    7
 10
224.0311585
 20
203.95001199999999
 11
223.23117050000002
 21
203.14999399999999
  0
LINE
  8
_0-0_0
  6
CONTINUOUS
 62
    7
 10
238.0311585
 20
198.89999399999999
 11
237.5313415
 21
198.40014600000001
  0
LINE
  8
_0-0_0
  6
CONTINUOUS
 62
    7
 10
238.0311585
 20
202.89999399999999
 11
237.5313415
 21
203.39984100000001
  0
LINE
  8
_0-0_0
  6
CONTINUOUS
 62
    7
 10
224.0311585
 20
204.20001199999999
 11
224.4311525
 21
204.20001199999999
  0
LINE
  8
_0-0_0
  6
CONTINUOUS
 62
    7
 10
224.0311585
 20
214.20001199999999
 11
224.4311525
 21
214.20001199999999
  0
LINE
  8
_0-0_0
  6
CONTINUOUS
 62
    7
 10
225.23117050000002
 20
204.66189600000001
 11
224.4311525
 21
204.20001199999999
  0
LINE
  8
_0-0_0
  6
CONTINUOUS
 62
    7
 10
225.23117050000002
 20
213.73812899999999
 11
224.4311525
 21
214.20001199999999
  0
LINE
  8
_0-0_0
  6
CONTINUOUS
 62
    7
 10
225.23117050000002
 20
205.20001199999999
 11
283.23117050000002
 21
205.20001199999999
  0
LINE
  8
_0-0_0
  6
CONTINUOUS
 62
    7
 10
225.23117050000002
 20
213.20001199999999
 11
283.23117050000002
 21
213.20001199999999
  0
LINE
  8
_0-0_0
  6
CONTINUOUS
 62
    7
 10
207.7811275
 20
219.75
 11
228.0311585
 21
219.75
  0
LINE
  8
_0-0_0
  6
CONTINUOUS
 62
    7
 10
228.0311585
 20
219.75
 11
228.2811585
 21
220
  0
LINE
  8
_0-0_0
  6
CONTINUOUS
 62
    7
 10
223.23117050000002
 20
215.25
 11
228.0311585
 21
215.25
  0
LINE
  8
_0-0_0
  6
CONTINUOUS
 62
    7
 10
228.0311585
 20
215.25
 11
228.2811585
 21
215
  0
LINE
  8
_0-0_0
  6
CONTINUOUS
 62
    7
 10
238.0311585
 20
219.5
 11
237.5313415
 21
219.99984699999999
  0
LINE
  8
_0-0_0
  6
CONTINUOUS
 62
    7
 10
238.0311585
 20
215.5
 11
237.5313415
 21
215.00015300000001
  0
LINE
  8
_0-0_0
  6
CONTINUOUS
 62
    7
 10
466.0311585
 20
251.39999399999999
 11
466.0311585
 21
238.39999399999999
  0
LINE
  8
_0-0_0
  6
CONTINUOUS
 62
    7
 10
93.031158500000004
 20
251.39999399999999
 11
93.031158500000004
 21
238.39999399999999
  0
LINE
  8
_0-0_0
  6
CONTINUOUS
 62
    7
 10
93.031158500000004
 20
251.39999399999999
 11
466.0311585
 21
251.39999399999999
  0
LINE
  8
_0-0_0
  6
CONTINUOUS
 62
    7
 10
93.031158500000004
 20
251.39999399999999
 11
93.031158500000004
 21
270
  0
LINE
  8
_0-0_0
  6
CONTINUOUS
 62
    7
 10
93.031158500000004
 20
272.5
 11
93.031158500000004
 21
270
  0
LINE
  8
_0-0_0
  6
CONTINUOUS
 62
    7
 10
93.031158500000004
 20
273
 11
93.031158500000004
 21
272.5
  0
LINE
  8
_0-0_0
  6
CONTINUOUS
 62
    7
 10
93.031158500000004
 20
225
 11
93.031158500000004
 21
224.5
  0
LINE
  8
_0-0_0
  6
CONTINUOUS
 62
    7
 10
93.031158500000004
 20
230
 11
93.031158500000004
 21
225
  0
LINE
  8
_0-0_0
  6
CONTINUOUS
 62
    7
 10
93.031158500000004
 20
230.5
 11
93.031158500000004
 21
230
  0
LINE
  8
_0-0_0
  6
CONTINUOUS
 62
    7
 10
93.031158500000004
 20
231
 11
93.031158500000004
 21
230.5
  0
LINE
  8
_0-0_0
  6
CONTINUOUS
 62
    7
 10
93.031158500000004
 20
234.20001199999999
 11
93.031158500000004
 21
231
  0
LINE
  8
_0-0_0
  6
CONTINUOUS
 62
    7
 10
93.031158500000004
 20
234.20001199999999
 11
93.031158500000004
 21
238.39999399999999
  0
LINE
  8
_0-0_0
  6
CONTINUOUS
 62
    7
 10
93.031158500000004
 20
238.39999399999999
 11
466.0311585
 21
238.39999399999999
  0
LINE
  8
_0-0_0
  6
CONTINUOUS
 62
    7
 10
466.0311585
 20
234.20001199999999
 11
466.0311585
 21
238.39999399999999
  0
LINE
  8
_0-0_0
  6
CONTINUOUS
 62
    7
 10
466.0311585
 20
231
 11
466.0311585
 21
234.20001199999999
  0
LINE
  8
_0-0_0
  6
CONTINUOUS
 62
    7
 10
466.0311585
 20
231
 11
466.0311585
 21
230.5
  0
LINE
  8
_0-0_0
  6
CONTINUOUS
 62
    7
 10
466.0311585
 20
230.5
 11
466.0311585
 21
230
  0
LINE
  8
_0-0_0
  6
CONTINUOUS
 62
    7
 10
466.0311585
 20
230
 11
466.0311585
 21
225
  0
LINE
  8
_0-0_0
  6
CONTINUOUS
 62
    7
 10
466.0311585
 20
225
 11
466.0311585
 21
224.5
  0
LINE
  8
_0-0_0
  6
CONTINUOUS
 62
    7
 10
466.0311585
 20
273
 11
466.0311585
 21
272.5
  0
LINE
  8
_0-0_0
  6
CONTINUOUS
 62
    7
 10
466.0311585
 20
270
 11
466.0311585
 21
272.5
  0
LINE
  8
_0-0_0
  6
CONTINUOUS
 62
    7
 10
466.0311585
 20
251.39999399999999
 11
466.0311585
 21
270
  0
CIRCLE
  8
_0-0_0
  6
CONTINUOUS
 62
    7
 10
429.5311585
 20
260.5
 40
6
  0
CIRCLE
  8
_0-0_0
  6
CONTINUOUS
 62
    7
 10
329.5311585
 20
260.5
 40
6
  0
CIRCLE
  8
_0-0_0
  6
CONTINUOUS
 62
    7
 10
229.5311585
 20
260.5
 40
6
  0
CIRCLE
  8
_0-0_0
  6
CONTINUOUS
 62
    7
 10
129.5311585
 20
260.5
 40
6
  0
LINE
  8
_0-0_0
  6
CONTINUOUS
 62
    7
 10
93.031158500000004
 20
270
 11
466.0311585
 21
270
  0
LINE
  8
_0-0_0
  6
CONTINUOUS
 62
    7
 10
93.031158500000004
 20
273
 11
466.0311585
 21
273
  0
LINE
  8
_0-0_0
  6
CONTINUOUS
 62
    7
 10
93.031158500000004
 20
272.5
 11
90.531158500000004
 21
272.5
  0
LINE
  8
_0-0_0
  6
CONTINUOUS
 62
    7
 10
90.531158500000004
 20
272.5
 11
90.531158500000004
 21
272
  0
LINE
  8
_0-0_0
  6
CONTINUOUS
 62
    7
 10
90.531158500000004
 20
272
 11
90.531158500000004
 21
231.5
  0
LINE
  8
_0-0_0
  6
CONTINUOUS
 62
    7
 10
93.031158500000004
 20
231
 11
90.531158500000004
 21
231
  0
LINE
  8
_0-0_0
  6
CONTINUOUS
 62
    7
 10
90.531158500000004
 20
231.5
 11
90.531158500000004
 21
231
  0
LINE
  8
_0-0_0
  6
CONTINUOUS
 62
    7
 10
90.531158500000004
 20
231
 11
90.531158500000004
 21
230
  0
LINE
  8
_0-0_0
  6
CONTINUOUS
 62
    7
 10
90.531158500000004
 20
230
 11
90.531158500000004
 21
225.5
  0
LINE
  8
_0-0_0
  6
CONTINUOUS
 62
    7
 10
93.031158500000004
 20
225
 11
90.531158500000004
 21
225
  0
LINE
  8
_0-0_0
  6
CONTINUOUS
 62
    7
 10
90.531158500000004
 20
225.5
 11
90.531158500000004
 21
225
  0
LINE
  8
_0-0_0
  6
CONTINUOUS
 62
    7
 10
93.031158500000004
 20
224.5
 11
466.0311585
 21
224.5
  0
LINE
  8
_0-0_0
  6
CONTINUOUS
 62
    7
 10
93.031158500000004
 20
230.5
 11
466.0311585
 21
230.5
  0
LINE
  8
_0-0_0
  6
CONTINUOUS
 62
    7
 10
93.031158500000004
 20
234.20001199999999
 11
466.0311585
 21
234.20001199999999
  0
LINE
  8
_0-0_0
  6
CONTINUOUS
 62
    7
 10
466.0311585
 20
272.5
 11
468.5311585
 21
272.5
  0
LINE
  8
_0-0_0
  6
CONTINUOUS
 62
    7
 10
468.5311585
 20
272.5
 11
468.5311585
 21
272
  0
LINE
  8
_0-0_0
  6
CONTINUOUS
 62
    7
 10
468.5311585
 20
272
 11
468.5311585
 21
231.5
  0
LINE
  8
_0-0_0
  6
CONTINUOUS
 62
    7
 10
466.0311585
 20
231
 11
468.5311585
 21
231
  0
LINE
  8
_0-0_0
  6
CONTINUOUS
 62
    7
 10
468.5311585
 20
231.5
 11
468.5311585
 21
231
  0
LINE
  8
_0-0_0
  6
CONTINUOUS
 62
    7
 10
468.5311585
 20
231
 11
468.5311585
 21
230
  0
LINE
  8
_0-0_0
  6
CONTINUOUS
 62
    7
 10
468.5311585
 20
230
 11
468.5311585
 21
225.5
  0
LINE
  8
_0-0_0
  6
CONTINUOUS
 62
    7
 10
466.0311585
 20
225
 11
468.5311585
 21
225
  0
LINE
  8
_0-0_0
  6
CONTINUOUS
 62
    7
 10
468.5311585
 20
225.5
 11
468.5311585
 21
225
  0
ARC
  8
_0-0_0
  6
CONTINUOUS
 62
    7
 10
150.5311585
 20
225.5
 40
0.5
 50
269.99999700000001
 51
0
  0
LINE
  8
_0-0_0
  6
CONTINUOUS
 62
    7
 10
150.5311585
 20
225
 11
143.5311585
 21
225
  0
ARC
  8
_0-0_0
  6
CONTINUOUS
 62
    7
 10
143.5311585
 20
225.5
 40
0.5
 50
179.99999099999999
 51
269.99999700000001
  0
LINE
  8
_0-0_0
  6
CONTINUOUS
 62
    7
 10
143.0311585
 20
229.5
 11
143.0311585
 21
225.5
  0
ARC
  8
_0-0_0
  6
CONTINUOUS
 62
    7
 10
143.5311585
 20
229.5
 40
0.5
 50
90.000003000000007
 51
179.99999099999999
  0
ARC
  8
_0-0_0
  6
CONTINUOUS
 62
    7
 10
150.5311585
 20
229.5
 40
0.5
 50
0
 51
90.000003000000007
  0
LINE
  8
_0-0_0
  6
CONTINUOUS
 62
    7
 10
143.5311585
 20
230
 11
150.5311585
 21
230
  0
LINE
  8
_0-0_0
  6
CONTINUOUS
 62
    7
 10
466.0311585
 20
273
 11
466.0311585
 21
272.70001200000002
  0
LINE
  8
_0-0_0
  6
CONTINUOUS
 62
    7
 10
466.0311585
 20
272.70001200000002
 11
466.0311585
 21
272.5
  0
CIRCLE
  8
_0-0_0
  6
CONTINUOUS
 62
    7
 10
429.5311585
 20
260.5
 40
5.5
  0
CIRCLE
  8
_0-0_0
  6
CONTINUOUS
 62
    7
 10
329.5311585
 20
260.5
 40
5.5
  0
CIRCLE
  8
_0-0_0
  6
CONTINUOUS
 62
    7
 10
229.5311585
 20
260.5
 40
5.5
  0
CIRCLE
  8
_0-0_0
  6
CONTINUOUS
 62
    7
 10
129.5311585
 20
260.5
 40
5.5
  0
LINE
  8
_0-0_0
  6
CONTINUOUS
 62
    7
 10
151.0311585
 20
225.5
 11
151.0311585
 21
229.5
  0
CIRCLE
  8
_0-0_0
  6
CONTINUOUS
 62
    7
 10
429.5311585
 20
260.5
 40
3.5
  0
CIRCLE
  8
_0-0_0
  6
CONTINUOUS
 62
    7
 10
329.5311585
 20
260.5
 40
3.5
  0
CIRCLE
  8
_0-0_0
  6
CONTINUOUS
 62
    7
 10
229.5311585
 20
260.5
 40
3.5
  0
CIRCLE
  8
_0-0_0
  6
CONTINUOUS
 62
    7
 10
129.5311585
 20
260.5
 40
3.5
  0
ARC
  8
_0-0_0
  6
CONTINUOUS
 62
    7
 10
148.3311765
 20
229.20001199999999
 40
0.2
 50
339.62356199999999
 51
90.000002999999978
  0
LINE
  8
_0-0_0
  6
CONTINUOUS
 62
    7
 10
148.51864649999999
 20
229.130371
 11
147.2186585
 21
225.630371
  0
ARC
  8
_0-0_0
  6
CONTINUOUS
 62
    7
 10
147.0311585
 20
225.70001199999999
 40
0.2
 50
200.37643
 51
339.62356199999999
  0
LINE
  8
_0-0_0
  6
CONTINUOUS
 62
    7
 10
145.54367049999999
 20
229.130371
 11
146.84368849999998
 21
225.630371
  0
ARC
  8
_0-0_0
  6
CONTINUOUS
 62
    7
 10
145.73117049999999
 20
229.20001199999999
 40
0.2
 50
90.000003000000007
 51
200.37643
  0
LINE
  8
_0-0_0
  6
CONTINUOUS
 62
    7
 10
145.73117049999999
 20
229.39999399999999
 11
148.3311765
 21
229.39999399999999
  0
ARC
  8
_0-0_0
  6
CONTINUOUS
 62
    7
 10
385.73117050000002
 20
229.20001199999999
 40
0.2
 50
90.000003000000007
 51
200.37643
  0
LINE
  8
_0-0_0
  6
CONTINUOUS
 62
    7
 10
385.73117050000002
 20
229.39999399999999
 11
388.33114649999999
 21
229.39999399999999
  0
ARC
  8
_0-0_0
  6
CONTINUOUS
 62
    7
 10
383.5311585
 20
229.5
 40
0.5
 50
90.000003000000007
 51
179.99999099999999
  0
LINE
  8
_0-0_0
  6
CONTINUOUS
 62
    7
 10
383.0311585
 20
229.5
 11
383.0311585
 21
225.5
  0
ARC
  8
_0-0_0
  6
CONTINUOUS
 62
    7
 10
383.5311585
 20
225.5
 40
0.5
 50
179.99999099999999
 51
269.99999700000001
  0
LINE
  8
_0-0_0
  6
CONTINUOUS
 62
    7
 10
390.5311585
 20
225
 11
383.5311585
 21
225
  0
ARC
  8
_0-0_0
  6
CONTINUOUS
 62
    7
 10
390.5311585
 20
225.5
 40
0.5
 50
269.99999700000001
 51
0
  0
LINE
  8
_0-0_0
  6
CONTINUOUS
 62
    7
 10
391.0311585
 20
225.5
 11
391.0311585
 21
229.5
  0
ARC
  8
_0-0_0
  6
CONTINUOUS
 62
    7
 10
390.5311585
 20
229.5
 40
0.5
 50
0
 51
90.000003000000007
  0
LINE
  8
_0-0_0
  6
CONTINUOUS
 62
    7
 10
383.5311585
 20
230
 11
390.5311585
 21
230
  0
LINE
  8
_0-0_0
  6
CONTINUOUS
 62
    7
 10
385.54367050000002
 20
229.130371
 11
386.8436585
 21
225.630371
  0
ARC
  8
_0-0_0
  6
CONTINUOUS
 62
    7
 10
387.0311585
 20
225.70001199999999
 40
0.2
 50
200.37643
 51
339.62356199999999
  0
LINE
  8
_0-0_0
  6
CONTINUOUS
 62
    7
 10
388.51864649999999
 20
229.130371
 11
387.2186585
 21
225.630371
  0
ARC
  8
_0-0_0
  6
CONTINUOUS
 62
    7
 10
388.33114649999999
 20
229.20001199999999
 40
0.2
 50
339.62356199999999
 51
90.000002999999978
  0
LINE
  8
_0-0_0
  6
CONTINUOUS
 62
    7
 10
35.106513500000005
 20
222.5
 11
35.206512500000002
 21
222.5
  0
LINE
  8
_0-0_0
  6
CONTINUOUS
 62
    7
 10
50.906516500000009
 20
222.5
 11
50.206512500000002
 21
222.5
  0
LINE
  8
_0-0_0
  6
CONTINUOUS
 62
    7
 10
50.906516500000009
 20
222.5
 11
52.106513500000005
 21
222.5
  0
ARC
  8
_0-0_0
  6
CONTINUOUS
 62
    7
 10
52.106513500000005
 20
222
 40
0.5
 50
0
 51
90.000003000000007
  0
ARC
  8
_0-0_0
  6
CONTINUOUS
 62
    7
 10
50.906516500000009
 20
222
 40
0.5
 50
90.000003000000007
 51
179.99999099999999
  0
ARC
  8
_0-0_0
  6
CONTINUOUS
 62
    7
 10
35.106513500000005
 20
222
 40
0.5
 50
90.000003000000007
 51
179.99999099999999
  0
ARC
  8
_0-0_0
  6
CONTINUOUS
 62
    7
 10
36.606513500000005
 20
223
 40
0.5
 50
90.000003000000007
 51
126.868797
  0
LINE
  8
_0-0_0
  6
CONTINUOUS
 62
    7
 10
38.106513500000005
 20
223.5
 11
36.606513500000005
 21
223.5
  0
ARC
  8
_0-0_0
  6
CONTINUOUS
 62
    7
 10
38.106513500000005
 20
224.5
 40
1
 50
269.99999700000001
 51
0
  0
LINE
  8
_0-0_0
  6
CONTINUOUS
 62
    7
 10
39.106513500000005
 20
225
 11
39.106513500000005
 21
224.5
  0
LINE
  8
_0-0_0
  6
CONTINUOUS
 62
    7
 10
39.606513500000005
 20
225
 11
39.606513500000005
 21
224
  0
ARC
  8
_0-0_0
  6
CONTINUOUS
 62
    7
 10
38.106513500000005
 20
224
 40
1.5
 50
336.42205899999999
 51
0
  0
ARC
  8
_0-0_0
  6
CONTINUOUS
 62
    7
 10
49.706520500000011
 20
224
 40
1.5
 50
179.99999099999999
 51
203.57793100000001
  0
LINE
  8
_0-0_0
  6
CONTINUOUS
 62
    7
 10
51.706520500000011
 20
223
 11
51.706520500000011
 21
222.5
  0
ARC
  8
_0-0_0
  6
CONTINUOUS
 62
    7
 10
51.206520500000011
 20
223
 40
0.5
 50
0
 51
90.000003000000007
  0
LINE
  8
_0-0_0
  6
CONTINUOUS
 62
    7
 10
49.706520500000011
 20
223.5
 11
51.206520500000011
 21
223.5
  0
ARC
  8
_0-0_0
  6
CONTINUOUS
 62
    7
 10
49.706520500000011
 20
224.5
 40
1
 50
179.99999099999999
 51
269.99999700000001
  0
LINE
  8
_0-0_0
  6
CONTINUOUS
 62
    7
 10
48.706520500000011
 20
225
 11
48.706520500000011
 21
224.5
  0
LINE
  8
_0-0_0
  6
CONTINUOUS
 62
    7
 10
48.206520500000011
 20
225
 11
48.206520500000011
 21
224
  0
LINE
  8
_0-0_0
  6
CONTINUOUS
 62
    7
 10
52.606513500000005
 20
195.5
 11
52.606513500000005
 21
196.39999399999999
  0
LINE
  8
_0-0_0
  6
CONTINUOUS
 62
    7
 10
52.606513500000005
 20
196.39999399999999
 11
52.606513500000005
 21
198.89999399999999
  0
LINE
  8
_0-0_0
  6
CONTINUOUS
 62
    7
 10
52.606513500000005
 20
198.89999399999999
 11
52.606513500000005
 21
219.5
  0
LINE
  8
_0-0_0
  6
CONTINUOUS
 62
    7
 10
52.606513500000005
 20
219.5
 11
52.606513500000005
 21
222
  0
LINE
  8
_0-0_0
  6
CONTINUOUS
 62
    7
 10
50.406516500000009
 20
222
 11
50.406516500000009
 21
220.75500500000001
  0
LINE
  8
_0-0_0
  6
CONTINUOUS
 62
    7
 10
48.006515499999978
 20
223.39999399999999
 11
48.006515499999978
 21
224.79998800000001
  0
ARC
  8
_0-0_0
  6
CONTINUOUS
 62
    7
 10
47.506515499999978
 20
224.79998800000001
 40
0.5
 50
0
 51
23.579369
  0
LINE
  8
_0-0_0
  6
CONTINUOUS
 62
    7
 10
39.806518499999981
 20
223.39999399999999
 11
39.806518499999981
 21
224.79998800000001
  0
ARC
  8
_0-0_0
  6
CONTINUOUS
 62
    7
 10
40.306518499999981
 20
224.79998800000001
 40
0.5
 50
156.420635
 51
179.99999099999999
  0
LINE
  8
_0-0_0
  6
CONTINUOUS
 62
    7
 10
34.606513500000005
 20
195.5
 11
34.606513500000005
 21
205.70001199999999
  0
LINE
  8
_0-0_0
  6
CONTINUOUS
 62
    7
 10
34.606513500000005
 20
205.70001199999999
 11
34.606513500000005
 21
206.70001199999999
  0
LINE
  8
_0-0_0
  6
CONTINUOUS
 62
    7
 10
34.606513500000005
 20
206.70001199999999
 11
34.606513500000005
 21
211.70001199999999
  0
LINE
  8
_0-0_0
  6
CONTINUOUS
 62
    7
 10
34.606513500000005
 20
211.70001199999999
 11
34.606513500000005
 21
212.70001199999999
  0
LINE
  8
_0-0_0
  6
CONTINUOUS
 62
    7
 10
34.606513500000005
 20
222
 11
34.606513500000005
 21
212.70001199999999
  0
ARC
  8
_0-0_0
  6
CONTINUOUS
 62
    7
 10
35.706520500000011
 20
211.70001199999999
 40
0.5
 50
0
 51
90.000003000000007
  0
LINE
  8
_0-0_0
  6
CONTINUOUS
 62
    7
 10
35.806518499999981
 20
212.64999399999999
 11
35.706520500000011
 21
212.64999399999999
  0
ARC
  8
_0-0_0
  6
CONTINUOUS
 62
    7
 10
35.806518499999981
 20
212.14999399999999
 40
0.5
 50
0
 51
90.000003000000007
  0
LINE
  8
_0-0_0
  6
CONTINUOUS
 62
    7
 10
36.206520500000011
 20
211.70001199999999
 11
36.206520500000011
 21
206.70001199999999
  0
ARC
  8
_0-0_0
  6
CONTINUOUS
 62
    7
 10
35.706520500000011
 20
206.70001199999999
 40
0.5
 50
269.99999700000001
 51
0
  0
ARC
  8
_0-0_0
  6
CONTINUOUS
 62
    7
 10
35.806518499999981
 20
206.60000600000001
 40
0.5
 50
269.99999700000001
 51
0
  0
LINE
  8
_0-0_0
  6
CONTINUOUS
 62
    7
 10
35.706520500000011
 20
206.10000600000001
 11
35.806518499999981
 21
206.10000600000001
  0
LINE
  8
_0-0_0
  6
CONTINUOUS
 62
    7
 10
53.406516500000009
 20
221
 11
52.606513500000005
 21
221
  0
LINE
  8
_0-0_0
  6
CONTINUOUS
 62
    7
 10
53.406516500000009
 20
221.79998800000001
 11
52.606513500000005
 21
221.79998800000001
  0
LINE
  8
_0-0_0
  6
CONTINUOUS
 62
    7
 10
53.406516500000009
 20
220.79998800000001
 11
53.406516500000009
 21
221.79998800000001
  0
LINE
  8
_0-0_0
  6
CONTINUOUS
 62
    7
 10
53.406516500000009
 20
202.20001199999999
 11
52.606513500000005
 21
202.20001199999999
  0
LINE
  8
_0-0_0
  6
CONTINUOUS
 62
    7
 10
53.406516500000009
 20
202.20001199999999
 11
53.406516500000009
 21
205.20001199999999
  0
LINE
  8
_0-0_0
  6
CONTINUOUS
 62
    7
 10
53.406516500000009
 20
217.437714
 11
53.406516500000009
 21
205.20001199999999
  0
LINE
  8
_0-0_0
  6
CONTINUOUS
 62
    7
 10
53.406516500000009
 20
217.437714
 11
53.406516500000009
 21
218.40048200000001
  0
LINE
  8
_0-0_0
  6
CONTINUOUS
 62
    7
 10
52.606513500000005
 20
218.40048200000001
 11
52.606513500000005
 21
221
  0
ARC
  8
_0-0_0
  6
CONTINUOUS
 62
    7
 10
46.991592499999996
 20
217.68203700000001
 40
5.7120379999999997
 50
18.558475999999999
 51
26.433648000000002
  0
ARC
  8
_0-0_0
  6
CONTINUOUS
 62
    7
 10
52.406516500000009
 20
219.5
 40
0.2
 50
269.99999700000001
 51
0
  0
ARC
  8
_0-0_0
  6
CONTINUOUS
 62
    7
 10
52.406516500000009
 20
198.89999399999999
 40
0.2
 50
0
 51
90.000003000000007
  0
ARC
  8
_0-0_0
  6
CONTINUOUS
 62
    7
 10
46.991706499999992
 20
200.71804800000001
 40
5.711964
 50
333.565022
 51
341.44031000000001
  0
ARC
  8
_0-0_0
  6
CONTINUOUS
 62
    7
 10
52.106513500000005
 20
196.39999399999999
 40
0.5
 50
269.99999700000001
 51
0
  0
LINE
  8
_0-0_0
  6
CONTINUOUS
 62
    7
 10
52.106513500000005
 20
195.5
 11
52.606513500000005
 21
195.5
  0
LINE
  8
_0-0_0
  6
CONTINUOUS
 62
    7
 10
52.606513500000005
 20
195.5
 11
52.106513500000005
 21
195
  0
ARC
  8
_0-0_0
  6
CONTINUOUS
 62
    7
 10
50.406516500000009
 20
218
 40
2.2999999999999998
 50
34.417387999999995
 51
79.713437000000013
  0
LINE
  8
_0-0_0
  6
CONTINUOUS
 62
    7
 10
52.345199499999978
 20
219.29998800000001
 11
52.303886499999976
 21
219.29998800000001
  0
LINE
  8
_0-0_0
  6
CONTINUOUS
 62
    7
 10
52.345199499999978
 20
219.29998800000001
 11
52.3547595
 21
219.30102500000001
  0
LINE
  8
_0-0_0
  6
CONTINUOUS
 62
    7
 10
52.3547595
 20
219.30102500000001
 11
52.364250499999997
 21
219.30422999999999
  0
LINE
  8
_0-0_0
  6
CONTINUOUS
 62
    7
 10
52.364250499999997
 20
219.30422999999999
 11
52.373504499999996
 21
219.309631
  0
LINE
  8
_0-0_0
  6
CONTINUOUS
 62
    7
 10
52.373504499999996
 20
219.309631
 11
52.382301499999983
 21
219.31710799999999
  0
LINE
  8
_0-0_0
  6
CONTINUOUS
 62
    7
 10
52.382301499999983
 20
219.31710799999999
 11
52.397697499999992
 21
219.33776900000001
  0
LINE
  8
_0-0_0
  6
CONTINUOUS
 62
    7
 10
52.397697499999992
 20
219.33776900000001
 11
52.40947749999998
 21
219.36505099999999
  0
LINE
  8
_0-0_0
  6
CONTINUOUS
 62
    7
 10
52.40947749999998
 20
219.36505099999999
 11
52.416656499999988
 21
219.397186
  0
LINE
  8
_0-0_0
  6
CONTINUOUS
 62
    7
 10
52.416656499999988
 20
219.397186
 11
52.418548499999986
 21
219.43222
  0
LINE
  8
_0-0_0
  6
CONTINUOUS
 62
    7
 10
52.418548499999986
 20
219.43222
 11
52.414703500000002
 21
219.468414
  0
LINE
  8
_0-0_0
  6
CONTINUOUS
 62
    7
 10
52.414703500000002
 20
219.468414
 11
52.406516500000009
 21
219.5
  0
ARC
  8
_0-0_0
  6
CONTINUOUS
 62
    7
 10
50.906516500000009
 20
220.75500500000001
 40
0.5
 50
179.99999099999999
 51
259.71343899999994
  0
LINE
  8
_0-0_0
  6
CONTINUOUS
 62
    7
 10
50.206520500000011
 20
220.85000600000001
 11
50.206520500000011
 21
220.55658
  0
LINE
  8
_0-0_0
  6
CONTINUOUS
 62
    7
 10
50.206520500000011
 20
220.85000600000001
 11
50.206520500000011
 21
222.89999399999999
  0
ARC
  8
_0-0_0
  6
CONTINUOUS
 62
    7
 10
49.706520500000011
 20
222.89999399999999
 40
0.5
 50
0
 51
90.000003000000007
  0
LINE
  8
_0-0_0
  6
CONTINUOUS
 62
    7
 10
49.706520500000011
 20
223.39999399999999
 11
46.963622499999985
 21
223.39999399999999
  0
ARC
  8
_0-0_0
  6
CONTINUOUS
 62
    7
 10
35.706520500000011
 20
213.14999399999999
 40
0.5
 50
179.99999099999999
 51
269.99999700000001
  0
LINE
  8
_0-0_0
  6
CONTINUOUS
 62
    7
 10
35.206520500000011
 20
222.89999399999999
 11
35.206520500000011
 21
213.14999399999999
  0
LINE
  8
_0-0_0
  6
CONTINUOUS
 62
    7
 10
40.849410499999976
 20
223.39999399999999
 11
35.706520500000011
 21
223.39999399999999
  0
ARC
  8
_0-0_0
  6
CONTINUOUS
 62
    7
 10
35.706520500000011
 20
222.89999399999999
 40
0.5
 50
90.000003000000007
 51
179.99999099999999
  0
LINE
  8
_0-0_0
  6
CONTINUOUS
 62
    7
 10
34.406516500000009
 20
221
 11
34.606513500000005
 21
221
  0
LINE
  8
_0-0_0
  6
CONTINUOUS
 62
    7
 10
34.406516500000009
 20
221.79998800000001
 11
34.606513500000005
 21
221.79998800000001
  0
LINE
  8
_0-0_0
  6
CONTINUOUS
 62
    7
 10
34.406516500000009
 20
221.79998800000001
 11
34.406516500000009
 21
221.000122
  0
LINE
  8
_0-0_0
  6
CONTINUOUS
 62
    7
 10
34.406516500000009
 20
202.20001199999999
 11
34.606513500000005
 21
202.20001199999999
  0
LINE
  8
_0-0_0
  6
CONTINUOUS
 62
    7
 10
34.406516500000009
 20
205.20001199999999
 11
34.406516500000009
 21
202.20001199999999
  0
LINE
  8
_0-0_0
  6
CONTINUOUS
 62
    7
 10
34.406516500000009
 20
217.437714
 11
34.406516500000009
 21
205.20001199999999
  0
LINE
  8
_0-0_0
  6
CONTINUOUS
 62
    7
 10
34.406516500000009
 20
218.40048200000001
 11
34.406516500000009
 21
217.437714
  0
ARC
  8
_0-0_0
  6
CONTINUOUS
 62
    7
 10
35.106513500000005
 20
211.70001199999999
 40
0.5
 50
90.000003000000007
 51
179.99999099999999
  0
ARC
  8
_0-0_0
  6
CONTINUOUS
 62
    7
 10
35.106513500000005
 20
206.70001199999999
 40
0.5
 50
179.99999099999999
 51
269.99999700000001
  0
LINE
  8
_0-0_0
  6
CONTINUOUS
 62
    7
 10
34.606513500000005
 20
195.5
 11
35.106513500000005
 21
195.5
  0
LINE
  8
_0-0_0
  6
CONTINUOUS
 62
    7
 10
34.606513500000005
 20
195.5
 11
35.106513500000005
 21
195
  0
LINE
  8
_0-0_0
  6
CONTINUOUS
 62
    7
 10
35.706520500000011
 20
212.20001199999999
 11
35.106513500000005
 21
212.20001199999999
  0
LINE
  8
_0-0_0
  6
CONTINUOUS
 62
    7
 10
36.306518499999981
 20
212.14999399999999
 11
36.306518499999981
 21
206.60000600000001
  0
LINE
  8
_0-0_0
  6
CONTINUOUS
 62
    7
 10
52.106513500000005
 20
195.5
 11
35.106513500000005
 21
195.5
  0
LINE
  8
_0-0_0
  6
CONTINUOUS
 62
    7
 10
35.106513500000005
 20
206.20001199999999
 11
35.706520500000011
 21
206.20001199999999
  0
ARC
  8
_0-0_0
  6
CONTINUOUS
 62
    7
 10
35.706520500000011
 20
205.60000600000001
 40
0.5
 50
90.000003000000007
 51
179.99999099999999
  0
LINE
  8
_0-0_0
  6
CONTINUOUS
 62
    7
 10
53.406516500000009
 20
218.40048200000001
 11
53.406516500000009
 21
221
  0
LINE
  8
_0-0_0
  6
CONTINUOUS
 62
    7
 10
52.406516500000009
 20
219.29998800000001
 11
52.345199499999978
 21
219.29998800000001
  0
LINE
  8
_0-0_0
  6
CONTINUOUS
 62
    7
 10
52.303886499999976
 20
219.29998800000001
 11
52.301658500000002
 21
219.29998800000001
  0
LINE
  8
_0-0_0
  6
CONTINUOUS
 62
    7
 10
52.169982500000003
 20
199.30001799999999
 11
52.206909499999995
 21
199.22976700000001
  0
LINE
  8
_0-0_0
  6
CONTINUOUS
 62
    7
 10
52.206909499999995
 20
199.22976700000001
 11
52.226509499999992
 21
199.19528199999999
  0
LINE
  8
_0-0_0
  6
CONTINUOUS
 62
    7
 10
52.226509499999992
 20
199.19528199999999
 11
52.252601499999997
 21
199.15344200000001
  0
LINE
  8
_0-0_0
  6
CONTINUOUS
 62
    7
 10
52.252601499999997
 20
199.15344200000001
 11
52.265907499999997
 21
199.134399
  0
LINE
  8
_0-0_0
  6
CONTINUOUS
 62
    7
 10
52.265907499999997
 20
199.134399
 11
52.284263500000009
 21
199.11203
  0
LINE
  8
_0-0_0
  6
CONTINUOUS
 62
    7
 10
52.284263500000009
 20
199.11203
 11
52.297058499999991
 21
199.10140999999999
  0
LINE
  8
_0-0_0
  6
CONTINUOUS
 62
    7
 10
52.297058499999991
 20
199.10140999999999
 11
52.301658500000002
 21
199.10000600000001
  0
LINE
  8
_0-0_0
  6
CONTINUOUS
 62
    7
 10
52.303886499999976
 20
199.10000600000001
 11
52.301658500000002
 21
199.10000600000001
  0
LINE
  8
_0-0_0
  6
CONTINUOUS
 62
    7
 10
52.169982500000003
 20
219.10000600000001
 11
52.206909499999995
 21
219.17022700000001
  0
LINE
  8
_0-0_0
  6
CONTINUOUS
 62
    7
 10
52.206909499999995
 20
219.17022700000001
 11
52.226516500000002
 21
219.204712
  0
LINE
  8
_0-0_0
  6
CONTINUOUS
 62
    7
 10
52.226516500000002
 20
219.204712
 11
52.252601499999997
 21
219.24655200000001
  0
LINE
  8
_0-0_0
  6
CONTINUOUS
 62
    7
 10
52.252601499999997
 20
219.24655200000001
 11
52.265907499999997
 21
219.26559399999999
  0
LINE
  8
_0-0_0
  6
CONTINUOUS
 62
    7
 10
52.265907499999997
 20
219.26559399999999
 11
52.284263500000009
 21
219.28796399999999
  0
LINE
  8
_0-0_0
  6
CONTINUOUS
 62
    7
 10
52.284263500000009
 20
219.28796399999999
 11
52.297058499999991
 21
219.29861500000001
  0
LINE
  8
_0-0_0
  6
CONTINUOUS
 62
    7
 10
52.297058499999991
 20
219.29861500000001
 11
52.301658500000002
 21
219.29998800000001
  0
LINE
  8
_0-0_0
  6
CONTINUOUS
 62
    7
 10
52.303886499999976
 20
199.10000600000001
 11
52.345199499999978
 21
199.10000600000001
  0
LINE
  8
_0-0_0
  6
CONTINUOUS
 62
    7
 10
52.406516500000009
 20
199.10000600000001
 11
52.345199499999978
 21
199.10000600000001
  0
LINE
  8
_0-0_0
  6
CONTINUOUS
 62
    7
 10
52.345199499999978
 20
199.10000600000001
 11
52.3547595
 21
199.09896900000001
  0
LINE
  8
_0-0_0
  6
CONTINUOUS
 62
    7
 10
52.3547595
 20
199.09896900000001
 11
52.364250499999997
 21
199.095764
  0
LINE
  8
_0-0_0
  6
CONTINUOUS
 62
    7
 10
52.364250499999997
 20
199.095764
 11
52.373504499999996
 21
199.09039300000001
  0
LINE
  8
_0-0_0
  6
CONTINUOUS
 62
    7
 10
52.373504499999996
 20
199.09039300000001
 11
52.382301499999983
 21
199.082886
  0
LINE
  8
_0-0_0
  6
CONTINUOUS
 62
    7
 10
52.382301499999983
 20
199.082886
 11
52.397697499999992
 21
199.06222500000001
  0
LINE
  8
_0-0_0
  6
CONTINUOUS
 62
    7
 10
52.397697499999992
 20
199.06222500000001
 11
52.40947749999998
 21
199.034943
  0
LINE
  8
_0-0_0
  6
CONTINUOUS
 62
    7
 10
52.40947749999998
 20
199.034943
 11
52.416656499999988
 21
199.002838
  0
LINE
  8
_0-0_0
  6
CONTINUOUS
 62
    7
 10
52.416656499999988
 20
199.002838
 11
52.418548499999986
 21
198.96777299999999
  0
LINE
  8
_0-0_0
  6
CONTINUOUS
 62
    7
 10
52.418548499999986
 20
198.96777299999999
 11
52.414703500000002
 21
198.93161000000001
  0
LINE
  8
_0-0_0
  6
CONTINUOUS
 62
    7
 10
52.414703500000002
 20
198.93161000000001
 11
52.406516500000009
 21
198.89999399999999
  0
ARC
  8
_0-0_0
  6
CONTINUOUS
 62
    7
 10
50.406516500000009
 20
200.39999399999999
 40
2.2999999999999998
 50
280.28656300000006
 51
325.58260500000006
  0
LINE
  8
_0-0_0
  6
CONTINUOUS
 62
    7
 10
52.106513500000005
 20
195.89999399999999
 11
50.906516500000009
 21
195.89999399999999
  0
LINE
  8
_0-0_0
  6
CONTINUOUS
 62
    7
 10
52.106513500000005
 20
195
 11
35.106513500000005
 21
195
  0
LINE
  8
_0-0_0
  6
CONTINUOUS
 62
    7
 10
50.206520500000011
 20
220.55658
 11
50.20678749999999
 21
220.540131
  0
ARC
  8
_0-0_0
  6
CONTINUOUS
 62
    7
 10
50.706520500000011
 20
220.55658
 40
0.5
 50
181.88290099999998
 51
260.07179799999994
  0
LINE
  8
_0-0_0
  6
CONTINUOUS
 62
    7
 10
49.706520500000011
 20
221.344269
 11
49.906516500000009
 21
221.14999399999999
  0
LINE
  8
_0-0_0
  6
CONTINUOUS
 62
    7
 10
49.906516500000009
 20
221.14999399999999
 11
50.206520500000011
 21
220.85000600000001
  0
LINE
  8
_0-0_0
  6
CONTINUOUS
 62
    7
 10
50.206520500000011
 20
220.85000600000001
 11
49.906516500000009
 21
220.85000600000001
  0
ARC
  8
_0-0_0
  6
CONTINUOUS
 62
    7
 10
46.963622499999985
 20
223.89999399999999
 40
0.5
 50
225
 51
269.99999700000001
  0
ARC
  8
_0-0_0
  6
CONTINUOUS
 62
    7
 10
40.849410499999976
 20
223.89999399999999
 40
0.5
 50
269.99999700000001
 51
314.99999200000002
  0
LINE
  8
_0-0_0
  6
CONTINUOUS
 62
    7
 10
34.406516500000009
 20
221
 11
34.406516500000009
 21
218.40048200000001
  0
LINE
  8
_0-0_0
  6
CONTINUOUS
 62
    7
 10
52.606513500000005
 20
221.800049
 11
52.606513500000005
 21
222
  0
CIRCLE
  8
_0-0_0
  6
CONTINUOUS
 62
    7
 10
43.906516500000009
 20
221
 40
2.25
  0
ARC
  8
_0-0_0
  6
CONTINUOUS
 62
    7
 10
43.906516500000009
 20
200.89999399999999
 40
1.75
 50
179.99999099999999
 51
359.99998299999993
  0
LINE
  8
_0-0_0
  6
CONTINUOUS
 62
    7
 10
42.156516500000009
 20
201.14999399999999
 11
42.156516500000009
 21
200.89999399999999
  0
ARC
  8
_0-0_0
  6
CONTINUOUS
 62
    7
 10
43.906516500000009
 20
201.14999399999999
 40
1.75
 50
0
 51
179.99999099999999
  0
LINE
  8
_0-0_0
  6
CONTINUOUS
 62
    7
 10
45.656516500000009
 20
200.89999399999999
 11
45.656516500000009
 21
201.14999399999999
  0
ARC
  8
_0-0_0
  6
CONTINUOUS
 62
    7
 10
49.606513500000005
 20
201.20001199999999
 40
3
 50
269.99999700000001
 51
0
  0
LINE
  8
_0-0_0
  6
CONTINUOUS
 62
    7
 10
35.206520500000011
 20
205.60000600000001
 11
35.206520500000011
 21
204.75
  0
LINE
  8
_0-0_0
  6
CONTINUOUS
 62
    7
 10
35.206520500000011
 20
198.70001199999999
 11
35.206520500000011
 21
204.75
  0
ARC
  8
_0-0_0
  6
CONTINUOUS
 62
    7
 10
50.206520500000011
 20
217.70001199999999
 40
2.3999999999999999
 50
0
 51
80.071809999999985
  0
LINE
  8
_0-0_0
  6
CONTINUOUS
 62
    7
 10
52.606513500000005
 20
201.20001199999999
 11
52.606513500000005
 21
214
  0
LINE
  8
_0-0_0
  6
CONTINUOUS
 62
    7
 10
52.606513500000005
 20
214
 11
52.606513500000005
 21
217.70001199999999
  0
ARC
  8
_0-0_0
  6
CONTINUOUS
 62
    7
 10
50.906516500000009
 20
197.64501999999999
 40
0.5
 50
100.28656100000001
 51
179.99999099999999
  0
LINE
  8
_0-0_0
  6
CONTINUOUS
 62
    7
 10
50.406516500000009
 20
196.39999399999999
 11
50.406516500000009
 21
197.64501999999999
  0
ARC
  8
_0-0_0
  6
CONTINUOUS
 62
    7
 10
50.906516500000009
 20
196.39999399999999
 40
0.5
 50
179.99999099999999
 51
269.99999700000001
  0
LINE
  8
_0-0_0
  6
CONTINUOUS
 62
    7
 10
41.202964500000007
 20
223.546448
 11
41.260070499999983
 21
223.60354599999999
  0
ARC
  8
_0-0_0
  6
CONTINUOUS
 62
    7
 10
41.613624500000014
 20
223.25
 40
0.5
 50
90.000003000000007
 51
135
  0
LINE
  8
_0-0_0
  6
CONTINUOUS
 62
    7
 10
46.199409500000002
 20
223.75
 11
41.613624500000014
 21
223.75
  0
ARC
  8
_0-0_0
  6
CONTINUOUS
 62
    7
 10
46.199409500000002
 20
223.25
 40
0.5
 50
45.00000099999999
 51
90.000002999999992
  0
LINE
  8
_0-0_0
  6
CONTINUOUS
 62
    7
 10
46.610069500000009
 20
223.546448
 11
46.552963499999976
 21
223.60354599999999
  0
ARC
  8
_0-0_0
  6
CONTINUOUS
 62
    7
 10
49.906516500000009
 20
217.85000600000001
 40
3
 50
90.000003000000007
 51
179.99999099999999
  0
LINE
  8
_0-0_0
  6
CONTINUOUS
 62
    7
 10
37.906516500000009
 20
204.25
 11
35.706520500000011
 21
204.25
  0
ARC
  8
_0-0_0
  6
CONTINUOUS
 62
    7
 10
37.906516500000009
 20
201.25
 40
3
 50
0
 51
90.000003000000007
  0
LINE
  8
_0-0_0
  6
CONTINUOUS
 62
    7
 10
40.906516500000009
 20
201.25
 11
40.906516500000009
 21
198.70001199999999
  0
LINE
  8
_0-0_0
  6
CONTINUOUS
 62
    7
 10
41.406516500000009
 20
198.20001199999999
 11
49.606513500000005
 21
198.20001199999999
  0
LINE
  8
_0-0_0
  6
CONTINUOUS
 62
    7
 10
49.906516500000009
 20
214.5
 11
52.106513500000005
 21
214.5
  0
ARC
  8
_0-0_0
  6
CONTINUOUS
 62
    7
 10
49.906516500000009
 20
217.5
 40
3
 50
179.99999099999999
 51
269.99999700000001
  0
LINE
  8
_0-0_0
  6
CONTINUOUS
 62
    7
 10
46.906516500000009
 20
217.5
 11
46.906516500000009
 21
217.85000600000001
  0
CIRCLE
  8
_0-0_0
  6
CONTINUOUS
 62
    7
 10
43.906516500000009
 20
221
 40
2.0499999999999998
  0
ARC
  8
_0-0_0
  6
CONTINUOUS
 62
    7
 10
43.906516500000009
 20
200.89999399999999
 40
1.55
 50
179.99999099999999
 51
0
  0
LINE
  8
_0-0_0
  6
CONTINUOUS
 62
    7
 10
42.356513500000005
 20
201.14999399999999
 11
42.356513500000005
 21
200.89999399999999
  0
ARC
  8
_0-0_0
  6
CONTINUOUS
 62
    7
 10
43.906516500000009
 20
201.14999399999999
 40
1.55
 50
0
 51
179.99999099999999
  0
LINE
  8
_0-0_0
  6
CONTINUOUS
 62
    7
 10
45.456520500000011
 20
200.89999399999999
 11
45.456520500000011
 21
201.14999399999999
  0
LINE
  8
_0-0_0
  6
CONTINUOUS
 62
    7
 10
35.706520500000011
 20
198.20001199999999
 11
41.406516500000009
 21
198.20001199999999
  0
ARC
  8
_0-0_0
  6
CONTINUOUS
 62
    7
 10
35.706520500000011
 20
198.70001199999999
 40
0.5
 50
179.99999099999999
 51
269.99999700000001
  0
ARC
  8
_0-0_0
  6
CONTINUOUS
 62
    7
 10
35.706520500000011
 20
204.75
 40
0.5
 50
179.99999099999999
 51
269.99999700000001
  0
ARC
  8
_0-0_0
  6
CONTINUOUS
 62
    7
 10
52.106513500000005
 20
214
 40
0.5
 50
0
 51
90.000003000000007
  0
ARC
  8
_0-0_0
  6
CONTINUOUS
 62
    7
 10
41.406516500000009
 20
198.70001199999999
 40
0.5
 50
179.99999099999999
 51
269.99999700000001
  0
CIRCLE
  8
_0-0_0
  6
CONTINUOUS
 62
    7
 10
49.906516500000009
 20
217.5
 40
2.25
  0
CIRCLE
  8
_0-0_0
  6
CONTINUOUS
 62
    7
 10
37.906516500000009
 20
200.89999399999999
 40
2.25
  0
CIRCLE
  8
_0-0_0
  6
CONTINUOUS
 62
    7
 10
49.906516500000009
 20
217.5
 40
2
  0
CIRCLE
  8
_0-0_0
  6
CONTINUOUS
 62
    7
 10
37.906516500000009
 20
200.89999399999999
 40
2
  0
LINE
  8
_0-0_0
  6
CONTINUOUS
 62
    7
 10
48.756515499999978
 20
217.5
 11
49.324409500000002
 21
218.5
  0
LINE
  8
_0-0_0
  6
CONTINUOUS
 62
    7
 10
49.324409500000002
 20
216.5
 11
48.756515499999978
 21
217.5
  0
LINE
  8
_0-0_0
  6
CONTINUOUS
 62
    7
 10
50.488624500000014
 20
216.5
 11
49.324409500000002
 21
216.5
  0
LINE
  8
_0-0_0
  6
CONTINUOUS
 62
    7
 10
51.056518499999981
 20
217.5
 11
50.488624500000014
 21
216.5
  0
LINE
  8
_0-0_0
  6
CONTINUOUS
 62
    7
 10
50.488624500000014
 20
218.5
 11
51.056518499999981
 21
217.5
  0
LINE
  8
_0-0_0
  6
CONTINUOUS
 62
    7
 10
49.324409500000002
 20
218.5
 11
50.488624500000014
 21
218.5
  0
LINE
  8
_0-0_0
  6
CONTINUOUS
 62
    7
 10
36.756515499999978
 20
200.89999399999999
 11
37.324409500000002
 21
201.89999399999999
  0
LINE
  8
_0-0_0
  6
CONTINUOUS
 62
    7
 10
37.324409500000002
 20
199.89999399999999
 11
36.756515499999978
 21
200.89999399999999
  0
LINE
  8
_0-0_0
  6
CONTINUOUS
 62
    7
 10
38.488624500000014
 20
199.89999399999999
 11
37.324409500000002
 21
199.89999399999999
  0
LINE
  8
_0-0_0
  6
CONTINUOUS
 62
    7
 10
39.056518499999981
 20
200.89999399999999
 11
38.488624500000014
 21
199.89999399999999
  0
LINE
  8
_0-0_0
  6
CONTINUOUS
 62
    7
 10
38.488624500000014
 20
201.89999399999999
 11
39.056518499999981
 21
200.89999399999999
  0
LINE
  8
_0-0_0
  6
CONTINUOUS
 62
    7
 10
37.324409500000002
 20
201.89999399999999
 11
38.488624500000014
 21
201.89999399999999
  0
LINE
  8
_0-0_0
  6
CONTINUOUS
 62
    7
 10
52.606513500000005
 20
218.30029300000001
 11
52.606513500000005
 21
218.30630500000001
  0
LINE
  8
_0-0_0
  6
CONTINUOUS
 62
    7
 10
52.606513500000005
 20
219.5
 11
52.606147499999992
 21
219.48788500000001
  0
LINE
  8
_0-0_0
  6
CONTINUOUS
 62
    7
 10
52.606147499999992
 20
198.91210899999999
 11
52.606513500000005
 21
198.89999399999999
  0
LINE
  8
_0-0_0
  6
CONTINUOUS
 62
    7
 10
52.605796499999997
 20
214.02673300000001
 11
52.606513500000005
 21
214
  0
LINE
  8
_0-0_0
  6
CONTINUOUS
 62
    7
 10
58.106513500000005
 20
251.39999399999999
 11
58.106513500000005
 21
238.39999399999999
  0
LINE
  8
_0-0_0
  6
CONTINUOUS
 62
    7
 10
58.306518499999981
 20
251.39999399999999
 11
58.106513500000005
 21
251.39999399999999
  0
LINE
  8
_0-0_0
  6
CONTINUOUS
 62
    7
 10
58.306518499999981
 20
238.39999399999999
 11
58.106513500000005
 21
238.39999399999999
  0
LINE
  8
_0-0_0
  6
CONTINUOUS
 62
    7
 10
58.306518499999981
 20
251.39999399999999
 11
58.306518499999981
 21
270
  0
LINE
  8
_0-0_0
  6
CONTINUOUS
 62
    7
 10
58.406516500000009
 20
270
 11
58.306518499999981
 21
270
  0
LINE
  8
_0-0_0
  6
CONTINUOUS
 62
    7
 10
58.406516500000009
 20
272.5
 11
58.406516500000009
 21
270
  0
ARC
  8
_0-0_0
  6
CONTINUOUS
 62
    7
 10
57.906516500000009
 20
272.5
 40
0.5
 50
0
 51
90.000003000000007
  0
LINE
  8
_0-0_0
  6
CONTINUOUS
 62
    7
 10
57.906516500000009
 20
273
 11
54.906516500000009
 21
273
  0
ARC
  8
_0-0_0
  6
CONTINUOUS
 62
    7
 10
54.906516500000009
 20
272.5
 40
0.5
 50
90.000003000000007
 51
179.99999099999999
  0
ARC
  8
_0-0_0
  6
CONTINUOUS
 62
    7
 10
50.406516500000009
 20
225
 40
0.5
 50
179.99999099999999
 51
269.99999700000001
  0
LINE
  8
_0-0_0
  6
CONTINUOUS
 62
    7
 10
52.906516500000009
 20
224.5
 11
50.406516500000009
 21
224.5
  0
ARC
  8
_0-0_0
  6
CONTINUOUS
 62
    7
 10
52.906516500000009
 20
225
 40
0.5
 50
269.99999700000001
 51
0
  0
LINE
  8
_0-0_0
  6
CONTINUOUS
 62
    7
 10
53.406516500000009
 20
230
 11
53.406516500000009
 21
225
  0
ARC
  8
_0-0_0
  6
CONTINUOUS
 62
    7
 10
53.906516500000009
 20
230
 40
0.5
 50
90.000003000000007
 51
179.99999099999999
  0
LINE
  8
_0-0_0
  6
CONTINUOUS
 62
    7
 10
57.906516500000009
 20
230.5
 11
53.906516500000009
 21
230.5
  0
ARC
  8
_0-0_0
  6
CONTINUOUS
 62
    7
 10
57.906516500000009
 20
231
 40
0.5
 50
269.99999700000001
 51
0
  0
LINE
  8
_0-0_0
  6
CONTINUOUS
 62
    7
 10
58.406516500000009
 20
234.20001199999999
 11
58.406516500000009
 21
231
  0
LINE
  8
_0-0_0
  6
CONTINUOUS
 62
    7
 10
58.306518499999981
 20
234.20001199999999
 11
58.406516500000009
 21
234.20001199999999
  0
LINE
  8
_0-0_0
  6
CONTINUOUS
 62
    7
 10
58.306518499999981
 20
234.20001199999999
 11
58.306518499999981
 21
238.39999399999999
  0
LINE
  8
_0-0_0
  6
CONTINUOUS
 62
    7
 10
57.406516500000009
 20
272.5
 11
39.606513500000005
 21
272.5
  0
ARC
  8
_0-0_0
  6
CONTINUOUS
 62
    7
 10
57.406516500000009
 20
272
 40
0.5
 50
0
 51
90.000003000000007
  0
LINE
  8
_0-0_0
  6
CONTINUOUS
 62
    7
 10
57.906516500000009
 20
272
 11
57.906516500000009
 21
231.5
  0
ARC
  8
_0-0_0
  6
CONTINUOUS
 62
    7
 10
57.406516500000009
 20
231.5
 40
0.5
 50
269.99999700000001
 51
0
  0
LINE
  8
_0-0_0
  6
CONTINUOUS
 62
    7
 10
53.906516500000009
 20
231
 11
57.406516500000009
 21
231
  0
ARC
  8
_0-0_0
  6
CONTINUOUS
 62
    7
 10
53.906516500000009
 20
230
 40
1
 50
90.000003000000007
 51
179.99999099999999
  0
LINE
  8
_0-0_0
  6
CONTINUOUS
 62
    7
 10
52.906516500000009
 20
230
 11
52.906516500000009
 21
225.5
  0
ARC
  8
_0-0_0
  6
CONTINUOUS
 62
    7
 10
52.406516500000009
 20
225.5
 40
0.5
 50
269.99999700000001
 51
0
  0
LINE
  8
_0-0_0
  6
CONTINUOUS
 62
    7
 10
35.406516500000009
 20
225
 11
52.406516500000009
 21
225
  0
LINE
  8
_0-0_0
  6
CONTINUOUS
 62
    7
 10
53.906516500000009
 20
272.70001200000002
 11
53.906516500000009
 21
272.5
  0
ARC
  8
_0-0_0
  6
CONTINUOUS
 62
    7
 10
53.606513500000005
 20
272.70001200000002
 40
0.2999999999999999
 50
0
 51
90.000003000000007
  0
LINE
  8
_0-0_0
  6
CONTINUOUS
 62
    7
 10
53.606513500000005
 20
273
 11
38.906516500000009
 21
273
  0
ARC
  8
_0-0_0
  6
CONTINUOUS
 62
    7
 10
38.906516500000009
 20
272.70001200000002
 40
0.2999999999999999
 50
90.000003000000007
 51
179.99999099999999
  0
LINE
  8
_0-0_0
  6
CONTINUOUS
 62
    7
 10
38.606513500000005
 20
272.70001200000002
 11
38.606513500000005
 21
269.5
  0
LINE
  8
_0-0_0
  6
CONTINUOUS
 62
    7
 10
38.606513500000005
 20
269.5
 11
32.906516500000009
 21
269.5
  0
LINE
  8
_0-0_0
  6
CONTINUOUS
 62
    7
 10
32.906516500000009
 20
269.5
 11
32.106513500000005
 21
268.70001200000002
  0
ARC
  8
_0-0_0
  6
CONTINUOUS
 62
    7
 10
39.606513500000005
 20
272
 40
0.5
 50
90.000003000000007
 51
179.99999099999999
  0
LINE
  8
_0-0_0
  6
CONTINUOUS
 62
    7
 10
39.106513500000005
 20
272
 11
39.106513500000005
 21
269.20001200000002
  0
ARC
  8
_0-0_0
  6
CONTINUOUS
 62
    7
 10
38.606513500000005
 20
269.20001200000002
 40
0.5
 50
269.99999700000001
 51
0
  0
LINE
  8
_0-0_0
  6
CONTINUOUS
 62
    7
 10
38.606513500000005
 20
268.70001200000002
 11
30.406516500000009
 21
268.70001200000002
  0
ARC
  8
_0-0_0
  6
CONTINUOUS
 62
    7
 10
30.406516500000009
 20
268.20001200000002
 40
0.5
 50
90.000003000000007
 51
179.99999099999999
  0
LINE
  8
_0-0_0
  6
CONTINUOUS
 62
    7
 10
29.906516500000009
 20
231.5
 11
29.906516500000009
 21
268.20001200000002
  0
ARC
  8
_0-0_0
  6
CONTINUOUS
 62
    7
 10
30.406516500000009
 20
231.5
 40
0.5
 50
179.99999099999999
 51
269.99999700000001
  0
LINE
  8
_0-0_0
  6
CONTINUOUS
 62
    7
 10
30.406516500000009
 20
231
 11
33.906516500000009
 21
231
  0
ARC
  8
_0-0_0
  6
CONTINUOUS
 62
    7
 10
33.906516500000009
 20
230
 40
1
 50
0
 51
90.000003000000007
  0
LINE
  8
_0-0_0
  6
CONTINUOUS
 62
    7
 10
34.906516500000009
 20
225.5
 11
34.906516500000009
 21
230
  0
ARC
  8
_0-0_0
  6
CONTINUOUS
 62
    7
 10
35.406516500000009
 20
225.5
 40
0.5
 50
179.99999099999999
 51
269.99999700000001
  0
CIRCLE
  8
_0-0_0
  6
CONTINUOUS
 62
    7
 10
43.906516500000009
 20
234
 40
2.0670000000000002
  0
LINE
  8
_0-0_0
  6
CONTINUOUS
 62
    7
 10
31.906516500000009
 20
269
 11
31.906516500000009
 21
268.70001200000002
  0
LINE
  8
_0-0_0
  6
CONTINUOUS
 62
    7
 10
31.906516500000009
 20
269
 11
29.906516500000009
 21
269
  0
ARC
  8
_0-0_0
  6
CONTINUOUS
 62
    7
 10
29.906516500000009
 20
268.5
 40
0.5
 50
90.000003000000007
 51
179.99999099999999
  0
LINE
  8
_0-0_0
  6
CONTINUOUS
 62
    7
 10
29.406516500000009
 20
268.5
 11
29.406516500000009
 21
231
  0
ARC
  8
_0-0_0
  6
CONTINUOUS
 62
    7
 10
29.906516500000009
 20
231
 40
0.5
 50
179.99999099999999
 51
269.99999700000001
  0
LINE
  8
_0-0_0
  6
CONTINUOUS
 62
    7
 10
33.906516500000009
 20
230.5
 11
29.906516500000009
 21
230.5
  0
ARC
  8
_0-0_0
  6
CONTINUOUS
 62
    7
 10
33.906516500000009
 20
230
 40
0.5
 50
0
 51
90.000003000000007
  0
LINE
  8
_0-0_0
  6
CONTINUOUS
 62
    7
 10
34.406516500000009
 20
225
 11
34.406516500000009
 21
230
  0
ARC
  8
_0-0_0
  6
CONTINUOUS
 62
    7
 10
34.906516500000009
 20
225
 40
0.5
 50
179.99999099999999
 51
269.99999700000001
  0
LINE
  8
_0-0_0
  6
CONTINUOUS
 62
    7
 10
34.906516500000009
 20
224.5
 11
37.406516500000009
 21
224.5
  0
ARC
  8
_0-0_0
  6
CONTINUOUS
 62
    7
 10
37.406516500000009
 20
225
 40
0.5
 50
269.99999700000001
 51
0
  0
LINE
  8
_0-0_0
  6
CONTINUOUS
 62
    7
 10
53.406516500000009
 20
225
 11
53.506515499999978
 21
225
  0
LINE
  8
_0-0_0
  6
CONTINUOUS
 62
    7
 10
53.506515499999978
 20
225
 11
53.506515499999978
 21
225.5
  0
LINE
  8
_0-0_0
  6
CONTINUOUS
 62
    7
 10
53.506515499999978
 20
229.5
 11
53.506515499999978
 21
225.5
  0
LINE
  8
_0-0_0
  6
CONTINUOUS
 62
    7
 10
53.406516500000009
 20
230
 11
53.506515499999978
 21
230
  0
LINE
  8
_0-0_0
  6
CONTINUOUS
 62
    7
 10
53.506515499999978
 20
229.5
 11
53.506515499999978
 21
230
  0
LINE
  8
_0-0_0
  6
CONTINUOUS
 62
    7
 10
53.606513500000005
 20
225.5
 11
53.606513500000005
 21
225.630371
  0
LINE
  8
_0-0_0
  6
CONTINUOUS
 62
    7
 10
53.606513500000005
 20
229.130371
 11
53.606513500000005
 21
225.630371
  0
LINE
  8
_0-0_0
  6
CONTINUOUS
 62
    7
 10
53.506515499999978
 20
229.39999399999999
 11
53.606513500000005
 21
229.39999399999999
  0
LINE
  8
_0-0_0
  6
CONTINUOUS
 62
    7
 10
53.606513500000005
 20
229.130371
 11
53.606513500000005
 21
229.39999399999999
  0
LINE
  8
_0-0_0
  6
CONTINUOUS
 62
    7
 10
53.506515499999978
 20
225.5
 11
53.606513500000005
 21
225.5
  0
LINE
  8
_0-0_0
  6
CONTINUOUS
 62
    7
 10
53.506515499999978
 20
225.5
 11
53.606513500000005
 21
225.5
  0
ENDSEC
  0
EOF
