  0
SECTION
  2
HEADER
  9
$ACADVER
  1
AC1009
  9
$INSBASE
 10
0
 20
0
 30
0
  9
$EXTMIN
 10
0
 20
0
  9
$EXTMAX
 10
1682
 20
1188
  9
$LIMMIN
 10
0
 20
0
  9
$LIMMAX
 10
1682
 20
1188
  9
$LTSCALE
 40
2
  0
ENDSEC
  0
SECTION
  2
TABLES
  0
TABLE
  2
LTYPE
 70
     9
  0
LTYPE
  2
CONTINUOUS
 70
    64
  3
実線
 72
    65
 73
     0
 40
0.0
  0
LTYPE
  2
DASHED1
 70
    64
  3
--  --  --  --  --  --  --  --  
 72
    65
 73
     2
 40
2.5
 49
1.25
 49
-1.25
  0
LTYPE
  2
DASHED2
 70
    64
  3
----    ----    ----    ----    
 72
    65
 73
     2
 40
5.0
 49
2.5
 49
-2.5
  0
LTYPE
  2
DASHED3
 70
    64
  3
------  ------  ------  ------  
 72
    65
 73
     2
 40
5.0
 49
3.75
 49
-1.25
  0
LTYPE
  2
CENTER1
 70
    64
  3
----- - ----- - ----- - ----- - 
 72
    65
 73
     4
 40
10.0
 49
6.25
 49
-1.25
 49
1.25
 49
-1.25
  0
LTYPE
  2
CENTER2
 70
    64
  3
----------  --  ----------  --  
 72
    65
 73
     4
 40
20.0
 49
12.5
 49
-2.5
 49
2.5
 49
-2.5
  0
LTYPE
  2
PHANTOM1
 70
    64
  3
--- - - --- - - --- - - --- - - 
 72
    65
 73
     6
 40
10.0
 49
3.25
 49
-1.25
 49
1.25
 49
-1.25
 49
1.25
 49
-1.25
  0
LTYPE
  2
PHANTOM2
 70
    64
  3
--------  -  -  --------  -  -  
 72
    65
 73
     6
 40
20.0
 49
10.0
 49
-2.5
 49
1.25
 49
-2.5
 49
1.25
 49
-2.5
  0
LTYPE
  2
DOT
 70
    64
  3
-   -   -   -   -   -   -   -   
 72
    65
 73
     2
 40
2.5
 49
0.625
 49
-1.875
  0
LTYPE
  2
DUMMY
 70
    64
  3
ダミー
 72
    65
 73
     0
 40
0.0
  0
LTYPE
  2
RAND1
 70
    64
  3
ランダム線1
 72
    65
 73
     4
 40
10.0
 49
1.0
 49
-2.0
 49
3.0
 49
-4.0
  0
LTYPE
  2
RAND2
 70
    64
  3
ランダム線2
 72
    65
 73
     4
 40
14.0
 49
2.0
 49
-3.0
 49
4.0
 49
-5.0
  0
LTYPE
  2
RAND3
 70
    64
  3
ランダム線3
 72
    65
 73
     4
 40
18.0
 49
3.0
 49
-4.0
 49
5.0
 49
-6.0
  0
LTYPE
  2
RAND4
 70
    64
  3
ランダム線4
 72
    65
 73
     4
 40
22.0
 49
4.0
 49
-5.0
 49
6.0
 49
-7.0
  0
LTYPE
  2
RAND5
 70
    64
  3
ランダム線5
 72
    65
 73
     4
 40
26.0
 49
5.0
 49
-6.0
 49
7.0
 49
-8.0
  0
LTYPE
  2
LONG1
 70
    64
  3
----------  --  ----------  --  
 72
    65
 73
     4
 40
40.0
 49
32.5
 49
-2.5
 49
2.5
 49
-2.5
  0
LTYPE
  2
LONG2
 70
    64
  3
--------  -  -  --------  -  -  
 72
    65
 73
     6
 40
40.0
 49
30.0
 49
-2.5
 49
1.25
 49
-2.5
 49
1.25
 49
-2.5
  0
LTYPE
  2
LONG3
 70
    64
  3
+++++++++++++++..+++++++++++++++
 72
    65
 73
     2
 40
40.0
 49
37.5
 49
-2.5
  0
LTYPE
  2
LONG4
 70
    64
  3
+++++++++++++++..+++++++++++++++
 72
    65
 73
     2
 40
80.0
 49
75.0
 49
-5.0
  0
LTYPE
  2
LONG5
 70
    64
  3
----------  --  ----------  --  
 72
    65
 73
     4
 40
60.0
 49
37.5
 49
-7.5
 49
7.5
 49
-7.5
  0
LTYPE
  2
dashed
 70
   64
  3
-------   -------------   ------
 72
   65
 73
    2
 40
7.5
 49
6
 49
-1.5
  0
LTYPE
  2
dashed_spaced
 70
   64
  3
----        --------        ----
 72
   65
 73
    2
 40
12
 49
6
 49
-6
  0
LTYPE
  2
long_dashed_dotted
 70
   64
  3
------------- --- --------------
 72
   65
 73
    4
 40
15.25
 49
12
 49
-1.5
 49
0.25
 49
-1.5
  0
LTYPE
  2
long_dashed_double-dotted
 70
   64
  3
----------- --- --- ------------
 72
   65
 73
    6
 40
17
 49
12
 49
-1.5
 49
0.25
 49
-1.5
 49
0.25
 49
-1.5
  0
LTYPE
  2
long_dashed_triplicate-dotted
 70
   64
  3
--------- --- --- --- ----------
 72
   65
 73
    8
 40
18.75
 49
12
 49
-1.5
 49
0.25
 49
-1.5
 49
0.25
 49
-1.5
 49
0.25
 49
-1.5
  0
LTYPE
  2
dotted
 70
   64
  3
   -       -       -       -    
 72
   65
 73
    2
 40
1.75
 49
0.25
 49
-1.5
  0
LTYPE
  2
chain
 70
   64
  3
-------------- -- --------------
 72
   65
 73
    4
 40
18.5
 49
12
 49
-1.5
 49
3.5
 49
-1.5
  0
LTYPE
  2
chain_double_dash
 70
   64
  3
------------ -- -- -------------
 72
   65
 73
    6
 40
23.5
 49
12
 49
-1.5
 49
3.5
 49
-1.5
 49
3.5
 49
-1.5
  0
LTYPE
  2
dashed_dotted
 70
   64
  3
-----------     -     ----------
 72
   65
 73
    4
 40
9.25
 49
6
 49
-1.5
 49
0.25
 49
-1.5
  0
LTYPE
  2
double-dashed_dotted
 70
   64
  3
------   -----------   -   -----
 72
   65
 73
    6
 40
16.75
 49
6
 49
-1.5
 49
6
 49
-1.5
 49
0.25
 49
-1.5
  0
LTYPE
  2
dashed_double-dotted
 70
   64
  3
---------    -    -    ---------
 72
   65
 73
    6
 40
11
 49
6
 49
-1.5
 49
0.25
 49
-1.5
 49
0.25
 49
-1.5
  0
LTYPE
  2
double-dashed_double-dotted
 70
   64
  3
-----   ---------   -   -   ----
 72
   65
 73
    8
 40
18.5
 49
6
 49
-1.5
 49
6
 49
-1.5
 49
0.25
 49
-1.5
 49
0.25
 49
-1.5
  0
LTYPE
  2
dashed_triplicate-dotted
 70
   64
  3
-------    -    -    -    ------
 72
   65
 73
    8
 40
12.75
 49
6
 49
-1.5
 49
0.25
 49
-1.5
 49
0.25
 49
-1.5
 49
0.25
 49
-1.5
  0
LTYPE
  2
double-dashed_triplicate-dotted
 70
   64
  3
-----  ---------  -  -  -  -----
 72
   65
 73
   10
 40
20.25
 49
6
 49
-1.5
 49
6
 49
-1.5
 49
0.25
 49
-1.5
 49
0.25
 49
-1.5
 49
0.25
 49
-1.5
  0
LTYPE
  2
undefined
 70
   64
  3
--------------------------------
 72
   65
 73
    0
 40
0
  0
ENDTAB
  0
TABLE
  2
STYLE
  5
3
100
AcDbSymbolTable
 70
     1
  0
STYLE
  5
10
100
AcDbSymbolTableRecord
100
AcDbTextStyleTableRecord
  2
STANDARD
 70
     0
 40
0.0
 41
1.0
 50
0.0
 71
     0
 42
0.2
  3
txt
  4
bigfont.shx
  0
STYLE
  5
26
100
AcDbSymbolTableRecord
100
AcDbTextStyleTableRecord
  2
TATEGAKI
 70
    68
 40
0.0
 41
1.0
 50
0.0
 71
     0
 42
1.0
  3
txt
  4
bigfont.shx
  0
ENDTAB
  0
TABLE
  2
LAYER
 70
    2
  0
LAYER
  2
_0-0_0
 70
   64
 62
    7
  6
CONTINUOUS
  0
LAYER
  2
ADD_LINE
 70
   64
 62
    7
  6
CONTINUOUS
  0
ENDTAB
  0
ENDSEC
  0
SECTION
  2
BLOCKS
  0
ENDSEC
  0
SECTION
  2
ENTITIES
  0
ARC
  8
_0-0_0
  6
CONTINUOUS
 62
    7
 10
-103.27221650000001
 20
765.34997599999997
 40
0.2
 50
269.99999700000001
 51
20.376440000000013
  0
LINE
  8
_0-0_0
  6
CONTINUOUS
 62
    7
 10
-103.08473249999997
 20
765.41961700000002
 11
-104.38473550000003
 21
768.91961700000002
  0
ARC
  8
_0-0_0
  6
CONTINUOUS
 62
    7
 10
-104.57221950000007
 20
768.84997599999997
 40
0.2
 50
20.376439999999999
 51
159.62355600000001
  0
LINE
  8
_0-0_0
  6
CONTINUOUS
 62
    7
 10
-106.05970750000006
 20
765.41961700000002
 11
-104.7597045
 21
768.91961700000002
  0
ARC
  8
_0-0_0
  6
CONTINUOUS
 62
    7
 10
-105.87222350000002
 20
765.34997599999997
 40
0.2
 50
159.62355600000001
 51
269.99999700000001
  0
LINE
  8
_0-0_0
  6
CONTINUOUS
 62
    7
 10
-105.87222350000002
 20
765.14999399999999
 11
-103.27221650000001
 21
765.14999399999999
  0
LINE
  8
_0-0_0
  6
CONTINUOUS
 62
    7
 10
-268.50503550000008
 20
813.75271599999996
 11
-268.50503550000008
 21
813.75170900000001
  0
LINE
  8
_0-0_0
  6
CONTINUOUS
 62
    7
 10
1614.4277345
 20
802.14999399999999
 11
1614.4277345
 21
789.14999399999999
  0
LINE
  8
_0-0_0
  6
CONTINUOUS
 62
    7
 10
-158.57221950000007
 20
802.14999399999999
 11
-158.57221950000007
 21
789.14999399999999
  0
LINE
  8
_0-0_0
  6
CONTINUOUS
 62
    7
 10
-158.57221950000007
 20
802.14999399999999
 11
1614.4277345
 21
802.14999399999999
  0
LINE
  8
_0-0_0
  6
CONTINUOUS
 62
    7
 10
-158.57221950000007
 20
802.14999399999999
 11
-158.57221950000007
 21
820.75
  0
LINE
  8
_0-0_0
  6
CONTINUOUS
 62
    7
 10
-158.57221950000007
 20
823.25
 11
-158.57221950000007
 21
820.75
  0
LINE
  8
_0-0_0
  6
CONTINUOUS
 62
    7
 10
-158.57221950000007
 20
823.75
 11
-158.57221950000007
 21
823.25
  0
LINE
  8
_0-0_0
  6
CONTINUOUS
 62
    7
 10
-158.57221950000007
 20
775.75
 11
-158.57221950000007
 21
775.25
  0
LINE
  8
_0-0_0
  6
CONTINUOUS
 62
    7
 10
-158.57221950000007
 20
780.75
 11
-158.57221950000007
 21
775.75
  0
LINE
  8
_0-0_0
  6
CONTINUOUS
 62
    7
 10
-158.57221950000007
 20
781.25
 11
-158.57221950000007
 21
780.75
  0
LINE
  8
_0-0_0
  6
CONTINUOUS
 62
    7
 10
-158.57221950000007
 20
781.75
 11
-158.57221950000007
 21
781.25
  0
LINE
  8
_0-0_0
  6
CONTINUOUS
 62
    7
 10
-158.57221950000007
 20
784.94998199999998
 11
-158.57221950000007
 21
781.75
  0
LINE
  8
_0-0_0
  6
CONTINUOUS
 62
    7
 10
-158.57221950000007
 20
784.94998199999998
 11
-158.57221950000007
 21
789.14999399999999
  0
LINE
  8
_0-0_0
  6
CONTINUOUS
 62
    7
 10
-158.57221950000007
 20
789.14999399999999
 11
1614.4277345
 21
789.14999399999999
  0
LINE
  8
_0-0_0
  6
CONTINUOUS
 62
    7
 10
1614.4277345
 20
784.94998199999998
 11
1614.4277345
 21
789.14999399999999
  0
LINE
  8
_0-0_0
  6
CONTINUOUS
 62
    7
 10
1614.4277345
 20
781.75
 11
1614.4277345
 21
784.94998199999998
  0
LINE
  8
_0-0_0
  6
CONTINUOUS
 62
    7
 10
1614.4277345
 20
781.75
 11
1614.4277345
 21
781.25
  0
LINE
  8
_0-0_0
  6
CONTINUOUS
 62
    7
 10
1614.4277345
 20
781.25
 11
1614.4277345
 21
780.75
  0
LINE
  8
_0-0_0
  6
CONTINUOUS
 62
    7
 10
1614.4277345
 20
780.75
 11
1614.4277345
 21
775.75
  0
LINE
  8
_0-0_0
  6
CONTINUOUS
 62
    7
 10
1614.4277345
 20
775.75
 11
1614.4277345
 21
775.25
  0
LINE
  8
_0-0_0
  6
CONTINUOUS
 62
    7
 10
1614.4277345
 20
823.75
 11
1614.4277345
 21
823.25
  0
LINE
  8
_0-0_0
  6
CONTINUOUS
 62
    7
 10
1614.4277345
 20
820.75
 11
1614.4277345
 21
823.25
  0
LINE
  8
_0-0_0
  6
CONTINUOUS
 62
    7
 10
1614.4277345
 20
802.14999399999999
 11
1614.4277345
 21
820.75
  0
CIRCLE
  8
_0-0_0
  6
CONTINUOUS
 62
    7
 10
1577.9277345
 20
811.25
 40
6
  0
CIRCLE
  8
_0-0_0
  6
CONTINUOUS
 62
    7
 10
1477.9277345
 20
811.25
 40
6
  0
CIRCLE
  8
_0-0_0
  6
CONTINUOUS
 62
    7
 10
1377.9277345
 20
811.25
 40
6
  0
CIRCLE
  8
_0-0_0
  6
CONTINUOUS
 62
    7
 10
1277.9277345
 20
811.25
 40
6
  0
CIRCLE
  8
_0-0_0
  6
CONTINUOUS
 62
    7
 10
1177.9277345
 20
811.25
 40
6
  0
CIRCLE
  8
_0-0_0
  6
CONTINUOUS
 62
    7
 10
1077.9277345
 20
811.25
 40
6
  0
CIRCLE
  8
_0-0_0
  6
CONTINUOUS
 62
    7
 10
977.92773449999993
 20
811.25
 40
6
  0
CIRCLE
  8
_0-0_0
  6
CONTINUOUS
 62
    7
 10
877.92773449999993
 20
811.25
 40
6
  0
CIRCLE
  8
_0-0_0
  6
CONTINUOUS
 62
    7
 10
777.92773449999993
 20
811.25
 40
6
  0
CIRCLE
  8
_0-0_0
  6
CONTINUOUS
 62
    7
 10
677.92773449999993
 20
811.25
 40
6
  0
CIRCLE
  8
_0-0_0
  6
CONTINUOUS
 62
    7
 10
577.92773449999993
 20
811.25
 40
6
  0
CIRCLE
  8
_0-0_0
  6
CONTINUOUS
 62
    7
 10
477.92779549999995
 20
811.25
 40
6
  0
CIRCLE
  8
_0-0_0
  6
CONTINUOUS
 62
    7
 10
377.92779549999995
 20
811.25
 40
6
  0
CIRCLE
  8
_0-0_0
  6
CONTINUOUS
 62
    7
 10
277.9277955
 20
811.25
 40
6
  0
CIRCLE
  8
_0-0_0
  6
CONTINUOUS
 62
    7
 10
177.9277955
 20
811.25
 40
6
  0
CIRCLE
  8
_0-0_0
  6
CONTINUOUS
 62
    7
 10
77.927795500000002
 20
811.25
 40
6
  0
CIRCLE
  8
_0-0_0
  6
CONTINUOUS
 62
    7
 10
-22.072204499999998
 20
811.25
 40
6
  0
CIRCLE
  8
_0-0_0
  6
CONTINUOUS
 62
    7
 10
-122.07221950000007
 20
811.25
 40
6
  0
LINE
  8
_0-0_0
  6
CONTINUOUS
 62
    7
 10
-158.57221950000007
 20
820.75
 11
1614.4277345
 21
820.75
  0
LINE
  8
_0-0_0
  6
CONTINUOUS
 62
    7
 10
-158.57221950000007
 20
823.75
 11
1614.4277345
 21
823.75
  0
LINE
  8
_0-0_0
  6
CONTINUOUS
 62
    7
 10
-158.57221950000007
 20
823.25
 11
-161.07221950000007
 21
823.25
  0
LINE
  8
_0-0_0
  6
CONTINUOUS
 62
    7
 10
-161.07221950000007
 20
823.25
 11
-161.07221950000007
 21
822.75
  0
LINE
  8
_0-0_0
  6
CONTINUOUS
 62
    7
 10
-161.07221950000007
 20
822.75
 11
-161.07221950000007
 21
782.25
  0
LINE
  8
_0-0_0
  6
CONTINUOUS
 62
    7
 10
-158.57221950000007
 20
781.75
 11
-161.07221950000007
 21
781.75
  0
LINE
  8
_0-0_0
  6
CONTINUOUS
 62
    7
 10
-161.07221950000007
 20
782.25
 11
-161.07221950000007
 21
781.75
  0
LINE
  8
_0-0_0
  6
CONTINUOUS
 62
    7
 10
-161.07221950000007
 20
781.75
 11
-161.07221950000007
 21
780.75
  0
LINE
  8
_0-0_0
  6
CONTINUOUS
 62
    7
 10
-161.07221950000007
 20
780.75
 11
-161.07221950000007
 21
776.25
  0
LINE
  8
_0-0_0
  6
CONTINUOUS
 62
    7
 10
-158.57221950000007
 20
775.75
 11
-161.07221950000007
 21
775.75
  0
LINE
  8
_0-0_0
  6
CONTINUOUS
 62
    7
 10
-161.07221950000007
 20
776.25
 11
-161.07221950000007
 21
775.75
  0
LINE
  8
_0-0_0
  6
CONTINUOUS
 62
    7
 10
-158.57221950000007
 20
775.25
 11
1614.4277345
 21
775.25
  0
LINE
  8
_0-0_0
  6
CONTINUOUS
 62
    7
 10
-158.57221950000007
 20
781.25
 11
1614.4277345
 21
781.25
  0
LINE
  8
_0-0_0
  6
CONTINUOUS
 62
    7
 10
-158.57221950000007
 20
784.94998199999998
 11
1614.4277345
 21
784.94998199999998
  0
LINE
  8
_0-0_0
  6
CONTINUOUS
 62
    7
 10
1614.4277345
 20
823.25
 11
1616.9277345
 21
823.25
  0
LINE
  8
_0-0_0
  6
CONTINUOUS
 62
    7
 10
1616.9277345
 20
823.25
 11
1616.9277345
 21
822.75
  0
LINE
  8
_0-0_0
  6
CONTINUOUS
 62
    7
 10
1616.9277345
 20
822.75
 11
1616.9277345
 21
782.25
  0
LINE
  8
_0-0_0
  6
CONTINUOUS
 62
    7
 10
1614.4277345
 20
781.75
 11
1616.9277345
 21
781.75
  0
LINE
  8
_0-0_0
  6
CONTINUOUS
 62
    7
 10
1616.9277345
 20
782.25
 11
1616.9277345
 21
781.75
  0
LINE
  8
_0-0_0
  6
CONTINUOUS
 62
    7
 10
1616.9277345
 20
781.75
 11
1616.9277345
 21
780.75
  0
LINE
  8
_0-0_0
  6
CONTINUOUS
 62
    7
 10
1616.9277345
 20
780.75
 11
1616.9277345
 21
776.25
  0
LINE
  8
_0-0_0
  6
CONTINUOUS
 62
    7
 10
1614.4277345
 20
775.75
 11
1616.9277345
 21
775.75
  0
LINE
  8
_0-0_0
  6
CONTINUOUS
 62
    7
 10
1616.9277345
 20
776.25
 11
1616.9277345
 21
775.75
  0
ARC
  8
_0-0_0
  6
CONTINUOUS
 62
    7
 10
-101.07221950000007
 20
776.25
 40
0.5
 50
269.99999700000001
 51
0
  0
LINE
  8
_0-0_0
  6
CONTINUOUS
 62
    7
 10
-101.07221950000007
 20
775.75
 11
-108.07221950000007
 21
775.75
  0
ARC
  8
_0-0_0
  6
CONTINUOUS
 62
    7
 10
-108.07221950000007
 20
776.25
 40
0.5
 50
179.99999099999999
 51
269.99999700000001
  0
LINE
  8
_0-0_0
  6
CONTINUOUS
 62
    7
 10
-108.57221950000007
 20
780.25
 11
-108.57221950000007
 21
776.25
  0
ARC
  8
_0-0_0
  6
CONTINUOUS
 62
    7
 10
-108.07221950000007
 20
780.25
 40
0.5
 50
90.000003000000007
 51
179.99999099999999
  0
ARC
  8
_0-0_0
  6
CONTINUOUS
 62
    7
 10
-101.07221950000007
 20
780.25
 40
0.5
 50
0
 51
90.000003000000007
  0
LINE
  8
_0-0_0
  6
CONTINUOUS
 62
    7
 10
-108.07221950000007
 20
780.75
 11
-101.07221950000007
 21
780.75
  0
LINE
  8
_0-0_0
  6
CONTINUOUS
 62
    7
 10
1614.4277345
 20
823.75
 11
1614.4277345
 21
823.44998199999998
  0
LINE
  8
_0-0_0
  6
CONTINUOUS
 62
    7
 10
1614.4277345
 20
823.44998199999998
 11
1614.4277345
 21
823.25
  0
CIRCLE
  8
_0-0_0
  6
CONTINUOUS
 62
    7
 10
1577.9277345
 20
811.25
 40
5.5
  0
CIRCLE
  8
_0-0_0
  6
CONTINUOUS
 62
    7
 10
1477.9277345
 20
811.25
 40
5.5
  0
CIRCLE
  8
_0-0_0
  6
CONTINUOUS
 62
    7
 10
1377.9277345
 20
811.25
 40
5.5
  0
CIRCLE
  8
_0-0_0
  6
CONTINUOUS
 62
    7
 10
1277.9277345
 20
811.25
 40
5.5
  0
CIRCLE
  8
_0-0_0
  6
CONTINUOUS
 62
    7
 10
1177.9277345
 20
811.25
 40
5.5
  0
CIRCLE
  8
_0-0_0
  6
CONTINUOUS
 62
    7
 10
1077.9277345
 20
811.25
 40
5.5
  0
CIRCLE
  8
_0-0_0
  6
CONTINUOUS
 62
    7
 10
977.92773449999993
 20
811.25
 40
5.5
  0
CIRCLE
  8
_0-0_0
  6
CONTINUOUS
 62
    7
 10
877.92773449999993
 20
811.25
 40
5.5
  0
CIRCLE
  8
_0-0_0
  6
CONTINUOUS
 62
    7
 10
777.92773449999993
 20
811.25
 40
5.5
  0
CIRCLE
  8
_0-0_0
  6
CONTINUOUS
 62
    7
 10
677.92773449999993
 20
811.25
 40
5.5
  0
CIRCLE
  8
_0-0_0
  6
CONTINUOUS
 62
    7
 10
577.92773449999993
 20
811.25
 40
5.5
  0
CIRCLE
  8
_0-0_0
  6
CONTINUOUS
 62
    7
 10
477.92779549999995
 20
811.25
 40
5.5
  0
CIRCLE
  8
_0-0_0
  6
CONTINUOUS
 62
    7
 10
377.92779549999995
 20
811.25
 40
5.5
  0
CIRCLE
  8
_0-0_0
  6
CONTINUOUS
 62
    7
 10
277.9277955
 20
811.25
 40
5.5
  0
CIRCLE
  8
_0-0_0
  6
CONTINUOUS
 62
    7
 10
177.9277955
 20
811.25
 40
5.5
  0
CIRCLE
  8
_0-0_0
  6
CONTINUOUS
 62
    7
 10
77.927795500000002
 20
811.25
 40
5.5
  0
CIRCLE
  8
_0-0_0
  6
CONTINUOUS
 62
    7
 10
-22.072204499999998
 20
811.25
 40
5.5
  0
CIRCLE
  8
_0-0_0
  6
CONTINUOUS
 62
    7
 10
-122.07221950000007
 20
811.25
 40
5.5
  0
LINE
  8
_0-0_0
  6
CONTINUOUS
 62
    7
 10
-100.57221950000007
 20
776.25
 11
-100.57221950000007
 21
780.25
  0
CIRCLE
  8
_0-0_0
  6
CONTINUOUS
 62
    7
 10
1577.9277345
 20
811.25
 40
3.5
  0
CIRCLE
  8
_0-0_0
  6
CONTINUOUS
 62
    7
 10
1477.9277345
 20
811.25
 40
3.5
  0
CIRCLE
  8
_0-0_0
  6
CONTINUOUS
 62
    7
 10
1377.9277345
 20
811.25
 40
3.5
  0
CIRCLE
  8
_0-0_0
  6
CONTINUOUS
 62
    7
 10
1277.9277345
 20
811.25
 40
3.5
  0
CIRCLE
  8
_0-0_0
  6
CONTINUOUS
 62
    7
 10
1177.9277345
 20
811.25
 40
3.5
  0
CIRCLE
  8
_0-0_0
  6
CONTINUOUS
 62
    7
 10
1077.9277345
 20
811.25
 40
3.5
  0
CIRCLE
  8
_0-0_0
  6
CONTINUOUS
 62
    7
 10
977.92773449999993
 20
811.25
 40
3.5
  0
CIRCLE
  8
_0-0_0
  6
CONTINUOUS
 62
    7
 10
877.92773449999993
 20
811.25
 40
3.5
  0
CIRCLE
  8
_0-0_0
  6
CONTINUOUS
 62
    7
 10
777.92773449999993
 20
811.25
 40
3.5
  0
CIRCLE
  8
_0-0_0
  6
CONTINUOUS
 62
    7
 10
677.92773449999993
 20
811.25
 40
3.5
  0
CIRCLE
  8
_0-0_0
  6
CONTINUOUS
 62
    7
 10
577.92773449999993
 20
811.25
 40
3.5
  0
CIRCLE
  8
_0-0_0
  6
CONTINUOUS
 62
    7
 10
477.92779549999995
 20
811.25
 40
3.5
  0
CIRCLE
  8
_0-0_0
  6
CONTINUOUS
 62
    7
 10
377.92779549999995
 20
811.25
 40
3.5
  0
CIRCLE
  8
_0-0_0
  6
CONTINUOUS
 62
    7
 10
277.9277955
 20
811.25
 40
3.5
  0
CIRCLE
  8
_0-0_0
  6
CONTINUOUS
 62
    7
 10
177.9277955
 20
811.25
 40
3.5
  0
CIRCLE
  8
_0-0_0
  6
CONTINUOUS
 62
    7
 10
77.927795500000002
 20
811.25
 40
3.5
  0
CIRCLE
  8
_0-0_0
  6
CONTINUOUS
 62
    7
 10
-22.072204499999998
 20
811.25
 40
3.5
  0
CIRCLE
  8
_0-0_0
  6
CONTINUOUS
 62
    7
 10
-122.07221950000007
 20
811.25
 40
3.5
  0
ARC
  8
_0-0_0
  6
CONTINUOUS
 62
    7
 10
-103.27221650000001
 20
779.94998199999998
 40
0.2
 50
339.62356199999999
 51
90.000002999999978
  0
LINE
  8
_0-0_0
  6
CONTINUOUS
 62
    7
 10
-103.08473249999997
 20
779.88034100000004
 11
-104.38473550000003
 21
776.38034100000004
  0
ARC
  8
_0-0_0
  6
CONTINUOUS
 62
    7
 10
-104.57221950000007
 20
776.44998199999998
 40
0.2
 50
200.37643
 51
339.62356199999999
  0
LINE
  8
_0-0_0
  6
CONTINUOUS
 62
    7
 10
-106.05970750000006
 20
779.88034100000004
 11
-104.7597045
 21
776.38034100000004
  0
ARC
  8
_0-0_0
  6
CONTINUOUS
 62
    7
 10
-105.87222350000002
 20
779.94998199999998
 40
0.2
 50
90.000003000000007
 51
200.37643
  0
LINE
  8
_0-0_0
  6
CONTINUOUS
 62
    7
 10
-105.87222350000002
 20
780.14999399999999
 11
-103.27221650000001
 21
780.14999399999999
  0
ARC
  8
_0-0_0
  6
CONTINUOUS
 62
    7
 10
1534.1276854999999
 20
779.94998199999998
 40
0.2
 50
90.000003000000007
 51
200.37643
  0
LINE
  8
_0-0_0
  6
CONTINUOUS
 62
    7
 10
1534.1276854999999
 20
780.14999399999999
 11
1536.7277835
 21
780.14999399999999
  0
ARC
  8
_0-0_0
  6
CONTINUOUS
 62
    7
 10
1531.9277345
 20
780.25
 40
0.5
 50
90.000003000000007
 51
179.99999099999999
  0
LINE
  8
_0-0_0
  6
CONTINUOUS
 62
    7
 10
1531.4277345
 20
780.25
 11
1531.4277345
 21
776.25
  0
ARC
  8
_0-0_0
  6
CONTINUOUS
 62
    7
 10
1531.9277345
 20
776.25
 40
0.5
 50
179.99999099999999
 51
269.99999700000001
  0
LINE
  8
_0-0_0
  6
CONTINUOUS
 62
    7
 10
1538.9277345
 20
775.75
 11
1531.9277345
 21
775.75
  0
ARC
  8
_0-0_0
  6
CONTINUOUS
 62
    7
 10
1538.9277345
 20
776.25
 40
0.5
 50
269.99999700000001
 51
0
  0
LINE
  8
_0-0_0
  6
CONTINUOUS
 62
    7
 10
1539.4277345
 20
776.25
 11
1539.4277345
 21
780.25
  0
ARC
  8
_0-0_0
  6
CONTINUOUS
 62
    7
 10
1538.9277345
 20
780.25
 40
0.5
 50
0
 51
90.000003000000007
  0
LINE
  8
_0-0_0
  6
CONTINUOUS
 62
    7
 10
1531.9277345
 20
780.75
 11
1538.9277345
 21
780.75
  0
LINE
  8
_0-0_0
  6
CONTINUOUS
 62
    7
 10
1533.9403075
 20
779.88034100000004
 11
1535.2402345
 21
776.38034100000004
  0
ARC
  8
_0-0_0
  6
CONTINUOUS
 62
    7
 10
1535.4277345
 20
776.44998199999998
 40
0.2
 50
200.37643
 51
339.62356199999999
  0
LINE
  8
_0-0_0
  6
CONTINUOUS
 62
    7
 10
1536.9151615000001
 20
779.88034100000004
 11
1535.6152345
 21
776.38034100000004
  0
ARC
  8
_0-0_0
  6
CONTINUOUS
 62
    7
 10
1536.7277835
 20
779.94998199999998
 40
0.2
 50
339.62356199999999
 51
90.000002999999978
  0
LINE
  8
_0-0_0
  6
CONTINUOUS
 62
    7
 10
-152.07221950000007
 20
773.25
 11
-147.07221950000007
 21
773.25
  0
LINE
  8
_0-0_0
  6
CONTINUOUS
 62
    7
 10
-147.07221950000007
 20
773.25
 11
-145.27221650000001
 21
773.25
  0
LINE
  8
_0-0_0
  6
CONTINUOUS
 62
    7
 10
-145.27221650000001
 20
773.25
 11
-144.57221950000007
 21
773.25
  0
ARC
  8
_0-0_0
  6
CONTINUOUS
 62
    7
 10
-145.27221650000001
 20
772.75
 40
0.5
 50
0
 51
90.000003000000007
  0
ARC
  8
_0-0_0
  6
CONTINUOUS
 62
    7
 10
-152.07221950000007
 20
772.75
 40
0.5
 50
90.000003000000007
 51
179.99999099999999
  0
ARC
  8
_0-0_0
  6
CONTINUOUS
 62
    7
 10
-48.572219500000074
 20
772.75
 40
0.5
 50
0
 51
90.000003000000007
  0
LINE
  8
_0-0_0
  6
CONTINUOUS
 62
    7
 10
-144.57221950000007
 20
773.25
 11
-144.57221950000007
 21
771.75
  0
LINE
  8
_0-0_0
  6
CONTINUOUS
 62
    7
 10
-144.57221950000007
 20
773.75
 11
-144.57221950000007
 21
773.25
  0
LINE
  8
_0-0_0
  6
CONTINUOUS
 62
    7
 10
-144.57221950000007
 20
774.25
 11
-144.57221950000007
 21
773.75
  0
LINE
  8
_0-0_0
  6
CONTINUOUS
 62
    7
 10
-144.57221950000007
 20
775.25
 11
-144.57221950000007
 21
774.25
  0
LINE
  8
_0-0_0
  6
CONTINUOUS
 62
    7
 10
-140.57221950000007
 20
773.25
 11
-139.87222350000002
 21
773.25
  0
LINE
  8
_0-0_0
  6
CONTINUOUS
 62
    7
 10
-144.77221650000001
 20
772.75
 11
-144.77221650000001
 21
771.75
  0
LINE
  8
_0-0_0
  6
CONTINUOUS
 62
    7
 10
-141.57221950000007
 20
746.25
 11
-141.57221950000007
 21
747.84997599999997
  0
LINE
  8
_0-0_0
  6
CONTINUOUS
 62
    7
 10
-141.57221950000007
 20
746.25
 11
-147.07221950000007
 21
746.25
  0
LINE
  8
_0-0_0
  6
CONTINUOUS
 62
    7
 10
-125.57221950000007
 20
752.94998199999998
 11
-83.572219500000074
 21
752.94998199999998
  0
LINE
  8
_0-0_0
  6
CONTINUOUS
 62
    7
 10
-125.57221950000007
 20
772.54998799999998
 11
-83.572219500000074
 21
772.54998799999998
  0
LINE
  8
_0-0_0
  6
CONTINUOUS
 62
    7
 10
-62.072219500000074
 20
746.25
 11
-71.572219500000074
 21
746.25
  0
LINE
  8
_0-0_0
  6
CONTINUOUS
 62
    7
 10
-71.572219500000074
 20
746.25
 11
-71.572219500000074
 21
747.84997599999997
  0
ARC
  8
_0-0_0
  6
CONTINUOUS
 62
    7
 10
-71.872223500000018
 20
747.84997599999997
 40
0.2999999999999999
 50
0
 51
90.000003000000007
  0
LINE
  8
_0-0_0
  6
CONTINUOUS
 62
    7
 10
-72.572219500000074
 20
748.14999399999999
 11
-71.872223500000018
 21
748.14999399999999
  0
LINE
  8
_0-0_0
  6
CONTINUOUS
 62
    7
 10
-73.072219500000074
 20
748.54998799999998
 11
-72.572219500000074
 21
748.54998799999998
  0
LINE
  8
_0-0_0
  6
CONTINUOUS
 62
    7
 10
-86.572219500000074
 20
748.54998799999998
 11
-73.072219500000074
 21
748.54998799999998
  0
ARC
  8
_0-0_0
  6
CONTINUOUS
 62
    7
 10
-89.072219500000074
 20
748.54998799999998
 40
2.5
 50
0
 51
90.000003000000007
  0
LINE
  8
_0-0_0
  6
CONTINUOUS
 62
    7
 10
-120.07221950000007
 20
751.04998799999998
 11
-89.072219500000074
 21
751.04998799999998
  0
ARC
  8
_0-0_0
  6
CONTINUOUS
 62
    7
 10
-120.07221950000007
 20
748.54998799999998
 40
2.5
 50
90.000003000000007
 51
179.99999099999999
  0
LINE
  8
_0-0_0
  6
CONTINUOUS
 62
    7
 10
-140.07221950000007
 20
748.54998799999998
 11
-122.57221950000007
 21
748.54998799999998
  0
LINE
  8
_0-0_0
  6
CONTINUOUS
 62
    7
 10
-140.57221950000007
 20
748.54998799999998
 11
-140.07221950000007
 21
748.54998799999998
  0
LINE
  8
_0-0_0
  6
CONTINUOUS
 62
    7
 10
-141.27221650000001
 20
748.14999399999999
 11
-140.57221950000007
 21
748.14999399999999
  0
ARC
  8
_0-0_0
  6
CONTINUOUS
 62
    7
 10
-141.27221650000001
 20
747.84997599999997
 40
0.2999999999999999
 50
90.000003000000007
 51
179.99999099999999
  0
LINE
  8
_0-0_0
  6
CONTINUOUS
 62
    7
 10
-152.57221950000007
 20
770.97485400000005
 11
-152.57221950000007
 21
772.75
  0
LINE
  8
_0-0_0
  6
CONTINUOUS
 62
    7
 10
-147.57221950000007
 20
773.75
 11
-147.57221950000007
 21
773.25
  0
LINE
  8
_0-0_0
  6
CONTINUOUS
 62
    7
 10
-147.57221950000007
 20
769.80355800000007
 11
-147.57221950000007
 21
769.90853900000002
  0
LINE
  8
_0-0_0
  6
CONTINUOUS
 62
    7
 10
-147.57221950000007
 20
773.75
 11
-147.57221950000007
 21
775.24996899999996
  0
LINE
  8
_0-0_0
  6
CONTINUOUS
 62
    7
 10
-48.072219500000074
 20
775.24996899999996
 11
-48.072219500000074
 21
773.75
  0
LINE
  8
_0-0_0
  6
CONTINUOUS
 62
    7
 10
-48.072219500000074
 20
773.75
 11
-48.072219500000074
 21
772.75
  0
LINE
  8
_0-0_0
  6
CONTINUOUS
 62
    7
 10
-48.072219500000074
 20
771.94998199999998
 11
-48.072219500000074
 21
772.75
  0
LINE
  8
_0-0_0
  6
CONTINUOUS
 62
    7
 10
-48.572219500000074
 20
773.25
 11
-48.072219500000074
 21
773.25
  0
LINE
  8
_0-0_0
  6
CONTINUOUS
 62
    7
 10
-61.072219500000074
 20
773.25
 11
-48.572219500000074
 21
773.25
  0
LINE
  8
_0-0_0
  6
CONTINUOUS
 62
    7
 10
-48.072219500000074
 20
775.25
 11
-48.072219500000074
 21
774.25
  0
LINE
  8
_0-0_0
  6
CONTINUOUS
 62
    7
 10
-48.072219500000074
 20
773.75
 11
-48.072219500000074
 21
773.25
  0
LINE
  8
_0-0_0
  6
CONTINUOUS
 62
    7
 10
-48.072219500000074
 20
774.25
 11
-48.072219500000074
 21
773.75
  0
ARC
  8
_0-0_0
  6
CONTINUOUS
 62
    7
 10
-142.57221950000007
 20
771.75
 40
2
 50
179.99999099999999
 51
0
  0
LINE
  8
_0-0_0
  6
CONTINUOUS
 62
    7
 10
-61.572219500000074
 20
773.25
 11
-61.072219500000074
 21
773.25
  0
LINE
  8
_0-0_0
  6
CONTINUOUS
 62
    7
 10
-61.572219500000074
 20
772.75
 11
-61.572219500000074
 21
773.25
  0
LINE
  8
_0-0_0
  6
CONTINUOUS
 62
    7
 10
-61.572219500000074
 20
771.75
 11
-61.572219500000074
 21
771.94998199999998
  0
ARC
  8
_0-0_0
  6
CONTINUOUS
 62
    7
 10
-63.572219500000074
 20
771.75
 40
2
 50
179.99999099999999
 51
0
  0
LINE
  8
_0-0_0
  6
CONTINUOUS
 62
    7
 10
-65.572219500000074
 20
773.25
 11
-65.572219500000074
 21
771.75
  0
LINE
  8
_0-0_0
  6
CONTINUOUS
 62
    7
 10
-66.272216500000013
 20
773.25
 11
-65.572219500000074
 21
773.25
  0
LINE
  8
_0-0_0
  6
CONTINUOUS
 62
    7
 10
-140.57221950000007
 20
771.75
 11
-140.57221950000007
 21
773.25
  0
LINE
  8
_0-0_0
  6
CONTINUOUS
 62
    7
 10
-144.57221950000007
 20
774.25
 11
-48.072219500000074
 21
774.25
  0
ARC
  8
_0-0_0
  6
CONTINUOUS
 62
    7
 10
-139.87222350000002
 20
772.75
 40
0.5
 50
90.000003000000007
 51
179.99999099999999
  0
ARC
  8
_0-0_0
  6
CONTINUOUS
 62
    7
 10
-142.57221950000007
 20
771.75
 40
2.2000000000000002
 50
179.99999099999999
 51
0
  0
LINE
  8
_0-0_0
  6
CONTINUOUS
 62
    7
 10
-140.57221950000007
 20
748.14999399999999
 11
-140.07221950000007
 21
748.14999399999999
  0
LINE
  8
_0-0_0
  6
CONTINUOUS
 62
    7
 10
-140.07221950000007
 20
748.54998799999998
 11
-140.07221950000007
 21
748.14999399999999
  0
LINE
  8
_0-0_0
  6
CONTINUOUS
 62
    7
 10
-122.57221950000007
 20
748.54998799999998
 11
-86.572219500000074
 21
748.54998799999998
  0
LINE
  8
_0-0_0
  6
CONTINUOUS
 62
    7
 10
-73.072219500000074
 20
748.14999399999999
 11
-72.572219500000074
 21
748.14999399999999
  0
LINE
  8
_0-0_0
  6
CONTINUOUS
 62
    7
 10
-73.072219500000074
 20
748.54998799999998
 11
-73.072219500000074
 21
748.14999399999999
  0
LINE
  8
_0-0_0
  6
CONTINUOUS
 62
    7
 10
-62.072219500000074
 20
745.75
 11
-71.072219500000074
 21
745.75
  0
ARC
  8
_0-0_0
  6
CONTINUOUS
 62
    7
 10
-71.072219500000074
 20
746.25
 40
0.5
 50
179.99999099999999
 51
269.99999700000001
  0
LINE
  8
_0-0_0
  6
CONTINUOUS
 62
    7
 10
-62.072219500000074
 20
746.25
 11
-61.572219500000074
 21
746.25
  0
LINE
  8
_0-0_0
  6
CONTINUOUS
 62
    7
 10
-61.572219500000074
 20
746.25
 11
-61.572219500000074
 21
746.44998199999998
  0
LINE
  8
_0-0_0
  6
CONTINUOUS
 62
    7
 10
-57.072219500000074
 20
746.64999399999999
 11
-61.372223500000018
 21
746.64999399999999
  0
LINE
  8
_0-0_0
  6
CONTINUOUS
 62
    7
 10
-56.572219500000074
 20
747.14999399999999
 11
-56.572219500000074
 21
748.92511000000002
  0
ARC
  8
_0-0_0
  6
CONTINUOUS
 62
    7
 10
-59.620178500000065
 20
748.86898799999994
 40
3.0490550000000001
 50
1.0548960000000001
 51
14.838094000000002
  0
LINE
  8
_0-0_0
  6
CONTINUOUS
 62
    7
 10
-57.072219500000074
 20
749.84997599999997
 11
-61.439758500000039
 21
749.84997599999997
  0
LINE
  8
_0-0_0
  6
CONTINUOUS
 62
    7
 10
-61.572219500000074
 20
749.99142499999994
 11
-61.572219500000074
 21
750.33367900000007
  0
ARC
  8
_0-0_0
  6
CONTINUOUS
 62
    7
 10
-63.572219500000074
 20
771.75
 40
2.2000000000000002
 50
179.99999099999999
 51
303.74900400000001
  0
LINE
  8
_0-0_0
  6
CONTINUOUS
 62
    7
 10
-65.772216500000013
 20
772.75
 11
-65.772216500000013
 21
771.75
  0
LINE
  8
_0-0_0
  6
CONTINUOUS
 62
    7
 10
-66.272216500000013
 20
773.25
 11
-139.87222350000002
 21
773.25
  0
LINE
  8
_0-0_0
  6
CONTINUOUS
 62
    7
 10
-140.37222350000002
 20
771.75
 11
-140.37222350000002
 21
772.75
  0
LINE
  8
_0-0_0
  6
CONTINUOUS
 62
    7
 10
-139.87222350000002
 20
771.54998799999998
 11
-139.87222350000002
 21
771.75
  0
ARC
  8
_0-0_0
  6
CONTINUOUS
 62
    7
 10
-138.87222350000002
 20
771.54998799999998
 40
1
 50
90.000003000000007
 51
179.99999099999999
  0
LINE
  8
_0-0_0
  6
CONTINUOUS
 62
    7
 10
-138.87222350000002
 20
772.54998799999998
 11
-125.57221950000007
 21
772.54998799999998
  0
LINE
  8
_0-0_0
  6
CONTINUOUS
 62
    7
 10
-83.572219500000074
 20
772.54998799999998
 11
-69.572219500000074
 21
772.54998799999998
  0
ARC
  8
_0-0_0
  6
CONTINUOUS
 62
    7
 10
-69.572219500000074
 20
769.54998799999998
 40
3
 50
0
 51
90.000003000000007
  0
LINE
  8
_0-0_0
  6
CONTINUOUS
 62
    7
 10
-66.572219500000074
 20
755.94998199999998
 11
-66.572219500000074
 21
769.54998799999998
  0
ARC
  8
_0-0_0
  6
CONTINUOUS
 62
    7
 10
-69.572219500000074
 20
755.94998199999998
 40
3
 50
269.99999700000001
 51
0
  0
LINE
  8
_0-0_0
  6
CONTINUOUS
 62
    7
 10
-69.572219500000074
 20
752.94998199999998
 11
-83.572219500000074
 21
752.94998199999998
  0
LINE
  8
_0-0_0
  6
CONTINUOUS
 62
    7
 10
-125.57221950000007
 20
752.94998199999998
 11
-139.57221950000007
 21
752.94998199999998
  0
ARC
  8
_0-0_0
  6
CONTINUOUS
 62
    7
 10
-139.57221950000007
 20
755.94998199999998
 40
3
 50
179.99999099999999
 51
269.99999700000001
  0
LINE
  8
_0-0_0
  6
CONTINUOUS
 62
    7
 10
-142.57221950000007
 20
768.18768299999999
 11
-142.57221950000007
 21
755.94998199999998
  0
ARC
  8
_0-0_0
  6
CONTINUOUS
 62
    7
 10
-141.57221950000007
 20
768.18768299999999
 40
1
 50
105.68034800000001
 51
179.99999100000002
  0
ARC
  8
_0-0_0
  6
CONTINUOUS
 62
    7
 10
-149.5242465
 20
771.03097500000001
 40
3.0490550000000001
 50
181.05489
 51
194.838089
  0
LINE
  8
_0-0_0
  6
CONTINUOUS
 62
    7
 10
-147.70468150000011
 20
770.04998799999998
 11
-152.07221950000007
 21
770.04998799999998
  0
LINE
  8
_0-0_0
  6
CONTINUOUS
 62
    7
 10
-147.57221950000007
 20
749.99142499999994
 11
-147.57221950000007
 21
750.096405
  0
LINE
  8
_0-0_0
  6
CONTINUOUS
 62
    7
 10
-147.70468150000011
 20
749.84997599999997
 11
-152.07221950000007
 21
749.84997599999997
  0
ARC
  8
_0-0_0
  6
CONTINUOUS
 62
    7
 10
-149.52307150000001
 20
748.86834700000009
 40
3.050319
 50
165.15540799999999
 51
178.932897
  0
LINE
  8
_0-0_0
  6
CONTINUOUS
 62
    7
 10
-152.57221950000007
 20
747.14999399999999
 11
-152.57221950000007
 21
748.92511000000002
  0
LINE
  8
_0-0_0
  6
CONTINUOUS
 62
    7
 10
-147.77221650000001
 20
746.64999399999999
 11
-152.07221950000007
 21
746.64999399999999
  0
LINE
  8
_0-0_0
  6
CONTINUOUS
 62
    7
 10
-147.57221950000007
 20
746.25
 11
-147.57221950000007
 21
746.44998199999998
  0
LINE
  8
_0-0_0
  6
CONTINUOUS
 62
    7
 10
-147.57221950000007
 20
746.25
 11
-147.07221950000007
 21
746.25
  0
LINE
  8
_0-0_0
  6
CONTINUOUS
 62
    7
 10
-142.07221950000007
 20
745.75
 11
-147.07221950000007
 21
745.75
  0
ARC
  8
_0-0_0
  6
CONTINUOUS
 62
    7
 10
-142.07221950000007
 20
746.25
 40
0.5
 50
269.99999700000001
 51
0
  0
LINE
  8
_0-0_0
  6
CONTINUOUS
 62
    7
 10
-152.25396750000004
 20
770.04998799999998
 11
-152.27430750000008
 21
770.05099500000006
  0
LINE
  8
_0-0_0
  6
CONTINUOUS
 62
    7
 10
-152.27430750000008
 20
770.05099500000006
 11
-152.29472350000003
 21
770.05413799999997
  0
LINE
  8
_0-0_0
  6
CONTINUOUS
 62
    7
 10
-152.29472350000003
 20
770.05413799999997
 11
-152.32153349999999
 21
770.06173699999999
  0
LINE
  8
_0-0_0
  6
CONTINUOUS
 62
    7
 10
-152.32153349999999
 20
770.06173699999999
 11
-152.34718350000003
 21
770.07312000000002
  0
LINE
  8
_0-0_0
  6
CONTINUOUS
 62
    7
 10
-152.34718350000003
 20
770.07312000000002
 11
-152.37098750000007
 21
770.08798200000001
  0
LINE
  8
_0-0_0
  6
CONTINUOUS
 62
    7
 10
-152.37098750000007
 20
770.08798200000001
 11
-152.38774150000006
 21
770.10150099999998
  0
LINE
  8
_0-0_0
  6
CONTINUOUS
 62
    7
 10
-152.38774150000006
 20
770.10150099999998
 11
-152.40324450000003
 21
770.11672999999996
  0
LINE
  8
_0-0_0
  6
CONTINUOUS
 62
    7
 10
-152.40324450000003
 20
770.11672999999996
 11
-152.43014549999998
 21
770.15136699999994
  0
LINE
  8
_0-0_0
  6
CONTINUOUS
 62
    7
 10
-152.43014549999998
 20
770.15136699999994
 11
-152.45118750000006
 21
770.18969700000002
  0
LINE
  8
_0-0_0
  6
CONTINUOUS
 62
    7
 10
-152.45118750000006
 20
770.18969700000002
 11
-152.46318050000002
 21
770.21963499999993
  0
LINE
  8
_0-0_0
  6
CONTINUOUS
 62
    7
 10
-152.46318050000002
 20
770.21963499999993
 11
-152.47221350000007
 21
770.25
  0
LINE
  8
_0-0_0
  6
CONTINUOUS
 62
    7
 10
-152.56102050000004
 20
770.75
 11
-159.57221950000007
 21
770.75
  0
LINE
  8
_0-0_0
  6
CONTINUOUS
 62
    7
 10
-159.57221950000007
 20
770.75
 11
-164.24766550000004
 21
770.75
  0
LINE
  8
_0-0_0
  6
CONTINUOUS
 62
    7
 10
-159.57221950000007
 20
770.75
 11
-159.57221950000007
 21
768.75
  0
LINE
  8
_0-0_0
  6
CONTINUOUS
 62
    7
 10
-147.57221950000007
 20
768.75
 11
-147.57221950000007
 21
769.80355800000007
  0
ARC
  8
_0-0_0
  6
CONTINUOUS
 62
    7
 10
-48.572219500000074
 20
771.94998199999998
 40
0.5
 50
269.99999700000001
 51
0
  0
ARC
  8
_0-0_0
  6
CONTINUOUS
 62
    7
 10
-61.072219500000074
 20
772.75
 40
0.5
 50
90.000003000000007
 51
179.99999099999999
  0
LINE
  8
_0-0_0
  6
CONTINUOUS
 62
    7
 10
-61.572219500000074
 20
771.94998199999998
 11
-61.572219500000074
 21
772.75
  0
LINE
  8
_0-0_0
  6
CONTINUOUS
 62
    7
 10
-141.37222350000002
 20
748.13284299999998
 11
-141.37222350000002
 21
746.14999399999999
  0
LINE
  8
_0-0_0
  6
CONTINUOUS
 62
    7
 10
-141.37222350000002
 20
746.14999399999999
 11
-140.37222350000002
 21
746.14999399999999
  0
LINE
  8
_0-0_0
  6
CONTINUOUS
 62
    7
 10
-140.07221950000007
 20
748.14999399999999
 11
-73.072219500000074
 21
748.14999399999999
  0
LINE
  8
_0-0_0
  6
CONTINUOUS
 62
    7
 10
-140.37222350000002
 20
746.14999399999999
 11
-72.772216500000013
 21
746.14999399999999
  0
LINE
  8
_0-0_0
  6
CONTINUOUS
 62
    7
 10
-72.772216500000013
 20
746.14999399999999
 11
-71.772216500000013
 21
746.14999399999999
  0
LINE
  8
_0-0_0
  6
CONTINUOUS
 62
    7
 10
-71.772216500000013
 20
748.13284299999998
 11
-71.772216500000013
 21
746.14999399999999
  0
LINE
  8
_0-0_0
  6
CONTINUOUS
 62
    7
 10
-61.572219500000074
 20
746.25
 11
-62.072219500000074
 21
745.75
  0
ARC
  8
_0-0_0
  6
CONTINUOUS
 62
    7
 10
-61.372223500000018
 20
746.44998199999998
 40
0.2
 50
90.000003000000007
 51
179.99999099999999
  0
ARC
  8
_0-0_0
  6
CONTINUOUS
 62
    7
 10
-57.072219500000074
 20
747.14999399999999
 40
0.5
 50
269.99999700000001
 51
0
  0
LINE
  8
_0-0_0
  6
CONTINUOUS
 62
    7
 10
-56.890472499999987
 20
749.84997599999997
 11
-56.870117500000106
 21
749.84896900000001
  0
LINE
  8
_0-0_0
  6
CONTINUOUS
 62
    7
 10
-56.870117500000106
 20
749.84896900000001
 11
-56.8497165
 21
749.84582499999999
  0
LINE
  8
_0-0_0
  6
CONTINUOUS
 62
    7
 10
-56.8497165
 20
749.84582499999999
 11
-56.822891500000082
 21
749.83822600000008
  0
LINE
  8
_0-0_0
  6
CONTINUOUS
 62
    7
 10
-56.822891500000082
 20
749.83822600000008
 11
-56.797256500000003
 21
749.82687399999998
  0
LINE
  8
_0-0_0
  6
CONTINUOUS
 62
    7
 10
-56.797256500000003
 20
749.82687399999998
 11
-56.773452500000076
 21
749.81198100000006
  0
LINE
  8
_0-0_0
  6
CONTINUOUS
 62
    7
 10
-56.773452500000076
 20
749.81198100000006
 11
-56.756698500000084
 21
749.79846199999997
  0
LINE
  8
_0-0_0
  6
CONTINUOUS
 62
    7
 10
-56.756698500000084
 20
749.79846199999997
 11
-56.741195500000003
 21
749.78326399999992
  0
LINE
  8
_0-0_0
  6
CONTINUOUS
 62
    7
 10
-56.741195500000003
 20
749.78326399999992
 11
-56.714294500000051
 21
749.74859600000002
  0
LINE
  8
_0-0_0
  6
CONTINUOUS
 62
    7
 10
-56.714294500000051
 20
749.74859600000002
 11
-56.693252500000085
 21
749.71026600000005
  0
LINE
  8
_0-0_0
  6
CONTINUOUS
 62
    7
 10
-56.693252500000085
 20
749.71026600000005
 11
-56.68125950000001
 21
749.68035899999995
  0
LINE
  8
_0-0_0
  6
CONTINUOUS
 62
    7
 10
-56.68125950000001
 20
749.68035899999995
 11
-56.672210500000006
 21
749.64999399999999
  0
LINE
  8
_0-0_0
  6
CONTINUOUS
 62
    7
 10
-56.890472499999987
 20
749.84997599999997
 11
-57.072219500000074
 21
749.84997599999997
  0
LINE
  8
_0-0_0
  6
CONTINUOUS
 62
    7
 10
-61.572219500000074
 20
768.29998799999998
 11
-61.572219500000074
 21
770.79998799999998
  0
LINE
  8
_0-0_0
  6
CONTINUOUS
 62
    7
 10
-61.572219500000074
 20
768.29998799999998
 11
-61.572219500000074
 21
751.79998799999998
  0
LINE
  8
_0-0_0
  6
CONTINUOUS
 62
    7
 10
-61.572219500000074
 20
750.33367900000007
 11
-61.572219500000074
 21
751.79998799999998
  0
ARC
  8
_0-0_0
  6
CONTINUOUS
 62
    7
 10
-62.072219500000074
 20
769.50500499999998
 40
0.5
 50
0
 51
123.74898500000002
  0
ARC
  8
_0-0_0
  6
CONTINUOUS
 62
    7
 10
-61.401931500000046
 20
750.02328499999999
 40
0.1734229999999999
 50
181.12417600000003
 51
270.64883800000007
  0
LINE
  8
_0-0_0
  6
CONTINUOUS
 62
    7
 10
-61.576263500000096
 20
750.04998799999998
 11
-61.576172499999984
 21
750.01986699999998
  0
ARC
  8
_0-0_0
  6
CONTINUOUS
 62
    7
 10
-66.272216500000013
 20
772.75
 40
0.5
 50
0
 51
90.000003000000007
  0
ARC
  8
_0-0_0
  6
CONTINUOUS
 62
    7
 10
-142.57221950000007
 20
771.75
 40
2.7000000000000002
 50
285.68033600000007
 51
0.0000000000000381
  0
ARC
  8
_0-0_0
  6
CONTINUOUS
 62
    7
 10
-125.57221950000007
 20
755.94998199999998
 40
3
 50
269.99999700000001
 51
0
  0
LINE
  8
_0-0_0
  6
CONTINUOUS
 62
    7
 10
-122.57221950000007
 20
755.94998199999998
 11
-122.57221950000007
 21
769.54998799999998
  0
ARC
  8
_0-0_0
  6
CONTINUOUS
 62
    7
 10
-125.57221950000007
 20
769.54998799999998
 40
3
 50
0
 51
90.000003000000007
  0
ARC
  8
_0-0_0
  6
CONTINUOUS
 62
    7
 10
-130.07221950000007
 20
765.25
 40
4.5
 50
269.99999700000001
 51
90.000002999999992
  0
LINE
  8
_0-0_0
  6
CONTINUOUS
 62
    7
 10
-130.07221950000007
 20
760.75
 11
-135.07221950000007
 21
760.75
  0
ARC
  8
_0-0_0
  6
CONTINUOUS
 62
    7
 10
-135.07221950000007
 20
765.25
 40
4.5
 50
90.000003000000007
 51
269.99999700000006
  0
LINE
  8
_0-0_0
  6
CONTINUOUS
 62
    7
 10
-135.07221950000007
 20
769.75
 11
-130.07221950000007
 21
769.75
  0
ARC
  8
_0-0_0
  6
CONTINUOUS
 62
    7
 10
-83.572219500000074
 20
755.94998199999998
 40
3
 50
179.99999099999999
 51
269.99999700000001
  0
LINE
  8
_0-0_0
  6
CONTINUOUS
 62
    7
 10
-86.572219500000074
 20
769.54998799999998
 11
-86.572219500000074
 21
755.94998199999998
  0
ARC
  8
_0-0_0
  6
CONTINUOUS
 62
    7
 10
-83.572219500000074
 20
769.54998799999998
 40
3
 50
90.000003000000007
 51
179.99999099999999
  0
ARC
  8
_0-0_0
  6
CONTINUOUS
 62
    7
 10
-74.072219500000074
 20
765.25
 40
4.5
 50
269.99999700000001
 51
90.000002999999992
  0
LINE
  8
_0-0_0
  6
CONTINUOUS
 62
    7
 10
-74.072219500000074
 20
760.75
 11
-79.072219500000074
 21
760.75
  0
ARC
  8
_0-0_0
  6
CONTINUOUS
 62
    7
 10
-79.072219500000074
 20
765.25
 40
4.5
 50
90.000003000000007
 51
269.99999700000006
  0
LINE
  8
_0-0_0
  6
CONTINUOUS
 62
    7
 10
-79.072219500000074
 20
769.75
 11
-74.072219500000074
 21
769.75
  0
LINE
  8
_0-0_0
  6
CONTINUOUS
 62
    7
 10
-152.07221950000007
 20
770.04998799999998
 11
-152.25396750000004
 21
770.04998799999998
  0
LINE
  8
_0-0_0
  6
CONTINUOUS
 62
    7
 10
-147.57221950000007
 20
768.75
 11
-147.57221950000007
 21
751.14999399999999
  0
LINE
  8
_0-0_0
  6
CONTINUOUS
 62
    7
 10
-147.57221950000007
 20
750.096405
 11
-147.57221950000007
 21
751.14999399999999
  0
ARC
  8
_0-0_0
  6
CONTINUOUS
 62
    7
 10
-147.74250849999999
 20
750.02328499999999
 40
0.1734209999999999
 50
269.35085600000002
 51
358.87625300000002
  0
LINE
  8
_0-0_0
  6
CONTINUOUS
 62
    7
 10
-147.56817650000005
 20
750.04998799999998
 11
-147.56825249999997
 21
750.01986699999998
  0
LINE
  8
_0-0_0
  6
CONTINUOUS
 62
    7
 10
-147.56817650000005
 20
769.84997599999997
 11
-147.56825249999997
 21
769.88012700000002
  0
ARC
  8
_0-0_0
  6
CONTINUOUS
 62
    7
 10
-147.74250849999999
 20
769.87670900000001
 40
0.1734219999999999
 50
1.1236539999999999
 51
90.649110000000007
  0
LINE
  8
_0-0_0
  6
CONTINUOUS
 62
    7
 10
-152.07221950000007
 20
749.84997599999997
 11
-152.25396750000004
 21
749.84997599999997
  0
LINE
  8
_0-0_0
  6
CONTINUOUS
 62
    7
 10
-152.25396750000004
 20
749.84997599999997
 11
-152.27430750000008
 21
749.84896900000001
  0
LINE
  8
_0-0_0
  6
CONTINUOUS
 62
    7
 10
-152.27430750000008
 20
749.84896900000001
 11
-152.29472350000003
 21
749.84582499999999
  0
LINE
  8
_0-0_0
  6
CONTINUOUS
 62
    7
 10
-152.29472350000003
 20
749.84582499999999
 11
-152.32153349999999
 21
749.83822600000008
  0
LINE
  8
_0-0_0
  6
CONTINUOUS
 62
    7
 10
-152.32153349999999
 20
749.83822600000008
 11
-152.34718350000003
 21
749.82687399999998
  0
LINE
  8
_0-0_0
  6
CONTINUOUS
 62
    7
 10
-152.34718350000003
 20
749.82687399999998
 11
-152.37098750000007
 21
749.81198100000006
  0
LINE
  8
_0-0_0
  6
CONTINUOUS
 62
    7
 10
-152.37098750000007
 20
749.81198100000006
 11
-152.38774150000006
 21
749.79846199999997
  0
LINE
  8
_0-0_0
  6
CONTINUOUS
 62
    7
 10
-152.38774150000006
 20
749.79846199999997
 11
-152.40324450000003
 21
749.78326399999992
  0
LINE
  8
_0-0_0
  6
CONTINUOUS
 62
    7
 10
-152.40324450000003
 20
749.78326399999992
 11
-152.43014549999998
 21
749.74859600000002
  0
LINE
  8
_0-0_0
  6
CONTINUOUS
 62
    7
 10
-152.43014549999998
 20
749.74859600000002
 11
-152.45118750000006
 21
749.71026600000005
  0
LINE
  8
_0-0_0
  6
CONTINUOUS
 62
    7
 10
-152.45118750000006
 20
749.71026600000005
 11
-152.46318050000002
 21
749.68035899999995
  0
LINE
  8
_0-0_0
  6
CONTINUOUS
 62
    7
 10
-152.46318050000002
 20
749.68035899999995
 11
-152.47221350000007
 21
749.64999399999999
  0
ARC
  8
_0-0_0
  6
CONTINUOUS
 62
    7
 10
-152.07221950000007
 20
747.14999399999999
 40
0.5
 50
179.99999099999999
 51
269.99999700000001
  0
ARC
  8
_0-0_0
  6
CONTINUOUS
 62
    7
 10
-147.77221650000001
 20
746.44998199999998
 40
0.2
 50
0
 51
90.000003000000007
  0
LINE
  8
_0-0_0
  6
CONTINUOUS
 62
    7
 10
-147.57221950000007
 20
746.25
 11
-147.07221950000007
 21
745.75
  0
ARC
  8
_0-0_0
  6
CONTINUOUS
 62
    7
 10
-164.24766550000004
 20
768.75
 40
2
 50
90.000003000000007
 51
108.434997
  0
LINE
  8
_0-0_0
  6
CONTINUOUS
 62
    7
 10
-159.57221950000007
 20
768.25
 11
-159.57221950000007
 21
768.75
  0
LINE
  8
_0-0_0
  6
CONTINUOUS
 62
    7
 10
-159.57221950000007
 20
765.25
 11
-159.57221950000007
 21
764.75
  0
LINE
  8
_0-0_0
  6
CONTINUOUS
 62
    7
 10
-159.57221950000007
 20
765.25
 11
-159.57221950000007
 21
768.25
  0
ARC
  8
_0-0_0
  6
CONTINUOUS
 62
    7
 10
-153.5722045
 20
765.44998199999998
 40
0.500016
 50
0.001164
 51
179.99560600000004
  0
LINE
  8
_0-0_0
  6
CONTINUOUS
 62
    7
 10
-154.07221950000007
 20
765.44998199999998
 11
-154.07221950000007
 21
753.44998199999998
  0
ARC
  8
_0-0_0
  6
CONTINUOUS
 62
    7
 10
-153.5722045
 20
753.45001200000002
 40
0.500016
 50
180.00117
 51
359.995611
  0
LINE
  8
_0-0_0
  6
CONTINUOUS
 62
    7
 10
-153.07221950000007
 20
765.44998199999998
 11
-153.07221950000007
 21
753.44998199999998
  0
ARC
  8
_0-0_0
  6
CONTINUOUS
 62
    7
 10
-155.0722045
 20
765.44998199999998
 40
0.500016
 50
0.001164
 51
179.99560600000004
  0
LINE
  8
_0-0_0
  6
CONTINUOUS
 62
    7
 10
-155.57221950000007
 20
765.44998199999998
 11
-155.57221950000007
 21
753.44998199999998
  0
ARC
  8
_0-0_0
  6
CONTINUOUS
 62
    7
 10
-155.0722045
 20
753.45001200000002
 40
0.500016
 50
180.00117
 51
359.995611
  0
LINE
  8
_0-0_0
  6
CONTINUOUS
 62
    7
 10
-154.57221950000007
 20
765.44998199999998
 11
-154.57221950000007
 21
753.44998199999998
  0
ARC
  8
_0-0_0
  6
CONTINUOUS
 62
    7
 10
-156.5722045
 20
765.44998199999998
 40
0.500016
 50
0.001164
 51
179.99560600000004
  0
LINE
  8
_0-0_0
  6
CONTINUOUS
 62
    7
 10
-157.07221950000007
 20
765.44998199999998
 11
-157.07221950000007
 21
753.44998199999998
  0
ARC
  8
_0-0_0
  6
CONTINUOUS
 62
    7
 10
-156.5722045
 20
753.45001200000002
 40
0.500016
 50
180.00117
 51
359.995611
  0
LINE
  8
_0-0_0
  6
CONTINUOUS
 62
    7
 10
-156.07221950000007
 20
765.44998199999998
 11
-156.07221950000007
 21
753.44998199999998
  0
ARC
  8
_0-0_0
  6
CONTINUOUS
 62
    7
 10
-158.0722045
 20
765.44998199999998
 40
0.500016
 50
0.001164
 51
179.99560600000004
  0
LINE
  8
_0-0_0
  6
CONTINUOUS
 62
    7
 10
-158.57221950000007
 20
765.44998199999998
 11
-158.57221950000007
 21
753.44998199999998
  0
ARC
  8
_0-0_0
  6
CONTINUOUS
 62
    7
 10
-158.0722045
 20
753.45001200000002
 40
0.500016
 50
180.00117
 51
359.995611
  0
LINE
  8
_0-0_0
  6
CONTINUOUS
 62
    7
 10
-157.57221950000007
 20
765.44998199999998
 11
-157.57221950000007
 21
753.44998199999998
  0
LINE
  8
_0-0_0
  6
CONTINUOUS
 62
    7
 10
-61.572219500000074
 20
771.44998199999998
 11
-61.072219500000074
 21
771.44998199999998
  0
LINE
  8
_0-0_0
  6
CONTINUOUS
 62
    7
 10
-61.072219500000074
 20
771.44998199999998
 11
-48.572219500000074
 21
771.44998199999998
  0
ARC
  8
_0-0_0
  6
CONTINUOUS
 62
    7
 10
-61.072219500000074
 20
771.94998199999998
 40
0.5
 50
179.99999099999999
 51
269.99999700000001
  0
LINE
  8
_0-0_0
  6
CONTINUOUS
 62
    7
 10
-61.572219500000074
 20
771.08395399999995
 11
-61.572219500000074
 21
771.44998199999998
  0
LINE
  8
_0-0_0
  6
CONTINUOUS
 62
    7
 10
-61.572219500000074
 20
770.83346600000004
 11
-61.572219500000074
 21
770.79998799999998
  0
LINE
  8
_0-0_0
  6
CONTINUOUS
 62
    7
 10
-61.572219500000074
 20
771.08395399999995
 11
-61.572219500000074
 21
770.83346600000004
  0
CIRCLE
  8
_0-0_0
  6
CONTINUOUS
 62
    7
 10
-142.57221950000007
 20
771.75
 40
1.4750000000000001
  0
CIRCLE
  8
_0-0_0
  6
CONTINUOUS
 62
    7
 10
-63.572219500000074
 20
771.75
 40
1.4750000000000001
  0
LINE
  8
_0-0_0
  6
CONTINUOUS
 62
    7
 10
-61.572219500000074
 20
746.09997599999997
 11
-61.572219500000074
 21
746.25
  0
LINE
  8
_0-0_0
  6
CONTINUOUS
 62
    7
 10
-56.072219500000074
 20
746.09997599999997
 11
-61.572219500000074
 21
746.09997599999997
  0
LINE
  8
_0-0_0
  6
CONTINUOUS
 62
    7
 10
-56.072219500000074
 20
748.64999399999999
 11
-56.572219500000074
 21
748.64999399999999
  0
LINE
  8
_0-0_0
  6
CONTINUOUS
 62
    7
 10
-61.072219500000074
 20
771.29998799999998
 11
-61.572219500000074
 21
770.79998799999998
  0
LINE
  8
_0-0_0
  6
CONTINUOUS
 62
    7
 10
-61.072219500000074
 20
771.29998799999998
 11
-56.072219500000074
 21
771.29998799999998
  0
LINE
  8
_0-0_0
  6
CONTINUOUS
 62
    7
 10
-152.56102050000004
 20
749.14999399999999
 11
-164.24766550000004
 21
749.14999399999999
  0
LINE
  8
_0-0_0
  6
CONTINUOUS
 62
    7
 10
-165.32221950000007
 20
770.49996899999996
 11
-164.88012750000007
 21
770.64733899999999
  0
LINE
  8
_0-0_0
  6
CONTINUOUS
 62
    7
 10
-169.04656950000003
 20
765.25
 11
-169.73992950000002
 21
765.25
  0
LINE
  8
_0-0_0
  6
CONTINUOUS
 62
    7
 10
-169.04656950000003
 20
765.25
 11
-164.72200050000004
 21
765.25
  0
LINE
  8
_0-0_0
  6
CONTINUOUS
 62
    7
 10
-164.24766550000004
 20
765.25
 11
-164.72200050000004
 21
765.25
  0
LINE
  8
_0-0_0
  6
CONTINUOUS
 62
    7
 10
-159.57221950000007
 20
765.25
 11
-164.24766550000004
 21
765.25
  0
LINE
  8
_0-0_0
  6
CONTINUOUS
 62
    7
 10
-61.572219500000074
 20
745.95355199999995
 11
-61.572219500000074
 21
746.09997599999997
  0
LINE
  8
_0-0_0
  6
CONTINUOUS
 62
    7
 10
-61.572219500000074
 20
745.89642300000003
 11
-61.572219500000074
 21
745.95355199999995
  0
LINE
  8
_0-0_0
  6
CONTINUOUS
 62
    7
 10
-61.572219500000074
 20
745.75
 11
-61.572219500000074
 21
745.89642300000003
  0
ARC
  8
_0-0_0
  6
CONTINUOUS
 62
    7
 10
-56.072219500000074
 20
746.59997599999997
 40
0.5
 50
269.99999700000001
 51
0
  0
LINE
  8
_0-0_0
  6
CONTINUOUS
 62
    7
 10
-55.572219500000074
 20
748.15570100000002
 11
-55.572219500000074
 21
746.59997599999997
  0
ARC
  8
_0-0_0
  6
CONTINUOUS
 62
    7
 10
-56.059127500000045
 20
748.15234400000008
 40
0.4869939999999999
 50
0.394923
 51
23.93947
  0
ARC
  8
_0-0_0
  6
CONTINUOUS
 62
    7
 10
-56.072219500000074
 20
748.14999399999999
 40
0.5
 50
23.578231000000002
 51
90.000002999999992
  0
LINE
  8
_0-0_0
  6
CONTINUOUS
 62
    7
 10
-55.572219500000074
 20
768.29998799999998
 11
-55.572219500000074
 21
770.79998799999998
  0
ARC
  8
_0-0_0
  6
CONTINUOUS
 62
    7
 10
-56.072219500000074
 20
770.79998799999998
 40
0.5
 50
0
 51
90.000003000000007
  0
LINE
  8
_0-0_0
  6
CONTINUOUS
 62
    7
 10
-56.072219500000074
 20
755
 11
-58.272216500000013
 21
755
  0
LINE
  8
_0-0_0
  6
CONTINUOUS
 62
    7
 10
-55.572219500000074
 20
768.29998799999998
 11
-55.572219500000074
 21
755.5
  0
LINE
  8
_0-0_0
  6
CONTINUOUS
 62
    7
 10
-58.572219500000074
 20
754.69998199999998
 11
-58.572219500000074
 21
752.12167399999998
  0
LINE
  8
_0-0_0
  6
CONTINUOUS
 62
    7
 10
-128.60067750000007
 20
761.14999399999999
 11
-136.54376250000007
 21
761.14999399999999
  0
ARC
  8
_0-0_0
  6
CONTINUOUS
 62
    7
 10
-136.54376250000007
 20
761.64999399999999
 40
0.5
 50
210.00000299999999
 51
269.99999700000001
  0
LINE
  8
_0-0_0
  6
CONTINUOUS
 62
    7
 10
-136.97677650000003
 20
761.39999399999999
 11
-139.05523650000009
 21
765
  0
ARC
  8
_0-0_0
  6
CONTINUOUS
 62
    7
 10
-138.62222350000002
 20
765.25
 40
0.5
 50
149.99999700000001
 51
210.00000299999996
  0
LINE
  8
_0-0_0
  6
CONTINUOUS
 62
    7
 10
-139.05523650000009
 20
765.5
 11
-136.97677650000003
 21
769.09997599999997
  0
ARC
  8
_0-0_0
  6
CONTINUOUS
 62
    7
 10
-136.54376250000007
 20
768.84997599999997
 40
0.5
 50
90.000003000000007
 51
149.99999700000001
  0
LINE
  8
_0-0_0
  6
CONTINUOUS
 62
    7
 10
-136.54376250000007
 20
769.34997599999997
 11
-128.60067750000007
 21
769.34997599999997
  0
ARC
  8
_0-0_0
  6
CONTINUOUS
 62
    7
 10
-128.60067750000007
 20
768.84997599999997
 40
0.5
 50
30.000001000000001
 51
90.000003000000007
  0
LINE
  8
_0-0_0
  6
CONTINUOUS
 62
    7
 10
-128.1676635
 20
769.09997599999997
 11
-126.08920350000005
 21
765.5
  0
ARC
  8
_0-0_0
  6
CONTINUOUS
 62
    7
 10
-126.52221650000001
 20
765.25
 40
0.5
 50
329.99998900000003
 51
30.000000999999983
  0
LINE
  8
_0-0_0
  6
CONTINUOUS
 62
    7
 10
-126.08920350000005
 20
765
 11
-128.1676635
 21
761.39999399999999
  0
ARC
  8
_0-0_0
  6
CONTINUOUS
 62
    7
 10
-128.60067750000007
 20
761.64999399999999
 40
0.5
 50
269.99999700000001
 51
329.99998900000003
  0
ARC
  8
_0-0_0
  6
CONTINUOUS
 62
    7
 10
-80.601486500000078
 20
761.75
 40
0.5
 50
210.00000299999999
 51
269.99999700000001
  0
LINE
  8
_0-0_0
  6
CONTINUOUS
 62
    7
 10
-81.034500500000036
 20
761.5
 11
-83.055221500000016
 21
765
  0
ARC
  8
_0-0_0
  6
CONTINUOUS
 62
    7
 10
-82.622223500000018
 20
765.25
 40
0.5
 50
149.99999700000001
 51
210.00000299999996
  0
LINE
  8
_0-0_0
  6
CONTINUOUS
 62
    7
 10
-83.055221500000016
 20
765.5
 11
-81.034500500000036
 21
769
  0
ARC
  8
_0-0_0
  6
CONTINUOUS
 62
    7
 10
-80.601486500000078
 20
768.75
 40
0.5
 50
90.000003000000007
 51
149.99999700000001
  0
LINE
  8
_0-0_0
  6
CONTINUOUS
 62
    7
 10
-80.601486500000078
 20
769.25
 11
-72.542938499999991
 21
769.25
  0
ARC
  8
_0-0_0
  6
CONTINUOUS
 62
    7
 10
-72.542938499999991
 20
768.75
 40
0.5
 50
30.000001000000001
 51
90.000003000000007
  0
LINE
  8
_0-0_0
  6
CONTINUOUS
 62
    7
 10
-72.109924500000034
 20
769
 11
-70.089203500000053
 21
765.5
  0
ARC
  8
_0-0_0
  6
CONTINUOUS
 62
    7
 10
-70.522216500000013
 20
765.25
 40
0.5
 50
329.99998900000003
 51
30.000000999999983
  0
LINE
  8
_0-0_0
  6
CONTINUOUS
 62
    7
 10
-70.089203500000053
 20
765
 11
-72.109924500000034
 21
761.5
  0
ARC
  8
_0-0_0
  6
CONTINUOUS
 62
    7
 10
-72.542938499999991
 20
761.75
 40
0.5
 50
269.99999700000001
 51
329.99998900000003
  0
LINE
  8
_0-0_0
  6
CONTINUOUS
 62
    7
 10
-72.542938499999991
 20
761.25
 11
-80.601486500000078
 21
761.25
  0
LINE
  8
_0-0_0
  6
CONTINUOUS
 62
    7
 10
-164.88012750000007
 20
749.25262500000008
 11
-164.76063550000003
 21
749.21701000000007
  0
LINE
  8
_0-0_0
  6
CONTINUOUS
 62
    7
 10
-164.76063550000003
 20
749.21701000000007
 11
-164.63906850000001
 21
749.18911700000001
  0
LINE
  8
_0-0_0
  6
CONTINUOUS
 62
    7
 10
-164.63906850000001
 20
749.18911700000001
 11
-164.51594550000004
 21
749.16906700000004
  0
LINE
  8
_0-0_0
  6
CONTINUOUS
 62
    7
 10
-164.51594550000004
 20
749.16906700000004
 11
-164.39172350000001
 21
749.15695200000005
  0
LINE
  8
_0-0_0
  6
CONTINUOUS
 62
    7
 10
-164.39172350000001
 20
749.15695200000005
 11
-164.26689150000004
 21
749.15283199999999
  0
LINE
  8
_0-0_0
  6
CONTINUOUS
 62
    7
 10
-164.26689150000004
 20
749.15283199999999
 11
-164.24766550000004
 21
749.15289299999995
  0
ARC
  8
_0-0_0
  6
CONTINUOUS
 62
    7
 10
-164.24766550000004
 20
751.14999399999999
 40
2
 50
251.56498899999997
 51
269.99999700000001
  0
LINE
  8
_0-0_0
  6
CONTINUOUS
 62
    7
 10
-170.57221950000007
 20
766.00003100000004
 11
-170.57221950000007
 21
764.87899800000002
  0
LINE
  8
_0-0_0
  6
CONTINUOUS
 62
    7
 10
-142.37222350000002
 20
770.64999399999999
 11
-142.77221650000001
 21
770.64999399999999
  0
LINE
  8
_0-0_0
  6
CONTINUOUS
 62
    7
 10
-142.37222350000002
 20
770.64999399999999
 11
-142.37222350000002
 21
771.29998799999998
  0
ARC
  8
_0-0_0
  6
CONTINUOUS
 62
    7
 10
-142.12222350000002
 20
771.29998799999998
 40
0.25
 50
90.000003000000007
 51
179.99999099999999
  0
LINE
  8
_0-0_0
  6
CONTINUOUS
 62
    7
 10
-142.12222350000002
 20
771.54998799999998
 11
-141.47221350000007
 21
771.54998799999998
  0
LINE
  8
_0-0_0
  6
CONTINUOUS
 62
    7
 10
-141.47221350000007
 20
771.54998799999998
 11
-141.47221350000007
 21
771.94998199999998
  0
LINE
  8
_0-0_0
  6
CONTINUOUS
 62
    7
 10
-142.12222350000002
 20
771.94998199999998
 11
-141.47221350000007
 21
771.94998199999998
  0
ARC
  8
_0-0_0
  6
CONTINUOUS
 62
    7
 10
-142.12222350000002
 20
772.19998199999998
 40
0.25
 50
179.99999099999999
 51
269.99999700000001
  0
LINE
  8
_0-0_0
  6
CONTINUOUS
 62
    7
 10
-142.37222350000002
 20
772.84997599999997
 11
-142.37222350000002
 21
772.19998199999998
  0
LINE
  8
_0-0_0
  6
CONTINUOUS
 62
    7
 10
-142.37222350000002
 20
772.84997599999997
 11
-142.77221650000001
 21
772.84997599999997
  0
LINE
  8
_0-0_0
  6
CONTINUOUS
 62
    7
 10
-142.77221650000001
 20
772.84997599999997
 11
-142.77221650000001
 21
772.19998199999998
  0
ARC
  8
_0-0_0
  6
CONTINUOUS
 62
    7
 10
-143.02221650000001
 20
772.19998199999998
 40
0.25
 50
269.99999700000001
 51
0
  0
LINE
  8
_0-0_0
  6
CONTINUOUS
 62
    7
 10
-143.02221650000001
 20
771.94998199999998
 11
-143.67222650000008
 21
771.94998199999998
  0
LINE
  8
_0-0_0
  6
CONTINUOUS
 62
    7
 10
-143.67222650000008
 20
771.54998799999998
 11
-143.67222650000008
 21
771.94998199999998
  0
LINE
  8
_0-0_0
  6
CONTINUOUS
 62
    7
 10
-143.02221650000001
 20
771.54998799999998
 11
-143.67222650000008
 21
771.54998799999998
  0
ARC
  8
_0-0_0
  6
CONTINUOUS
 62
    7
 10
-143.02221650000001
 20
771.29998799999998
 40
0.25
 50
0
 51
90.000003000000007
  0
LINE
  8
_0-0_0
  6
CONTINUOUS
 62
    7
 10
-142.77221650000001
 20
770.64999399999999
 11
-142.77221650000001
 21
771.29998799999998
  0
LINE
  8
_0-0_0
  6
CONTINUOUS
 62
    7
 10
-63.372223500000018
 20
770.64999399999999
 11
-63.772216500000013
 21
770.64999399999999
  0
LINE
  8
_0-0_0
  6
CONTINUOUS
 62
    7
 10
-63.372223500000018
 20
770.64999399999999
 11
-63.372223500000018
 21
771.29998799999998
  0
ARC
  8
_0-0_0
  6
CONTINUOUS
 62
    7
 10
-63.122223500000018
 20
771.29998799999998
 40
0.25
 50
90.000003000000007
 51
179.99999099999999
  0
LINE
  8
_0-0_0
  6
CONTINUOUS
 62
    7
 10
-63.122223500000018
 20
771.54998799999998
 11
-62.472213500000066
 21
771.54998799999998
  0
LINE
  8
_0-0_0
  6
CONTINUOUS
 62
    7
 10
-62.472213500000066
 20
771.54998799999998
 11
-62.472213500000066
 21
771.94998199999998
  0
LINE
  8
_0-0_0
  6
CONTINUOUS
 62
    7
 10
-63.122223500000018
 20
771.94998199999998
 11
-62.472213500000066
 21
771.94998199999998
  0
ARC
  8
_0-0_0
  6
CONTINUOUS
 62
    7
 10
-63.122223500000018
 20
772.19998199999998
 40
0.25
 50
179.99999099999999
 51
269.99999700000001
  0
LINE
  8
_0-0_0
  6
CONTINUOUS
 62
    7
 10
-63.372223500000018
 20
772.84997599999997
 11
-63.372223500000018
 21
772.19998199999998
  0
LINE
  8
_0-0_0
  6
CONTINUOUS
 62
    7
 10
-63.372223500000018
 20
772.84997599999997
 11
-63.772216500000013
 21
772.84997599999997
  0
LINE
  8
_0-0_0
  6
CONTINUOUS
 62
    7
 10
-63.772216500000013
 20
772.84997599999997
 11
-63.772216500000013
 21
772.19998199999998
  0
ARC
  8
_0-0_0
  6
CONTINUOUS
 62
    7
 10
-64.022216500000013
 20
772.19998199999998
 40
0.25
 50
269.99999700000001
 51
0
  0
LINE
  8
_0-0_0
  6
CONTINUOUS
 62
    7
 10
-64.022216500000013
 20
771.94998199999998
 11
-64.672210500000006
 21
771.94998199999998
  0
LINE
  8
_0-0_0
  6
CONTINUOUS
 62
    7
 10
-64.672210500000006
 20
771.54998799999998
 11
-64.672210500000006
 21
771.94998199999998
  0
LINE
  8
_0-0_0
  6
CONTINUOUS
 62
    7
 10
-64.022216500000013
 20
771.54998799999998
 11
-64.672210500000006
 21
771.54998799999998
  0
ARC
  8
_0-0_0
  6
CONTINUOUS
 62
    7
 10
-64.022216500000013
 20
771.29998799999998
 40
0.25
 50
0
 51
90.000003000000007
  0
LINE
  8
_0-0_0
  6
CONTINUOUS
 62
    7
 10
-63.772216500000013
 20
770.64999399999999
 11
-63.772216500000013
 21
771.29998799999998
  0
LINE
  8
_0-0_0
  6
CONTINUOUS
 62
    7
 10
-56.072219500000074
 20
745.75
 11
-61.572219500000074
 21
745.75
  0
LINE
  8
_0-0_0
  6
CONTINUOUS
 62
    7
 10
-55.572219500000074
 20
752
 11
-55.572219500000074
 21
755.5
  0
LINE
  8
_0-0_0
  6
CONTINUOUS
 62
    7
 10
-55.572219500000074
 20
752
 11
-55.572219500000074
 21
751.64999399999999
  0
LINE
  8
_0-0_0
  6
CONTINUOUS
 62
    7
 10
-55.572219500000074
 20
748.15570100000002
 11
-55.572219500000074
 21
751.64999399999999
  0
LINE
  8
_0-0_0
  6
CONTINUOUS
 62
    7
 10
-55.572219500000074
 20
746.307098
 11
-55.572219500000074
 21
746.59997599999997
  0
LINE
  8
_0-0_0
  6
CONTINUOUS
 62
    7
 10
-55.572219500000074
 20
746.307098
 11
-55.572219500000074
 21
746.25
  0
LINE
  8
_0-0_0
  6
CONTINUOUS
 62
    7
 10
-58.572219500000074
 20
750.57128899999998
 11
-58.572219500000074
 21
752.12167399999998
  0
LINE
  8
_0-0_0
  6
CONTINUOUS
 62
    7
 10
-58.572219500000074
 20
749.85012800000004
 11
-58.572219500000074
 21
750.57128899999998
  0
ARC
  8
_0-0_0
  6
CONTINUOUS
 62
    7
 10
-56.072219500000074
 20
755.5
 40
0.5
 50
269.99999700000001
 51
0
  0
ARC
  8
_0-0_0
  6
CONTINUOUS
 62
    7
 10
-58.272216500000013
 20
754.69998199999998
 40
0.2999999999999999
 50
90.000003000000007
 51
179.99999099999999
  0
LINE
  8
_0-0_0
  6
CONTINUOUS
 62
    7
 10
-169.20468150000011
 20
750.69415299999991
 11
-164.88012750000007
 21
749.25262500000008
  0
LINE
  8
_0-0_0
  6
CONTINUOUS
 62
    7
 10
-170.57221950000007
 20
752.59149200000002
 11
-170.57221950000007
 21
755.94229100000007
  0
LINE
  8
_0-0_0
  6
CONTINUOUS
 62
    7
 10
-170.57221950000007
 20
763.957672
 11
-170.57221950000007
 21
764.87899800000002
  0
ARC
  8
_0-0_0
  6
CONTINUOUS
 62
    7
 10
-168.57221950000007
 20
752.59149200000002
 40
2
 50
179.99999099999999
 51
251.56498899999997
  0
LINE
  8
_0-0_0
  6
CONTINUOUS
 62
    7
 10
-185.57221950000007
 20
769.47543300000007
 11
-185.57221950000007
 21
769.32870500000001
  0
LINE
  8
_0-0_0
  6
CONTINUOUS
 62
    7
 10
-185.57221950000007
 20
769.66595499999994
 11
-185.57221950000007
 21
769.47543300000007
  0
LINE
  8
_0-0_0
  6
CONTINUOUS
 62
    7
 10
-185.57221950000007
 20
769.84097300000008
 11
-185.57221950000007
 21
769.66595499999994
  0
LINE
  8
_0-0_0
  6
CONTINUOUS
 62
    7
 10
-185.57221950000007
 20
769.99856599999998
 11
-185.57221950000007
 21
769.84097300000008
  0
LINE
  8
_0-0_0
  6
CONTINUOUS
 62
    7
 10
-185.57221950000007
 20
770.13699300000007
 11
-185.57221950000007
 21
769.99856599999998
  0
LINE
  8
_0-0_0
  6
CONTINUOUS
 62
    7
 10
-185.57221950000007
 20
770.25476099999992
 11
-185.57221950000007
 21
770.13699300000007
  0
LINE
  8
_0-0_0
  6
CONTINUOUS
 62
    7
 10
-185.57221950000007
 20
770.35052500000006
 11
-185.57221950000007
 21
770.25476099999992
  0
LINE
  8
_0-0_0
  6
CONTINUOUS
 62
    7
 10
-185.57221950000007
 20
770.42330900000002
 11
-185.57221950000007
 21
770.35052500000006
  0
LINE
  8
_0-0_0
  6
CONTINUOUS
 62
    7
 10
-185.57221950000007
 20
770.47228999999993
 11
-185.57221950000007
 21
770.42330900000002
  0
LINE
  8
_0-0_0
  6
CONTINUOUS
 62
    7
 10
-185.57221950000007
 20
770.49688700000002
 11
-185.57221950000007
 21
770.47228999999993
  0
LINE
  8
_0-0_0
  6
CONTINUOUS
 62
    7
 10
-185.57221950000007
 20
770.5
 11
-185.57221950000007
 21
770.49688700000002
  0
LINE
  8
_0-0_0
  6
CONTINUOUS
 62
    7
 10
-185.57221950000007
 20
766.00305200000003
 11
-185.57221950000007
 21
766
  0
LINE
  8
_0-0_0
  6
CONTINUOUS
 62
    7
 10
-185.57221950000007
 20
766.02767900000003
 11
-185.57221950000007
 21
766.00305200000003
  0
LINE
  8
_0-0_0
  6
CONTINUOUS
 62
    7
 10
-185.57221950000007
 20
766.07665999999995
 11
-185.57221950000007
 21
766.02767900000003
  0
LINE
  8
_0-0_0
  6
CONTINUOUS
 62
    7
 10
-185.57221950000007
 20
766.14941399999998
 11
-185.57221950000007
 21
766.07665999999995
  0
LINE
  8
_0-0_0
  6
CONTINUOUS
 62
    7
 10
-185.57221950000007
 20
766.24520899999993
 11
-185.57221950000007
 21
766.14941399999998
  0
LINE
  8
_0-0_0
  6
CONTINUOUS
 62
    7
 10
-185.57221950000007
 20
766.27542100000005
 11
-185.57221950000007
 21
766.24520899999993
  0
LINE
  8
_0-0_0
  6
CONTINUOUS
 62
    7
 10
-185.57221950000007
 20
766.362976
 11
-185.57221950000007
 21
766.27542100000005
  0
LINE
  8
_0-0_0
  6
CONTINUOUS
 62
    7
 10
-185.57221950000007
 20
766.50140399999998
 11
-185.57221950000007
 21
766.362976
  0
LINE
  8
_0-0_0
  6
CONTINUOUS
 62
    7
 10
-185.57221950000007
 20
766.658997
 11
-185.57221950000007
 21
766.50140399999998
  0
LINE
  8
_0-0_0
  6
CONTINUOUS
 62
    7
 10
-185.57221950000007
 20
766.83401500000002
 11
-185.57221950000007
 21
766.658997
  0
LINE
  8
_0-0_0
  6
CONTINUOUS
 62
    7
 10
-185.57221950000007
 20
767.02453600000001
 11
-185.57221950000007
 21
766.83401500000002
  0
LINE
  8
_0-0_0
  6
CONTINUOUS
 62
    7
 10
-185.57221950000007
 20
767.22851600000001
 11
-185.57221950000007
 21
767.02453600000001
  0
LINE
  8
_0-0_0
  6
CONTINUOUS
 62
    7
 10
-185.57221950000007
 20
767.44366500000001
 11
-185.57221950000007
 21
767.22851600000001
  0
LINE
  8
_0-0_0
  6
CONTINUOUS
 62
    7
 10
-185.57221950000007
 20
767.66763300000002
 11
-185.57221950000007
 21
767.44366500000001
  0
LINE
  8
_0-0_0
  6
CONTINUOUS
 62
    7
 10
-185.57221950000007
 20
767.89801
 11
-185.57221950000007
 21
767.66763300000002
  0
LINE
  8
_0-0_0
  6
CONTINUOUS
 62
    7
 10
-185.57221950000007
 20
768.13223300000004
 11
-185.57221950000007
 21
767.89801
  0
LINE
  8
_0-0_0
  6
CONTINUOUS
 62
    7
 10
-185.57221950000007
 20
768.36773700000003
 11
-185.57221950000007
 21
768.13223300000004
  0
LINE
  8
_0-0_0
  6
CONTINUOUS
 62
    7
 10
-185.57221950000007
 20
768.60195900000008
 11
-185.57221950000007
 21
768.36773700000003
  0
LINE
  8
_0-0_0
  6
CONTINUOUS
 62
    7
 10
-185.57221950000007
 20
768.83233599999994
 11
-185.57221950000007
 21
768.60195900000008
  0
LINE
  8
_0-0_0
  6
CONTINUOUS
 62
    7
 10
-185.57221950000007
 20
769.05630500000007
 11
-185.57221950000007
 21
768.83233599999994
  0
LINE
  8
_0-0_0
  6
CONTINUOUS
 62
    7
 10
-185.57221950000007
 20
769.27145399999995
 11
-185.57221950000007
 21
769.05630500000007
  0
LINE
  8
_0-0_0
  6
CONTINUOUS
 62
    7
 10
-185.57221950000007
 20
769.32870500000001
 11
-185.57221950000007
 21
769.27145399999995
  0
LINE
  8
_0-0_0
  6
CONTINUOUS
 62
    7
 10
-170.27221650000001
 20
762.16198699999995
 11
-170.33100950000005
 21
762.40881300000001
  0
LINE
  8
_0-0_0
  6
CONTINUOUS
 62
    7
 10
-170.33100950000005
 20
762.40881300000001
 11
-170.38078350000001
 21
762.601135
  0
LINE
  8
_0-0_0
  6
CONTINUOUS
 62
    7
 10
-170.38078350000001
 20
762.601135
 11
-170.45191950000003
 21
762.86694299999999
  0
LINE
  8
_0-0_0
  6
CONTINUOUS
 62
    7
 10
-170.45191950000003
 20
762.86694299999999
 11
-170.48487850000004
 21
762.993652
  0
LINE
  8
_0-0_0
  6
CONTINUOUS
 62
    7
 10
-170.48487850000004
 20
762.993652
 11
-170.51013150000006
 21
763.09707600000002
  0
LINE
  8
_0-0_0
  6
CONTINUOUS
 62
    7
 10
-170.51013150000006
 20
763.09707600000002
 11
-170.53216550000002
 21
763.19702099999995
  0
LINE
  8
_0-0_0
  6
CONTINUOUS
 62
    7
 10
-170.53216550000002
 20
763.19702099999995
 11
-170.55354350000005
 21
763.31472800000006
  0
LINE
  8
_0-0_0
  6
CONTINUOUS
 62
    7
 10
-170.55354350000005
 20
763.31472800000006
 11
-170.5621185
 21
763.37686200000007
  0
LINE
  8
_0-0_0
  6
CONTINUOUS
 62
    7
 10
-170.5621185
 20
763.37686200000007
 11
-170.56819150000001
 21
763.43746899999996
  0
LINE
  8
_0-0_0
  6
CONTINUOUS
 62
    7
 10
-170.56819150000001
 20
763.43746899999996
 11
-170.57119750000004
 21
763.48669399999994
  0
LINE
  8
_0-0_0
  6
CONTINUOUS
 62
    7
 10
-170.57119750000004
 20
763.48669399999994
 11
-170.57221950000007
 21
763.53491200000008
  0
LINE
  8
_0-0_0
  6
CONTINUOUS
 62
    7
 10
-170.27221650000001
 20
757.737976
 11
-170.18875150000008
 21
758.11663799999997
  0
LINE
  8
_0-0_0
  6
CONTINUOUS
 62
    7
 10
-170.18875150000008
 20
758.11663799999997
 11
-170.14866649999999
 21
758.30816700000003
  0
LINE
  8
_0-0_0
  6
CONTINUOUS
 62
    7
 10
-170.14866649999999
 20
758.30816700000003
 11
-170.09259050000003
 21
758.598206
  0
LINE
  8
_0-0_0
  6
CONTINUOUS
 62
    7
 10
-170.09259050000003
 20
758.598206
 11
-170.05499250000003
 21
758.81778000000008
  0
LINE
  8
_0-0_0
  6
CONTINUOUS
 62
    7
 10
-170.05499250000003
 20
758.81778000000008
 11
-170.02233850000005
 21
759.03903200000002
  0
LINE
  8
_0-0_0
  6
CONTINUOUS
 62
    7
 10
-170.02233850000005
 20
759.03903200000002
 11
-169.99517850000007
 21
759.26583900000003
  0
LINE
  8
_0-0_0
  6
CONTINUOUS
 62
    7
 10
-169.99517850000007
 20
759.26583900000003
 11
-169.97511350000002
 21
759.49322499999994
  0
LINE
  8
_0-0_0
  6
CONTINUOUS
 62
    7
 10
-169.97511350000002
 20
759.49322499999994
 11
-169.96795650000001
 21
759.60696400000006
  0
LINE
  8
_0-0_0
  6
CONTINUOUS
 62
    7
 10
-169.96795650000001
 20
759.60696400000006
 11
-169.96279950000007
 21
759.720642
  0
LINE
  8
_0-0_0
  6
CONTINUOUS
 62
    7
 10
-169.96279950000007
 20
759.720642
 11
-169.95907650000004
 21
759.87207000000001
  0
LINE
  8
_0-0_0
  6
CONTINUOUS
 62
    7
 10
-169.95907650000004
 20
759.87207000000001
 11
-169.95903050000004
 21
760.02331500000003
  0
LINE
  8
_0-0_0
  6
CONTINUOUS
 62
    7
 10
-169.95903050000004
 20
760.02331500000003
 11
-169.96260050000001
 21
760.17437700000005
  0
LINE
  8
_0-0_0
  6
CONTINUOUS
 62
    7
 10
-169.96260050000001
 20
760.17437700000005
 11
-169.97210749999999
 21
760.36291499999993
  0
LINE
  8
_0-0_0
  6
CONTINUOUS
 62
    7
 10
-169.97210749999999
 20
760.36291499999993
 11
-169.98696949999999
 21
760.55117799999994
  0
LINE
  8
_0-0_0
  6
CONTINUOUS
 62
    7
 10
-169.98696949999999
 20
760.55117799999994
 11
-170.00689750000004
 21
760.739105
  0
LINE
  8
_0-0_0
  6
CONTINUOUS
 62
    7
 10
-170.00689750000004
 20
760.739105
 11
-170.02328550000004
 21
760.86798099999999
  0
LINE
  8
_0-0_0
  6
CONTINUOUS
 62
    7
 10
-170.02328550000004
 20
760.86798099999999
 11
-170.04170250000004
 21
760.99664299999995
  0
LINE
  8
_0-0_0
  6
CONTINUOUS
 62
    7
 10
-170.04170250000004
 20
760.99664299999995
 11
-170.06585749999999
 21
761.14855999999997
  0
LINE
  8
_0-0_0
  6
CONTINUOUS
 62
    7
 10
-170.06585749999999
 20
761.14855999999997
 11
-170.09225450000008
 21
761.29992700000003
  0
LINE
  8
_0-0_0
  6
CONTINUOUS
 62
    7
 10
-170.09225450000008
 20
761.29992700000003
 11
-170.14842250000004
 21
761.59054600000002
  0
LINE
  8
_0-0_0
  6
CONTINUOUS
 62
    7
 10
-170.14842250000004
 20
761.59054600000002
 11
-170.18858350000005
 21
761.78250100000002
  0
LINE
  8
_0-0_0
  6
CONTINUOUS
 62
    7
 10
-170.18858350000005
 20
761.78250100000002
 11
-170.27221650000001
 21
762.16198699999995
  0
LINE
  8
_0-0_0
  6
CONTINUOUS
 62
    7
 10
-170.27221650000001
 20
757.737976
 11
-170.33102450000001
 21
757.49111900000003
  0
LINE
  8
_0-0_0
  6
CONTINUOUS
 62
    7
 10
-170.33102450000001
 20
757.49111900000003
 11
-170.38078350000001
 21
757.29879800000003
  0
LINE
  8
_0-0_0
  6
CONTINUOUS
 62
    7
 10
-170.38078350000001
 20
757.29879800000003
 11
-170.45190450000007
 21
757.033051
  0
LINE
  8
_0-0_0
  6
CONTINUOUS
 62
    7
 10
-170.45190450000007
 20
757.033051
 11
-170.48486350000007
 21
756.906342
  0
LINE
  8
_0-0_0
  6
CONTINUOUS
 62
    7
 10
-170.48486350000007
 20
756.906342
 11
-170.51013150000006
 21
756.80291699999998
  0
LINE
  8
_0-0_0
  6
CONTINUOUS
 62
    7
 10
-170.51013150000006
 20
756.80291699999998
 11
-170.53216550000002
 21
756.70294200000001
  0
LINE
  8
_0-0_0
  6
CONTINUOUS
 62
    7
 10
-170.53216550000002
 20
756.70294200000001
 11
-170.55354350000005
 21
756.58523600000001
  0
LINE
  8
_0-0_0
  6
CONTINUOUS
 62
    7
 10
-170.55354350000005
 20
756.58523600000001
 11
-170.5621185
 21
756.52310199999999
  0
LINE
  8
_0-0_0
  6
CONTINUOUS
 62
    7
 10
-170.5621185
 20
756.52310199999999
 11
-170.56819150000001
 21
756.46249399999999
  0
LINE
  8
_0-0_0
  6
CONTINUOUS
 62
    7
 10
-170.56819150000001
 20
756.46249399999999
 11
-170.57119750000004
 21
756.41326900000001
  0
LINE
  8
_0-0_0
  6
CONTINUOUS
 62
    7
 10
-170.57119750000004
 20
756.41326900000001
 11
-170.57221950000007
 21
756.36505099999999
  0
ARC
  8
_0-0_0
  6
CONTINUOUS
 62
    7
 10
-56.072219500000074
 20
746.25
 40
0.5
 50
269.99999700000001
 51
0
  0
LINE
  8
_0-0_0
  6
CONTINUOUS
 62
    7
 10
-56.116546500000027
 20
750.57128899999998
 11
-56.116546500000027
 21
753.89999399999999
  0
LINE
  8
_0-0_0
  6
CONTINUOUS
 62
    7
 10
-56.116546500000027
 20
749.39999399999999
 11
-56.116546500000027
 21
750.57128899999998
  0
CIRCLE
  8
_0-0_0
  6
CONTINUOUS
 62
    7
 10
-132.57221950000007
 20
765.25
 40
2.5
  0
CIRCLE
  8
_0-0_0
  6
CONTINUOUS
 62
    7
 10
-76.572219500000074
 20
765.25
 40
2.5
  0
LINE
  8
_0-0_0
  6
CONTINUOUS
 62
    7
 10
-170.57221950000007
 20
756.05767800000001
 11
-180.28004450000003
 21
756.05767800000001
  0
LINE
  8
_0-0_0
  6
CONTINUOUS
 62
    7
 10
-180.28004450000003
 20
753.44998199999998
 11
-180.33453350000002
 21
753.51992799999994
  0
LINE
  8
_0-0_0
  6
CONTINUOUS
 62
    7
 10
-180.33453350000002
 20
753.51992799999994
 11
-180.38562050000007
 21
753.58874500000002
  0
LINE
  8
_0-0_0
  6
CONTINUOUS
 62
    7
 10
-180.38562050000007
 20
753.58874500000002
 11
-180.43325850000008
 21
753.65625
  0
LINE
  8
_0-0_0
  6
CONTINUOUS
 62
    7
 10
-180.43325850000008
 20
753.65625
 11
-180.47776850000002
 21
753.72280899999998
  0
LINE
  8
_0-0_0
  6
CONTINUOUS
 62
    7
 10
-180.47776850000002
 20
753.72280899999998
 11
-180.5324865
 21
753.81033300000001
  0
LINE
  8
_0-0_0
  6
CONTINUOUS
 62
    7
 10
-180.5324865
 20
753.81033300000001
 11
-180.58200050000005
 21
753.89645399999995
  0
LINE
  8
_0-0_0
  6
CONTINUOUS
 62
    7
 10
-180.58200050000005
 20
753.89645399999995
 11
-180.62646450000011
 21
753.98126200000002
  0
LINE
  8
_0-0_0
  6
CONTINUOUS
 62
    7
 10
-180.62646450000011
 20
753.98126200000002
 11
-180.67343150000011
 21
754.08160399999997
  0
LINE
  8
_0-0_0
  6
CONTINUOUS
 62
    7
 10
-180.67343150000011
 20
754.08160399999997
 11
-180.7136385
 21
754.18051100000002
  0
LINE
  8
_0-0_0
  6
CONTINUOUS
 62
    7
 10
-180.7136385
 20
754.18051100000002
 11
-180.74729950000005
 21
754.27825899999993
  0
LINE
  8
_0-0_0
  6
CONTINUOUS
 62
    7
 10
-180.74729950000005
 20
754.27825899999993
 11
-180.77459750000003
 21
754.375092
  0
LINE
  8
_0-0_0
  6
CONTINUOUS
 62
    7
 10
-180.77459750000003
 20
754.375092
 11
-180.79563950000011
 21
754.47113000000002
  0
LINE
  8
_0-0_0
  6
CONTINUOUS
 62
    7
 10
-180.79563950000011
 20
754.47113000000002
 11
-180.81156950000002
 21
754.57498199999998
  0
LINE
  8
_0-0_0
  6
CONTINUOUS
 62
    7
 10
-180.81156950000002
 20
754.57498199999998
 11
-180.8203125
 21
754.678406
  0
LINE
  8
_0-0_0
  6
CONTINUOUS
 62
    7
 10
-180.8203125
 20
754.678406
 11
-180.82196050000005
 21
754.78164700000002
  0
LINE
  8
_0-0_0
  6
CONTINUOUS
 62
    7
 10
-180.82196050000005
 20
754.78164700000002
 11
-180.81649750000008
 21
754.88494900000001
  0
LINE
  8
_0-0_0
  6
CONTINUOUS
 62
    7
 10
-180.81649750000008
 20
754.88494900000001
 11
-180.80389450000007
 21
754.98852499999998
  0
LINE
  8
_0-0_0
  6
CONTINUOUS
 62
    7
 10
-180.80389450000007
 20
754.98852499999998
 11
-180.78405750000002
 21
755.09268199999997
  0
LINE
  8
_0-0_0
  6
CONTINUOUS
 62
    7
 10
-180.78405750000002
 20
755.09268199999997
 11
-180.75692750000007
 21
755.197632
  0
LINE
  8
_0-0_0
  6
CONTINUOUS
 62
    7
 10
-180.75692750000007
 20
755.197632
 11
-180.72227450000003
 21
755.30367999999999
  0
LINE
  8
_0-0_0
  6
CONTINUOUS
 62
    7
 10
-180.72227450000003
 20
755.30367999999999
 11
-180.67993150000007
 21
755.41104100000007
  0
LINE
  8
_0-0_0
  6
CONTINUOUS
 62
    7
 10
-180.67993150000007
 20
755.41104100000007
 11
-180.62960850000002
 21
755.52005000000008
  0
LINE
  8
_0-0_0
  6
CONTINUOUS
 62
    7
 10
-180.62960850000002
 20
755.52005000000008
 11
-180.57536350000009
 21
755.623199
  0
LINE
  8
_0-0_0
  6
CONTINUOUS
 62
    7
 10
-180.57536350000009
 20
755.623199
 11
-180.51365650000002
 21
755.72824100000003
  0
LINE
  8
_0-0_0
  6
CONTINUOUS
 62
    7
 10
-180.51365650000002
 20
755.72824100000003
 11
-180.44413750000001
 21
755.83547999999996
  0
LINE
  8
_0-0_0
  6
CONTINUOUS
 62
    7
 10
-180.44413750000001
 20
755.83547999999996
 11
-180.36642449999999
 21
755.94519000000003
  0
LINE
  8
_0-0_0
  6
CONTINUOUS
 62
    7
 10
-180.36642449999999
 20
755.94519000000003
 11
-180.28004450000003
 21
756.05767800000001
  0
LINE
  8
_0-0_0
  6
CONTINUOUS
 62
    7
 10
-170.57221950000007
 20
753.44998199999998
 11
-180.28004450000003
 21
753.44998199999998
  0
LINE
  8
_0-0_0
  6
CONTINUOUS
 62
    7
 10
-170.57221950000007
 20
755.94229100000007
 11
-170.57221950000007
 21
756.05767800000001
  0
LINE
  8
_0-0_0
  6
CONTINUOUS
 62
    7
 10
-180.32221950000007
 20
753.44998199999998
 11
-180.28004450000003
 21
753.44998199999998
  0
LINE
  8
_0-0_0
  6
CONTINUOUS
 62
    7
 10
-170.57221950000007
 20
763.84228499999995
 11
-180.28004450000003
 21
763.84228499999995
  0
LINE
  8
_0-0_0
  6
CONTINUOUS
 62
    7
 10
-170.57221950000007
 20
763.957672
 11
-170.57221950000007
 21
763.84228499999995
  0
LINE
  8
_0-0_0
  6
CONTINUOUS
 62
    7
 10
-180.28004450000003
 20
763.84228499999995
 11
-180.33453350000002
 21
763.91223100000002
  0
LINE
  8
_0-0_0
  6
CONTINUOUS
 62
    7
 10
-180.33453350000002
 20
763.91223100000002
 11
-180.38562050000007
 21
763.98104899999998
  0
LINE
  8
_0-0_0
  6
CONTINUOUS
 62
    7
 10
-180.38562050000007
 20
763.98104899999998
 11
-180.43325850000008
 21
764.04855300000008
  0
LINE
  8
_0-0_0
  6
CONTINUOUS
 62
    7
 10
-180.43325850000008
 20
764.04855300000008
 11
-180.47776850000002
 21
764.11511199999995
  0
LINE
  8
_0-0_0
  6
CONTINUOUS
 62
    7
 10
-180.47776850000002
 20
764.11511199999995
 11
-180.5324865
 21
764.20263699999998
  0
LINE
  8
_0-0_0
  6
CONTINUOUS
 62
    7
 10
-180.5324865
 20
764.20263699999998
 11
-180.58200050000005
 21
764.28875700000003
  0
LINE
  8
_0-0_0
  6
CONTINUOUS
 62
    7
 10
-180.58200050000005
 20
764.28875700000003
 11
-180.62646450000011
 21
764.37359600000002
  0
LINE
  8
_0-0_0
  6
CONTINUOUS
 62
    7
 10
-180.62646450000011
 20
764.37359600000002
 11
-180.67343150000011
 21
764.47390700000005
  0
LINE
  8
_0-0_0
  6
CONTINUOUS
 62
    7
 10
-180.67343150000011
 20
764.47390700000005
 11
-180.7136385
 21
764.57281499999999
  0
LINE
  8
_0-0_0
  6
CONTINUOUS
 62
    7
 10
-180.7136385
 20
764.57281499999999
 11
-180.74729950000005
 21
764.67059300000005
  0
LINE
  8
_0-0_0
  6
CONTINUOUS
 62
    7
 10
-180.74729950000005
 20
764.67059300000005
 11
-180.77459750000003
 21
764.76739500000008
  0
LINE
  8
_0-0_0
  6
CONTINUOUS
 62
    7
 10
-180.77459750000003
 20
764.76739500000008
 11
-180.79563950000011
 21
764.86343399999998
  0
LINE
  8
_0-0_0
  6
CONTINUOUS
 62
    7
 10
-180.79563950000011
 20
764.86343399999998
 11
-180.81156950000002
 21
764.96728499999995
  0
LINE
  8
_0-0_0
  6
CONTINUOUS
 62
    7
 10
-180.81156950000002
 20
764.96728499999995
 11
-180.8203125
 21
765.07070900000008
  0
LINE
  8
_0-0_0
  6
CONTINUOUS
 62
    7
 10
-180.8203125
 20
765.07070900000008
 11
-180.82196050000005
 21
765.17394999999999
  0
LINE
  8
_0-0_0
  6
CONTINUOUS
 62
    7
 10
-180.82196050000005
 20
765.17394999999999
 11
-180.81649750000008
 21
765.27725199999998
  0
LINE
  8
_0-0_0
  6
CONTINUOUS
 62
    7
 10
-180.81649750000008
 20
765.27725199999998
 11
-180.80389450000007
 21
765.38082899999995
  0
LINE
  8
_0-0_0
  6
CONTINUOUS
 62
    7
 10
-180.80389450000007
 20
765.38082899999995
 11
-180.78405750000002
 21
765.48498500000005
  0
LINE
  8
_0-0_0
  6
CONTINUOUS
 62
    7
 10
-180.78405750000002
 20
765.48498500000005
 11
-180.75692750000007
 21
765.58993499999997
  0
LINE
  8
_0-0_0
  6
CONTINUOUS
 62
    7
 10
-180.75692750000007
 20
765.58993499999997
 11
-180.72227450000003
 21
765.69598399999995
  0
LINE
  8
_0-0_0
  6
CONTINUOUS
 62
    7
 10
-180.72227450000003
 20
765.69598399999995
 11
-180.67993150000007
 21
765.80334500000004
  0
LINE
  8
_0-0_0
  6
CONTINUOUS
 62
    7
 10
-180.67993150000007
 20
765.80334500000004
 11
-180.62960850000002
 21
765.91235400000005
  0
LINE
  8
_0-0_0
  6
CONTINUOUS
 62
    7
 10
-180.62960850000002
 20
765.91235400000005
 11
-180.58392350000008
 21
766
  0
LINE
  8
_0-0_0
  6
CONTINUOUS
 62
    7
 10
-185.57221950000007
 20
769.47543300000007
 11
-185.82221950000007
 21
769.5
  0
LINE
  8
_0-0_0
  6
CONTINUOUS
 62
    7
 10
-185.57221950000007
 20
769.27145399999995
 11
-185.82221950000007
 21
769.5
  0
LINE
  8
_0-0_0
  6
CONTINUOUS
 62
    7
 10
-185.57221950000007
 20
769.66595499999994
 11
-185.82221950000007
 21
769.71945200000005
  0
LINE
  8
_0-0_0
  6
CONTINUOUS
 62
    7
 10
-185.57221950000007
 20
769.47543300000007
 11
-185.82221950000007
 21
769.71945200000005
  0
LINE
  8
_0-0_0
  6
CONTINUOUS
 62
    7
 10
-185.57221950000007
 20
769.84097300000008
 11
-185.82221950000007
 21
769.922821
  0
LINE
  8
_0-0_0
  6
CONTINUOUS
 62
    7
 10
-185.57221950000007
 20
769.66595499999994
 11
-185.82221950000007
 21
769.922821
  0
LINE
  8
_0-0_0
  6
CONTINUOUS
 62
    7
 10
-185.57221950000007
 20
769.99856599999998
 11
-185.82221950000007
 21
770.10784899999999
  0
LINE
  8
_0-0_0
  6
CONTINUOUS
 62
    7
 10
-185.57221950000007
 20
769.84097300000008
 11
-185.82221950000007
 21
770.10784899999999
  0
LINE
  8
_0-0_0
  6
CONTINUOUS
 62
    7
 10
-185.57221950000007
 20
770.13699300000007
 11
-185.82221950000007
 21
770.27252199999998
  0
LINE
  8
_0-0_0
  6
CONTINUOUS
 62
    7
 10
-185.57221950000007
 20
769.99856599999998
 11
-185.82221950000007
 21
770.27252199999998
  0
LINE
  8
_0-0_0
  6
CONTINUOUS
 62
    7
 10
-185.57221950000007
 20
770.25476099999992
 11
-185.82221950000007
 21
770.41503899999998
  0
LINE
  8
_0-0_0
  6
CONTINUOUS
 62
    7
 10
-185.57221950000007
 20
770.13699300000007
 11
-185.82221950000007
 21
770.41503899999998
  0
LINE
  8
_0-0_0
  6
CONTINUOUS
 62
    7
 10
-185.57221950000007
 20
770.35052500000006
 11
-185.82221950000007
 21
770.53384400000004
  0
LINE
  8
_0-0_0
  6
CONTINUOUS
 62
    7
 10
-185.57221950000007
 20
770.25476099999992
 11
-185.82221950000007
 21
770.53384400000004
  0
LINE
  8
_0-0_0
  6
CONTINUOUS
 62
    7
 10
-185.57221950000007
 20
770.42330900000002
 11
-185.82221950000007
 21
770.62762500000008
  0
LINE
  8
_0-0_0
  6
CONTINUOUS
 62
    7
 10
-185.57221950000007
 20
770.35052500000006
 11
-185.82221950000007
 21
770.62762500000008
  0
LINE
  8
_0-0_0
  6
CONTINUOUS
 62
    7
 10
-185.57221950000007
 20
770.47228999999993
 11
-185.82221950000007
 21
770.69534299999998
  0
LINE
  8
_0-0_0
  6
CONTINUOUS
 62
    7
 10
-185.57221950000007
 20
770.42330900000002
 11
-185.82221950000007
 21
770.69534299999998
  0
LINE
  8
_0-0_0
  6
CONTINUOUS
 62
    7
 10
-185.57221950000007
 20
770.49688700000002
 11
-185.82221950000007
 21
770.73629800000003
  0
LINE
  8
_0-0_0
  6
CONTINUOUS
 62
    7
 10
-185.57221950000007
 20
770.47228999999993
 11
-185.82221950000007
 21
770.73629800000003
  0
LINE
  8
_0-0_0
  6
CONTINUOUS
 62
    7
 10
-185.57221950000007
 20
770.49688700000002
 11
-185.57525650000002
 21
770.5
  0
LINE
  8
_0-0_0
  6
CONTINUOUS
 62
    7
 10
-185.57221950000007
 20
766.00305200000003
 11
-185.82221950000007
 21
765.75
  0
LINE
  8
_0-0_0
  6
CONTINUOUS
 62
    7
 10
-185.57221950000007
 20
766.02767900000003
 11
-185.82221950000007
 21
765.76367200000004
  0
LINE
  8
_0-0_0
  6
CONTINUOUS
 62
    7
 10
-185.57221950000007
 20
766.00305200000003
 11
-185.82221950000007
 21
765.76367200000004
  0
LINE
  8
_0-0_0
  6
CONTINUOUS
 62
    7
 10
-185.57221950000007
 20
766.07665999999995
 11
-185.82221950000007
 21
765.80462599999998
  0
LINE
  8
_0-0_0
  6
CONTINUOUS
 62
    7
 10
-185.57221950000007
 20
766.02767900000003
 11
-185.82221950000007
 21
765.80462599999998
  0
LINE
  8
_0-0_0
  6
CONTINUOUS
 62
    7
 10
-185.57221950000007
 20
766.14941399999998
 11
-185.82221950000007
 21
765.872345
  0
LINE
  8
_0-0_0
  6
CONTINUOUS
 62
    7
 10
-185.57221950000007
 20
766.07665999999995
 11
-185.82221950000007
 21
765.872345
  0
LINE
  8
_0-0_0
  6
CONTINUOUS
 62
    7
 10
-185.57221950000007
 20
766.24520899999993
 11
-185.82221950000007
 21
765.96612499999992
  0
LINE
  8
_0-0_0
  6
CONTINUOUS
 62
    7
 10
-185.57221950000007
 20
766.14941399999998
 11
-185.82221950000007
 21
765.96612499999992
  0
LINE
  8
_0-0_0
  6
CONTINUOUS
 62
    7
 10
-185.57221950000007
 20
766.24520899999993
 11
-185.70217950000006
 21
766.16137700000002
  0
LINE
  8
_0-0_0
  6
CONTINUOUS
 62
    7
 10
-185.57221950000007
 20
766.362976
 11
-185.82221950000007
 21
766.08492999999999
  0
LINE
  8
_0-0_0
  6
CONTINUOUS
 62
    7
 10
-185.70217950000006
 20
766.16137700000002
 11
-185.82221950000007
 21
766.08492999999999
  0
LINE
  8
_0-0_0
  6
CONTINUOUS
 62
    7
 10
-185.57221950000007
 20
766.50140399999998
 11
-185.82221950000007
 21
766.22744799999998
  0
LINE
  8
_0-0_0
  6
CONTINUOUS
 62
    7
 10
-185.57221950000007
 20
766.362976
 11
-185.82221950000007
 21
766.22744799999998
  0
LINE
  8
_0-0_0
  6
CONTINUOUS
 62
    7
 10
-185.57221950000007
 20
766.658997
 11
-185.82221950000007
 21
766.39211999999998
  0
LINE
  8
_0-0_0
  6
CONTINUOUS
 62
    7
 10
-185.57221950000007
 20
766.50140399999998
 11
-185.82221950000007
 21
766.39211999999998
  0
LINE
  8
_0-0_0
  6
CONTINUOUS
 62
    7
 10
-185.57221950000007
 20
766.83401500000002
 11
-185.82221950000007
 21
766.57714800000008
  0
LINE
  8
_0-0_0
  6
CONTINUOUS
 62
    7
 10
-185.57221950000007
 20
766.658997
 11
-185.82221950000007
 21
766.57714800000008
  0
LINE
  8
_0-0_0
  6
CONTINUOUS
 62
    7
 10
-185.57221950000007
 20
767.02453600000001
 11
-185.82221950000007
 21
766.78051800000003
  0
LINE
  8
_0-0_0
  6
CONTINUOUS
 62
    7
 10
-185.57221950000007
 20
766.83401500000002
 11
-185.82221950000007
 21
766.78051800000003
  0
LINE
  8
_0-0_0
  6
CONTINUOUS
 62
    7
 10
-185.57221950000007
 20
767.22851600000001
 11
-185.82221950000007
 21
767
  0
LINE
  8
_0-0_0
  6
CONTINUOUS
 62
    7
 10
-185.57221950000007
 20
767.02453600000001
 11
-185.82221950000007
 21
767
  0
LINE
  8
_0-0_0
  6
CONTINUOUS
 62
    7
 10
-185.57221950000007
 20
767.44366500000001
 11
-185.82221950000007
 21
767.23315400000001
  0
LINE
  8
_0-0_0
  6
CONTINUOUS
 62
    7
 10
-185.57221950000007
 20
767.22851600000001
 11
-185.82221950000007
 21
767.23315400000001
  0
LINE
  8
_0-0_0
  6
CONTINUOUS
 62
    7
 10
-185.57221950000007
 20
767.66763300000002
 11
-185.82221950000007
 21
767.47744799999998
  0
LINE
  8
_0-0_0
  6
CONTINUOUS
 62
    7
 10
-185.57221950000007
 20
767.44366500000001
 11
-185.82221950000007
 21
767.47744799999998
  0
LINE
  8
_0-0_0
  6
CONTINUOUS
 62
    7
 10
-185.57221950000007
 20
767.89801
 11
-185.82221950000007
 21
767.73019399999998
  0
LINE
  8
_0-0_0
  6
CONTINUOUS
 62
    7
 10
-185.57221950000007
 20
767.66763300000002
 11
-185.82221950000007
 21
767.73019399999998
  0
LINE
  8
_0-0_0
  6
CONTINUOUS
 62
    7
 10
-185.57221950000007
 20
768.13223300000004
 11
-185.82221950000007
 21
767.98864700000001
  0
LINE
  8
_0-0_0
  6
CONTINUOUS
 62
    7
 10
-185.57221950000007
 20
767.89801
 11
-185.82221950000007
 21
767.98864700000001
  0
LINE
  8
_0-0_0
  6
CONTINUOUS
 62
    7
 10
-185.57221950000007
 20
768.36773700000003
 11
-185.82221950000007
 21
768.25
  0
LINE
  8
_0-0_0
  6
CONTINUOUS
 62
    7
 10
-185.57221950000007
 20
768.13223300000004
 11
-185.82221950000007
 21
768.25
  0
LINE
  8
_0-0_0
  6
CONTINUOUS
 62
    7
 10
-185.57221950000007
 20
768.60195900000008
 11
-185.82221950000007
 21
768.51129200000003
  0
LINE
  8
_0-0_0
  6
CONTINUOUS
 62
    7
 10
-185.57221950000007
 20
768.36773700000003
 11
-185.82221950000007
 21
768.51129200000003
  0
LINE
  8
_0-0_0
  6
CONTINUOUS
 62
    7
 10
-185.57221950000007
 20
768.83233599999994
 11
-185.82221950000007
 21
768.76977499999998
  0
LINE
  8
_0-0_0
  6
CONTINUOUS
 62
    7
 10
-185.57221950000007
 20
768.60195900000008
 11
-185.82221950000007
 21
768.76977499999998
  0
LINE
  8
_0-0_0
  6
CONTINUOUS
 62
    7
 10
-185.57221950000007
 20
769.05630500000007
 11
-185.82221950000007
 21
769.02252199999998
  0
LINE
  8
_0-0_0
  6
CONTINUOUS
 62
    7
 10
-185.57221950000007
 20
768.83233599999994
 11
-185.82221950000007
 21
769.02252199999998
  0
LINE
  8
_0-0_0
  6
CONTINUOUS
 62
    7
 10
-185.57221950000007
 20
769.27145399999995
 11
-185.82221950000007
 21
769.26681499999995
  0
LINE
  8
_0-0_0
  6
CONTINUOUS
 62
    7
 10
-185.57221950000007
 20
769.05630500000007
 11
-185.82221950000007
 21
769.26681499999995
  0
LINE
  8
_0-0_0
  6
CONTINUOUS
 62
    7
 10
-170.57221950000007
 20
761.512024
 11
-170.57221950000007
 21
762.55767800000001
  0
LINE
  8
_0-0_0
  6
CONTINUOUS
 62
    7
 10
-170.57221950000007
 20
763.84228499999995
 11
-170.57221950000007
 21
762.55767800000001
  0
LINE
  8
_0-0_0
  6
CONTINUOUS
 62
    7
 10
-170.57221950000007
 20
761.512024
 11
-170.57221950000007
 21
758.38793899999996
  0
LINE
  8
_0-0_0
  6
CONTINUOUS
 62
    7
 10
-170.57221950000007
 20
757.34228499999995
 11
-170.57221950000007
 21
756.05767800000001
  0
LINE
  8
_0-0_0
  6
CONTINUOUS
 62
    7
 10
-170.57221950000007
 20
757.34228499999995
 11
-170.57221950000007
 21
758.38793899999996
  0
LINE
  8
_0-0_0
  6
CONTINUOUS
 62
    7
 10
-55.972213500000066
 20
750.69113199999993
 11
-55.972213500000066
 21
753.64999399999999
  0
LINE
  8
_0-0_0
  6
CONTINUOUS
 62
    7
 10
-55.972213500000066
 20
749.64999399999999
 11
-55.972213500000066
 21
750.69113199999993
  0
LINE
  8
_0-0_0
  6
CONTINUOUS
 62
    7
 10
-170.57221950000007
 20
757.34228499999995
 11
-180.28004450000003
 21
757.34228499999995
  0
ARC
  8
_0-0_0
  6
CONTINUOUS
 62
    7
 10
-175.39831550000008
 20
756.69909699999994
 40
4.9238749999999998
 50
172.49424200000001
 51
181.535968
  0
ARC
  8
_0-0_0
  6
CONTINUOUS
 62
    7
 10
-175.36030550000009
 20
756.70404099999996
 40
4.9620009999999999
 50
181.58130700000004
 51
187.48478900000003
  0
LINE
  8
_0-0_0
  6
CONTINUOUS
 62
    7
 10
-181.57221950000007
 20
757.21844499999997
 11
-181.57221950000007
 21
754.69998199999998
  0
LINE
  8
_0-0_0
  6
CONTINUOUS
 62
    7
 10
-181.57221950000007
 20
765.19998199999998
 11
-181.57221950000007
 21
757.21844499999997
  0
LINE
  8
_0-0_0
  6
CONTINUOUS
 62
    7
 10
-180.28004450000003
 20
762.55767800000001
 11
-180.37438950000001
 21
762.31106599999998
  0
LINE
  8
_0-0_0
  6
CONTINUOUS
 62
    7
 10
-180.37438950000001
 20
762.31106599999998
 11
-180.45832850000011
 21
762.07110599999999
  0
LINE
  8
_0-0_0
  6
CONTINUOUS
 62
    7
 10
-180.45832850000011
 20
762.07110599999999
 11
-180.5324865
 21
761.83697499999994
  0
LINE
  8
_0-0_0
  6
CONTINUOUS
 62
    7
 10
-180.5324865
 20
761.83697499999994
 11
-180.59736650000002
 21
761.60794099999998
  0
LINE
  8
_0-0_0
  6
CONTINUOUS
 62
    7
 10
-180.59736650000002
 20
761.60794099999998
 11
-180.65341150000006
 21
761.38327000000004
  0
LINE
  8
_0-0_0
  6
CONTINUOUS
 62
    7
 10
-180.65341150000006
 20
761.38327000000004
 11
-180.70097350000003
 21
761.16229199999998
  0
LINE
  8
_0-0_0
  6
CONTINUOUS
 62
    7
 10
-180.70097350000003
 20
761.16229199999998
 11
-180.7403875
 21
760.94436599999995
  0
LINE
  8
_0-0_0
  6
CONTINUOUS
 62
    7
 10
-180.7403875
 20
760.94436599999995
 11
-180.7718655000001
 21
760.72891200000004
  0
LINE
  8
_0-0_0
  6
CONTINUOUS
 62
    7
 10
-180.7718655000001
 20
760.72891200000004
 11
-180.79563950000011
 21
760.51538099999993
  0
LINE
  8
_0-0_0
  6
CONTINUOUS
 62
    7
 10
-180.79563950000011
 20
760.51538099999993
 11
-180.81156950000002
 21
760.30767800000001
  0
LINE
  8
_0-0_0
  6
CONTINUOUS
 62
    7
 10
-180.81156950000002
 20
760.30767800000001
 11
-180.8203125
 21
760.10082999999997
  0
LINE
  8
_0-0_0
  6
CONTINUOUS
 62
    7
 10
-180.8203125
 20
760.10082999999997
 11
-180.82196050000005
 21
759.89434800000004
  0
LINE
  8
_0-0_0
  6
CONTINUOUS
 62
    7
 10
-180.82196050000005
 20
759.89434800000004
 11
-180.81649750000008
 21
759.68777499999999
  0
LINE
  8
_0-0_0
  6
CONTINUOUS
 62
    7
 10
-180.81649750000008
 20
759.68777499999999
 11
-180.80389450000007
 21
759.480591
  0
LINE
  8
_0-0_0
  6
CONTINUOUS
 62
    7
 10
-180.80389450000007
 20
759.480591
 11
-180.78405750000002
 21
759.27227799999991
  0
LINE
  8
_0-0_0
  6
CONTINUOUS
 62
    7
 10
-180.78405750000002
 20
759.27227799999991
 11
-180.75692750000007
 21
759.06237800000008
  0
LINE
  8
_0-0_0
  6
CONTINUOUS
 62
    7
 10
-180.75692750000007
 20
759.06237800000008
 11
-180.72227450000003
 21
758.85031099999992
  0
LINE
  8
_0-0_0
  6
CONTINUOUS
 62
    7
 10
-180.72227450000003
 20
758.85031099999992
 11
-180.67993150000007
 21
758.63555900000006
  0
LINE
  8
_0-0_0
  6
CONTINUOUS
 62
    7
 10
-180.67993150000007
 20
758.63555900000006
 11
-180.62960850000002
 21
758.41754200000003
  0
LINE
  8
_0-0_0
  6
CONTINUOUS
 62
    7
 10
-180.62960850000002
 20
758.41754200000003
 11
-180.57536350000009
 21
758.21124299999997
  0
LINE
  8
_0-0_0
  6
CONTINUOUS
 62
    7
 10
-180.57536350000009
 20
758.21124299999997
 11
-180.51365650000002
 21
758.00116000000003
  0
LINE
  8
_0-0_0
  6
CONTINUOUS
 62
    7
 10
-180.51365650000002
 20
758.00116000000003
 11
-180.44413750000001
 21
757.78668199999993
  0
LINE
  8
_0-0_0
  6
CONTINUOUS
 62
    7
 10
-180.44413750000001
 20
757.78668199999993
 11
-180.36642449999999
 21
757.56726099999992
  0
LINE
  8
_0-0_0
  6
CONTINUOUS
 62
    7
 10
-180.36642449999999
 20
757.56726099999992
 11
-180.28004450000003
 21
757.34228499999995
  0
ARC
  8
_0-0_0
  6
CONTINUOUS
 62
    7
 10
-175.4084775
 20
763.19998199999998
 40
4.9136889999999998
 50
172.48898299999999
 51
187.51101699999998
  0
LINE
  8
_0-0_0
  6
CONTINUOUS
 62
    7
 10
-170.57221950000007
 20
762.55767800000001
 11
-180.28004450000003
 21
762.55767800000001
  0
LINE
  8
_0-0_0
  6
CONTINUOUS
 62
    7
 10
-195.32223550000003
 20
769.47543300000007
 11
-195.07223550000003
 21
769.5
  0
LINE
  8
_0-0_0
  6
CONTINUOUS
 62
    7
 10
-195.07223550000003
 20
769.5
 11
-185.82221950000007
 21
769.5
  0
LINE
  8
_0-0_0
  6
CONTINUOUS
 62
    7
 10
-195.32223550000003
 20
769.27145399999995
 11
-195.07223550000003
 21
769.5
  0
LINE
  8
_0-0_0
  6
CONTINUOUS
 62
    7
 10
-195.32223550000003
 20
769.27145399999995
 11
-185.57221950000007
 21
769.27145399999995
  0
LINE
  8
_0-0_0
  6
CONTINUOUS
 62
    7
 10
-195.32223550000003
 20
769.66595499999994
 11
-195.07223550000003
 21
769.71945200000005
  0
LINE
  8
_0-0_0
  6
CONTINUOUS
 62
    7
 10
-195.07223550000003
 20
769.71945200000005
 11
-185.82221950000007
 21
769.71945200000005
  0
LINE
  8
_0-0_0
  6
CONTINUOUS
 62
    7
 10
-195.32223550000003
 20
769.47543300000007
 11
-195.07223550000003
 21
769.71945200000005
  0
LINE
  8
_0-0_0
  6
CONTINUOUS
 62
    7
 10
-195.32223550000003
 20
769.84097300000008
 11
-195.07223550000003
 21
769.922821
  0
LINE
  8
_0-0_0
  6
CONTINUOUS
 62
    7
 10
-195.07223550000003
 20
769.922821
 11
-185.82221950000007
 21
769.922821
  0
LINE
  8
_0-0_0
  6
CONTINUOUS
 62
    7
 10
-195.32223550000003
 20
769.66595499999994
 11
-195.07223550000003
 21
769.922821
  0
LINE
  8
_0-0_0
  6
CONTINUOUS
 62
    7
 10
-195.32223550000003
 20
769.99856599999998
 11
-195.07223550000003
 21
770.10784899999999
  0
LINE
  8
_0-0_0
  6
CONTINUOUS
 62
    7
 10
-195.07223550000003
 20
770.10784899999999
 11
-185.82221950000007
 21
770.10784899999999
  0
LINE
  8
_0-0_0
  6
CONTINUOUS
 62
    7
 10
-195.32223550000003
 20
769.84097300000008
 11
-195.07223550000003
 21
770.10784899999999
  0
LINE
  8
_0-0_0
  6
CONTINUOUS
 62
    7
 10
-195.32223550000003
 20
770.13699300000007
 11
-195.07223550000003
 21
770.27252199999998
  0
LINE
  8
_0-0_0
  6
CONTINUOUS
 62
    7
 10
-195.07223550000003
 20
770.27252199999998
 11
-185.82221950000007
 21
770.27252199999998
  0
LINE
  8
_0-0_0
  6
CONTINUOUS
 62
    7
 10
-195.32223550000003
 20
769.99856599999998
 11
-195.07223550000003
 21
770.27252199999998
  0
LINE
  8
_0-0_0
  6
CONTINUOUS
 62
    7
 10
-195.32223550000003
 20
770.25476099999992
 11
-195.07223550000003
 21
770.41503899999998
  0
LINE
  8
_0-0_0
  6
CONTINUOUS
 62
    7
 10
-195.07223550000003
 20
770.41503899999998
 11
-185.82221950000007
 21
770.41503899999998
  0
LINE
  8
_0-0_0
  6
CONTINUOUS
 62
    7
 10
-195.32223550000003
 20
770.13699300000007
 11
-195.07223550000003
 21
770.41503899999998
  0
LINE
  8
_0-0_0
  6
CONTINUOUS
 62
    7
 10
-195.32223550000003
 20
770.35052500000006
 11
-195.07223550000003
 21
770.53384400000004
  0
LINE
  8
_0-0_0
  6
CONTINUOUS
 62
    7
 10
-195.07223550000003
 20
770.53384400000004
 11
-185.82221950000007
 21
770.53384400000004
  0
LINE
  8
_0-0_0
  6
CONTINUOUS
 62
    7
 10
-195.32223550000003
 20
770.25476099999992
 11
-195.07223550000003
 21
770.53384400000004
  0
LINE
  8
_0-0_0
  6
CONTINUOUS
 62
    7
 10
-195.32223550000003
 20
770.42330900000002
 11
-195.07223550000003
 21
770.62762500000008
  0
LINE
  8
_0-0_0
  6
CONTINUOUS
 62
    7
 10
-195.07223550000003
 20
770.62762500000008
 11
-185.82221950000007
 21
770.62762500000008
  0
LINE
  8
_0-0_0
  6
CONTINUOUS
 62
    7
 10
-195.32223550000003
 20
770.35052500000006
 11
-195.07223550000003
 21
770.62762500000008
  0
LINE
  8
_0-0_0
  6
CONTINUOUS
 62
    7
 10
-195.32223550000003
 20
770.47228999999993
 11
-195.07223550000003
 21
770.69534299999998
  0
LINE
  8
_0-0_0
  6
CONTINUOUS
 62
    7
 10
-195.07223550000003
 20
770.69534299999998
 11
-185.82221950000007
 21
770.69534299999998
  0
LINE
  8
_0-0_0
  6
CONTINUOUS
 62
    7
 10
-195.32223550000003
 20
770.42330900000002
 11
-195.07223550000003
 21
770.69534299999998
  0
LINE
  8
_0-0_0
  6
CONTINUOUS
 62
    7
 10
-195.32223550000003
 20
770.49688700000002
 11
-195.07223550000003
 21
770.73629800000003
  0
LINE
  8
_0-0_0
  6
CONTINUOUS
 62
    7
 10
-195.07223550000003
 20
770.73629800000003
 11
-185.82221950000007
 21
770.73629800000003
  0
LINE
  8
_0-0_0
  6
CONTINUOUS
 62
    7
 10
-195.32223550000003
 20
770.47228999999993
 11
-195.07223550000003
 21
770.73629800000003
  0
LINE
  8
_0-0_0
  6
CONTINUOUS
 62
    7
 10
-195.07223550000003
 20
770.75
 11
-185.82221950000007
 21
770.75
  0
LINE
  8
_0-0_0
  6
CONTINUOUS
 62
    7
 10
-195.32223550000003
 20
770.49688700000002
 11
-195.07223550000003
 21
770.75
  0
LINE
  8
_0-0_0
  6
CONTINUOUS
 62
    7
 10
-195.32223550000003
 20
766.00305200000003
 11
-195.07223550000003
 21
765.75
  0
LINE
  8
_0-0_0
  6
CONTINUOUS
 62
    7
 10
-195.07223550000003
 20
765.75
 11
-185.82221950000007
 21
765.75
  0
LINE
  8
_0-0_0
  6
CONTINUOUS
 62
    7
 10
-195.32223550000003
 20
766.02767900000003
 11
-195.07223550000003
 21
765.76367200000004
  0
LINE
  8
_0-0_0
  6
CONTINUOUS
 62
    7
 10
-195.07223550000003
 20
765.76367200000004
 11
-185.82221950000007
 21
765.76367200000004
  0
LINE
  8
_0-0_0
  6
CONTINUOUS
 62
    7
 10
-195.32223550000003
 20
766.00305200000003
 11
-195.07223550000003
 21
765.76367200000004
  0
LINE
  8
_0-0_0
  6
CONTINUOUS
 62
    7
 10
-195.32223550000003
 20
766.07665999999995
 11
-195.07223550000003
 21
765.80462599999998
  0
LINE
  8
_0-0_0
  6
CONTINUOUS
 62
    7
 10
-195.07223550000003
 20
765.80462599999998
 11
-185.82221950000007
 21
765.80462599999998
  0
LINE
  8
_0-0_0
  6
CONTINUOUS
 62
    7
 10
-195.32223550000003
 20
766.02767900000003
 11
-195.07223550000003
 21
765.80462599999998
  0
LINE
  8
_0-0_0
  6
CONTINUOUS
 62
    7
 10
-195.32223550000003
 20
766.14941399999998
 11
-195.07223550000003
 21
765.872345
  0
LINE
  8
_0-0_0
  6
CONTINUOUS
 62
    7
 10
-195.07223550000003
 20
765.872345
 11
-185.82221950000007
 21
765.872345
  0
LINE
  8
_0-0_0
  6
CONTINUOUS
 62
    7
 10
-195.32223550000003
 20
766.07665999999995
 11
-195.07223550000003
 21
765.872345
  0
LINE
  8
_0-0_0
  6
CONTINUOUS
 62
    7
 10
-195.32223550000003
 20
766.24520899999993
 11
-195.07223550000003
 21
765.96612499999992
  0
LINE
  8
_0-0_0
  6
CONTINUOUS
 62
    7
 10
-195.07223550000003
 20
765.96612499999992
 11
-185.82221950000007
 21
765.96612499999992
  0
LINE
  8
_0-0_0
  6
CONTINUOUS
 62
    7
 10
-195.32223550000003
 20
766.14941399999998
 11
-195.07223550000003
 21
765.96612499999992
  0
LINE
  8
_0-0_0
  6
CONTINUOUS
 62
    7
 10
-195.07223550000003
 20
766.08492999999999
 11
-185.82221950000007
 21
766.08492999999999
  0
LINE
  8
_0-0_0
  6
CONTINUOUS
 62
    7
 10
-195.19226049999997
 20
766.16137700000002
 11
-195.07223550000003
 21
766.08492999999999
  0
LINE
  8
_0-0_0
  6
CONTINUOUS
 62
    7
 10
-195.32223550000003
 20
766.24520899999993
 11
-195.19226049999997
 21
766.16137700000002
  0
LINE
  8
_0-0_0
  6
CONTINUOUS
 62
    7
 10
-195.32223550000003
 20
766.362976
 11
-195.07223550000003
 21
766.08492999999999
  0
LINE
  8
_0-0_0
  6
CONTINUOUS
 62
    7
 10
-195.32223550000003
 20
766.50140399999998
 11
-195.07223550000003
 21
766.22744799999998
  0
LINE
  8
_0-0_0
  6
CONTINUOUS
 62
    7
 10
-195.07223550000003
 20
766.22744799999998
 11
-185.82221950000007
 21
766.22744799999998
  0
LINE
  8
_0-0_0
  6
CONTINUOUS
 62
    7
 10
-195.32223550000003
 20
766.362976
 11
-195.07223550000003
 21
766.22744799999998
  0
LINE
  8
_0-0_0
  6
CONTINUOUS
 62
    7
 10
-195.32223550000003
 20
766.658997
 11
-195.07223550000003
 21
766.39211999999998
  0
LINE
  8
_0-0_0
  6
CONTINUOUS
 62
    7
 10
-195.07223550000003
 20
766.39211999999998
 11
-185.82221950000007
 21
766.39211999999998
  0
LINE
  8
_0-0_0
  6
CONTINUOUS
 62
    7
 10
-195.32223550000003
 20
766.50140399999998
 11
-195.07223550000003
 21
766.39211999999998
  0
LINE
  8
_0-0_0
  6
CONTINUOUS
 62
    7
 10
-195.32223550000003
 20
766.83401500000002
 11
-195.07223550000003
 21
766.57714800000008
  0
LINE
  8
_0-0_0
  6
CONTINUOUS
 62
    7
 10
-195.07223550000003
 20
766.57714800000008
 11
-185.82221950000007
 21
766.57714800000008
  0
LINE
  8
_0-0_0
  6
CONTINUOUS
 62
    7
 10
-195.32223550000003
 20
766.658997
 11
-195.07223550000003
 21
766.57714800000008
  0
LINE
  8
_0-0_0
  6
CONTINUOUS
 62
    7
 10
-195.32223550000003
 20
767.02453600000001
 11
-195.07223550000003
 21
766.78051800000003
  0
LINE
  8
_0-0_0
  6
CONTINUOUS
 62
    7
 10
-195.07223550000003
 20
766.78051800000003
 11
-185.82221950000007
 21
766.78051800000003
  0
LINE
  8
_0-0_0
  6
CONTINUOUS
 62
    7
 10
-195.32223550000003
 20
766.83401500000002
 11
-195.07223550000003
 21
766.78051800000003
  0
LINE
  8
_0-0_0
  6
CONTINUOUS
 62
    7
 10
-195.32223550000003
 20
767.22851600000001
 11
-195.07223550000003
 21
767
  0
LINE
  8
_0-0_0
  6
CONTINUOUS
 62
    7
 10
-195.07223550000003
 20
767
 11
-185.82221950000007
 21
767
  0
LINE
  8
_0-0_0
  6
CONTINUOUS
 62
    7
 10
-195.32223550000003
 20
767.22851600000001
 11
-185.57221950000007
 21
767.22851600000001
  0
LINE
  8
_0-0_0
  6
CONTINUOUS
 62
    7
 10
-195.32223550000003
 20
767.02453600000001
 11
-195.07223550000003
 21
767
  0
LINE
  8
_0-0_0
  6
CONTINUOUS
 62
    7
 10
-195.32223550000003
 20
767.44366500000001
 11
-195.07223550000003
 21
767.23315400000001
  0
LINE
  8
_0-0_0
  6
CONTINUOUS
 62
    7
 10
-195.07223550000003
 20
767.23315400000001
 11
-185.82221950000007
 21
767.23315400000001
  0
LINE
  8
_0-0_0
  6
CONTINUOUS
 62
    7
 10
-195.32223550000003
 20
767.44366500000001
 11
-185.57221950000007
 21
767.44366500000001
  0
LINE
  8
_0-0_0
  6
CONTINUOUS
 62
    7
 10
-195.32223550000003
 20
767.22851600000001
 11
-195.07223550000003
 21
767.23315400000001
  0
LINE
  8
_0-0_0
  6
CONTINUOUS
 62
    7
 10
-195.32223550000003
 20
767.66763300000002
 11
-195.07223550000003
 21
767.47744799999998
  0
LINE
  8
_0-0_0
  6
CONTINUOUS
 62
    7
 10
-195.07223550000003
 20
767.47744799999998
 11
-185.82221950000007
 21
767.47744799999998
  0
LINE
  8
_0-0_0
  6
CONTINUOUS
 62
    7
 10
-195.32223550000003
 20
767.66763300000002
 11
-185.57221950000007
 21
767.66763300000002
  0
LINE
  8
_0-0_0
  6
CONTINUOUS
 62
    7
 10
-195.32223550000003
 20
767.44366500000001
 11
-195.07223550000003
 21
767.47744799999998
  0
LINE
  8
_0-0_0
  6
CONTINUOUS
 62
    7
 10
-195.32223550000003
 20
767.89801
 11
-195.07223550000003
 21
767.73019399999998
  0
LINE
  8
_0-0_0
  6
CONTINUOUS
 62
    7
 10
-195.07223550000003
 20
767.73019399999998
 11
-185.82221950000007
 21
767.73019399999998
  0
LINE
  8
_0-0_0
  6
CONTINUOUS
 62
    7
 10
-195.32223550000003
 20
767.89801
 11
-185.57221950000007
 21
767.89801
  0
LINE
  8
_0-0_0
  6
CONTINUOUS
 62
    7
 10
-195.32223550000003
 20
767.66763300000002
 11
-195.07223550000003
 21
767.73019399999998
  0
LINE
  8
_0-0_0
  6
CONTINUOUS
 62
    7
 10
-195.32223550000003
 20
768.13223300000004
 11
-195.07223550000003
 21
767.98864700000001
  0
LINE
  8
_0-0_0
  6
CONTINUOUS
 62
    7
 10
-195.07223550000003
 20
767.98864700000001
 11
-185.82221950000007
 21
767.98864700000001
  0
LINE
  8
_0-0_0
  6
CONTINUOUS
 62
    7
 10
-195.32223550000003
 20
768.13223300000004
 11
-185.57221950000007
 21
768.13223300000004
  0
LINE
  8
_0-0_0
  6
CONTINUOUS
 62
    7
 10
-195.32223550000003
 20
767.89801
 11
-195.07223550000003
 21
767.98864700000001
  0
LINE
  8
_0-0_0
  6
CONTINUOUS
 62
    7
 10
-195.32223550000003
 20
768.36773700000003
 11
-195.07223550000003
 21
768.25
  0
LINE
  8
_0-0_0
  6
CONTINUOUS
 62
    7
 10
-195.07223550000003
 20
768.25
 11
-185.82221950000007
 21
768.25
  0
LINE
  8
_0-0_0
  6
CONTINUOUS
 62
    7
 10
-195.32223550000003
 20
768.36773700000003
 11
-185.57221950000007
 21
768.36773700000003
  0
LINE
  8
_0-0_0
  6
CONTINUOUS
 62
    7
 10
-195.32223550000003
 20
768.13223300000004
 11
-195.07223550000003
 21
768.25
  0
LINE
  8
_0-0_0
  6
CONTINUOUS
 62
    7
 10
-195.32223550000003
 20
768.60195900000008
 11
-195.07223550000003
 21
768.51129200000003
  0
LINE
  8
_0-0_0
  6
CONTINUOUS
 62
    7
 10
-195.07223550000003
 20
768.51129200000003
 11
-185.82221950000007
 21
768.51129200000003
  0
LINE
  8
_0-0_0
  6
CONTINUOUS
 62
    7
 10
-195.32223550000003
 20
768.60195900000008
 11
-185.57221950000007
 21
768.60195900000008
  0
LINE
  8
_0-0_0
  6
CONTINUOUS
 62
    7
 10
-195.32223550000003
 20
768.36773700000003
 11
-195.07223550000003
 21
768.51129200000003
  0
LINE
  8
_0-0_0
  6
CONTINUOUS
 62
    7
 10
-195.32223550000003
 20
768.83233599999994
 11
-195.07223550000003
 21
768.76977499999998
  0
LINE
  8
_0-0_0
  6
CONTINUOUS
 62
    7
 10
-195.07223550000003
 20
768.76977499999998
 11
-185.82221950000007
 21
768.76977499999998
  0
LINE
  8
_0-0_0
  6
CONTINUOUS
 62
    7
 10
-195.32223550000003
 20
768.83233599999994
 11
-185.57221950000007
 21
768.83233599999994
  0
LINE
  8
_0-0_0
  6
CONTINUOUS
 62
    7
 10
-195.32223550000003
 20
768.60195900000008
 11
-195.07223550000003
 21
768.76977499999998
  0
LINE
  8
_0-0_0
  6
CONTINUOUS
 62
    7
 10
-195.32223550000003
 20
769.05630500000007
 11
-195.07223550000003
 21
769.02252199999998
  0
LINE
  8
_0-0_0
  6
CONTINUOUS
 62
    7
 10
-195.07223550000003
 20
769.02252199999998
 11
-185.82221950000007
 21
769.02252199999998
  0
LINE
  8
_0-0_0
  6
CONTINUOUS
 62
    7
 10
-195.32223550000003
 20
769.05630500000007
 11
-185.57221950000007
 21
769.05630500000007
  0
LINE
  8
_0-0_0
  6
CONTINUOUS
 62
    7
 10
-195.32223550000003
 20
768.83233599999994
 11
-195.07223550000003
 21
769.02252199999998
  0
LINE
  8
_0-0_0
  6
CONTINUOUS
 62
    7
 10
-195.32223550000003
 20
769.27145399999995
 11
-195.07223550000003
 21
769.26681499999995
  0
LINE
  8
_0-0_0
  6
CONTINUOUS
 62
    7
 10
-195.07223550000003
 20
769.26681499999995
 11
-185.82221950000007
 21
769.26681499999995
  0
LINE
  8
_0-0_0
  6
CONTINUOUS
 62
    7
 10
-195.32223550000003
 20
769.05630500000007
 11
-195.07223550000003
 21
769.26681499999995
  0
LINE
  8
_0-0_0
  6
CONTINUOUS
 62
    7
 10
-195.57223550000003
 20
770.25
 11
-195.57223550000003
 21
766.49481200000002
  0
LINE
  8
_0-0_0
  6
CONTINUOUS
 62
    7
 10
-195.57223550000003
 20
766.49481200000002
 11
-195.57223550000003
 21
766.25
  0
LINE
  8
_0-0_0
  6
CONTINUOUS
 62
    7
 10
-181.97222950000003
 20
764.94998199999998
 11
-181.97222950000003
 21
762.44998199999998
  0
LINE
  8
_0-0_0
  6
CONTINUOUS
 62
    7
 10
-181.97222950000003
 20
762.44998199999998
 11
-181.97222950000003
 21
754.94998199999998
  0
LINE
  8
_0-0_0
  6
CONTINUOUS
 62
    7
 10
-182.77221650000001
 20
764.48809800000004
 11
-182.77221650000001
 21
762.21905500000003
  0
LINE
  8
_0-0_0
  6
CONTINUOUS
 62
    7
 10
-182.77221650000001
 20
762.21905500000003
 11
-182.77221650000001
 21
755.41186500000003
  0
LINE
  8
_0-0_0
  6
CONTINUOUS
 62
    7
 10
-240.77221650000001
 20
763.94998199999998
 11
-240.77221650000001
 21
763.94863899999996
  0
LINE
  8
_0-0_0
  6
CONTINUOUS
 62
    7
 10
-240.77221650000001
 20
763.94863899999996
 11
-240.77221650000001
 21
755.94998199999998
  0
LINE
  8
_0-0_0
  6
CONTINUOUS
 62
    7
 10
-185.57221950000007
 20
749.40307600000006
 11
-185.57221950000007
 21
749.39999399999999
  0
LINE
  8
_0-0_0
  6
CONTINUOUS
 62
    7
 10
-185.57221950000007
 20
749.42770399999995
 11
-185.57221950000007
 21
749.40307600000006
  0
LINE
  8
_0-0_0
  6
CONTINUOUS
 62
    7
 10
-185.57221950000007
 20
749.47665400000005
 11
-185.57221950000007
 21
749.42770399999995
  0
LINE
  8
_0-0_0
  6
CONTINUOUS
 62
    7
 10
-185.57221950000007
 20
749.54943800000001
 11
-185.57221950000007
 21
749.47665400000005
  0
LINE
  8
_0-0_0
  6
CONTINUOUS
 62
    7
 10
-185.57221950000007
 20
749.64520300000004
 11
-185.57221950000007
 21
749.54943800000001
  0
LINE
  8
_0-0_0
  6
CONTINUOUS
 62
    7
 10
-185.57221950000007
 20
749.67541499999993
 11
-185.57221950000007
 21
749.64520300000004
  0
LINE
  8
_0-0_0
  6
CONTINUOUS
 62
    7
 10
-185.57221950000007
 20
749.76297
 11
-185.57221950000007
 21
749.67541499999993
  0
LINE
  8
_0-0_0
  6
CONTINUOUS
 62
    7
 10
-185.57221950000007
 20
749.90139799999997
 11
-185.57221950000007
 21
749.76297
  0
LINE
  8
_0-0_0
  6
CONTINUOUS
 62
    7
 10
-185.57221950000007
 20
750.05898999999999
 11
-185.57221950000007
 21
749.90139799999997
  0
LINE
  8
_0-0_0
  6
CONTINUOUS
 62
    7
 10
-185.57221950000007
 20
750.23400900000001
 11
-185.57221950000007
 21
750.05898999999999
  0
LINE
  8
_0-0_0
  6
CONTINUOUS
 62
    7
 10
-185.57221950000007
 20
750.42453
 11
-185.57221950000007
 21
750.23400900000001
  0
LINE
  8
_0-0_0
  6
CONTINUOUS
 62
    7
 10
-185.57221950000007
 20
750.62851000000001
 11
-185.57221950000007
 21
750.42453
  0
LINE
  8
_0-0_0
  6
CONTINUOUS
 62
    7
 10
-185.57221950000007
 20
750.843658
 11
-185.57221950000007
 21
750.62851000000001
  0
LINE
  8
_0-0_0
  6
CONTINUOUS
 62
    7
 10
-185.57221950000007
 20
751.06762700000002
 11
-185.57221950000007
 21
750.843658
  0
LINE
  8
_0-0_0
  6
CONTINUOUS
 62
    7
 10
-185.57221950000007
 20
751.29800399999999
 11
-185.57221950000007
 21
751.06762700000002
  0
LINE
  8
_0-0_0
  6
CONTINUOUS
 62
    7
 10
-185.57221950000007
 20
751.53222699999992
 11
-185.57221950000007
 21
751.29800399999999
  0
LINE
  8
_0-0_0
  6
CONTINUOUS
 62
    7
 10
-185.57221950000007
 20
751.76773100000003
 11
-185.57221950000007
 21
751.53222699999992
  0
LINE
  8
_0-0_0
  6
CONTINUOUS
 62
    7
 10
-185.57221950000007
 20
752.00195299999996
 11
-185.57221950000007
 21
751.76773100000003
  0
LINE
  8
_0-0_0
  6
CONTINUOUS
 62
    7
 10
-185.57221950000007
 20
752.23233000000005
 11
-185.57221950000007
 21
752.00195299999996
  0
LINE
  8
_0-0_0
  6
CONTINUOUS
 62
    7
 10
-185.57221950000007
 20
752.45629899999994
 11
-185.57221950000007
 21
752.23233000000005
  0
LINE
  8
_0-0_0
  6
CONTINUOUS
 62
    7
 10
-185.57221950000007
 20
752.67144800000005
 11
-185.57221950000007
 21
752.45629899999994
  0
LINE
  8
_0-0_0
  6
CONTINUOUS
 62
    7
 10
-185.57221950000007
 20
752.72869900000001
 11
-185.57221950000007
 21
752.67144800000005
  0
LINE
  8
_0-0_0
  6
CONTINUOUS
 62
    7
 10
-185.57221950000007
 20
749.40307600000006
 11
-185.82221950000007
 21
749.14999399999999
  0
LINE
  8
_0-0_0
  6
CONTINUOUS
 62
    7
 10
-185.57221950000007
 20
749.42770399999995
 11
-185.82221950000007
 21
749.16369600000007
  0
LINE
  8
_0-0_0
  6
CONTINUOUS
 62
    7
 10
-185.57221950000007
 20
749.40307600000006
 11
-185.82221950000007
 21
749.16369600000007
  0
LINE
  8
_0-0_0
  6
CONTINUOUS
 62
    7
 10
-185.57221950000007
 20
749.47665400000005
 11
-185.82221950000007
 21
749.20461999999998
  0
LINE
  8
_0-0_0
  6
CONTINUOUS
 62
    7
 10
-185.57221950000007
 20
749.42770399999995
 11
-185.82221950000007
 21
749.20461999999998
  0
LINE
  8
_0-0_0
  6
CONTINUOUS
 62
    7
 10
-185.57221950000007
 20
749.54943800000001
 11
-185.82221950000007
 21
749.27233899999999
  0
LINE
  8
_0-0_0
  6
CONTINUOUS
 62
    7
 10
-185.57221950000007
 20
749.47665400000005
 11
-185.82221950000007
 21
749.27233899999999
  0
LINE
  8
_0-0_0
  6
CONTINUOUS
 62
    7
 10
-185.57221950000007
 20
749.64520300000004
 11
-185.82221950000007
 21
749.36611900000003
  0
LINE
  8
_0-0_0
  6
CONTINUOUS
 62
    7
 10
-185.57221950000007
 20
749.54943800000001
 11
-185.82221950000007
 21
749.36611900000003
  0
LINE
  8
_0-0_0
  6
CONTINUOUS
 62
    7
 10
-185.57221950000007
 20
749.64520300000004
 11
-185.70217950000006
 21
749.56137100000001
  0
LINE
  8
_0-0_0
  6
CONTINUOUS
 62
    7
 10
-185.57221950000007
 20
749.76297
 11
-185.82221950000007
 21
749.48492399999998
  0
LINE
  8
_0-0_0
  6
CONTINUOUS
 62
    7
 10
-185.70217950000006
 20
749.56137100000001
 11
-185.82221950000007
 21
749.48492399999998
  0
LINE
  8
_0-0_0
  6
CONTINUOUS
 62
    7
 10
-185.57221950000007
 20
749.90139799999997
 11
-185.82221950000007
 21
749.62744099999998
  0
LINE
  8
_0-0_0
  6
CONTINUOUS
 62
    7
 10
-185.57221950000007
 20
749.76297
 11
-185.82221950000007
 21
749.62744099999998
  0
LINE
  8
_0-0_0
  6
CONTINUOUS
 62
    7
 10
-185.57221950000007
 20
750.05898999999999
 11
-185.82221950000007
 21
749.79211400000008
  0
LINE
  8
_0-0_0
  6
CONTINUOUS
 62
    7
 10
-185.57221950000007
 20
749.90139799999997
 11
-185.82221950000007
 21
749.79211400000008
  0
LINE
  8
_0-0_0
  6
CONTINUOUS
 62
    7
 10
-185.57221950000007
 20
750.23400900000001
 11
-185.82221950000007
 21
749.97717299999999
  0
LINE
  8
_0-0_0
  6
CONTINUOUS
 62
    7
 10
-185.57221950000007
 20
750.05898999999999
 11
-185.82221950000007
 21
749.97717299999999
  0
LINE
  8
_0-0_0
  6
CONTINUOUS
 62
    7
 10
-185.57221950000007
 20
750.42453
 11
-185.82221950000007
 21
750.18051100000002
  0
LINE
  8
_0-0_0
  6
CONTINUOUS
 62
    7
 10
-185.57221950000007
 20
750.23400900000001
 11
-185.82221950000007
 21
750.18051100000002
  0
LINE
  8
_0-0_0
  6
CONTINUOUS
 62
    7
 10
-185.57221950000007
 20
750.62851000000001
 11
-185.82221950000007
 21
750.39999399999999
  0
LINE
  8
_0-0_0
  6
CONTINUOUS
 62
    7
 10
-185.57221950000007
 20
750.42453
 11
-185.82221950000007
 21
750.39999399999999
  0
LINE
  8
_0-0_0
  6
CONTINUOUS
 62
    7
 10
-185.57221950000007
 20
750.843658
 11
-185.82221950000007
 21
750.63314800000001
  0
LINE
  8
_0-0_0
  6
CONTINUOUS
 62
    7
 10
-185.57221950000007
 20
750.62851000000001
 11
-185.82221950000007
 21
750.63314800000001
  0
LINE
  8
_0-0_0
  6
CONTINUOUS
 62
    7
 10
-185.57221950000007
 20
751.06762700000002
 11
-185.82221950000007
 21
750.87744099999998
  0
LINE
  8
_0-0_0
  6
CONTINUOUS
 62
    7
 10
-185.57221950000007
 20
750.843658
 11
-185.82221950000007
 21
750.87744099999998
  0
LINE
  8
_0-0_0
  6
CONTINUOUS
 62
    7
 10
-185.57221950000007
 20
751.29800399999999
 11
-185.82221950000007
 21
751.13018799999998
  0
LINE
  8
_0-0_0
  6
CONTINUOUS
 62
    7
 10
-185.57221950000007
 20
751.06762700000002
 11
-185.82221950000007
 21
751.13018799999998
  0
LINE
  8
_0-0_0
  6
CONTINUOUS
 62
    7
 10
-185.57221950000007
 20
751.53222699999992
 11
-185.82221950000007
 21
751.38867200000004
  0
LINE
  8
_0-0_0
  6
CONTINUOUS
 62
    7
 10
-185.57221950000007
 20
751.29800399999999
 11
-185.82221950000007
 21
751.38867200000004
  0
LINE
  8
_0-0_0
  6
CONTINUOUS
 62
    7
 10
-185.57221950000007
 20
751.76773100000003
 11
-185.82221950000007
 21
751.64999399999999
  0
LINE
  8
_0-0_0
  6
CONTINUOUS
 62
    7
 10
-185.57221950000007
 20
751.53222699999992
 11
-185.82221950000007
 21
751.64999399999999
  0
LINE
  8
_0-0_0
  6
CONTINUOUS
 62
    7
 10
-185.57221950000007
 20
752.00195299999996
 11
-185.82221950000007
 21
751.91131599999994
  0
LINE
  8
_0-0_0
  6
CONTINUOUS
 62
    7
 10
-185.57221950000007
 20
751.76773100000003
 11
-185.82221950000007
 21
751.91131599999994
  0
LINE
  8
_0-0_0
  6
CONTINUOUS
 62
    7
 10
-185.57221950000007
 20
752.23233000000005
 11
-185.82221950000007
 21
752.16976899999997
  0
LINE
  8
_0-0_0
  6
CONTINUOUS
 62
    7
 10
-185.57221950000007
 20
752.00195299999996
 11
-185.82221950000007
 21
752.16976899999997
  0
LINE
  8
_0-0_0
  6
CONTINUOUS
 62
    7
 10
-185.57221950000007
 20
752.45629899999994
 11
-185.82221950000007
 21
752.42251599999997
  0
LINE
  8
_0-0_0
  6
CONTINUOUS
 62
    7
 10
-185.57221950000007
 20
752.23233000000005
 11
-185.82221950000007
 21
752.42251599999997
  0
LINE
  8
_0-0_0
  6
CONTINUOUS
 62
    7
 10
-185.57221950000007
 20
752.67144800000005
 11
-185.82221950000007
 21
752.66680900000006
  0
LINE
  8
_0-0_0
  6
CONTINUOUS
 62
    7
 10
-185.57221950000007
 20
752.45629899999994
 11
-185.82221950000007
 21
752.66680900000006
  0
LINE
  8
_0-0_0
  6
CONTINUOUS
 62
    7
 10
-185.57221950000007
 20
752.87542699999995
 11
-185.57221950000007
 21
752.72869900000001
  0
LINE
  8
_0-0_0
  6
CONTINUOUS
 62
    7
 10
-185.57221950000007
 20
752.87542699999995
 11
-185.82221950000007
 21
752.89999399999999
  0
LINE
  8
_0-0_0
  6
CONTINUOUS
 62
    7
 10
-185.57221950000007
 20
752.67144800000005
 11
-185.82221950000007
 21
752.89999399999999
  0
LINE
  8
_0-0_0
  6
CONTINUOUS
 62
    7
 10
-185.57221950000007
 20
753.06594799999993
 11
-185.57221950000007
 21
752.87542699999995
  0
LINE
  8
_0-0_0
  6
CONTINUOUS
 62
    7
 10
-185.57221950000007
 20
753.24096699999996
 11
-185.57221950000007
 21
753.06594799999993
  0
LINE
  8
_0-0_0
  6
CONTINUOUS
 62
    7
 10
-185.57221950000007
 20
753.39855999999997
 11
-185.57221950000007
 21
753.24096699999996
  0
LINE
  8
_0-0_0
  6
CONTINUOUS
 62
    7
 10
-185.57221950000007
 20
753.53698699999995
 11
-185.57221950000007
 21
753.39855999999997
  0
LINE
  8
_0-0_0
  6
CONTINUOUS
 62
    7
 10
-185.57221950000007
 20
753.65475500000002
 11
-185.57221950000007
 21
753.53698699999995
  0
LINE
  8
_0-0_0
  6
CONTINUOUS
 62
    7
 10
-185.57221950000007
 20
753.75054899999998
 11
-185.57221950000007
 21
753.65475500000002
  0
LINE
  8
_0-0_0
  6
CONTINUOUS
 62
    7
 10
-185.57221950000007
 20
753.82330300000001
 11
-185.57221950000007
 21
753.75054899999998
  0
LINE
  8
_0-0_0
  6
CONTINUOUS
 62
    7
 10
-185.57221950000007
 20
753.87228400000004
 11
-185.57221950000007
 21
753.82330300000001
  0
LINE
  8
_0-0_0
  6
CONTINUOUS
 62
    7
 10
-185.57221950000007
 20
753.89691199999993
 11
-185.57221950000007
 21
753.87228400000004
  0
LINE
  8
_0-0_0
  6
CONTINUOUS
 62
    7
 10
-185.57221950000007
 20
753.89999399999999
 11
-185.57221950000007
 21
753.89691199999993
  0
LINE
  8
_0-0_0
  6
CONTINUOUS
 62
    7
 10
-195.32223550000003
 20
749.40307600000006
 11
-195.07223550000003
 21
749.14999399999999
  0
LINE
  8
_0-0_0
  6
CONTINUOUS
 62
    7
 10
-195.07223550000003
 20
749.14999399999999
 11
-185.82221950000007
 21
749.14999399999999
  0
LINE
  8
_0-0_0
  6
CONTINUOUS
 62
    7
 10
-195.32223550000003
 20
749.42770399999995
 11
-195.07223550000003
 21
749.16369600000007
  0
LINE
  8
_0-0_0
  6
CONTINUOUS
 62
    7
 10
-195.07223550000003
 20
749.16369600000007
 11
-185.82221950000007
 21
749.16369600000007
  0
LINE
  8
_0-0_0
  6
CONTINUOUS
 62
    7
 10
-195.32223550000003
 20
749.40307600000006
 11
-195.07223550000003
 21
749.16369600000007
  0
LINE
  8
_0-0_0
  6
CONTINUOUS
 62
    7
 10
-195.32223550000003
 20
749.47665400000005
 11
-195.07223550000003
 21
749.20461999999998
  0
LINE
  8
_0-0_0
  6
CONTINUOUS
 62
    7
 10
-195.07223550000003
 20
749.20461999999998
 11
-185.82221950000007
 21
749.20461999999998
  0
LINE
  8
_0-0_0
  6
CONTINUOUS
 62
    7
 10
-195.32223550000003
 20
749.42770399999995
 11
-195.07223550000003
 21
749.20461999999998
  0
LINE
  8
_0-0_0
  6
CONTINUOUS
 62
    7
 10
-195.32223550000003
 20
749.54943800000001
 11
-195.07223550000003
 21
749.27233899999999
  0
LINE
  8
_0-0_0
  6
CONTINUOUS
 62
    7
 10
-195.07223550000003
 20
749.27233899999999
 11
-185.82221950000007
 21
749.27233899999999
  0
LINE
  8
_0-0_0
  6
CONTINUOUS
 62
    7
 10
-195.32223550000003
 20
749.47665400000005
 11
-195.07223550000003
 21
749.27233899999999
  0
LINE
  8
_0-0_0
  6
CONTINUOUS
 62
    7
 10
-195.32223550000003
 20
749.64520300000004
 11
-195.07223550000003
 21
749.36611900000003
  0
LINE
  8
_0-0_0
  6
CONTINUOUS
 62
    7
 10
-195.07223550000003
 20
749.36611900000003
 11
-185.82221950000007
 21
749.36611900000003
  0
LINE
  8
_0-0_0
  6
CONTINUOUS
 62
    7
 10
-195.32223550000003
 20
749.54943800000001
 11
-195.07223550000003
 21
749.36611900000003
  0
LINE
  8
_0-0_0
  6
CONTINUOUS
 62
    7
 10
-195.07223550000003
 20
749.48492399999998
 11
-185.82221950000007
 21
749.48492399999998
  0
LINE
  8
_0-0_0
  6
CONTINUOUS
 62
    7
 10
-195.19226049999997
 20
749.56137100000001
 11
-195.07223550000003
 21
749.48492399999998
  0
LINE
  8
_0-0_0
  6
CONTINUOUS
 62
    7
 10
-195.32223550000003
 20
749.64520300000004
 11
-195.19226049999997
 21
749.56137100000001
  0
LINE
  8
_0-0_0
  6
CONTINUOUS
 62
    7
 10
-195.32223550000003
 20
749.76297
 11
-195.07223550000003
 21
749.48492399999998
  0
LINE
  8
_0-0_0
  6
CONTINUOUS
 62
    7
 10
-195.32223550000003
 20
749.90139799999997
 11
-195.07223550000003
 21
749.62744099999998
  0
LINE
  8
_0-0_0
  6
CONTINUOUS
 62
    7
 10
-195.07223550000003
 20
749.62744099999998
 11
-185.82221950000007
 21
749.62744099999998
  0
LINE
  8
_0-0_0
  6
CONTINUOUS
 62
    7
 10
-195.32223550000003
 20
749.76297
 11
-195.07223550000003
 21
749.62744099999998
  0
LINE
  8
_0-0_0
  6
CONTINUOUS
 62
    7
 10
-195.32223550000003
 20
750.05898999999999
 11
-195.07223550000003
 21
749.79211400000008
  0
LINE
  8
_0-0_0
  6
CONTINUOUS
 62
    7
 10
-195.07223550000003
 20
749.79211400000008
 11
-185.82221950000007
 21
749.79211400000008
  0
LINE
  8
_0-0_0
  6
CONTINUOUS
 62
    7
 10
-195.32223550000003
 20
749.90139799999997
 11
-195.07223550000003
 21
749.79211400000008
  0
LINE
  8
_0-0_0
  6
CONTINUOUS
 62
    7
 10
-195.32223550000003
 20
750.23400900000001
 11
-195.07223550000003
 21
749.97717299999999
  0
LINE
  8
_0-0_0
  6
CONTINUOUS
 62
    7
 10
-195.07223550000003
 20
749.97717299999999
 11
-185.82221950000007
 21
749.97717299999999
  0
LINE
  8
_0-0_0
  6
CONTINUOUS
 62
    7
 10
-195.32223550000003
 20
750.05898999999999
 11
-195.07223550000003
 21
749.97717299999999
  0
LINE
  8
_0-0_0
  6
CONTINUOUS
 62
    7
 10
-195.32223550000003
 20
750.42453
 11
-195.07223550000003
 21
750.18051100000002
  0
LINE
  8
_0-0_0
  6
CONTINUOUS
 62
    7
 10
-195.07223550000003
 20
750.18051100000002
 11
-185.82221950000007
 21
750.18051100000002
  0
LINE
  8
_0-0_0
  6
CONTINUOUS
 62
    7
 10
-195.32223550000003
 20
750.23400900000001
 11
-195.07223550000003
 21
750.18051100000002
  0
LINE
  8
_0-0_0
  6
CONTINUOUS
 62
    7
 10
-195.32223550000003
 20
750.62851000000001
 11
-195.07223550000003
 21
750.39999399999999
  0
LINE
  8
_0-0_0
  6
CONTINUOUS
 62
    7
 10
-195.07223550000003
 20
750.39999399999999
 11
-185.82221950000007
 21
750.39999399999999
  0
LINE
  8
_0-0_0
  6
CONTINUOUS
 62
    7
 10
-195.32223550000003
 20
750.62851000000001
 11
-185.57221950000007
 21
750.62851000000001
  0
LINE
  8
_0-0_0
  6
CONTINUOUS
 62
    7
 10
-195.32223550000003
 20
750.42453
 11
-195.07223550000003
 21
750.39999399999999
  0
LINE
  8
_0-0_0
  6
CONTINUOUS
 62
    7
 10
-195.32223550000003
 20
750.843658
 11
-195.07223550000003
 21
750.63314800000001
  0
LINE
  8
_0-0_0
  6
CONTINUOUS
 62
    7
 10
-195.07223550000003
 20
750.63314800000001
 11
-185.82221950000007
 21
750.63314800000001
  0
LINE
  8
_0-0_0
  6
CONTINUOUS
 62
    7
 10
-195.32223550000003
 20
750.843658
 11
-185.57221950000007
 21
750.843658
  0
LINE
  8
_0-0_0
  6
CONTINUOUS
 62
    7
 10
-195.32223550000003
 20
750.62851000000001
 11
-195.07223550000003
 21
750.63314800000001
  0
LINE
  8
_0-0_0
  6
CONTINUOUS
 62
    7
 10
-195.32223550000003
 20
751.06762700000002
 11
-195.07223550000003
 21
750.87744099999998
  0
LINE
  8
_0-0_0
  6
CONTINUOUS
 62
    7
 10
-195.07223550000003
 20
750.87744099999998
 11
-185.82221950000007
 21
750.87744099999998
  0
LINE
  8
_0-0_0
  6
CONTINUOUS
 62
    7
 10
-195.32223550000003
 20
751.06762700000002
 11
-185.57221950000007
 21
751.06762700000002
  0
LINE
  8
_0-0_0
  6
CONTINUOUS
 62
    7
 10
-195.32223550000003
 20
750.843658
 11
-195.07223550000003
 21
750.87744099999998
  0
LINE
  8
_0-0_0
  6
CONTINUOUS
 62
    7
 10
-195.32223550000003
 20
751.29800399999999
 11
-195.07223550000003
 21
751.13018799999998
  0
LINE
  8
_0-0_0
  6
CONTINUOUS
 62
    7
 10
-195.07223550000003
 20
751.13018799999998
 11
-185.82221950000007
 21
751.13018799999998
  0
LINE
  8
_0-0_0
  6
CONTINUOUS
 62
    7
 10
-195.32223550000003
 20
751.29800399999999
 11
-185.57221950000007
 21
751.29800399999999
  0
LINE
  8
_0-0_0
  6
CONTINUOUS
 62
    7
 10
-195.32223550000003
 20
751.06762700000002
 11
-195.07223550000003
 21
751.13018799999998
  0
LINE
  8
_0-0_0
  6
CONTINUOUS
 62
    7
 10
-195.32223550000003
 20
751.53222699999992
 11
-195.07223550000003
 21
751.38867200000004
  0
LINE
  8
_0-0_0
  6
CONTINUOUS
 62
    7
 10
-195.07223550000003
 20
751.38867200000004
 11
-185.82221950000007
 21
751.38867200000004
  0
LINE
  8
_0-0_0
  6
CONTINUOUS
 62
    7
 10
-195.32223550000003
 20
751.53222699999992
 11
-185.57221950000007
 21
751.53222699999992
  0
LINE
  8
_0-0_0
  6
CONTINUOUS
 62
    7
 10
-195.32223550000003
 20
751.29800399999999
 11
-195.07223550000003
 21
751.38867200000004
  0
LINE
  8
_0-0_0
  6
CONTINUOUS
 62
    7
 10
-195.32223550000003
 20
751.76773100000003
 11
-195.07223550000003
 21
751.64999399999999
  0
LINE
  8
_0-0_0
  6
CONTINUOUS
 62
    7
 10
-195.07223550000003
 20
751.64999399999999
 11
-185.82221950000007
 21
751.64999399999999
  0
LINE
  8
_0-0_0
  6
CONTINUOUS
 62
    7
 10
-195.32223550000003
 20
751.76773100000003
 11
-185.57221950000007
 21
751.76773100000003
  0
LINE
  8
_0-0_0
  6
CONTINUOUS
 62
    7
 10
-195.32223550000003
 20
751.53222699999992
 11
-195.07223550000003
 21
751.64999399999999
  0
LINE
  8
_0-0_0
  6
CONTINUOUS
 62
    7
 10
-195.32223550000003
 20
752.00195299999996
 11
-195.07223550000003
 21
751.91131599999994
  0
LINE
  8
_0-0_0
  6
CONTINUOUS
 62
    7
 10
-195.07223550000003
 20
751.91131599999994
 11
-185.82221950000007
 21
751.91131599999994
  0
LINE
  8
_0-0_0
  6
CONTINUOUS
 62
    7
 10
-195.32223550000003
 20
752.00195299999996
 11
-185.57221950000007
 21
752.00195299999996
  0
LINE
  8
_0-0_0
  6
CONTINUOUS
 62
    7
 10
-195.32223550000003
 20
751.76773100000003
 11
-195.07223550000003
 21
751.91131599999994
  0
LINE
  8
_0-0_0
  6
CONTINUOUS
 62
    7
 10
-195.32223550000003
 20
752.23233000000005
 11
-195.07223550000003
 21
752.16976899999997
  0
LINE
  8
_0-0_0
  6
CONTINUOUS
 62
    7
 10
-195.07223550000003
 20
752.16976899999997
 11
-185.82221950000007
 21
752.16976899999997
  0
LINE
  8
_0-0_0
  6
CONTINUOUS
 62
    7
 10
-195.32223550000003
 20
752.23233000000005
 11
-185.57221950000007
 21
752.23233000000005
  0
LINE
  8
_0-0_0
  6
CONTINUOUS
 62
    7
 10
-195.32223550000003
 20
752.00195299999996
 11
-195.07223550000003
 21
752.16976899999997
  0
LINE
  8
_0-0_0
  6
CONTINUOUS
 62
    7
 10
-195.32223550000003
 20
752.45629899999994
 11
-195.07223550000003
 21
752.42251599999997
  0
LINE
  8
_0-0_0
  6
CONTINUOUS
 62
    7
 10
-195.07223550000003
 20
752.42251599999997
 11
-185.82221950000007
 21
752.42251599999997
  0
LINE
  8
_0-0_0
  6
CONTINUOUS
 62
    7
 10
-195.32223550000003
 20
752.45629899999994
 11
-185.57221950000007
 21
752.45629899999994
  0
LINE
  8
_0-0_0
  6
CONTINUOUS
 62
    7
 10
-195.32223550000003
 20
752.23233000000005
 11
-195.07223550000003
 21
752.42251599999997
  0
LINE
  8
_0-0_0
  6
CONTINUOUS
 62
    7
 10
-195.32223550000003
 20
752.67144800000005
 11
-195.07223550000003
 21
752.66680900000006
  0
LINE
  8
_0-0_0
  6
CONTINUOUS
 62
    7
 10
-195.07223550000003
 20
752.66680900000006
 11
-185.82221950000007
 21
752.66680900000006
  0
LINE
  8
_0-0_0
  6
CONTINUOUS
 62
    7
 10
-195.32223550000003
 20
752.67144800000005
 11
-185.57221950000007
 21
752.67144800000005
  0
LINE
  8
_0-0_0
  6
CONTINUOUS
 62
    7
 10
-195.32223550000003
 20
752.45629899999994
 11
-195.07223550000003
 21
752.66680900000006
  0
LINE
  8
_0-0_0
  6
CONTINUOUS
 62
    7
 10
-195.32223550000003
 20
752.87542699999995
 11
-195.07223550000003
 21
752.89999399999999
  0
LINE
  8
_0-0_0
  6
CONTINUOUS
 62
    7
 10
-195.07223550000003
 20
752.89999399999999
 11
-185.82221950000007
 21
752.89999399999999
  0
LINE
  8
_0-0_0
  6
CONTINUOUS
 62
    7
 10
-195.32223550000003
 20
752.67144800000005
 11
-195.07223550000003
 21
752.89999399999999
  0
LINE
  8
_0-0_0
  6
CONTINUOUS
 62
    7
 10
-185.57221950000007
 20
753.06594799999993
 11
-185.82221950000007
 21
753.11944599999993
  0
LINE
  8
_0-0_0
  6
CONTINUOUS
 62
    7
 10
-185.57221950000007
 20
752.87542699999995
 11
-185.82221950000007
 21
753.11944599999993
  0
LINE
  8
_0-0_0
  6
CONTINUOUS
 62
    7
 10
-185.57221950000007
 20
753.24096699999996
 11
-185.82221950000007
 21
753.32281499999999
  0
LINE
  8
_0-0_0
  6
CONTINUOUS
 62
    7
 10
-185.57221950000007
 20
753.06594799999993
 11
-185.82221950000007
 21
753.32281499999999
  0
LINE
  8
_0-0_0
  6
CONTINUOUS
 62
    7
 10
-185.57221950000007
 20
753.39855999999997
 11
-185.82221950000007
 21
753.50784299999998
  0
LINE
  8
_0-0_0
  6
CONTINUOUS
 62
    7
 10
-185.57221950000007
 20
753.24096699999996
 11
-185.82221950000007
 21
753.50784299999998
  0
LINE
  8
_0-0_0
  6
CONTINUOUS
 62
    7
 10
-185.57221950000007
 20
753.53698699999995
 11
-185.82221950000007
 21
753.67251599999997
  0
LINE
  8
_0-0_0
  6
CONTINUOUS
 62
    7
 10
-185.57221950000007
 20
753.39855999999997
 11
-185.82221950000007
 21
753.67251599999997
  0
LINE
  8
_0-0_0
  6
CONTINUOUS
 62
    7
 10
-185.57221950000007
 20
753.65475500000002
 11
-185.82221950000007
 21
753.81506300000001
  0
LINE
  8
_0-0_0
  6
CONTINUOUS
 62
    7
 10
-185.57221950000007
 20
753.53698699999995
 11
-185.82221950000007
 21
753.81506300000001
  0
LINE
  8
_0-0_0
  6
CONTINUOUS
 62
    7
 10
-185.57221950000007
 20
753.75054899999998
 11
-185.82221950000007
 21
753.93383799999992
  0
LINE
  8
_0-0_0
  6
CONTINUOUS
 62
    7
 10
-185.57221950000007
 20
753.65475500000002
 11
-185.82221950000007
 21
753.93383799999992
  0
LINE
  8
_0-0_0
  6
CONTINUOUS
 62
    7
 10
-185.57221950000007
 20
753.82330300000001
 11
-185.82221950000007
 21
754.02761800000007
  0
LINE
  8
_0-0_0
  6
CONTINUOUS
 62
    7
 10
-185.57221950000007
 20
753.75054899999998
 11
-185.82221950000007
 21
754.02761800000007
  0
LINE
  8
_0-0_0
  6
CONTINUOUS
 62
    7
 10
-185.57221950000007
 20
753.87228400000004
 11
-185.82221950000007
 21
754.09533699999997
  0
LINE
  8
_0-0_0
  6
CONTINUOUS
 62
    7
 10
-185.57221950000007
 20
753.82330300000001
 11
-185.82221950000007
 21
754.09533699999997
  0
LINE
  8
_0-0_0
  6
CONTINUOUS
 62
    7
 10
-185.57221950000007
 20
753.89691199999993
 11
-185.82221950000007
 21
754.13629200000003
  0
LINE
  8
_0-0_0
  6
CONTINUOUS
 62
    7
 10
-185.57221950000007
 20
753.87228400000004
 11
-185.82221950000007
 21
754.13629200000003
  0
LINE
  8
_0-0_0
  6
CONTINUOUS
 62
    7
 10
-185.57221950000007
 20
753.89691199999993
 11
-185.57525650000002
 21
753.89999399999999
  0
LINE
  8
_0-0_0
  6
CONTINUOUS
 62
    7
 10
-195.57223550000003
 20
749.89483599999994
 11
-195.57223550000003
 21
749.64999399999999
  0
LINE
  8
_0-0_0
  6
CONTINUOUS
 62
    7
 10
-195.32223550000003
 20
752.87542699999995
 11
-195.07223550000003
 21
753.11944599999993
  0
LINE
  8
_0-0_0
  6
CONTINUOUS
 62
    7
 10
-195.32223550000003
 20
753.06594799999993
 11
-195.07223550000003
 21
753.11944599999993
  0
LINE
  8
_0-0_0
  6
CONTINUOUS
 62
    7
 10
-195.32223550000003
 20
753.06594799999993
 11
-195.07223550000003
 21
753.32281499999999
  0
LINE
  8
_0-0_0
  6
CONTINUOUS
 62
    7
 10
-195.32223550000003
 20
753.24096699999996
 11
-195.07223550000003
 21
753.32281499999999
  0
LINE
  8
_0-0_0
  6
CONTINUOUS
 62
    7
 10
-195.32223550000003
 20
753.24096699999996
 11
-195.07223550000003
 21
753.50784299999998
  0
LINE
  8
_0-0_0
  6
CONTINUOUS
 62
    7
 10
-195.32223550000003
 20
753.39855999999997
 11
-195.07223550000003
 21
753.50784299999998
  0
LINE
  8
_0-0_0
  6
CONTINUOUS
 62
    7
 10
-195.32223550000003
 20
753.39855999999997
 11
-195.07223550000003
 21
753.67251599999997
  0
LINE
  8
_0-0_0
  6
CONTINUOUS
 62
    7
 10
-195.32223550000003
 20
753.53698699999995
 11
-195.07223550000003
 21
753.67251599999997
  0
LINE
  8
_0-0_0
  6
CONTINUOUS
 62
    7
 10
-195.32223550000003
 20
753.53698699999995
 11
-195.07223550000003
 21
753.81506300000001
  0
LINE
  8
_0-0_0
  6
CONTINUOUS
 62
    7
 10
-195.32223550000003
 20
753.65475500000002
 11
-195.07223550000003
 21
753.81506300000001
  0
LINE
  8
_0-0_0
  6
CONTINUOUS
 62
    7
 10
-195.32223550000003
 20
753.65475500000002
 11
-195.07223550000003
 21
753.93383799999992
  0
LINE
  8
_0-0_0
  6
CONTINUOUS
 62
    7
 10
-195.32223550000003
 20
753.75054899999998
 11
-195.07223550000003
 21
753.93383799999992
  0
LINE
  8
_0-0_0
  6
CONTINUOUS
 62
    7
 10
-195.32223550000003
 20
753.75054899999998
 11
-195.07223550000003
 21
754.02761800000007
  0
LINE
  8
_0-0_0
  6
CONTINUOUS
 62
    7
 10
-195.32223550000003
 20
753.82330300000001
 11
-195.07223550000003
 21
754.02761800000007
  0
LINE
  8
_0-0_0
  6
CONTINUOUS
 62
    7
 10
-195.32223550000003
 20
753.82330300000001
 11
-195.07223550000003
 21
754.09533699999997
  0
LINE
  8
_0-0_0
  6
CONTINUOUS
 62
    7
 10
-195.32223550000003
 20
753.87228400000004
 11
-195.07223550000003
 21
754.09533699999997
  0
LINE
  8
_0-0_0
  6
CONTINUOUS
 62
    7
 10
-195.32223550000003
 20
753.87228400000004
 11
-195.07223550000003
 21
754.13629200000003
  0
LINE
  8
_0-0_0
  6
CONTINUOUS
 62
    7
 10
-195.32223550000003
 20
753.89691199999993
 11
-195.07223550000003
 21
754.13629200000003
  0
LINE
  8
_0-0_0
  6
CONTINUOUS
 62
    7
 10
-195.32223550000003
 20
753.89691199999993
 11
-195.07223550000003
 21
754.14999399999999
  0
LINE
  8
_0-0_0
  6
CONTINUOUS
 62
    7
 10
-195.57223550000003
 20
753.64999399999999
 11
-195.57223550000003
 21
749.89483599999994
  0
LINE
  8
_0-0_0
  6
CONTINUOUS
 62
    7
 10
-195.07223550000003
 20
753.11944599999993
 11
-185.82221950000007
 21
753.11944599999993
  0
LINE
  8
_0-0_0
  6
CONTINUOUS
 62
    7
 10
-195.07223550000003
 20
753.32281499999999
 11
-185.82221950000007
 21
753.32281499999999
  0
LINE
  8
_0-0_0
  6
CONTINUOUS
 62
    7
 10
-195.07223550000003
 20
753.50784299999998
 11
-185.82221950000007
 21
753.50784299999998
  0
LINE
  8
_0-0_0
  6
CONTINUOUS
 62
    7
 10
-195.07223550000003
 20
753.67251599999997
 11
-185.82221950000007
 21
753.67251599999997
  0
LINE
  8
_0-0_0
  6
CONTINUOUS
 62
    7
 10
-195.07223550000003
 20
753.81506300000001
 11
-185.82221950000007
 21
753.81506300000001
  0
LINE
  8
_0-0_0
  6
CONTINUOUS
 62
    7
 10
-195.07223550000003
 20
753.93383799999992
 11
-185.82221950000007
 21
753.93383799999992
  0
LINE
  8
_0-0_0
  6
CONTINUOUS
 62
    7
 10
-195.07223550000003
 20
754.02761800000007
 11
-185.82221950000007
 21
754.02761800000007
  0
LINE
  8
_0-0_0
  6
CONTINUOUS
 62
    7
 10
-195.07223550000003
 20
754.09533699999997
 11
-185.82221950000007
 21
754.09533699999997
  0
LINE
  8
_0-0_0
  6
CONTINUOUS
 62
    7
 10
-195.07223550000003
 20
754.13629200000003
 11
-185.82221950000007
 21
754.13629200000003
  0
LINE
  8
_0-0_0
  6
CONTINUOUS
 62
    7
 10
-195.07223550000003
 20
754.14999399999999
 11
-185.82221950000007
 21
754.14999399999999
  0
LINE
  8
_0-0_0
  6
CONTINUOUS
 62
    7
 10
-159.57221950000007
 20
770.5
 11
-185.57525650000002
 21
770.5
  0
LINE
  8
_0-0_0
  6
CONTINUOUS
 62
    7
 10
-159.57221950000007
 20
766
 11
-185.57221950000007
 21
766
  0
LINE
  8
_0-0_0
  6
CONTINUOUS
 62
    7
 10
-58.572219500000074
 20
753.89999399999999
 11
-56.116546500000027
 21
753.89999399999999
  0
LINE
  8
_0-0_0
  6
CONTINUOUS
 62
    7
 10
-56.617630500000018
 20
749.39999399999999
 11
-56.116546500000027
 21
749.39999399999999
  0
LINE
  8
_0-0_0
  6
CONTINUOUS
 62
    7
 10
-185.57221950000007
 20
770.5
 11
-185.82221950000007
 21
770.75
  0
LINE
  8
_0-0_0
  6
CONTINUOUS
 62
    7
 10
-55.972213500000066
 20
753.64999399999999
 11
-56.116546500000027
 21
753.89999399999999
  0
LINE
  8
_0-0_0
  6
CONTINUOUS
 62
    7
 10
-55.972213500000066
 20
749.64999399999999
 11
-56.116546500000027
 21
749.39999399999999
  0
LINE
  8
_0-0_0
  6
CONTINUOUS
 62
    7
 10
-181.57221950000007
 20
754.69998199999998
 11
-180.32221950000007
 21
753.44998199999998
  0
LINE
  8
_0-0_0
  6
CONTINUOUS
 62
    7
 10
-181.57221950000007
 20
765.19998199999998
 11
-180.77221650000001
 21
765.99996899999996
  0
LINE
  8
_0-0_0
  6
CONTINUOUS
 62
    7
 10
-195.57223550000003
 20
770.25
 11
-195.07235750000018
 21
770.74981700000001
  0
LINE
  8
_0-0_0
  6
CONTINUOUS
 62
    7
 10
-195.57223550000003
 20
766.25
 11
-195.07235750000018
 21
765.75015299999995
  0
LINE
  8
_0-0_0
  6
CONTINUOUS
 62
    7
 10
-181.57221950000007
 20
764.94998199999998
 11
-181.97222950000003
 21
764.94998199999998
  0
LINE
  8
_0-0_0
  6
CONTINUOUS
 62
    7
 10
-181.57221950000007
 20
754.94998199999998
 11
-181.97222950000003
 21
754.94998199999998
  0
LINE
  8
_0-0_0
  6
CONTINUOUS
 62
    7
 10
-182.77221650000001
 20
764.48809800000004
 11
-181.97222950000003
 21
764.94998199999998
  0
LINE
  8
_0-0_0
  6
CONTINUOUS
 62
    7
 10
-182.77221650000001
 20
755.41186500000003
 11
-181.97222950000003
 21
754.94998199999998
  0
LINE
  8
_0-0_0
  6
CONTINUOUS
 62
    7
 10
-182.77221650000001
 20
763.94998199999998
 11
-240.77221650000001
 21
763.94998199999998
  0
LINE
  8
_0-0_0
  6
CONTINUOUS
 62
    7
 10
-182.77221650000001
 20
755.94998199999998
 11
-240.77221650000001
 21
755.94998199999998
  0
LINE
  8
_0-0_0
  6
CONTINUOUS
 62
    7
 10
-165.32225050000011
 20
749.39999399999999
 11
-185.57221950000007
 21
749.39999399999999
  0
LINE
  8
_0-0_0
  6
CONTINUOUS
 62
    7
 10
-185.57221950000007
 20
749.39999399999999
 11
-185.82221950000007
 21
749.14999399999999
  0
LINE
  8
_0-0_0
  6
CONTINUOUS
 62
    7
 10
-180.77221650000001
 20
753.89999399999999
 11
-185.57525650000002
 21
753.89999399999999
  0
LINE
  8
_0-0_0
  6
CONTINUOUS
 62
    7
 10
-185.57221950000007
 20
753.89999399999999
 11
-185.82221950000007
 21
754.14999399999999
  0
LINE
  8
_0-0_0
  6
CONTINUOUS
 62
    7
 10
-195.57223550000003
 20
749.64999399999999
 11
-195.07235750000018
 21
749.15014599999995
  0
LINE
  8
_0-0_0
  6
CONTINUOUS
 62
    7
 10
-195.57223550000003
 20
753.64999399999999
 11
-195.07235750000018
 21
754.14984099999992
  0
LINE
  8
_0-0_0
  6
CONTINUOUS
 62
    7
 10
-269.08322150000004
 20
802.14999399999999
 11
-269.08322150000004
 21
789.14999399999999
  0
LINE
  8
_0-0_0
  6
CONTINUOUS
 62
    7
 10
-268.88320950000002
 20
802.14999399999999
 11
-269.08322150000004
 21
802.14999399999999
  0
LINE
  8
_0-0_0
  6
CONTINUOUS
 62
    7
 10
-268.88320950000002
 20
789.14999399999999
 11
-269.08322150000004
 21
789.14999399999999
  0
LINE
  8
_0-0_0
  6
CONTINUOUS
 62
    7
 10
-268.88320950000002
 20
802.14999399999999
 11
-268.88320950000002
 21
820.75
  0
LINE
  8
_0-0_0
  6
CONTINUOUS
 62
    7
 10
-268.78323350000005
 20
820.75
 11
-268.88320950000002
 21
820.75
  0
LINE
  8
_0-0_0
  6
CONTINUOUS
 62
    7
 10
-268.78323350000005
 20
823.25
 11
-268.78323350000005
 21
820.75
  0
ARC
  8
_0-0_0
  6
CONTINUOUS
 62
    7
 10
-269.28323350000005
 20
823.25
 40
0.5
 50
0
 51
90.000003000000007
  0
LINE
  8
_0-0_0
  6
CONTINUOUS
 62
    7
 10
-269.28323350000005
 20
823.75
 11
-272.28323350000005
 21
823.75
  0
ARC
  8
_0-0_0
  6
CONTINUOUS
 62
    7
 10
-272.28323350000005
 20
823.25
 40
0.5
 50
90.000003000000007
 51
179.99999099999999
  0
ARC
  8
_0-0_0
  6
CONTINUOUS
 62
    7
 10
-276.78323350000005
 20
775.75
 40
0.5
 50
179.99999099999999
 51
269.99999700000001
  0
LINE
  8
_0-0_0
  6
CONTINUOUS
 62
    7
 10
-274.28323350000005
 20
775.25
 11
-276.78323350000005
 21
775.25
  0
ARC
  8
_0-0_0
  6
CONTINUOUS
 62
    7
 10
-274.28323350000005
 20
775.75
 40
0.5
 50
269.99999700000001
 51
0
  0
LINE
  8
_0-0_0
  6
CONTINUOUS
 62
    7
 10
-273.78323350000005
 20
780.75
 11
-273.78323350000005
 21
775.75
  0
ARC
  8
_0-0_0
  6
CONTINUOUS
 62
    7
 10
-273.28323350000005
 20
780.75
 40
0.5
 50
90.000003000000007
 51
179.99999099999999
  0
LINE
  8
_0-0_0
  6
CONTINUOUS
 62
    7
 10
-269.28323350000005
 20
781.25
 11
-273.28323350000005
 21
781.25
  0
ARC
  8
_0-0_0
  6
CONTINUOUS
 62
    7
 10
-269.28323350000005
 20
781.75
 40
0.5
 50
269.99999700000001
 51
0
  0
LINE
  8
_0-0_0
  6
CONTINUOUS
 62
    7
 10
-268.78323350000005
 20
784.94998199999998
 11
-268.78323350000005
 21
781.75
  0
LINE
  8
_0-0_0
  6
CONTINUOUS
 62
    7
 10
-268.88320950000002
 20
784.94998199999998
 11
-268.78323350000005
 21
784.94998199999998
  0
LINE
  8
_0-0_0
  6
CONTINUOUS
 62
    7
 10
-268.88320950000002
 20
784.94998199999998
 11
-268.88320950000002
 21
789.14999399999999
  0
LINE
  8
_0-0_0
  6
CONTINUOUS
 62
    7
 10
-269.78323350000005
 20
823.25
 11
-287.58322150000004
 21
823.25
  0
ARC
  8
_0-0_0
  6
CONTINUOUS
 62
    7
 10
-269.78323350000005
 20
822.75
 40
0.5
 50
0
 51
90.000003000000007
  0
LINE
  8
_0-0_0
  6
CONTINUOUS
 62
    7
 10
-269.28323350000005
 20
822.75
 11
-269.28323350000005
 21
782.25
  0
ARC
  8
_0-0_0
  6
CONTINUOUS
 62
    7
 10
-269.78323350000005
 20
782.25
 40
0.5
 50
269.99999700000001
 51
0
  0
LINE
  8
_0-0_0
  6
CONTINUOUS
 62
    7
 10
-273.28323350000005
 20
781.75
 11
-269.78323350000005
 21
781.75
  0
ARC
  8
_0-0_0
  6
CONTINUOUS
 62
    7
 10
-273.28323350000005
 20
780.75
 40
1
 50
90.000003000000007
 51
179.99999099999999
  0
LINE
  8
_0-0_0
  6
CONTINUOUS
 62
    7
 10
-274.28323350000005
 20
780.75
 11
-274.28323350000005
 21
776.25
  0
ARC
  8
_0-0_0
  6
CONTINUOUS
 62
    7
 10
-274.78323350000005
 20
776.25
 40
0.5
 50
269.99999700000001
 51
0
  0
LINE
  8
_0-0_0
  6
CONTINUOUS
 62
    7
 10
-291.78323350000005
 20
775.75
 11
-274.78323350000005
 21
775.75
  0
LINE
  8
_0-0_0
  6
CONTINUOUS
 62
    7
 10
-273.28323350000005
 20
823.44998199999998
 11
-273.28323350000005
 21
823.25
  0
ARC
  8
_0-0_0
  6
CONTINUOUS
 62
    7
 10
-273.58322150000004
 20
823.44998199999998
 40
0.2999999999999999
 50
0
 51
90.000003000000007
  0
LINE
  8
_0-0_0
  6
CONTINUOUS
 62
    7
 10
-273.58322150000004
 20
823.75
 11
-288.28323350000005
 21
823.75
  0
ARC
  8
_0-0_0
  6
CONTINUOUS
 62
    7
 10
-288.28323350000005
 20
823.44998199999998
 40
0.2999999999999999
 50
90.000003000000007
 51
179.99999099999999
  0
LINE
  8
_0-0_0
  6
CONTINUOUS
 62
    7
 10
-288.58322150000004
 20
823.44998199999998
 11
-288.58322150000004
 21
820.25
  0
LINE
  8
_0-0_0
  6
CONTINUOUS
 62
    7
 10
-288.58322150000004
 20
820.25
 11
-294.28323350000005
 21
820.25
  0
LINE
  8
_0-0_0
  6
CONTINUOUS
 62
    7
 10
-294.28323350000005
 20
820.25
 11
-295.08322150000004
 21
819.44998199999998
  0
ARC
  8
_0-0_0
  6
CONTINUOUS
 62
    7
 10
-287.58322150000004
 20
822.75
 40
0.5
 50
90.000003000000007
 51
179.99999099999999
  0
LINE
  8
_0-0_0
  6
CONTINUOUS
 62
    7
 10
-288.08322150000004
 20
822.75
 11
-288.08322150000004
 21
819.94998199999998
  0
ARC
  8
_0-0_0
  6
CONTINUOUS
 62
    7
 10
-288.58322150000004
 20
819.94998199999998
 40
0.5
 50
269.99999700000001
 51
0
  0
LINE
  8
_0-0_0
  6
CONTINUOUS
 62
    7
 10
-288.58322150000004
 20
819.44998199999998
 11
-296.78323350000005
 21
819.44998199999998
  0
ARC
  8
_0-0_0
  6
CONTINUOUS
 62
    7
 10
-296.78323350000005
 20
818.94998199999998
 40
0.5
 50
90.000003000000007
 51
179.99999099999999
  0
LINE
  8
_0-0_0
  6
CONTINUOUS
 62
    7
 10
-297.28323350000005
 20
782.25
 11
-297.28323350000005
 21
818.94998199999998
  0
ARC
  8
_0-0_0
  6
CONTINUOUS
 62
    7
 10
-296.78323350000005
 20
782.25
 40
0.5
 50
179.99999099999999
 51
269.99999700000001
  0
LINE
  8
_0-0_0
  6
CONTINUOUS
 62
    7
 10
-296.78323350000005
 20
781.75
 11
-293.28323350000005
 21
781.75
  0
ARC
  8
_0-0_0
  6
CONTINUOUS
 62
    7
 10
-293.28323350000005
 20
780.75
 40
1
 50
0
 51
90.000003000000007
  0
LINE
  8
_0-0_0
  6
CONTINUOUS
 62
    7
 10
-292.28323350000005
 20
776.25
 11
-292.28323350000005
 21
780.75
  0
ARC
  8
_0-0_0
  6
CONTINUOUS
 62
    7
 10
-291.78323350000005
 20
776.25
 40
0.5
 50
179.99999099999999
 51
269.99999700000001
  0
CIRCLE
  8
_0-0_0
  6
CONTINUOUS
 62
    7
 10
-283.28323350000005
 20
784.75
 40
2.0670000000000002
  0
LINE
  8
_0-0_0
  6
CONTINUOUS
 62
    7
 10
-295.28323350000005
 20
819.75
 11
-295.28323350000005
 21
819.44998199999998
  0
LINE
  8
_0-0_0
  6
CONTINUOUS
 62
    7
 10
-295.28323350000005
 20
819.75
 11
-297.28323350000005
 21
819.75
  0
ARC
  8
_0-0_0
  6
CONTINUOUS
 62
    7
 10
-297.28323350000005
 20
819.25
 40
0.5
 50
90.000003000000007
 51
179.99999099999999
  0
LINE
  8
_0-0_0
  6
CONTINUOUS
 62
    7
 10
-297.78323350000005
 20
819.25
 11
-297.78323350000005
 21
781.75
  0
ARC
  8
_0-0_0
  6
CONTINUOUS
 62
    7
 10
-297.28323350000005
 20
781.75
 40
0.5
 50
179.99999099999999
 51
269.99999700000001
  0
LINE
  8
_0-0_0
  6
CONTINUOUS
 62
    7
 10
-293.28323350000005
 20
781.25
 11
-297.28323350000005
 21
781.25
  0
ARC
  8
_0-0_0
  6
CONTINUOUS
 62
    7
 10
-293.28323350000005
 20
780.75
 40
0.5
 50
0
 51
90.000003000000007
  0
LINE
  8
_0-0_0
  6
CONTINUOUS
 62
    7
 10
-292.78323350000005
 20
775.75
 11
-292.78323350000005
 21
780.75
  0
ARC
  8
_0-0_0
  6
CONTINUOUS
 62
    7
 10
-292.28323350000005
 20
775.75
 40
0.5
 50
179.99999099999999
 51
269.99999700000001
  0
LINE
  8
_0-0_0
  6
CONTINUOUS
 62
    7
 10
-292.28323350000005
 20
775.25
 11
-289.78323350000005
 21
775.25
  0
ARC
  8
_0-0_0
  6
CONTINUOUS
 62
    7
 10
-289.78323350000005
 20
775.75
 40
0.5
 50
269.99999700000001
 51
0
  0
LINE
  8
_0-0_0
  6
CONTINUOUS
 62
    7
 10
-273.78323350000005
 20
775.75
 11
-273.68322750000016
 21
775.75
  0
LINE
  8
_0-0_0
  6
CONTINUOUS
 62
    7
 10
-273.68322750000016
 20
775.75
 11
-273.68322750000016
 21
776.25
  0
LINE
  8
_0-0_0
  6
CONTINUOUS
 62
    7
 10
-273.68322750000016
 20
780.25
 11
-273.68322750000016
 21
776.25
  0
LINE
  8
_0-0_0
  6
CONTINUOUS
 62
    7
 10
-273.78323350000005
 20
780.75
 11
-273.68322750000016
 21
780.75
  0
LINE
  8
_0-0_0
  6
CONTINUOUS
 62
    7
 10
-273.68322750000016
 20
780.25
 11
-273.68322750000016
 21
780.75
  0
LINE
  8
_0-0_0
  6
CONTINUOUS
 62
    7
 10
-273.58322150000004
 20
776.25
 11
-273.58322150000004
 21
776.38034100000004
  0
LINE
  8
_0-0_0
  6
CONTINUOUS
 62
    7
 10
-273.58322150000004
 20
779.88034100000004
 11
-273.58322150000004
 21
776.38034100000004
  0
LINE
  8
_0-0_0
  6
CONTINUOUS
 62
    7
 10
-273.68322750000016
 20
780.14999399999999
 11
-273.58322150000004
 21
780.14999399999999
  0
LINE
  8
_0-0_0
  6
CONTINUOUS
 62
    7
 10
-273.58322150000004
 20
779.88034100000004
 11
-273.58322150000004
 21
780.14999399999999
  0
LINE
  8
_0-0_0
  6
CONTINUOUS
 62
    7
 10
-273.68322750000016
 20
776.25
 11
-273.58322150000004
 21
776.25
  0
LINE
  8
_0-0_0
  6
CONTINUOUS
 62
    7
 10
-273.68322750000016
 20
776.25
 11
-273.58322150000004
 21
776.25
  0
LINE
  8
_0-0_0
  6
CONTINUOUS
 62
    7
 10
-292.08322150000004
 20
773.25
 11
-287.88320950000002
 21
773.25
  0
LINE
  8
_0-0_0
  6
CONTINUOUS
 62
    7
 10
-276.28323350000005
 20
773.25
 11
-278.68322750000016
 21
773.25
  0
LINE
  8
_0-0_0
  6
CONTINUOUS
 62
    7
 10
-276.28323350000005
 20
773.25
 11
-275.08322150000004
 21
773.25
  0
ARC
  8
_0-0_0
  6
CONTINUOUS
 62
    7
 10
-275.08322150000004
 20
772.75
 40
0.5
 50
0
 51
90.000003000000007
  0
ARC
  8
_0-0_0
  6
CONTINUOUS
 62
    7
 10
-276.28323350000005
 20
772.75
 40
0.5
 50
90.000003000000007
 51
179.99999099999999
  0
ARC
  8
_0-0_0
  6
CONTINUOUS
 62
    7
 10
-278.68322750000016
 20
773.75
 40
0.5
 50
179.99999099999999
 51
269.99999700000001
  0
ARC
  8
_0-0_0
  6
CONTINUOUS
 62
    7
 10
-287.88320950000002
 20
773.75
 40
0.5
 50
269.99999700000001
 51
0
  0
ARC
  8
_0-0_0
  6
CONTINUOUS
 62
    7
 10
-292.08322150000004
 20
772.75
 40
0.5
 50
90.000003000000007
 51
179.99999099999999
  0
LINE
  8
_0-0_0
  6
CONTINUOUS
 62
    7
 10
-291.08322150000004
 20
773.75
 11
-291.08322150000004
 21
773.25
  0
ARC
  8
_0-0_0
  6
CONTINUOUS
 62
    7
 10
-290.58322150000004
 20
773.75
 40
0.5
 50
90.000003000000007
 51
179.99999099999999
  0
LINE
  8
_0-0_0
  6
CONTINUOUS
 62
    7
 10
-289.08322150000004
 20
774.25
 11
-290.58322150000004
 21
774.25
  0
ARC
  8
_0-0_0
  6
CONTINUOUS
 62
    7
 10
-289.08322150000004
 20
775.25
 40
1
 50
269.99999700000001
 51
0
  0
LINE
  8
_0-0_0
  6
CONTINUOUS
 62
    7
 10
-288.08322150000004
 20
775.75
 11
-288.08322150000004
 21
775.25
  0
LINE
  8
_0-0_0
  6
CONTINUOUS
 62
    7
 10
-287.58322150000004
 20
775.75
 11
-287.58322150000004
 21
774.75
  0
ARC
  8
_0-0_0
  6
CONTINUOUS
 62
    7
 10
-289.08322150000004
 20
774.75
 40
1.5
 50
269.99999700000001
 51
0
  0
ARC
  8
_0-0_0
  6
CONTINUOUS
 62
    7
 10
-277.48321549999991
 20
774.75
 40
1.5
 50
179.99999099999999
 51
269.99999700000001
  0
LINE
  8
_0-0_0
  6
CONTINUOUS
 62
    7
 10
-275.48321549999991
 20
773.75
 11
-275.48321549999991
 21
773.25
  0
ARC
  8
_0-0_0
  6
CONTINUOUS
 62
    7
 10
-275.98321549999991
 20
773.75
 40
0.5
 50
0
 51
90.000003000000007
  0
LINE
  8
_0-0_0
  6
CONTINUOUS
 62
    7
 10
-277.48321549999991
 20
774.25
 11
-275.98321549999991
 21
774.25
  0
ARC
  8
_0-0_0
  6
CONTINUOUS
 62
    7
 10
-277.48321549999991
 20
775.25
 40
1
 50
179.99999099999999
 51
269.99999700000001
  0
LINE
  8
_0-0_0
  6
CONTINUOUS
 62
    7
 10
-278.48321549999991
 20
775.75
 11
-278.48321549999991
 21
775.25
  0
LINE
  8
_0-0_0
  6
CONTINUOUS
 62
    7
 10
-278.98321549999991
 20
775.75
 11
-278.98321549999991
 21
774.75
  0
LINE
  8
_0-0_0
  6
CONTINUOUS
 62
    7
 10
-274.58322150000004
 20
746.25
 11
-274.58322150000004
 21
747.14999399999999
  0
LINE
  8
_0-0_0
  6
CONTINUOUS
 62
    7
 10
-274.58322150000004
 20
747.14999399999999
 11
-274.58322150000004
 21
749.64999399999999
  0
LINE
  8
_0-0_0
  6
CONTINUOUS
 62
    7
 10
-274.58322150000004
 20
749.64999399999999
 11
-274.58322150000004
 21
770.25
  0
LINE
  8
_0-0_0
  6
CONTINUOUS
 62
    7
 10
-274.58322150000004
 20
770.25
 11
-274.58322150000004
 21
772.75
  0
LINE
  8
_0-0_0
  6
CONTINUOUS
 62
    7
 10
-276.78323350000005
 20
772.75
 11
-276.78323350000005
 21
771.50497399999995
  0
LINE
  8
_0-0_0
  6
CONTINUOUS
 62
    7
 10
-279.18322750000016
 20
773.75
 11
-279.18322750000016
 21
775.54998799999998
  0
ARC
  8
_0-0_0
  6
CONTINUOUS
 62
    7
 10
-279.68322750000016
 20
775.54998799999998
 40
0.5
 50
0
 51
23.579369
  0
LINE
  8
_0-0_0
  6
CONTINUOUS
 62
    7
 10
-287.38320950000002
 20
773.75
 11
-287.38320950000002
 21
775.54998799999998
  0
ARC
  8
_0-0_0
  6
CONTINUOUS
 62
    7
 10
-286.88320950000002
 20
775.54998799999998
 40
0.5
 50
156.420635
 51
179.99999099999999
  0
LINE
  8
_0-0_0
  6
CONTINUOUS
 62
    7
 10
-292.58322150000004
 20
746.25
 11
-292.58322150000004
 21
756.44998199999998
  0
LINE
  8
_0-0_0
  6
CONTINUOUS
 62
    7
 10
-292.58322150000004
 20
756.44998199999998
 11
-292.58322150000004
 21
757.44998199999998
  0
LINE
  8
_0-0_0
  6
CONTINUOUS
 62
    7
 10
-292.58322150000004
 20
757.44998199999998
 11
-292.58322150000004
 21
762.44998199999998
  0
LINE
  8
_0-0_0
  6
CONTINUOUS
 62
    7
 10
-292.58322150000004
 20
762.44998199999998
 11
-292.58322150000004
 21
763.44998199999998
  0
LINE
  8
_0-0_0
  6
CONTINUOUS
 62
    7
 10
-292.58322150000004
 20
772.75
 11
-292.58322150000004
 21
763.44998199999998
  0
LINE
  8
_0-0_0
  6
CONTINUOUS
 62
    7
 10
-273.78323350000005
 20
771.75
 11
-274.58322150000004
 21
771.75
  0
LINE
  8
_0-0_0
  6
CONTINUOUS
 62
    7
 10
-273.78323350000005
 20
772.54998799999998
 11
-274.58322150000004
 21
772.54998799999998
  0
LINE
  8
_0-0_0
  6
CONTINUOUS
 62
    7
 10
-273.78323350000005
 20
771.54998799999998
 11
-273.78323350000005
 21
772.54998799999998
  0
LINE
  8
_0-0_0
  6
CONTINUOUS
 62
    7
 10
-273.78323350000005
 20
752.94998199999998
 11
-274.58322150000004
 21
752.94998199999998
  0
LINE
  8
_0-0_0
  6
CONTINUOUS
 62
    7
 10
-273.78323350000005
 20
752.94998199999998
 11
-273.78323350000005
 21
755.94998199999998
  0
LINE
  8
_0-0_0
  6
CONTINUOUS
 62
    7
 10
-273.78323350000005
 20
768.18768299999999
 11
-273.78323350000005
 21
755.94998199999998
  0
LINE
  8
_0-0_0
  6
CONTINUOUS
 62
    7
 10
-273.78323350000005
 20
768.18768299999999
 11
-273.78323350000005
 21
769.15045199999997
  0
LINE
  8
_0-0_0
  6
CONTINUOUS
 62
    7
 10
-274.58322150000004
 20
769.15045199999997
 11
-274.58322150000004
 21
771.75
  0
ARC
  8
_0-0_0
  6
CONTINUOUS
 62
    7
 10
-280.19815050000011
 20
768.43203700000004
 40
5.7120379999999997
 50
18.558475999999999
 51
26.433648000000002
  0
ARC
  8
_0-0_0
  6
CONTINUOUS
 62
    7
 10
-274.78323350000005
 20
770.25
 40
0.2
 50
269.99999700000001
 51
0
  0
ARC
  8
_0-0_0
  6
CONTINUOUS
 62
    7
 10
-274.78323350000005
 20
749.64999399999999
 40
0.2
 50
0
 51
90.000003000000007
  0
ARC
  8
_0-0_0
  6
CONTINUOUS
 62
    7
 10
-280.19802849999996
 20
751.46801800000003
 40
5.711964
 50
333.565022
 51
341.44031000000001
  0
ARC
  8
_0-0_0
  6
CONTINUOUS
 62
    7
 10
-275.08322150000004
 20
747.14999399999999
 40
0.5
 50
269.99999700000001
 51
0
  0
LINE
  8
_0-0_0
  6
CONTINUOUS
 62
    7
 10
-275.08322150000004
 20
746.25
 11
-274.58322150000004
 21
746.25
  0
LINE
  8
_0-0_0
  6
CONTINUOUS
 62
    7
 10
-274.58322150000004
 20
746.25
 11
-275.08322150000004
 21
745.75
  0
ARC
  8
_0-0_0
  6
CONTINUOUS
 62
    7
 10
-276.78323350000005
 20
768.75
 40
2.2999999999999998
 50
34.417387999999995
 51
79.713437000000013
  0
LINE
  8
_0-0_0
  6
CONTINUOUS
 62
    7
 10
-274.8445435000001
 20
770.04998799999998
 11
-274.88586450000003
 21
770.04998799999998
  0
LINE
  8
_0-0_0
  6
CONTINUOUS
 62
    7
 10
-274.8445435000001
 20
770.04998799999998
 11
-274.83499150000011
 21
770.05102499999998
  0
LINE
  8
_0-0_0
  6
CONTINUOUS
 62
    7
 10
-274.83499150000011
 20
770.05102499999998
 11
-274.82547049999994
 21
770.05419899999993
  0
LINE
  8
_0-0_0
  6
CONTINUOUS
 62
    7
 10
-274.82547049999994
 20
770.05419899999993
 11
-274.81622349999998
 21
770.05960099999993
  0
LINE
  8
_0-0_0
  6
CONTINUOUS
 62
    7
 10
-274.81622349999998
 20
770.05960099999993
 11
-274.8074345
 21
770.06710799999996
  0
LINE
  8
_0-0_0
  6
CONTINUOUS
 62
    7
 10
-274.8074345
 20
770.06710799999996
 11
-274.79202250000003
 21
770.08776899999998
  0
LINE
  8
_0-0_0
  6
CONTINUOUS
 62
    7
 10
-274.79202250000003
 20
770.08776899999998
 11
-274.7802435000001
 21
770.11502100000007
  0
LINE
  8
_0-0_0
  6
CONTINUOUS
 62
    7
 10
-274.7802435000001
 20
770.11502100000007
 11
-274.77307150000001
 21
770.147156
  0
LINE
  8
_0-0_0
  6
CONTINUOUS
 62
    7
 10
-274.77307150000001
 20
770.147156
 11
-274.77117950000002
 21
770.18221999999992
  0
LINE
  8
_0-0_0
  6
CONTINUOUS
 62
    7
 10
-274.77117950000002
 20
770.18221999999992
 11
-274.77502449999997
 21
770.21838400000001
  0
LINE
  8
_0-0_0
  6
CONTINUOUS
 62
    7
 10
-274.77502449999997
 20
770.21838400000001
 11
-274.78323350000005
 21
770.25
  0
ARC
  8
_0-0_0
  6
CONTINUOUS
 62
    7
 10
-276.28323350000005
 20
771.50497399999995
 40
0.5
 50
179.99999099999999
 51
259.71343899999994
  0
LINE
  8
_0-0_0
  6
CONTINUOUS
 62
    7
 10
-291.78323350000005
 20
768.75
 11
-291.78323350000005
 21
755.14999399999999
  0
LINE
  8
_0-0_0
  6
CONTINUOUS
 62
    7
 10
-291.78323350000005
 20
754.64999399999999
 11
-291.78323350000005
 21
755.14999399999999
  0
LINE
  8
_0-0_0
  6
CONTINUOUS
 62
    7
 10
-291.78323350000005
 20
751.64999399999999
 11
-291.78323350000005
 21
754.64999399999999
  0
LINE
  8
_0-0_0
  6
CONTINUOUS
 62
    7
 10
-291.78323350000005
 20
751.14999399999999
 11
-291.78323350000005
 21
751.64999399999999
  0
ARC
  8
_0-0_0
  6
CONTINUOUS
 62
    7
 10
-289.78323350000005
 20
768.75
 40
2
 50
93.840255999999997
 51
179.99999099999999
  0
LINE
  8
_0-0_0
  6
CONTINUOUS
 62
    7
 10
-289.78323350000005
 20
770.75
 11
-280.78323350000005
 21
770.75
  0
LINE
  8
_0-0_0
  6
CONTINUOUS
 62
    7
 10
-276.78323350000005
 20
770.75
 11
-277.28323350000005
 21
770.75
  0
LINE
  8
_0-0_0
  6
CONTINUOUS
 62
    7
 10
-277.28323350000005
 20
770.75
 11
-280.28323350000005
 21
770.75
  0
LINE
  8
_0-0_0
  6
CONTINUOUS
 62
    7
 10
-280.78323350000005
 20
770.75
 11
-280.28323350000005
 21
770.75
  0
ARC
  8
_0-0_0
  6
CONTINUOUS
 62
    7
 10
-276.78323350000005
 20
768.75
 40
2
 50
0
 51
90.000003000000007
  0
LINE
  8
_0-0_0
  6
CONTINUOUS
 62
    7
 10
-292.78323350000005
 20
771.75
 11
-292.58322150000004
 21
771.75
  0
LINE
  8
_0-0_0
  6
CONTINUOUS
 62
    7
 10
-292.78323350000005
 20
772.54998799999998
 11
-292.58322150000004
 21
772.54998799999998
  0
LINE
  8
_0-0_0
  6
CONTINUOUS
 62
    7
 10
-292.78323350000005
 20
772.54998799999998
 11
-292.78323350000005
 21
771.75012199999992
  0
LINE
  8
_0-0_0
  6
CONTINUOUS
 62
    7
 10
-292.78323350000005
 20
752.94998199999998
 11
-292.58322150000004
 21
752.94998199999998
  0
LINE
  8
_0-0_0
  6
CONTINUOUS
 62
    7
 10
-292.78323350000005
 20
755.94998199999998
 11
-292.78323350000005
 21
752.94998199999998
  0
LINE
  8
_0-0_0
  6
CONTINUOUS
 62
    7
 10
-292.78323350000005
 20
768.18768299999999
 11
-292.78323350000005
 21
755.94998199999998
  0
LINE
  8
_0-0_0
  6
CONTINUOUS
 62
    7
 10
-292.78323350000005
 20
769.15045199999997
 11
-292.78323350000005
 21
768.18768299999999
  0
ARC
  8
_0-0_0
  6
CONTINUOUS
 62
    7
 10
-292.08322150000004
 20
762.44998199999998
 40
0.5
 50
90.000003000000007
 51
179.99999099999999
  0
ARC
  8
_0-0_0
  6
CONTINUOUS
 62
    7
 10
-292.08322150000004
 20
757.44998199999998
 40
0.5
 50
179.99999099999999
 51
269.99999700000001
  0
LINE
  8
_0-0_0
  6
CONTINUOUS
 62
    7
 10
-292.58322150000004
 20
746.25
 11
-292.08322150000004
 21
746.25
  0
LINE
  8
_0-0_0
  6
CONTINUOUS
 62
    7
 10
-292.58322150000004
 20
746.25
 11
-292.08322150000004
 21
745.75
  0
LINE
  8
_0-0_0
  6
CONTINUOUS
 62
    7
 10
-274.58322150000004
 20
752.95001200000002
 11
-274.58322150000004
 21
751.79998799999998
  0
ARC
  8
_0-0_0
  6
CONTINUOUS
 62
    7
 10
-276.98321549999991
 20
751.79998799999998
 40
2.3999999999999999
 50
359.58604600000001
 51
0.0000099999999787
  0
LINE
  8
_0-0_0
  6
CONTINUOUS
 62
    7
 10
-273.78323350000005
 20
769.15045199999997
 11
-273.78323350000005
 21
771.75
  0
LINE
  8
_0-0_0
  6
CONTINUOUS
 62
    7
 10
-274.78323350000005
 20
770.04998799999998
 11
-274.8445435000001
 21
770.04998799999998
  0
LINE
  8
_0-0_0
  6
CONTINUOUS
 62
    7
 10
-274.88586450000003
 20
770.04998799999998
 11
-274.88806150000005
 21
770.04998799999998
  0
LINE
  8
_0-0_0
  6
CONTINUOUS
 62
    7
 10
-275.08322150000004
 20
746.25
 11
-292.08322150000004
 21
746.25
  0
LINE
  8
_0-0_0
  6
CONTINUOUS
 62
    7
 10
-275.01974450000012
 20
750.04998799999998
 11
-274.98281850000012
 21
749.97976700000004
  0
LINE
  8
_0-0_0
  6
CONTINUOUS
 62
    7
 10
-274.98281850000012
 20
749.97976700000004
 11
-274.96322650000002
 21
749.94528200000002
  0
LINE
  8
_0-0_0
  6
CONTINUOUS
 62
    7
 10
-274.96322650000002
 20
749.94528200000002
 11
-274.93713350000007
 21
749.90344200000004
  0
LINE
  8
_0-0_0
  6
CONTINUOUS
 62
    7
 10
-274.93713350000007
 20
749.90344200000004
 11
-274.92382850000013
 21
749.88439900000003
  0
LINE
  8
_0-0_0
  6
CONTINUOUS
 62
    7
 10
-274.92382850000013
 20
749.88439900000003
 11
-274.90545650000013
 21
749.86200000000008
  0
LINE
  8
_0-0_0
  6
CONTINUOUS
 62
    7
 10
-274.90545650000013
 20
749.86200000000008
 11
-274.89266950000001
 21
749.85137899999995
  0
LINE
  8
_0-0_0
  6
CONTINUOUS
 62
    7
 10
-274.89266950000001
 20
749.85137899999995
 11
-274.88806150000005
 21
749.84997599999997
  0
LINE
  8
_0-0_0
  6
CONTINUOUS
 62
    7
 10
-274.88586450000003
 20
749.84997599999997
 11
-274.88806150000005
 21
749.84997599999997
  0
LINE
  8
_0-0_0
  6
CONTINUOUS
 62
    7
 10
-275.01974450000012
 20
769.84997599999997
 11
-274.98281850000012
 21
769.92022700000007
  0
LINE
  8
_0-0_0
  6
CONTINUOUS
 62
    7
 10
-274.98281850000012
 20
769.92022700000007
 11
-274.96322650000002
 21
769.95468099999994
  0
LINE
  8
_0-0_0
  6
CONTINUOUS
 62
    7
 10
-274.96322650000002
 20
769.95468099999994
 11
-274.93713350000007
 21
769.99652100000003
  0
LINE
  8
_0-0_0
  6
CONTINUOUS
 62
    7
 10
-274.93713350000007
 20
769.99652100000003
 11
-274.92382850000013
 21
770.01556400000004
  0
LINE
  8
_0-0_0
  6
CONTINUOUS
 62
    7
 10
-274.92382850000013
 20
770.01556400000004
 11
-274.90545650000013
 21
770.03796399999999
  0
LINE
  8
_0-0_0
  6
CONTINUOUS
 62
    7
 10
-274.90545650000013
 20
770.03796399999999
 11
-274.89266950000001
 21
770.04858400000001
  0
LINE
  8
_0-0_0
  6
CONTINUOUS
 62
    7
 10
-274.89266950000001
 20
770.04858400000001
 11
-274.88806150000005
 21
770.04998799999998
  0
LINE
  8
_0-0_0
  6
CONTINUOUS
 62
    7
 10
-274.88586450000003
 20
749.84997599999997
 11
-274.8445435000001
 21
749.84997599999997
  0
LINE
  8
_0-0_0
  6
CONTINUOUS
 62
    7
 10
-274.78323350000005
 20
749.84997599999997
 11
-274.8445435000001
 21
749.84997599999997
  0
LINE
  8
_0-0_0
  6
CONTINUOUS
 62
    7
 10
-274.8445435000001
 20
749.84997599999997
 11
-274.83496149999996
 21
749.84893799999998
  0
LINE
  8
_0-0_0
  6
CONTINUOUS
 62
    7
 10
-274.83496149999996
 20
749.84893799999998
 11
-274.82547049999994
 21
749.84576399999992
  0
LINE
  8
_0-0_0
  6
CONTINUOUS
 62
    7
 10
-274.82547049999994
 20
749.84576399999992
 11
-274.81622349999998
 21
749.84036300000002
  0
LINE
  8
_0-0_0
  6
CONTINUOUS
 62
    7
 10
-274.81622349999998
 20
749.84036300000002
 11
-274.8074345
 21
749.832855
  0
LINE
  8
_0-0_0
  6
CONTINUOUS
 62
    7
 10
-274.8074345
 20
749.832855
 11
-274.79202250000003
 21
749.81222500000001
  0
LINE
  8
_0-0_0
  6
CONTINUOUS
 62
    7
 10
-274.79202250000003
 20
749.81222500000001
 11
-274.7802435000001
 21
749.784943
  0
LINE
  8
_0-0_0
  6
CONTINUOUS
 62
    7
 10
-274.7802435000001
 20
749.784943
 11
-274.77307150000001
 21
749.75280799999996
  0
LINE
  8
_0-0_0
  6
CONTINUOUS
 62
    7
 10
-274.77307150000001
 20
749.75280799999996
 11
-274.77117950000002
 21
749.71774299999993
  0
LINE
  8
_0-0_0
  6
CONTINUOUS
 62
    7
 10
-274.77117950000002
 20
749.71774299999993
 11
-274.77502449999997
 21
749.68157999999994
  0
LINE
  8
_0-0_0
  6
CONTINUOUS
 62
    7
 10
-274.77502449999997
 20
749.68157999999994
 11
-274.78323350000005
 21
749.64999399999999
  0
ARC
  8
_0-0_0
  6
CONTINUOUS
 62
    7
 10
-276.78323350000005
 20
751.14999399999999
 40
2.2999999999999998
 50
280.28656300000006
 51
325.58260500000006
  0
LINE
  8
_0-0_0
  6
CONTINUOUS
 62
    7
 10
-275.08322150000004
 20
746.64999399999999
 11
-276.28323350000005
 21
746.64999399999999
  0
LINE
  8
_0-0_0
  6
CONTINUOUS
 62
    7
 10
-275.08322150000004
 20
745.75
 11
-292.08322150000004
 21
745.75
  0
LINE
  8
_0-0_0
  6
CONTINUOUS
 62
    7
 10
-291.78323350000005
 20
762.94998199999998
 11
-292.08322150000004
 21
762.94998199999998
  0
ARC
  8
_0-0_0
  6
CONTINUOUS
 62
    7
 10
-291.28323350000005
 20
755.14999399999999
 40
0.5
 50
179.99999099999999
 51
269.99999700000001
  0
CIRCLE
  8
_0-0_0
  6
CONTINUOUS
 62
    7
 10
-289.28323350000005
 20
751.64999399999999
 40
2.5
  0
LINE
  8
_0-0_0
  6
CONTINUOUS
 62
    7
 10
-286.28323350000005
 20
749.14999399999999
 11
-289.28323350000005
 21
749.14999399999999
  0
LINE
  8
_0-0_0
  6
CONTINUOUS
 62
    7
 10
-285.78323350000005
 20
749.14999399999999
 11
-286.28323350000005
 21
749.14999399999999
  0
ARC
  8
_0-0_0
  6
CONTINUOUS
 62
    7
 10
-289.78323350000005
 20
751.14999399999999
 40
2
 50
179.99999099999999
 51
269.99999700000001
  0
LINE
  8
_0-0_0
  6
CONTINUOUS
 62
    7
 10
-289.28323350000005
 20
749.14999399999999
 11
-289.78323350000005
 21
749.14999399999999
  0
LINE
  8
_0-0_0
  6
CONTINUOUS
 62
    7
 10
-289.78323350000005
 20
770.64733899999999
 11
-289.79910250000012
 21
770.67459099999996
  0
LINE
  8
_0-0_0
  6
CONTINUOUS
 62
    7
 10
-289.79910250000012
 20
770.67459099999996
 11
-289.81494150000003
 21
770.69757099999993
  0
LINE
  8
_0-0_0
  6
CONTINUOUS
 62
    7
 10
-289.81494150000003
 20
770.69757099999993
 11
-289.8289185000001
 21
770.71432499999992
  0
LINE
  8
_0-0_0
  6
CONTINUOUS
 62
    7
 10
-289.8289185000001
 20
770.71432499999992
 11
-289.84283449999998
 21
770.72766100000001
  0
LINE
  8
_0-0_0
  6
CONTINUOUS
 62
    7
 10
-289.84283449999998
 20
770.72766100000001
 11
-289.85504149999997
 21
770.73660300000006
  0
LINE
  8
_0-0_0
  6
CONTINUOUS
 62
    7
 10
-289.85504149999997
 20
770.73660300000006
 11
-289.86715750000008
 21
770.74279799999999
  0
LINE
  8
_0-0_0
  6
CONTINUOUS
 62
    7
 10
-289.86715750000008
 20
770.74279799999999
 11
-289.87802150000016
 21
770.74609400000008
  0
LINE
  8
_0-0_0
  6
CONTINUOUS
 62
    7
 10
-289.87802150000016
 20
770.74609400000008
 11
-289.88879450000013
 21
770.74713100000008
  0
LINE
  8
_0-0_0
  6
CONTINUOUS
 62
    7
 10
-289.88879450000013
 20
770.74713100000008
 11
-289.89123549999999
 21
770.74707000000001
  0
LINE
  8
_0-0_0
  6
CONTINUOUS
 62
    7
 10
-274.78323350000005
 20
768.25
 11
-274.78323350000005
 21
768.75
  0
CIRCLE
  8
_0-0_0
  6
CONTINUOUS
 62
    7
 10
-277.28323350000005
 20
768.25
 40
2.5
  0
LINE
  8
_0-0_0
  6
CONTINUOUS
 62
    7
 10
-274.78323350000005
 20
765.25
 11
-274.78323350000005
 21
764.75
  0
LINE
  8
_0-0_0
  6
CONTINUOUS
 62
    7
 10
-274.78323350000005
 20
765.25
 11
-274.78323350000005
 21
768.25
  0
ARC
  8
_0-0_0
  6
CONTINUOUS
 62
    7
 10
-280.78323350000005
 20
770.25
 40
0.5
 50
0
 51
90.000003000000007
  0
LINE
  8
_0-0_0
  6
CONTINUOUS
 62
    7
 10
-274.78323350000005
 20
751.14999399999999
 11
-274.78323350000005
 21
764.75
  0
LINE
  8
_0-0_0
  6
CONTINUOUS
 62
    7
 10
-292.78323350000005
 20
771.75
 11
-292.78323350000005
 21
769.15045199999997
  0
LINE
  8
_0-0_0
  6
CONTINUOUS
 62
    7
 10
-292.08322150000004
 20
756.94998199999998
 11
-291.78323350000005
 21
756.94998199999998
  0
LINE
  8
_0-0_0
  6
CONTINUOUS
 62
    7
 10
-274.58322150000004
 20
772.55004899999994
 11
-274.58322150000004
 21
772.75
  0
ARC
  8
_0-0_0
  6
CONTINUOUS
 62
    7
 10
-276.78323350000005
 20
751.14999399999999
 40
2
 50
273.84026500000004
 51
0.000010000000014
  0
LINE
  8
_0-0_0
  6
CONTINUOUS
 62
    7
 10
-276.78323350000005
 20
749.14999399999999
 11
-285.78323350000005
 21
749.14999399999999
  0
ARC
  8
_0-0_0
  6
CONTINUOUS
 62
    7
 10
-276.28323350000005
 20
748.39498900000001
 40
0.5
 50
100.28656100000001
 51
179.99999099999999
  0
LINE
  8
_0-0_0
  6
CONTINUOUS
 62
    7
 10
-276.78323350000005
 20
747.14999399999999
 11
-276.78323350000005
 21
748.39498900000001
  0
ARC
  8
_0-0_0
  6
CONTINUOUS
 62
    7
 10
-276.28323350000005
 20
747.14999399999999
 40
0.5
 50
179.99999099999999
 51
269.99999700000001
  0
LINE
  8
_0-0_0
  6
CONTINUOUS
 62
    7
 10
-291.20623750000004
 20
754.64999399999999
 11
-291.28323350000005
 21
754.64999399999999
  0
LINE
  8
_0-0_0
  6
CONTINUOUS
 62
    7
 10
-289.28323350000005
 20
754.64999399999999
 11
-289.76470949999998
 21
754.64999399999999
  0
LINE
  8
_0-0_0
  6
CONTINUOUS
 62
    7
 10
-289.76470949999998
 20
754.64999399999999
 11
-291.20623750000004
 21
754.64999399999999
  0
LINE
  8
_0-0_0
  6
CONTINUOUS
 62
    7
 10
-286.28323350000005
 20
749.64999399999999
 11
-286.28323350000005
 21
749.72695900000008
  0
LINE
  8
_0-0_0
  6
CONTINUOUS
 62
    7
 10
-286.28323350000005
 20
751.16848800000002
 11
-286.28323350000005
 21
749.72695900000008
  0
LINE
  8
_0-0_0
  6
CONTINUOUS
 62
    7
 10
-286.28323350000005
 20
751.16848800000002
 11
-286.28323350000005
 21
751.64999399999999
  0
ARC
  8
_0-0_0
  6
CONTINUOUS
 62
    7
 10
-289.28323350000005
 20
751.64999399999999
 40
3
 50
0
 51
89.999995999999996
  0
ARC
  8
_0-0_0
  6
CONTINUOUS
 62
    7
 10
-285.78323350000005
 20
749.64999399999999
 40
0.5
 50
179.99999099999999
 51
269.99999700000001
  0
LINE
  8
_0-0_0
  6
CONTINUOUS
 62
    7
 10
-280.28323350000005
 20
770.17300399999999
 11
-280.28323350000005
 21
770.25
  0
LINE
  8
_0-0_0
  6
CONTINUOUS
 62
    7
 10
-280.28323350000005
 20
768.73147599999993
 11
-280.28323350000005
 21
770.17300399999999
  0
LINE
  8
_0-0_0
  6
CONTINUOUS
 62
    7
 10
-280.28323350000005
 20
768.25
 11
-280.28323350000005
 21
768.73147599999993
  0
ARC
  8
_0-0_0
  6
CONTINUOUS
 62
    7
 10
-277.28323350000005
 20
768.25
 40
3
 50
179.99999099999999
 51
269.99999700000001
  0
LINE
  8
_0-0_0
  6
CONTINUOUS
 62
    7
 10
-276.80172749999997
 20
765.25
 11
-277.28323350000005
 21
765.25
  0
LINE
  8
_0-0_0
  6
CONTINUOUS
 62
    7
 10
-276.80172749999997
 20
765.25
 11
-275.36019949999991
 21
765.25
  0
LINE
  8
_0-0_0
  6
CONTINUOUS
 62
    7
 10
-275.28323350000005
 20
765.25
 11
-275.36019949999991
 21
765.25
  0
ARC
  8
_0-0_0
  6
CONTINUOUS
 62
    7
 10
-275.28323350000005
 20
764.75
 40
0.5
 50
0
 51
90.000003000000007
  0
LINE
  8
_0-0_0
  6
CONTINUOUS
 62
    7
 10
-276.78323350000005
 20
749.25262500000008
 11
-276.76733450000006
 21
749.22537199999999
  0
LINE
  8
_0-0_0
  6
CONTINUOUS
 62
    7
 10
-276.76733450000006
 20
749.22537199999999
 11
-276.75149550000015
 21
749.20239300000003
  0
LINE
  8
_0-0_0
  6
CONTINUOUS
 62
    7
 10
-276.75149550000015
 20
749.20239300000003
 11
-276.73751850000008
 21
749.18563799999993
  0
LINE
  8
_0-0_0
  6
CONTINUOUS
 62
    7
 10
-276.73751850000008
 20
749.18563799999993
 11
-276.72360249999997
 21
749.17230199999995
  0
LINE
  8
_0-0_0
  6
CONTINUOUS
 62
    7
 10
-276.72360249999997
 20
749.17230199999995
 11
-276.71139549999998
 21
749.16339100000005
  0
LINE
  8
_0-0_0
  6
CONTINUOUS
 62
    7
 10
-276.71139549999998
 20
749.16339100000005
 11
-276.6992795000001
 21
749.15716599999996
  0
LINE
  8
_0-0_0
  6
CONTINUOUS
 62
    7
 10
-276.6992795000001
 20
749.15716599999996
 11
-276.68841550000002
 21
749.15390000000002
  0
LINE
  8
_0-0_0
  6
CONTINUOUS
 62
    7
 10
-276.68841550000002
 20
749.15390000000002
 11
-276.67764250000005
 21
749.15283199999999
  0
LINE
  8
_0-0_0
  6
CONTINUOUS
 62
    7
 10
-276.67764250000005
 20
749.15283199999999
 11
-276.67520149999996
 21
749.15289299999995
  0
ARC
  8
_0-0_0
  6
CONTINUOUS
 62
    7
 10
-286.51333650000015
 20
758.77673299999992
 40
3.063399
 50
199.82113599999997
 51
205.28948099999999
  0
ARC
  8
_0-0_0
  6
CONTINUOUS
 62
    7
 10
-286.51364150000018
 20
761.12335200000007
 40
3.0630549999999999
 50
154.710137
 51
160.17869999999999
  0
ARC
  8
_0-0_0
  6
CONTINUOUS
 62
    7
 10
-283.28323350000005
 20
759.94998199999998
 40
6.5
 50
160.10415599999999
 51
199.895612
  0
ARC
  8
_0-0_0
  6
CONTINUOUS
 62
    7
 10
-280.05310050000003
 20
761.12322999999992
 40
3.0633949999999999
 50
19.82113
 51
25.289566000000001
  0
ARC
  8
_0-0_0
  6
CONTINUOUS
 62
    7
 10
-280.0527955
 20
758.776611
 40
3.0630519999999999
 50
334.71006
 51
340.17869200000001
  0
LINE
  8
_0-0_0
  6
CONTINUOUS
 62
    7
 10
-282.54153450000013
 20
753.44998199999998
 11
-278.02490250000005
 21
756.05767800000001
  0
LINE
  8
_0-0_0
  6
CONTINUOUS
 62
    7
 10
-284.02490250000005
 20
753.44998199999998
 11
-282.54153450000013
 21
753.44998199999998
  0
LINE
  8
_0-0_0
  6
CONTINUOUS
 62
    7
 10
-288.54153450000013
 20
756.05767800000001
 11
-284.02490250000005
 21
753.44998199999998
  0
LINE
  8
_0-0_0
  6
CONTINUOUS
 62
    7
 10
-289.28323350000005
 20
762.55767800000001
 11
-289.28323350000005
 21
757.34228499999995
  0
LINE
  8
_0-0_0
  6
CONTINUOUS
 62
    7
 10
-288.54153450000013
 20
756.05767800000001
 11
-289.28323350000005
 21
757.34228499999995
  0
LINE
  8
_0-0_0
  6
CONTINUOUS
 62
    7
 10
-284.02490250000005
 20
766.44998199999998
 11
-288.54153450000013
 21
763.84228499999995
  0
LINE
  8
_0-0_0
  6
CONTINUOUS
 62
    7
 10
-288.83566250000013
 20
763.332855
 11
-289.28323350000005
 21
762.55767800000001
  0
LINE
  8
_0-0_0
  6
CONTINUOUS
 62
    7
 10
-288.83566250000013
 20
763.332855
 11
-288.54153450000013
 21
763.84228499999995
  0
LINE
  8
_0-0_0
  6
CONTINUOUS
 62
    7
 10
-282.54153450000013
 20
766.44998199999998
 11
-284.02490250000005
 21
766.44998199999998
  0
LINE
  8
_0-0_0
  6
CONTINUOUS
 62
    7
 10
-278.02490250000005
 20
763.84228499999995
 11
-282.54153450000013
 21
766.44998199999998
  0
ARC
  8
_0-0_0
  6
CONTINUOUS
 62
    7
 10
-283.28323350000005
 20
759.94998199999998
 40
6.5
 50
340.10416099999998
 51
19.895609999999952
  0
LINE
  8
_0-0_0
  6
CONTINUOUS
 62
    7
 10
-277.73077450000005
 20
756.56710799999996
 11
-277.28323350000005
 21
757.34228499999995
  0
LINE
  8
_0-0_0
  6
CONTINUOUS
 62
    7
 10
-277.73077450000005
 20
756.56710799999996
 11
-278.02490250000005
 21
756.05767800000001
  0
CIRCLE
  8
_0-0_0
  6
CONTINUOUS
 62
    7
 10
-283.28323350000005
 20
759.94998199999998
 40
5.25
  0
LINE
  8
_0-0_0
  6
CONTINUOUS
 62
    7
 10
-277.28323350000005
 20
762.55767800000001
 11
-277.28323350000005
 21
757.34228499999995
  0
LINE
  8
_0-0_0
  6
CONTINUOUS
 62
    7
 10
-278.02490250000005
 20
763.84228499999995
 11
-277.28323350000005
 21
762.55767800000001
  0
LINE
  8
_0-0_0
  6
CONTINUOUS
 62
    7
 10
-275.39620950000017
 20
769.47543300000007
 11
-275.11816450000015
 21
769.5
  0
LINE
  8
_0-0_0
  6
CONTINUOUS
 62
    7
 10
-275.27844249999998
 20
769.27145399999995
 11
-275.11816450000015
 21
769.5
  0
LINE
  8
_0-0_0
  6
CONTINUOUS
 62
    7
 10
-275.53463749999992
 20
769.66595499999994
 11
-275.26068149999992
 21
769.71945200000005
  0
LINE
  8
_0-0_0
  6
CONTINUOUS
 62
    7
 10
-275.39620950000017
 20
769.47543300000007
 11
-275.26068149999992
 21
769.71945200000005
  0
LINE
  8
_0-0_0
  6
CONTINUOUS
 62
    7
 10
-275.69223050000005
 20
769.84097300000008
 11
-275.42535450000014
 21
769.922821
  0
LINE
  8
_0-0_0
  6
CONTINUOUS
 62
    7
 10
-275.53463749999992
 20
769.66595499999994
 11
-275.42535450000014
 21
769.922821
  0
LINE
  8
_0-0_0
  6
CONTINUOUS
 62
    7
 10
-275.86724849999996
 20
769.99856599999998
 11
-275.61038250000001
 21
770.10784899999999
  0
LINE
  8
_0-0_0
  6
CONTINUOUS
 62
    7
 10
-275.69223050000005
 20
769.84097300000008
 11
-275.61038250000001
 21
770.10784899999999
  0
LINE
  8
_0-0_0
  6
CONTINUOUS
 62
    7
 10
-276.05776950000018
 20
770.13699300000007
 11
-275.81375150000008
 21
770.27252199999998
  0
LINE
  8
_0-0_0
  6
CONTINUOUS
 62
    7
 10
-275.86724849999996
 20
769.99856599999998
 11
-275.81375150000008
 21
770.27252199999998
  0
LINE
  8
_0-0_0
  6
CONTINUOUS
 62
    7
 10
-276.26174949999995
 20
770.25476099999992
 11
-276.03323350000005
 21
770.41503899999998
  0
LINE
  8
_0-0_0
  6
CONTINUOUS
 62
    7
 10
-276.05776950000018
 20
770.13699300000007
 11
-276.03323350000005
 21
770.41503899999998
  0
LINE
  8
_0-0_0
  6
CONTINUOUS
 62
    7
 10
-276.47689850000006
 20
770.35052500000006
 11
-276.26638850000018
 21
770.53384400000004
  0
LINE
  8
_0-0_0
  6
CONTINUOUS
 62
    7
 10
-276.26174949999995
 20
770.25476099999992
 11
-276.26638850000018
 21
770.53384400000004
  0
LINE
  8
_0-0_0
  6
CONTINUOUS
 62
    7
 10
-276.70086650000007
 20
770.42330900000002
 11
-276.51068149999992
 21
770.62762500000008
  0
LINE
  8
_0-0_0
  6
CONTINUOUS
 62
    7
 10
-276.47689850000006
 20
770.35052500000006
 11
-276.51068149999992
 21
770.62762500000008
  0
LINE
  8
_0-0_0
  6
CONTINUOUS
 62
    7
 10
-276.93124450000005
 20
770.47228999999993
 11
-276.76342750000003
 21
770.69534299999998
  0
LINE
  8
_0-0_0
  6
CONTINUOUS
 62
    7
 10
-276.70086650000007
 20
770.42330900000002
 11
-276.76342750000003
 21
770.69534299999998
  0
LINE
  8
_0-0_0
  6
CONTINUOUS
 62
    7
 10
-277.16546650000009
 20
770.49688700000002
 11
-277.02188150000006
 21
770.73629800000003
  0
LINE
  8
_0-0_0
  6
CONTINUOUS
 62
    7
 10
-276.93124450000005
 20
770.47228999999993
 11
-277.02188150000006
 21
770.73629800000003
  0
LINE
  8
_0-0_0
  6
CONTINUOUS
 62
    7
 10
-277.40097050000008
 20
770.49688700000002
 11
-277.28323350000005
 21
770.75
  0
LINE
  8
_0-0_0
  6
CONTINUOUS
 62
    7
 10
-277.16546650000009
 20
770.49688700000002
 11
-277.28323350000005
 21
770.75
  0
LINE
  8
_0-0_0
  6
CONTINUOUS
 62
    7
 10
-277.6351924999999
 20
770.47228999999993
 11
-277.54452549999996
 21
770.73629800000003
  0
LINE
  8
_0-0_0
  6
CONTINUOUS
 62
    7
 10
-277.40097050000008
 20
770.49688700000002
 11
-277.54452549999996
 21
770.73629800000003
  0
LINE
  8
_0-0_0
  6
CONTINUOUS
 62
    7
 10
-277.8655705000001
 20
770.42330900000002
 11
-277.80300949999992
 21
770.69534299999998
  0
LINE
  8
_0-0_0
  6
CONTINUOUS
 62
    7
 10
-277.6351924999999
 20
770.47228999999993
 11
-277.80300949999992
 21
770.69534299999998
  0
LINE
  8
_0-0_0
  6
CONTINUOUS
 62
    7
 10
-278.08953850000012
 20
770.35052500000006
 11
-278.05575550000003
 21
770.62762500000008
  0
LINE
  8
_0-0_0
  6
CONTINUOUS
 62
    7
 10
-277.8655705000001
 20
770.42330900000002
 11
-278.05575550000003
 21
770.62762500000008
  0
LINE
  8
_0-0_0
  6
CONTINUOUS
 62
    7
 10
-278.3046875
 20
770.25476099999992
 11
-278.3000485
 21
770.53384400000004
  0
LINE
  8
_0-0_0
  6
CONTINUOUS
 62
    7
 10
-278.08953850000012
 20
770.35052500000006
 11
-278.3000485
 21
770.53384400000004
  0
LINE
  8
_0-0_0
  6
CONTINUOUS
 62
    7
 10
-278.42422450000004
 20
770.33859299999995
 11
-278.53323350000005
 21
770.41503899999998
  0
LINE
  8
_0-0_0
  6
CONTINUOUS
 62
    7
 10
-278.3046875
 20
770.25476099999992
 11
-278.42422450000004
 21
770.33859299999995
  0
LINE
  8
_0-0_0
  6
CONTINUOUS
 62
    7
 10
-278.5086675
 20
770.13699300000007
 11
-278.53323350000005
 21
770.41503899999998
  0
LINE
  8
_0-0_0
  6
CONTINUOUS
 62
    7
 10
-278.69918849999999
 20
769.99856599999998
 11
-278.7526855000001
 21
770.27252199999998
  0
LINE
  8
_0-0_0
  6
CONTINUOUS
 62
    7
 10
-278.5086675
 20
770.13699300000007
 11
-278.7526855000001
 21
770.27252199999998
  0
LINE
  8
_0-0_0
  6
CONTINUOUS
 62
    7
 10
-278.87420650000013
 20
769.84097300000008
 11
-278.95605449999994
 21
770.10784899999999
  0
LINE
  8
_0-0_0
  6
CONTINUOUS
 62
    7
 10
-278.69918849999999
 20
769.99856599999998
 11
-278.95605449999994
 21
770.10784899999999
  0
LINE
  8
_0-0_0
  6
CONTINUOUS
 62
    7
 10
-279.03179950000003
 20
769.66595499999994
 11
-279.14108250000004
 21
769.922821
  0
LINE
  8
_0-0_0
  6
CONTINUOUS
 62
    7
 10
-278.87420650000013
 20
769.84097300000008
 11
-279.14108250000004
 21
769.922821
  0
LINE
  8
_0-0_0
  6
CONTINUOUS
 62
    7
 10
-279.17022750000001
 20
769.47543300000007
 11
-279.30575550000003
 21
769.71945200000005
  0
LINE
  8
_0-0_0
  6
CONTINUOUS
 62
    7
 10
-279.03179950000003
 20
769.66595499999994
 11
-279.30575550000003
 21
769.71945200000005
  0
LINE
  8
_0-0_0
  6
CONTINUOUS
 62
    7
 10
-279.28799449999997
 20
769.27145399999995
 11
-279.44827250000003
 21
769.5
  0
LINE
  8
_0-0_0
  6
CONTINUOUS
 62
    7
 10
-279.17022750000001
 20
769.47543300000007
 11
-279.44827250000003
 21
769.5
  0
LINE
  8
_0-0_0
  6
CONTINUOUS
 62
    7
 10
-279.38375850000011
 20
769.05630500000007
 11
-279.5670775000001
 21
769.26681499999995
  0
LINE
  8
_0-0_0
  6
CONTINUOUS
 62
    7
 10
-279.28799449999997
 20
769.27145399999995
 11
-279.5670775000001
 21
769.26681499999995
  0
LINE
  8
_0-0_0
  6
CONTINUOUS
 62
    7
 10
-279.45654349999995
 20
768.83233599999994
 11
-279.6608584999999
 21
769.02252199999998
  0
LINE
  8
_0-0_0
  6
CONTINUOUS
 62
    7
 10
-279.38375850000011
 20
769.05630500000007
 11
-279.6608584999999
 21
769.02252199999998
  0
LINE
  8
_0-0_0
  6
CONTINUOUS
 62
    7
 10
-279.50552349999998
 20
768.60195900000008
 11
-279.72857650000014
 21
768.76977499999998
  0
LINE
  8
_0-0_0
  6
CONTINUOUS
 62
    7
 10
-279.45654349999995
 20
768.83233599999994
 11
-279.72857650000014
 21
768.76977499999998
  0
LINE
  8
_0-0_0
  6
CONTINUOUS
 62
    7
 10
-279.50552349999998
 20
768.60195900000008
 11
-279.76953150000008
 21
768.51129200000003
  0
LINE
  8
_0-0_0
  6
CONTINUOUS
 62
    7
 10
-279.53012050000007
 20
768.36773700000003
 11
-279.76953150000008
 21
768.51129200000003
  0
LINE
  8
_0-0_0
  6
CONTINUOUS
 62
    7
 10
-279.53012050000007
 20
768.13223300000004
 11
-279.78323350000005
 21
768.25
  0
LINE
  8
_0-0_0
  6
CONTINUOUS
 62
    7
 10
-279.53012050000007
 20
768.36773700000003
 11
-279.78323350000005
 21
768.25
  0
LINE
  8
_0-0_0
  6
CONTINUOUS
 62
    7
 10
-279.50552349999998
 20
767.89801
 11
-279.76953150000008
 21
767.98864700000001
  0
LINE
  8
_0-0_0
  6
CONTINUOUS
 62
    7
 10
-279.53012050000007
 20
768.13223300000004
 11
-279.76953150000008
 21
767.98864700000001
  0
LINE
  8
_0-0_0
  6
CONTINUOUS
 62
    7
 10
-279.45654349999995
 20
767.66763300000002
 11
-279.72857650000014
 21
767.73019399999998
  0
LINE
  8
_0-0_0
  6
CONTINUOUS
 62
    7
 10
-279.50552349999998
 20
767.89801
 11
-279.72857650000014
 21
767.73019399999998
  0
LINE
  8
_0-0_0
  6
CONTINUOUS
 62
    7
 10
-279.38375850000011
 20
767.44366500000001
 11
-279.6608584999999
 21
767.47744799999998
  0
LINE
  8
_0-0_0
  6
CONTINUOUS
 62
    7
 10
-279.45654349999995
 20
767.66763300000002
 11
-279.6608584999999
 21
767.47744799999998
  0
LINE
  8
_0-0_0
  6
CONTINUOUS
 62
    7
 10
-279.28799449999997
 20
767.22851600000001
 11
-279.5670775000001
 21
767.23315400000001
  0
LINE
  8
_0-0_0
  6
CONTINUOUS
 62
    7
 10
-279.38375850000011
 20
767.44366500000001
 11
-279.5670775000001
 21
767.23315400000001
  0
LINE
  8
_0-0_0
  6
CONTINUOUS
 62
    7
 10
-279.17022750000001
 20
767.02453600000001
 11
-279.44827250000003
 21
767
  0
LINE
  8
_0-0_0
  6
CONTINUOUS
 62
    7
 10
-279.28799449999997
 20
767.22851600000001
 11
-279.44827250000003
 21
767
  0
LINE
  8
_0-0_0
  6
CONTINUOUS
 62
    7
 10
-279.03179950000003
 20
766.83401500000002
 11
-279.30575550000003
 21
766.78051800000003
  0
LINE
  8
_0-0_0
  6
CONTINUOUS
 62
    7
 10
-279.17022750000001
 20
767.02453600000001
 11
-279.30575550000003
 21
766.78051800000003
  0
LINE
  8
_0-0_0
  6
CONTINUOUS
 62
    7
 10
-278.87420650000013
 20
766.658997
 11
-279.14108250000004
 21
766.57714800000008
  0
LINE
  8
_0-0_0
  6
CONTINUOUS
 62
    7
 10
-279.03179950000003
 20
766.83401500000002
 11
-279.14108250000004
 21
766.57714800000008
  0
LINE
  8
_0-0_0
  6
CONTINUOUS
 62
    7
 10
-278.69918849999999
 20
766.50140399999998
 11
-278.95605449999994
 21
766.39211999999998
  0
LINE
  8
_0-0_0
  6
CONTINUOUS
 62
    7
 10
-278.87420650000013
 20
766.658997
 11
-278.95605449999994
 21
766.39211999999998
  0
LINE
  8
_0-0_0
  6
CONTINUOUS
 62
    7
 10
-278.5086675
 20
766.362976
 11
-278.7526855000001
 21
766.22744799999998
  0
LINE
  8
_0-0_0
  6
CONTINUOUS
 62
    7
 10
-278.69918849999999
 20
766.50140399999998
 11
-278.7526855000001
 21
766.22744799999998
  0
LINE
  8
_0-0_0
  6
CONTINUOUS
 62
    7
 10
-278.3046875
 20
766.24520899999993
 11
-278.53323350000005
 21
766.08492999999999
  0
LINE
  8
_0-0_0
  6
CONTINUOUS
 62
    7
 10
-278.5086675
 20
766.362976
 11
-278.53323350000005
 21
766.08492999999999
  0
LINE
  8
_0-0_0
  6
CONTINUOUS
 62
    7
 10
-278.08953850000012
 20
766.14941399999998
 11
-278.3000485
 21
765.96612499999992
  0
LINE
  8
_0-0_0
  6
CONTINUOUS
 62
    7
 10
-278.3046875
 20
766.24520899999993
 11
-278.3000485
 21
765.96612499999992
  0
LINE
  8
_0-0_0
  6
CONTINUOUS
 62
    7
 10
-277.8655705000001
 20
766.07665999999995
 11
-278.05575550000003
 21
765.872345
  0
LINE
  8
_0-0_0
  6
CONTINUOUS
 62
    7
 10
-278.08953850000012
 20
766.14941399999998
 11
-278.05575550000003
 21
765.872345
  0
LINE
  8
_0-0_0
  6
CONTINUOUS
 62
    7
 10
-277.6351924999999
 20
766.02767900000003
 11
-277.80300949999992
 21
765.80462599999998
  0
LINE
  8
_0-0_0
  6
CONTINUOUS
 62
    7
 10
-277.8655705000001
 20
766.07665999999995
 11
-277.80300949999992
 21
765.80462599999998
  0
LINE
  8
_0-0_0
  6
CONTINUOUS
 62
    7
 10
-277.40097050000008
 20
766.00305200000003
 11
-277.54452549999996
 21
765.76367200000004
  0
LINE
  8
_0-0_0
  6
CONTINUOUS
 62
    7
 10
-277.6351924999999
 20
766.02767900000003
 11
-277.54452549999996
 21
765.76367200000004
  0
LINE
  8
_0-0_0
  6
CONTINUOUS
 62
    7
 10
-277.16546650000009
 20
766.00305200000003
 11
-277.28323350000005
 21
765.75
  0
LINE
  8
_0-0_0
  6
CONTINUOUS
 62
    7
 10
-277.40097050000008
 20
766.00305200000003
 11
-277.28323350000005
 21
765.75
  0
LINE
  8
_0-0_0
  6
CONTINUOUS
 62
    7
 10
-276.93124450000005
 20
766.02767900000003
 11
-277.02188150000006
 21
765.76367200000004
  0
LINE
  8
_0-0_0
  6
CONTINUOUS
 62
    7
 10
-277.16546650000009
 20
766.00305200000003
 11
-277.02188150000006
 21
765.76367200000004
  0
LINE
  8
_0-0_0
  6
CONTINUOUS
 62
    7
 10
-276.70086650000007
 20
766.07665999999995
 11
-276.76342750000003
 21
765.80462599999998
  0
LINE
  8
_0-0_0
  6
CONTINUOUS
 62
    7
 10
-276.93124450000005
 20
766.02767900000003
 11
-276.76342750000003
 21
765.80462599999998
  0
LINE
  8
_0-0_0
  6
CONTINUOUS
 62
    7
 10
-276.47689850000006
 20
766.14941399999998
 11
-276.51068149999992
 21
765.872345
  0
LINE
  8
_0-0_0
  6
CONTINUOUS
 62
    7
 10
-276.70086650000007
 20
766.07665999999995
 11
-276.51068149999992
 21
765.872345
  0
LINE
  8
_0-0_0
  6
CONTINUOUS
 62
    7
 10
-276.26174949999995
 20
766.24520899999993
 11
-276.26638850000018
 21
765.96612499999992
  0
LINE
  8
_0-0_0
  6
CONTINUOUS
 62
    7
 10
-276.47689850000006
 20
766.14941399999998
 11
-276.26638850000018
 21
765.96612499999992
  0
LINE
  8
_0-0_0
  6
CONTINUOUS
 62
    7
 10
-276.14221249999991
 20
766.16137700000002
 11
-276.03323350000005
 21
766.08492999999999
  0
LINE
  8
_0-0_0
  6
CONTINUOUS
 62
    7
 10
-276.26174949999995
 20
766.24520899999993
 11
-276.14221249999991
 21
766.16137700000002
  0
LINE
  8
_0-0_0
  6
CONTINUOUS
 62
    7
 10
-276.05776950000018
 20
766.362976
 11
-276.03323350000005
 21
766.08492999999999
  0
LINE
  8
_0-0_0
  6
CONTINUOUS
 62
    7
 10
-275.86724849999996
 20
766.50140399999998
 11
-275.81375150000008
 21
766.22744799999998
  0
LINE
  8
_0-0_0
  6
CONTINUOUS
 62
    7
 10
-276.05776950000018
 20
766.362976
 11
-275.81375150000008
 21
766.22744799999998
  0
LINE
  8
_0-0_0
  6
CONTINUOUS
 62
    7
 10
-275.69223050000005
 20
766.658997
 11
-275.61038250000001
 21
766.39211999999998
  0
LINE
  8
_0-0_0
  6
CONTINUOUS
 62
    7
 10
-275.86724849999996
 20
766.50140399999998
 11
-275.61038250000001
 21
766.39211999999998
  0
LINE
  8
_0-0_0
  6
CONTINUOUS
 62
    7
 10
-275.53463749999992
 20
766.83401500000002
 11
-275.42535450000014
 21
766.57714800000008
  0
LINE
  8
_0-0_0
  6
CONTINUOUS
 62
    7
 10
-275.69223050000005
 20
766.658997
 11
-275.42535450000014
 21
766.57714800000008
  0
LINE
  8
_0-0_0
  6
CONTINUOUS
 62
    7
 10
-275.39620950000017
 20
767.02453600000001
 11
-275.26068149999992
 21
766.78051800000003
  0
LINE
  8
_0-0_0
  6
CONTINUOUS
 62
    7
 10
-275.53463749999992
 20
766.83401500000002
 11
-275.26068149999992
 21
766.78051800000003
  0
LINE
  8
_0-0_0
  6
CONTINUOUS
 62
    7
 10
-275.27844249999998
 20
767.22851600000001
 11
-275.11816450000015
 21
767
  0
LINE
  8
_0-0_0
  6
CONTINUOUS
 62
    7
 10
-275.39620950000017
 20
767.02453600000001
 11
-275.11816450000015
 21
767
  0
LINE
  8
_0-0_0
  6
CONTINUOUS
 62
    7
 10
-275.18264750000003
 20
767.44366500000001
 11
-274.99935950000008
 21
767.23315400000001
  0
LINE
  8
_0-0_0
  6
CONTINUOUS
 62
    7
 10
-275.27844249999998
 20
767.22851600000001
 11
-274.99935950000008
 21
767.23315400000001
  0
LINE
  8
_0-0_0
  6
CONTINUOUS
 62
    7
 10
-275.1098935
 20
767.66763300000002
 11
-274.90557850000005
 21
767.47744799999998
  0
LINE
  8
_0-0_0
  6
CONTINUOUS
 62
    7
 10
-275.18264750000003
 20
767.44366500000001
 11
-274.90557850000005
 21
767.47744799999998
  0
LINE
  8
_0-0_0
  6
CONTINUOUS
 62
    7
 10
-275.06091349999997
 20
767.89801
 11
-274.83786050000003
 21
767.73019399999998
  0
LINE
  8
_0-0_0
  6
CONTINUOUS
 62
    7
 10
-275.1098935
 20
767.66763300000002
 11
-274.83786050000003
 21
767.73019399999998
  0
LINE
  8
_0-0_0
  6
CONTINUOUS
 62
    7
 10
-275.03631650000011
 20
768.13223300000004
 11
-274.79690550000009
 21
767.98864700000001
  0
LINE
  8
_0-0_0
  6
CONTINUOUS
 62
    7
 10
-275.06091349999997
 20
767.89801
 11
-274.79690550000009
 21
767.98864700000001
  0
LINE
  8
_0-0_0
  6
CONTINUOUS
 62
    7
 10
-275.03631650000011
 20
768.36773700000003
 11
-274.78323350000005
 21
768.25
  0
LINE
  8
_0-0_0
  6
CONTINUOUS
 62
    7
 10
-275.03631650000011
 20
768.13223300000004
 11
-274.78323350000005
 21
768.25
  0
LINE
  8
_0-0_0
  6
CONTINUOUS
 62
    7
 10
-275.06091349999997
 20
768.60195900000008
 11
-274.79690550000009
 21
768.51129200000003
  0
LINE
  8
_0-0_0
  6
CONTINUOUS
 62
    7
 10
-275.03631650000011
 20
768.36773700000003
 11
-274.79690550000009
 21
768.51129200000003
  0
LINE
  8
_0-0_0
  6
CONTINUOUS
 62
    7
 10
-275.1098935
 20
768.83233599999994
 11
-274.83786050000003
 21
768.76977499999998
  0
LINE
  8
_0-0_0
  6
CONTINUOUS
 62
    7
 10
-275.06091349999997
 20
768.60195900000008
 11
-274.83786050000003
 21
768.76977499999998
  0
LINE
  8
_0-0_0
  6
CONTINUOUS
 62
    7
 10
-275.18264750000003
 20
769.05630500000007
 11
-274.90557850000005
 21
769.02252199999998
  0
LINE
  8
_0-0_0
  6
CONTINUOUS
 62
    7
 10
-275.1098935
 20
768.83233599999994
 11
-274.90557850000005
 21
769.02252199999998
  0
LINE
  8
_0-0_0
  6
CONTINUOUS
 62
    7
 10
-275.27844249999998
 20
769.27145399999995
 11
-274.99935950000008
 21
769.26681499999995
  0
LINE
  8
_0-0_0
  6
CONTINUOUS
 62
    7
 10
-275.18264750000003
 20
769.05630500000007
 11
-274.99935950000008
 21
769.26681499999995
  0
CIRCLE
  8
_0-0_0
  6
CONTINUOUS
 62
    7
 10
-277.28323350000005
 20
768.25
 40
2
  0
CIRCLE
  8
_0-0_0
  6
CONTINUOUS
 62
    7
 10
-283.28323350000005
 20
759.94998199999998
 40
5
  0
LINE
  8
_0-0_0
  6
CONTINUOUS
 62
    7
 10
-276.70111050000014
 20
767.25
 11
-277.86532650000004
 21
767.25
  0
LINE
  8
_0-0_0
  6
CONTINUOUS
 62
    7
 10
-277.86532650000004
 20
767.25
 11
-278.43322750000016
 21
768.25
  0
LINE
  8
_0-0_0
  6
CONTINUOUS
 62
    7
 10
-278.43322750000016
 20
768.25
 11
-277.86532650000004
 21
769.25
  0
LINE
  8
_0-0_0
  6
CONTINUOUS
 62
    7
 10
-277.86532650000004
 20
769.25
 11
-276.70111050000014
 21
769.25
  0
LINE
  8
_0-0_0
  6
CONTINUOUS
 62
    7
 10
-276.70111050000014
 20
769.25
 11
-276.13320950000002
 21
768.25
  0
LINE
  8
_0-0_0
  6
CONTINUOUS
 62
    7
 10
-276.13320950000002
 20
768.25
 11
-276.70111050000014
 21
767.25
  0
CIRCLE
  8
_0-0_0
  6
CONTINUOUS
 62
    7
 10
-283.28323350000005
 20
759.94998199999998
 40
4.5381200000000002
  0
CIRCLE
  8
_0-0_0
  6
CONTINUOUS
 62
    7
 10
-283.28323350000005
 20
759.94998199999998
 40
4
  0
LINE
  8
_0-0_0
  6
CONTINUOUS
 62
    7
 10
-291.17022750000001
 20
750.42453
 11
-291.44827250000003
 21
750.39999399999999
  0
LINE
  8
_0-0_0
  6
CONTINUOUS
 62
    7
 10
-291.28799449999997
 20
750.62851000000001
 11
-291.44827250000003
 21
750.39999399999999
  0
LINE
  8
_0-0_0
  6
CONTINUOUS
 62
    7
 10
-291.03179950000003
 20
750.23400900000001
 11
-291.30575550000003
 21
750.18051100000002
  0
LINE
  8
_0-0_0
  6
CONTINUOUS
 62
    7
 10
-291.17022750000001
 20
750.42453
 11
-291.30575550000003
 21
750.18051100000002
  0
LINE
  8
_0-0_0
  6
CONTINUOUS
 62
    7
 10
-290.87420650000013
 20
750.05898999999999
 11
-291.14108250000004
 21
749.97717299999999
  0
LINE
  8
_0-0_0
  6
CONTINUOUS
 62
    7
 10
-291.03179950000003
 20
750.23400900000001
 11
-291.14108250000004
 21
749.97717299999999
  0
LINE
  8
_0-0_0
  6
CONTINUOUS
 62
    7
 10
-290.69918849999999
 20
749.90139799999997
 11
-290.95605449999994
 21
749.79211400000008
  0
LINE
  8
_0-0_0
  6
CONTINUOUS
 62
    7
 10
-290.87420650000013
 20
750.05898999999999
 11
-290.95605449999994
 21
749.79211400000008
  0
LINE
  8
_0-0_0
  6
CONTINUOUS
 62
    7
 10
-290.5086675
 20
749.76297
 11
-290.7526855000001
 21
749.62744099999998
  0
LINE
  8
_0-0_0
  6
CONTINUOUS
 62
    7
 10
-290.69918849999999
 20
749.90139799999997
 11
-290.7526855000001
 21
749.62744099999998
  0
LINE
  8
_0-0_0
  6
CONTINUOUS
 62
    7
 10
-290.3046875
 20
749.64520300000004
 11
-290.53323350000005
 21
749.48492399999998
  0
LINE
  8
_0-0_0
  6
CONTINUOUS
 62
    7
 10
-290.5086675
 20
749.76297
 11
-290.53323350000005
 21
749.48492399999998
  0
LINE
  8
_0-0_0
  6
CONTINUOUS
 62
    7
 10
-290.08953850000012
 20
749.54943800000001
 11
-290.3000485
 21
749.36611900000003
  0
LINE
  8
_0-0_0
  6
CONTINUOUS
 62
    7
 10
-290.3046875
 20
749.64520300000004
 11
-290.3000485
 21
749.36611900000003
  0
LINE
  8
_0-0_0
  6
CONTINUOUS
 62
    7
 10
-289.8655705000001
 20
749.47665400000005
 11
-290.05575550000003
 21
749.27233899999999
  0
LINE
  8
_0-0_0
  6
CONTINUOUS
 62
    7
 10
-290.08953850000012
 20
749.54943800000001
 11
-290.05575550000003
 21
749.27233899999999
  0
LINE
  8
_0-0_0
  6
CONTINUOUS
 62
    7
 10
-289.6351924999999
 20
749.42770399999995
 11
-289.80300949999992
 21
749.20461999999998
  0
LINE
  8
_0-0_0
  6
CONTINUOUS
 62
    7
 10
-289.8655705000001
 20
749.47665400000005
 11
-289.80300949999992
 21
749.20461999999998
  0
LINE
  8
_0-0_0
  6
CONTINUOUS
 62
    7
 10
-289.40097050000008
 20
749.40307600000006
 11
-289.54452549999996
 21
749.16369600000007
  0
LINE
  8
_0-0_0
  6
CONTINUOUS
 62
    7
 10
-289.6351924999999
 20
749.42770399999995
 11
-289.54452549999996
 21
749.16369600000007
  0
LINE
  8
_0-0_0
  6
CONTINUOUS
 62
    7
 10
-289.16546650000009
 20
749.40307600000006
 11
-289.28323350000005
 21
749.14999399999999
  0
LINE
  8
_0-0_0
  6
CONTINUOUS
 62
    7
 10
-289.40097050000008
 20
749.40307600000006
 11
-289.28323350000005
 21
749.14999399999999
  0
LINE
  8
_0-0_0
  6
CONTINUOUS
 62
    7
 10
-288.93124450000005
 20
749.42770399999995
 11
-289.02191149999999
 21
749.16369600000007
  0
LINE
  8
_0-0_0
  6
CONTINUOUS
 62
    7
 10
-289.16546650000009
 20
749.40307600000006
 11
-289.02191149999999
 21
749.16369600000007
  0
LINE
  8
_0-0_0
  6
CONTINUOUS
 62
    7
 10
-288.70086650000007
 20
749.47665400000005
 11
-288.76342750000003
 21
749.20461999999998
  0
LINE
  8
_0-0_0
  6
CONTINUOUS
 62
    7
 10
-288.93124450000005
 20
749.42770399999995
 11
-288.76342750000003
 21
749.20461999999998
  0
LINE
  8
_0-0_0
  6
CONTINUOUS
 62
    7
 10
-288.47689850000006
 20
749.54943800000001
 11
-288.51068149999992
 21
749.27233899999999
  0
LINE
  8
_0-0_0
  6
CONTINUOUS
 62
    7
 10
-288.70086650000007
 20
749.47665400000005
 11
-288.51068149999992
 21
749.27233899999999
  0
LINE
  8
_0-0_0
  6
CONTINUOUS
 62
    7
 10
-288.26174949999995
 20
749.64520300000004
 11
-288.26638850000018
 21
749.36611900000003
  0
LINE
  8
_0-0_0
  6
CONTINUOUS
 62
    7
 10
-288.47689850000006
 20
749.54943800000001
 11
-288.26638850000018
 21
749.36611900000003
  0
LINE
  8
_0-0_0
  6
CONTINUOUS
 62
    7
 10
-288.14221249999991
 20
749.56137100000001
 11
-288.03323350000005
 21
749.48492399999998
  0
LINE
  8
_0-0_0
  6
CONTINUOUS
 62
    7
 10
-288.26174949999995
 20
749.64520300000004
 11
-288.14221249999991
 21
749.56137100000001
  0
LINE
  8
_0-0_0
  6
CONTINUOUS
 62
    7
 10
-288.05776950000018
 20
749.76297
 11
-288.03323350000005
 21
749.48492399999998
  0
LINE
  8
_0-0_0
  6
CONTINUOUS
 62
    7
 10
-287.86724849999996
 20
749.90139799999997
 11
-287.81375150000008
 21
749.62744099999998
  0
LINE
  8
_0-0_0
  6
CONTINUOUS
 62
    7
 10
-288.05776950000018
 20
749.76297
 11
-287.81375150000008
 21
749.62744099999998
  0
LINE
  8
_0-0_0
  6
CONTINUOUS
 62
    7
 10
-287.69223050000005
 20
750.05898999999999
 11
-287.61038250000001
 21
749.79211400000008
  0
LINE
  8
_0-0_0
  6
CONTINUOUS
 62
    7
 10
-287.86724849999996
 20
749.90139799999997
 11
-287.61038250000001
 21
749.79211400000008
  0
LINE
  8
_0-0_0
  6
CONTINUOUS
 62
    7
 10
-287.53463749999992
 20
750.23400900000001
 11
-287.42535450000014
 21
749.97717299999999
  0
LINE
  8
_0-0_0
  6
CONTINUOUS
 62
    7
 10
-287.69223050000005
 20
750.05898999999999
 11
-287.42535450000014
 21
749.97717299999999
  0
LINE
  8
_0-0_0
  6
CONTINUOUS
 62
    7
 10
-287.39620950000017
 20
750.42453
 11
-287.26068149999992
 21
750.18051100000002
  0
LINE
  8
_0-0_0
  6
CONTINUOUS
 62
    7
 10
-287.53463749999992
 20
750.23400900000001
 11
-287.26068149999992
 21
750.18051100000002
  0
LINE
  8
_0-0_0
  6
CONTINUOUS
 62
    7
 10
-287.27844249999998
 20
750.62851000000001
 11
-287.11816450000015
 21
750.39999399999999
  0
LINE
  8
_0-0_0
  6
CONTINUOUS
 62
    7
 10
-287.39620950000017
 20
750.42453
 11
-287.11816450000015
 21
750.39999399999999
  0
LINE
  8
_0-0_0
  6
CONTINUOUS
 62
    7
 10
-287.18264750000003
 20
750.843658
 11
-286.99935950000008
 21
750.63314800000001
  0
LINE
  8
_0-0_0
  6
CONTINUOUS
 62
    7
 10
-287.27844249999998
 20
750.62851000000001
 11
-286.99935950000008
 21
750.63314800000001
  0
LINE
  8
_0-0_0
  6
CONTINUOUS
 62
    7
 10
-287.1098935
 20
751.06762700000002
 11
-286.90557850000005
 21
750.87744099999998
  0
LINE
  8
_0-0_0
  6
CONTINUOUS
 62
    7
 10
-287.18264750000003
 20
750.843658
 11
-286.90557850000005
 21
750.87744099999998
  0
LINE
  8
_0-0_0
  6
CONTINUOUS
 62
    7
 10
-287.06091349999997
 20
751.29800399999999
 11
-286.83786050000003
 21
751.13018799999998
  0
LINE
  8
_0-0_0
  6
CONTINUOUS
 62
    7
 10
-287.1098935
 20
751.06762700000002
 11
-286.83786050000003
 21
751.13018799999998
  0
LINE
  8
_0-0_0
  6
CONTINUOUS
 62
    7
 10
-287.03631650000011
 20
751.53222699999992
 11
-286.79690550000009
 21
751.38867200000004
  0
LINE
  8
_0-0_0
  6
CONTINUOUS
 62
    7
 10
-287.06091349999997
 20
751.29800399999999
 11
-286.79690550000009
 21
751.38867200000004
  0
LINE
  8
_0-0_0
  6
CONTINUOUS
 62
    7
 10
-287.03631650000011
 20
751.76773100000003
 11
-286.78323350000005
 21
751.64999399999999
  0
LINE
  8
_0-0_0
  6
CONTINUOUS
 62
    7
 10
-287.03631650000011
 20
751.53222699999992
 11
-286.78323350000005
 21
751.64999399999999
  0
LINE
  8
_0-0_0
  6
CONTINUOUS
 62
    7
 10
-287.06091349999997
 20
752.00195299999996
 11
-286.79690550000009
 21
751.91131599999994
  0
LINE
  8
_0-0_0
  6
CONTINUOUS
 62
    7
 10
-287.03631650000011
 20
751.76773100000003
 11
-286.79690550000009
 21
751.91131599999994
  0
LINE
  8
_0-0_0
  6
CONTINUOUS
 62
    7
 10
-287.1098935
 20
752.23233000000005
 11
-286.83786050000003
 21
752.16976899999997
  0
LINE
  8
_0-0_0
  6
CONTINUOUS
 62
    7
 10
-287.06091349999997
 20
752.00195299999996
 11
-286.83786050000003
 21
752.16976899999997
  0
LINE
  8
_0-0_0
  6
CONTINUOUS
 62
    7
 10
-287.18264750000003
 20
752.45629899999994
 11
-286.90557850000005
 21
752.42251599999997
  0
LINE
  8
_0-0_0
  6
CONTINUOUS
 62
    7
 10
-287.1098935
 20
752.23233000000005
 11
-286.90557850000005
 21
752.42251599999997
  0
LINE
  8
_0-0_0
  6
CONTINUOUS
 62
    7
 10
-287.27844249999998
 20
752.67144800000005
 11
-286.99935950000008
 21
752.66680900000006
  0
LINE
  8
_0-0_0
  6
CONTINUOUS
 62
    7
 10
-287.18264750000003
 20
752.45629899999994
 11
-286.99935950000008
 21
752.66680900000006
  0
LINE
  8
_0-0_0
  6
CONTINUOUS
 62
    7
 10
-287.39620950000017
 20
752.87542699999995
 11
-287.11816450000015
 21
752.89999399999999
  0
LINE
  8
_0-0_0
  6
CONTINUOUS
 62
    7
 10
-287.27844249999998
 20
752.67144800000005
 11
-287.11816450000015
 21
752.89999399999999
  0
LINE
  8
_0-0_0
  6
CONTINUOUS
 62
    7
 10
-290.69918849999999
 20
753.39855999999997
 11
-290.7526855000001
 21
753.67251599999997
  0
LINE
  8
_0-0_0
  6
CONTINUOUS
 62
    7
 10
-290.69918849999999
 20
753.39855999999997
 11
-290.95605449999994
 21
753.50784299999998
  0
LINE
  8
_0-0_0
  6
CONTINUOUS
 62
    7
 10
-290.87420650000013
 20
753.24096699999996
 11
-290.95605449999994
 21
753.50784299999998
  0
LINE
  8
_0-0_0
  6
CONTINUOUS
 62
    7
 10
-290.87420650000013
 20
753.24096699999996
 11
-291.14108250000004
 21
753.32281499999999
  0
LINE
  8
_0-0_0
  6
CONTINUOUS
 62
    7
 10
-291.03179950000003
 20
753.06594799999993
 11
-291.14108250000004
 21
753.32281499999999
  0
LINE
  8
_0-0_0
  6
CONTINUOUS
 62
    7
 10
-291.03179950000003
 20
753.06594799999993
 11
-291.30575550000003
 21
753.11944599999993
  0
LINE
  8
_0-0_0
  6
CONTINUOUS
 62
    7
 10
-291.17022750000001
 20
752.87542699999995
 11
-291.30575550000003
 21
753.11944599999993
  0
LINE
  8
_0-0_0
  6
CONTINUOUS
 62
    7
 10
-291.17022750000001
 20
752.87542699999995
 11
-291.44827250000003
 21
752.89999399999999
  0
LINE
  8
_0-0_0
  6
CONTINUOUS
 62
    7
 10
-291.28799449999997
 20
752.67144800000005
 11
-291.44827250000003
 21
752.89999399999999
  0
LINE
  8
_0-0_0
  6
CONTINUOUS
 62
    7
 10
-291.28799449999997
 20
752.67144800000005
 11
-291.5670775000001
 21
752.66680900000006
  0
LINE
  8
_0-0_0
  6
CONTINUOUS
 62
    7
 10
-291.38378950000015
 20
752.45629899999994
 11
-291.5670775000001
 21
752.66680900000006
  0
LINE
  8
_0-0_0
  6
CONTINUOUS
 62
    7
 10
-291.38378950000015
 20
752.45629899999994
 11
-291.6608584999999
 21
752.42251599999997
  0
LINE
  8
_0-0_0
  6
CONTINUOUS
 62
    7
 10
-291.45654349999995
 20
752.23233000000005
 11
-291.6608584999999
 21
752.42251599999997
  0
LINE
  8
_0-0_0
  6
CONTINUOUS
 62
    7
 10
-291.45654349999995
 20
752.23233000000005
 11
-291.72857650000014
 21
752.16976899999997
  0
LINE
  8
_0-0_0
  6
CONTINUOUS
 62
    7
 10
-291.50552349999998
 20
752.00195299999996
 11
-291.72857650000014
 21
752.16976899999997
  0
LINE
  8
_0-0_0
  6
CONTINUOUS
 62
    7
 10
-291.50552349999998
 20
752.00195299999996
 11
-291.76953150000008
 21
751.91131599999994
  0
LINE
  8
_0-0_0
  6
CONTINUOUS
 62
    7
 10
-291.53012050000007
 20
751.76773100000003
 11
-291.76953150000008
 21
751.91131599999994
  0
LINE
  8
_0-0_0
  6
CONTINUOUS
 62
    7
 10
-291.53012050000007
 20
751.76773100000003
 11
-291.78323350000005
 21
751.64999399999999
  0
LINE
  8
_0-0_0
  6
CONTINUOUS
 62
    7
 10
-291.53012050000007
 20
751.53222699999992
 11
-291.78323350000005
 21
751.64999399999999
  0
LINE
  8
_0-0_0
  6
CONTINUOUS
 62
    7
 10
-291.53012050000007
 20
751.53222699999992
 11
-291.76953150000008
 21
751.38867200000004
  0
LINE
  8
_0-0_0
  6
CONTINUOUS
 62
    7
 10
-291.50552349999998
 20
751.29800399999999
 11
-291.76953150000008
 21
751.38867200000004
  0
LINE
  8
_0-0_0
  6
CONTINUOUS
 62
    7
 10
-291.50552349999998
 20
751.29800399999999
 11
-291.72857650000014
 21
751.13018799999998
  0
LINE
  8
_0-0_0
  6
CONTINUOUS
 62
    7
 10
-291.45654349999995
 20
751.06762700000002
 11
-291.72857650000014
 21
751.13018799999998
  0
LINE
  8
_0-0_0
  6
CONTINUOUS
 62
    7
 10
-291.45654349999995
 20
751.06762700000002
 11
-291.6608584999999
 21
750.87744099999998
  0
LINE
  8
_0-0_0
  6
CONTINUOUS
 62
    7
 10
-291.38378950000015
 20
750.843658
 11
-291.6608584999999
 21
750.87744099999998
  0
LINE
  8
_0-0_0
  6
CONTINUOUS
 62
    7
 10
-291.38378950000015
 20
750.843658
 11
-291.5670775000001
 21
750.63314800000001
  0
LINE
  8
_0-0_0
  6
CONTINUOUS
 62
    7
 10
-291.28799449999997
 20
750.62851000000001
 11
-291.5670775000001
 21
750.63314800000001
  0
CIRCLE
  8
_0-0_0
  6
CONTINUOUS
 62
    7
 10
-289.28323350000005
 20
751.64999399999999
 40
2
  0
LINE
  8
_0-0_0
  6
CONTINUOUS
 62
    7
 10
-290.42422450000004
 20
753.73858599999994
 11
-290.53323350000005
 21
753.81506300000001
  0
LINE
  8
_0-0_0
  6
CONTINUOUS
 62
    7
 10
-290.5086675
 20
753.53698699999995
 11
-290.53323350000005
 21
753.81506300000001
  0
LINE
  8
_0-0_0
  6
CONTINUOUS
 62
    7
 10
-290.5086675
 20
753.53698699999995
 11
-290.7526855000001
 21
753.67251599999997
  0
LINE
  8
_0-0_0
  6
CONTINUOUS
 62
    7
 10
-287.39620950000017
 20
752.87542699999995
 11
-287.26068149999992
 21
753.11944599999993
  0
LINE
  8
_0-0_0
  6
CONTINUOUS
 62
    7
 10
-287.53463749999992
 20
753.06594799999993
 11
-287.26068149999992
 21
753.11944599999993
  0
LINE
  8
_0-0_0
  6
CONTINUOUS
 62
    7
 10
-287.53463749999992
 20
753.06594799999993
 11
-287.42535450000014
 21
753.32281499999999
  0
LINE
  8
_0-0_0
  6
CONTINUOUS
 62
    7
 10
-287.69223050000005
 20
753.24096699999996
 11
-287.42535450000014
 21
753.32281499999999
  0
LINE
  8
_0-0_0
  6
CONTINUOUS
 62
    7
 10
-287.69223050000005
 20
753.24096699999996
 11
-287.61038250000001
 21
753.50784299999998
  0
LINE
  8
_0-0_0
  6
CONTINUOUS
 62
    7
 10
-287.86724849999996
 20
753.39855999999997
 11
-287.61038250000001
 21
753.50784299999998
  0
LINE
  8
_0-0_0
  6
CONTINUOUS
 62
    7
 10
-287.86724849999996
 20
753.39855999999997
 11
-287.81375150000008
 21
753.67251599999997
  0
LINE
  8
_0-0_0
  6
CONTINUOUS
 62
    7
 10
-288.05776950000018
 20
753.53698699999995
 11
-287.81375150000008
 21
753.67251599999997
  0
LINE
  8
_0-0_0
  6
CONTINUOUS
 62
    7
 10
-288.05776950000018
 20
753.53698699999995
 11
-288.03323350000005
 21
753.81506300000001
  0
LINE
  8
_0-0_0
  6
CONTINUOUS
 62
    7
 10
-288.26174949999995
 20
753.65475500000002
 11
-288.03323350000005
 21
753.81506300000001
  0
LINE
  8
_0-0_0
  6
CONTINUOUS
 62
    7
 10
-288.26174949999995
 20
753.65475500000002
 11
-288.26638850000018
 21
753.93383799999992
  0
LINE
  8
_0-0_0
  6
CONTINUOUS
 62
    7
 10
-288.47689850000006
 20
753.75054899999998
 11
-288.26638850000018
 21
753.93383799999992
  0
LINE
  8
_0-0_0
  6
CONTINUOUS
 62
    7
 10
-288.47689850000006
 20
753.75054899999998
 11
-288.51068149999992
 21
754.02761800000007
  0
LINE
  8
_0-0_0
  6
CONTINUOUS
 62
    7
 10
-288.70086650000007
 20
753.82330300000001
 11
-288.51068149999992
 21
754.02761800000007
  0
LINE
  8
_0-0_0
  6
CONTINUOUS
 62
    7
 10
-288.70086650000007
 20
753.82330300000001
 11
-288.76342750000003
 21
754.09533699999997
  0
LINE
  8
_0-0_0
  6
CONTINUOUS
 62
    7
 10
-288.93124450000005
 20
753.87228400000004
 11
-288.76342750000003
 21
754.09533699999997
  0
LINE
  8
_0-0_0
  6
CONTINUOUS
 62
    7
 10
-288.93124450000005
 20
753.87228400000004
 11
-289.02191149999999
 21
754.13629200000003
  0
LINE
  8
_0-0_0
  6
CONTINUOUS
 62
    7
 10
-289.16546650000009
 20
753.89691199999993
 11
-289.02191149999999
 21
754.13629200000003
  0
LINE
  8
_0-0_0
  6
CONTINUOUS
 62
    7
 10
-289.16546650000009
 20
753.89691199999993
 11
-289.28323350000005
 21
754.14999399999999
  0
LINE
  8
_0-0_0
  6
CONTINUOUS
 62
    7
 10
-289.40097050000008
 20
753.89691199999993
 11
-289.28323350000005
 21
754.14999399999999
  0
LINE
  8
_0-0_0
  6
CONTINUOUS
 62
    7
 10
-289.40097050000008
 20
753.89691199999993
 11
-289.54452549999996
 21
754.13629200000003
  0
LINE
  8
_0-0_0
  6
CONTINUOUS
 62
    7
 10
-289.6351924999999
 20
753.87228400000004
 11
-289.54452549999996
 21
754.13629200000003
  0
LINE
  8
_0-0_0
  6
CONTINUOUS
 62
    7
 10
-289.6351924999999
 20
753.87228400000004
 11
-289.80300949999992
 21
754.09533699999997
  0
LINE
  8
_0-0_0
  6
CONTINUOUS
 62
    7
 10
-289.8655705000001
 20
753.82330300000001
 11
-289.80300949999992
 21
754.09533699999997
  0
LINE
  8
_0-0_0
  6
CONTINUOUS
 62
    7
 10
-289.8655705000001
 20
753.82330300000001
 11
-290.05575550000003
 21
754.02761800000007
  0
LINE
  8
_0-0_0
  6
CONTINUOUS
 62
    7
 10
-290.08953850000012
 20
753.75054899999998
 11
-290.05575550000003
 21
754.02761800000007
  0
LINE
  8
_0-0_0
  6
CONTINUOUS
 62
    7
 10
-290.08953850000012
 20
753.75054899999998
 11
-290.3000485
 21
753.93383799999992
  0
LINE
  8
_0-0_0
  6
CONTINUOUS
 62
    7
 10
-290.3046875
 20
753.65475500000002
 11
-290.3000485
 21
753.93383799999992
  0
LINE
  8
_0-0_0
  6
CONTINUOUS
 62
    7
 10
-290.3046875
 20
753.65475500000002
 11
-290.42422450000004
 21
753.73858599999994
  0
LINE
  8
_0-0_0
  6
CONTINUOUS
 62
    7
 10
-288.70111050000014
 20
750.64999399999999
 11
-289.86532650000004
 21
750.64999399999999
  0
LINE
  8
_0-0_0
  6
CONTINUOUS
 62
    7
 10
-289.86532650000004
 20
750.64999399999999
 11
-290.43322750000016
 21
751.64999399999999
  0
LINE
  8
_0-0_0
  6
CONTINUOUS
 62
    7
 10
-290.43322750000016
 20
751.64999399999999
 11
-289.86532650000004
 21
752.64999399999999
  0
LINE
  8
_0-0_0
  6
CONTINUOUS
 62
    7
 10
-289.86532650000004
 20
752.64999399999999
 11
-288.70111050000014
 21
752.64999399999999
  0
LINE
  8
_0-0_0
  6
CONTINUOUS
 62
    7
 10
-288.70111050000014
 20
752.64999399999999
 11
-288.13320950000002
 21
751.64999399999999
  0
LINE
  8
_0-0_0
  6
CONTINUOUS
 62
    7
 10
-288.13320950000002
 20
751.64999399999999
 11
-288.70111050000014
 21
750.64999399999999
  0
LINE
  8
_0-0_0
  6
CONTINUOUS
 62
    7
 10
-274.58322150000004
 20
769.05029300000001
 11
-274.58322150000004
 21
769.05627400000003
  0
LINE
  8
_0-0_0
  6
CONTINUOUS
 62
    7
 10
-274.58322150000004
 20
770.25
 11
-274.58358750000002
 21
770.23788500000001
  0
LINE
  8
_0-0_0
  6
CONTINUOUS
 62
    7
 10
-274.58358750000002
 20
749.66210899999999
 11
-274.58322150000004
 21
749.64999399999999
  0
ARC
  8
_0-0_0
  6
CONTINUOUS
 62
    7
 10
-289.78323350000005
 20
768.75
 40
2
 50
90.000003000000007
 51
93.840255999999997
  0
ARC
  8
_0-0_0
  6
CONTINUOUS
 62
    7
 10
-276.78323350000005
 20
751.14999399999999
 40
2
 50
269.99999700000001
 51
273.84026499999999
  0
ENDSEC
  0
EOF
