  0
SECTION
  2
HEADER
  9
$ACADVER
  1
AC1009
  9
$INSBASE
 10
0
 20
0
 30
0
  9
$EXTMIN
 10
0
 20
0
  9
$EXTMAX
 10
1682
 20
1188
  9
$LIMMIN
 10
0
 20
0
  9
$LIMMAX
 10
1682
 20
1188
  9
$LTSCALE
 40
2
  0
ENDSEC
  0
SECTION
  2
TABLES
  0
TABLE
  2
LTYPE
 70
     9
  0
LTYPE
  2
CONTINUOUS
 70
    64
  3
実線
 72
    65
 73
     0
 40
0.0
  0
LTYPE
  2
DASHED1
 70
    64
  3
--  --  --  --  --  --  --  --  
 72
    65
 73
     2
 40
2.5
 49
1.25
 49
-1.25
  0
LTYPE
  2
DASHED2
 70
    64
  3
----    ----    ----    ----    
 72
    65
 73
     2
 40
5.0
 49
2.5
 49
-2.5
  0
LTYPE
  2
DASHED3
 70
    64
  3
------  ------  ------  ------  
 72
    65
 73
     2
 40
5.0
 49
3.75
 49
-1.25
  0
LTYPE
  2
CENTER1
 70
    64
  3
----- - ----- - ----- - ----- - 
 72
    65
 73
     4
 40
10.0
 49
6.25
 49
-1.25
 49
1.25
 49
-1.25
  0
LTYPE
  2
CENTER2
 70
    64
  3
----------  --  ----------  --  
 72
    65
 73
     4
 40
20.0
 49
12.5
 49
-2.5
 49
2.5
 49
-2.5
  0
LTYPE
  2
PHANTOM1
 70
    64
  3
--- - - --- - - --- - - --- - - 
 72
    65
 73
     6
 40
10.0
 49
3.25
 49
-1.25
 49
1.25
 49
-1.25
 49
1.25
 49
-1.25
  0
LTYPE
  2
PHANTOM2
 70
    64
  3
--------  -  -  --------  -  -  
 72
    65
 73
     6
 40
20.0
 49
10.0
 49
-2.5
 49
1.25
 49
-2.5
 49
1.25
 49
-2.5
  0
LTYPE
  2
DOT
 70
    64
  3
-   -   -   -   -   -   -   -   
 72
    65
 73
     2
 40
2.5
 49
0.625
 49
-1.875
  0
LTYPE
  2
DUMMY
 70
    64
  3
ダミー
 72
    65
 73
     0
 40
0.0
  0
LTYPE
  2
RAND1
 70
    64
  3
ランダム線1
 72
    65
 73
     4
 40
10.0
 49
1.0
 49
-2.0
 49
3.0
 49
-4.0
  0
LTYPE
  2
RAND2
 70
    64
  3
ランダム線2
 72
    65
 73
     4
 40
14.0
 49
2.0
 49
-3.0
 49
4.0
 49
-5.0
  0
LTYPE
  2
RAND3
 70
    64
  3
ランダム線3
 72
    65
 73
     4
 40
18.0
 49
3.0
 49
-4.0
 49
5.0
 49
-6.0
  0
LTYPE
  2
RAND4
 70
    64
  3
ランダム線4
 72
    65
 73
     4
 40
22.0
 49
4.0
 49
-5.0
 49
6.0
 49
-7.0
  0
LTYPE
  2
RAND5
 70
    64
  3
ランダム線5
 72
    65
 73
     4
 40
26.0
 49
5.0
 49
-6.0
 49
7.0
 49
-8.0
  0
LTYPE
  2
LONG1
 70
    64
  3
----------  --  ----------  --  
 72
    65
 73
     4
 40
40.0
 49
32.5
 49
-2.5
 49
2.5
 49
-2.5
  0
LTYPE
  2
LONG2
 70
    64
  3
--------  -  -  --------  -  -  
 72
    65
 73
     6
 40
40.0
 49
30.0
 49
-2.5
 49
1.25
 49
-2.5
 49
1.25
 49
-2.5
  0
LTYPE
  2
LONG3
 70
    64
  3
+++++++++++++++..+++++++++++++++
 72
    65
 73
     2
 40
40.0
 49
37.5
 49
-2.5
  0
LTYPE
  2
LONG4
 70
    64
  3
+++++++++++++++..+++++++++++++++
 72
    65
 73
     2
 40
80.0
 49
75.0
 49
-5.0
  0
LTYPE
  2
LONG5
 70
    64
  3
----------  --  ----------  --  
 72
    65
 73
     4
 40
60.0
 49
37.5
 49
-7.5
 49
7.5
 49
-7.5
  0
LTYPE
  2
dashed
 70
   64
  3
-------   -------------   ------
 72
   65
 73
    2
 40
7.5
 49
6
 49
-1.5
  0
LTYPE
  2
dashed_spaced
 70
   64
  3
----        --------        ----
 72
   65
 73
    2
 40
12
 49
6
 49
-6
  0
LTYPE
  2
long_dashed_dotted
 70
   64
  3
------------- --- --------------
 72
   65
 73
    4
 40
15.25
 49
12
 49
-1.5
 49
0.25
 49
-1.5
  0
LTYPE
  2
long_dashed_double-dotted
 70
   64
  3
----------- --- --- ------------
 72
   65
 73
    6
 40
17
 49
12
 49
-1.5
 49
0.25
 49
-1.5
 49
0.25
 49
-1.5
  0
LTYPE
  2
long_dashed_triplicate-dotted
 70
   64
  3
--------- --- --- --- ----------
 72
   65
 73
    8
 40
18.75
 49
12
 49
-1.5
 49
0.25
 49
-1.5
 49
0.25
 49
-1.5
 49
0.25
 49
-1.5
  0
LTYPE
  2
dotted
 70
   64
  3
   -       -       -       -    
 72
   65
 73
    2
 40
1.75
 49
0.25
 49
-1.5
  0
LTYPE
  2
chain
 70
   64
  3
-------------- -- --------------
 72
   65
 73
    4
 40
18.5
 49
12
 49
-1.5
 49
3.5
 49
-1.5
  0
LTYPE
  2
chain_double_dash
 70
   64
  3
------------ -- -- -------------
 72
   65
 73
    6
 40
23.5
 49
12
 49
-1.5
 49
3.5
 49
-1.5
 49
3.5
 49
-1.5
  0
LTYPE
  2
dashed_dotted
 70
   64
  3
-----------     -     ----------
 72
   65
 73
    4
 40
9.25
 49
6
 49
-1.5
 49
0.25
 49
-1.5
  0
LTYPE
  2
double-dashed_dotted
 70
   64
  3
------   -----------   -   -----
 72
   65
 73
    6
 40
16.75
 49
6
 49
-1.5
 49
6
 49
-1.5
 49
0.25
 49
-1.5
  0
LTYPE
  2
dashed_double-dotted
 70
   64
  3
---------    -    -    ---------
 72
   65
 73
    6
 40
11
 49
6
 49
-1.5
 49
0.25
 49
-1.5
 49
0.25
 49
-1.5
  0
LTYPE
  2
double-dashed_double-dotted
 70
   64
  3
-----   ---------   -   -   ----
 72
   65
 73
    8
 40
18.5
 49
6
 49
-1.5
 49
6
 49
-1.5
 49
0.25
 49
-1.5
 49
0.25
 49
-1.5
  0
LTYPE
  2
dashed_triplicate-dotted
 70
   64
  3
-------    -    -    -    ------
 72
   65
 73
    8
 40
12.75
 49
6
 49
-1.5
 49
0.25
 49
-1.5
 49
0.25
 49
-1.5
 49
0.25
 49
-1.5
  0
LTYPE
  2
double-dashed_triplicate-dotted
 70
   64
  3
-----  ---------  -  -  -  -----
 72
   65
 73
   10
 40
20.25
 49
6
 49
-1.5
 49
6
 49
-1.5
 49
0.25
 49
-1.5
 49
0.25
 49
-1.5
 49
0.25
 49
-1.5
  0
LTYPE
  2
undefined
 70
   64
  3
--------------------------------
 72
   65
 73
    0
 40
0
  0
ENDTAB
  0
TABLE
  2
STYLE
  5
3
100
AcDbSymbolTable
 70
     1
  0
STYLE
  5
10
100
AcDbSymbolTableRecord
100
AcDbTextStyleTableRecord
  2
STANDARD
 70
     0
 40
0.0
 41
1.0
 50
0.0
 71
     0
 42
0.2
  3
txt
  4
bigfont.shx
  0
STYLE
  5
26
100
AcDbSymbolTableRecord
100
AcDbTextStyleTableRecord
  2
TATEGAKI
 70
    68
 40
0.0
 41
1.0
 50
0.0
 71
     0
 42
1.0
  3
txt
  4
bigfont.shx
  0
ENDTAB
  0
TABLE
  2
LAYER
 70
    2
  0
LAYER
  2
_0-0_0
 70
   64
 62
    7
  6
CONTINUOUS
  0
LAYER
  2
ADD_LINE
 70
   64
 62
    7
  6
CONTINUOUS
  0
ENDTAB
  0
ENDSEC
  0
SECTION
  2
BLOCKS
  0
ENDSEC
  0
SECTION
  2
ENTITIES
  0
ARC
  8
_0-0_0
  6
CONTINUOUS
 62
    7
 10
-28.272216500000013
 20
765.34997599999997
 40
0.2
 50
269.99999700000001
 51
20.376440000000013
  0
LINE
  8
_0-0_0
  6
CONTINUOUS
 62
    7
 10
-28.084732500000086
 20
765.41961700000002
 11
-29.384735500000033
 21
768.91961700000002
  0
ARC
  8
_0-0_0
  6
CONTINUOUS
 62
    7
 10
-29.572219500000074
 20
768.84997599999997
 40
0.2
 50
20.376439999999999
 51
159.62355600000001
  0
LINE
  8
_0-0_0
  6
CONTINUOUS
 62
    7
 10
-31.059707500000059
 20
765.41961700000002
 11
-29.759704499999998
 21
768.91961700000002
  0
ARC
  8
_0-0_0
  6
CONTINUOUS
 62
    7
 10
-30.872223500000018
 20
765.34997599999997
 40
0.2
 50
159.62355600000001
 51
269.99999700000001
  0
LINE
  8
_0-0_0
  6
CONTINUOUS
 62
    7
 10
-30.872223500000018
 20
765.14999399999999
 11
-28.272216500000013
 21
765.14999399999999
  0
LINE
  8
_0-0_0
  6
CONTINUOUS
 62
    7
 10
-193.50503550000008
 20
813.75271599999996
 11
-193.50503550000008
 21
813.75170900000001
  0
LINE
  8
_0-0_0
  6
CONTINUOUS
 62
    7
 10
1589.4277345
 20
802.14999399999999
 11
1589.4277345
 21
789.14999399999999
  0
LINE
  8
_0-0_0
  6
CONTINUOUS
 62
    7
 10
-83.572219500000074
 20
802.14999399999999
 11
-83.572219500000074
 21
789.14999399999999
  0
LINE
  8
_0-0_0
  6
CONTINUOUS
 62
    7
 10
-83.572219500000074
 20
802.14999399999999
 11
1589.4277345
 21
802.14999399999999
  0
LINE
  8
_0-0_0
  6
CONTINUOUS
 62
    7
 10
-83.572219500000074
 20
802.14999399999999
 11
-83.572219500000074
 21
820.75
  0
LINE
  8
_0-0_0
  6
CONTINUOUS
 62
    7
 10
-83.572219500000074
 20
823.25
 11
-83.572219500000074
 21
820.75
  0
LINE
  8
_0-0_0
  6
CONTINUOUS
 62
    7
 10
-83.572219500000074
 20
823.75
 11
-83.572219500000074
 21
823.25
  0
LINE
  8
_0-0_0
  6
CONTINUOUS
 62
    7
 10
-83.572219500000074
 20
775.75
 11
-83.572219500000074
 21
775.25
  0
LINE
  8
_0-0_0
  6
CONTINUOUS
 62
    7
 10
-83.572219500000074
 20
780.75
 11
-83.572219500000074
 21
775.75
  0
LINE
  8
_0-0_0
  6
CONTINUOUS
 62
    7
 10
-83.572219500000074
 20
781.25
 11
-83.572219500000074
 21
780.75
  0
LINE
  8
_0-0_0
  6
CONTINUOUS
 62
    7
 10
-83.572219500000074
 20
781.75
 11
-83.572219500000074
 21
781.25
  0
LINE
  8
_0-0_0
  6
CONTINUOUS
 62
    7
 10
-83.572219500000074
 20
784.94998199999998
 11
-83.572219500000074
 21
781.75
  0
LINE
  8
_0-0_0
  6
CONTINUOUS
 62
    7
 10
-83.572219500000074
 20
784.94998199999998
 11
-83.572219500000074
 21
789.14999399999999
  0
LINE
  8
_0-0_0
  6
CONTINUOUS
 62
    7
 10
-83.572219500000074
 20
789.14999399999999
 11
1589.4277345
 21
789.14999399999999
  0
LINE
  8
_0-0_0
  6
CONTINUOUS
 62
    7
 10
1589.4277345
 20
784.94998199999998
 11
1589.4277345
 21
789.14999399999999
  0
LINE
  8
_0-0_0
  6
CONTINUOUS
 62
    7
 10
1589.4277345
 20
781.75
 11
1589.4277345
 21
784.94998199999998
  0
LINE
  8
_0-0_0
  6
CONTINUOUS
 62
    7
 10
1589.4277345
 20
781.75
 11
1589.4277345
 21
781.25
  0
LINE
  8
_0-0_0
  6
CONTINUOUS
 62
    7
 10
1589.4277345
 20
781.25
 11
1589.4277345
 21
780.75
  0
LINE
  8
_0-0_0
  6
CONTINUOUS
 62
    7
 10
1589.4277345
 20
780.75
 11
1589.4277345
 21
775.75
  0
LINE
  8
_0-0_0
  6
CONTINUOUS
 62
    7
 10
1589.4277345
 20
775.75
 11
1589.4277345
 21
775.25
  0
LINE
  8
_0-0_0
  6
CONTINUOUS
 62
    7
 10
1589.4277345
 20
823.75
 11
1589.4277345
 21
823.25
  0
LINE
  8
_0-0_0
  6
CONTINUOUS
 62
    7
 10
1589.4277345
 20
820.75
 11
1589.4277345
 21
823.25
  0
LINE
  8
_0-0_0
  6
CONTINUOUS
 62
    7
 10
1589.4277345
 20
802.14999399999999
 11
1589.4277345
 21
820.75
  0
CIRCLE
  8
_0-0_0
  6
CONTINUOUS
 62
    7
 10
1552.9277345
 20
811.25
 40
6
  0
CIRCLE
  8
_0-0_0
  6
CONTINUOUS
 62
    7
 10
1452.9277345
 20
811.25
 40
6
  0
CIRCLE
  8
_0-0_0
  6
CONTINUOUS
 62
    7
 10
1352.9277345
 20
811.25
 40
6
  0
CIRCLE
  8
_0-0_0
  6
CONTINUOUS
 62
    7
 10
1252.9277345
 20
811.25
 40
6
  0
CIRCLE
  8
_0-0_0
  6
CONTINUOUS
 62
    7
 10
1152.9277345
 20
811.25
 40
6
  0
CIRCLE
  8
_0-0_0
  6
CONTINUOUS
 62
    7
 10
1052.9277345
 20
811.25
 40
6
  0
CIRCLE
  8
_0-0_0
  6
CONTINUOUS
 62
    7
 10
952.92773449999993
 20
811.25
 40
6
  0
CIRCLE
  8
_0-0_0
  6
CONTINUOUS
 62
    7
 10
852.92773449999993
 20
811.25
 40
6
  0
CIRCLE
  8
_0-0_0
  6
CONTINUOUS
 62
    7
 10
752.92773449999993
 20
811.25
 40
6
  0
CIRCLE
  8
_0-0_0
  6
CONTINUOUS
 62
    7
 10
652.92773449999993
 20
811.25
 40
6
  0
CIRCLE
  8
_0-0_0
  6
CONTINUOUS
 62
    7
 10
552.9277955
 20
811.25
 40
6
  0
CIRCLE
  8
_0-0_0
  6
CONTINUOUS
 62
    7
 10
452.92779549999995
 20
811.25
 40
6
  0
CIRCLE
  8
_0-0_0
  6
CONTINUOUS
 62
    7
 10
352.92779549999995
 20
811.25
 40
6
  0
CIRCLE
  8
_0-0_0
  6
CONTINUOUS
 62
    7
 10
252.9277955
 20
811.25
 40
6
  0
CIRCLE
  8
_0-0_0
  6
CONTINUOUS
 62
    7
 10
152.9277955
 20
811.25
 40
6
  0
CIRCLE
  8
_0-0_0
  6
CONTINUOUS
 62
    7
 10
52.927795500000002
 20
811.25
 40
6
  0
CIRCLE
  8
_0-0_0
  6
CONTINUOUS
 62
    7
 10
-47.072219500000074
 20
811.25
 40
6
  0
LINE
  8
_0-0_0
  6
CONTINUOUS
 62
    7
 10
-83.572219500000074
 20
820.75
 11
1589.4277345
 21
820.75
  0
LINE
  8
_0-0_0
  6
CONTINUOUS
 62
    7
 10
-83.572219500000074
 20
823.75
 11
1589.4277345
 21
823.75
  0
LINE
  8
_0-0_0
  6
CONTINUOUS
 62
    7
 10
-83.572219500000074
 20
823.25
 11
-86.072219500000074
 21
823.25
  0
LINE
  8
_0-0_0
  6
CONTINUOUS
 62
    7
 10
-86.072219500000074
 20
823.25
 11
-86.072219500000074
 21
822.75
  0
LINE
  8
_0-0_0
  6
CONTINUOUS
 62
    7
 10
-86.072219500000074
 20
822.75
 11
-86.072219500000074
 21
782.25
  0
LINE
  8
_0-0_0
  6
CONTINUOUS
 62
    7
 10
-83.572219500000074
 20
781.75
 11
-86.072219500000074
 21
781.75
  0
LINE
  8
_0-0_0
  6
CONTINUOUS
 62
    7
 10
-86.072219500000074
 20
782.25
 11
-86.072219500000074
 21
781.75
  0
LINE
  8
_0-0_0
  6
CONTINUOUS
 62
    7
 10
-86.072219500000074
 20
781.75
 11
-86.072219500000074
 21
780.75
  0
LINE
  8
_0-0_0
  6
CONTINUOUS
 62
    7
 10
-86.072219500000074
 20
780.75
 11
-86.072219500000074
 21
776.25
  0
LINE
  8
_0-0_0
  6
CONTINUOUS
 62
    7
 10
-83.572219500000074
 20
775.75
 11
-86.072219500000074
 21
775.75
  0
LINE
  8
_0-0_0
  6
CONTINUOUS
 62
    7
 10
-86.072219500000074
 20
776.25
 11
-86.072219500000074
 21
775.75
  0
LINE
  8
_0-0_0
  6
CONTINUOUS
 62
    7
 10
-83.572219500000074
 20
775.25
 11
1589.4277345
 21
775.25
  0
LINE
  8
_0-0_0
  6
CONTINUOUS
 62
    7
 10
-83.572219500000074
 20
781.25
 11
1589.4277345
 21
781.25
  0
LINE
  8
_0-0_0
  6
CONTINUOUS
 62
    7
 10
-83.572219500000074
 20
784.94998199999998
 11
1589.4277345
 21
784.94998199999998
  0
LINE
  8
_0-0_0
  6
CONTINUOUS
 62
    7
 10
1589.4277345
 20
823.25
 11
1591.9277345
 21
823.25
  0
LINE
  8
_0-0_0
  6
CONTINUOUS
 62
    7
 10
1591.9277345
 20
823.25
 11
1591.9277345
 21
822.75
  0
LINE
  8
_0-0_0
  6
CONTINUOUS
 62
    7
 10
1591.9277345
 20
822.75
 11
1591.9277345
 21
782.25
  0
LINE
  8
_0-0_0
  6
CONTINUOUS
 62
    7
 10
1589.4277345
 20
781.75
 11
1591.9277345
 21
781.75
  0
LINE
  8
_0-0_0
  6
CONTINUOUS
 62
    7
 10
1591.9277345
 20
782.25
 11
1591.9277345
 21
781.75
  0
LINE
  8
_0-0_0
  6
CONTINUOUS
 62
    7
 10
1591.9277345
 20
781.75
 11
1591.9277345
 21
780.75
  0
LINE
  8
_0-0_0
  6
CONTINUOUS
 62
    7
 10
1591.9277345
 20
780.75
 11
1591.9277345
 21
776.25
  0
LINE
  8
_0-0_0
  6
CONTINUOUS
 62
    7
 10
1589.4277345
 20
775.75
 11
1591.9277345
 21
775.75
  0
LINE
  8
_0-0_0
  6
CONTINUOUS
 62
    7
 10
1591.9277345
 20
776.25
 11
1591.9277345
 21
775.75
  0
ARC
  8
_0-0_0
  6
CONTINUOUS
 62
    7
 10
-26.072219500000074
 20
776.25
 40
0.5
 50
269.99999700000001
 51
0
  0
LINE
  8
_0-0_0
  6
CONTINUOUS
 62
    7
 10
-26.072219500000074
 20
775.75
 11
-33.072219500000074
 21
775.75
  0
ARC
  8
_0-0_0
  6
CONTINUOUS
 62
    7
 10
-33.072219500000074
 20
776.25
 40
0.5
 50
179.99999099999999
 51
269.99999700000001
  0
LINE
  8
_0-0_0
  6
CONTINUOUS
 62
    7
 10
-33.572219500000074
 20
780.25
 11
-33.572219500000074
 21
776.25
  0
ARC
  8
_0-0_0
  6
CONTINUOUS
 62
    7
 10
-33.072219500000074
 20
780.25
 40
0.5
 50
90.000003000000007
 51
179.99999099999999
  0
ARC
  8
_0-0_0
  6
CONTINUOUS
 62
    7
 10
-26.072219500000074
 20
780.25
 40
0.5
 50
0
 51
90.000003000000007
  0
LINE
  8
_0-0_0
  6
CONTINUOUS
 62
    7
 10
-33.072219500000074
 20
780.75
 11
-26.072219500000074
 21
780.75
  0
LINE
  8
_0-0_0
  6
CONTINUOUS
 62
    7
 10
1589.4277345
 20
823.75
 11
1589.4277345
 21
823.44998199999998
  0
LINE
  8
_0-0_0
  6
CONTINUOUS
 62
    7
 10
1589.4277345
 20
823.44998199999998
 11
1589.4277345
 21
823.25
  0
CIRCLE
  8
_0-0_0
  6
CONTINUOUS
 62
    7
 10
1552.9277345
 20
811.25
 40
5.5
  0
CIRCLE
  8
_0-0_0
  6
CONTINUOUS
 62
    7
 10
1452.9277345
 20
811.25
 40
5.5
  0
CIRCLE
  8
_0-0_0
  6
CONTINUOUS
 62
    7
 10
1352.9277345
 20
811.25
 40
5.5
  0
CIRCLE
  8
_0-0_0
  6
CONTINUOUS
 62
    7
 10
1252.9277345
 20
811.25
 40
5.5
  0
CIRCLE
  8
_0-0_0
  6
CONTINUOUS
 62
    7
 10
1152.9277345
 20
811.25
 40
5.5
  0
CIRCLE
  8
_0-0_0
  6
CONTINUOUS
 62
    7
 10
1052.9277345
 20
811.25
 40
5.5
  0
CIRCLE
  8
_0-0_0
  6
CONTINUOUS
 62
    7
 10
952.92773449999993
 20
811.25
 40
5.5
  0
CIRCLE
  8
_0-0_0
  6
CONTINUOUS
 62
    7
 10
852.92773449999993
 20
811.25
 40
5.5
  0
CIRCLE
  8
_0-0_0
  6
CONTINUOUS
 62
    7
 10
752.92773449999993
 20
811.25
 40
5.5
  0
CIRCLE
  8
_0-0_0
  6
CONTINUOUS
 62
    7
 10
652.92773449999993
 20
811.25
 40
5.5
  0
CIRCLE
  8
_0-0_0
  6
CONTINUOUS
 62
    7
 10
552.9277955
 20
811.25
 40
5.5
  0
CIRCLE
  8
_0-0_0
  6
CONTINUOUS
 62
    7
 10
452.92779549999995
 20
811.25
 40
5.5
  0
CIRCLE
  8
_0-0_0
  6
CONTINUOUS
 62
    7
 10
352.92779549999995
 20
811.25
 40
5.5
  0
CIRCLE
  8
_0-0_0
  6
CONTINUOUS
 62
    7
 10
252.9277955
 20
811.25
 40
5.5
  0
CIRCLE
  8
_0-0_0
  6
CONTINUOUS
 62
    7
 10
152.9277955
 20
811.25
 40
5.5
  0
CIRCLE
  8
_0-0_0
  6
CONTINUOUS
 62
    7
 10
52.927795500000002
 20
811.25
 40
5.5
  0
CIRCLE
  8
_0-0_0
  6
CONTINUOUS
 62
    7
 10
-47.072219500000074
 20
811.25
 40
5.5
  0
LINE
  8
_0-0_0
  6
CONTINUOUS
 62
    7
 10
-25.572219500000074
 20
776.25
 11
-25.572219500000074
 21
780.25
  0
CIRCLE
  8
_0-0_0
  6
CONTINUOUS
 62
    7
 10
1552.9277345
 20
811.25
 40
3.5
  0
CIRCLE
  8
_0-0_0
  6
CONTINUOUS
 62
    7
 10
1452.9277345
 20
811.25
 40
3.5
  0
CIRCLE
  8
_0-0_0
  6
CONTINUOUS
 62
    7
 10
1352.9277345
 20
811.25
 40
3.5
  0
CIRCLE
  8
_0-0_0
  6
CONTINUOUS
 62
    7
 10
1252.9277345
 20
811.25
 40
3.5
  0
CIRCLE
  8
_0-0_0
  6
CONTINUOUS
 62
    7
 10
1152.9277345
 20
811.25
 40
3.5
  0
CIRCLE
  8
_0-0_0
  6
CONTINUOUS
 62
    7
 10
1052.9277345
 20
811.25
 40
3.5
  0
CIRCLE
  8
_0-0_0
  6
CONTINUOUS
 62
    7
 10
952.92773449999993
 20
811.25
 40
3.5
  0
CIRCLE
  8
_0-0_0
  6
CONTINUOUS
 62
    7
 10
852.92773449999993
 20
811.25
 40
3.5
  0
CIRCLE
  8
_0-0_0
  6
CONTINUOUS
 62
    7
 10
752.92773449999993
 20
811.25
 40
3.5
  0
CIRCLE
  8
_0-0_0
  6
CONTINUOUS
 62
    7
 10
652.92773449999993
 20
811.25
 40
3.5
  0
CIRCLE
  8
_0-0_0
  6
CONTINUOUS
 62
    7
 10
552.9277955
 20
811.25
 40
3.5
  0
CIRCLE
  8
_0-0_0
  6
CONTINUOUS
 62
    7
 10
452.92779549999995
 20
811.25
 40
3.5
  0
CIRCLE
  8
_0-0_0
  6
CONTINUOUS
 62
    7
 10
352.92779549999995
 20
811.25
 40
3.5
  0
CIRCLE
  8
_0-0_0
  6
CONTINUOUS
 62
    7
 10
252.9277955
 20
811.25
 40
3.5
  0
CIRCLE
  8
_0-0_0
  6
CONTINUOUS
 62
    7
 10
152.9277955
 20
811.25
 40
3.5
  0
CIRCLE
  8
_0-0_0
  6
CONTINUOUS
 62
    7
 10
52.927795500000002
 20
811.25
 40
3.5
  0
CIRCLE
  8
_0-0_0
  6
CONTINUOUS
 62
    7
 10
-47.072219500000074
 20
811.25
 40
3.5
  0
ARC
  8
_0-0_0
  6
CONTINUOUS
 62
    7
 10
-28.272216500000013
 20
779.94998199999998
 40
0.2
 50
339.62356199999999
 51
90.000002999999978
  0
LINE
  8
_0-0_0
  6
CONTINUOUS
 62
    7
 10
-28.084732500000086
 20
779.88034100000004
 11
-29.384735500000033
 21
776.38034100000004
  0
ARC
  8
_0-0_0
  6
CONTINUOUS
 62
    7
 10
-29.572219500000074
 20
776.44998199999998
 40
0.2
 50
200.37643
 51
339.62356199999999
  0
LINE
  8
_0-0_0
  6
CONTINUOUS
 62
    7
 10
-31.059707500000059
 20
779.88034100000004
 11
-29.759704499999998
 21
776.38034100000004
  0
ARC
  8
_0-0_0
  6
CONTINUOUS
 62
    7
 10
-30.872223500000018
 20
779.94998199999998
 40
0.2
 50
90.000003000000007
 51
200.37643
  0
LINE
  8
_0-0_0
  6
CONTINUOUS
 62
    7
 10
-30.872223500000018
 20
780.14999399999999
 11
-28.272216500000013
 21
780.14999399999999
  0
ARC
  8
_0-0_0
  6
CONTINUOUS
 62
    7
 10
1509.1276854999999
 20
779.94998199999998
 40
0.2
 50
90.000003000000007
 51
200.37643
  0
LINE
  8
_0-0_0
  6
CONTINUOUS
 62
    7
 10
1509.1276854999999
 20
780.14999399999999
 11
1511.7277835
 21
780.14999399999999
  0
ARC
  8
_0-0_0
  6
CONTINUOUS
 62
    7
 10
1506.9277345
 20
780.25
 40
0.5
 50
90.000003000000007
 51
179.99999099999999
  0
LINE
  8
_0-0_0
  6
CONTINUOUS
 62
    7
 10
1506.4277345
 20
780.25
 11
1506.4277345
 21
776.25
  0
ARC
  8
_0-0_0
  6
CONTINUOUS
 62
    7
 10
1506.9277345
 20
776.25
 40
0.5
 50
179.99999099999999
 51
269.99999700000001
  0
LINE
  8
_0-0_0
  6
CONTINUOUS
 62
    7
 10
1513.9277345
 20
775.75
 11
1506.9277345
 21
775.75
  0
ARC
  8
_0-0_0
  6
CONTINUOUS
 62
    7
 10
1513.9277345
 20
776.25
 40
0.5
 50
269.99999700000001
 51
0
  0
LINE
  8
_0-0_0
  6
CONTINUOUS
 62
    7
 10
1514.4277345
 20
776.25
 11
1514.4277345
 21
780.25
  0
ARC
  8
_0-0_0
  6
CONTINUOUS
 62
    7
 10
1513.9277345
 20
780.25
 40
0.5
 50
0
 51
90.000003000000007
  0
LINE
  8
_0-0_0
  6
CONTINUOUS
 62
    7
 10
1506.9277345
 20
780.75
 11
1513.9277345
 21
780.75
  0
LINE
  8
_0-0_0
  6
CONTINUOUS
 62
    7
 10
1508.9403075
 20
779.88034100000004
 11
1510.2402345
 21
776.38034100000004
  0
ARC
  8
_0-0_0
  6
CONTINUOUS
 62
    7
 10
1510.4277345
 20
776.44998199999998
 40
0.2
 50
200.37643
 51
339.62356199999999
  0
LINE
  8
_0-0_0
  6
CONTINUOUS
 62
    7
 10
1511.9151615000001
 20
779.88034100000004
 11
1510.6152345
 21
776.38034100000004
  0
ARC
  8
_0-0_0
  6
CONTINUOUS
 62
    7
 10
1511.7277835
 20
779.94998199999998
 40
0.2
 50
339.62356199999999
 51
90.000002999999978
  0
LINE
  8
_0-0_0
  6
CONTINUOUS
 62
    7
 10
-77.072219500000074
 20
773.25
 11
-72.072219500000074
 21
773.25
  0
LINE
  8
_0-0_0
  6
CONTINUOUS
 62
    7
 10
-72.072219500000074
 20
773.25
 11
-70.272216500000013
 21
773.25
  0
LINE
  8
_0-0_0
  6
CONTINUOUS
 62
    7
 10
-70.272216500000013
 20
773.25
 11
-69.572219500000074
 21
773.25
  0
ARC
  8
_0-0_0
  6
CONTINUOUS
 62
    7
 10
-70.272216500000013
 20
772.75
 40
0.5
 50
0
 51
90.000003000000007
  0
ARC
  8
_0-0_0
  6
CONTINUOUS
 62
    7
 10
-77.072219500000074
 20
772.75
 40
0.5
 50
90.000003000000007
 51
179.99999099999999
  0
ARC
  8
_0-0_0
  6
CONTINUOUS
 62
    7
 10
26.427780499999926
 20
772.75
 40
0.5
 50
0
 51
90.000003000000007
  0
LINE
  8
_0-0_0
  6
CONTINUOUS
 62
    7
 10
-69.572219500000074
 20
773.25
 11
-69.572219500000074
 21
771.75
  0
LINE
  8
_0-0_0
  6
CONTINUOUS
 62
    7
 10
-69.572219500000074
 20
773.75
 11
-69.572219500000074
 21
773.25
  0
LINE
  8
_0-0_0
  6
CONTINUOUS
 62
    7
 10
-69.572219500000074
 20
774.25
 11
-69.572219500000074
 21
773.75
  0
LINE
  8
_0-0_0
  6
CONTINUOUS
 62
    7
 10
-69.572219500000074
 20
775.25
 11
-69.572219500000074
 21
774.25
  0
LINE
  8
_0-0_0
  6
CONTINUOUS
 62
    7
 10
-65.572219500000074
 20
773.25
 11
-64.872223500000018
 21
773.25
  0
LINE
  8
_0-0_0
  6
CONTINUOUS
 62
    7
 10
-69.772216500000013
 20
772.75
 11
-69.772216500000013
 21
771.75
  0
LINE
  8
_0-0_0
  6
CONTINUOUS
 62
    7
 10
-66.572219500000074
 20
746.25
 11
-66.572219500000074
 21
747.84997599999997
  0
LINE
  8
_0-0_0
  6
CONTINUOUS
 62
    7
 10
-66.572219500000074
 20
746.25
 11
-72.072219500000074
 21
746.25
  0
LINE
  8
_0-0_0
  6
CONTINUOUS
 62
    7
 10
-50.572219500000074
 20
752.94998199999998
 11
-8.5722195000000738
 21
752.94998199999998
  0
LINE
  8
_0-0_0
  6
CONTINUOUS
 62
    7
 10
-50.572219500000074
 20
772.54998799999998
 11
-8.5722195000000738
 21
772.54998799999998
  0
LINE
  8
_0-0_0
  6
CONTINUOUS
 62
    7
 10
12.927780499999926
 20
746.25
 11
3.4277804999999262
 21
746.25
  0
LINE
  8
_0-0_0
  6
CONTINUOUS
 62
    7
 10
3.4277804999999262
 20
746.25
 11
3.4277804999999262
 21
747.84997599999997
  0
ARC
  8
_0-0_0
  6
CONTINUOUS
 62
    7
 10
3.1277764999999818
 20
747.84997599999997
 40
0.2999999999999999
 50
0
 51
90.000003000000007
  0
LINE
  8
_0-0_0
  6
CONTINUOUS
 62
    7
 10
2.4277804999999262
 20
748.14999399999999
 11
3.1277764999999818
 21
748.14999399999999
  0
LINE
  8
_0-0_0
  6
CONTINUOUS
 62
    7
 10
1.9277804999999262
 20
748.54998799999998
 11
2.4277804999999262
 21
748.54998799999998
  0
LINE
  8
_0-0_0
  6
CONTINUOUS
 62
    7
 10
-11.572219500000074
 20
748.54998799999998
 11
1.9277804999999262
 21
748.54998799999998
  0
ARC
  8
_0-0_0
  6
CONTINUOUS
 62
    7
 10
-14.072219500000074
 20
748.54998799999998
 40
2.5
 50
0
 51
90.000003000000007
  0
LINE
  8
_0-0_0
  6
CONTINUOUS
 62
    7
 10
-45.072219500000074
 20
751.04998799999998
 11
-14.072219500000074
 21
751.04998799999998
  0
ARC
  8
_0-0_0
  6
CONTINUOUS
 62
    7
 10
-45.072219500000074
 20
748.54998799999998
 40
2.5
 50
90.000003000000007
 51
179.99999099999999
  0
LINE
  8
_0-0_0
  6
CONTINUOUS
 62
    7
 10
-65.072219500000074
 20
748.54998799999998
 11
-47.572219500000074
 21
748.54998799999998
  0
LINE
  8
_0-0_0
  6
CONTINUOUS
 62
    7
 10
-65.572219500000074
 20
748.54998799999998
 11
-65.072219500000074
 21
748.54998799999998
  0
LINE
  8
_0-0_0
  6
CONTINUOUS
 62
    7
 10
-66.272216500000013
 20
748.14999399999999
 11
-65.572219500000074
 21
748.14999399999999
  0
ARC
  8
_0-0_0
  6
CONTINUOUS
 62
    7
 10
-66.272216500000013
 20
747.84997599999997
 40
0.2999999999999999
 50
90.000003000000007
 51
179.99999099999999
  0
LINE
  8
_0-0_0
  6
CONTINUOUS
 62
    7
 10
-77.572219500000074
 20
770.97485400000005
 11
-77.572219500000074
 21
772.75
  0
LINE
  8
_0-0_0
  6
CONTINUOUS
 62
    7
 10
-72.572219500000074
 20
773.75
 11
-72.572219500000074
 21
773.25
  0
LINE
  8
_0-0_0
  6
CONTINUOUS
 62
    7
 10
-72.572219500000074
 20
769.80355800000007
 11
-72.572219500000074
 21
769.90853900000002
  0
LINE
  8
_0-0_0
  6
CONTINUOUS
 62
    7
 10
-72.572219500000074
 20
773.75
 11
-72.572219500000074
 21
775.24996899999996
  0
LINE
  8
_0-0_0
  6
CONTINUOUS
 62
    7
 10
26.927780499999926
 20
775.24996899999996
 11
26.927780499999926
 21
773.75
  0
LINE
  8
_0-0_0
  6
CONTINUOUS
 62
    7
 10
26.927780499999926
 20
773.75
 11
26.927780499999926
 21
772.75
  0
LINE
  8
_0-0_0
  6
CONTINUOUS
 62
    7
 10
26.927780499999926
 20
771.94998199999998
 11
26.927780499999926
 21
772.75
  0
LINE
  8
_0-0_0
  6
CONTINUOUS
 62
    7
 10
26.427780499999926
 20
773.25
 11
26.927780499999926
 21
773.25
  0
LINE
  8
_0-0_0
  6
CONTINUOUS
 62
    7
 10
13.927780499999926
 20
773.25
 11
26.427780499999926
 21
773.25
  0
LINE
  8
_0-0_0
  6
CONTINUOUS
 62
    7
 10
26.927780499999926
 20
775.25
 11
26.927780499999926
 21
774.25
  0
LINE
  8
_0-0_0
  6
CONTINUOUS
 62
    7
 10
26.927780499999926
 20
773.75
 11
26.927780499999926
 21
773.25
  0
LINE
  8
_0-0_0
  6
CONTINUOUS
 62
    7
 10
26.927780499999926
 20
774.25
 11
26.927780499999926
 21
773.75
  0
ARC
  8
_0-0_0
  6
CONTINUOUS
 62
    7
 10
-67.572219500000074
 20
771.75
 40
2
 50
179.99999099999999
 51
0
  0
LINE
  8
_0-0_0
  6
CONTINUOUS
 62
    7
 10
13.427780499999926
 20
773.25
 11
13.927780499999926
 21
773.25
  0
LINE
  8
_0-0_0
  6
CONTINUOUS
 62
    7
 10
13.427780499999926
 20
772.75
 11
13.427780499999926
 21
773.25
  0
LINE
  8
_0-0_0
  6
CONTINUOUS
 62
    7
 10
13.427780499999926
 20
771.75
 11
13.427780499999926
 21
771.94998199999998
  0
ARC
  8
_0-0_0
  6
CONTINUOUS
 62
    7
 10
11.427780499999926
 20
771.75
 40
2
 50
179.99999099999999
 51
0
  0
LINE
  8
_0-0_0
  6
CONTINUOUS
 62
    7
 10
9.4277804999999262
 20
773.25
 11
9.4277804999999262
 21
771.75
  0
LINE
  8
_0-0_0
  6
CONTINUOUS
 62
    7
 10
8.7277834999999868
 20
773.25
 11
9.4277804999999262
 21
773.25
  0
LINE
  8
_0-0_0
  6
CONTINUOUS
 62
    7
 10
-65.572219500000074
 20
771.75
 11
-65.572219500000074
 21
773.25
  0
LINE
  8
_0-0_0
  6
CONTINUOUS
 62
    7
 10
-69.572219500000074
 20
774.25
 11
26.927780499999926
 21
774.25
  0
ARC
  8
_0-0_0
  6
CONTINUOUS
 62
    7
 10
-64.872223500000018
 20
772.75
 40
0.5
 50
90.000003000000007
 51
179.99999099999999
  0
ARC
  8
_0-0_0
  6
CONTINUOUS
 62
    7
 10
-67.572219500000074
 20
771.75
 40
2.2000000000000002
 50
179.99999099999999
 51
0
  0
LINE
  8
_0-0_0
  6
CONTINUOUS
 62
    7
 10
-65.572219500000074
 20
748.14999399999999
 11
-65.072219500000074
 21
748.14999399999999
  0
LINE
  8
_0-0_0
  6
CONTINUOUS
 62
    7
 10
-65.072219500000074
 20
748.54998799999998
 11
-65.072219500000074
 21
748.14999399999999
  0
LINE
  8
_0-0_0
  6
CONTINUOUS
 62
    7
 10
-47.572219500000074
 20
748.54998799999998
 11
-11.572219500000074
 21
748.54998799999998
  0
LINE
  8
_0-0_0
  6
CONTINUOUS
 62
    7
 10
1.9277804999999262
 20
748.14999399999999
 11
2.4277804999999262
 21
748.14999399999999
  0
LINE
  8
_0-0_0
  6
CONTINUOUS
 62
    7
 10
1.9277804999999262
 20
748.54998799999998
 11
1.9277804999999262
 21
748.14999399999999
  0
LINE
  8
_0-0_0
  6
CONTINUOUS
 62
    7
 10
12.927780499999926
 20
745.75
 11
3.9277804999999262
 21
745.75
  0
ARC
  8
_0-0_0
  6
CONTINUOUS
 62
    7
 10
3.9277804999999262
 20
746.25
 40
0.5
 50
179.99999099999999
 51
269.99999700000001
  0
LINE
  8
_0-0_0
  6
CONTINUOUS
 62
    7
 10
12.927780499999926
 20
746.25
 11
13.427780499999926
 21
746.25
  0
LINE
  8
_0-0_0
  6
CONTINUOUS
 62
    7
 10
13.427780499999926
 20
746.25
 11
13.427780499999926
 21
746.44998199999998
  0
LINE
  8
_0-0_0
  6
CONTINUOUS
 62
    7
 10
17.927780499999926
 20
746.64999399999999
 11
13.627776499999982
 21
746.64999399999999
  0
LINE
  8
_0-0_0
  6
CONTINUOUS
 62
    7
 10
18.427780499999926
 20
747.14999399999999
 11
18.427780499999926
 21
748.92511000000002
  0
ARC
  8
_0-0_0
  6
CONTINUOUS
 62
    7
 10
15.379821499999935
 20
748.86898799999994
 40
3.0490550000000001
 50
1.0548960000000001
 51
14.838094000000002
  0
LINE
  8
_0-0_0
  6
CONTINUOUS
 62
    7
 10
17.927780499999926
 20
749.84997599999997
 11
13.560241499999961
 21
749.84997599999997
  0
LINE
  8
_0-0_0
  6
CONTINUOUS
 62
    7
 10
13.427780499999926
 20
749.99142499999994
 11
13.427780499999926
 21
750.33367900000007
  0
ARC
  8
_0-0_0
  6
CONTINUOUS
 62
    7
 10
11.427780499999926
 20
771.75
 40
2.2000000000000002
 50
179.99999099999999
 51
303.74900400000001
  0
LINE
  8
_0-0_0
  6
CONTINUOUS
 62
    7
 10
9.2277834999999868
 20
772.75
 11
9.2277834999999868
 21
771.75
  0
LINE
  8
_0-0_0
  6
CONTINUOUS
 62
    7
 10
8.7277834999999868
 20
773.25
 11
-64.872223500000018
 21
773.25
  0
LINE
  8
_0-0_0
  6
CONTINUOUS
 62
    7
 10
-65.372223500000018
 20
771.75
 11
-65.372223500000018
 21
772.75
  0
LINE
  8
_0-0_0
  6
CONTINUOUS
 62
    7
 10
-64.872223500000018
 20
771.54998799999998
 11
-64.872223500000018
 21
771.75
  0
ARC
  8
_0-0_0
  6
CONTINUOUS
 62
    7
 10
-63.872223500000018
 20
771.54998799999998
 40
1
 50
90.000003000000007
 51
179.99999099999999
  0
LINE
  8
_0-0_0
  6
CONTINUOUS
 62
    7
 10
-63.872223500000018
 20
772.54998799999998
 11
-50.572219500000074
 21
772.54998799999998
  0
LINE
  8
_0-0_0
  6
CONTINUOUS
 62
    7
 10
-8.5722195000000738
 20
772.54998799999998
 11
5.4277804999999262
 21
772.54998799999998
  0
ARC
  8
_0-0_0
  6
CONTINUOUS
 62
    7
 10
5.4277804999999262
 20
769.54998799999998
 40
3
 50
0
 51
90.000003000000007
  0
LINE
  8
_0-0_0
  6
CONTINUOUS
 62
    7
 10
8.4277804999999262
 20
755.94998199999998
 11
8.4277804999999262
 21
769.54998799999998
  0
ARC
  8
_0-0_0
  6
CONTINUOUS
 62
    7
 10
5.4277804999999262
 20
755.94998199999998
 40
3
 50
269.99999700000001
 51
0
  0
LINE
  8
_0-0_0
  6
CONTINUOUS
 62
    7
 10
5.4277804999999262
 20
752.94998199999998
 11
-8.5722195000000738
 21
752.94998199999998
  0
LINE
  8
_0-0_0
  6
CONTINUOUS
 62
    7
 10
-50.572219500000074
 20
752.94998199999998
 11
-64.572219500000074
 21
752.94998199999998
  0
ARC
  8
_0-0_0
  6
CONTINUOUS
 62
    7
 10
-64.572219500000074
 20
755.94998199999998
 40
3
 50
179.99999099999999
 51
269.99999700000001
  0
LINE
  8
_0-0_0
  6
CONTINUOUS
 62
    7
 10
-67.572219500000074
 20
768.18768299999999
 11
-67.572219500000074
 21
755.94998199999998
  0
ARC
  8
_0-0_0
  6
CONTINUOUS
 62
    7
 10
-66.572219500000074
 20
768.18768299999999
 40
1
 50
105.68034800000001
 51
179.99999100000002
  0
ARC
  8
_0-0_0
  6
CONTINUOUS
 62
    7
 10
-74.524246500000004
 20
771.03097500000001
 40
3.0490550000000001
 50
181.05489
 51
194.838089
  0
LINE
  8
_0-0_0
  6
CONTINUOUS
 62
    7
 10
-72.704681500000106
 20
770.04998799999998
 11
-77.072219500000074
 21
770.04998799999998
  0
LINE
  8
_0-0_0
  6
CONTINUOUS
 62
    7
 10
-72.572219500000074
 20
749.99142499999994
 11
-72.572219500000074
 21
750.096405
  0
LINE
  8
_0-0_0
  6
CONTINUOUS
 62
    7
 10
-72.704681500000106
 20
749.84997599999997
 11
-77.072219500000074
 21
749.84997599999997
  0
ARC
  8
_0-0_0
  6
CONTINUOUS
 62
    7
 10
-74.523071500000015
 20
748.86834700000009
 40
3.050319
 50
165.15540799999999
 51
178.932897
  0
LINE
  8
_0-0_0
  6
CONTINUOUS
 62
    7
 10
-77.572219500000074
 20
747.14999399999999
 11
-77.572219500000074
 21
748.92511000000002
  0
LINE
  8
_0-0_0
  6
CONTINUOUS
 62
    7
 10
-72.772216500000013
 20
746.64999399999999
 11
-77.072219500000074
 21
746.64999399999999
  0
LINE
  8
_0-0_0
  6
CONTINUOUS
 62
    7
 10
-72.572219500000074
 20
746.25
 11
-72.572219500000074
 21
746.44998199999998
  0
LINE
  8
_0-0_0
  6
CONTINUOUS
 62
    7
 10
-72.572219500000074
 20
746.25
 11
-72.072219500000074
 21
746.25
  0
LINE
  8
_0-0_0
  6
CONTINUOUS
 62
    7
 10
-67.072219500000074
 20
745.75
 11
-72.072219500000074
 21
745.75
  0
ARC
  8
_0-0_0
  6
CONTINUOUS
 62
    7
 10
-67.072219500000074
 20
746.25
 40
0.5
 50
269.99999700000001
 51
0
  0
LINE
  8
_0-0_0
  6
CONTINUOUS
 62
    7
 10
-77.253967500000044
 20
770.04998799999998
 11
-77.274307500000077
 21
770.05099500000006
  0
LINE
  8
_0-0_0
  6
CONTINUOUS
 62
    7
 10
-77.274307500000077
 20
770.05099500000006
 11
-77.294723500000032
 21
770.05413799999997
  0
LINE
  8
_0-0_0
  6
CONTINUOUS
 62
    7
 10
-77.294723500000032
 20
770.05413799999997
 11
-77.321533499999987
 21
770.06173699999999
  0
LINE
  8
_0-0_0
  6
CONTINUOUS
 62
    7
 10
-77.321533499999987
 20
770.06173699999999
 11
-77.347183500000028
 21
770.07312000000002
  0
LINE
  8
_0-0_0
  6
CONTINUOUS
 62
    7
 10
-77.347183500000028
 20
770.07312000000002
 11
-77.370987500000069
 21
770.08798200000001
  0
LINE
  8
_0-0_0
  6
CONTINUOUS
 62
    7
 10
-77.370987500000069
 20
770.08798200000001
 11
-77.387741500000061
 21
770.10150099999998
  0
LINE
  8
_0-0_0
  6
CONTINUOUS
 62
    7
 10
-77.387741500000061
 20
770.10150099999998
 11
-77.403244500000028
 21
770.11672999999996
  0
LINE
  8
_0-0_0
  6
CONTINUOUS
 62
    7
 10
-77.403244500000028
 20
770.11672999999996
 11
-77.430145499999981
 21
770.15136699999994
  0
LINE
  8
_0-0_0
  6
CONTINUOUS
 62
    7
 10
-77.430145499999981
 20
770.15136699999994
 11
-77.45118750000006
 21
770.18969700000002
  0
LINE
  8
_0-0_0
  6
CONTINUOUS
 62
    7
 10
-77.45118750000006
 20
770.18969700000002
 11
-77.463180500000021
 21
770.21963499999993
  0
LINE
  8
_0-0_0
  6
CONTINUOUS
 62
    7
 10
-77.463180500000021
 20
770.21963499999993
 11
-77.472213500000066
 21
770.25
  0
LINE
  8
_0-0_0
  6
CONTINUOUS
 62
    7
 10
-77.561020500000041
 20
770.75
 11
-84.572219500000074
 21
770.75
  0
LINE
  8
_0-0_0
  6
CONTINUOUS
 62
    7
 10
-84.572219500000074
 20
770.75
 11
-89.247665500000039
 21
770.75
  0
LINE
  8
_0-0_0
  6
CONTINUOUS
 62
    7
 10
-84.572219500000074
 20
770.75
 11
-84.572219500000074
 21
768.75
  0
LINE
  8
_0-0_0
  6
CONTINUOUS
 62
    7
 10
-72.572219500000074
 20
768.75
 11
-72.572219500000074
 21
769.80355800000007
  0
ARC
  8
_0-0_0
  6
CONTINUOUS
 62
    7
 10
26.427780499999926
 20
771.94998199999998
 40
0.5
 50
269.99999700000001
 51
0
  0
ARC
  8
_0-0_0
  6
CONTINUOUS
 62
    7
 10
13.927780499999926
 20
772.75
 40
0.5
 50
90.000003000000007
 51
179.99999099999999
  0
LINE
  8
_0-0_0
  6
CONTINUOUS
 62
    7
 10
13.427780499999926
 20
771.94998199999998
 11
13.427780499999926
 21
772.75
  0
LINE
  8
_0-0_0
  6
CONTINUOUS
 62
    7
 10
-66.372223500000018
 20
748.13284299999998
 11
-66.372223500000018
 21
746.14999399999999
  0
LINE
  8
_0-0_0
  6
CONTINUOUS
 62
    7
 10
-66.372223500000018
 20
746.14999399999999
 11
-65.372223500000018
 21
746.14999399999999
  0
LINE
  8
_0-0_0
  6
CONTINUOUS
 62
    7
 10
-65.072219500000074
 20
748.14999399999999
 11
1.9277804999999262
 21
748.14999399999999
  0
LINE
  8
_0-0_0
  6
CONTINUOUS
 62
    7
 10
-65.372223500000018
 20
746.14999399999999
 11
2.2277834999999868
 21
746.14999399999999
  0
LINE
  8
_0-0_0
  6
CONTINUOUS
 62
    7
 10
2.2277834999999868
 20
746.14999399999999
 11
3.2277834999999868
 21
746.14999399999999
  0
LINE
  8
_0-0_0
  6
CONTINUOUS
 62
    7
 10
3.2277834999999868
 20
748.13284299999998
 11
3.2277834999999868
 21
746.14999399999999
  0
LINE
  8
_0-0_0
  6
CONTINUOUS
 62
    7
 10
13.427780499999926
 20
746.25
 11
12.927780499999926
 21
745.75
  0
ARC
  8
_0-0_0
  6
CONTINUOUS
 62
    7
 10
13.627776499999982
 20
746.44998199999998
 40
0.2
 50
90.000003000000007
 51
179.99999099999999
  0
ARC
  8
_0-0_0
  6
CONTINUOUS
 62
    7
 10
17.927780499999926
 20
747.14999399999999
 40
0.5
 50
269.99999700000001
 51
0
  0
LINE
  8
_0-0_0
  6
CONTINUOUS
 62
    7
 10
18.109527500000013
 20
749.84997599999997
 11
18.129882499999894
 21
749.84896900000001
  0
LINE
  8
_0-0_0
  6
CONTINUOUS
 62
    7
 10
18.129882499999894
 20
749.84896900000001
 11
18.1502835
 21
749.84582499999999
  0
LINE
  8
_0-0_0
  6
CONTINUOUS
 62
    7
 10
18.1502835
 20
749.84582499999999
 11
18.177108499999918
 21
749.83822600000008
  0
LINE
  8
_0-0_0
  6
CONTINUOUS
 62
    7
 10
18.177108499999918
 20
749.83822600000008
 11
18.202743499999997
 21
749.82687399999998
  0
LINE
  8
_0-0_0
  6
CONTINUOUS
 62
    7
 10
18.202743499999997
 20
749.82687399999998
 11
18.226547499999924
 21
749.81198100000006
  0
LINE
  8
_0-0_0
  6
CONTINUOUS
 62
    7
 10
18.226547499999924
 20
749.81198100000006
 11
18.243301499999916
 21
749.79846199999997
  0
LINE
  8
_0-0_0
  6
CONTINUOUS
 62
    7
 10
18.243301499999916
 20
749.79846199999997
 11
18.258804499999997
 21
749.78326399999992
  0
LINE
  8
_0-0_0
  6
CONTINUOUS
 62
    7
 10
18.258804499999997
 20
749.78326399999992
 11
18.285705499999949
 21
749.74859600000002
  0
LINE
  8
_0-0_0
  6
CONTINUOUS
 62
    7
 10
18.285705499999949
 20
749.74859600000002
 11
18.306747499999915
 21
749.71026600000005
  0
LINE
  8
_0-0_0
  6
CONTINUOUS
 62
    7
 10
18.306747499999915
 20
749.71026600000005
 11
18.31874049999999
 21
749.68035899999995
  0
LINE
  8
_0-0_0
  6
CONTINUOUS
 62
    7
 10
18.31874049999999
 20
749.68035899999995
 11
18.327789499999994
 21
749.64999399999999
  0
LINE
  8
_0-0_0
  6
CONTINUOUS
 62
    7
 10
18.109527500000013
 20
749.84997599999997
 11
17.927780499999926
 21
749.84997599999997
  0
LINE
  8
_0-0_0
  6
CONTINUOUS
 62
    7
 10
13.427780499999926
 20
768.29998799999998
 11
13.427780499999926
 21
770.79998799999998
  0
LINE
  8
_0-0_0
  6
CONTINUOUS
 62
    7
 10
13.427780499999926
 20
768.29998799999998
 11
13.427780499999926
 21
751.79998799999998
  0
LINE
  8
_0-0_0
  6
CONTINUOUS
 62
    7
 10
13.427780499999926
 20
750.33367900000007
 11
13.427780499999926
 21
751.79998799999998
  0
ARC
  8
_0-0_0
  6
CONTINUOUS
 62
    7
 10
12.927780499999926
 20
769.50500499999998
 40
0.5
 50
0
 51
123.74898500000002
  0
ARC
  8
_0-0_0
  6
CONTINUOUS
 62
    7
 10
13.598068499999954
 20
750.02328499999999
 40
0.1734229999999999
 50
181.12417600000003
 51
270.64883800000007
  0
LINE
  8
_0-0_0
  6
CONTINUOUS
 62
    7
 10
13.423736499999904
 20
750.04998799999998
 11
13.423827500000016
 21
750.01986699999998
  0
ARC
  8
_0-0_0
  6
CONTINUOUS
 62
    7
 10
8.7277834999999868
 20
772.75
 40
0.5
 50
0
 51
90.000003000000007
  0
ARC
  8
_0-0_0
  6
CONTINUOUS
 62
    7
 10
-67.572219500000074
 20
771.75
 40
2.7000000000000002
 50
285.68033600000007
 51
0.0000000000000381
  0
ARC
  8
_0-0_0
  6
CONTINUOUS
 62
    7
 10
-50.572219500000074
 20
755.94998199999998
 40
3
 50
269.99999700000001
 51
0
  0
LINE
  8
_0-0_0
  6
CONTINUOUS
 62
    7
 10
-47.572219500000074
 20
755.94998199999998
 11
-47.572219500000074
 21
769.54998799999998
  0
ARC
  8
_0-0_0
  6
CONTINUOUS
 62
    7
 10
-50.572219500000074
 20
769.54998799999998
 40
3
 50
0
 51
90.000003000000007
  0
ARC
  8
_0-0_0
  6
CONTINUOUS
 62
    7
 10
-55.072219500000074
 20
765.25
 40
4.5
 50
269.99999700000001
 51
90.000002999999992
  0
LINE
  8
_0-0_0
  6
CONTINUOUS
 62
    7
 10
-55.072219500000074
 20
760.75
 11
-60.072219500000074
 21
760.75
  0
ARC
  8
_0-0_0
  6
CONTINUOUS
 62
    7
 10
-60.072219500000074
 20
765.25
 40
4.5
 50
90.000003000000007
 51
269.99999700000006
  0
LINE
  8
_0-0_0
  6
CONTINUOUS
 62
    7
 10
-60.072219500000074
 20
769.75
 11
-55.072219500000074
 21
769.75
  0
ARC
  8
_0-0_0
  6
CONTINUOUS
 62
    7
 10
-8.5722195000000738
 20
755.94998199999998
 40
3
 50
179.99999099999999
 51
269.99999700000001
  0
LINE
  8
_0-0_0
  6
CONTINUOUS
 62
    7
 10
-11.572219500000074
 20
769.54998799999998
 11
-11.572219500000074
 21
755.94998199999998
  0
ARC
  8
_0-0_0
  6
CONTINUOUS
 62
    7
 10
-8.5722195000000738
 20
769.54998799999998
 40
3
 50
90.000003000000007
 51
179.99999099999999
  0
ARC
  8
_0-0_0
  6
CONTINUOUS
 62
    7
 10
0.9277804999999261
 20
765.25
 40
4.5
 50
269.99999700000001
 51
90.000002999999992
  0
LINE
  8
_0-0_0
  6
CONTINUOUS
 62
    7
 10
0.9277804999999261
 20
760.75
 11
-4.0722195000000738
 21
760.75
  0
ARC
  8
_0-0_0
  6
CONTINUOUS
 62
    7
 10
-4.0722195000000738
 20
765.25
 40
4.5
 50
90.000003000000007
 51
269.99999700000006
  0
LINE
  8
_0-0_0
  6
CONTINUOUS
 62
    7
 10
-4.0722195000000738
 20
769.75
 11
0.9277804999999261
 21
769.75
  0
LINE
  8
_0-0_0
  6
CONTINUOUS
 62
    7
 10
-77.072219500000074
 20
770.04998799999998
 11
-77.253967500000044
 21
770.04998799999998
  0
LINE
  8
_0-0_0
  6
CONTINUOUS
 62
    7
 10
-72.572219500000074
 20
768.75
 11
-72.572219500000074
 21
751.14999399999999
  0
LINE
  8
_0-0_0
  6
CONTINUOUS
 62
    7
 10
-72.572219500000074
 20
750.096405
 11
-72.572219500000074
 21
751.14999399999999
  0
ARC
  8
_0-0_0
  6
CONTINUOUS
 62
    7
 10
-72.742508499999985
 20
750.02328499999999
 40
0.1734209999999999
 50
269.35085600000002
 51
358.87625300000002
  0
LINE
  8
_0-0_0
  6
CONTINUOUS
 62
    7
 10
-72.56817650000005
 20
750.04998799999998
 11
-72.568252499999971
 21
750.01986699999998
  0
LINE
  8
_0-0_0
  6
CONTINUOUS
 62
    7
 10
-72.56817650000005
 20
769.84997599999997
 11
-72.568252499999971
 21
769.88012700000002
  0
ARC
  8
_0-0_0
  6
CONTINUOUS
 62
    7
 10
-72.742508499999985
 20
769.87670900000001
 40
0.1734219999999999
 50
1.1236539999999999
 51
90.649110000000007
  0
LINE
  8
_0-0_0
  6
CONTINUOUS
 62
    7
 10
-77.072219500000074
 20
749.84997599999997
 11
-77.253967500000044
 21
749.84997599999997
  0
LINE
  8
_0-0_0
  6
CONTINUOUS
 62
    7
 10
-77.253967500000044
 20
749.84997599999997
 11
-77.274307500000077
 21
749.84896900000001
  0
LINE
  8
_0-0_0
  6
CONTINUOUS
 62
    7
 10
-77.274307500000077
 20
749.84896900000001
 11
-77.294723500000032
 21
749.84582499999999
  0
LINE
  8
_0-0_0
  6
CONTINUOUS
 62
    7
 10
-77.294723500000032
 20
749.84582499999999
 11
-77.321533499999987
 21
749.83822600000008
  0
LINE
  8
_0-0_0
  6
CONTINUOUS
 62
    7
 10
-77.321533499999987
 20
749.83822600000008
 11
-77.347183500000028
 21
749.82687399999998
  0
LINE
  8
_0-0_0
  6
CONTINUOUS
 62
    7
 10
-77.347183500000028
 20
749.82687399999998
 11
-77.370987500000069
 21
749.81198100000006
  0
LINE
  8
_0-0_0
  6
CONTINUOUS
 62
    7
 10
-77.370987500000069
 20
749.81198100000006
 11
-77.387741500000061
 21
749.79846199999997
  0
LINE
  8
_0-0_0
  6
CONTINUOUS
 62
    7
 10
-77.387741500000061
 20
749.79846199999997
 11
-77.403244500000028
 21
749.78326399999992
  0
LINE
  8
_0-0_0
  6
CONTINUOUS
 62
    7
 10
-77.403244500000028
 20
749.78326399999992
 11
-77.430145499999981
 21
749.74859600000002
  0
LINE
  8
_0-0_0
  6
CONTINUOUS
 62
    7
 10
-77.430145499999981
 20
749.74859600000002
 11
-77.45118750000006
 21
749.71026600000005
  0
LINE
  8
_0-0_0
  6
CONTINUOUS
 62
    7
 10
-77.45118750000006
 20
749.71026600000005
 11
-77.463180500000021
 21
749.68035899999995
  0
LINE
  8
_0-0_0
  6
CONTINUOUS
 62
    7
 10
-77.463180500000021
 20
749.68035899999995
 11
-77.472213500000066
 21
749.64999399999999
  0
ARC
  8
_0-0_0
  6
CONTINUOUS
 62
    7
 10
-77.072219500000074
 20
747.14999399999999
 40
0.5
 50
179.99999099999999
 51
269.99999700000001
  0
ARC
  8
_0-0_0
  6
CONTINUOUS
 62
    7
 10
-72.772216500000013
 20
746.44998199999998
 40
0.2
 50
0
 51
90.000003000000007
  0
LINE
  8
_0-0_0
  6
CONTINUOUS
 62
    7
 10
-72.572219500000074
 20
746.25
 11
-72.072219500000074
 21
745.75
  0
ARC
  8
_0-0_0
  6
CONTINUOUS
 62
    7
 10
-89.247665500000039
 20
768.75
 40
2
 50
90.000003000000007
 51
108.434997
  0
LINE
  8
_0-0_0
  6
CONTINUOUS
 62
    7
 10
-84.572219500000074
 20
768.25
 11
-84.572219500000074
 21
768.75
  0
LINE
  8
_0-0_0
  6
CONTINUOUS
 62
    7
 10
-84.572219500000074
 20
765.25
 11
-84.572219500000074
 21
764.75
  0
LINE
  8
_0-0_0
  6
CONTINUOUS
 62
    7
 10
-84.572219500000074
 20
765.25
 11
-84.572219500000074
 21
768.25
  0
ARC
  8
_0-0_0
  6
CONTINUOUS
 62
    7
 10
-78.572204499999998
 20
765.44998199999998
 40
0.500016
 50
0.001164
 51
179.99560600000004
  0
LINE
  8
_0-0_0
  6
CONTINUOUS
 62
    7
 10
-79.072219500000074
 20
765.44998199999998
 11
-79.072219500000074
 21
753.44998199999998
  0
ARC
  8
_0-0_0
  6
CONTINUOUS
 62
    7
 10
-78.572204499999998
 20
753.45001200000002
 40
0.500016
 50
180.00117
 51
359.995611
  0
LINE
  8
_0-0_0
  6
CONTINUOUS
 62
    7
 10
-78.072219500000074
 20
765.44998199999998
 11
-78.072219500000074
 21
753.44998199999998
  0
ARC
  8
_0-0_0
  6
CONTINUOUS
 62
    7
 10
-80.072204499999998
 20
765.44998199999998
 40
0.500016
 50
0.001164
 51
179.99560600000004
  0
LINE
  8
_0-0_0
  6
CONTINUOUS
 62
    7
 10
-80.572219500000074
 20
765.44998199999998
 11
-80.572219500000074
 21
753.44998199999998
  0
ARC
  8
_0-0_0
  6
CONTINUOUS
 62
    7
 10
-80.072204499999998
 20
753.45001200000002
 40
0.500016
 50
180.00117
 51
359.995611
  0
LINE
  8
_0-0_0
  6
CONTINUOUS
 62
    7
 10
-79.572219500000074
 20
765.44998199999998
 11
-79.572219500000074
 21
753.44998199999998
  0
ARC
  8
_0-0_0
  6
CONTINUOUS
 62
    7
 10
-81.572204499999998
 20
765.44998199999998
 40
0.500016
 50
0.001164
 51
179.99560600000004
  0
LINE
  8
_0-0_0
  6
CONTINUOUS
 62
    7
 10
-82.072219500000074
 20
765.44998199999998
 11
-82.072219500000074
 21
753.44998199999998
  0
ARC
  8
_0-0_0
  6
CONTINUOUS
 62
    7
 10
-81.572204499999998
 20
753.45001200000002
 40
0.500016
 50
180.00117
 51
359.995611
  0
LINE
  8
_0-0_0
  6
CONTINUOUS
 62
    7
 10
-81.072219500000074
 20
765.44998199999998
 11
-81.072219500000074
 21
753.44998199999998
  0
ARC
  8
_0-0_0
  6
CONTINUOUS
 62
    7
 10
-83.072204499999998
 20
765.44998199999998
 40
0.500016
 50
0.001164
 51
179.99560600000004
  0
LINE
  8
_0-0_0
  6
CONTINUOUS
 62
    7
 10
-83.572219500000074
 20
765.44998199999998
 11
-83.572219500000074
 21
753.44998199999998
  0
ARC
  8
_0-0_0
  6
CONTINUOUS
 62
    7
 10
-83.072204499999998
 20
753.45001200000002
 40
0.500016
 50
180.00117
 51
359.995611
  0
LINE
  8
_0-0_0
  6
CONTINUOUS
 62
    7
 10
-82.572219500000074
 20
765.44998199999998
 11
-82.572219500000074
 21
753.44998199999998
  0
LINE
  8
_0-0_0
  6
CONTINUOUS
 62
    7
 10
13.427780499999926
 20
771.44998199999998
 11
13.927780499999926
 21
771.44998199999998
  0
LINE
  8
_0-0_0
  6
CONTINUOUS
 62
    7
 10
13.927780499999926
 20
771.44998199999998
 11
26.427780499999926
 21
771.44998199999998
  0
ARC
  8
_0-0_0
  6
CONTINUOUS
 62
    7
 10
13.927780499999926
 20
771.94998199999998
 40
0.5
 50
179.99999099999999
 51
269.99999700000001
  0
LINE
  8
_0-0_0
  6
CONTINUOUS
 62
    7
 10
13.427780499999926
 20
771.08395399999995
 11
13.427780499999926
 21
771.44998199999998
  0
LINE
  8
_0-0_0
  6
CONTINUOUS
 62
    7
 10
13.427780499999926
 20
770.83346600000004
 11
13.427780499999926
 21
770.79998799999998
  0
LINE
  8
_0-0_0
  6
CONTINUOUS
 62
    7
 10
13.427780499999926
 20
771.08395399999995
 11
13.427780499999926
 21
770.83346600000004
  0
CIRCLE
  8
_0-0_0
  6
CONTINUOUS
 62
    7
 10
-67.572219500000074
 20
771.75
 40
1.4750000000000001
  0
CIRCLE
  8
_0-0_0
  6
CONTINUOUS
 62
    7
 10
11.427780499999926
 20
771.75
 40
1.4750000000000001
  0
LINE
  8
_0-0_0
  6
CONTINUOUS
 62
    7
 10
13.427780499999926
 20
746.09997599999997
 11
13.427780499999926
 21
746.25
  0
LINE
  8
_0-0_0
  6
CONTINUOUS
 62
    7
 10
18.927780499999926
 20
746.09997599999997
 11
13.427780499999926
 21
746.09997599999997
  0
LINE
  8
_0-0_0
  6
CONTINUOUS
 62
    7
 10
18.927780499999926
 20
748.64999399999999
 11
18.427780499999926
 21
748.64999399999999
  0
LINE
  8
_0-0_0
  6
CONTINUOUS
 62
    7
 10
13.927780499999926
 20
771.29998799999998
 11
13.427780499999926
 21
770.79998799999998
  0
LINE
  8
_0-0_0
  6
CONTINUOUS
 62
    7
 10
13.927780499999926
 20
771.29998799999998
 11
18.927780499999926
 21
771.29998799999998
  0
LINE
  8
_0-0_0
  6
CONTINUOUS
 62
    7
 10
-77.561020500000041
 20
749.14999399999999
 11
-89.247665500000039
 21
749.14999399999999
  0
LINE
  8
_0-0_0
  6
CONTINUOUS
 62
    7
 10
-90.322219500000074
 20
770.49996899999996
 11
-89.880127500000071
 21
770.64733899999999
  0
LINE
  8
_0-0_0
  6
CONTINUOUS
 62
    7
 10
-94.046569500000032
 20
765.25
 11
-94.739929500000017
 21
765.25
  0
LINE
  8
_0-0_0
  6
CONTINUOUS
 62
    7
 10
-94.046569500000032
 20
765.25
 11
-89.722000500000036
 21
765.25
  0
LINE
  8
_0-0_0
  6
CONTINUOUS
 62
    7
 10
-89.247665500000039
 20
765.25
 11
-89.722000500000036
 21
765.25
  0
LINE
  8
_0-0_0
  6
CONTINUOUS
 62
    7
 10
-84.572219500000074
 20
765.25
 11
-89.247665500000039
 21
765.25
  0
LINE
  8
_0-0_0
  6
CONTINUOUS
 62
    7
 10
13.427780499999926
 20
745.95355199999995
 11
13.427780499999926
 21
746.09997599999997
  0
LINE
  8
_0-0_0
  6
CONTINUOUS
 62
    7
 10
13.427780499999926
 20
745.89642300000003
 11
13.427780499999926
 21
745.95355199999995
  0
LINE
  8
_0-0_0
  6
CONTINUOUS
 62
    7
 10
13.427780499999926
 20
745.75
 11
13.427780499999926
 21
745.89642300000003
  0
ARC
  8
_0-0_0
  6
CONTINUOUS
 62
    7
 10
18.927780499999926
 20
746.59997599999997
 40
0.5
 50
269.99999700000001
 51
0
  0
LINE
  8
_0-0_0
  6
CONTINUOUS
 62
    7
 10
19.427780499999926
 20
748.15570100000002
 11
19.427780499999926
 21
746.59997599999997
  0
ARC
  8
_0-0_0
  6
CONTINUOUS
 62
    7
 10
18.940872499999955
 20
748.15234400000008
 40
0.4869939999999999
 50
0.394923
 51
23.93947
  0
ARC
  8
_0-0_0
  6
CONTINUOUS
 62
    7
 10
18.927780499999926
 20
748.14999399999999
 40
0.5
 50
23.578231000000002
 51
90.000002999999992
  0
LINE
  8
_0-0_0
  6
CONTINUOUS
 62
    7
 10
19.427780499999926
 20
768.29998799999998
 11
19.427780499999926
 21
770.79998799999998
  0
ARC
  8
_0-0_0
  6
CONTINUOUS
 62
    7
 10
18.927780499999926
 20
770.79998799999998
 40
0.5
 50
0
 51
90.000003000000007
  0
LINE
  8
_0-0_0
  6
CONTINUOUS
 62
    7
 10
18.927780499999926
 20
755
 11
16.727783499999987
 21
755
  0
LINE
  8
_0-0_0
  6
CONTINUOUS
 62
    7
 10
19.427780499999926
 20
768.29998799999998
 11
19.427780499999926
 21
755.5
  0
LINE
  8
_0-0_0
  6
CONTINUOUS
 62
    7
 10
16.427780499999926
 20
754.69998199999998
 11
16.427780499999926
 21
752.12167399999998
  0
LINE
  8
_0-0_0
  6
CONTINUOUS
 62
    7
 10
-53.600677500000074
 20
761.14999399999999
 11
-61.543762500000071
 21
761.14999399999999
  0
ARC
  8
_0-0_0
  6
CONTINUOUS
 62
    7
 10
-61.543762500000071
 20
761.64999399999999
 40
0.5
 50
210.00000299999999
 51
269.99999700000001
  0
LINE
  8
_0-0_0
  6
CONTINUOUS
 62
    7
 10
-61.976776500000028
 20
761.39999399999999
 11
-64.055236500000092
 21
765
  0
ARC
  8
_0-0_0
  6
CONTINUOUS
 62
    7
 10
-63.622223500000018
 20
765.25
 40
0.5
 50
149.99999700000001
 51
210.00000299999996
  0
LINE
  8
_0-0_0
  6
CONTINUOUS
 62
    7
 10
-64.055236500000092
 20
765.5
 11
-61.976776500000028
 21
769.09997599999997
  0
ARC
  8
_0-0_0
  6
CONTINUOUS
 62
    7
 10
-61.543762500000071
 20
768.84997599999997
 40
0.5
 50
90.000003000000007
 51
149.99999700000001
  0
LINE
  8
_0-0_0
  6
CONTINUOUS
 62
    7
 10
-61.543762500000071
 20
769.34997599999997
 11
-53.600677500000074
 21
769.34997599999997
  0
ARC
  8
_0-0_0
  6
CONTINUOUS
 62
    7
 10
-53.600677500000074
 20
768.84997599999997
 40
0.5
 50
30.000001000000001
 51
90.000003000000007
  0
LINE
  8
_0-0_0
  6
CONTINUOUS
 62
    7
 10
-53.167663500000003
 20
769.09997599999997
 11
-51.089203500000053
 21
765.5
  0
ARC
  8
_0-0_0
  6
CONTINUOUS
 62
    7
 10
-51.522216500000013
 20
765.25
 40
0.5
 50
329.99998900000003
 51
30.000000999999983
  0
LINE
  8
_0-0_0
  6
CONTINUOUS
 62
    7
 10
-51.089203500000053
 20
765
 11
-53.167663500000003
 21
761.39999399999999
  0
ARC
  8
_0-0_0
  6
CONTINUOUS
 62
    7
 10
-53.600677500000074
 20
761.64999399999999
 40
0.5
 50
269.99999700000001
 51
329.99998900000003
  0
ARC
  8
_0-0_0
  6
CONTINUOUS
 62
    7
 10
-5.6014865000000782
 20
761.75
 40
0.5
 50
210.00000299999999
 51
269.99999700000001
  0
LINE
  8
_0-0_0
  6
CONTINUOUS
 62
    7
 10
-6.0345005000000356
 20
761.5
 11
-8.055221500000016
 21
765
  0
ARC
  8
_0-0_0
  6
CONTINUOUS
 62
    7
 10
-7.6222235000000182
 20
765.25
 40
0.5
 50
149.99999700000001
 51
210.00000299999996
  0
LINE
  8
_0-0_0
  6
CONTINUOUS
 62
    7
 10
-8.055221500000016
 20
765.5
 11
-6.0345005000000356
 21
769
  0
ARC
  8
_0-0_0
  6
CONTINUOUS
 62
    7
 10
-5.6014865000000782
 20
768.75
 40
0.5
 50
90.000003000000007
 51
149.99999700000001
  0
LINE
  8
_0-0_0
  6
CONTINUOUS
 62
    7
 10
-5.6014865000000782
 20
769.25
 11
2.4570615000000089
 21
769.25
  0
ARC
  8
_0-0_0
  6
CONTINUOUS
 62
    7
 10
2.4570615000000089
 20
768.75
 40
0.5
 50
30.000001000000001
 51
90.000003000000007
  0
LINE
  8
_0-0_0
  6
CONTINUOUS
 62
    7
 10
2.8900754999999663
 20
769
 11
4.9107964999999467
 21
765.5
  0
ARC
  8
_0-0_0
  6
CONTINUOUS
 62
    7
 10
4.4777834999999868
 20
765.25
 40
0.5
 50
329.99998900000003
 51
30.000000999999983
  0
LINE
  8
_0-0_0
  6
CONTINUOUS
 62
    7
 10
4.9107964999999467
 20
765
 11
2.8900754999999663
 21
761.5
  0
ARC
  8
_0-0_0
  6
CONTINUOUS
 62
    7
 10
2.4570615000000089
 20
761.75
 40
0.5
 50
269.99999700000001
 51
329.99998900000003
  0
LINE
  8
_0-0_0
  6
CONTINUOUS
 62
    7
 10
2.4570615000000089
 20
761.25
 11
-5.6014865000000782
 21
761.25
  0
LINE
  8
_0-0_0
  6
CONTINUOUS
 62
    7
 10
-89.880127500000071
 20
749.25262500000008
 11
-89.760635500000035
 21
749.21701000000007
  0
LINE
  8
_0-0_0
  6
CONTINUOUS
 62
    7
 10
-89.760635500000035
 20
749.21701000000007
 11
-89.639068500000008
 21
749.18911700000001
  0
LINE
  8
_0-0_0
  6
CONTINUOUS
 62
    7
 10
-89.639068500000008
 20
749.18911700000001
 11
-89.515945500000043
 21
749.16906700000004
  0
LINE
  8
_0-0_0
  6
CONTINUOUS
 62
    7
 10
-89.515945500000043
 20
749.16906700000004
 11
-89.391723500000012
 21
749.15695200000005
  0
LINE
  8
_0-0_0
  6
CONTINUOUS
 62
    7
 10
-89.391723500000012
 20
749.15695200000005
 11
-89.266891500000042
 21
749.15283199999999
  0
LINE
  8
_0-0_0
  6
CONTINUOUS
 62
    7
 10
-89.266891500000042
 20
749.15283199999999
 11
-89.247665500000039
 21
749.15289299999995
  0
ARC
  8
_0-0_0
  6
CONTINUOUS
 62
    7
 10
-89.247665500000039
 20
751.14999399999999
 40
2
 50
251.56498899999997
 51
269.99999700000001
  0
LINE
  8
_0-0_0
  6
CONTINUOUS
 62
    7
 10
-95.572219500000074
 20
766.00003100000004
 11
-95.572219500000074
 21
764.87899800000002
  0
LINE
  8
_0-0_0
  6
CONTINUOUS
 62
    7
 10
-67.372223500000018
 20
770.64999399999999
 11
-67.772216500000013
 21
770.64999399999999
  0
LINE
  8
_0-0_0
  6
CONTINUOUS
 62
    7
 10
-67.372223500000018
 20
770.64999399999999
 11
-67.372223500000018
 21
771.29998799999998
  0
ARC
  8
_0-0_0
  6
CONTINUOUS
 62
    7
 10
-67.122223500000018
 20
771.29998799999998
 40
0.25
 50
90.000003000000007
 51
179.99999099999999
  0
LINE
  8
_0-0_0
  6
CONTINUOUS
 62
    7
 10
-67.122223500000018
 20
771.54998799999998
 11
-66.472213500000066
 21
771.54998799999998
  0
LINE
  8
_0-0_0
  6
CONTINUOUS
 62
    7
 10
-66.472213500000066
 20
771.54998799999998
 11
-66.472213500000066
 21
771.94998199999998
  0
LINE
  8
_0-0_0
  6
CONTINUOUS
 62
    7
 10
-67.122223500000018
 20
771.94998199999998
 11
-66.472213500000066
 21
771.94998199999998
  0
ARC
  8
_0-0_0
  6
CONTINUOUS
 62
    7
 10
-67.122223500000018
 20
772.19998199999998
 40
0.25
 50
179.99999099999999
 51
269.99999700000001
  0
LINE
  8
_0-0_0
  6
CONTINUOUS
 62
    7
 10
-67.372223500000018
 20
772.84997599999997
 11
-67.372223500000018
 21
772.19998199999998
  0
LINE
  8
_0-0_0
  6
CONTINUOUS
 62
    7
 10
-67.372223500000018
 20
772.84997599999997
 11
-67.772216500000013
 21
772.84997599999997
  0
LINE
  8
_0-0_0
  6
CONTINUOUS
 62
    7
 10
-67.772216500000013
 20
772.84997599999997
 11
-67.772216500000013
 21
772.19998199999998
  0
ARC
  8
_0-0_0
  6
CONTINUOUS
 62
    7
 10
-68.022216500000013
 20
772.19998199999998
 40
0.25
 50
269.99999700000001
 51
0
  0
LINE
  8
_0-0_0
  6
CONTINUOUS
 62
    7
 10
-68.022216500000013
 20
771.94998199999998
 11
-68.672226500000079
 21
771.94998199999998
  0
LINE
  8
_0-0_0
  6
CONTINUOUS
 62
    7
 10
-68.672226500000079
 20
771.54998799999998
 11
-68.672226500000079
 21
771.94998199999998
  0
LINE
  8
_0-0_0
  6
CONTINUOUS
 62
    7
 10
-68.022216500000013
 20
771.54998799999998
 11
-68.672226500000079
 21
771.54998799999998
  0
ARC
  8
_0-0_0
  6
CONTINUOUS
 62
    7
 10
-68.022216500000013
 20
771.29998799999998
 40
0.25
 50
0
 51
90.000003000000007
  0
LINE
  8
_0-0_0
  6
CONTINUOUS
 62
    7
 10
-67.772216500000013
 20
770.64999399999999
 11
-67.772216500000013
 21
771.29998799999998
  0
LINE
  8
_0-0_0
  6
CONTINUOUS
 62
    7
 10
11.627776499999982
 20
770.64999399999999
 11
11.227783499999987
 21
770.64999399999999
  0
LINE
  8
_0-0_0
  6
CONTINUOUS
 62
    7
 10
11.627776499999982
 20
770.64999399999999
 11
11.627776499999982
 21
771.29998799999998
  0
ARC
  8
_0-0_0
  6
CONTINUOUS
 62
    7
 10
11.877776499999982
 20
771.29998799999998
 40
0.25
 50
90.000003000000007
 51
179.99999099999999
  0
LINE
  8
_0-0_0
  6
CONTINUOUS
 62
    7
 10
11.877776499999982
 20
771.54998799999998
 11
12.527786499999934
 21
771.54998799999998
  0
LINE
  8
_0-0_0
  6
CONTINUOUS
 62
    7
 10
12.527786499999934
 20
771.54998799999998
 11
12.527786499999934
 21
771.94998199999998
  0
LINE
  8
_0-0_0
  6
CONTINUOUS
 62
    7
 10
11.877776499999982
 20
771.94998199999998
 11
12.527786499999934
 21
771.94998199999998
  0
ARC
  8
_0-0_0
  6
CONTINUOUS
 62
    7
 10
11.877776499999982
 20
772.19998199999998
 40
0.25
 50
179.99999099999999
 51
269.99999700000001
  0
LINE
  8
_0-0_0
  6
CONTINUOUS
 62
    7
 10
11.627776499999982
 20
772.84997599999997
 11
11.627776499999982
 21
772.19998199999998
  0
LINE
  8
_0-0_0
  6
CONTINUOUS
 62
    7
 10
11.627776499999982
 20
772.84997599999997
 11
11.227783499999987
 21
772.84997599999997
  0
LINE
  8
_0-0_0
  6
CONTINUOUS
 62
    7
 10
11.227783499999987
 20
772.84997599999997
 11
11.227783499999987
 21
772.19998199999998
  0
ARC
  8
_0-0_0
  6
CONTINUOUS
 62
    7
 10
10.977783499999987
 20
772.19998199999998
 40
0.25
 50
269.99999700000001
 51
0
  0
LINE
  8
_0-0_0
  6
CONTINUOUS
 62
    7
 10
10.977783499999987
 20
771.94998199999998
 11
10.327789499999994
 21
771.94998199999998
  0
LINE
  8
_0-0_0
  6
CONTINUOUS
 62
    7
 10
10.327789499999994
 20
771.54998799999998
 11
10.327789499999994
 21
771.94998199999998
  0
LINE
  8
_0-0_0
  6
CONTINUOUS
 62
    7
 10
10.977783499999987
 20
771.54998799999998
 11
10.327789499999994
 21
771.54998799999998
  0
ARC
  8
_0-0_0
  6
CONTINUOUS
 62
    7
 10
10.977783499999987
 20
771.29998799999998
 40
0.25
 50
0
 51
90.000003000000007
  0
LINE
  8
_0-0_0
  6
CONTINUOUS
 62
    7
 10
11.227783499999987
 20
770.64999399999999
 11
11.227783499999987
 21
771.29998799999998
  0
LINE
  8
_0-0_0
  6
CONTINUOUS
 62
    7
 10
18.927780499999926
 20
745.75
 11
13.427780499999926
 21
745.75
  0
LINE
  8
_0-0_0
  6
CONTINUOUS
 62
    7
 10
19.427780499999926
 20
752
 11
19.427780499999926
 21
755.5
  0
LINE
  8
_0-0_0
  6
CONTINUOUS
 62
    7
 10
19.427780499999926
 20
752
 11
19.427780499999926
 21
751.64999399999999
  0
LINE
  8
_0-0_0
  6
CONTINUOUS
 62
    7
 10
19.427780499999926
 20
748.15570100000002
 11
19.427780499999926
 21
751.64999399999999
  0
LINE
  8
_0-0_0
  6
CONTINUOUS
 62
    7
 10
19.427780499999926
 20
746.307098
 11
19.427780499999926
 21
746.59997599999997
  0
LINE
  8
_0-0_0
  6
CONTINUOUS
 62
    7
 10
19.427780499999926
 20
746.307098
 11
19.427780499999926
 21
746.25
  0
LINE
  8
_0-0_0
  6
CONTINUOUS
 62
    7
 10
16.427780499999926
 20
750.57128899999998
 11
16.427780499999926
 21
752.12167399999998
  0
LINE
  8
_0-0_0
  6
CONTINUOUS
 62
    7
 10
16.427780499999926
 20
749.85012800000004
 11
16.427780499999926
 21
750.57128899999998
  0
ARC
  8
_0-0_0
  6
CONTINUOUS
 62
    7
 10
18.927780499999926
 20
755.5
 40
0.5
 50
269.99999700000001
 51
0
  0
ARC
  8
_0-0_0
  6
CONTINUOUS
 62
    7
 10
16.727783499999987
 20
754.69998199999998
 40
0.2999999999999999
 50
90.000003000000007
 51
179.99999099999999
  0
LINE
  8
_0-0_0
  6
CONTINUOUS
 62
    7
 10
-94.204681500000106
 20
750.69415299999991
 11
-89.880127500000071
 21
749.25262500000008
  0
LINE
  8
_0-0_0
  6
CONTINUOUS
 62
    7
 10
-95.572219500000074
 20
752.59149200000002
 11
-95.572219500000074
 21
755.94229100000007
  0
LINE
  8
_0-0_0
  6
CONTINUOUS
 62
    7
 10
-95.572219500000074
 20
763.957672
 11
-95.572219500000074
 21
764.87899800000002
  0
ARC
  8
_0-0_0
  6
CONTINUOUS
 62
    7
 10
-93.572219500000074
 20
752.59149200000002
 40
2
 50
179.99999099999999
 51
251.56498899999997
  0
LINE
  8
_0-0_0
  6
CONTINUOUS
 62
    7
 10
-110.57221950000007
 20
769.47543300000007
 11
-110.57221950000007
 21
769.32870500000001
  0
LINE
  8
_0-0_0
  6
CONTINUOUS
 62
    7
 10
-110.57221950000007
 20
769.66595499999994
 11
-110.57221950000007
 21
769.47543300000007
  0
LINE
  8
_0-0_0
  6
CONTINUOUS
 62
    7
 10
-110.57221950000007
 20
769.84097300000008
 11
-110.57221950000007
 21
769.66595499999994
  0
LINE
  8
_0-0_0
  6
CONTINUOUS
 62
    7
 10
-110.57221950000007
 20
769.99856599999998
 11
-110.57221950000007
 21
769.84097300000008
  0
LINE
  8
_0-0_0
  6
CONTINUOUS
 62
    7
 10
-110.57221950000007
 20
770.13699300000007
 11
-110.57221950000007
 21
769.99856599999998
  0
LINE
  8
_0-0_0
  6
CONTINUOUS
 62
    7
 10
-110.57221950000007
 20
770.25476099999992
 11
-110.57221950000007
 21
770.13699300000007
  0
LINE
  8
_0-0_0
  6
CONTINUOUS
 62
    7
 10
-110.57221950000007
 20
770.35052500000006
 11
-110.57221950000007
 21
770.25476099999992
  0
LINE
  8
_0-0_0
  6
CONTINUOUS
 62
    7
 10
-110.57221950000007
 20
770.42330900000002
 11
-110.57221950000007
 21
770.35052500000006
  0
LINE
  8
_0-0_0
  6
CONTINUOUS
 62
    7
 10
-110.57221950000007
 20
770.47228999999993
 11
-110.57221950000007
 21
770.42330900000002
  0
LINE
  8
_0-0_0
  6
CONTINUOUS
 62
    7
 10
-110.57221950000007
 20
770.5
 11
-110.57221950000007
 21
770.47228999999993
  0
LINE
  8
_0-0_0
  6
CONTINUOUS
 62
    7
 10
-110.57221950000007
 20
770.5
 11
-110.57221950000007
 21
770.49688700000002
  0
LINE
  8
_0-0_0
  6
CONTINUOUS
 62
    7
 10
-110.57221950000007
 20
766.00305200000003
 11
-110.57221950000007
 21
766
  0
LINE
  8
_0-0_0
  6
CONTINUOUS
 62
    7
 10
-110.57221950000007
 20
766.02767900000003
 11
-110.57221950000007
 21
766
  0
LINE
  8
_0-0_0
  6
CONTINUOUS
 62
    7
 10
-110.57221950000007
 20
766.07665999999995
 11
-110.57221950000007
 21
766.02767900000003
  0
LINE
  8
_0-0_0
  6
CONTINUOUS
 62
    7
 10
-110.57221950000007
 20
766.14941399999998
 11
-110.57221950000007
 21
766.07665999999995
  0
LINE
  8
_0-0_0
  6
CONTINUOUS
 62
    7
 10
-110.57221950000007
 20
766.24520899999993
 11
-110.57221950000007
 21
766.14941399999998
  0
LINE
  8
_0-0_0
  6
CONTINUOUS
 62
    7
 10
-110.57221950000007
 20
766.27542100000005
 11
-110.57221950000007
 21
766.24520899999993
  0
LINE
  8
_0-0_0
  6
CONTINUOUS
 62
    7
 10
-110.57221950000007
 20
766.362976
 11
-110.57221950000007
 21
766.27542100000005
  0
LINE
  8
_0-0_0
  6
CONTINUOUS
 62
    7
 10
-110.57221950000007
 20
766.50140399999998
 11
-110.57221950000007
 21
766.362976
  0
LINE
  8
_0-0_0
  6
CONTINUOUS
 62
    7
 10
-110.57221950000007
 20
766.658997
 11
-110.57221950000007
 21
766.50140399999998
  0
LINE
  8
_0-0_0
  6
CONTINUOUS
 62
    7
 10
-110.57221950000007
 20
766.83401500000002
 11
-110.57221950000007
 21
766.658997
  0
LINE
  8
_0-0_0
  6
CONTINUOUS
 62
    7
 10
-110.57221950000007
 20
767.02453600000001
 11
-110.57221950000007
 21
766.83401500000002
  0
LINE
  8
_0-0_0
  6
CONTINUOUS
 62
    7
 10
-110.57221950000007
 20
767.22851600000001
 11
-110.57221950000007
 21
767.02453600000001
  0
LINE
  8
_0-0_0
  6
CONTINUOUS
 62
    7
 10
-110.57221950000007
 20
767.44366500000001
 11
-110.57221950000007
 21
767.22851600000001
  0
LINE
  8
_0-0_0
  6
CONTINUOUS
 62
    7
 10
-110.57221950000007
 20
767.66763300000002
 11
-110.57221950000007
 21
767.44366500000001
  0
LINE
  8
_0-0_0
  6
CONTINUOUS
 62
    7
 10
-110.57221950000007
 20
767.89801
 11
-110.57221950000007
 21
767.66763300000002
  0
LINE
  8
_0-0_0
  6
CONTINUOUS
 62
    7
 10
-110.57221950000007
 20
768.13223300000004
 11
-110.57221950000007
 21
767.89801
  0
LINE
  8
_0-0_0
  6
CONTINUOUS
 62
    7
 10
-110.57221950000007
 20
768.36773700000003
 11
-110.57221950000007
 21
768.13223300000004
  0
LINE
  8
_0-0_0
  6
CONTINUOUS
 62
    7
 10
-110.57221950000007
 20
768.60195900000008
 11
-110.57221950000007
 21
768.36773700000003
  0
LINE
  8
_0-0_0
  6
CONTINUOUS
 62
    7
 10
-110.57221950000007
 20
768.83233599999994
 11
-110.57221950000007
 21
768.60195900000008
  0
LINE
  8
_0-0_0
  6
CONTINUOUS
 62
    7
 10
-110.57221950000007
 20
769.05630500000007
 11
-110.57221950000007
 21
768.83233599999994
  0
LINE
  8
_0-0_0
  6
CONTINUOUS
 62
    7
 10
-110.57221950000007
 20
769.27145399999995
 11
-110.57221950000007
 21
769.05630500000007
  0
LINE
  8
_0-0_0
  6
CONTINUOUS
 62
    7
 10
-110.57221950000007
 20
769.32870500000001
 11
-110.57221950000007
 21
769.27145399999995
  0
LINE
  8
_0-0_0
  6
CONTINUOUS
 62
    7
 10
-95.272216500000013
 20
762.16198699999995
 11
-95.33100950000005
 21
762.40881300000001
  0
LINE
  8
_0-0_0
  6
CONTINUOUS
 62
    7
 10
-95.33100950000005
 20
762.40881300000001
 11
-95.380783500000007
 21
762.601135
  0
LINE
  8
_0-0_0
  6
CONTINUOUS
 62
    7
 10
-95.380783500000007
 20
762.601135
 11
-95.451919500000031
 21
762.86694299999999
  0
LINE
  8
_0-0_0
  6
CONTINUOUS
 62
    7
 10
-95.451919500000031
 20
762.86694299999999
 11
-95.484878500000036
 21
762.993652
  0
LINE
  8
_0-0_0
  6
CONTINUOUS
 62
    7
 10
-95.484878500000036
 20
762.993652
 11
-95.510131500000057
 21
763.09707600000002
  0
LINE
  8
_0-0_0
  6
CONTINUOUS
 62
    7
 10
-95.510131500000057
 20
763.09707600000002
 11
-95.532165500000019
 21
763.19702099999995
  0
LINE
  8
_0-0_0
  6
CONTINUOUS
 62
    7
 10
-95.532165500000019
 20
763.19702099999995
 11
-95.553543500000046
 21
763.31472800000006
  0
LINE
  8
_0-0_0
  6
CONTINUOUS
 62
    7
 10
-95.553543500000046
 20
763.31472800000006
 11
-95.562118499999997
 21
763.37686200000007
  0
LINE
  8
_0-0_0
  6
CONTINUOUS
 62
    7
 10
-95.562118499999997
 20
763.37686200000007
 11
-95.568191500000012
 21
763.43746899999996
  0
LINE
  8
_0-0_0
  6
CONTINUOUS
 62
    7
 10
-95.568191500000012
 20
763.43746899999996
 11
-95.571197500000039
 21
763.48669399999994
  0
LINE
  8
_0-0_0
  6
CONTINUOUS
 62
    7
 10
-95.571197500000039
 20
763.48669399999994
 11
-95.572219500000074
 21
763.53491200000008
  0
LINE
  8
_0-0_0
  6
CONTINUOUS
 62
    7
 10
-95.272216500000013
 20
757.737976
 11
-95.18875150000008
 21
758.11663799999997
  0
LINE
  8
_0-0_0
  6
CONTINUOUS
 62
    7
 10
-95.18875150000008
 20
758.11663799999997
 11
-95.14866649999999
 21
758.30816700000003
  0
LINE
  8
_0-0_0
  6
CONTINUOUS
 62
    7
 10
-95.14866649999999
 20
758.30816700000003
 11
-95.092590500000028
 21
758.598206
  0
LINE
  8
_0-0_0
  6
CONTINUOUS
 62
    7
 10
-95.092590500000028
 20
758.598206
 11
-95.054992500000026
 21
758.81778000000008
  0
LINE
  8
_0-0_0
  6
CONTINUOUS
 62
    7
 10
-95.054992500000026
 20
758.81778000000008
 11
-95.022338500000046
 21
759.03903200000002
  0
LINE
  8
_0-0_0
  6
CONTINUOUS
 62
    7
 10
-95.022338500000046
 20
759.03903200000002
 11
-94.995178500000065
 21
759.26583900000003
  0
LINE
  8
_0-0_0
  6
CONTINUOUS
 62
    7
 10
-94.995178500000065
 20
759.26583900000003
 11
-94.97511350000002
 21
759.49322499999994
  0
LINE
  8
_0-0_0
  6
CONTINUOUS
 62
    7
 10
-94.97511350000002
 20
759.49322499999994
 11
-94.967956500000014
 21
759.60696400000006
  0
LINE
  8
_0-0_0
  6
CONTINUOUS
 62
    7
 10
-94.967956500000014
 20
759.60696400000006
 11
-94.962799500000074
 21
759.720642
  0
LINE
  8
_0-0_0
  6
CONTINUOUS
 62
    7
 10
-94.962799500000074
 20
759.720642
 11
-94.959076500000037
 21
759.87207000000001
  0
LINE
  8
_0-0_0
  6
CONTINUOUS
 62
    7
 10
-94.959076500000037
 20
759.87207000000001
 11
-94.95903050000004
 21
760.02331500000003
  0
LINE
  8
_0-0_0
  6
CONTINUOUS
 62
    7
 10
-94.95903050000004
 20
760.02331500000003
 11
-94.962600500000008
 21
760.17437700000005
  0
LINE
  8
_0-0_0
  6
CONTINUOUS
 62
    7
 10
-94.962600500000008
 20
760.17437700000005
 11
-94.972107499999993
 21
760.36291499999993
  0
LINE
  8
_0-0_0
  6
CONTINUOUS
 62
    7
 10
-94.972107499999993
 20
760.36291499999993
 11
-94.986969499999987
 21
760.55117799999994
  0
LINE
  8
_0-0_0
  6
CONTINUOUS
 62
    7
 10
-94.986969499999987
 20
760.55117799999994
 11
-95.006897500000036
 21
760.739105
  0
LINE
  8
_0-0_0
  6
CONTINUOUS
 62
    7
 10
-95.006897500000036
 20
760.739105
 11
-95.023285500000043
 21
760.86798099999999
  0
LINE
  8
_0-0_0
  6
CONTINUOUS
 62
    7
 10
-95.023285500000043
 20
760.86798099999999
 11
-95.041702500000042
 21
760.99664299999995
  0
LINE
  8
_0-0_0
  6
CONTINUOUS
 62
    7
 10
-95.041702500000042
 20
760.99664299999995
 11
-95.065857499999993
 21
761.14855999999997
  0
LINE
  8
_0-0_0
  6
CONTINUOUS
 62
    7
 10
-95.065857499999993
 20
761.14855999999997
 11
-95.092254500000081
 21
761.29992700000003
  0
LINE
  8
_0-0_0
  6
CONTINUOUS
 62
    7
 10
-95.092254500000081
 20
761.29992700000003
 11
-95.148422500000038
 21
761.59054600000002
  0
LINE
  8
_0-0_0
  6
CONTINUOUS
 62
    7
 10
-95.148422500000038
 20
761.59054600000002
 11
-95.18858350000005
 21
761.78250100000002
  0
LINE
  8
_0-0_0
  6
CONTINUOUS
 62
    7
 10
-95.18858350000005
 20
761.78250100000002
 11
-95.272216500000013
 21
762.16198699999995
  0
LINE
  8
_0-0_0
  6
CONTINUOUS
 62
    7
 10
-95.272216500000013
 20
757.737976
 11
-95.331024500000012
 21
757.49111900000003
  0
LINE
  8
_0-0_0
  6
CONTINUOUS
 62
    7
 10
-95.331024500000012
 20
757.49111900000003
 11
-95.380783500000007
 21
757.29879800000003
  0
LINE
  8
_0-0_0
  6
CONTINUOUS
 62
    7
 10
-95.380783500000007
 20
757.29879800000003
 11
-95.451904500000069
 21
757.033051
  0
LINE
  8
_0-0_0
  6
CONTINUOUS
 62
    7
 10
-95.451904500000069
 20
757.033051
 11
-95.484863500000074
 21
756.906342
  0
LINE
  8
_0-0_0
  6
CONTINUOUS
 62
    7
 10
-95.484863500000074
 20
756.906342
 11
-95.510131500000057
 21
756.80291699999998
  0
LINE
  8
_0-0_0
  6
CONTINUOUS
 62
    7
 10
-95.510131500000057
 20
756.80291699999998
 11
-95.532165500000019
 21
756.70294200000001
  0
LINE
  8
_0-0_0
  6
CONTINUOUS
 62
    7
 10
-95.532165500000019
 20
756.70294200000001
 11
-95.553543500000046
 21
756.58523600000001
  0
LINE
  8
_0-0_0
  6
CONTINUOUS
 62
    7
 10
-95.553543500000046
 20
756.58523600000001
 11
-95.562118499999997
 21
756.52310199999999
  0
LINE
  8
_0-0_0
  6
CONTINUOUS
 62
    7
 10
-95.562118499999997
 20
756.52310199999999
 11
-95.568191500000012
 21
756.46249399999999
  0
LINE
  8
_0-0_0
  6
CONTINUOUS
 62
    7
 10
-95.568191500000012
 20
756.46249399999999
 11
-95.571197500000039
 21
756.41326900000001
  0
LINE
  8
_0-0_0
  6
CONTINUOUS
 62
    7
 10
-95.571197500000039
 20
756.41326900000001
 11
-95.572219500000074
 21
756.36505099999999
  0
ARC
  8
_0-0_0
  6
CONTINUOUS
 62
    7
 10
18.927780499999926
 20
746.25
 40
0.5
 50
269.99999700000001
 51
0
  0
LINE
  8
_0-0_0
  6
CONTINUOUS
 62
    7
 10
18.883453499999973
 20
750.57128899999998
 11
18.883453499999973
 21
753.89999399999999
  0
LINE
  8
_0-0_0
  6
CONTINUOUS
 62
    7
 10
18.883453499999973
 20
749.39999399999999
 11
18.883453499999973
 21
750.57128899999998
  0
CIRCLE
  8
_0-0_0
  6
CONTINUOUS
 62
    7
 10
-57.572219500000074
 20
765.25
 40
2.5
  0
CIRCLE
  8
_0-0_0
  6
CONTINUOUS
 62
    7
 10
-1.5722195000000738
 20
765.25
 40
2.5
  0
LINE
  8
_0-0_0
  6
CONTINUOUS
 62
    7
 10
-95.572219500000074
 20
756.05767800000001
 11
-105.28004450000003
 21
756.05767800000001
  0
LINE
  8
_0-0_0
  6
CONTINUOUS
 62
    7
 10
-105.28004450000003
 20
753.44998199999998
 11
-105.33453350000002
 21
753.51992799999994
  0
LINE
  8
_0-0_0
  6
CONTINUOUS
 62
    7
 10
-105.33453350000002
 20
753.51992799999994
 11
-105.38562050000007
 21
753.58874500000002
  0
LINE
  8
_0-0_0
  6
CONTINUOUS
 62
    7
 10
-105.38562050000007
 20
753.58874500000002
 11
-105.43325850000008
 21
753.65625
  0
LINE
  8
_0-0_0
  6
CONTINUOUS
 62
    7
 10
-105.43325850000008
 20
753.65625
 11
-105.47776850000002
 21
753.72280899999998
  0
LINE
  8
_0-0_0
  6
CONTINUOUS
 62
    7
 10
-105.47776850000002
 20
753.72280899999998
 11
-105.5324865
 21
753.81033300000001
  0
LINE
  8
_0-0_0
  6
CONTINUOUS
 62
    7
 10
-105.5324865
 20
753.81033300000001
 11
-105.58200050000005
 21
753.89645399999995
  0
LINE
  8
_0-0_0
  6
CONTINUOUS
 62
    7
 10
-105.58200050000005
 20
753.89645399999995
 11
-105.62646450000011
 21
753.98126200000002
  0
LINE
  8
_0-0_0
  6
CONTINUOUS
 62
    7
 10
-105.62646450000011
 20
753.98126200000002
 11
-105.67343150000011
 21
754.08160399999997
  0
LINE
  8
_0-0_0
  6
CONTINUOUS
 62
    7
 10
-105.67343150000011
 20
754.08160399999997
 11
-105.7136385
 21
754.18051100000002
  0
LINE
  8
_0-0_0
  6
CONTINUOUS
 62
    7
 10
-105.7136385
 20
754.18051100000002
 11
-105.74729950000005
 21
754.27825899999993
  0
LINE
  8
_0-0_0
  6
CONTINUOUS
 62
    7
 10
-105.74729950000005
 20
754.27825899999993
 11
-105.77459750000003
 21
754.375092
  0
LINE
  8
_0-0_0
  6
CONTINUOUS
 62
    7
 10
-105.77459750000003
 20
754.375092
 11
-105.79563950000011
 21
754.47113000000002
  0
LINE
  8
_0-0_0
  6
CONTINUOUS
 62
    7
 10
-105.79563950000011
 20
754.47113000000002
 11
-105.81156950000002
 21
754.57498199999998
  0
LINE
  8
_0-0_0
  6
CONTINUOUS
 62
    7
 10
-105.81156950000002
 20
754.57498199999998
 11
-105.8203125
 21
754.678406
  0
LINE
  8
_0-0_0
  6
CONTINUOUS
 62
    7
 10
-105.8203125
 20
754.678406
 11
-105.82196050000005
 21
754.78164700000002
  0
LINE
  8
_0-0_0
  6
CONTINUOUS
 62
    7
 10
-105.82196050000005
 20
754.78164700000002
 11
-105.81649750000008
 21
754.88494900000001
  0
LINE
  8
_0-0_0
  6
CONTINUOUS
 62
    7
 10
-105.81649750000008
 20
754.88494900000001
 11
-105.80389450000007
 21
754.98852499999998
  0
LINE
  8
_0-0_0
  6
CONTINUOUS
 62
    7
 10
-105.80389450000007
 20
754.98852499999998
 11
-105.78405750000002
 21
755.09268199999997
  0
LINE
  8
_0-0_0
  6
CONTINUOUS
 62
    7
 10
-105.78405750000002
 20
755.09268199999997
 11
-105.75692750000007
 21
755.197632
  0
LINE
  8
_0-0_0
  6
CONTINUOUS
 62
    7
 10
-105.75692750000007
 20
755.197632
 11
-105.72227450000003
 21
755.30367999999999
  0
LINE
  8
_0-0_0
  6
CONTINUOUS
 62
    7
 10
-105.72227450000003
 20
755.30367999999999
 11
-105.67993150000007
 21
755.41104100000007
  0
LINE
  8
_0-0_0
  6
CONTINUOUS
 62
    7
 10
-105.67993150000007
 20
755.41104100000007
 11
-105.62960850000002
 21
755.52005000000008
  0
LINE
  8
_0-0_0
  6
CONTINUOUS
 62
    7
 10
-105.62960850000002
 20
755.52005000000008
 11
-105.57536350000009
 21
755.623199
  0
LINE
  8
_0-0_0
  6
CONTINUOUS
 62
    7
 10
-105.57536350000009
 20
755.623199
 11
-105.51365650000002
 21
755.72824100000003
  0
LINE
  8
_0-0_0
  6
CONTINUOUS
 62
    7
 10
-105.51365650000002
 20
755.72824100000003
 11
-105.44413750000001
 21
755.83547999999996
  0
LINE
  8
_0-0_0
  6
CONTINUOUS
 62
    7
 10
-105.44413750000001
 20
755.83547999999996
 11
-105.36642449999999
 21
755.94519000000003
  0
LINE
  8
_0-0_0
  6
CONTINUOUS
 62
    7
 10
-105.36642449999999
 20
755.94519000000003
 11
-105.28004450000003
 21
756.05767800000001
  0
LINE
  8
_0-0_0
  6
CONTINUOUS
 62
    7
 10
-95.572219500000074
 20
753.44998199999998
 11
-105.28004450000003
 21
753.44998199999998
  0
LINE
  8
_0-0_0
  6
CONTINUOUS
 62
    7
 10
-95.572219500000074
 20
755.94229100000007
 11
-95.572219500000074
 21
756.05767800000001
  0
LINE
  8
_0-0_0
  6
CONTINUOUS
 62
    7
 10
-105.32221950000007
 20
753.44998199999998
 11
-105.28004450000003
 21
753.44998199999998
  0
LINE
  8
_0-0_0
  6
CONTINUOUS
 62
    7
 10
-95.572219500000074
 20
763.84228499999995
 11
-105.28004450000003
 21
763.84228499999995
  0
LINE
  8
_0-0_0
  6
CONTINUOUS
 62
    7
 10
-95.572219500000074
 20
763.957672
 11
-95.572219500000074
 21
763.84228499999995
  0
LINE
  8
_0-0_0
  6
CONTINUOUS
 62
    7
 10
-105.28004450000003
 20
763.84228499999995
 11
-105.33453350000002
 21
763.91223100000002
  0
LINE
  8
_0-0_0
  6
CONTINUOUS
 62
    7
 10
-105.33453350000002
 20
763.91223100000002
 11
-105.38562050000007
 21
763.98104899999998
  0
LINE
  8
_0-0_0
  6
CONTINUOUS
 62
    7
 10
-105.38562050000007
 20
763.98104899999998
 11
-105.43325850000008
 21
764.04855300000008
  0
LINE
  8
_0-0_0
  6
CONTINUOUS
 62
    7
 10
-105.43325850000008
 20
764.04855300000008
 11
-105.47776850000002
 21
764.11511199999995
  0
LINE
  8
_0-0_0
  6
CONTINUOUS
 62
    7
 10
-105.47776850000002
 20
764.11511199999995
 11
-105.5324865
 21
764.20263699999998
  0
LINE
  8
_0-0_0
  6
CONTINUOUS
 62
    7
 10
-105.5324865
 20
764.20263699999998
 11
-105.58200050000005
 21
764.28875700000003
  0
LINE
  8
_0-0_0
  6
CONTINUOUS
 62
    7
 10
-105.58200050000005
 20
764.28875700000003
 11
-105.62646450000011
 21
764.37359600000002
  0
LINE
  8
_0-0_0
  6
CONTINUOUS
 62
    7
 10
-105.62646450000011
 20
764.37359600000002
 11
-105.67343150000011
 21
764.47390700000005
  0
LINE
  8
_0-0_0
  6
CONTINUOUS
 62
    7
 10
-105.67343150000011
 20
764.47390700000005
 11
-105.7136385
 21
764.57281499999999
  0
LINE
  8
_0-0_0
  6
CONTINUOUS
 62
    7
 10
-105.7136385
 20
764.57281499999999
 11
-105.74729950000005
 21
764.67059300000005
  0
LINE
  8
_0-0_0
  6
CONTINUOUS
 62
    7
 10
-105.74729950000005
 20
764.67059300000005
 11
-105.77459750000003
 21
764.76739500000008
  0
LINE
  8
_0-0_0
  6
CONTINUOUS
 62
    7
 10
-105.77459750000003
 20
764.76739500000008
 11
-105.79563950000011
 21
764.86343399999998
  0
LINE
  8
_0-0_0
  6
CONTINUOUS
 62
    7
 10
-105.79563950000011
 20
764.86343399999998
 11
-105.81156950000002
 21
764.96728499999995
  0
LINE
  8
_0-0_0
  6
CONTINUOUS
 62
    7
 10
-105.81156950000002
 20
764.96728499999995
 11
-105.8203125
 21
765.07070900000008
  0
LINE
  8
_0-0_0
  6
CONTINUOUS
 62
    7
 10
-105.8203125
 20
765.07070900000008
 11
-105.82196050000005
 21
765.17394999999999
  0
LINE
  8
_0-0_0
  6
CONTINUOUS
 62
    7
 10
-105.82196050000005
 20
765.17394999999999
 11
-105.81649750000008
 21
765.27725199999998
  0
LINE
  8
_0-0_0
  6
CONTINUOUS
 62
    7
 10
-105.81649750000008
 20
765.27725199999998
 11
-105.80389450000007
 21
765.38082899999995
  0
LINE
  8
_0-0_0
  6
CONTINUOUS
 62
    7
 10
-105.80389450000007
 20
765.38082899999995
 11
-105.78405750000002
 21
765.48498500000005
  0
LINE
  8
_0-0_0
  6
CONTINUOUS
 62
    7
 10
-105.78405750000002
 20
765.48498500000005
 11
-105.75692750000007
 21
765.58993499999997
  0
LINE
  8
_0-0_0
  6
CONTINUOUS
 62
    7
 10
-105.75692750000007
 20
765.58993499999997
 11
-105.72227450000003
 21
765.69598399999995
  0
LINE
  8
_0-0_0
  6
CONTINUOUS
 62
    7
 10
-105.72227450000003
 20
765.69598399999995
 11
-105.67993150000007
 21
765.80334500000004
  0
LINE
  8
_0-0_0
  6
CONTINUOUS
 62
    7
 10
-105.67993150000007
 20
765.80334500000004
 11
-105.62960850000002
 21
765.91235400000005
  0
LINE
  8
_0-0_0
  6
CONTINUOUS
 62
    7
 10
-105.62960850000002
 20
765.91235400000005
 11
-105.58392350000008
 21
766
  0
LINE
  8
_0-0_0
  6
CONTINUOUS
 62
    7
 10
-110.57221950000007
 20
769.47543300000007
 11
-110.82221950000007
 21
769.5
  0
LINE
  8
_0-0_0
  6
CONTINUOUS
 62
    7
 10
-110.57221950000007
 20
769.27145399999995
 11
-110.82221950000007
 21
769.5
  0
LINE
  8
_0-0_0
  6
CONTINUOUS
 62
    7
 10
-110.57221950000007
 20
769.66595499999994
 11
-110.82221950000007
 21
769.71945200000005
  0
LINE
  8
_0-0_0
  6
CONTINUOUS
 62
    7
 10
-110.57221950000007
 20
769.47543300000007
 11
-110.82221950000007
 21
769.71945200000005
  0
LINE
  8
_0-0_0
  6
CONTINUOUS
 62
    7
 10
-110.57221950000007
 20
769.84097300000008
 11
-110.82221950000007
 21
769.922821
  0
LINE
  8
_0-0_0
  6
CONTINUOUS
 62
    7
 10
-110.57221950000007
 20
769.66595499999994
 11
-110.82221950000007
 21
769.922821
  0
LINE
  8
_0-0_0
  6
CONTINUOUS
 62
    7
 10
-110.57221950000007
 20
769.99856599999998
 11
-110.82221950000007
 21
770.10784899999999
  0
LINE
  8
_0-0_0
  6
CONTINUOUS
 62
    7
 10
-110.57221950000007
 20
769.84097300000008
 11
-110.82221950000007
 21
770.10784899999999
  0
LINE
  8
_0-0_0
  6
CONTINUOUS
 62
    7
 10
-110.57221950000007
 20
770.13699300000007
 11
-110.82221950000007
 21
770.27252199999998
  0
LINE
  8
_0-0_0
  6
CONTINUOUS
 62
    7
 10
-110.57221950000007
 20
769.99856599999998
 11
-110.82221950000007
 21
770.27252199999998
  0
LINE
  8
_0-0_0
  6
CONTINUOUS
 62
    7
 10
-110.57221950000007
 20
770.25476099999992
 11
-110.82221950000007
 21
770.41503899999998
  0
LINE
  8
_0-0_0
  6
CONTINUOUS
 62
    7
 10
-110.57221950000007
 20
770.13699300000007
 11
-110.82221950000007
 21
770.41503899999998
  0
LINE
  8
_0-0_0
  6
CONTINUOUS
 62
    7
 10
-110.57221950000007
 20
770.35052500000006
 11
-110.82221950000007
 21
770.53384400000004
  0
LINE
  8
_0-0_0
  6
CONTINUOUS
 62
    7
 10
-110.57221950000007
 20
770.25476099999992
 11
-110.82221950000007
 21
770.53384400000004
  0
LINE
  8
_0-0_0
  6
CONTINUOUS
 62
    7
 10
-110.57221950000007
 20
770.42330900000002
 11
-110.82221950000007
 21
770.62762500000008
  0
LINE
  8
_0-0_0
  6
CONTINUOUS
 62
    7
 10
-110.57221950000007
 20
770.35052500000006
 11
-110.82221950000007
 21
770.62762500000008
  0
LINE
  8
_0-0_0
  6
CONTINUOUS
 62
    7
 10
-110.57221950000007
 20
770.47228999999993
 11
-110.82221950000007
 21
770.69534299999998
  0
LINE
  8
_0-0_0
  6
CONTINUOUS
 62
    7
 10
-110.57221950000007
 20
770.42330900000002
 11
-110.82221950000007
 21
770.69534299999998
  0
LINE
  8
_0-0_0
  6
CONTINUOUS
 62
    7
 10
-110.57221950000007
 20
770.49688700000002
 11
-110.82221950000007
 21
770.73629800000003
  0
LINE
  8
_0-0_0
  6
CONTINUOUS
 62
    7
 10
-110.57221950000007
 20
770.47228999999993
 11
-110.82221950000007
 21
770.73629800000003
  0
LINE
  8
_0-0_0
  6
CONTINUOUS
 62
    7
 10
-110.57221950000007
 20
770.49688700000002
 11
-110.82221950000007
 21
770.75
  0
LINE
  8
_0-0_0
  6
CONTINUOUS
 62
    7
 10
-110.57221950000007
 20
766.00305200000003
 11
-110.82221950000007
 21
765.75
  0
LINE
  8
_0-0_0
  6
CONTINUOUS
 62
    7
 10
-110.57221950000007
 20
766.02767900000003
 11
-110.82221950000007
 21
765.76367200000004
  0
LINE
  8
_0-0_0
  6
CONTINUOUS
 62
    7
 10
-110.57221950000007
 20
766.00305200000003
 11
-110.82221950000007
 21
765.76367200000004
  0
LINE
  8
_0-0_0
  6
CONTINUOUS
 62
    7
 10
-110.57221950000007
 20
766.07665999999995
 11
-110.82221950000007
 21
765.80462599999998
  0
LINE
  8
_0-0_0
  6
CONTINUOUS
 62
    7
 10
-110.57221950000007
 20
766.02767900000003
 11
-110.82221950000007
 21
765.80462599999998
  0
LINE
  8
_0-0_0
  6
CONTINUOUS
 62
    7
 10
-110.57221950000007
 20
766.14941399999998
 11
-110.82221950000007
 21
765.872345
  0
LINE
  8
_0-0_0
  6
CONTINUOUS
 62
    7
 10
-110.57221950000007
 20
766.07665999999995
 11
-110.82221950000007
 21
765.872345
  0
LINE
  8
_0-0_0
  6
CONTINUOUS
 62
    7
 10
-110.57221950000007
 20
766.24520899999993
 11
-110.82221950000007
 21
765.96612499999992
  0
LINE
  8
_0-0_0
  6
CONTINUOUS
 62
    7
 10
-110.57221950000007
 20
766.14941399999998
 11
-110.82221950000007
 21
765.96612499999992
  0
LINE
  8
_0-0_0
  6
CONTINUOUS
 62
    7
 10
-110.57221950000007
 20
766.24520899999993
 11
-110.70217950000006
 21
766.16137700000002
  0
LINE
  8
_0-0_0
  6
CONTINUOUS
 62
    7
 10
-110.57221950000007
 20
766.362976
 11
-110.82221950000007
 21
766.08492999999999
  0
LINE
  8
_0-0_0
  6
CONTINUOUS
 62
    7
 10
-110.70217950000006
 20
766.16137700000002
 11
-110.82221950000007
 21
766.08492999999999
  0
LINE
  8
_0-0_0
  6
CONTINUOUS
 62
    7
 10
-110.57221950000007
 20
766.50140399999998
 11
-110.82221950000007
 21
766.22744799999998
  0
LINE
  8
_0-0_0
  6
CONTINUOUS
 62
    7
 10
-110.57221950000007
 20
766.362976
 11
-110.82221950000007
 21
766.22744799999998
  0
LINE
  8
_0-0_0
  6
CONTINUOUS
 62
    7
 10
-110.57221950000007
 20
766.658997
 11
-110.82221950000007
 21
766.39211999999998
  0
LINE
  8
_0-0_0
  6
CONTINUOUS
 62
    7
 10
-110.57221950000007
 20
766.50140399999998
 11
-110.82221950000007
 21
766.39211999999998
  0
LINE
  8
_0-0_0
  6
CONTINUOUS
 62
    7
 10
-110.57221950000007
 20
766.83401500000002
 11
-110.82221950000007
 21
766.57714800000008
  0
LINE
  8
_0-0_0
  6
CONTINUOUS
 62
    7
 10
-110.57221950000007
 20
766.658997
 11
-110.82221950000007
 21
766.57714800000008
  0
LINE
  8
_0-0_0
  6
CONTINUOUS
 62
    7
 10
-110.57221950000007
 20
767.02453600000001
 11
-110.82221950000007
 21
766.78051800000003
  0
LINE
  8
_0-0_0
  6
CONTINUOUS
 62
    7
 10
-110.57221950000007
 20
766.83401500000002
 11
-110.82221950000007
 21
766.78051800000003
  0
LINE
  8
_0-0_0
  6
CONTINUOUS
 62
    7
 10
-110.57221950000007
 20
767.22851600000001
 11
-110.82221950000007
 21
767
  0
LINE
  8
_0-0_0
  6
CONTINUOUS
 62
    7
 10
-110.57221950000007
 20
767.02453600000001
 11
-110.82221950000007
 21
767
  0
LINE
  8
_0-0_0
  6
CONTINUOUS
 62
    7
 10
-110.57221950000007
 20
767.44366500000001
 11
-110.82221950000007
 21
767.23315400000001
  0
LINE
  8
_0-0_0
  6
CONTINUOUS
 62
    7
 10
-110.57221950000007
 20
767.22851600000001
 11
-110.82221950000007
 21
767.23315400000001
  0
LINE
  8
_0-0_0
  6
CONTINUOUS
 62
    7
 10
-110.57221950000007
 20
767.66763300000002
 11
-110.82221950000007
 21
767.47744799999998
  0
LINE
  8
_0-0_0
  6
CONTINUOUS
 62
    7
 10
-110.57221950000007
 20
767.44366500000001
 11
-110.82221950000007
 21
767.47744799999998
  0
LINE
  8
_0-0_0
  6
CONTINUOUS
 62
    7
 10
-110.57221950000007
 20
767.89801
 11
-110.82221950000007
 21
767.73019399999998
  0
LINE
  8
_0-0_0
  6
CONTINUOUS
 62
    7
 10
-110.57221950000007
 20
767.66763300000002
 11
-110.82221950000007
 21
767.73019399999998
  0
LINE
  8
_0-0_0
  6
CONTINUOUS
 62
    7
 10
-110.57221950000007
 20
768.13223300000004
 11
-110.82221950000007
 21
767.98864700000001
  0
LINE
  8
_0-0_0
  6
CONTINUOUS
 62
    7
 10
-110.57221950000007
 20
767.89801
 11
-110.82221950000007
 21
767.98864700000001
  0
LINE
  8
_0-0_0
  6
CONTINUOUS
 62
    7
 10
-110.57221950000007
 20
768.36773700000003
 11
-110.82221950000007
 21
768.25
  0
LINE
  8
_0-0_0
  6
CONTINUOUS
 62
    7
 10
-110.57221950000007
 20
768.13223300000004
 11
-110.82221950000007
 21
768.25
  0
LINE
  8
_0-0_0
  6
CONTINUOUS
 62
    7
 10
-110.57221950000007
 20
768.60195900000008
 11
-110.82221950000007
 21
768.51129200000003
  0
LINE
  8
_0-0_0
  6
CONTINUOUS
 62
    7
 10
-110.57221950000007
 20
768.36773700000003
 11
-110.82221950000007
 21
768.51129200000003
  0
LINE
  8
_0-0_0
  6
CONTINUOUS
 62
    7
 10
-110.57221950000007
 20
768.83233599999994
 11
-110.82221950000007
 21
768.76977499999998
  0
LINE
  8
_0-0_0
  6
CONTINUOUS
 62
    7
 10
-110.57221950000007
 20
768.60195900000008
 11
-110.82221950000007
 21
768.76977499999998
  0
LINE
  8
_0-0_0
  6
CONTINUOUS
 62
    7
 10
-110.57221950000007
 20
769.05630500000007
 11
-110.82221950000007
 21
769.02252199999998
  0
LINE
  8
_0-0_0
  6
CONTINUOUS
 62
    7
 10
-110.57221950000007
 20
768.83233599999994
 11
-110.82221950000007
 21
769.02252199999998
  0
LINE
  8
_0-0_0
  6
CONTINUOUS
 62
    7
 10
-110.57221950000007
 20
769.27145399999995
 11
-110.82221950000007
 21
769.26681499999995
  0
LINE
  8
_0-0_0
  6
CONTINUOUS
 62
    7
 10
-110.57221950000007
 20
769.05630500000007
 11
-110.82221950000007
 21
769.26681499999995
  0
LINE
  8
_0-0_0
  6
CONTINUOUS
 62
    7
 10
-95.572219500000074
 20
761.512024
 11
-95.572219500000074
 21
762.55767800000001
  0
LINE
  8
_0-0_0
  6
CONTINUOUS
 62
    7
 10
-95.572219500000074
 20
763.84228499999995
 11
-95.572219500000074
 21
762.55767800000001
  0
LINE
  8
_0-0_0
  6
CONTINUOUS
 62
    7
 10
-95.572219500000074
 20
761.512024
 11
-95.572219500000074
 21
758.38793899999996
  0
LINE
  8
_0-0_0
  6
CONTINUOUS
 62
    7
 10
-95.572219500000074
 20
757.34228499999995
 11
-95.572219500000074
 21
756.05767800000001
  0
LINE
  8
_0-0_0
  6
CONTINUOUS
 62
    7
 10
-95.572219500000074
 20
757.34228499999995
 11
-95.572219500000074
 21
758.38793899999996
  0
LINE
  8
_0-0_0
  6
CONTINUOUS
 62
    7
 10
19.027786499999934
 20
750.69113199999993
 11
19.027786499999934
 21
753.64999399999999
  0
LINE
  8
_0-0_0
  6
CONTINUOUS
 62
    7
 10
19.027786499999934
 20
749.64999399999999
 11
19.027786499999934
 21
750.69113199999993
  0
LINE
  8
_0-0_0
  6
CONTINUOUS
 62
    7
 10
-95.572219500000074
 20
757.34228499999995
 11
-105.28004450000003
 21
757.34228499999995
  0
ARC
  8
_0-0_0
  6
CONTINUOUS
 62
    7
 10
-100.39831550000008
 20
756.69909699999994
 40
4.9238749999999998
 50
172.49424200000001
 51
181.535968
  0
ARC
  8
_0-0_0
  6
CONTINUOUS
 62
    7
 10
-100.36030550000009
 20
756.70404099999996
 40
4.9620009999999999
 50
181.58130700000004
 51
187.48478900000003
  0
LINE
  8
_0-0_0
  6
CONTINUOUS
 62
    7
 10
-106.57221950000007
 20
757.21844499999997
 11
-106.57221950000007
 21
754.69998199999998
  0
LINE
  8
_0-0_0
  6
CONTINUOUS
 62
    7
 10
-106.57221950000007
 20
765.19998199999998
 11
-106.57221950000007
 21
757.21844499999997
  0
LINE
  8
_0-0_0
  6
CONTINUOUS
 62
    7
 10
-105.28004450000003
 20
762.55767800000001
 11
-105.37438950000001
 21
762.31106599999998
  0
LINE
  8
_0-0_0
  6
CONTINUOUS
 62
    7
 10
-105.37438950000001
 20
762.31106599999998
 11
-105.45832850000011
 21
762.07110599999999
  0
LINE
  8
_0-0_0
  6
CONTINUOUS
 62
    7
 10
-105.45832850000011
 20
762.07110599999999
 11
-105.5324865
 21
761.83697499999994
  0
LINE
  8
_0-0_0
  6
CONTINUOUS
 62
    7
 10
-105.5324865
 20
761.83697499999994
 11
-105.59736650000002
 21
761.60794099999998
  0
LINE
  8
_0-0_0
  6
CONTINUOUS
 62
    7
 10
-105.59736650000002
 20
761.60794099999998
 11
-105.65341150000006
 21
761.38327000000004
  0
LINE
  8
_0-0_0
  6
CONTINUOUS
 62
    7
 10
-105.65341150000006
 20
761.38327000000004
 11
-105.70097350000003
 21
761.16229199999998
  0
LINE
  8
_0-0_0
  6
CONTINUOUS
 62
    7
 10
-105.70097350000003
 20
761.16229199999998
 11
-105.7403875
 21
760.94436599999995
  0
LINE
  8
_0-0_0
  6
CONTINUOUS
 62
    7
 10
-105.7403875
 20
760.94436599999995
 11
-105.7718655000001
 21
760.72891200000004
  0
LINE
  8
_0-0_0
  6
CONTINUOUS
 62
    7
 10
-105.7718655000001
 20
760.72891200000004
 11
-105.79563950000011
 21
760.51538099999993
  0
LINE
  8
_0-0_0
  6
CONTINUOUS
 62
    7
 10
-105.79563950000011
 20
760.51538099999993
 11
-105.81156950000002
 21
760.30767800000001
  0
LINE
  8
_0-0_0
  6
CONTINUOUS
 62
    7
 10
-105.81156950000002
 20
760.30767800000001
 11
-105.8203125
 21
760.10082999999997
  0
LINE
  8
_0-0_0
  6
CONTINUOUS
 62
    7
 10
-105.8203125
 20
760.10082999999997
 11
-105.82196050000005
 21
759.89434800000004
  0
LINE
  8
_0-0_0
  6
CONTINUOUS
 62
    7
 10
-105.82196050000005
 20
759.89434800000004
 11
-105.81649750000008
 21
759.68777499999999
  0
LINE
  8
_0-0_0
  6
CONTINUOUS
 62
    7
 10
-105.81649750000008
 20
759.68777499999999
 11
-105.80389450000007
 21
759.480591
  0
LINE
  8
_0-0_0
  6
CONTINUOUS
 62
    7
 10
-105.80389450000007
 20
759.480591
 11
-105.78405750000002
 21
759.27227799999991
  0
LINE
  8
_0-0_0
  6
CONTINUOUS
 62
    7
 10
-105.78405750000002
 20
759.27227799999991
 11
-105.75692750000007
 21
759.06237800000008
  0
LINE
  8
_0-0_0
  6
CONTINUOUS
 62
    7
 10
-105.75692750000007
 20
759.06237800000008
 11
-105.72227450000003
 21
758.85031099999992
  0
LINE
  8
_0-0_0
  6
CONTINUOUS
 62
    7
 10
-105.72227450000003
 20
758.85031099999992
 11
-105.67993150000007
 21
758.63555900000006
  0
LINE
  8
_0-0_0
  6
CONTINUOUS
 62
    7
 10
-105.67993150000007
 20
758.63555900000006
 11
-105.62960850000002
 21
758.41754200000003
  0
LINE
  8
_0-0_0
  6
CONTINUOUS
 62
    7
 10
-105.62960850000002
 20
758.41754200000003
 11
-105.57536350000009
 21
758.21124299999997
  0
LINE
  8
_0-0_0
  6
CONTINUOUS
 62
    7
 10
-105.57536350000009
 20
758.21124299999997
 11
-105.51365650000002
 21
758.00116000000003
  0
LINE
  8
_0-0_0
  6
CONTINUOUS
 62
    7
 10
-105.51365650000002
 20
758.00116000000003
 11
-105.44413750000001
 21
757.78668199999993
  0
LINE
  8
_0-0_0
  6
CONTINUOUS
 62
    7
 10
-105.44413750000001
 20
757.78668199999993
 11
-105.36642449999999
 21
757.56726099999992
  0
LINE
  8
_0-0_0
  6
CONTINUOUS
 62
    7
 10
-105.36642449999999
 20
757.56726099999992
 11
-105.28004450000003
 21
757.34228499999995
  0
ARC
  8
_0-0_0
  6
CONTINUOUS
 62
    7
 10
-100.4084775
 20
763.19998199999998
 40
4.9136889999999998
 50
172.48898299999999
 51
187.51101699999998
  0
LINE
  8
_0-0_0
  6
CONTINUOUS
 62
    7
 10
-95.572219500000074
 20
762.55767800000001
 11
-105.28004450000003
 21
762.55767800000001
  0
LINE
  8
_0-0_0
  6
CONTINUOUS
 62
    7
 10
-120.32221950000007
 20
769.47543300000007
 11
-120.07221950000007
 21
769.5
  0
LINE
  8
_0-0_0
  6
CONTINUOUS
 62
    7
 10
-120.07221950000007
 20
769.5
 11
-110.82221950000007
 21
769.5
  0
LINE
  8
_0-0_0
  6
CONTINUOUS
 62
    7
 10
-120.32221950000007
 20
769.27145399999995
 11
-120.07221950000007
 21
769.5
  0
LINE
  8
_0-0_0
  6
CONTINUOUS
 62
    7
 10
-120.32221950000007
 20
769.27145399999995
 11
-110.57221950000007
 21
769.27145399999995
  0
LINE
  8
_0-0_0
  6
CONTINUOUS
 62
    7
 10
-120.32221950000007
 20
769.66595499999994
 11
-120.07221950000007
 21
769.71945200000005
  0
LINE
  8
_0-0_0
  6
CONTINUOUS
 62
    7
 10
-120.07221950000007
 20
769.71945200000005
 11
-110.82221950000007
 21
769.71945200000005
  0
LINE
  8
_0-0_0
  6
CONTINUOUS
 62
    7
 10
-120.32221950000007
 20
769.47543300000007
 11
-120.07221950000007
 21
769.71945200000005
  0
LINE
  8
_0-0_0
  6
CONTINUOUS
 62
    7
 10
-120.32221950000007
 20
769.84097300000008
 11
-120.07221950000007
 21
769.922821
  0
LINE
  8
_0-0_0
  6
CONTINUOUS
 62
    7
 10
-120.07221950000007
 20
769.922821
 11
-110.82221950000007
 21
769.922821
  0
LINE
  8
_0-0_0
  6
CONTINUOUS
 62
    7
 10
-120.32221950000007
 20
769.66595499999994
 11
-120.07221950000007
 21
769.922821
  0
LINE
  8
_0-0_0
  6
CONTINUOUS
 62
    7
 10
-120.32221950000007
 20
769.99856599999998
 11
-120.07221950000007
 21
770.10784899999999
  0
LINE
  8
_0-0_0
  6
CONTINUOUS
 62
    7
 10
-120.07221950000007
 20
770.10784899999999
 11
-110.82221950000007
 21
770.10784899999999
  0
LINE
  8
_0-0_0
  6
CONTINUOUS
 62
    7
 10
-120.32221950000007
 20
769.84097300000008
 11
-120.07221950000007
 21
770.10784899999999
  0
LINE
  8
_0-0_0
  6
CONTINUOUS
 62
    7
 10
-120.32221950000007
 20
770.13699300000007
 11
-120.07221950000007
 21
770.27252199999998
  0
LINE
  8
_0-0_0
  6
CONTINUOUS
 62
    7
 10
-120.07221950000007
 20
770.27252199999998
 11
-110.82221950000007
 21
770.27252199999998
  0
LINE
  8
_0-0_0
  6
CONTINUOUS
 62
    7
 10
-120.32221950000007
 20
769.99856599999998
 11
-120.07221950000007
 21
770.27252199999998
  0
LINE
  8
_0-0_0
  6
CONTINUOUS
 62
    7
 10
-120.32221950000007
 20
770.25476099999992
 11
-120.07221950000007
 21
770.41503899999998
  0
LINE
  8
_0-0_0
  6
CONTINUOUS
 62
    7
 10
-120.07221950000007
 20
770.41503899999998
 11
-110.82221950000007
 21
770.41503899999998
  0
LINE
  8
_0-0_0
  6
CONTINUOUS
 62
    7
 10
-120.32221950000007
 20
770.13699300000007
 11
-120.07221950000007
 21
770.41503899999998
  0
LINE
  8
_0-0_0
  6
CONTINUOUS
 62
    7
 10
-120.32221950000007
 20
770.35052500000006
 11
-120.07221950000007
 21
770.53384400000004
  0
LINE
  8
_0-0_0
  6
CONTINUOUS
 62
    7
 10
-120.07221950000007
 20
770.53384400000004
 11
-110.82221950000007
 21
770.53384400000004
  0
LINE
  8
_0-0_0
  6
CONTINUOUS
 62
    7
 10
-120.32221950000007
 20
770.25476099999992
 11
-120.07221950000007
 21
770.53384400000004
  0
LINE
  8
_0-0_0
  6
CONTINUOUS
 62
    7
 10
-120.32221950000007
 20
770.42330900000002
 11
-120.07221950000007
 21
770.62762500000008
  0
LINE
  8
_0-0_0
  6
CONTINUOUS
 62
    7
 10
-120.07221950000007
 20
770.62762500000008
 11
-110.82221950000007
 21
770.62762500000008
  0
LINE
  8
_0-0_0
  6
CONTINUOUS
 62
    7
 10
-120.32221950000007
 20
770.35052500000006
 11
-120.07221950000007
 21
770.62762500000008
  0
LINE
  8
_0-0_0
  6
CONTINUOUS
 62
    7
 10
-120.32221950000007
 20
770.47228999999993
 11
-120.07221950000007
 21
770.69534299999998
  0
LINE
  8
_0-0_0
  6
CONTINUOUS
 62
    7
 10
-120.07221950000007
 20
770.69534299999998
 11
-110.82221950000007
 21
770.69534299999998
  0
LINE
  8
_0-0_0
  6
CONTINUOUS
 62
    7
 10
-120.32221950000007
 20
770.42330900000002
 11
-120.07221950000007
 21
770.69534299999998
  0
LINE
  8
_0-0_0
  6
CONTINUOUS
 62
    7
 10
-120.32221950000007
 20
770.49688700000002
 11
-120.07221950000007
 21
770.73629800000003
  0
LINE
  8
_0-0_0
  6
CONTINUOUS
 62
    7
 10
-120.07221950000007
 20
770.73629800000003
 11
-110.82221950000007
 21
770.73629800000003
  0
LINE
  8
_0-0_0
  6
CONTINUOUS
 62
    7
 10
-120.32221950000007
 20
770.47228999999993
 11
-120.07221950000007
 21
770.73629800000003
  0
LINE
  8
_0-0_0
  6
CONTINUOUS
 62
    7
 10
-120.07221950000007
 20
770.75
 11
-110.82221950000007
 21
770.75
  0
LINE
  8
_0-0_0
  6
CONTINUOUS
 62
    7
 10
-120.32221950000007
 20
770.49688700000002
 11
-120.07221950000007
 21
770.75
  0
LINE
  8
_0-0_0
  6
CONTINUOUS
 62
    7
 10
-120.32221950000007
 20
766.00305200000003
 11
-120.07221950000007
 21
765.75
  0
LINE
  8
_0-0_0
  6
CONTINUOUS
 62
    7
 10
-120.07221950000007
 20
765.75
 11
-110.82221950000007
 21
765.75
  0
LINE
  8
_0-0_0
  6
CONTINUOUS
 62
    7
 10
-120.32221950000007
 20
766.02767900000003
 11
-120.07221950000007
 21
765.76367200000004
  0
LINE
  8
_0-0_0
  6
CONTINUOUS
 62
    7
 10
-120.07221950000007
 20
765.76367200000004
 11
-110.82221950000007
 21
765.76367200000004
  0
LINE
  8
_0-0_0
  6
CONTINUOUS
 62
    7
 10
-120.32221950000007
 20
766.00305200000003
 11
-120.07221950000007
 21
765.76367200000004
  0
LINE
  8
_0-0_0
  6
CONTINUOUS
 62
    7
 10
-120.32221950000007
 20
766.07665999999995
 11
-120.07221950000007
 21
765.80462599999998
  0
LINE
  8
_0-0_0
  6
CONTINUOUS
 62
    7
 10
-120.07221950000007
 20
765.80462599999998
 11
-110.82221950000007
 21
765.80462599999998
  0
LINE
  8
_0-0_0
  6
CONTINUOUS
 62
    7
 10
-120.32221950000007
 20
766.02767900000003
 11
-120.07221950000007
 21
765.80462599999998
  0
LINE
  8
_0-0_0
  6
CONTINUOUS
 62
    7
 10
-120.32221950000007
 20
766.14941399999998
 11
-120.07221950000007
 21
765.872345
  0
LINE
  8
_0-0_0
  6
CONTINUOUS
 62
    7
 10
-120.07221950000007
 20
765.872345
 11
-110.82221950000007
 21
765.872345
  0
LINE
  8
_0-0_0
  6
CONTINUOUS
 62
    7
 10
-120.32221950000007
 20
766.07665999999995
 11
-120.07221950000007
 21
765.872345
  0
LINE
  8
_0-0_0
  6
CONTINUOUS
 62
    7
 10
-120.32221950000007
 20
766.24520899999993
 11
-120.07221950000007
 21
765.96612499999992
  0
LINE
  8
_0-0_0
  6
CONTINUOUS
 62
    7
 10
-120.07221950000007
 20
765.96612499999992
 11
-110.82221950000007
 21
765.96612499999992
  0
LINE
  8
_0-0_0
  6
CONTINUOUS
 62
    7
 10
-120.32221950000007
 20
766.14941399999998
 11
-120.07221950000007
 21
765.96612499999992
  0
LINE
  8
_0-0_0
  6
CONTINUOUS
 62
    7
 10
-120.07221950000007
 20
766.08492999999999
 11
-110.82221950000007
 21
766.08492999999999
  0
LINE
  8
_0-0_0
  6
CONTINUOUS
 62
    7
 10
-120.19226049999997
 20
766.16137700000002
 11
-120.07221950000007
 21
766.08492999999999
  0
LINE
  8
_0-0_0
  6
CONTINUOUS
 62
    7
 10
-120.32221950000007
 20
766.24520899999993
 11
-120.19226049999997
 21
766.16137700000002
  0
LINE
  8
_0-0_0
  6
CONTINUOUS
 62
    7
 10
-120.32221950000007
 20
766.362976
 11
-120.07221950000007
 21
766.08492999999999
  0
LINE
  8
_0-0_0
  6
CONTINUOUS
 62
    7
 10
-120.32221950000007
 20
766.50140399999998
 11
-120.07221950000007
 21
766.22744799999998
  0
LINE
  8
_0-0_0
  6
CONTINUOUS
 62
    7
 10
-120.07221950000007
 20
766.22744799999998
 11
-110.82221950000007
 21
766.22744799999998
  0
LINE
  8
_0-0_0
  6
CONTINUOUS
 62
    7
 10
-120.32221950000007
 20
766.362976
 11
-120.07221950000007
 21
766.22744799999998
  0
LINE
  8
_0-0_0
  6
CONTINUOUS
 62
    7
 10
-120.32221950000007
 20
766.658997
 11
-120.07221950000007
 21
766.39211999999998
  0
LINE
  8
_0-0_0
  6
CONTINUOUS
 62
    7
 10
-120.07221950000007
 20
766.39211999999998
 11
-110.82221950000007
 21
766.39211999999998
  0
LINE
  8
_0-0_0
  6
CONTINUOUS
 62
    7
 10
-120.32221950000007
 20
766.50140399999998
 11
-120.07221950000007
 21
766.39211999999998
  0
LINE
  8
_0-0_0
  6
CONTINUOUS
 62
    7
 10
-120.32221950000007
 20
766.83401500000002
 11
-120.07221950000007
 21
766.57714800000008
  0
LINE
  8
_0-0_0
  6
CONTINUOUS
 62
    7
 10
-120.07221950000007
 20
766.57714800000008
 11
-110.82221950000007
 21
766.57714800000008
  0
LINE
  8
_0-0_0
  6
CONTINUOUS
 62
    7
 10
-120.32221950000007
 20
766.658997
 11
-120.07221950000007
 21
766.57714800000008
  0
LINE
  8
_0-0_0
  6
CONTINUOUS
 62
    7
 10
-120.32221950000007
 20
767.02453600000001
 11
-120.07221950000007
 21
766.78051800000003
  0
LINE
  8
_0-0_0
  6
CONTINUOUS
 62
    7
 10
-120.07221950000007
 20
766.78051800000003
 11
-110.82221950000007
 21
766.78051800000003
  0
LINE
  8
_0-0_0
  6
CONTINUOUS
 62
    7
 10
-120.32221950000007
 20
766.83401500000002
 11
-120.07221950000007
 21
766.78051800000003
  0
LINE
  8
_0-0_0
  6
CONTINUOUS
 62
    7
 10
-120.32221950000007
 20
767.22851600000001
 11
-120.07221950000007
 21
767
  0
LINE
  8
_0-0_0
  6
CONTINUOUS
 62
    7
 10
-120.07221950000007
 20
767
 11
-110.82221950000007
 21
767
  0
LINE
  8
_0-0_0
  6
CONTINUOUS
 62
    7
 10
-120.32221950000007
 20
767.22851600000001
 11
-110.57221950000007
 21
767.22851600000001
  0
LINE
  8
_0-0_0
  6
CONTINUOUS
 62
    7
 10
-120.32221950000007
 20
767.02453600000001
 11
-120.07221950000007
 21
767
  0
LINE
  8
_0-0_0
  6
CONTINUOUS
 62
    7
 10
-120.32221950000007
 20
767.44366500000001
 11
-120.07221950000007
 21
767.23315400000001
  0
LINE
  8
_0-0_0
  6
CONTINUOUS
 62
    7
 10
-120.07221950000007
 20
767.23315400000001
 11
-110.82221950000007
 21
767.23315400000001
  0
LINE
  8
_0-0_0
  6
CONTINUOUS
 62
    7
 10
-120.32221950000007
 20
767.44366500000001
 11
-110.57221950000007
 21
767.44366500000001
  0
LINE
  8
_0-0_0
  6
CONTINUOUS
 62
    7
 10
-120.32221950000007
 20
767.22851600000001
 11
-120.07221950000007
 21
767.23315400000001
  0
LINE
  8
_0-0_0
  6
CONTINUOUS
 62
    7
 10
-120.32221950000007
 20
767.66763300000002
 11
-120.07221950000007
 21
767.47744799999998
  0
LINE
  8
_0-0_0
  6
CONTINUOUS
 62
    7
 10
-120.07221950000007
 20
767.47744799999998
 11
-110.82221950000007
 21
767.47744799999998
  0
LINE
  8
_0-0_0
  6
CONTINUOUS
 62
    7
 10
-120.32221950000007
 20
767.66763300000002
 11
-110.57221950000007
 21
767.66763300000002
  0
LINE
  8
_0-0_0
  6
CONTINUOUS
 62
    7
 10
-120.32221950000007
 20
767.44366500000001
 11
-120.07221950000007
 21
767.47744799999998
  0
LINE
  8
_0-0_0
  6
CONTINUOUS
 62
    7
 10
-120.32221950000007
 20
767.89801
 11
-120.07221950000007
 21
767.73019399999998
  0
LINE
  8
_0-0_0
  6
CONTINUOUS
 62
    7
 10
-120.07221950000007
 20
767.73019399999998
 11
-110.82221950000007
 21
767.73019399999998
  0
LINE
  8
_0-0_0
  6
CONTINUOUS
 62
    7
 10
-120.32221950000007
 20
767.89801
 11
-110.57221950000007
 21
767.89801
  0
LINE
  8
_0-0_0
  6
CONTINUOUS
 62
    7
 10
-120.32221950000007
 20
767.66763300000002
 11
-120.07221950000007
 21
767.73019399999998
  0
LINE
  8
_0-0_0
  6
CONTINUOUS
 62
    7
 10
-120.32221950000007
 20
768.13223300000004
 11
-120.07221950000007
 21
767.98864700000001
  0
LINE
  8
_0-0_0
  6
CONTINUOUS
 62
    7
 10
-120.07221950000007
 20
767.98864700000001
 11
-110.82221950000007
 21
767.98864700000001
  0
LINE
  8
_0-0_0
  6
CONTINUOUS
 62
    7
 10
-120.32221950000007
 20
768.13223300000004
 11
-110.57221950000007
 21
768.13223300000004
  0
LINE
  8
_0-0_0
  6
CONTINUOUS
 62
    7
 10
-120.32221950000007
 20
767.89801
 11
-120.07221950000007
 21
767.98864700000001
  0
LINE
  8
_0-0_0
  6
CONTINUOUS
 62
    7
 10
-120.32221950000007
 20
768.36773700000003
 11
-120.07221950000007
 21
768.25
  0
LINE
  8
_0-0_0
  6
CONTINUOUS
 62
    7
 10
-120.07221950000007
 20
768.25
 11
-110.82221950000007
 21
768.25
  0
LINE
  8
_0-0_0
  6
CONTINUOUS
 62
    7
 10
-120.32221950000007
 20
768.36773700000003
 11
-110.57221950000007
 21
768.36773700000003
  0
LINE
  8
_0-0_0
  6
CONTINUOUS
 62
    7
 10
-120.32221950000007
 20
768.13223300000004
 11
-120.07221950000007
 21
768.25
  0
LINE
  8
_0-0_0
  6
CONTINUOUS
 62
    7
 10
-120.32221950000007
 20
768.60195900000008
 11
-120.07221950000007
 21
768.51129200000003
  0
LINE
  8
_0-0_0
  6
CONTINUOUS
 62
    7
 10
-120.07221950000007
 20
768.51129200000003
 11
-110.82221950000007
 21
768.51129200000003
  0
LINE
  8
_0-0_0
  6
CONTINUOUS
 62
    7
 10
-120.32221950000007
 20
768.60195900000008
 11
-110.57221950000007
 21
768.60195900000008
  0
LINE
  8
_0-0_0
  6
CONTINUOUS
 62
    7
 10
-120.32221950000007
 20
768.36773700000003
 11
-120.07221950000007
 21
768.51129200000003
  0
LINE
  8
_0-0_0
  6
CONTINUOUS
 62
    7
 10
-120.32221950000007
 20
768.83233599999994
 11
-120.07221950000007
 21
768.76977499999998
  0
LINE
  8
_0-0_0
  6
CONTINUOUS
 62
    7
 10
-120.07221950000007
 20
768.76977499999998
 11
-110.82221950000007
 21
768.76977499999998
  0
LINE
  8
_0-0_0
  6
CONTINUOUS
 62
    7
 10
-120.32221950000007
 20
768.83233599999994
 11
-110.57221950000007
 21
768.83233599999994
  0
LINE
  8
_0-0_0
  6
CONTINUOUS
 62
    7
 10
-120.32221950000007
 20
768.60195900000008
 11
-120.07221950000007
 21
768.76977499999998
  0
LINE
  8
_0-0_0
  6
CONTINUOUS
 62
    7
 10
-120.32221950000007
 20
769.05630500000007
 11
-120.07221950000007
 21
769.02252199999998
  0
LINE
  8
_0-0_0
  6
CONTINUOUS
 62
    7
 10
-120.07221950000007
 20
769.02252199999998
 11
-110.82221950000007
 21
769.02252199999998
  0
LINE
  8
_0-0_0
  6
CONTINUOUS
 62
    7
 10
-120.32221950000007
 20
769.05630500000007
 11
-110.57221950000007
 21
769.05630500000007
  0
LINE
  8
_0-0_0
  6
CONTINUOUS
 62
    7
 10
-120.32221950000007
 20
768.83233599999994
 11
-120.07221950000007
 21
769.02252199999998
  0
LINE
  8
_0-0_0
  6
CONTINUOUS
 62
    7
 10
-120.32221950000007
 20
769.27145399999995
 11
-120.07221950000007
 21
769.26681499999995
  0
LINE
  8
_0-0_0
  6
CONTINUOUS
 62
    7
 10
-120.07221950000007
 20
769.26681499999995
 11
-110.82221950000007
 21
769.26681499999995
  0
LINE
  8
_0-0_0
  6
CONTINUOUS
 62
    7
 10
-120.32221950000007
 20
769.05630500000007
 11
-120.07221950000007
 21
769.26681499999995
  0
LINE
  8
_0-0_0
  6
CONTINUOUS
 62
    7
 10
-120.57221950000007
 20
770.25
 11
-120.57221950000007
 21
766.49481200000002
  0
LINE
  8
_0-0_0
  6
CONTINUOUS
 62
    7
 10
-120.57221950000007
 20
766.49481200000002
 11
-120.57221950000007
 21
766.25
  0
LINE
  8
_0-0_0
  6
CONTINUOUS
 62
    7
 10
-106.97222950000003
 20
764.94998199999998
 11
-106.97222950000003
 21
762.44998199999998
  0
LINE
  8
_0-0_0
  6
CONTINUOUS
 62
    7
 10
-106.97222950000003
 20
762.44998199999998
 11
-106.97222950000003
 21
754.94998199999998
  0
LINE
  8
_0-0_0
  6
CONTINUOUS
 62
    7
 10
-107.77221650000001
 20
764.48809800000004
 11
-107.77221650000001
 21
762.21905500000003
  0
LINE
  8
_0-0_0
  6
CONTINUOUS
 62
    7
 10
-107.77221650000001
 20
762.21905500000003
 11
-107.77221650000001
 21
755.41186500000003
  0
LINE
  8
_0-0_0
  6
CONTINUOUS
 62
    7
 10
-165.77221650000001
 20
763.94998199999998
 11
-165.77221650000001
 21
763.94863899999996
  0
LINE
  8
_0-0_0
  6
CONTINUOUS
 62
    7
 10
-165.77221650000001
 20
763.94863899999996
 11
-165.77221650000001
 21
755.94998199999998
  0
LINE
  8
_0-0_0
  6
CONTINUOUS
 62
    7
 10
-110.57221950000007
 20
749.40307600000006
 11
-110.57221950000007
 21
749.39999399999999
  0
LINE
  8
_0-0_0
  6
CONTINUOUS
 62
    7
 10
-110.57221950000007
 20
749.42770399999995
 11
-110.57221950000007
 21
749.40307600000006
  0
LINE
  8
_0-0_0
  6
CONTINUOUS
 62
    7
 10
-110.57221950000007
 20
749.47665400000005
 11
-110.57221950000007
 21
749.42770399999995
  0
LINE
  8
_0-0_0
  6
CONTINUOUS
 62
    7
 10
-110.57221950000007
 20
749.54943800000001
 11
-110.57221950000007
 21
749.47665400000005
  0
LINE
  8
_0-0_0
  6
CONTINUOUS
 62
    7
 10
-110.57221950000007
 20
749.64520300000004
 11
-110.57221950000007
 21
749.54943800000001
  0
LINE
  8
_0-0_0
  6
CONTINUOUS
 62
    7
 10
-110.57221950000007
 20
749.67541499999993
 11
-110.57221950000007
 21
749.64520300000004
  0
LINE
  8
_0-0_0
  6
CONTINUOUS
 62
    7
 10
-110.57221950000007
 20
749.76297
 11
-110.57221950000007
 21
749.67541499999993
  0
LINE
  8
_0-0_0
  6
CONTINUOUS
 62
    7
 10
-110.57221950000007
 20
749.90139799999997
 11
-110.57221950000007
 21
749.76297
  0
LINE
  8
_0-0_0
  6
CONTINUOUS
 62
    7
 10
-110.57221950000007
 20
750.05898999999999
 11
-110.57221950000007
 21
749.90139799999997
  0
LINE
  8
_0-0_0
  6
CONTINUOUS
 62
    7
 10
-110.57221950000007
 20
750.23400900000001
 11
-110.57221950000007
 21
750.05898999999999
  0
LINE
  8
_0-0_0
  6
CONTINUOUS
 62
    7
 10
-110.57221950000007
 20
750.42453
 11
-110.57221950000007
 21
750.23400900000001
  0
LINE
  8
_0-0_0
  6
CONTINUOUS
 62
    7
 10
-110.57221950000007
 20
750.62851000000001
 11
-110.57221950000007
 21
750.42453
  0
LINE
  8
_0-0_0
  6
CONTINUOUS
 62
    7
 10
-110.57221950000007
 20
750.843658
 11
-110.57221950000007
 21
750.62851000000001
  0
LINE
  8
_0-0_0
  6
CONTINUOUS
 62
    7
 10
-110.57221950000007
 20
751.06762700000002
 11
-110.57221950000007
 21
750.843658
  0
LINE
  8
_0-0_0
  6
CONTINUOUS
 62
    7
 10
-110.57221950000007
 20
751.29800399999999
 11
-110.57221950000007
 21
751.06762700000002
  0
LINE
  8
_0-0_0
  6
CONTINUOUS
 62
    7
 10
-110.57221950000007
 20
751.53222699999992
 11
-110.57221950000007
 21
751.29800399999999
  0
LINE
  8
_0-0_0
  6
CONTINUOUS
 62
    7
 10
-110.57221950000007
 20
751.76773100000003
 11
-110.57221950000007
 21
751.53222699999992
  0
LINE
  8
_0-0_0
  6
CONTINUOUS
 62
    7
 10
-110.57221950000007
 20
752.00195299999996
 11
-110.57221950000007
 21
751.76773100000003
  0
LINE
  8
_0-0_0
  6
CONTINUOUS
 62
    7
 10
-110.57221950000007
 20
752.23233000000005
 11
-110.57221950000007
 21
752.00195299999996
  0
LINE
  8
_0-0_0
  6
CONTINUOUS
 62
    7
 10
-110.57221950000007
 20
752.45629899999994
 11
-110.57221950000007
 21
752.23233000000005
  0
LINE
  8
_0-0_0
  6
CONTINUOUS
 62
    7
 10
-110.57221950000007
 20
752.67144800000005
 11
-110.57221950000007
 21
752.45629899999994
  0
LINE
  8
_0-0_0
  6
CONTINUOUS
 62
    7
 10
-110.57221950000007
 20
752.72869900000001
 11
-110.57221950000007
 21
752.67144800000005
  0
LINE
  8
_0-0_0
  6
CONTINUOUS
 62
    7
 10
-110.57221950000007
 20
749.40307600000006
 11
-110.82221950000007
 21
749.14999399999999
  0
LINE
  8
_0-0_0
  6
CONTINUOUS
 62
    7
 10
-110.57221950000007
 20
749.42770399999995
 11
-110.82221950000007
 21
749.16369600000007
  0
LINE
  8
_0-0_0
  6
CONTINUOUS
 62
    7
 10
-110.57221950000007
 20
749.40307600000006
 11
-110.82221950000007
 21
749.16369600000007
  0
LINE
  8
_0-0_0
  6
CONTINUOUS
 62
    7
 10
-110.57221950000007
 20
749.47665400000005
 11
-110.82221950000007
 21
749.20461999999998
  0
LINE
  8
_0-0_0
  6
CONTINUOUS
 62
    7
 10
-110.57221950000007
 20
749.42770399999995
 11
-110.82221950000007
 21
749.20461999999998
  0
LINE
  8
_0-0_0
  6
CONTINUOUS
 62
    7
 10
-110.57221950000007
 20
749.54943800000001
 11
-110.82221950000007
 21
749.27233899999999
  0
LINE
  8
_0-0_0
  6
CONTINUOUS
 62
    7
 10
-110.57221950000007
 20
749.47665400000005
 11
-110.82221950000007
 21
749.27233899999999
  0
LINE
  8
_0-0_0
  6
CONTINUOUS
 62
    7
 10
-110.57221950000007
 20
749.64520300000004
 11
-110.82221950000007
 21
749.36611900000003
  0
LINE
  8
_0-0_0
  6
CONTINUOUS
 62
    7
 10
-110.57221950000007
 20
749.54943800000001
 11
-110.82221950000007
 21
749.36611900000003
  0
LINE
  8
_0-0_0
  6
CONTINUOUS
 62
    7
 10
-110.57221950000007
 20
749.64520300000004
 11
-110.70217950000006
 21
749.56137100000001
  0
LINE
  8
_0-0_0
  6
CONTINUOUS
 62
    7
 10
-110.57221950000007
 20
749.76297
 11
-110.82221950000007
 21
749.48492399999998
  0
LINE
  8
_0-0_0
  6
CONTINUOUS
 62
    7
 10
-110.70217950000006
 20
749.56137100000001
 11
-110.82221950000007
 21
749.48492399999998
  0
LINE
  8
_0-0_0
  6
CONTINUOUS
 62
    7
 10
-110.57221950000007
 20
749.90139799999997
 11
-110.82221950000007
 21
749.62744099999998
  0
LINE
  8
_0-0_0
  6
CONTINUOUS
 62
    7
 10
-110.57221950000007
 20
749.76297
 11
-110.82221950000007
 21
749.62744099999998
  0
LINE
  8
_0-0_0
  6
CONTINUOUS
 62
    7
 10
-110.57221950000007
 20
750.05898999999999
 11
-110.82221950000007
 21
749.79211400000008
  0
LINE
  8
_0-0_0
  6
CONTINUOUS
 62
    7
 10
-110.57221950000007
 20
749.90139799999997
 11
-110.82221950000007
 21
749.79211400000008
  0
LINE
  8
_0-0_0
  6
CONTINUOUS
 62
    7
 10
-110.57221950000007
 20
750.23400900000001
 11
-110.82221950000007
 21
749.97717299999999
  0
LINE
  8
_0-0_0
  6
CONTINUOUS
 62
    7
 10
-110.57221950000007
 20
750.05898999999999
 11
-110.82221950000007
 21
749.97717299999999
  0
LINE
  8
_0-0_0
  6
CONTINUOUS
 62
    7
 10
-110.57221950000007
 20
750.42453
 11
-110.82221950000007
 21
750.18051100000002
  0
LINE
  8
_0-0_0
  6
CONTINUOUS
 62
    7
 10
-110.57221950000007
 20
750.23400900000001
 11
-110.82221950000007
 21
750.18051100000002
  0
LINE
  8
_0-0_0
  6
CONTINUOUS
 62
    7
 10
-110.57221950000007
 20
750.62851000000001
 11
-110.82221950000007
 21
750.39999399999999
  0
LINE
  8
_0-0_0
  6
CONTINUOUS
 62
    7
 10
-110.57221950000007
 20
750.42453
 11
-110.82221950000007
 21
750.39999399999999
  0
LINE
  8
_0-0_0
  6
CONTINUOUS
 62
    7
 10
-110.57221950000007
 20
750.843658
 11
-110.82221950000007
 21
750.63314800000001
  0
LINE
  8
_0-0_0
  6
CONTINUOUS
 62
    7
 10
-110.57221950000007
 20
750.62851000000001
 11
-110.82221950000007
 21
750.63314800000001
  0
LINE
  8
_0-0_0
  6
CONTINUOUS
 62
    7
 10
-110.57221950000007
 20
751.06762700000002
 11
-110.82221950000007
 21
750.87744099999998
  0
LINE
  8
_0-0_0
  6
CONTINUOUS
 62
    7
 10
-110.57221950000007
 20
750.843658
 11
-110.82221950000007
 21
750.87744099999998
  0
LINE
  8
_0-0_0
  6
CONTINUOUS
 62
    7
 10
-110.57221950000007
 20
751.29800399999999
 11
-110.82221950000007
 21
751.13018799999998
  0
LINE
  8
_0-0_0
  6
CONTINUOUS
 62
    7
 10
-110.57221950000007
 20
751.06762700000002
 11
-110.82221950000007
 21
751.13018799999998
  0
LINE
  8
_0-0_0
  6
CONTINUOUS
 62
    7
 10
-110.57221950000007
 20
751.53222699999992
 11
-110.82221950000007
 21
751.38867200000004
  0
LINE
  8
_0-0_0
  6
CONTINUOUS
 62
    7
 10
-110.57221950000007
 20
751.29800399999999
 11
-110.82221950000007
 21
751.38867200000004
  0
LINE
  8
_0-0_0
  6
CONTINUOUS
 62
    7
 10
-110.57221950000007
 20
751.76773100000003
 11
-110.82221950000007
 21
751.64999399999999
  0
LINE
  8
_0-0_0
  6
CONTINUOUS
 62
    7
 10
-110.57221950000007
 20
751.53222699999992
 11
-110.82221950000007
 21
751.64999399999999
  0
LINE
  8
_0-0_0
  6
CONTINUOUS
 62
    7
 10
-110.57221950000007
 20
752.00195299999996
 11
-110.82221950000007
 21
751.91131599999994
  0
LINE
  8
_0-0_0
  6
CONTINUOUS
 62
    7
 10
-110.57221950000007
 20
751.76773100000003
 11
-110.82221950000007
 21
751.91131599999994
  0
LINE
  8
_0-0_0
  6
CONTINUOUS
 62
    7
 10
-110.57221950000007
 20
752.23233000000005
 11
-110.82221950000007
 21
752.16976899999997
  0
LINE
  8
_0-0_0
  6
CONTINUOUS
 62
    7
 10
-110.57221950000007
 20
752.00195299999996
 11
-110.82221950000007
 21
752.16976899999997
  0
LINE
  8
_0-0_0
  6
CONTINUOUS
 62
    7
 10
-110.57221950000007
 20
752.45629899999994
 11
-110.82221950000007
 21
752.42251599999997
  0
LINE
  8
_0-0_0
  6
CONTINUOUS
 62
    7
 10
-110.57221950000007
 20
752.23233000000005
 11
-110.82221950000007
 21
752.42251599999997
  0
LINE
  8
_0-0_0
  6
CONTINUOUS
 62
    7
 10
-110.57221950000007
 20
752.67144800000005
 11
-110.82221950000007
 21
752.66680900000006
  0
LINE
  8
_0-0_0
  6
CONTINUOUS
 62
    7
 10
-110.57221950000007
 20
752.45629899999994
 11
-110.82221950000007
 21
752.66680900000006
  0
LINE
  8
_0-0_0
  6
CONTINUOUS
 62
    7
 10
-110.57221950000007
 20
752.87542699999995
 11
-110.57221950000007
 21
752.72869900000001
  0
LINE
  8
_0-0_0
  6
CONTINUOUS
 62
    7
 10
-110.57221950000007
 20
752.87542699999995
 11
-110.82221950000007
 21
752.89999399999999
  0
LINE
  8
_0-0_0
  6
CONTINUOUS
 62
    7
 10
-110.57221950000007
 20
752.67144800000005
 11
-110.82221950000007
 21
752.89999399999999
  0
LINE
  8
_0-0_0
  6
CONTINUOUS
 62
    7
 10
-110.57221950000007
 20
753.06594799999993
 11
-110.57221950000007
 21
752.87542699999995
  0
LINE
  8
_0-0_0
  6
CONTINUOUS
 62
    7
 10
-110.57221950000007
 20
753.24096699999996
 11
-110.57221950000007
 21
753.06594799999993
  0
LINE
  8
_0-0_0
  6
CONTINUOUS
 62
    7
 10
-110.57221950000007
 20
753.39855999999997
 11
-110.57221950000007
 21
753.24096699999996
  0
LINE
  8
_0-0_0
  6
CONTINUOUS
 62
    7
 10
-110.57221950000007
 20
753.53698699999995
 11
-110.57221950000007
 21
753.39855999999997
  0
LINE
  8
_0-0_0
  6
CONTINUOUS
 62
    7
 10
-110.57221950000007
 20
753.65475500000002
 11
-110.57221950000007
 21
753.53698699999995
  0
LINE
  8
_0-0_0
  6
CONTINUOUS
 62
    7
 10
-110.57221950000007
 20
753.75054899999998
 11
-110.57221950000007
 21
753.65475500000002
  0
LINE
  8
_0-0_0
  6
CONTINUOUS
 62
    7
 10
-110.57221950000007
 20
753.82330300000001
 11
-110.57221950000007
 21
753.75054899999998
  0
LINE
  8
_0-0_0
  6
CONTINUOUS
 62
    7
 10
-110.57221950000007
 20
753.87228400000004
 11
-110.57221950000007
 21
753.82330300000001
  0
LINE
  8
_0-0_0
  6
CONTINUOUS
 62
    7
 10
-110.57221950000007
 20
753.89691199999993
 11
-110.57221950000007
 21
753.87228400000004
  0
LINE
  8
_0-0_0
  6
CONTINUOUS
 62
    7
 10
-110.57221950000007
 20
753.89999399999999
 11
-110.57221950000007
 21
753.89691199999993
  0
LINE
  8
_0-0_0
  6
CONTINUOUS
 62
    7
 10
-120.32221950000007
 20
749.40307600000006
 11
-120.07221950000007
 21
749.14999399999999
  0
LINE
  8
_0-0_0
  6
CONTINUOUS
 62
    7
 10
-120.07221950000007
 20
749.14999399999999
 11
-110.82221950000007
 21
749.14999399999999
  0
LINE
  8
_0-0_0
  6
CONTINUOUS
 62
    7
 10
-120.32221950000007
 20
749.42770399999995
 11
-120.07221950000007
 21
749.16369600000007
  0
LINE
  8
_0-0_0
  6
CONTINUOUS
 62
    7
 10
-120.07221950000007
 20
749.16369600000007
 11
-110.82221950000007
 21
749.16369600000007
  0
LINE
  8
_0-0_0
  6
CONTINUOUS
 62
    7
 10
-120.32221950000007
 20
749.40307600000006
 11
-120.07221950000007
 21
749.16369600000007
  0
LINE
  8
_0-0_0
  6
CONTINUOUS
 62
    7
 10
-120.32221950000007
 20
749.47665400000005
 11
-120.07221950000007
 21
749.20461999999998
  0
LINE
  8
_0-0_0
  6
CONTINUOUS
 62
    7
 10
-120.07221950000007
 20
749.20461999999998
 11
-110.82221950000007
 21
749.20461999999998
  0
LINE
  8
_0-0_0
  6
CONTINUOUS
 62
    7
 10
-120.32221950000007
 20
749.42770399999995
 11
-120.07221950000007
 21
749.20461999999998
  0
LINE
  8
_0-0_0
  6
CONTINUOUS
 62
    7
 10
-120.32221950000007
 20
749.54943800000001
 11
-120.07221950000007
 21
749.27233899999999
  0
LINE
  8
_0-0_0
  6
CONTINUOUS
 62
    7
 10
-120.07221950000007
 20
749.27233899999999
 11
-110.82221950000007
 21
749.27233899999999
  0
LINE
  8
_0-0_0
  6
CONTINUOUS
 62
    7
 10
-120.32221950000007
 20
749.47665400000005
 11
-120.07221950000007
 21
749.27233899999999
  0
LINE
  8
_0-0_0
  6
CONTINUOUS
 62
    7
 10
-120.32221950000007
 20
749.64520300000004
 11
-120.07221950000007
 21
749.36611900000003
  0
LINE
  8
_0-0_0
  6
CONTINUOUS
 62
    7
 10
-120.07221950000007
 20
749.36611900000003
 11
-110.82221950000007
 21
749.36611900000003
  0
LINE
  8
_0-0_0
  6
CONTINUOUS
 62
    7
 10
-120.32221950000007
 20
749.54943800000001
 11
-120.07221950000007
 21
749.36611900000003
  0
LINE
  8
_0-0_0
  6
CONTINUOUS
 62
    7
 10
-120.07221950000007
 20
749.48492399999998
 11
-110.82221950000007
 21
749.48492399999998
  0
LINE
  8
_0-0_0
  6
CONTINUOUS
 62
    7
 10
-120.19226049999997
 20
749.56137100000001
 11
-120.07221950000007
 21
749.48492399999998
  0
LINE
  8
_0-0_0
  6
CONTINUOUS
 62
    7
 10
-120.32221950000007
 20
749.64520300000004
 11
-120.19226049999997
 21
749.56137100000001
  0
LINE
  8
_0-0_0
  6
CONTINUOUS
 62
    7
 10
-120.32221950000007
 20
749.76297
 11
-120.07221950000007
 21
749.48492399999998
  0
LINE
  8
_0-0_0
  6
CONTINUOUS
 62
    7
 10
-120.32221950000007
 20
749.90139799999997
 11
-120.07221950000007
 21
749.62744099999998
  0
LINE
  8
_0-0_0
  6
CONTINUOUS
 62
    7
 10
-120.07221950000007
 20
749.62744099999998
 11
-110.82221950000007
 21
749.62744099999998
  0
LINE
  8
_0-0_0
  6
CONTINUOUS
 62
    7
 10
-120.32221950000007
 20
749.76297
 11
-120.07221950000007
 21
749.62744099999998
  0
LINE
  8
_0-0_0
  6
CONTINUOUS
 62
    7
 10
-120.32221950000007
 20
750.05898999999999
 11
-120.07221950000007
 21
749.79211400000008
  0
LINE
  8
_0-0_0
  6
CONTINUOUS
 62
    7
 10
-120.07221950000007
 20
749.79211400000008
 11
-110.82221950000007
 21
749.79211400000008
  0
LINE
  8
_0-0_0
  6
CONTINUOUS
 62
    7
 10
-120.32221950000007
 20
749.90139799999997
 11
-120.07221950000007
 21
749.79211400000008
  0
LINE
  8
_0-0_0
  6
CONTINUOUS
 62
    7
 10
-120.32221950000007
 20
750.23400900000001
 11
-120.07221950000007
 21
749.97717299999999
  0
LINE
  8
_0-0_0
  6
CONTINUOUS
 62
    7
 10
-120.07221950000007
 20
749.97717299999999
 11
-110.82221950000007
 21
749.97717299999999
  0
LINE
  8
_0-0_0
  6
CONTINUOUS
 62
    7
 10
-120.32221950000007
 20
750.05898999999999
 11
-120.07221950000007
 21
749.97717299999999
  0
LINE
  8
_0-0_0
  6
CONTINUOUS
 62
    7
 10
-120.32221950000007
 20
750.42453
 11
-120.07221950000007
 21
750.18051100000002
  0
LINE
  8
_0-0_0
  6
CONTINUOUS
 62
    7
 10
-120.07221950000007
 20
750.18051100000002
 11
-110.82221950000007
 21
750.18051100000002
  0
LINE
  8
_0-0_0
  6
CONTINUOUS
 62
    7
 10
-120.32221950000007
 20
750.23400900000001
 11
-120.07221950000007
 21
750.18051100000002
  0
LINE
  8
_0-0_0
  6
CONTINUOUS
 62
    7
 10
-120.32221950000007
 20
750.62851000000001
 11
-120.07221950000007
 21
750.39999399999999
  0
LINE
  8
_0-0_0
  6
CONTINUOUS
 62
    7
 10
-120.07221950000007
 20
750.39999399999999
 11
-110.82221950000007
 21
750.39999399999999
  0
LINE
  8
_0-0_0
  6
CONTINUOUS
 62
    7
 10
-120.32221950000007
 20
750.62851000000001
 11
-110.57221950000007
 21
750.62851000000001
  0
LINE
  8
_0-0_0
  6
CONTINUOUS
 62
    7
 10
-120.32221950000007
 20
750.42453
 11
-120.07221950000007
 21
750.39999399999999
  0
LINE
  8
_0-0_0
  6
CONTINUOUS
 62
    7
 10
-120.32221950000007
 20
750.843658
 11
-120.07221950000007
 21
750.63314800000001
  0
LINE
  8
_0-0_0
  6
CONTINUOUS
 62
    7
 10
-120.07221950000007
 20
750.63314800000001
 11
-110.82221950000007
 21
750.63314800000001
  0
LINE
  8
_0-0_0
  6
CONTINUOUS
 62
    7
 10
-120.32221950000007
 20
750.843658
 11
-110.57221950000007
 21
750.843658
  0
LINE
  8
_0-0_0
  6
CONTINUOUS
 62
    7
 10
-120.32221950000007
 20
750.62851000000001
 11
-120.07221950000007
 21
750.63314800000001
  0
LINE
  8
_0-0_0
  6
CONTINUOUS
 62
    7
 10
-120.32221950000007
 20
751.06762700000002
 11
-120.07221950000007
 21
750.87744099999998
  0
LINE
  8
_0-0_0
  6
CONTINUOUS
 62
    7
 10
-120.07221950000007
 20
750.87744099999998
 11
-110.82221950000007
 21
750.87744099999998
  0
LINE
  8
_0-0_0
  6
CONTINUOUS
 62
    7
 10
-120.32221950000007
 20
751.06762700000002
 11
-110.57221950000007
 21
751.06762700000002
  0
LINE
  8
_0-0_0
  6
CONTINUOUS
 62
    7
 10
-120.32221950000007
 20
750.843658
 11
-120.07221950000007
 21
750.87744099999998
  0
LINE
  8
_0-0_0
  6
CONTINUOUS
 62
    7
 10
-120.32221950000007
 20
751.29800399999999
 11
-120.07221950000007
 21
751.13018799999998
  0
LINE
  8
_0-0_0
  6
CONTINUOUS
 62
    7
 10
-120.07221950000007
 20
751.13018799999998
 11
-110.82221950000007
 21
751.13018799999998
  0
LINE
  8
_0-0_0
  6
CONTINUOUS
 62
    7
 10
-120.32221950000007
 20
751.29800399999999
 11
-110.57221950000007
 21
751.29800399999999
  0
LINE
  8
_0-0_0
  6
CONTINUOUS
 62
    7
 10
-120.32221950000007
 20
751.06762700000002
 11
-120.07221950000007
 21
751.13018799999998
  0
LINE
  8
_0-0_0
  6
CONTINUOUS
 62
    7
 10
-120.32221950000007
 20
751.53222699999992
 11
-120.07221950000007
 21
751.38867200000004
  0
LINE
  8
_0-0_0
  6
CONTINUOUS
 62
    7
 10
-120.07221950000007
 20
751.38867200000004
 11
-110.82221950000007
 21
751.38867200000004
  0
LINE
  8
_0-0_0
  6
CONTINUOUS
 62
    7
 10
-120.32221950000007
 20
751.53222699999992
 11
-110.57221950000007
 21
751.53222699999992
  0
LINE
  8
_0-0_0
  6
CONTINUOUS
 62
    7
 10
-120.32221950000007
 20
751.29800399999999
 11
-120.07221950000007
 21
751.38867200000004
  0
LINE
  8
_0-0_0
  6
CONTINUOUS
 62
    7
 10
-120.32221950000007
 20
751.76773100000003
 11
-120.07221950000007
 21
751.64999399999999
  0
LINE
  8
_0-0_0
  6
CONTINUOUS
 62
    7
 10
-120.07221950000007
 20
751.64999399999999
 11
-110.82221950000007
 21
751.64999399999999
  0
LINE
  8
_0-0_0
  6
CONTINUOUS
 62
    7
 10
-120.32221950000007
 20
751.76773100000003
 11
-110.57221950000007
 21
751.76773100000003
  0
LINE
  8
_0-0_0
  6
CONTINUOUS
 62
    7
 10
-120.32221950000007
 20
751.53222699999992
 11
-120.07221950000007
 21
751.64999399999999
  0
LINE
  8
_0-0_0
  6
CONTINUOUS
 62
    7
 10
-120.32221950000007
 20
752.00195299999996
 11
-120.07221950000007
 21
751.91131599999994
  0
LINE
  8
_0-0_0
  6
CONTINUOUS
 62
    7
 10
-120.07221950000007
 20
751.91131599999994
 11
-110.82221950000007
 21
751.91131599999994
  0
LINE
  8
_0-0_0
  6
CONTINUOUS
 62
    7
 10
-120.32221950000007
 20
752.00195299999996
 11
-110.57221950000007
 21
752.00195299999996
  0
LINE
  8
_0-0_0
  6
CONTINUOUS
 62
    7
 10
-120.32221950000007
 20
751.76773100000003
 11
-120.07221950000007
 21
751.91131599999994
  0
LINE
  8
_0-0_0
  6
CONTINUOUS
 62
    7
 10
-120.32221950000007
 20
752.23233000000005
 11
-120.07221950000007
 21
752.16976899999997
  0
LINE
  8
_0-0_0
  6
CONTINUOUS
 62
    7
 10
-120.07221950000007
 20
752.16976899999997
 11
-110.82221950000007
 21
752.16976899999997
  0
LINE
  8
_0-0_0
  6
CONTINUOUS
 62
    7
 10
-120.32221950000007
 20
752.23233000000005
 11
-110.57221950000007
 21
752.23233000000005
  0
LINE
  8
_0-0_0
  6
CONTINUOUS
 62
    7
 10
-120.32221950000007
 20
752.00195299999996
 11
-120.07221950000007
 21
752.16976899999997
  0
LINE
  8
_0-0_0
  6
CONTINUOUS
 62
    7
 10
-120.32221950000007
 20
752.45629899999994
 11
-120.07221950000007
 21
752.42251599999997
  0
LINE
  8
_0-0_0
  6
CONTINUOUS
 62
    7
 10
-120.07221950000007
 20
752.42251599999997
 11
-110.82221950000007
 21
752.42251599999997
  0
LINE
  8
_0-0_0
  6
CONTINUOUS
 62
    7
 10
-120.32221950000007
 20
752.45629899999994
 11
-110.57221950000007
 21
752.45629899999994
  0
LINE
  8
_0-0_0
  6
CONTINUOUS
 62
    7
 10
-120.32221950000007
 20
752.23233000000005
 11
-120.07221950000007
 21
752.42251599999997
  0
LINE
  8
_0-0_0
  6
CONTINUOUS
 62
    7
 10
-120.32221950000007
 20
752.67144800000005
 11
-120.07221950000007
 21
752.66680900000006
  0
LINE
  8
_0-0_0
  6
CONTINUOUS
 62
    7
 10
-120.07221950000007
 20
752.66680900000006
 11
-110.82221950000007
 21
752.66680900000006
  0
LINE
  8
_0-0_0
  6
CONTINUOUS
 62
    7
 10
-120.32221950000007
 20
752.67144800000005
 11
-110.57221950000007
 21
752.67144800000005
  0
LINE
  8
_0-0_0
  6
CONTINUOUS
 62
    7
 10
-120.32221950000007
 20
752.45629899999994
 11
-120.07221950000007
 21
752.66680900000006
  0
LINE
  8
_0-0_0
  6
CONTINUOUS
 62
    7
 10
-120.32221950000007
 20
752.87542699999995
 11
-120.07221950000007
 21
752.89999399999999
  0
LINE
  8
_0-0_0
  6
CONTINUOUS
 62
    7
 10
-120.07221950000007
 20
752.89999399999999
 11
-110.82221950000007
 21
752.89999399999999
  0
LINE
  8
_0-0_0
  6
CONTINUOUS
 62
    7
 10
-120.32221950000007
 20
752.67144800000005
 11
-120.07221950000007
 21
752.89999399999999
  0
LINE
  8
_0-0_0
  6
CONTINUOUS
 62
    7
 10
-110.57221950000007
 20
753.06594799999993
 11
-110.82221950000007
 21
753.11944599999993
  0
LINE
  8
_0-0_0
  6
CONTINUOUS
 62
    7
 10
-110.57221950000007
 20
752.87542699999995
 11
-110.82221950000007
 21
753.11944599999993
  0
LINE
  8
_0-0_0
  6
CONTINUOUS
 62
    7
 10
-110.57221950000007
 20
753.24096699999996
 11
-110.82221950000007
 21
753.32281499999999
  0
LINE
  8
_0-0_0
  6
CONTINUOUS
 62
    7
 10
-110.57221950000007
 20
753.06594799999993
 11
-110.82221950000007
 21
753.32281499999999
  0
LINE
  8
_0-0_0
  6
CONTINUOUS
 62
    7
 10
-110.57221950000007
 20
753.39855999999997
 11
-110.82221950000007
 21
753.50784299999998
  0
LINE
  8
_0-0_0
  6
CONTINUOUS
 62
    7
 10
-110.57221950000007
 20
753.24096699999996
 11
-110.82221950000007
 21
753.50784299999998
  0
LINE
  8
_0-0_0
  6
CONTINUOUS
 62
    7
 10
-110.57221950000007
 20
753.53698699999995
 11
-110.82221950000007
 21
753.67251599999997
  0
LINE
  8
_0-0_0
  6
CONTINUOUS
 62
    7
 10
-110.57221950000007
 20
753.39855999999997
 11
-110.82221950000007
 21
753.67251599999997
  0
LINE
  8
_0-0_0
  6
CONTINUOUS
 62
    7
 10
-110.57221950000007
 20
753.65475500000002
 11
-110.82221950000007
 21
753.81506300000001
  0
LINE
  8
_0-0_0
  6
CONTINUOUS
 62
    7
 10
-110.57221950000007
 20
753.53698699999995
 11
-110.82221950000007
 21
753.81506300000001
  0
LINE
  8
_0-0_0
  6
CONTINUOUS
 62
    7
 10
-110.57221950000007
 20
753.75054899999998
 11
-110.82221950000007
 21
753.93383799999992
  0
LINE
  8
_0-0_0
  6
CONTINUOUS
 62
    7
 10
-110.57221950000007
 20
753.65475500000002
 11
-110.82221950000007
 21
753.93383799999992
  0
LINE
  8
_0-0_0
  6
CONTINUOUS
 62
    7
 10
-110.57221950000007
 20
753.82330300000001
 11
-110.82221950000007
 21
754.02761800000007
  0
LINE
  8
_0-0_0
  6
CONTINUOUS
 62
    7
 10
-110.57221950000007
 20
753.75054899999998
 11
-110.82221950000007
 21
754.02761800000007
  0
LINE
  8
_0-0_0
  6
CONTINUOUS
 62
    7
 10
-110.57221950000007
 20
753.87228400000004
 11
-110.82221950000007
 21
754.09533699999997
  0
LINE
  8
_0-0_0
  6
CONTINUOUS
 62
    7
 10
-110.57221950000007
 20
753.82330300000001
 11
-110.82221950000007
 21
754.09533699999997
  0
LINE
  8
_0-0_0
  6
CONTINUOUS
 62
    7
 10
-110.57221950000007
 20
753.89691199999993
 11
-110.82221950000007
 21
754.13629200000003
  0
LINE
  8
_0-0_0
  6
CONTINUOUS
 62
    7
 10
-110.57221950000007
 20
753.87228400000004
 11
-110.82221950000007
 21
754.13629200000003
  0
LINE
  8
_0-0_0
  6
CONTINUOUS
 62
    7
 10
-110.57221950000007
 20
753.89691199999993
 11
-110.82221950000007
 21
754.14999399999999
  0
LINE
  8
_0-0_0
  6
CONTINUOUS
 62
    7
 10
-120.57221950000007
 20
749.89483599999994
 11
-120.57221950000007
 21
749.64999399999999
  0
LINE
  8
_0-0_0
  6
CONTINUOUS
 62
    7
 10
-120.32221950000007
 20
752.87542699999995
 11
-120.07221950000007
 21
753.11944599999993
  0
LINE
  8
_0-0_0
  6
CONTINUOUS
 62
    7
 10
-120.32221950000007
 20
753.06594799999993
 11
-120.07221950000007
 21
753.11944599999993
  0
LINE
  8
_0-0_0
  6
CONTINUOUS
 62
    7
 10
-120.32221950000007
 20
753.06594799999993
 11
-120.07221950000007
 21
753.32281499999999
  0
LINE
  8
_0-0_0
  6
CONTINUOUS
 62
    7
 10
-120.32221950000007
 20
753.24096699999996
 11
-120.07221950000007
 21
753.32281499999999
  0
LINE
  8
_0-0_0
  6
CONTINUOUS
 62
    7
 10
-120.32221950000007
 20
753.24096699999996
 11
-120.07221950000007
 21
753.50784299999998
  0
LINE
  8
_0-0_0
  6
CONTINUOUS
 62
    7
 10
-120.32221950000007
 20
753.39855999999997
 11
-120.07221950000007
 21
753.50784299999998
  0
LINE
  8
_0-0_0
  6
CONTINUOUS
 62
    7
 10
-120.32221950000007
 20
753.39855999999997
 11
-120.07221950000007
 21
753.67251599999997
  0
LINE
  8
_0-0_0
  6
CONTINUOUS
 62
    7
 10
-120.32221950000007
 20
753.53698699999995
 11
-120.07221950000007
 21
753.67251599999997
  0
LINE
  8
_0-0_0
  6
CONTINUOUS
 62
    7
 10
-120.32221950000007
 20
753.53698699999995
 11
-120.07221950000007
 21
753.81506300000001
  0
LINE
  8
_0-0_0
  6
CONTINUOUS
 62
    7
 10
-120.32221950000007
 20
753.65475500000002
 11
-120.07221950000007
 21
753.81506300000001
  0
LINE
  8
_0-0_0
  6
CONTINUOUS
 62
    7
 10
-120.32221950000007
 20
753.65475500000002
 11
-120.07221950000007
 21
753.93383799999992
  0
LINE
  8
_0-0_0
  6
CONTINUOUS
 62
    7
 10
-120.32221950000007
 20
753.75054899999998
 11
-120.07221950000007
 21
753.93383799999992
  0
LINE
  8
_0-0_0
  6
CONTINUOUS
 62
    7
 10
-120.32221950000007
 20
753.75054899999998
 11
-120.07221950000007
 21
754.02761800000007
  0
LINE
  8
_0-0_0
  6
CONTINUOUS
 62
    7
 10
-120.32221950000007
 20
753.82330300000001
 11
-120.07221950000007
 21
754.02761800000007
  0
LINE
  8
_0-0_0
  6
CONTINUOUS
 62
    7
 10
-120.32221950000007
 20
753.82330300000001
 11
-120.07221950000007
 21
754.09533699999997
  0
LINE
  8
_0-0_0
  6
CONTINUOUS
 62
    7
 10
-120.32221950000007
 20
753.87228400000004
 11
-120.07221950000007
 21
754.09533699999997
  0
LINE
  8
_0-0_0
  6
CONTINUOUS
 62
    7
 10
-120.32221950000007
 20
753.87228400000004
 11
-120.07221950000007
 21
754.13629200000003
  0
LINE
  8
_0-0_0
  6
CONTINUOUS
 62
    7
 10
-120.32221950000007
 20
753.89691199999993
 11
-120.07221950000007
 21
754.13629200000003
  0
LINE
  8
_0-0_0
  6
CONTINUOUS
 62
    7
 10
-120.32221950000007
 20
753.89691199999993
 11
-120.07221950000007
 21
754.14999399999999
  0
LINE
  8
_0-0_0
  6
CONTINUOUS
 62
    7
 10
-120.57221950000007
 20
753.64999399999999
 11
-120.57221950000007
 21
749.89483599999994
  0
LINE
  8
_0-0_0
  6
CONTINUOUS
 62
    7
 10
-120.07221950000007
 20
753.11944599999993
 11
-110.82221950000007
 21
753.11944599999993
  0
LINE
  8
_0-0_0
  6
CONTINUOUS
 62
    7
 10
-120.07221950000007
 20
753.32281499999999
 11
-110.82221950000007
 21
753.32281499999999
  0
LINE
  8
_0-0_0
  6
CONTINUOUS
 62
    7
 10
-120.07221950000007
 20
753.50784299999998
 11
-110.82221950000007
 21
753.50784299999998
  0
LINE
  8
_0-0_0
  6
CONTINUOUS
 62
    7
 10
-120.07221950000007
 20
753.67251599999997
 11
-110.82221950000007
 21
753.67251599999997
  0
LINE
  8
_0-0_0
  6
CONTINUOUS
 62
    7
 10
-120.07221950000007
 20
753.81506300000001
 11
-110.82221950000007
 21
753.81506300000001
  0
LINE
  8
_0-0_0
  6
CONTINUOUS
 62
    7
 10
-120.07221950000007
 20
753.93383799999992
 11
-110.82221950000007
 21
753.93383799999992
  0
LINE
  8
_0-0_0
  6
CONTINUOUS
 62
    7
 10
-120.07221950000007
 20
754.02761800000007
 11
-110.82221950000007
 21
754.02761800000007
  0
LINE
  8
_0-0_0
  6
CONTINUOUS
 62
    7
 10
-120.07221950000007
 20
754.09533699999997
 11
-110.82221950000007
 21
754.09533699999997
  0
LINE
  8
_0-0_0
  6
CONTINUOUS
 62
    7
 10
-120.07221950000007
 20
754.13629200000003
 11
-110.82221950000007
 21
754.13629200000003
  0
LINE
  8
_0-0_0
  6
CONTINUOUS
 62
    7
 10
-120.07221950000007
 20
754.14999399999999
 11
-110.82221950000007
 21
754.14999399999999
  0
LINE
  8
_0-0_0
  6
CONTINUOUS
 62
    7
 10
-84.572219500000074
 20
770.5
 11
-110.57221950000007
 21
770.5
  0
LINE
  8
_0-0_0
  6
CONTINUOUS
 62
    7
 10
-84.572219500000074
 20
766
 11
-110.57221950000007
 21
766
  0
LINE
  8
_0-0_0
  6
CONTINUOUS
 62
    7
 10
16.427780499999926
 20
753.89999399999999
 11
18.883453499999973
 21
753.89999399999999
  0
LINE
  8
_0-0_0
  6
CONTINUOUS
 62
    7
 10
18.382369499999982
 20
749.39999399999999
 11
18.883453499999973
 21
749.39999399999999
  0
LINE
  8
_0-0_0
  6
CONTINUOUS
 62
    7
 10
-110.57221950000007
 20
770.5
 11
-110.82221950000007
 21
770.75
  0
LINE
  8
_0-0_0
  6
CONTINUOUS
 62
    7
 10
-110.57221950000007
 20
766
 11
-110.82221950000007
 21
765.75
  0
LINE
  8
_0-0_0
  6
CONTINUOUS
 62
    7
 10
19.027786499999934
 20
753.64999399999999
 11
18.883453499999973
 21
753.89999399999999
  0
LINE
  8
_0-0_0
  6
CONTINUOUS
 62
    7
 10
19.027786499999934
 20
749.64999399999999
 11
18.883453499999973
 21
749.39999399999999
  0
LINE
  8
_0-0_0
  6
CONTINUOUS
 62
    7
 10
-106.57221950000007
 20
754.69998199999998
 11
-105.32221950000007
 21
753.44998199999998
  0
LINE
  8
_0-0_0
  6
CONTINUOUS
 62
    7
 10
-106.57221950000007
 20
765.19998199999998
 11
-105.77221650000001
 21
765.99996899999996
  0
LINE
  8
_0-0_0
  6
CONTINUOUS
 62
    7
 10
-120.57221950000007
 20
770.25
 11
-120.07237250000003
 21
770.74981700000001
  0
LINE
  8
_0-0_0
  6
CONTINUOUS
 62
    7
 10
-120.57221950000007
 20
766.25
 11
-120.07237250000003
 21
765.75015299999995
  0
LINE
  8
_0-0_0
  6
CONTINUOUS
 62
    7
 10
-106.57221950000007
 20
764.94998199999998
 11
-106.97222950000003
 21
764.94998199999998
  0
LINE
  8
_0-0_0
  6
CONTINUOUS
 62
    7
 10
-106.57221950000007
 20
754.94998199999998
 11
-106.97222950000003
 21
754.94998199999998
  0
LINE
  8
_0-0_0
  6
CONTINUOUS
 62
    7
 10
-107.77221650000001
 20
764.48809800000004
 11
-106.97222950000003
 21
764.94998199999998
  0
LINE
  8
_0-0_0
  6
CONTINUOUS
 62
    7
 10
-107.77221650000001
 20
755.41186500000003
 11
-106.97222950000003
 21
754.94998199999998
  0
LINE
  8
_0-0_0
  6
CONTINUOUS
 62
    7
 10
-107.77221650000001
 20
763.94998199999998
 11
-165.77221650000001
 21
763.94998199999998
  0
LINE
  8
_0-0_0
  6
CONTINUOUS
 62
    7
 10
-107.77221650000001
 20
755.94998199999998
 11
-165.77221650000001
 21
755.94998199999998
  0
LINE
  8
_0-0_0
  6
CONTINUOUS
 62
    7
 10
-90.322250500000109
 20
749.39999399999999
 11
-110.57221950000007
 21
749.39999399999999
  0
LINE
  8
_0-0_0
  6
CONTINUOUS
 62
    7
 10
-105.77221650000001
 20
753.89999399999999
 11
-110.57221950000007
 21
753.89999399999999
  0
LINE
  8
_0-0_0
  6
CONTINUOUS
 62
    7
 10
-110.57221950000007
 20
753.89999399999999
 11
-110.82221950000007
 21
754.14999399999999
  0
LINE
  8
_0-0_0
  6
CONTINUOUS
 62
    7
 10
-120.57221950000007
 20
749.64999399999999
 11
-120.07237250000003
 21
749.15014599999995
  0
LINE
  8
_0-0_0
  6
CONTINUOUS
 62
    7
 10
-120.57221950000007
 20
753.64999399999999
 11
-120.07237250000003
 21
754.14984099999992
  0
LINE
  8
_0-0_0
  6
CONTINUOUS
 62
    7
 10
-194.08322150000004
 20
802.14999399999999
 11
-194.08322150000004
 21
789.14999399999999
  0
LINE
  8
_0-0_0
  6
CONTINUOUS
 62
    7
 10
-193.88320950000002
 20
802.14999399999999
 11
-194.08322150000004
 21
802.14999399999999
  0
LINE
  8
_0-0_0
  6
CONTINUOUS
 62
    7
 10
-193.88320950000002
 20
789.14999399999999
 11
-194.08322150000004
 21
789.14999399999999
  0
LINE
  8
_0-0_0
  6
CONTINUOUS
 62
    7
 10
-193.88320950000002
 20
802.14999399999999
 11
-193.88320950000002
 21
820.75
  0
LINE
  8
_0-0_0
  6
CONTINUOUS
 62
    7
 10
-193.78323350000005
 20
820.75
 11
-193.88320950000002
 21
820.75
  0
LINE
  8
_0-0_0
  6
CONTINUOUS
 62
    7
 10
-193.78323350000005
 20
823.25
 11
-193.78323350000005
 21
820.75
  0
ARC
  8
_0-0_0
  6
CONTINUOUS
 62
    7
 10
-194.28323350000005
 20
823.25
 40
0.5
 50
0
 51
90.000003000000007
  0
LINE
  8
_0-0_0
  6
CONTINUOUS
 62
    7
 10
-194.28323350000005
 20
823.75
 11
-197.28323350000005
 21
823.75
  0
ARC
  8
_0-0_0
  6
CONTINUOUS
 62
    7
 10
-197.28323350000005
 20
823.25
 40
0.5
 50
90.000003000000007
 51
179.99999099999999
  0
ARC
  8
_0-0_0
  6
CONTINUOUS
 62
    7
 10
-201.78323350000005
 20
775.75
 40
0.5
 50
179.99999099999999
 51
269.99999700000001
  0
LINE
  8
_0-0_0
  6
CONTINUOUS
 62
    7
 10
-199.28323350000005
 20
775.25
 11
-201.78323350000005
 21
775.25
  0
ARC
  8
_0-0_0
  6
CONTINUOUS
 62
    7
 10
-199.28323350000005
 20
775.75
 40
0.5
 50
269.99999700000001
 51
0
  0
LINE
  8
_0-0_0
  6
CONTINUOUS
 62
    7
 10
-198.78323350000005
 20
780.75
 11
-198.78323350000005
 21
775.75
  0
ARC
  8
_0-0_0
  6
CONTINUOUS
 62
    7
 10
-198.28323350000005
 20
780.75
 40
0.5
 50
90.000003000000007
 51
179.99999099999999
  0
LINE
  8
_0-0_0
  6
CONTINUOUS
 62
    7
 10
-194.28323350000005
 20
781.25
 11
-198.28323350000005
 21
781.25
  0
ARC
  8
_0-0_0
  6
CONTINUOUS
 62
    7
 10
-194.28323350000005
 20
781.75
 40
0.5
 50
269.99999700000001
 51
0
  0
LINE
  8
_0-0_0
  6
CONTINUOUS
 62
    7
 10
-193.78323350000005
 20
784.94998199999998
 11
-193.78323350000005
 21
781.75
  0
LINE
  8
_0-0_0
  6
CONTINUOUS
 62
    7
 10
-193.88320950000002
 20
784.94998199999998
 11
-193.78323350000005
 21
784.94998199999998
  0
LINE
  8
_0-0_0
  6
CONTINUOUS
 62
    7
 10
-193.88320950000002
 20
784.94998199999998
 11
-193.88320950000002
 21
789.14999399999999
  0
LINE
  8
_0-0_0
  6
CONTINUOUS
 62
    7
 10
-194.78323350000005
 20
823.25
 11
-212.58322150000004
 21
823.25
  0
ARC
  8
_0-0_0
  6
CONTINUOUS
 62
    7
 10
-194.78323350000005
 20
822.75
 40
0.5
 50
0
 51
90.000003000000007
  0
LINE
  8
_0-0_0
  6
CONTINUOUS
 62
    7
 10
-194.28323350000005
 20
822.75
 11
-194.28323350000005
 21
782.25
  0
ARC
  8
_0-0_0
  6
CONTINUOUS
 62
    7
 10
-194.78323350000005
 20
782.25
 40
0.5
 50
269.99999700000001
 51
0
  0
LINE
  8
_0-0_0
  6
CONTINUOUS
 62
    7
 10
-198.28323350000005
 20
781.75
 11
-194.78323350000005
 21
781.75
  0
ARC
  8
_0-0_0
  6
CONTINUOUS
 62
    7
 10
-198.28323350000005
 20
780.75
 40
1
 50
90.000003000000007
 51
179.99999099999999
  0
LINE
  8
_0-0_0
  6
CONTINUOUS
 62
    7
 10
-199.28323350000005
 20
780.75
 11
-199.28323350000005
 21
776.25
  0
ARC
  8
_0-0_0
  6
CONTINUOUS
 62
    7
 10
-199.78323350000005
 20
776.25
 40
0.5
 50
269.99999700000001
 51
0
  0
LINE
  8
_0-0_0
  6
CONTINUOUS
 62
    7
 10
-216.78323350000005
 20
775.75
 11
-199.78323350000005
 21
775.75
  0
LINE
  8
_0-0_0
  6
CONTINUOUS
 62
    7
 10
-198.28323350000005
 20
823.44998199999998
 11
-198.28323350000005
 21
823.25
  0
ARC
  8
_0-0_0
  6
CONTINUOUS
 62
    7
 10
-198.58322150000004
 20
823.44998199999998
 40
0.2999999999999999
 50
0
 51
90.000003000000007
  0
LINE
  8
_0-0_0
  6
CONTINUOUS
 62
    7
 10
-198.58322150000004
 20
823.75
 11
-213.28323350000005
 21
823.75
  0
ARC
  8
_0-0_0
  6
CONTINUOUS
 62
    7
 10
-213.28323350000005
 20
823.44998199999998
 40
0.2999999999999999
 50
90.000003000000007
 51
179.99999099999999
  0
LINE
  8
_0-0_0
  6
CONTINUOUS
 62
    7
 10
-213.58322150000004
 20
823.44998199999998
 11
-213.58322150000004
 21
820.25
  0
LINE
  8
_0-0_0
  6
CONTINUOUS
 62
    7
 10
-213.58322150000004
 20
820.25
 11
-219.28323350000005
 21
820.25
  0
LINE
  8
_0-0_0
  6
CONTINUOUS
 62
    7
 10
-219.28323350000005
 20
820.25
 11
-220.08322150000004
 21
819.44998199999998
  0
ARC
  8
_0-0_0
  6
CONTINUOUS
 62
    7
 10
-212.58322150000004
 20
822.75
 40
0.5
 50
90.000003000000007
 51
179.99999099999999
  0
LINE
  8
_0-0_0
  6
CONTINUOUS
 62
    7
 10
-213.08322150000004
 20
822.75
 11
-213.08322150000004
 21
819.94998199999998
  0
ARC
  8
_0-0_0
  6
CONTINUOUS
 62
    7
 10
-213.58322150000004
 20
819.94998199999998
 40
0.5
 50
269.99999700000001
 51
0
  0
LINE
  8
_0-0_0
  6
CONTINUOUS
 62
    7
 10
-213.58322150000004
 20
819.44998199999998
 11
-221.78323350000005
 21
819.44998199999998
  0
ARC
  8
_0-0_0
  6
CONTINUOUS
 62
    7
 10
-221.78323350000005
 20
818.94998199999998
 40
0.5
 50
90.000003000000007
 51
179.99999099999999
  0
LINE
  8
_0-0_0
  6
CONTINUOUS
 62
    7
 10
-222.28323350000005
 20
782.25
 11
-222.28323350000005
 21
818.94998199999998
  0
ARC
  8
_0-0_0
  6
CONTINUOUS
 62
    7
 10
-221.78323350000005
 20
782.25
 40
0.5
 50
179.99999099999999
 51
269.99999700000001
  0
LINE
  8
_0-0_0
  6
CONTINUOUS
 62
    7
 10
-221.78323350000005
 20
781.75
 11
-218.28323350000005
 21
781.75
  0
ARC
  8
_0-0_0
  6
CONTINUOUS
 62
    7
 10
-218.28323350000005
 20
780.75
 40
1
 50
0
 51
90.000003000000007
  0
LINE
  8
_0-0_0
  6
CONTINUOUS
 62
    7
 10
-217.28323350000005
 20
776.25
 11
-217.28323350000005
 21
780.75
  0
ARC
  8
_0-0_0
  6
CONTINUOUS
 62
    7
 10
-216.78323350000005
 20
776.25
 40
0.5
 50
179.99999099999999
 51
269.99999700000001
  0
CIRCLE
  8
_0-0_0
  6
CONTINUOUS
 62
    7
 10
-208.28323350000005
 20
784.75
 40
2.0670000000000002
  0
LINE
  8
_0-0_0
  6
CONTINUOUS
 62
    7
 10
-220.28323350000005
 20
819.75
 11
-220.28323350000005
 21
819.44998199999998
  0
LINE
  8
_0-0_0
  6
CONTINUOUS
 62
    7
 10
-220.28323350000005
 20
819.75
 11
-222.28323350000005
 21
819.75
  0
ARC
  8
_0-0_0
  6
CONTINUOUS
 62
    7
 10
-222.28323350000005
 20
819.25
 40
0.5
 50
90.000003000000007
 51
179.99999099999999
  0
LINE
  8
_0-0_0
  6
CONTINUOUS
 62
    7
 10
-222.78323350000005
 20
819.25
 11
-222.78323350000005
 21
781.75
  0
ARC
  8
_0-0_0
  6
CONTINUOUS
 62
    7
 10
-222.28323350000005
 20
781.75
 40
0.5
 50
179.99999099999999
 51
269.99999700000001
  0
LINE
  8
_0-0_0
  6
CONTINUOUS
 62
    7
 10
-218.28323350000005
 20
781.25
 11
-222.28323350000005
 21
781.25
  0
ARC
  8
_0-0_0
  6
CONTINUOUS
 62
    7
 10
-218.28323350000005
 20
780.75
 40
0.5
 50
0
 51
90.000003000000007
  0
LINE
  8
_0-0_0
  6
CONTINUOUS
 62
    7
 10
-217.78323350000005
 20
775.75
 11
-217.78323350000005
 21
780.75
  0
ARC
  8
_0-0_0
  6
CONTINUOUS
 62
    7
 10
-217.28323350000005
 20
775.75
 40
0.5
 50
179.99999099999999
 51
269.99999700000001
  0
LINE
  8
_0-0_0
  6
CONTINUOUS
 62
    7
 10
-217.28323350000005
 20
775.25
 11
-214.78323350000005
 21
775.25
  0
ARC
  8
_0-0_0
  6
CONTINUOUS
 62
    7
 10
-214.78323350000005
 20
775.75
 40
0.5
 50
269.99999700000001
 51
0
  0
LINE
  8
_0-0_0
  6
CONTINUOUS
 62
    7
 10
-198.78323350000005
 20
775.75
 11
-198.68322750000016
 21
775.75
  0
LINE
  8
_0-0_0
  6
CONTINUOUS
 62
    7
 10
-198.68322750000016
 20
775.75
 11
-198.68322750000016
 21
776.25
  0
LINE
  8
_0-0_0
  6
CONTINUOUS
 62
    7
 10
-198.68322750000016
 20
780.25
 11
-198.68322750000016
 21
776.25
  0
LINE
  8
_0-0_0
  6
CONTINUOUS
 62
    7
 10
-198.78323350000005
 20
780.75
 11
-198.68322750000016
 21
780.75
  0
LINE
  8
_0-0_0
  6
CONTINUOUS
 62
    7
 10
-198.68322750000016
 20
780.25
 11
-198.68322750000016
 21
780.75
  0
LINE
  8
_0-0_0
  6
CONTINUOUS
 62
    7
 10
-198.58322150000004
 20
776.25
 11
-198.58322150000004
 21
776.38034100000004
  0
LINE
  8
_0-0_0
  6
CONTINUOUS
 62
    7
 10
-198.58322150000004
 20
779.88034100000004
 11
-198.58322150000004
 21
776.38034100000004
  0
LINE
  8
_0-0_0
  6
CONTINUOUS
 62
    7
 10
-198.68322750000016
 20
780.14999399999999
 11
-198.58322150000004
 21
780.14999399999999
  0
LINE
  8
_0-0_0
  6
CONTINUOUS
 62
    7
 10
-198.58322150000004
 20
779.88034100000004
 11
-198.58322150000004
 21
780.14999399999999
  0
LINE
  8
_0-0_0
  6
CONTINUOUS
 62
    7
 10
-198.68322750000016
 20
776.25
 11
-198.58322150000004
 21
776.25
  0
LINE
  8
_0-0_0
  6
CONTINUOUS
 62
    7
 10
-198.68322750000016
 20
776.25
 11
-198.58322150000004
 21
776.25
  0
LINE
  8
_0-0_0
  6
CONTINUOUS
 62
    7
 10
-217.08322150000004
 20
773.25
 11
-212.88320950000002
 21
773.25
  0
LINE
  8
_0-0_0
  6
CONTINUOUS
 62
    7
 10
-201.28323350000005
 20
773.25
 11
-203.68322750000016
 21
773.25
  0
LINE
  8
_0-0_0
  6
CONTINUOUS
 62
    7
 10
-201.28323350000005
 20
773.25
 11
-200.08322150000004
 21
773.25
  0
ARC
  8
_0-0_0
  6
CONTINUOUS
 62
    7
 10
-200.08322150000004
 20
772.75
 40
0.5
 50
0
 51
90.000003000000007
  0
ARC
  8
_0-0_0
  6
CONTINUOUS
 62
    7
 10
-201.28323350000005
 20
772.75
 40
0.5
 50
90.000003000000007
 51
179.99999099999999
  0
ARC
  8
_0-0_0
  6
CONTINUOUS
 62
    7
 10
-203.68322750000016
 20
773.75
 40
0.5
 50
179.99999099999999
 51
269.99999700000001
  0
ARC
  8
_0-0_0
  6
CONTINUOUS
 62
    7
 10
-212.88320950000002
 20
773.75
 40
0.5
 50
269.99999700000001
 51
0
  0
ARC
  8
_0-0_0
  6
CONTINUOUS
 62
    7
 10
-217.08322150000004
 20
772.75
 40
0.5
 50
90.000003000000007
 51
179.99999099999999
  0
LINE
  8
_0-0_0
  6
CONTINUOUS
 62
    7
 10
-216.08322150000004
 20
773.75
 11
-216.08322150000004
 21
773.25
  0
ARC
  8
_0-0_0
  6
CONTINUOUS
 62
    7
 10
-215.58322150000004
 20
773.75
 40
0.5
 50
90.000003000000007
 51
179.99999099999999
  0
LINE
  8
_0-0_0
  6
CONTINUOUS
 62
    7
 10
-214.08322150000004
 20
774.25
 11
-215.58322150000004
 21
774.25
  0
ARC
  8
_0-0_0
  6
CONTINUOUS
 62
    7
 10
-214.08322150000004
 20
775.25
 40
1
 50
269.99999700000001
 51
0
  0
LINE
  8
_0-0_0
  6
CONTINUOUS
 62
    7
 10
-213.08322150000004
 20
775.75
 11
-213.08322150000004
 21
775.25
  0
LINE
  8
_0-0_0
  6
CONTINUOUS
 62
    7
 10
-212.58322150000004
 20
775.75
 11
-212.58322150000004
 21
774.75
  0
ARC
  8
_0-0_0
  6
CONTINUOUS
 62
    7
 10
-214.08322150000004
 20
774.75
 40
1.5
 50
269.99999700000001
 51
0
  0
ARC
  8
_0-0_0
  6
CONTINUOUS
 62
    7
 10
-202.48321549999991
 20
774.75
 40
1.5
 50
179.99999099999999
 51
269.99999700000001
  0
LINE
  8
_0-0_0
  6
CONTINUOUS
 62
    7
 10
-200.48321549999991
 20
773.75
 11
-200.48321549999991
 21
773.25
  0
ARC
  8
_0-0_0
  6
CONTINUOUS
 62
    7
 10
-200.98321549999991
 20
773.75
 40
0.5
 50
0
 51
90.000003000000007
  0
LINE
  8
_0-0_0
  6
CONTINUOUS
 62
    7
 10
-202.48321549999991
 20
774.25
 11
-200.98321549999991
 21
774.25
  0
ARC
  8
_0-0_0
  6
CONTINUOUS
 62
    7
 10
-202.48321549999991
 20
775.25
 40
1
 50
179.99999099999999
 51
269.99999700000001
  0
LINE
  8
_0-0_0
  6
CONTINUOUS
 62
    7
 10
-203.48321549999991
 20
775.75
 11
-203.48321549999991
 21
775.25
  0
LINE
  8
_0-0_0
  6
CONTINUOUS
 62
    7
 10
-203.98321549999991
 20
775.75
 11
-203.98321549999991
 21
774.75
  0
LINE
  8
_0-0_0
  6
CONTINUOUS
 62
    7
 10
-199.58322150000004
 20
746.25
 11
-199.58322150000004
 21
747.14999399999999
  0
LINE
  8
_0-0_0
  6
CONTINUOUS
 62
    7
 10
-199.58322150000004
 20
747.14999399999999
 11
-199.58322150000004
 21
749.64999399999999
  0
LINE
  8
_0-0_0
  6
CONTINUOUS
 62
    7
 10
-199.58322150000004
 20
749.64999399999999
 11
-199.58322150000004
 21
770.25
  0
LINE
  8
_0-0_0
  6
CONTINUOUS
 62
    7
 10
-199.58322150000004
 20
770.25
 11
-199.58322150000004
 21
772.75
  0
LINE
  8
_0-0_0
  6
CONTINUOUS
 62
    7
 10
-201.78323350000005
 20
772.75
 11
-201.78323350000005
 21
771.50497399999995
  0
LINE
  8
_0-0_0
  6
CONTINUOUS
 62
    7
 10
-204.18322750000016
 20
773.75
 11
-204.18322750000016
 21
775.54998799999998
  0
ARC
  8
_0-0_0
  6
CONTINUOUS
 62
    7
 10
-204.68322750000016
 20
775.54998799999998
 40
0.5
 50
0
 51
23.579369
  0
LINE
  8
_0-0_0
  6
CONTINUOUS
 62
    7
 10
-212.38320950000002
 20
773.75
 11
-212.38320950000002
 21
775.54998799999998
  0
ARC
  8
_0-0_0
  6
CONTINUOUS
 62
    7
 10
-211.88320950000002
 20
775.54998799999998
 40
0.5
 50
156.420635
 51
179.99999099999999
  0
LINE
  8
_0-0_0
  6
CONTINUOUS
 62
    7
 10
-217.58322150000004
 20
746.25
 11
-217.58322150000004
 21
756.44998199999998
  0
LINE
  8
_0-0_0
  6
CONTINUOUS
 62
    7
 10
-217.58322150000004
 20
756.44998199999998
 11
-217.58322150000004
 21
757.44998199999998
  0
LINE
  8
_0-0_0
  6
CONTINUOUS
 62
    7
 10
-217.58322150000004
 20
757.44998199999998
 11
-217.58322150000004
 21
762.44998199999998
  0
LINE
  8
_0-0_0
  6
CONTINUOUS
 62
    7
 10
-217.58322150000004
 20
762.44998199999998
 11
-217.58322150000004
 21
763.44998199999998
  0
LINE
  8
_0-0_0
  6
CONTINUOUS
 62
    7
 10
-217.58322150000004
 20
772.75
 11
-217.58322150000004
 21
763.44998199999998
  0
LINE
  8
_0-0_0
  6
CONTINUOUS
 62
    7
 10
-198.78323350000005
 20
771.75
 11
-199.58322150000004
 21
771.75
  0
LINE
  8
_0-0_0
  6
CONTINUOUS
 62
    7
 10
-198.78323350000005
 20
772.54998799999998
 11
-199.58322150000004
 21
772.54998799999998
  0
LINE
  8
_0-0_0
  6
CONTINUOUS
 62
    7
 10
-198.78323350000005
 20
771.54998799999998
 11
-198.78323350000005
 21
772.54998799999998
  0
LINE
  8
_0-0_0
  6
CONTINUOUS
 62
    7
 10
-198.78323350000005
 20
752.94998199999998
 11
-199.58322150000004
 21
752.94998199999998
  0
LINE
  8
_0-0_0
  6
CONTINUOUS
 62
    7
 10
-198.78323350000005
 20
752.94998199999998
 11
-198.78323350000005
 21
755.94998199999998
  0
LINE
  8
_0-0_0
  6
CONTINUOUS
 62
    7
 10
-198.78323350000005
 20
768.18768299999999
 11
-198.78323350000005
 21
755.94998199999998
  0
LINE
  8
_0-0_0
  6
CONTINUOUS
 62
    7
 10
-198.78323350000005
 20
768.18768299999999
 11
-198.78323350000005
 21
769.15045199999997
  0
LINE
  8
_0-0_0
  6
CONTINUOUS
 62
    7
 10
-199.58322150000004
 20
769.15045199999997
 11
-199.58322150000004
 21
771.75
  0
ARC
  8
_0-0_0
  6
CONTINUOUS
 62
    7
 10
-205.19815050000011
 20
768.43203700000004
 40
5.7120379999999997
 50
18.558475999999999
 51
26.433648000000002
  0
ARC
  8
_0-0_0
  6
CONTINUOUS
 62
    7
 10
-199.78323350000005
 20
770.25
 40
0.2
 50
269.99999700000001
 51
0
  0
ARC
  8
_0-0_0
  6
CONTINUOUS
 62
    7
 10
-199.78323350000005
 20
749.64999399999999
 40
0.2
 50
0
 51
90.000003000000007
  0
ARC
  8
_0-0_0
  6
CONTINUOUS
 62
    7
 10
-205.19802849999996
 20
751.46801800000003
 40
5.711964
 50
333.565022
 51
341.44031000000001
  0
ARC
  8
_0-0_0
  6
CONTINUOUS
 62
    7
 10
-200.08322150000004
 20
747.14999399999999
 40
0.5
 50
269.99999700000001
 51
0
  0
LINE
  8
_0-0_0
  6
CONTINUOUS
 62
    7
 10
-200.08322150000004
 20
746.25
 11
-199.58322150000004
 21
746.25
  0
LINE
  8
_0-0_0
  6
CONTINUOUS
 62
    7
 10
-199.58322150000004
 20
746.25
 11
-200.08322150000004
 21
745.75
  0
ARC
  8
_0-0_0
  6
CONTINUOUS
 62
    7
 10
-201.78323350000005
 20
768.75
 40
2.2999999999999998
 50
34.417387999999995
 51
79.713437000000013
  0
LINE
  8
_0-0_0
  6
CONTINUOUS
 62
    7
 10
-199.8445435000001
 20
770.04998799999998
 11
-199.88586450000003
 21
770.04998799999998
  0
LINE
  8
_0-0_0
  6
CONTINUOUS
 62
    7
 10
-199.8445435000001
 20
770.04998799999998
 11
-199.83499150000011
 21
770.05102499999998
  0
LINE
  8
_0-0_0
  6
CONTINUOUS
 62
    7
 10
-199.83499150000011
 20
770.05102499999998
 11
-199.82547049999994
 21
770.05419899999993
  0
LINE
  8
_0-0_0
  6
CONTINUOUS
 62
    7
 10
-199.82547049999994
 20
770.05419899999993
 11
-199.81622349999998
 21
770.05960099999993
  0
LINE
  8
_0-0_0
  6
CONTINUOUS
 62
    7
 10
-199.81622349999998
 20
770.05960099999993
 11
-199.8074345
 21
770.06710799999996
  0
LINE
  8
_0-0_0
  6
CONTINUOUS
 62
    7
 10
-199.8074345
 20
770.06710799999996
 11
-199.79202250000003
 21
770.08776899999998
  0
LINE
  8
_0-0_0
  6
CONTINUOUS
 62
    7
 10
-199.79202250000003
 20
770.08776899999998
 11
-199.7802435000001
 21
770.11502100000007
  0
LINE
  8
_0-0_0
  6
CONTINUOUS
 62
    7
 10
-199.7802435000001
 20
770.11502100000007
 11
-199.77307150000001
 21
770.147156
  0
LINE
  8
_0-0_0
  6
CONTINUOUS
 62
    7
 10
-199.77307150000001
 20
770.147156
 11
-199.77117950000002
 21
770.18221999999992
  0
LINE
  8
_0-0_0
  6
CONTINUOUS
 62
    7
 10
-199.77117950000002
 20
770.18221999999992
 11
-199.77502449999997
 21
770.21838400000001
  0
LINE
  8
_0-0_0
  6
CONTINUOUS
 62
    7
 10
-199.77502449999997
 20
770.21838400000001
 11
-199.78323350000005
 21
770.25
  0
ARC
  8
_0-0_0
  6
CONTINUOUS
 62
    7
 10
-201.28323350000005
 20
771.50497399999995
 40
0.5
 50
179.99999099999999
 51
259.71343899999994
  0
LINE
  8
_0-0_0
  6
CONTINUOUS
 62
    7
 10
-216.78323350000005
 20
768.75
 11
-216.78323350000005
 21
755.14999399999999
  0
LINE
  8
_0-0_0
  6
CONTINUOUS
 62
    7
 10
-216.78323350000005
 20
754.64999399999999
 11
-216.78323350000005
 21
755.14999399999999
  0
LINE
  8
_0-0_0
  6
CONTINUOUS
 62
    7
 10
-216.78323350000005
 20
751.64999399999999
 11
-216.78323350000005
 21
754.64999399999999
  0
LINE
  8
_0-0_0
  6
CONTINUOUS
 62
    7
 10
-216.78323350000005
 20
751.14999399999999
 11
-216.78323350000005
 21
751.64999399999999
  0
ARC
  8
_0-0_0
  6
CONTINUOUS
 62
    7
 10
-214.78323350000005
 20
768.75
 40
2
 50
93.840255999999997
 51
179.99999099999999
  0
LINE
  8
_0-0_0
  6
CONTINUOUS
 62
    7
 10
-214.78323350000005
 20
770.75
 11
-205.78323350000005
 21
770.75
  0
LINE
  8
_0-0_0
  6
CONTINUOUS
 62
    7
 10
-201.78323350000005
 20
770.75
 11
-202.28323350000005
 21
770.75
  0
LINE
  8
_0-0_0
  6
CONTINUOUS
 62
    7
 10
-202.28323350000005
 20
770.75
 11
-205.28323350000005
 21
770.75
  0
LINE
  8
_0-0_0
  6
CONTINUOUS
 62
    7
 10
-205.78323350000005
 20
770.75
 11
-205.28323350000005
 21
770.75
  0
ARC
  8
_0-0_0
  6
CONTINUOUS
 62
    7
 10
-201.78323350000005
 20
768.75
 40
2
 50
0
 51
90.000003000000007
  0
LINE
  8
_0-0_0
  6
CONTINUOUS
 62
    7
 10
-217.78323350000005
 20
771.75
 11
-217.58322150000004
 21
771.75
  0
LINE
  8
_0-0_0
  6
CONTINUOUS
 62
    7
 10
-217.78323350000005
 20
772.54998799999998
 11
-217.58322150000004
 21
772.54998799999998
  0
LINE
  8
_0-0_0
  6
CONTINUOUS
 62
    7
 10
-217.78323350000005
 20
772.54998799999998
 11
-217.78323350000005
 21
771.75012199999992
  0
LINE
  8
_0-0_0
  6
CONTINUOUS
 62
    7
 10
-217.78323350000005
 20
752.94998199999998
 11
-217.58322150000004
 21
752.94998199999998
  0
LINE
  8
_0-0_0
  6
CONTINUOUS
 62
    7
 10
-217.78323350000005
 20
755.94998199999998
 11
-217.78323350000005
 21
752.94998199999998
  0
LINE
  8
_0-0_0
  6
CONTINUOUS
 62
    7
 10
-217.78323350000005
 20
768.18768299999999
 11
-217.78323350000005
 21
755.94998199999998
  0
LINE
  8
_0-0_0
  6
CONTINUOUS
 62
    7
 10
-217.78323350000005
 20
769.15045199999997
 11
-217.78323350000005
 21
768.18768299999999
  0
ARC
  8
_0-0_0
  6
CONTINUOUS
 62
    7
 10
-217.08322150000004
 20
762.44998199999998
 40
0.5
 50
90.000003000000007
 51
179.99999099999999
  0
ARC
  8
_0-0_0
  6
CONTINUOUS
 62
    7
 10
-217.08322150000004
 20
757.44998199999998
 40
0.5
 50
179.99999099999999
 51
269.99999700000001
  0
LINE
  8
_0-0_0
  6
CONTINUOUS
 62
    7
 10
-217.58322150000004
 20
746.25
 11
-217.08322150000004
 21
746.25
  0
LINE
  8
_0-0_0
  6
CONTINUOUS
 62
    7
 10
-217.58322150000004
 20
746.25
 11
-217.08322150000004
 21
745.75
  0
LINE
  8
_0-0_0
  6
CONTINUOUS
 62
    7
 10
-199.58322150000004
 20
752.95001200000002
 11
-199.58322150000004
 21
751.79998799999998
  0
ARC
  8
_0-0_0
  6
CONTINUOUS
 62
    7
 10
-201.98321549999991
 20
751.79998799999998
 40
2.3999999999999999
 50
359.58604600000001
 51
0.0000099999999787
  0
LINE
  8
_0-0_0
  6
CONTINUOUS
 62
    7
 10
-198.78323350000005
 20
769.15045199999997
 11
-198.78323350000005
 21
771.75
  0
LINE
  8
_0-0_0
  6
CONTINUOUS
 62
    7
 10
-199.78323350000005
 20
770.04998799999998
 11
-199.8445435000001
 21
770.04998799999998
  0
LINE
  8
_0-0_0
  6
CONTINUOUS
 62
    7
 10
-199.88586450000003
 20
770.04998799999998
 11
-199.88806150000005
 21
770.04998799999998
  0
LINE
  8
_0-0_0
  6
CONTINUOUS
 62
    7
 10
-200.08322150000004
 20
746.25
 11
-217.08322150000004
 21
746.25
  0
LINE
  8
_0-0_0
  6
CONTINUOUS
 62
    7
 10
-200.01974450000012
 20
750.04998799999998
 11
-199.98281850000012
 21
749.97976700000004
  0
LINE
  8
_0-0_0
  6
CONTINUOUS
 62
    7
 10
-199.98281850000012
 20
749.97976700000004
 11
-199.96322650000002
 21
749.94528200000002
  0
LINE
  8
_0-0_0
  6
CONTINUOUS
 62
    7
 10
-199.96322650000002
 20
749.94528200000002
 11
-199.93713350000007
 21
749.90344200000004
  0
LINE
  8
_0-0_0
  6
CONTINUOUS
 62
    7
 10
-199.93713350000007
 20
749.90344200000004
 11
-199.92382850000013
 21
749.88439900000003
  0
LINE
  8
_0-0_0
  6
CONTINUOUS
 62
    7
 10
-199.92382850000013
 20
749.88439900000003
 11
-199.90545650000013
 21
749.86200000000008
  0
LINE
  8
_0-0_0
  6
CONTINUOUS
 62
    7
 10
-199.90545650000013
 20
749.86200000000008
 11
-199.89266950000001
 21
749.85137899999995
  0
LINE
  8
_0-0_0
  6
CONTINUOUS
 62
    7
 10
-199.89266950000001
 20
749.85137899999995
 11
-199.88806150000005
 21
749.84997599999997
  0
LINE
  8
_0-0_0
  6
CONTINUOUS
 62
    7
 10
-199.88586450000003
 20
749.84997599999997
 11
-199.88806150000005
 21
749.84997599999997
  0
LINE
  8
_0-0_0
  6
CONTINUOUS
 62
    7
 10
-200.01974450000012
 20
769.84997599999997
 11
-199.98281850000012
 21
769.92022700000007
  0
LINE
  8
_0-0_0
  6
CONTINUOUS
 62
    7
 10
-199.98281850000012
 20
769.92022700000007
 11
-199.96322650000002
 21
769.95468099999994
  0
LINE
  8
_0-0_0
  6
CONTINUOUS
 62
    7
 10
-199.96322650000002
 20
769.95468099999994
 11
-199.93713350000007
 21
769.99652100000003
  0
LINE
  8
_0-0_0
  6
CONTINUOUS
 62
    7
 10
-199.93713350000007
 20
769.99652100000003
 11
-199.92382850000013
 21
770.01556400000004
  0
LINE
  8
_0-0_0
  6
CONTINUOUS
 62
    7
 10
-199.92382850000013
 20
770.01556400000004
 11
-199.90545650000013
 21
770.03796399999999
  0
LINE
  8
_0-0_0
  6
CONTINUOUS
 62
    7
 10
-199.90545650000013
 20
770.03796399999999
 11
-199.89266950000001
 21
770.04858400000001
  0
LINE
  8
_0-0_0
  6
CONTINUOUS
 62
    7
 10
-199.89266950000001
 20
770.04858400000001
 11
-199.88806150000005
 21
770.04998799999998
  0
LINE
  8
_0-0_0
  6
CONTINUOUS
 62
    7
 10
-199.88586450000003
 20
749.84997599999997
 11
-199.8445435000001
 21
749.84997599999997
  0
LINE
  8
_0-0_0
  6
CONTINUOUS
 62
    7
 10
-199.78323350000005
 20
749.84997599999997
 11
-199.8445435000001
 21
749.84997599999997
  0
LINE
  8
_0-0_0
  6
CONTINUOUS
 62
    7
 10
-199.8445435000001
 20
749.84997599999997
 11
-199.83496149999996
 21
749.84893799999998
  0
LINE
  8
_0-0_0
  6
CONTINUOUS
 62
    7
 10
-199.83496149999996
 20
749.84893799999998
 11
-199.82547049999994
 21
749.84576399999992
  0
LINE
  8
_0-0_0
  6
CONTINUOUS
 62
    7
 10
-199.82547049999994
 20
749.84576399999992
 11
-199.81622349999998
 21
749.84036300000002
  0
LINE
  8
_0-0_0
  6
CONTINUOUS
 62
    7
 10
-199.81622349999998
 20
749.84036300000002
 11
-199.8074345
 21
749.832855
  0
LINE
  8
_0-0_0
  6
CONTINUOUS
 62
    7
 10
-199.8074345
 20
749.832855
 11
-199.79202250000003
 21
749.81222500000001
  0
LINE
  8
_0-0_0
  6
CONTINUOUS
 62
    7
 10
-199.79202250000003
 20
749.81222500000001
 11
-199.7802435000001
 21
749.784943
  0
LINE
  8
_0-0_0
  6
CONTINUOUS
 62
    7
 10
-199.7802435000001
 20
749.784943
 11
-199.77307150000001
 21
749.75280799999996
  0
LINE
  8
_0-0_0
  6
CONTINUOUS
 62
    7
 10
-199.77307150000001
 20
749.75280799999996
 11
-199.77117950000002
 21
749.71774299999993
  0
LINE
  8
_0-0_0
  6
CONTINUOUS
 62
    7
 10
-199.77117950000002
 20
749.71774299999993
 11
-199.77502449999997
 21
749.68157999999994
  0
LINE
  8
_0-0_0
  6
CONTINUOUS
 62
    7
 10
-199.77502449999997
 20
749.68157999999994
 11
-199.78323350000005
 21
749.64999399999999
  0
ARC
  8
_0-0_0
  6
CONTINUOUS
 62
    7
 10
-201.78323350000005
 20
751.14999399999999
 40
2.2999999999999998
 50
280.28656300000006
 51
325.58260500000006
  0
LINE
  8
_0-0_0
  6
CONTINUOUS
 62
    7
 10
-200.08322150000004
 20
746.64999399999999
 11
-201.28323350000005
 21
746.64999399999999
  0
LINE
  8
_0-0_0
  6
CONTINUOUS
 62
    7
 10
-200.08322150000004
 20
745.75
 11
-217.08322150000004
 21
745.75
  0
LINE
  8
_0-0_0
  6
CONTINUOUS
 62
    7
 10
-216.78323350000005
 20
762.94998199999998
 11
-217.08322150000004
 21
762.94998199999998
  0
ARC
  8
_0-0_0
  6
CONTINUOUS
 62
    7
 10
-216.28323350000005
 20
755.14999399999999
 40
0.5
 50
179.99999099999999
 51
269.99999700000001
  0
CIRCLE
  8
_0-0_0
  6
CONTINUOUS
 62
    7
 10
-214.28323350000005
 20
751.64999399999999
 40
2.5
  0
LINE
  8
_0-0_0
  6
CONTINUOUS
 62
    7
 10
-211.28323350000005
 20
749.14999399999999
 11
-214.28323350000005
 21
749.14999399999999
  0
LINE
  8
_0-0_0
  6
CONTINUOUS
 62
    7
 10
-210.78323350000005
 20
749.14999399999999
 11
-211.28323350000005
 21
749.14999399999999
  0
ARC
  8
_0-0_0
  6
CONTINUOUS
 62
    7
 10
-214.78323350000005
 20
751.14999399999999
 40
2
 50
179.99999099999999
 51
269.99999700000001
  0
LINE
  8
_0-0_0
  6
CONTINUOUS
 62
    7
 10
-214.28323350000005
 20
749.14999399999999
 11
-214.78323350000005
 21
749.14999399999999
  0
LINE
  8
_0-0_0
  6
CONTINUOUS
 62
    7
 10
-214.78323350000005
 20
770.64733899999999
 11
-214.79910250000012
 21
770.67459099999996
  0
LINE
  8
_0-0_0
  6
CONTINUOUS
 62
    7
 10
-214.79910250000012
 20
770.67459099999996
 11
-214.81494150000003
 21
770.69757099999993
  0
LINE
  8
_0-0_0
  6
CONTINUOUS
 62
    7
 10
-214.81494150000003
 20
770.69757099999993
 11
-214.8289185000001
 21
770.71432499999992
  0
LINE
  8
_0-0_0
  6
CONTINUOUS
 62
    7
 10
-214.8289185000001
 20
770.71432499999992
 11
-214.84283449999998
 21
770.72766100000001
  0
LINE
  8
_0-0_0
  6
CONTINUOUS
 62
    7
 10
-214.84283449999998
 20
770.72766100000001
 11
-214.85504149999997
 21
770.73660300000006
  0
LINE
  8
_0-0_0
  6
CONTINUOUS
 62
    7
 10
-214.85504149999997
 20
770.73660300000006
 11
-214.86715750000008
 21
770.74279799999999
  0
LINE
  8
_0-0_0
  6
CONTINUOUS
 62
    7
 10
-214.86715750000008
 20
770.74279799999999
 11
-214.87802150000016
 21
770.74609400000008
  0
LINE
  8
_0-0_0
  6
CONTINUOUS
 62
    7
 10
-214.87802150000016
 20
770.74609400000008
 11
-214.88879450000013
 21
770.74713100000008
  0
LINE
  8
_0-0_0
  6
CONTINUOUS
 62
    7
 10
-214.88879450000013
 20
770.74713100000008
 11
-214.89123549999999
 21
770.74707000000001
  0
LINE
  8
_0-0_0
  6
CONTINUOUS
 62
    7
 10
-199.78323350000005
 20
768.25
 11
-199.78323350000005
 21
768.75
  0
CIRCLE
  8
_0-0_0
  6
CONTINUOUS
 62
    7
 10
-202.28323350000005
 20
768.25
 40
2.5
  0
LINE
  8
_0-0_0
  6
CONTINUOUS
 62
    7
 10
-199.78323350000005
 20
765.25
 11
-199.78323350000005
 21
764.75
  0
LINE
  8
_0-0_0
  6
CONTINUOUS
 62
    7
 10
-199.78323350000005
 20
765.25
 11
-199.78323350000005
 21
768.25
  0
ARC
  8
_0-0_0
  6
CONTINUOUS
 62
    7
 10
-205.78323350000005
 20
770.25
 40
0.5
 50
0
 51
90.000003000000007
  0
LINE
  8
_0-0_0
  6
CONTINUOUS
 62
    7
 10
-199.78323350000005
 20
751.14999399999999
 11
-199.78323350000005
 21
764.75
  0
LINE
  8
_0-0_0
  6
CONTINUOUS
 62
    7
 10
-217.78323350000005
 20
771.75
 11
-217.78323350000005
 21
769.15045199999997
  0
LINE
  8
_0-0_0
  6
CONTINUOUS
 62
    7
 10
-217.08322150000004
 20
756.94998199999998
 11
-216.78323350000005
 21
756.94998199999998
  0
LINE
  8
_0-0_0
  6
CONTINUOUS
 62
    7
 10
-199.58322150000004
 20
772.55004899999994
 11
-199.58322150000004
 21
772.75
  0
ARC
  8
_0-0_0
  6
CONTINUOUS
 62
    7
 10
-201.78323350000005
 20
751.14999399999999
 40
2
 50
273.84026500000004
 51
0.000010000000014
  0
LINE
  8
_0-0_0
  6
CONTINUOUS
 62
    7
 10
-201.78323350000005
 20
749.14999399999999
 11
-210.78323350000005
 21
749.14999399999999
  0
ARC
  8
_0-0_0
  6
CONTINUOUS
 62
    7
 10
-201.28323350000005
 20
748.39498900000001
 40
0.5
 50
100.28656100000001
 51
179.99999099999999
  0
LINE
  8
_0-0_0
  6
CONTINUOUS
 62
    7
 10
-201.78323350000005
 20
747.14999399999999
 11
-201.78323350000005
 21
748.39498900000001
  0
ARC
  8
_0-0_0
  6
CONTINUOUS
 62
    7
 10
-201.28323350000005
 20
747.14999399999999
 40
0.5
 50
179.99999099999999
 51
269.99999700000001
  0
LINE
  8
_0-0_0
  6
CONTINUOUS
 62
    7
 10
-216.20623750000004
 20
754.64999399999999
 11
-216.28323350000005
 21
754.64999399999999
  0
LINE
  8
_0-0_0
  6
CONTINUOUS
 62
    7
 10
-214.28323350000005
 20
754.64999399999999
 11
-214.76470949999998
 21
754.64999399999999
  0
LINE
  8
_0-0_0
  6
CONTINUOUS
 62
    7
 10
-214.76470949999998
 20
754.64999399999999
 11
-216.20623750000004
 21
754.64999399999999
  0
LINE
  8
_0-0_0
  6
CONTINUOUS
 62
    7
 10
-211.28323350000005
 20
749.64999399999999
 11
-211.28323350000005
 21
749.72695900000008
  0
LINE
  8
_0-0_0
  6
CONTINUOUS
 62
    7
 10
-211.28323350000005
 20
751.16848800000002
 11
-211.28323350000005
 21
749.72695900000008
  0
LINE
  8
_0-0_0
  6
CONTINUOUS
 62
    7
 10
-211.28323350000005
 20
751.16848800000002
 11
-211.28323350000005
 21
751.64999399999999
  0
ARC
  8
_0-0_0
  6
CONTINUOUS
 62
    7
 10
-214.28323350000005
 20
751.64999399999999
 40
3
 50
0
 51
89.999995999999996
  0
ARC
  8
_0-0_0
  6
CONTINUOUS
 62
    7
 10
-210.78323350000005
 20
749.64999399999999
 40
0.5
 50
179.99999099999999
 51
269.99999700000001
  0
LINE
  8
_0-0_0
  6
CONTINUOUS
 62
    7
 10
-205.28323350000005
 20
770.17300399999999
 11
-205.28323350000005
 21
770.25
  0
LINE
  8
_0-0_0
  6
CONTINUOUS
 62
    7
 10
-205.28323350000005
 20
768.73147599999993
 11
-205.28323350000005
 21
770.17300399999999
  0
LINE
  8
_0-0_0
  6
CONTINUOUS
 62
    7
 10
-205.28323350000005
 20
768.25
 11
-205.28323350000005
 21
768.73147599999993
  0
ARC
  8
_0-0_0
  6
CONTINUOUS
 62
    7
 10
-202.28323350000005
 20
768.25
 40
3
 50
179.99999099999999
 51
269.99999700000001
  0
LINE
  8
_0-0_0
  6
CONTINUOUS
 62
    7
 10
-201.80172749999997
 20
765.25
 11
-202.28323350000005
 21
765.25
  0
LINE
  8
_0-0_0
  6
CONTINUOUS
 62
    7
 10
-201.80172749999997
 20
765.25
 11
-200.36019949999991
 21
765.25
  0
LINE
  8
_0-0_0
  6
CONTINUOUS
 62
    7
 10
-200.28323350000005
 20
765.25
 11
-200.36019949999991
 21
765.25
  0
ARC
  8
_0-0_0
  6
CONTINUOUS
 62
    7
 10
-200.28323350000005
 20
764.75
 40
0.5
 50
0
 51
90.000003000000007
  0
LINE
  8
_0-0_0
  6
CONTINUOUS
 62
    7
 10
-201.78323350000005
 20
749.25262500000008
 11
-201.76733450000006
 21
749.22537199999999
  0
LINE
  8
_0-0_0
  6
CONTINUOUS
 62
    7
 10
-201.76733450000006
 20
749.22537199999999
 11
-201.75149550000015
 21
749.20239300000003
  0
LINE
  8
_0-0_0
  6
CONTINUOUS
 62
    7
 10
-201.75149550000015
 20
749.20239300000003
 11
-201.73751850000008
 21
749.18563799999993
  0
LINE
  8
_0-0_0
  6
CONTINUOUS
 62
    7
 10
-201.73751850000008
 20
749.18563799999993
 11
-201.72360249999997
 21
749.17230199999995
  0
LINE
  8
_0-0_0
  6
CONTINUOUS
 62
    7
 10
-201.72360249999997
 20
749.17230199999995
 11
-201.71139549999998
 21
749.16339100000005
  0
LINE
  8
_0-0_0
  6
CONTINUOUS
 62
    7
 10
-201.71139549999998
 20
749.16339100000005
 11
-201.6992795000001
 21
749.15716599999996
  0
LINE
  8
_0-0_0
  6
CONTINUOUS
 62
    7
 10
-201.6992795000001
 20
749.15716599999996
 11
-201.68841550000002
 21
749.15390000000002
  0
LINE
  8
_0-0_0
  6
CONTINUOUS
 62
    7
 10
-201.68841550000002
 20
749.15390000000002
 11
-201.67764250000005
 21
749.15283199999999
  0
LINE
  8
_0-0_0
  6
CONTINUOUS
 62
    7
 10
-201.67764250000005
 20
749.15283199999999
 11
-201.67520149999996
 21
749.15289299999995
  0
ARC
  8
_0-0_0
  6
CONTINUOUS
 62
    7
 10
-211.51333650000015
 20
758.77673299999992
 40
3.063399
 50
199.82113599999997
 51
205.28948099999999
  0
ARC
  8
_0-0_0
  6
CONTINUOUS
 62
    7
 10
-211.51364150000018
 20
761.12335200000007
 40
3.0630549999999999
 50
154.710137
 51
160.17869999999999
  0
ARC
  8
_0-0_0
  6
CONTINUOUS
 62
    7
 10
-208.28323350000005
 20
759.94998199999998
 40
6.5
 50
160.10415599999999
 51
199.895612
  0
ARC
  8
_0-0_0
  6
CONTINUOUS
 62
    7
 10
-205.05310050000003
 20
761.12322999999992
 40
3.0633949999999999
 50
19.82113
 51
25.289566000000001
  0
ARC
  8
_0-0_0
  6
CONTINUOUS
 62
    7
 10
-205.0527955
 20
758.776611
 40
3.0630519999999999
 50
334.71006
 51
340.17869200000001
  0
LINE
  8
_0-0_0
  6
CONTINUOUS
 62
    7
 10
-207.54153450000013
 20
753.44998199999998
 11
-203.02490250000005
 21
756.05767800000001
  0
LINE
  8
_0-0_0
  6
CONTINUOUS
 62
    7
 10
-209.02490250000005
 20
753.44998199999998
 11
-207.54153450000013
 21
753.44998199999998
  0
LINE
  8
_0-0_0
  6
CONTINUOUS
 62
    7
 10
-213.54153450000013
 20
756.05767800000001
 11
-209.02490250000005
 21
753.44998199999998
  0
LINE
  8
_0-0_0
  6
CONTINUOUS
 62
    7
 10
-214.28323350000005
 20
762.55767800000001
 11
-214.28323350000005
 21
757.34228499999995
  0
LINE
  8
_0-0_0
  6
CONTINUOUS
 62
    7
 10
-213.54153450000013
 20
756.05767800000001
 11
-214.28323350000005
 21
757.34228499999995
  0
LINE
  8
_0-0_0
  6
CONTINUOUS
 62
    7
 10
-209.02490250000005
 20
766.44998199999998
 11
-213.54153450000013
 21
763.84228499999995
  0
LINE
  8
_0-0_0
  6
CONTINUOUS
 62
    7
 10
-213.83566250000013
 20
763.332855
 11
-214.28323350000005
 21
762.55767800000001
  0
LINE
  8
_0-0_0
  6
CONTINUOUS
 62
    7
 10
-213.83566250000013
 20
763.332855
 11
-213.54153450000013
 21
763.84228499999995
  0
LINE
  8
_0-0_0
  6
CONTINUOUS
 62
    7
 10
-207.54153450000013
 20
766.44998199999998
 11
-209.02490250000005
 21
766.44998199999998
  0
LINE
  8
_0-0_0
  6
CONTINUOUS
 62
    7
 10
-203.02490250000005
 20
763.84228499999995
 11
-207.54153450000013
 21
766.44998199999998
  0
ARC
  8
_0-0_0
  6
CONTINUOUS
 62
    7
 10
-208.28323350000005
 20
759.94998199999998
 40
6.5
 50
340.10416099999998
 51
19.895609999999952
  0
LINE
  8
_0-0_0
  6
CONTINUOUS
 62
    7
 10
-202.73077450000005
 20
756.56710799999996
 11
-202.28323350000005
 21
757.34228499999995
  0
LINE
  8
_0-0_0
  6
CONTINUOUS
 62
    7
 10
-202.73077450000005
 20
756.56710799999996
 11
-203.02490250000005
 21
756.05767800000001
  0
CIRCLE
  8
_0-0_0
  6
CONTINUOUS
 62
    7
 10
-208.28323350000005
 20
759.94998199999998
 40
5.25
  0
LINE
  8
_0-0_0
  6
CONTINUOUS
 62
    7
 10
-202.28323350000005
 20
762.55767800000001
 11
-202.28323350000005
 21
757.34228499999995
  0
LINE
  8
_0-0_0
  6
CONTINUOUS
 62
    7
 10
-203.02490250000005
 20
763.84228499999995
 11
-202.28323350000005
 21
762.55767800000001
  0
LINE
  8
_0-0_0
  6
CONTINUOUS
 62
    7
 10
-200.39620950000017
 20
769.47543300000007
 11
-200.11816450000015
 21
769.5
  0
LINE
  8
_0-0_0
  6
CONTINUOUS
 62
    7
 10
-200.27844249999998
 20
769.27145399999995
 11
-200.11816450000015
 21
769.5
  0
LINE
  8
_0-0_0
  6
CONTINUOUS
 62
    7
 10
-200.53463749999992
 20
769.66595499999994
 11
-200.26068149999992
 21
769.71945200000005
  0
LINE
  8
_0-0_0
  6
CONTINUOUS
 62
    7
 10
-200.39620950000017
 20
769.47543300000007
 11
-200.26068149999992
 21
769.71945200000005
  0
LINE
  8
_0-0_0
  6
CONTINUOUS
 62
    7
 10
-200.69223050000005
 20
769.84097300000008
 11
-200.42535450000014
 21
769.922821
  0
LINE
  8
_0-0_0
  6
CONTINUOUS
 62
    7
 10
-200.53463749999992
 20
769.66595499999994
 11
-200.42535450000014
 21
769.922821
  0
LINE
  8
_0-0_0
  6
CONTINUOUS
 62
    7
 10
-200.86724849999996
 20
769.99856599999998
 11
-200.61038250000001
 21
770.10784899999999
  0
LINE
  8
_0-0_0
  6
CONTINUOUS
 62
    7
 10
-200.69223050000005
 20
769.84097300000008
 11
-200.61038250000001
 21
770.10784899999999
  0
LINE
  8
_0-0_0
  6
CONTINUOUS
 62
    7
 10
-201.05776950000018
 20
770.13699300000007
 11
-200.81375150000008
 21
770.27252199999998
  0
LINE
  8
_0-0_0
  6
CONTINUOUS
 62
    7
 10
-200.86724849999996
 20
769.99856599999998
 11
-200.81375150000008
 21
770.27252199999998
  0
LINE
  8
_0-0_0
  6
CONTINUOUS
 62
    7
 10
-201.26174949999995
 20
770.25476099999992
 11
-201.03323350000005
 21
770.41503899999998
  0
LINE
  8
_0-0_0
  6
CONTINUOUS
 62
    7
 10
-201.05776950000018
 20
770.13699300000007
 11
-201.03323350000005
 21
770.41503899999998
  0
LINE
  8
_0-0_0
  6
CONTINUOUS
 62
    7
 10
-201.47689850000006
 20
770.35052500000006
 11
-201.26638850000018
 21
770.53384400000004
  0
LINE
  8
_0-0_0
  6
CONTINUOUS
 62
    7
 10
-201.26174949999995
 20
770.25476099999992
 11
-201.26638850000018
 21
770.53384400000004
  0
LINE
  8
_0-0_0
  6
CONTINUOUS
 62
    7
 10
-201.70086650000007
 20
770.42330900000002
 11
-201.51068149999992
 21
770.62762500000008
  0
LINE
  8
_0-0_0
  6
CONTINUOUS
 62
    7
 10
-201.47689850000006
 20
770.35052500000006
 11
-201.51068149999992
 21
770.62762500000008
  0
LINE
  8
_0-0_0
  6
CONTINUOUS
 62
    7
 10
-201.93124450000005
 20
770.47228999999993
 11
-201.76342750000003
 21
770.69534299999998
  0
LINE
  8
_0-0_0
  6
CONTINUOUS
 62
    7
 10
-201.70086650000007
 20
770.42330900000002
 11
-201.76342750000003
 21
770.69534299999998
  0
LINE
  8
_0-0_0
  6
CONTINUOUS
 62
    7
 10
-202.16546650000009
 20
770.49688700000002
 11
-202.02188150000006
 21
770.73629800000003
  0
LINE
  8
_0-0_0
  6
CONTINUOUS
 62
    7
 10
-201.93124450000005
 20
770.47228999999993
 11
-202.02188150000006
 21
770.73629800000003
  0
LINE
  8
_0-0_0
  6
CONTINUOUS
 62
    7
 10
-202.40097050000008
 20
770.49688700000002
 11
-202.28323350000005
 21
770.75
  0
LINE
  8
_0-0_0
  6
CONTINUOUS
 62
    7
 10
-202.16546650000009
 20
770.49688700000002
 11
-202.28323350000005
 21
770.75
  0
LINE
  8
_0-0_0
  6
CONTINUOUS
 62
    7
 10
-202.6351924999999
 20
770.47228999999993
 11
-202.54452549999996
 21
770.73629800000003
  0
LINE
  8
_0-0_0
  6
CONTINUOUS
 62
    7
 10
-202.40097050000008
 20
770.49688700000002
 11
-202.54452549999996
 21
770.73629800000003
  0
LINE
  8
_0-0_0
  6
CONTINUOUS
 62
    7
 10
-202.8655705000001
 20
770.42330900000002
 11
-202.80300949999992
 21
770.69534299999998
  0
LINE
  8
_0-0_0
  6
CONTINUOUS
 62
    7
 10
-202.6351924999999
 20
770.47228999999993
 11
-202.80300949999992
 21
770.69534299999998
  0
LINE
  8
_0-0_0
  6
CONTINUOUS
 62
    7
 10
-203.08953850000012
 20
770.35052500000006
 11
-203.05575550000003
 21
770.62762500000008
  0
LINE
  8
_0-0_0
  6
CONTINUOUS
 62
    7
 10
-202.8655705000001
 20
770.42330900000002
 11
-203.05575550000003
 21
770.62762500000008
  0
LINE
  8
_0-0_0
  6
CONTINUOUS
 62
    7
 10
-203.3046875
 20
770.25476099999992
 11
-203.3000485
 21
770.53384400000004
  0
LINE
  8
_0-0_0
  6
CONTINUOUS
 62
    7
 10
-203.08953850000012
 20
770.35052500000006
 11
-203.3000485
 21
770.53384400000004
  0
LINE
  8
_0-0_0
  6
CONTINUOUS
 62
    7
 10
-203.42422450000004
 20
770.33859299999995
 11
-203.53323350000005
 21
770.41503899999998
  0
LINE
  8
_0-0_0
  6
CONTINUOUS
 62
    7
 10
-203.3046875
 20
770.25476099999992
 11
-203.42422450000004
 21
770.33859299999995
  0
LINE
  8
_0-0_0
  6
CONTINUOUS
 62
    7
 10
-203.5086675
 20
770.13699300000007
 11
-203.53323350000005
 21
770.41503899999998
  0
LINE
  8
_0-0_0
  6
CONTINUOUS
 62
    7
 10
-203.69918849999999
 20
769.99856599999998
 11
-203.7526855000001
 21
770.27252199999998
  0
LINE
  8
_0-0_0
  6
CONTINUOUS
 62
    7
 10
-203.5086675
 20
770.13699300000007
 11
-203.7526855000001
 21
770.27252199999998
  0
LINE
  8
_0-0_0
  6
CONTINUOUS
 62
    7
 10
-203.87420650000013
 20
769.84097300000008
 11
-203.95605449999994
 21
770.10784899999999
  0
LINE
  8
_0-0_0
  6
CONTINUOUS
 62
    7
 10
-203.69918849999999
 20
769.99856599999998
 11
-203.95605449999994
 21
770.10784899999999
  0
LINE
  8
_0-0_0
  6
CONTINUOUS
 62
    7
 10
-204.03179950000003
 20
769.66595499999994
 11
-204.14108250000004
 21
769.922821
  0
LINE
  8
_0-0_0
  6
CONTINUOUS
 62
    7
 10
-203.87420650000013
 20
769.84097300000008
 11
-204.14108250000004
 21
769.922821
  0
LINE
  8
_0-0_0
  6
CONTINUOUS
 62
    7
 10
-204.17022750000001
 20
769.47543300000007
 11
-204.30575550000003
 21
769.71945200000005
  0
LINE
  8
_0-0_0
  6
CONTINUOUS
 62
    7
 10
-204.03179950000003
 20
769.66595499999994
 11
-204.30575550000003
 21
769.71945200000005
  0
LINE
  8
_0-0_0
  6
CONTINUOUS
 62
    7
 10
-204.28799449999997
 20
769.27145399999995
 11
-204.44827250000003
 21
769.5
  0
LINE
  8
_0-0_0
  6
CONTINUOUS
 62
    7
 10
-204.17022750000001
 20
769.47543300000007
 11
-204.44827250000003
 21
769.5
  0
LINE
  8
_0-0_0
  6
CONTINUOUS
 62
    7
 10
-204.38375850000011
 20
769.05630500000007
 11
-204.5670775000001
 21
769.26681499999995
  0
LINE
  8
_0-0_0
  6
CONTINUOUS
 62
    7
 10
-204.28799449999997
 20
769.27145399999995
 11
-204.5670775000001
 21
769.26681499999995
  0
LINE
  8
_0-0_0
  6
CONTINUOUS
 62
    7
 10
-204.45654349999995
 20
768.83233599999994
 11
-204.6608584999999
 21
769.02252199999998
  0
LINE
  8
_0-0_0
  6
CONTINUOUS
 62
    7
 10
-204.38375850000011
 20
769.05630500000007
 11
-204.6608584999999
 21
769.02252199999998
  0
LINE
  8
_0-0_0
  6
CONTINUOUS
 62
    7
 10
-204.50552349999998
 20
768.60195900000008
 11
-204.72857650000014
 21
768.76977499999998
  0
LINE
  8
_0-0_0
  6
CONTINUOUS
 62
    7
 10
-204.45654349999995
 20
768.83233599999994
 11
-204.72857650000014
 21
768.76977499999998
  0
LINE
  8
_0-0_0
  6
CONTINUOUS
 62
    7
 10
-204.50552349999998
 20
768.60195900000008
 11
-204.76953150000008
 21
768.51129200000003
  0
LINE
  8
_0-0_0
  6
CONTINUOUS
 62
    7
 10
-204.53012050000007
 20
768.36773700000003
 11
-204.76953150000008
 21
768.51129200000003
  0
LINE
  8
_0-0_0
  6
CONTINUOUS
 62
    7
 10
-204.53012050000007
 20
768.13223300000004
 11
-204.78323350000005
 21
768.25
  0
LINE
  8
_0-0_0
  6
CONTINUOUS
 62
    7
 10
-204.53012050000007
 20
768.36773700000003
 11
-204.78323350000005
 21
768.25
  0
LINE
  8
_0-0_0
  6
CONTINUOUS
 62
    7
 10
-204.50552349999998
 20
767.89801
 11
-204.76953150000008
 21
767.98864700000001
  0
LINE
  8
_0-0_0
  6
CONTINUOUS
 62
    7
 10
-204.53012050000007
 20
768.13223300000004
 11
-204.76953150000008
 21
767.98864700000001
  0
LINE
  8
_0-0_0
  6
CONTINUOUS
 62
    7
 10
-204.45654349999995
 20
767.66763300000002
 11
-204.72857650000014
 21
767.73019399999998
  0
LINE
  8
_0-0_0
  6
CONTINUOUS
 62
    7
 10
-204.50552349999998
 20
767.89801
 11
-204.72857650000014
 21
767.73019399999998
  0
LINE
  8
_0-0_0
  6
CONTINUOUS
 62
    7
 10
-204.38375850000011
 20
767.44366500000001
 11
-204.6608584999999
 21
767.47744799999998
  0
LINE
  8
_0-0_0
  6
CONTINUOUS
 62
    7
 10
-204.45654349999995
 20
767.66763300000002
 11
-204.6608584999999
 21
767.47744799999998
  0
LINE
  8
_0-0_0
  6
CONTINUOUS
 62
    7
 10
-204.28799449999997
 20
767.22851600000001
 11
-204.5670775000001
 21
767.23315400000001
  0
LINE
  8
_0-0_0
  6
CONTINUOUS
 62
    7
 10
-204.38375850000011
 20
767.44366500000001
 11
-204.5670775000001
 21
767.23315400000001
  0
LINE
  8
_0-0_0
  6
CONTINUOUS
 62
    7
 10
-204.17022750000001
 20
767.02453600000001
 11
-204.44827250000003
 21
767
  0
LINE
  8
_0-0_0
  6
CONTINUOUS
 62
    7
 10
-204.28799449999997
 20
767.22851600000001
 11
-204.44827250000003
 21
767
  0
LINE
  8
_0-0_0
  6
CONTINUOUS
 62
    7
 10
-204.03179950000003
 20
766.83401500000002
 11
-204.30575550000003
 21
766.78051800000003
  0
LINE
  8
_0-0_0
  6
CONTINUOUS
 62
    7
 10
-204.17022750000001
 20
767.02453600000001
 11
-204.30575550000003
 21
766.78051800000003
  0
LINE
  8
_0-0_0
  6
CONTINUOUS
 62
    7
 10
-203.87420650000013
 20
766.658997
 11
-204.14108250000004
 21
766.57714800000008
  0
LINE
  8
_0-0_0
  6
CONTINUOUS
 62
    7
 10
-204.03179950000003
 20
766.83401500000002
 11
-204.14108250000004
 21
766.57714800000008
  0
LINE
  8
_0-0_0
  6
CONTINUOUS
 62
    7
 10
-203.69918849999999
 20
766.50140399999998
 11
-203.95605449999994
 21
766.39211999999998
  0
LINE
  8
_0-0_0
  6
CONTINUOUS
 62
    7
 10
-203.87420650000013
 20
766.658997
 11
-203.95605449999994
 21
766.39211999999998
  0
LINE
  8
_0-0_0
  6
CONTINUOUS
 62
    7
 10
-203.5086675
 20
766.362976
 11
-203.7526855000001
 21
766.22744799999998
  0
LINE
  8
_0-0_0
  6
CONTINUOUS
 62
    7
 10
-203.69918849999999
 20
766.50140399999998
 11
-203.7526855000001
 21
766.22744799999998
  0
LINE
  8
_0-0_0
  6
CONTINUOUS
 62
    7
 10
-203.3046875
 20
766.24520899999993
 11
-203.53323350000005
 21
766.08492999999999
  0
LINE
  8
_0-0_0
  6
CONTINUOUS
 62
    7
 10
-203.5086675
 20
766.362976
 11
-203.53323350000005
 21
766.08492999999999
  0
LINE
  8
_0-0_0
  6
CONTINUOUS
 62
    7
 10
-203.08953850000012
 20
766.14941399999998
 11
-203.3000485
 21
765.96612499999992
  0
LINE
  8
_0-0_0
  6
CONTINUOUS
 62
    7
 10
-203.3046875
 20
766.24520899999993
 11
-203.3000485
 21
765.96612499999992
  0
LINE
  8
_0-0_0
  6
CONTINUOUS
 62
    7
 10
-202.8655705000001
 20
766.07665999999995
 11
-203.05575550000003
 21
765.872345
  0
LINE
  8
_0-0_0
  6
CONTINUOUS
 62
    7
 10
-203.08953850000012
 20
766.14941399999998
 11
-203.05575550000003
 21
765.872345
  0
LINE
  8
_0-0_0
  6
CONTINUOUS
 62
    7
 10
-202.6351924999999
 20
766.02767900000003
 11
-202.80300949999992
 21
765.80462599999998
  0
LINE
  8
_0-0_0
  6
CONTINUOUS
 62
    7
 10
-202.8655705000001
 20
766.07665999999995
 11
-202.80300949999992
 21
765.80462599999998
  0
LINE
  8
_0-0_0
  6
CONTINUOUS
 62
    7
 10
-202.40097050000008
 20
766.00305200000003
 11
-202.54452549999996
 21
765.76367200000004
  0
LINE
  8
_0-0_0
  6
CONTINUOUS
 62
    7
 10
-202.6351924999999
 20
766.02767900000003
 11
-202.54452549999996
 21
765.76367200000004
  0
LINE
  8
_0-0_0
  6
CONTINUOUS
 62
    7
 10
-202.16546650000009
 20
766.00305200000003
 11
-202.28323350000005
 21
765.75
  0
LINE
  8
_0-0_0
  6
CONTINUOUS
 62
    7
 10
-202.40097050000008
 20
766.00305200000003
 11
-202.28323350000005
 21
765.75
  0
LINE
  8
_0-0_0
  6
CONTINUOUS
 62
    7
 10
-201.93124450000005
 20
766.02767900000003
 11
-202.02188150000006
 21
765.76367200000004
  0
LINE
  8
_0-0_0
  6
CONTINUOUS
 62
    7
 10
-202.16546650000009
 20
766.00305200000003
 11
-202.02188150000006
 21
765.76367200000004
  0
LINE
  8
_0-0_0
  6
CONTINUOUS
 62
    7
 10
-201.70086650000007
 20
766.07665999999995
 11
-201.76342750000003
 21
765.80462599999998
  0
LINE
  8
_0-0_0
  6
CONTINUOUS
 62
    7
 10
-201.93124450000005
 20
766.02767900000003
 11
-201.76342750000003
 21
765.80462599999998
  0
LINE
  8
_0-0_0
  6
CONTINUOUS
 62
    7
 10
-201.47689850000006
 20
766.14941399999998
 11
-201.51068149999992
 21
765.872345
  0
LINE
  8
_0-0_0
  6
CONTINUOUS
 62
    7
 10
-201.70086650000007
 20
766.07665999999995
 11
-201.51068149999992
 21
765.872345
  0
LINE
  8
_0-0_0
  6
CONTINUOUS
 62
    7
 10
-201.26174949999995
 20
766.24520899999993
 11
-201.26638850000018
 21
765.96612499999992
  0
LINE
  8
_0-0_0
  6
CONTINUOUS
 62
    7
 10
-201.47689850000006
 20
766.14941399999998
 11
-201.26638850000018
 21
765.96612499999992
  0
LINE
  8
_0-0_0
  6
CONTINUOUS
 62
    7
 10
-201.14221249999991
 20
766.16137700000002
 11
-201.03323350000005
 21
766.08492999999999
  0
LINE
  8
_0-0_0
  6
CONTINUOUS
 62
    7
 10
-201.26174949999995
 20
766.24520899999993
 11
-201.14221249999991
 21
766.16137700000002
  0
LINE
  8
_0-0_0
  6
CONTINUOUS
 62
    7
 10
-201.05776950000018
 20
766.362976
 11
-201.03323350000005
 21
766.08492999999999
  0
LINE
  8
_0-0_0
  6
CONTINUOUS
 62
    7
 10
-200.86724849999996
 20
766.50140399999998
 11
-200.81375150000008
 21
766.22744799999998
  0
LINE
  8
_0-0_0
  6
CONTINUOUS
 62
    7
 10
-201.05776950000018
 20
766.362976
 11
-200.81375150000008
 21
766.22744799999998
  0
LINE
  8
_0-0_0
  6
CONTINUOUS
 62
    7
 10
-200.69223050000005
 20
766.658997
 11
-200.61038250000001
 21
766.39211999999998
  0
LINE
  8
_0-0_0
  6
CONTINUOUS
 62
    7
 10
-200.86724849999996
 20
766.50140399999998
 11
-200.61038250000001
 21
766.39211999999998
  0
LINE
  8
_0-0_0
  6
CONTINUOUS
 62
    7
 10
-200.53463749999992
 20
766.83401500000002
 11
-200.42535450000014
 21
766.57714800000008
  0
LINE
  8
_0-0_0
  6
CONTINUOUS
 62
    7
 10
-200.69223050000005
 20
766.658997
 11
-200.42535450000014
 21
766.57714800000008
  0
LINE
  8
_0-0_0
  6
CONTINUOUS
 62
    7
 10
-200.39620950000017
 20
767.02453600000001
 11
-200.26068149999992
 21
766.78051800000003
  0
LINE
  8
_0-0_0
  6
CONTINUOUS
 62
    7
 10
-200.53463749999992
 20
766.83401500000002
 11
-200.26068149999992
 21
766.78051800000003
  0
LINE
  8
_0-0_0
  6
CONTINUOUS
 62
    7
 10
-200.27844249999998
 20
767.22851600000001
 11
-200.11816450000015
 21
767
  0
LINE
  8
_0-0_0
  6
CONTINUOUS
 62
    7
 10
-200.39620950000017
 20
767.02453600000001
 11
-200.11816450000015
 21
767
  0
LINE
  8
_0-0_0
  6
CONTINUOUS
 62
    7
 10
-200.18264750000003
 20
767.44366500000001
 11
-199.99935950000008
 21
767.23315400000001
  0
LINE
  8
_0-0_0
  6
CONTINUOUS
 62
    7
 10
-200.27844249999998
 20
767.22851600000001
 11
-199.99935950000008
 21
767.23315400000001
  0
LINE
  8
_0-0_0
  6
CONTINUOUS
 62
    7
 10
-200.1098935
 20
767.66763300000002
 11
-199.90557850000005
 21
767.47744799999998
  0
LINE
  8
_0-0_0
  6
CONTINUOUS
 62
    7
 10
-200.18264750000003
 20
767.44366500000001
 11
-199.90557850000005
 21
767.47744799999998
  0
LINE
  8
_0-0_0
  6
CONTINUOUS
 62
    7
 10
-200.06091349999997
 20
767.89801
 11
-199.83786050000003
 21
767.73019399999998
  0
LINE
  8
_0-0_0
  6
CONTINUOUS
 62
    7
 10
-200.1098935
 20
767.66763300000002
 11
-199.83786050000003
 21
767.73019399999998
  0
LINE
  8
_0-0_0
  6
CONTINUOUS
 62
    7
 10
-200.03631650000011
 20
768.13223300000004
 11
-199.79690550000009
 21
767.98864700000001
  0
LINE
  8
_0-0_0
  6
CONTINUOUS
 62
    7
 10
-200.06091349999997
 20
767.89801
 11
-199.79690550000009
 21
767.98864700000001
  0
LINE
  8
_0-0_0
  6
CONTINUOUS
 62
    7
 10
-200.03631650000011
 20
768.36773700000003
 11
-199.78323350000005
 21
768.25
  0
LINE
  8
_0-0_0
  6
CONTINUOUS
 62
    7
 10
-200.03631650000011
 20
768.13223300000004
 11
-199.78323350000005
 21
768.25
  0
LINE
  8
_0-0_0
  6
CONTINUOUS
 62
    7
 10
-200.06091349999997
 20
768.60195900000008
 11
-199.79690550000009
 21
768.51129200000003
  0
LINE
  8
_0-0_0
  6
CONTINUOUS
 62
    7
 10
-200.03631650000011
 20
768.36773700000003
 11
-199.79690550000009
 21
768.51129200000003
  0
LINE
  8
_0-0_0
  6
CONTINUOUS
 62
    7
 10
-200.1098935
 20
768.83233599999994
 11
-199.83786050000003
 21
768.76977499999998
  0
LINE
  8
_0-0_0
  6
CONTINUOUS
 62
    7
 10
-200.06091349999997
 20
768.60195900000008
 11
-199.83786050000003
 21
768.76977499999998
  0
LINE
  8
_0-0_0
  6
CONTINUOUS
 62
    7
 10
-200.18264750000003
 20
769.05630500000007
 11
-199.90557850000005
 21
769.02252199999998
  0
LINE
  8
_0-0_0
  6
CONTINUOUS
 62
    7
 10
-200.1098935
 20
768.83233599999994
 11
-199.90557850000005
 21
769.02252199999998
  0
LINE
  8
_0-0_0
  6
CONTINUOUS
 62
    7
 10
-200.27844249999998
 20
769.27145399999995
 11
-199.99935950000008
 21
769.26681499999995
  0
LINE
  8
_0-0_0
  6
CONTINUOUS
 62
    7
 10
-200.18264750000003
 20
769.05630500000007
 11
-199.99935950000008
 21
769.26681499999995
  0
CIRCLE
  8
_0-0_0
  6
CONTINUOUS
 62
    7
 10
-202.28323350000005
 20
768.25
 40
2
  0
CIRCLE
  8
_0-0_0
  6
CONTINUOUS
 62
    7
 10
-208.28323350000005
 20
759.94998199999998
 40
5
  0
LINE
  8
_0-0_0
  6
CONTINUOUS
 62
    7
 10
-201.70111050000014
 20
767.25
 11
-202.86532650000004
 21
767.25
  0
LINE
  8
_0-0_0
  6
CONTINUOUS
 62
    7
 10
-202.86532650000004
 20
767.25
 11
-203.43322750000016
 21
768.25
  0
LINE
  8
_0-0_0
  6
CONTINUOUS
 62
    7
 10
-203.43322750000016
 20
768.25
 11
-202.86532650000004
 21
769.25
  0
LINE
  8
_0-0_0
  6
CONTINUOUS
 62
    7
 10
-202.86532650000004
 20
769.25
 11
-201.70111050000014
 21
769.25
  0
LINE
  8
_0-0_0
  6
CONTINUOUS
 62
    7
 10
-201.70111050000014
 20
769.25
 11
-201.13320950000002
 21
768.25
  0
LINE
  8
_0-0_0
  6
CONTINUOUS
 62
    7
 10
-201.13320950000002
 20
768.25
 11
-201.70111050000014
 21
767.25
  0
CIRCLE
  8
_0-0_0
  6
CONTINUOUS
 62
    7
 10
-208.28323350000005
 20
759.94998199999998
 40
4.5381200000000002
  0
CIRCLE
  8
_0-0_0
  6
CONTINUOUS
 62
    7
 10
-208.28323350000005
 20
759.94998199999998
 40
4
  0
LINE
  8
_0-0_0
  6
CONTINUOUS
 62
    7
 10
-216.17022750000001
 20
750.42453
 11
-216.44827250000003
 21
750.39999399999999
  0
LINE
  8
_0-0_0
  6
CONTINUOUS
 62
    7
 10
-216.28799449999997
 20
750.62851000000001
 11
-216.44827250000003
 21
750.39999399999999
  0
LINE
  8
_0-0_0
  6
CONTINUOUS
 62
    7
 10
-216.03179950000003
 20
750.23400900000001
 11
-216.30575550000003
 21
750.18051100000002
  0
LINE
  8
_0-0_0
  6
CONTINUOUS
 62
    7
 10
-216.17022750000001
 20
750.42453
 11
-216.30575550000003
 21
750.18051100000002
  0
LINE
  8
_0-0_0
  6
CONTINUOUS
 62
    7
 10
-215.87420650000013
 20
750.05898999999999
 11
-216.14108250000004
 21
749.97717299999999
  0
LINE
  8
_0-0_0
  6
CONTINUOUS
 62
    7
 10
-216.03179950000003
 20
750.23400900000001
 11
-216.14108250000004
 21
749.97717299999999
  0
LINE
  8
_0-0_0
  6
CONTINUOUS
 62
    7
 10
-215.69918849999999
 20
749.90139799999997
 11
-215.95605449999994
 21
749.79211400000008
  0
LINE
  8
_0-0_0
  6
CONTINUOUS
 62
    7
 10
-215.87420650000013
 20
750.05898999999999
 11
-215.95605449999994
 21
749.79211400000008
  0
LINE
  8
_0-0_0
  6
CONTINUOUS
 62
    7
 10
-215.5086675
 20
749.76297
 11
-215.7526855000001
 21
749.62744099999998
  0
LINE
  8
_0-0_0
  6
CONTINUOUS
 62
    7
 10
-215.69918849999999
 20
749.90139799999997
 11
-215.7526855000001
 21
749.62744099999998
  0
LINE
  8
_0-0_0
  6
CONTINUOUS
 62
    7
 10
-215.3046875
 20
749.64520300000004
 11
-215.53323350000005
 21
749.48492399999998
  0
LINE
  8
_0-0_0
  6
CONTINUOUS
 62
    7
 10
-215.5086675
 20
749.76297
 11
-215.53323350000005
 21
749.48492399999998
  0
LINE
  8
_0-0_0
  6
CONTINUOUS
 62
    7
 10
-215.08953850000012
 20
749.54943800000001
 11
-215.3000485
 21
749.36611900000003
  0
LINE
  8
_0-0_0
  6
CONTINUOUS
 62
    7
 10
-215.3046875
 20
749.64520300000004
 11
-215.3000485
 21
749.36611900000003
  0
LINE
  8
_0-0_0
  6
CONTINUOUS
 62
    7
 10
-214.8655705000001
 20
749.47665400000005
 11
-215.05575550000003
 21
749.27233899999999
  0
LINE
  8
_0-0_0
  6
CONTINUOUS
 62
    7
 10
-215.08953850000012
 20
749.54943800000001
 11
-215.05575550000003
 21
749.27233899999999
  0
LINE
  8
_0-0_0
  6
CONTINUOUS
 62
    7
 10
-214.6351924999999
 20
749.42770399999995
 11
-214.80300949999992
 21
749.20461999999998
  0
LINE
  8
_0-0_0
  6
CONTINUOUS
 62
    7
 10
-214.8655705000001
 20
749.47665400000005
 11
-214.80300949999992
 21
749.20461999999998
  0
LINE
  8
_0-0_0
  6
CONTINUOUS
 62
    7
 10
-214.40097050000008
 20
749.40307600000006
 11
-214.54452549999996
 21
749.16369600000007
  0
LINE
  8
_0-0_0
  6
CONTINUOUS
 62
    7
 10
-214.6351924999999
 20
749.42770399999995
 11
-214.54452549999996
 21
749.16369600000007
  0
LINE
  8
_0-0_0
  6
CONTINUOUS
 62
    7
 10
-214.16546650000009
 20
749.40307600000006
 11
-214.28323350000005
 21
749.14999399999999
  0
LINE
  8
_0-0_0
  6
CONTINUOUS
 62
    7
 10
-214.40097050000008
 20
749.40307600000006
 11
-214.28323350000005
 21
749.14999399999999
  0
LINE
  8
_0-0_0
  6
CONTINUOUS
 62
    7
 10
-213.93124450000005
 20
749.42770399999995
 11
-214.02191149999999
 21
749.16369600000007
  0
LINE
  8
_0-0_0
  6
CONTINUOUS
 62
    7
 10
-214.16546650000009
 20
749.40307600000006
 11
-214.02191149999999
 21
749.16369600000007
  0
LINE
  8
_0-0_0
  6
CONTINUOUS
 62
    7
 10
-213.70086650000007
 20
749.47665400000005
 11
-213.76342750000003
 21
749.20461999999998
  0
LINE
  8
_0-0_0
  6
CONTINUOUS
 62
    7
 10
-213.93124450000005
 20
749.42770399999995
 11
-213.76342750000003
 21
749.20461999999998
  0
LINE
  8
_0-0_0
  6
CONTINUOUS
 62
    7
 10
-213.47689850000006
 20
749.54943800000001
 11
-213.51068149999992
 21
749.27233899999999
  0
LINE
  8
_0-0_0
  6
CONTINUOUS
 62
    7
 10
-213.70086650000007
 20
749.47665400000005
 11
-213.51068149999992
 21
749.27233899999999
  0
LINE
  8
_0-0_0
  6
CONTINUOUS
 62
    7
 10
-213.26174949999995
 20
749.64520300000004
 11
-213.26638850000018
 21
749.36611900000003
  0
LINE
  8
_0-0_0
  6
CONTINUOUS
 62
    7
 10
-213.47689850000006
 20
749.54943800000001
 11
-213.26638850000018
 21
749.36611900000003
  0
LINE
  8
_0-0_0
  6
CONTINUOUS
 62
    7
 10
-213.14221249999991
 20
749.56137100000001
 11
-213.03323350000005
 21
749.48492399999998
  0
LINE
  8
_0-0_0
  6
CONTINUOUS
 62
    7
 10
-213.26174949999995
 20
749.64520300000004
 11
-213.14221249999991
 21
749.56137100000001
  0
LINE
  8
_0-0_0
  6
CONTINUOUS
 62
    7
 10
-213.05776950000018
 20
749.76297
 11
-213.03323350000005
 21
749.48492399999998
  0
LINE
  8
_0-0_0
  6
CONTINUOUS
 62
    7
 10
-212.86724849999996
 20
749.90139799999997
 11
-212.81375150000008
 21
749.62744099999998
  0
LINE
  8
_0-0_0
  6
CONTINUOUS
 62
    7
 10
-213.05776950000018
 20
749.76297
 11
-212.81375150000008
 21
749.62744099999998
  0
LINE
  8
_0-0_0
  6
CONTINUOUS
 62
    7
 10
-212.69223050000005
 20
750.05898999999999
 11
-212.61038250000001
 21
749.79211400000008
  0
LINE
  8
_0-0_0
  6
CONTINUOUS
 62
    7
 10
-212.86724849999996
 20
749.90139799999997
 11
-212.61038250000001
 21
749.79211400000008
  0
LINE
  8
_0-0_0
  6
CONTINUOUS
 62
    7
 10
-212.53463749999992
 20
750.23400900000001
 11
-212.42535450000014
 21
749.97717299999999
  0
LINE
  8
_0-0_0
  6
CONTINUOUS
 62
    7
 10
-212.69223050000005
 20
750.05898999999999
 11
-212.42535450000014
 21
749.97717299999999
  0
LINE
  8
_0-0_0
  6
CONTINUOUS
 62
    7
 10
-212.39620950000017
 20
750.42453
 11
-212.26068149999992
 21
750.18051100000002
  0
LINE
  8
_0-0_0
  6
CONTINUOUS
 62
    7
 10
-212.53463749999992
 20
750.23400900000001
 11
-212.26068149999992
 21
750.18051100000002
  0
LINE
  8
_0-0_0
  6
CONTINUOUS
 62
    7
 10
-212.27844249999998
 20
750.62851000000001
 11
-212.11816450000015
 21
750.39999399999999
  0
LINE
  8
_0-0_0
  6
CONTINUOUS
 62
    7
 10
-212.39620950000017
 20
750.42453
 11
-212.11816450000015
 21
750.39999399999999
  0
LINE
  8
_0-0_0
  6
CONTINUOUS
 62
    7
 10
-212.18264750000003
 20
750.843658
 11
-211.99935950000008
 21
750.63314800000001
  0
LINE
  8
_0-0_0
  6
CONTINUOUS
 62
    7
 10
-212.27844249999998
 20
750.62851000000001
 11
-211.99935950000008
 21
750.63314800000001
  0
LINE
  8
_0-0_0
  6
CONTINUOUS
 62
    7
 10
-212.1098935
 20
751.06762700000002
 11
-211.90557850000005
 21
750.87744099999998
  0
LINE
  8
_0-0_0
  6
CONTINUOUS
 62
    7
 10
-212.18264750000003
 20
750.843658
 11
-211.90557850000005
 21
750.87744099999998
  0
LINE
  8
_0-0_0
  6
CONTINUOUS
 62
    7
 10
-212.06091349999997
 20
751.29800399999999
 11
-211.83786050000003
 21
751.13018799999998
  0
LINE
  8
_0-0_0
  6
CONTINUOUS
 62
    7
 10
-212.1098935
 20
751.06762700000002
 11
-211.83786050000003
 21
751.13018799999998
  0
LINE
  8
_0-0_0
  6
CONTINUOUS
 62
    7
 10
-212.03631650000011
 20
751.53222699999992
 11
-211.79690550000009
 21
751.38867200000004
  0
LINE
  8
_0-0_0
  6
CONTINUOUS
 62
    7
 10
-212.06091349999997
 20
751.29800399999999
 11
-211.79690550000009
 21
751.38867200000004
  0
LINE
  8
_0-0_0
  6
CONTINUOUS
 62
    7
 10
-212.03631650000011
 20
751.76773100000003
 11
-211.78323350000005
 21
751.64999399999999
  0
LINE
  8
_0-0_0
  6
CONTINUOUS
 62
    7
 10
-212.03631650000011
 20
751.53222699999992
 11
-211.78323350000005
 21
751.64999399999999
  0
LINE
  8
_0-0_0
  6
CONTINUOUS
 62
    7
 10
-212.06091349999997
 20
752.00195299999996
 11
-211.79690550000009
 21
751.91131599999994
  0
LINE
  8
_0-0_0
  6
CONTINUOUS
 62
    7
 10
-212.03631650000011
 20
751.76773100000003
 11
-211.79690550000009
 21
751.91131599999994
  0
LINE
  8
_0-0_0
  6
CONTINUOUS
 62
    7
 10
-212.1098935
 20
752.23233000000005
 11
-211.83786050000003
 21
752.16976899999997
  0
LINE
  8
_0-0_0
  6
CONTINUOUS
 62
    7
 10
-212.06091349999997
 20
752.00195299999996
 11
-211.83786050000003
 21
752.16976899999997
  0
LINE
  8
_0-0_0
  6
CONTINUOUS
 62
    7
 10
-212.18264750000003
 20
752.45629899999994
 11
-211.90557850000005
 21
752.42251599999997
  0
LINE
  8
_0-0_0
  6
CONTINUOUS
 62
    7
 10
-212.1098935
 20
752.23233000000005
 11
-211.90557850000005
 21
752.42251599999997
  0
LINE
  8
_0-0_0
  6
CONTINUOUS
 62
    7
 10
-212.27844249999998
 20
752.67144800000005
 11
-211.99935950000008
 21
752.66680900000006
  0
LINE
  8
_0-0_0
  6
CONTINUOUS
 62
    7
 10
-212.18264750000003
 20
752.45629899999994
 11
-211.99935950000008
 21
752.66680900000006
  0
LINE
  8
_0-0_0
  6
CONTINUOUS
 62
    7
 10
-212.39620950000017
 20
752.87542699999995
 11
-212.11816450000015
 21
752.89999399999999
  0
LINE
  8
_0-0_0
  6
CONTINUOUS
 62
    7
 10
-212.27844249999998
 20
752.67144800000005
 11
-212.11816450000015
 21
752.89999399999999
  0
LINE
  8
_0-0_0
  6
CONTINUOUS
 62
    7
 10
-215.69918849999999
 20
753.39855999999997
 11
-215.7526855000001
 21
753.67251599999997
  0
LINE
  8
_0-0_0
  6
CONTINUOUS
 62
    7
 10
-215.69918849999999
 20
753.39855999999997
 11
-215.95605449999994
 21
753.50784299999998
  0
LINE
  8
_0-0_0
  6
CONTINUOUS
 62
    7
 10
-215.87420650000013
 20
753.24096699999996
 11
-215.95605449999994
 21
753.50784299999998
  0
LINE
  8
_0-0_0
  6
CONTINUOUS
 62
    7
 10
-215.87420650000013
 20
753.24096699999996
 11
-216.14108250000004
 21
753.32281499999999
  0
LINE
  8
_0-0_0
  6
CONTINUOUS
 62
    7
 10
-216.03179950000003
 20
753.06594799999993
 11
-216.14108250000004
 21
753.32281499999999
  0
LINE
  8
_0-0_0
  6
CONTINUOUS
 62
    7
 10
-216.03179950000003
 20
753.06594799999993
 11
-216.30575550000003
 21
753.11944599999993
  0
LINE
  8
_0-0_0
  6
CONTINUOUS
 62
    7
 10
-216.17022750000001
 20
752.87542699999995
 11
-216.30575550000003
 21
753.11944599999993
  0
LINE
  8
_0-0_0
  6
CONTINUOUS
 62
    7
 10
-216.17022750000001
 20
752.87542699999995
 11
-216.44827250000003
 21
752.89999399999999
  0
LINE
  8
_0-0_0
  6
CONTINUOUS
 62
    7
 10
-216.28799449999997
 20
752.67144800000005
 11
-216.44827250000003
 21
752.89999399999999
  0
LINE
  8
_0-0_0
  6
CONTINUOUS
 62
    7
 10
-216.28799449999997
 20
752.67144800000005
 11
-216.5670775000001
 21
752.66680900000006
  0
LINE
  8
_0-0_0
  6
CONTINUOUS
 62
    7
 10
-216.38378950000015
 20
752.45629899999994
 11
-216.5670775000001
 21
752.66680900000006
  0
LINE
  8
_0-0_0
  6
CONTINUOUS
 62
    7
 10
-216.38378950000015
 20
752.45629899999994
 11
-216.6608584999999
 21
752.42251599999997
  0
LINE
  8
_0-0_0
  6
CONTINUOUS
 62
    7
 10
-216.45654349999995
 20
752.23233000000005
 11
-216.6608584999999
 21
752.42251599999997
  0
LINE
  8
_0-0_0
  6
CONTINUOUS
 62
    7
 10
-216.45654349999995
 20
752.23233000000005
 11
-216.72857650000014
 21
752.16976899999997
  0
LINE
  8
_0-0_0
  6
CONTINUOUS
 62
    7
 10
-216.50552349999998
 20
752.00195299999996
 11
-216.72857650000014
 21
752.16976899999997
  0
LINE
  8
_0-0_0
  6
CONTINUOUS
 62
    7
 10
-216.50552349999998
 20
752.00195299999996
 11
-216.76953150000008
 21
751.91131599999994
  0
LINE
  8
_0-0_0
  6
CONTINUOUS
 62
    7
 10
-216.53012050000007
 20
751.76773100000003
 11
-216.76953150000008
 21
751.91131599999994
  0
LINE
  8
_0-0_0
  6
CONTINUOUS
 62
    7
 10
-216.53012050000007
 20
751.76773100000003
 11
-216.78323350000005
 21
751.64999399999999
  0
LINE
  8
_0-0_0
  6
CONTINUOUS
 62
    7
 10
-216.53012050000007
 20
751.53222699999992
 11
-216.78323350000005
 21
751.64999399999999
  0
LINE
  8
_0-0_0
  6
CONTINUOUS
 62
    7
 10
-216.53012050000007
 20
751.53222699999992
 11
-216.76953150000008
 21
751.38867200000004
  0
LINE
  8
_0-0_0
  6
CONTINUOUS
 62
    7
 10
-216.50552349999998
 20
751.29800399999999
 11
-216.76953150000008
 21
751.38867200000004
  0
LINE
  8
_0-0_0
  6
CONTINUOUS
 62
    7
 10
-216.50552349999998
 20
751.29800399999999
 11
-216.72857650000014
 21
751.13018799999998
  0
LINE
  8
_0-0_0
  6
CONTINUOUS
 62
    7
 10
-216.45654349999995
 20
751.06762700000002
 11
-216.72857650000014
 21
751.13018799999998
  0
LINE
  8
_0-0_0
  6
CONTINUOUS
 62
    7
 10
-216.45654349999995
 20
751.06762700000002
 11
-216.6608584999999
 21
750.87744099999998
  0
LINE
  8
_0-0_0
  6
CONTINUOUS
 62
    7
 10
-216.38378950000015
 20
750.843658
 11
-216.6608584999999
 21
750.87744099999998
  0
LINE
  8
_0-0_0
  6
CONTINUOUS
 62
    7
 10
-216.38378950000015
 20
750.843658
 11
-216.5670775000001
 21
750.63314800000001
  0
LINE
  8
_0-0_0
  6
CONTINUOUS
 62
    7
 10
-216.28799449999997
 20
750.62851000000001
 11
-216.5670775000001
 21
750.63314800000001
  0
CIRCLE
  8
_0-0_0
  6
CONTINUOUS
 62
    7
 10
-214.28323350000005
 20
751.64999399999999
 40
2
  0
LINE
  8
_0-0_0
  6
CONTINUOUS
 62
    7
 10
-215.42422450000004
 20
753.73858599999994
 11
-215.53323350000005
 21
753.81506300000001
  0
LINE
  8
_0-0_0
  6
CONTINUOUS
 62
    7
 10
-215.5086675
 20
753.53698699999995
 11
-215.53323350000005
 21
753.81506300000001
  0
LINE
  8
_0-0_0
  6
CONTINUOUS
 62
    7
 10
-215.5086675
 20
753.53698699999995
 11
-215.7526855000001
 21
753.67251599999997
  0
LINE
  8
_0-0_0
  6
CONTINUOUS
 62
    7
 10
-212.39620950000017
 20
752.87542699999995
 11
-212.26068149999992
 21
753.11944599999993
  0
LINE
  8
_0-0_0
  6
CONTINUOUS
 62
    7
 10
-212.53463749999992
 20
753.06594799999993
 11
-212.26068149999992
 21
753.11944599999993
  0
LINE
  8
_0-0_0
  6
CONTINUOUS
 62
    7
 10
-212.53463749999992
 20
753.06594799999993
 11
-212.42535450000014
 21
753.32281499999999
  0
LINE
  8
_0-0_0
  6
CONTINUOUS
 62
    7
 10
-212.69223050000005
 20
753.24096699999996
 11
-212.42535450000014
 21
753.32281499999999
  0
LINE
  8
_0-0_0
  6
CONTINUOUS
 62
    7
 10
-212.69223050000005
 20
753.24096699999996
 11
-212.61038250000001
 21
753.50784299999998
  0
LINE
  8
_0-0_0
  6
CONTINUOUS
 62
    7
 10
-212.86724849999996
 20
753.39855999999997
 11
-212.61038250000001
 21
753.50784299999998
  0
LINE
  8
_0-0_0
  6
CONTINUOUS
 62
    7
 10
-212.86724849999996
 20
753.39855999999997
 11
-212.81375150000008
 21
753.67251599999997
  0
LINE
  8
_0-0_0
  6
CONTINUOUS
 62
    7
 10
-213.05776950000018
 20
753.53698699999995
 11
-212.81375150000008
 21
753.67251599999997
  0
LINE
  8
_0-0_0
  6
CONTINUOUS
 62
    7
 10
-213.05776950000018
 20
753.53698699999995
 11
-213.03323350000005
 21
753.81506300000001
  0
LINE
  8
_0-0_0
  6
CONTINUOUS
 62
    7
 10
-213.26174949999995
 20
753.65475500000002
 11
-213.03323350000005
 21
753.81506300000001
  0
LINE
  8
_0-0_0
  6
CONTINUOUS
 62
    7
 10
-213.26174949999995
 20
753.65475500000002
 11
-213.26638850000018
 21
753.93383799999992
  0
LINE
  8
_0-0_0
  6
CONTINUOUS
 62
    7
 10
-213.47689850000006
 20
753.75054899999998
 11
-213.26638850000018
 21
753.93383799999992
  0
LINE
  8
_0-0_0
  6
CONTINUOUS
 62
    7
 10
-213.47689850000006
 20
753.75054899999998
 11
-213.51068149999992
 21
754.02761800000007
  0
LINE
  8
_0-0_0
  6
CONTINUOUS
 62
    7
 10
-213.70086650000007
 20
753.82330300000001
 11
-213.51068149999992
 21
754.02761800000007
  0
LINE
  8
_0-0_0
  6
CONTINUOUS
 62
    7
 10
-213.70086650000007
 20
753.82330300000001
 11
-213.76342750000003
 21
754.09533699999997
  0
LINE
  8
_0-0_0
  6
CONTINUOUS
 62
    7
 10
-213.93124450000005
 20
753.87228400000004
 11
-213.76342750000003
 21
754.09533699999997
  0
LINE
  8
_0-0_0
  6
CONTINUOUS
 62
    7
 10
-213.93124450000005
 20
753.87228400000004
 11
-214.02191149999999
 21
754.13629200000003
  0
LINE
  8
_0-0_0
  6
CONTINUOUS
 62
    7
 10
-214.16546650000009
 20
753.89691199999993
 11
-214.02191149999999
 21
754.13629200000003
  0
LINE
  8
_0-0_0
  6
CONTINUOUS
 62
    7
 10
-214.16546650000009
 20
753.89691199999993
 11
-214.28323350000005
 21
754.14999399999999
  0
LINE
  8
_0-0_0
  6
CONTINUOUS
 62
    7
 10
-214.40097050000008
 20
753.89691199999993
 11
-214.28323350000005
 21
754.14999399999999
  0
LINE
  8
_0-0_0
  6
CONTINUOUS
 62
    7
 10
-214.40097050000008
 20
753.89691199999993
 11
-214.54452549999996
 21
754.13629200000003
  0
LINE
  8
_0-0_0
  6
CONTINUOUS
 62
    7
 10
-214.6351924999999
 20
753.87228400000004
 11
-214.54452549999996
 21
754.13629200000003
  0
LINE
  8
_0-0_0
  6
CONTINUOUS
 62
    7
 10
-214.6351924999999
 20
753.87228400000004
 11
-214.80300949999992
 21
754.09533699999997
  0
LINE
  8
_0-0_0
  6
CONTINUOUS
 62
    7
 10
-214.8655705000001
 20
753.82330300000001
 11
-214.80300949999992
 21
754.09533699999997
  0
LINE
  8
_0-0_0
  6
CONTINUOUS
 62
    7
 10
-214.8655705000001
 20
753.82330300000001
 11
-215.05575550000003
 21
754.02761800000007
  0
LINE
  8
_0-0_0
  6
CONTINUOUS
 62
    7
 10
-215.08953850000012
 20
753.75054899999998
 11
-215.05575550000003
 21
754.02761800000007
  0
LINE
  8
_0-0_0
  6
CONTINUOUS
 62
    7
 10
-215.08953850000012
 20
753.75054899999998
 11
-215.3000485
 21
753.93383799999992
  0
LINE
  8
_0-0_0
  6
CONTINUOUS
 62
    7
 10
-215.3046875
 20
753.65475500000002
 11
-215.3000485
 21
753.93383799999992
  0
LINE
  8
_0-0_0
  6
CONTINUOUS
 62
    7
 10
-215.3046875
 20
753.65475500000002
 11
-215.42422450000004
 21
753.73858599999994
  0
LINE
  8
_0-0_0
  6
CONTINUOUS
 62
    7
 10
-213.70111050000014
 20
750.64999399999999
 11
-214.86532650000004
 21
750.64999399999999
  0
LINE
  8
_0-0_0
  6
CONTINUOUS
 62
    7
 10
-214.86532650000004
 20
750.64999399999999
 11
-215.43322750000016
 21
751.64999399999999
  0
LINE
  8
_0-0_0
  6
CONTINUOUS
 62
    7
 10
-215.43322750000016
 20
751.64999399999999
 11
-214.86532650000004
 21
752.64999399999999
  0
LINE
  8
_0-0_0
  6
CONTINUOUS
 62
    7
 10
-214.86532650000004
 20
752.64999399999999
 11
-213.70111050000014
 21
752.64999399999999
  0
LINE
  8
_0-0_0
  6
CONTINUOUS
 62
    7
 10
-213.70111050000014
 20
752.64999399999999
 11
-213.13320950000002
 21
751.64999399999999
  0
LINE
  8
_0-0_0
  6
CONTINUOUS
 62
    7
 10
-213.13320950000002
 20
751.64999399999999
 11
-213.70111050000014
 21
750.64999399999999
  0
LINE
  8
_0-0_0
  6
CONTINUOUS
 62
    7
 10
-199.58322150000004
 20
769.05029300000001
 11
-199.58322150000004
 21
769.05627400000003
  0
LINE
  8
_0-0_0
  6
CONTINUOUS
 62
    7
 10
-199.58322150000004
 20
770.25
 11
-199.58358750000002
 21
770.23788500000001
  0
LINE
  8
_0-0_0
  6
CONTINUOUS
 62
    7
 10
-199.58358750000002
 20
749.66210899999999
 11
-199.58322150000004
 21
749.64999399999999
  0
ARC
  8
_0-0_0
  6
CONTINUOUS
 62
    7
 10
-214.78323350000005
 20
768.75
 40
2
 50
90.000003000000007
 51
93.840255999999997
  0
ARC
  8
_0-0_0
  6
CONTINUOUS
 62
    7
 10
-201.78323350000005
 20
751.14999399999999
 40
2
 50
269.99999700000001
 51
273.84026499999999
  0
ENDSEC
  0
EOF
