  0
SECTION
  2
HEADER
  9
$ACADVER
  1
AC1009
  9
$INSBASE
 10
0
 20
0
 30
0
  9
$EXTMIN
 10
0
 20
0
  9
$EXTMAX
 10
841
 20
594
  9
$LIMMIN
 10
0
 20
0
  9
$LIMMAX
 10
841
 20
594
  9
$LTSCALE
 40
1
  0
ENDSEC
  0
SECTION
  2
TABLES
  0
TABLE
  2
LTYPE
 70
     9
  0
LTYPE
  2
CONTINUOUS
 70
    64
  3
実線
 72
    65
 73
     0
 40
0.0
  0
LTYPE
  2
DASHED1
 70
    64
  3
--  --  --  --  --  --  --  --  
 72
    65
 73
     2
 40
2.5
 49
1.25
 49
-1.25
  0
LTYPE
  2
DASHED2
 70
    64
  3
----    ----    ----    ----    
 72
    65
 73
     2
 40
5.0
 49
2.5
 49
-2.5
  0
LTYPE
  2
DASHED3
 70
    64
  3
------  ------  ------  ------  
 72
    65
 73
     2
 40
5.0
 49
3.75
 49
-1.25
  0
LTYPE
  2
CENTER1
 70
    64
  3
----- - ----- - ----- - ----- - 
 72
    65
 73
     4
 40
10.0
 49
6.25
 49
-1.25
 49
1.25
 49
-1.25
  0
LTYPE
  2
CENTER2
 70
    64
  3
----------  --  ----------  --  
 72
    65
 73
     4
 40
20.0
 49
12.5
 49
-2.5
 49
2.5
 49
-2.5
  0
LTYPE
  2
PHANTOM1
 70
    64
  3
--- - - --- - - --- - - --- - - 
 72
    65
 73
     6
 40
10.0
 49
3.25
 49
-1.25
 49
1.25
 49
-1.25
 49
1.25
 49
-1.25
  0
LTYPE
  2
PHANTOM2
 70
    64
  3
--------  -  -  --------  -  -  
 72
    65
 73
     6
 40
20.0
 49
10.0
 49
-2.5
 49
1.25
 49
-2.5
 49
1.25
 49
-2.5
  0
LTYPE
  2
DOT
 70
    64
  3
-   -   -   -   -   -   -   -   
 72
    65
 73
     2
 40
2.5
 49
0.625
 49
-1.875
  0
LTYPE
  2
DUMMY
 70
    64
  3
ダミー
 72
    65
 73
     0
 40
0.0
  0
LTYPE
  2
RAND1
 70
    64
  3
ランダム線1
 72
    65
 73
     4
 40
10.0
 49
1.0
 49
-2.0
 49
3.0
 49
-4.0
  0
LTYPE
  2
RAND2
 70
    64
  3
ランダム線2
 72
    65
 73
     4
 40
14.0
 49
2.0
 49
-3.0
 49
4.0
 49
-5.0
  0
LTYPE
  2
RAND3
 70
    64
  3
ランダム線3
 72
    65
 73
     4
 40
18.0
 49
3.0
 49
-4.0
 49
5.0
 49
-6.0
  0
LTYPE
  2
RAND4
 70
    64
  3
ランダム線4
 72
    65
 73
     4
 40
22.0
 49
4.0
 49
-5.0
 49
6.0
 49
-7.0
  0
LTYPE
  2
RAND5
 70
    64
  3
ランダム線5
 72
    65
 73
     4
 40
26.0
 49
5.0
 49
-6.0
 49
7.0
 49
-8.0
  0
LTYPE
  2
LONG1
 70
    64
  3
----------  --  ----------  --  
 72
    65
 73
     4
 40
40.0
 49
32.5
 49
-2.5
 49
2.5
 49
-2.5
  0
LTYPE
  2
LONG2
 70
    64
  3
--------  -  -  --------  -  -  
 72
    65
 73
     6
 40
40.0
 49
30.0
 49
-2.5
 49
1.25
 49
-2.5
 49
1.25
 49
-2.5
  0
LTYPE
  2
LONG3
 70
    64
  3
+++++++++++++++..+++++++++++++++
 72
    65
 73
     2
 40
40.0
 49
37.5
 49
-2.5
  0
LTYPE
  2
LONG4
 70
    64
  3
+++++++++++++++..+++++++++++++++
 72
    65
 73
     2
 40
80.0
 49
75.0
 49
-5.0
  0
LTYPE
  2
LONG5
 70
    64
  3
----------  --  ----------  --  
 72
    65
 73
     4
 40
60.0
 49
37.5
 49
-7.5
 49
7.5
 49
-7.5
  0
LTYPE
  2
dashed
 70
   64
  3
-------   -------------   ------
 72
   65
 73
    2
 40
7.5
 49
6
 49
-1.5
  0
LTYPE
  2
dashed_spaced
 70
   64
  3
----        --------        ----
 72
   65
 73
    2
 40
12
 49
6
 49
-6
  0
LTYPE
  2
long_dashed_dotted
 70
   64
  3
------------- --- --------------
 72
   65
 73
    4
 40
15.25
 49
12
 49
-1.5
 49
0.25
 49
-1.5
  0
LTYPE
  2
long_dashed_double-dotted
 70
   64
  3
----------- --- --- ------------
 72
   65
 73
    6
 40
17
 49
12
 49
-1.5
 49
0.25
 49
-1.5
 49
0.25
 49
-1.5
  0
LTYPE
  2
long_dashed_triplicate-dotted
 70
   64
  3
--------- --- --- --- ----------
 72
   65
 73
    8
 40
18.75
 49
12
 49
-1.5
 49
0.25
 49
-1.5
 49
0.25
 49
-1.5
 49
0.25
 49
-1.5
  0
LTYPE
  2
dotted
 70
   64
  3
   -       -       -       -    
 72
   65
 73
    2
 40
1.75
 49
0.25
 49
-1.5
  0
LTYPE
  2
chain
 70
   64
  3
-------------- -- --------------
 72
   65
 73
    4
 40
18.5
 49
12
 49
-1.5
 49
3.5
 49
-1.5
  0
LTYPE
  2
chain_double_dash
 70
   64
  3
------------ -- -- -------------
 72
   65
 73
    6
 40
23.5
 49
12
 49
-1.5
 49
3.5
 49
-1.5
 49
3.5
 49
-1.5
  0
LTYPE
  2
dashed_dotted
 70
   64
  3
-----------     -     ----------
 72
   65
 73
    4
 40
9.25
 49
6
 49
-1.5
 49
0.25
 49
-1.5
  0
LTYPE
  2
double-dashed_dotted
 70
   64
  3
------   -----------   -   -----
 72
   65
 73
    6
 40
16.75
 49
6
 49
-1.5
 49
6
 49
-1.5
 49
0.25
 49
-1.5
  0
LTYPE
  2
dashed_double-dotted
 70
   64
  3
---------    -    -    ---------
 72
   65
 73
    6
 40
11
 49
6
 49
-1.5
 49
0.25
 49
-1.5
 49
0.25
 49
-1.5
  0
LTYPE
  2
double-dashed_double-dotted
 70
   64
  3
-----   ---------   -   -   ----
 72
   65
 73
    8
 40
18.5
 49
6
 49
-1.5
 49
6
 49
-1.5
 49
0.25
 49
-1.5
 49
0.25
 49
-1.5
  0
LTYPE
  2
dashed_triplicate-dotted
 70
   64
  3
-------    -    -    -    ------
 72
   65
 73
    8
 40
12.75
 49
6
 49
-1.5
 49
0.25
 49
-1.5
 49
0.25
 49
-1.5
 49
0.25
 49
-1.5
  0
LTYPE
  2
double-dashed_triplicate-dotted
 70
   64
  3
-----  ---------  -  -  -  -----
 72
   65
 73
   10
 40
20.25
 49
6
 49
-1.5
 49
6
 49
-1.5
 49
0.25
 49
-1.5
 49
0.25
 49
-1.5
 49
0.25
 49
-1.5
  0
LTYPE
  2
undefined
 70
   64
  3
--------------------------------
 72
   65
 73
    0
 40
0
  0
ENDTAB
  0
TABLE
  2
STYLE
  5
3
100
AcDbSymbolTable
 70
     1
  0
STYLE
  5
10
100
AcDbSymbolTableRecord
100
AcDbTextStyleTableRecord
  2
STANDARD
 70
     0
 40
0.0
 41
1.0
 50
0.0
 71
     0
 42
0.2
  3
txt
  4
bigfont.shx
  0
STYLE
  5
26
100
AcDbSymbolTableRecord
100
AcDbTextStyleTableRecord
  2
TATEGAKI
 70
    68
 40
0.0
 41
1.0
 50
0.0
 71
     0
 42
1.0
  3
txt
  4
bigfont.shx
  0
ENDTAB
  0
TABLE
  2
LAYER
 70
    2
  0
LAYER
  2
_0-0_0
 70
   64
 62
    7
  6
CONTINUOUS
  0
LAYER
  2
ADD_LINE
 70
   64
 62
    7
  6
CONTINUOUS
  0
ENDTAB
  0
ENDSEC
  0
SECTION
  2
BLOCKS
  0
ENDSEC
  0
SECTION
  2
ENTITIES
  0
ARC
  8
_0-0_0
  6
CONTINUOUS
 62
    7
 10
-73.77223250000003
 20
468.34997600000003
 40
0.2
 50
269.99999700000001
 51
20.376440000000013
  0
LINE
  8
_0-0_0
  6
CONTINUOUS
 62
    7
 10
-73.58473250000003
 20
468.41961700000002
 11
-74.884750500000052
 21
471.91961700000002
  0
ARC
  8
_0-0_0
  6
CONTINUOUS
 62
    7
 10
-75.072219500000074
 20
471.84997600000003
 40
0.2
 50
20.376439999999999
 51
159.62355600000001
  0
LINE
  8
_0-0_0
  6
CONTINUOUS
 62
    7
 10
-76.559707500000059
 20
468.41961700000002
 11
-75.259719500000074
 21
471.91961700000002
  0
ARC
  8
_0-0_0
  6
CONTINUOUS
 62
    7
 10
-76.372238500000037
 20
468.34997600000003
 40
0.2
 50
159.62355600000001
 51
269.99999700000001
  0
LINE
  8
_0-0_0
  6
CONTINUOUS
 62
    7
 10
-76.372238500000037
 20
468.14999399999999
 11
-73.77223250000003
 21
468.14999399999999
  0
LINE
  8
_0-0_0
  6
CONTINUOUS
 62
    7
 10
-239.00503950000007
 20
516.75271599999996
 11
-239.00503950000007
 21
516.75170900000001
  0
LINE
  8
_0-0_0
  6
CONTINUOUS
 62
    7
 10
1043.9277345
 20
505.14999399999999
 11
1043.9277345
 21
492.14999399999999
  0
LINE
  8
_0-0_0
  6
CONTINUOUS
 62
    7
 10
-129.07221950000007
 20
505.14999399999999
 11
-129.07221950000007
 21
492.14999399999999
  0
LINE
  8
_0-0_0
  6
CONTINUOUS
 62
    7
 10
-129.07221950000007
 20
505.14999399999999
 11
1043.9277345
 21
505.14999399999999
  0
LINE
  8
_0-0_0
  6
CONTINUOUS
 62
    7
 10
-129.07221950000007
 20
505.14999399999999
 11
-129.07221950000007
 21
523.75
  0
LINE
  8
_0-0_0
  6
CONTINUOUS
 62
    7
 10
-129.07221950000007
 20
526.25
 11
-129.07221950000007
 21
523.75
  0
LINE
  8
_0-0_0
  6
CONTINUOUS
 62
    7
 10
-129.07221950000007
 20
526.75
 11
-129.07221950000007
 21
526.25
  0
LINE
  8
_0-0_0
  6
CONTINUOUS
 62
    7
 10
-129.07221950000007
 20
478.75
 11
-129.07221950000007
 21
478.25
  0
LINE
  8
_0-0_0
  6
CONTINUOUS
 62
    7
 10
-129.07221950000007
 20
483.75
 11
-129.07221950000007
 21
478.75
  0
LINE
  8
_0-0_0
  6
CONTINUOUS
 62
    7
 10
-129.07221950000007
 20
484.25
 11
-129.07221950000007
 21
483.75
  0
LINE
  8
_0-0_0
  6
CONTINUOUS
 62
    7
 10
-129.07221950000007
 20
484.75
 11
-129.07221950000007
 21
484.25
  0
LINE
  8
_0-0_0
  6
CONTINUOUS
 62
    7
 10
-129.07221950000007
 20
487.94998199999998
 11
-129.07221950000007
 21
484.75
  0
LINE
  8
_0-0_0
  6
CONTINUOUS
 62
    7
 10
-129.07221950000007
 20
487.94998199999998
 11
-129.07221950000007
 21
492.14999399999999
  0
LINE
  8
_0-0_0
  6
CONTINUOUS
 62
    7
 10
-129.07221950000007
 20
492.14999399999999
 11
1043.9277345
 21
492.14999399999999
  0
LINE
  8
_0-0_0
  6
CONTINUOUS
 62
    7
 10
1043.9277345
 20
487.94998199999998
 11
1043.9277345
 21
492.14999399999999
  0
LINE
  8
_0-0_0
  6
CONTINUOUS
 62
    7
 10
1043.9277345
 20
484.75
 11
1043.9277345
 21
487.94998199999998
  0
LINE
  8
_0-0_0
  6
CONTINUOUS
 62
    7
 10
1043.9277345
 20
484.75
 11
1043.9277345
 21
484.25
  0
LINE
  8
_0-0_0
  6
CONTINUOUS
 62
    7
 10
1043.9277345
 20
484.25
 11
1043.9277345
 21
483.75
  0
LINE
  8
_0-0_0
  6
CONTINUOUS
 62
    7
 10
1043.9277345
 20
483.75
 11
1043.9277345
 21
478.75
  0
LINE
  8
_0-0_0
  6
CONTINUOUS
 62
    7
 10
1043.9277345
 20
478.75
 11
1043.9277345
 21
478.25
  0
LINE
  8
_0-0_0
  6
CONTINUOUS
 62
    7
 10
1043.9277345
 20
526.75
 11
1043.9277345
 21
526.25
  0
LINE
  8
_0-0_0
  6
CONTINUOUS
 62
    7
 10
1043.9277345
 20
523.75
 11
1043.9277345
 21
526.25
  0
LINE
  8
_0-0_0
  6
CONTINUOUS
 62
    7
 10
1043.9277345
 20
505.14999399999999
 11
1043.9277345
 21
523.75
  0
CIRCLE
  8
_0-0_0
  6
CONTINUOUS
 62
    7
 10
1007.4277345
 20
514.25
 40
6
  0
CIRCLE
  8
_0-0_0
  6
CONTINUOUS
 62
    7
 10
907.42773450000004
 20
514.25
 40
6
  0
CIRCLE
  8
_0-0_0
  6
CONTINUOUS
 62
    7
 10
807.4277955
 20
514.25
 40
6
  0
CIRCLE
  8
_0-0_0
  6
CONTINUOUS
 62
    7
 10
707.4277955
 20
514.25
 40
6
  0
CIRCLE
  8
_0-0_0
  6
CONTINUOUS
 62
    7
 10
607.4277955
 20
514.25
 40
6
  0
CIRCLE
  8
_0-0_0
  6
CONTINUOUS
 62
    7
 10
507.4277955
 20
514.25
 40
6
  0
CIRCLE
  8
_0-0_0
  6
CONTINUOUS
 62
    7
 10
407.4277955
 20
514.25
 40
6
  0
CIRCLE
  8
_0-0_0
  6
CONTINUOUS
 62
    7
 10
307.4277955
 20
514.25
 40
6
  0
CIRCLE
  8
_0-0_0
  6
CONTINUOUS
 62
    7
 10
207.42779549999995
 20
514.25
 40
6
  0
CIRCLE
  8
_0-0_0
  6
CONTINUOUS
 62
    7
 10
107.42779549999995
 20
514.25
 40
6
  0
CIRCLE
  8
_0-0_0
  6
CONTINUOUS
 62
    7
 10
7.4277804999999262
 20
514.25
 40
6
  0
CIRCLE
  8
_0-0_0
  6
CONTINUOUS
 62
    7
 10
-92.572219500000074
 20
514.25
 40
6
  0
LINE
  8
_0-0_0
  6
CONTINUOUS
 62
    7
 10
-129.07221950000007
 20
523.75
 11
1043.9277345
 21
523.75
  0
LINE
  8
_0-0_0
  6
CONTINUOUS
 62
    7
 10
-129.07221950000007
 20
526.75
 11
1043.9277345
 21
526.75
  0
LINE
  8
_0-0_0
  6
CONTINUOUS
 62
    7
 10
-129.07221950000007
 20
526.25
 11
-131.57221950000007
 21
526.25
  0
LINE
  8
_0-0_0
  6
CONTINUOUS
 62
    7
 10
-131.57221950000007
 20
526.25
 11
-131.57221950000007
 21
525.75
  0
LINE
  8
_0-0_0
  6
CONTINUOUS
 62
    7
 10
-131.57221950000007
 20
525.75
 11
-131.57221950000007
 21
485.25
  0
LINE
  8
_0-0_0
  6
CONTINUOUS
 62
    7
 10
-129.07221950000007
 20
484.75
 11
-131.57221950000007
 21
484.75
  0
LINE
  8
_0-0_0
  6
CONTINUOUS
 62
    7
 10
-131.57221950000007
 20
485.25
 11
-131.57221950000007
 21
484.75
  0
LINE
  8
_0-0_0
  6
CONTINUOUS
 62
    7
 10
-131.57221950000007
 20
484.75
 11
-131.57221950000007
 21
483.75
  0
LINE
  8
_0-0_0
  6
CONTINUOUS
 62
    7
 10
-131.57221950000007
 20
483.75
 11
-131.57221950000007
 21
479.25
  0
LINE
  8
_0-0_0
  6
CONTINUOUS
 62
    7
 10
-129.07221950000007
 20
478.75
 11
-131.57221950000007
 21
478.75
  0
LINE
  8
_0-0_0
  6
CONTINUOUS
 62
    7
 10
-131.57221950000007
 20
479.25
 11
-131.57221950000007
 21
478.75
  0
LINE
  8
_0-0_0
  6
CONTINUOUS
 62
    7
 10
-129.07221950000007
 20
478.25
 11
1043.9277345
 21
478.25
  0
LINE
  8
_0-0_0
  6
CONTINUOUS
 62
    7
 10
-129.07221950000007
 20
484.25
 11
1043.9277345
 21
484.25
  0
LINE
  8
_0-0_0
  6
CONTINUOUS
 62
    7
 10
-129.07221950000007
 20
487.94998199999998
 11
1043.9277345
 21
487.94998199999998
  0
LINE
  8
_0-0_0
  6
CONTINUOUS
 62
    7
 10
1043.9277345
 20
526.25
 11
1046.4277345
 21
526.25
  0
LINE
  8
_0-0_0
  6
CONTINUOUS
 62
    7
 10
1046.4277345
 20
526.25
 11
1046.4277345
 21
525.75
  0
LINE
  8
_0-0_0
  6
CONTINUOUS
 62
    7
 10
1046.4277345
 20
525.75
 11
1046.4277345
 21
485.25
  0
LINE
  8
_0-0_0
  6
CONTINUOUS
 62
    7
 10
1043.9277345
 20
484.75
 11
1046.4277345
 21
484.75
  0
LINE
  8
_0-0_0
  6
CONTINUOUS
 62
    7
 10
1046.4277345
 20
485.25
 11
1046.4277345
 21
484.75
  0
LINE
  8
_0-0_0
  6
CONTINUOUS
 62
    7
 10
1046.4277345
 20
484.75
 11
1046.4277345
 21
483.75
  0
LINE
  8
_0-0_0
  6
CONTINUOUS
 62
    7
 10
1046.4277345
 20
483.75
 11
1046.4277345
 21
479.25
  0
LINE
  8
_0-0_0
  6
CONTINUOUS
 62
    7
 10
1043.9277345
 20
478.75
 11
1046.4277345
 21
478.75
  0
LINE
  8
_0-0_0
  6
CONTINUOUS
 62
    7
 10
1046.4277345
 20
479.25
 11
1046.4277345
 21
478.75
  0
ARC
  8
_0-0_0
  6
CONTINUOUS
 62
    7
 10
-71.572219500000074
 20
479.25
 40
0.5
 50
269.99999700000001
 51
0
  0
LINE
  8
_0-0_0
  6
CONTINUOUS
 62
    7
 10
-71.572219500000074
 20
478.75
 11
-78.572219500000074
 21
478.75
  0
ARC
  8
_0-0_0
  6
CONTINUOUS
 62
    7
 10
-78.572219500000074
 20
479.25
 40
0.5
 50
179.99999099999999
 51
269.99999700000001
  0
LINE
  8
_0-0_0
  6
CONTINUOUS
 62
    7
 10
-79.072219500000074
 20
483.25
 11
-79.072219500000074
 21
479.25
  0
ARC
  8
_0-0_0
  6
CONTINUOUS
 62
    7
 10
-78.572219500000074
 20
483.25
 40
0.5
 50
90.000003000000007
 51
179.99999099999999
  0
ARC
  8
_0-0_0
  6
CONTINUOUS
 62
    7
 10
-71.572219500000074
 20
483.25
 40
0.5
 50
0
 51
90.000003000000007
  0
LINE
  8
_0-0_0
  6
CONTINUOUS
 62
    7
 10
-78.572219500000074
 20
483.75
 11
-71.572219500000074
 21
483.75
  0
LINE
  8
_0-0_0
  6
CONTINUOUS
 62
    7
 10
1043.9277345
 20
526.75
 11
1043.9277345
 21
526.44998199999998
  0
LINE
  8
_0-0_0
  6
CONTINUOUS
 62
    7
 10
1043.9277345
 20
526.44998199999998
 11
1043.9277345
 21
526.25
  0
CIRCLE
  8
_0-0_0
  6
CONTINUOUS
 62
    7
 10
1007.4277345
 20
514.25
 40
5.5
  0
CIRCLE
  8
_0-0_0
  6
CONTINUOUS
 62
    7
 10
907.42773450000004
 20
514.25
 40
5.5
  0
CIRCLE
  8
_0-0_0
  6
CONTINUOUS
 62
    7
 10
807.4277955
 20
514.25
 40
5.5
  0
CIRCLE
  8
_0-0_0
  6
CONTINUOUS
 62
    7
 10
707.4277955
 20
514.25
 40
5.5
  0
CIRCLE
  8
_0-0_0
  6
CONTINUOUS
 62
    7
 10
607.4277955
 20
514.25
 40
5.5
  0
CIRCLE
  8
_0-0_0
  6
CONTINUOUS
 62
    7
 10
507.4277955
 20
514.25
 40
5.5
  0
CIRCLE
  8
_0-0_0
  6
CONTINUOUS
 62
    7
 10
407.4277955
 20
514.25
 40
5.5
  0
CIRCLE
  8
_0-0_0
  6
CONTINUOUS
 62
    7
 10
307.4277955
 20
514.25
 40
5.5
  0
CIRCLE
  8
_0-0_0
  6
CONTINUOUS
 62
    7
 10
207.42779549999995
 20
514.25
 40
5.5
  0
CIRCLE
  8
_0-0_0
  6
CONTINUOUS
 62
    7
 10
107.42779549999995
 20
514.25
 40
5.5
  0
CIRCLE
  8
_0-0_0
  6
CONTINUOUS
 62
    7
 10
7.4277804999999262
 20
514.25
 40
5.5
  0
CIRCLE
  8
_0-0_0
  6
CONTINUOUS
 62
    7
 10
-92.572219500000074
 20
514.25
 40
5.5
  0
LINE
  8
_0-0_0
  6
CONTINUOUS
 62
    7
 10
-71.072219500000074
 20
479.25
 11
-71.072219500000074
 21
483.25
  0
CIRCLE
  8
_0-0_0
  6
CONTINUOUS
 62
    7
 10
1007.4277345
 20
514.25
 40
3.5
  0
CIRCLE
  8
_0-0_0
  6
CONTINUOUS
 62
    7
 10
907.42773450000004
 20
514.25
 40
3.5
  0
CIRCLE
  8
_0-0_0
  6
CONTINUOUS
 62
    7
 10
807.4277955
 20
514.25
 40
3.5
  0
CIRCLE
  8
_0-0_0
  6
CONTINUOUS
 62
    7
 10
707.4277955
 20
514.25
 40
3.5
  0
CIRCLE
  8
_0-0_0
  6
CONTINUOUS
 62
    7
 10
607.4277955
 20
514.25
 40
3.5
  0
CIRCLE
  8
_0-0_0
  6
CONTINUOUS
 62
    7
 10
507.4277955
 20
514.25
 40
3.5
  0
CIRCLE
  8
_0-0_0
  6
CONTINUOUS
 62
    7
 10
407.4277955
 20
514.25
 40
3.5
  0
CIRCLE
  8
_0-0_0
  6
CONTINUOUS
 62
    7
 10
307.4277955
 20
514.25
 40
3.5
  0
CIRCLE
  8
_0-0_0
  6
CONTINUOUS
 62
    7
 10
207.42779549999995
 20
514.25
 40
3.5
  0
CIRCLE
  8
_0-0_0
  6
CONTINUOUS
 62
    7
 10
107.42779549999995
 20
514.25
 40
3.5
  0
CIRCLE
  8
_0-0_0
  6
CONTINUOUS
 62
    7
 10
7.4277804999999262
 20
514.25
 40
3.5
  0
CIRCLE
  8
_0-0_0
  6
CONTINUOUS
 62
    7
 10
-92.572219500000074
 20
514.25
 40
3.5
  0
ARC
  8
_0-0_0
  6
CONTINUOUS
 62
    7
 10
-73.77223250000003
 20
482.94998199999998
 40
0.2
 50
339.62356199999999
 51
90.000002999999978
  0
LINE
  8
_0-0_0
  6
CONTINUOUS
 62
    7
 10
-73.58473250000003
 20
482.88034099999999
 11
-74.884750500000052
 21
479.38034099999999
  0
ARC
  8
_0-0_0
  6
CONTINUOUS
 62
    7
 10
-75.072219500000074
 20
479.44998199999998
 40
0.2
 50
200.37643
 51
339.62356199999999
  0
LINE
  8
_0-0_0
  6
CONTINUOUS
 62
    7
 10
-76.559707500000059
 20
482.88034099999999
 11
-75.259719500000074
 21
479.38034099999999
  0
ARC
  8
_0-0_0
  6
CONTINUOUS
 62
    7
 10
-76.372238500000037
 20
482.94998199999998
 40
0.2
 50
90.000003000000007
 51
200.37643
  0
LINE
  8
_0-0_0
  6
CONTINUOUS
 62
    7
 10
-76.372238500000037
 20
483.14999399999999
 11
-73.77223250000003
 21
483.14999399999999
  0
ARC
  8
_0-0_0
  6
CONTINUOUS
 62
    7
 10
963.62768549999987
 20
482.94998199999998
 40
0.2
 50
90.000003000000007
 51
200.37643
  0
LINE
  8
_0-0_0
  6
CONTINUOUS
 62
    7
 10
963.62768549999987
 20
483.14999399999999
 11
966.22778349999999
 21
483.14999399999999
  0
ARC
  8
_0-0_0
  6
CONTINUOUS
 62
    7
 10
961.42773450000004
 20
483.25
 40
0.5
 50
90.000003000000007
 51
179.99999099999999
  0
LINE
  8
_0-0_0
  6
CONTINUOUS
 62
    7
 10
960.92773450000004
 20
483.25
 11
960.92773450000004
 21
479.25
  0
ARC
  8
_0-0_0
  6
CONTINUOUS
 62
    7
 10
961.42773450000004
 20
479.25
 40
0.5
 50
179.99999099999999
 51
269.99999700000001
  0
LINE
  8
_0-0_0
  6
CONTINUOUS
 62
    7
 10
968.42773450000004
 20
478.75
 11
961.42773450000004
 21
478.75
  0
ARC
  8
_0-0_0
  6
CONTINUOUS
 62
    7
 10
968.42773450000004
 20
479.25
 40
0.5
 50
269.99999700000001
 51
0
  0
LINE
  8
_0-0_0
  6
CONTINUOUS
 62
    7
 10
968.92773450000004
 20
479.25
 11
968.92773450000004
 21
483.25
  0
ARC
  8
_0-0_0
  6
CONTINUOUS
 62
    7
 10
968.42773450000004
 20
483.25
 40
0.5
 50
0
 51
90.000003000000007
  0
LINE
  8
_0-0_0
  6
CONTINUOUS
 62
    7
 10
961.42773450000004
 20
483.75
 11
968.42773450000004
 21
483.75
  0
LINE
  8
_0-0_0
  6
CONTINUOUS
 62
    7
 10
963.44030750000002
 20
482.88034099999999
 11
964.74023450000004
 21
479.38034099999999
  0
ARC
  8
_0-0_0
  6
CONTINUOUS
 62
    7
 10
964.92773450000004
 20
479.44998199999998
 40
0.2
 50
200.37643
 51
339.62356199999999
  0
LINE
  8
_0-0_0
  6
CONTINUOUS
 62
    7
 10
966.41516150000007
 20
482.88034099999999
 11
965.11523450000004
 21
479.38034099999999
  0
ARC
  8
_0-0_0
  6
CONTINUOUS
 62
    7
 10
966.22778349999999
 20
482.94998199999998
 40
0.2
 50
339.62356199999999
 51
90.000002999999978
  0
LINE
  8
_0-0_0
  6
CONTINUOUS
 62
    7
 10
-122.57221950000007
 20
476.25
 11
-117.57221950000007
 21
476.25
  0
LINE
  8
_0-0_0
  6
CONTINUOUS
 62
    7
 10
-117.57221950000007
 20
476.25
 11
-115.77221650000001
 21
476.25
  0
LINE
  8
_0-0_0
  6
CONTINUOUS
 62
    7
 10
-115.77221650000001
 20
476.25
 11
-115.07221950000007
 21
476.25
  0
ARC
  8
_0-0_0
  6
CONTINUOUS
 62
    7
 10
-115.77221650000001
 20
475.75
 40
0.5
 50
0
 51
90.000003000000007
  0
ARC
  8
_0-0_0
  6
CONTINUOUS
 62
    7
 10
-122.57221950000007
 20
475.75
 40
0.5
 50
90.000003000000007
 51
179.99999099999999
  0
ARC
  8
_0-0_0
  6
CONTINUOUS
 62
    7
 10
-19.072219500000074
 20
475.75
 40
0.5
 50
0
 51
90.000003000000007
  0
LINE
  8
_0-0_0
  6
CONTINUOUS
 62
    7
 10
-115.07221950000007
 20
476.25
 11
-115.07221950000007
 21
474.75
  0
LINE
  8
_0-0_0
  6
CONTINUOUS
 62
    7
 10
-115.07221950000007
 20
476.75
 11
-115.07221950000007
 21
476.25
  0
LINE
  8
_0-0_0
  6
CONTINUOUS
 62
    7
 10
-115.07221950000007
 20
477.25
 11
-115.07221950000007
 21
476.75
  0
LINE
  8
_0-0_0
  6
CONTINUOUS
 62
    7
 10
-115.07221950000007
 20
478.25
 11
-115.07221950000007
 21
477.25
  0
LINE
  8
_0-0_0
  6
CONTINUOUS
 62
    7
 10
-111.07221950000007
 20
476.25
 11
-110.37222350000002
 21
476.25
  0
LINE
  8
_0-0_0
  6
CONTINUOUS
 62
    7
 10
-115.27221650000001
 20
475.75
 11
-115.27221650000001
 21
474.75
  0
LINE
  8
_0-0_0
  6
CONTINUOUS
 62
    7
 10
-112.07221950000007
 20
449.25
 11
-112.07221950000007
 21
450.84997600000003
  0
LINE
  8
_0-0_0
  6
CONTINUOUS
 62
    7
 10
-112.07221950000007
 20
449.25
 11
-117.57221950000007
 21
449.25
  0
LINE
  8
_0-0_0
  6
CONTINUOUS
 62
    7
 10
-96.072219500000074
 20
455.94998199999998
 11
-54.072219500000074
 21
455.94998199999998
  0
LINE
  8
_0-0_0
  6
CONTINUOUS
 62
    7
 10
-96.072219500000074
 20
475.54998799999998
 11
-54.072219500000074
 21
475.54998799999998
  0
LINE
  8
_0-0_0
  6
CONTINUOUS
 62
    7
 10
-32.572219500000074
 20
449.25
 11
-42.072219500000074
 21
449.25
  0
LINE
  8
_0-0_0
  6
CONTINUOUS
 62
    7
 10
-42.072219500000074
 20
449.25
 11
-42.072219500000074
 21
450.84997600000003
  0
ARC
  8
_0-0_0
  6
CONTINUOUS
 62
    7
 10
-42.372238500000037
 20
450.84997600000003
 40
0.2999999999999999
 50
0
 51
90.000003000000007
  0
LINE
  8
_0-0_0
  6
CONTINUOUS
 62
    7
 10
-43.072219500000074
 20
451.14999399999999
 11
-42.372238500000037
 21
451.14999399999999
  0
LINE
  8
_0-0_0
  6
CONTINUOUS
 62
    7
 10
-43.572219500000074
 20
451.54998799999998
 11
-43.072219500000074
 21
451.54998799999998
  0
LINE
  8
_0-0_0
  6
CONTINUOUS
 62
    7
 10
-57.072219500000074
 20
451.54998799999998
 11
-43.572219500000074
 21
451.54998799999998
  0
ARC
  8
_0-0_0
  6
CONTINUOUS
 62
    7
 10
-59.572219500000074
 20
451.54998799999998
 40
2.5
 50
0
 51
90.000003000000007
  0
LINE
  8
_0-0_0
  6
CONTINUOUS
 62
    7
 10
-90.572219500000074
 20
454.04998799999998
 11
-59.572219500000074
 21
454.04998799999998
  0
ARC
  8
_0-0_0
  6
CONTINUOUS
 62
    7
 10
-90.572219500000074
 20
451.54998799999998
 40
2.5
 50
90.000003000000007
 51
179.99999099999999
  0
LINE
  8
_0-0_0
  6
CONTINUOUS
 62
    7
 10
-110.57221950000007
 20
451.54998799999998
 11
-93.072219500000074
 21
451.54998799999998
  0
LINE
  8
_0-0_0
  6
CONTINUOUS
 62
    7
 10
-111.07221950000007
 20
451.54998799999998
 11
-110.57221950000007
 21
451.54998799999998
  0
LINE
  8
_0-0_0
  6
CONTINUOUS
 62
    7
 10
-111.77221650000001
 20
451.14999399999999
 11
-111.07221950000007
 21
451.14999399999999
  0
ARC
  8
_0-0_0
  6
CONTINUOUS
 62
    7
 10
-111.77221650000001
 20
450.84997600000003
 40
0.2999999999999999
 50
90.000003000000007
 51
179.99999099999999
  0
LINE
  8
_0-0_0
  6
CONTINUOUS
 62
    7
 10
-123.07221950000007
 20
473.97485399999999
 11
-123.07221950000007
 21
475.75
  0
LINE
  8
_0-0_0
  6
CONTINUOUS
 62
    7
 10
-118.07221950000007
 20
476.75
 11
-118.07221950000007
 21
476.25
  0
LINE
  8
_0-0_0
  6
CONTINUOUS
 62
    7
 10
-118.07221950000007
 20
472.80355800000001
 11
-118.07221950000007
 21
472.90853900000002
  0
LINE
  8
_0-0_0
  6
CONTINUOUS
 62
    7
 10
-118.07221950000007
 20
476.75
 11
-118.07221950000007
 21
478.24996900000002
  0
LINE
  8
_0-0_0
  6
CONTINUOUS
 62
    7
 10
-18.572219500000074
 20
478.24996900000002
 11
-18.572219500000074
 21
476.75
  0
LINE
  8
_0-0_0
  6
CONTINUOUS
 62
    7
 10
-18.572219500000074
 20
476.75
 11
-18.572219500000074
 21
475.75
  0
LINE
  8
_0-0_0
  6
CONTINUOUS
 62
    7
 10
-18.572219500000074
 20
474.94998199999998
 11
-18.572219500000074
 21
475.75
  0
LINE
  8
_0-0_0
  6
CONTINUOUS
 62
    7
 10
-19.072219500000074
 20
476.25
 11
-18.572219500000074
 21
476.25
  0
LINE
  8
_0-0_0
  6
CONTINUOUS
 62
    7
 10
-31.572219500000074
 20
476.25
 11
-19.072219500000074
 21
476.25
  0
LINE
  8
_0-0_0
  6
CONTINUOUS
 62
    7
 10
-18.572219500000074
 20
478.25
 11
-18.572219500000074
 21
477.25
  0
LINE
  8
_0-0_0
  6
CONTINUOUS
 62
    7
 10
-18.572219500000074
 20
476.75
 11
-18.572219500000074
 21
476.25
  0
LINE
  8
_0-0_0
  6
CONTINUOUS
 62
    7
 10
-18.572219500000074
 20
477.25
 11
-18.572219500000074
 21
476.75
  0
ARC
  8
_0-0_0
  6
CONTINUOUS
 62
    7
 10
-113.07221950000007
 20
474.75
 40
2
 50
179.99999099999999
 51
0
  0
LINE
  8
_0-0_0
  6
CONTINUOUS
 62
    7
 10
-32.072219500000074
 20
476.25
 11
-31.572219500000074
 21
476.25
  0
LINE
  8
_0-0_0
  6
CONTINUOUS
 62
    7
 10
-32.072219500000074
 20
475.75
 11
-32.072219500000074
 21
476.25
  0
LINE
  8
_0-0_0
  6
CONTINUOUS
 62
    7
 10
-32.072219500000074
 20
474.75
 11
-32.072219500000074
 21
474.94998199999998
  0
ARC
  8
_0-0_0
  6
CONTINUOUS
 62
    7
 10
-34.072219500000074
 20
474.75
 40
2
 50
179.99999099999999
 51
0
  0
LINE
  8
_0-0_0
  6
CONTINUOUS
 62
    7
 10
-36.072219500000074
 20
476.25
 11
-36.072219500000074
 21
474.75
  0
LINE
  8
_0-0_0
  6
CONTINUOUS
 62
    7
 10
-36.77223250000003
 20
476.25
 11
-36.072219500000074
 21
476.25
  0
LINE
  8
_0-0_0
  6
CONTINUOUS
 62
    7
 10
-111.07221950000007
 20
474.75
 11
-111.07221950000007
 21
476.25
  0
LINE
  8
_0-0_0
  6
CONTINUOUS
 62
    7
 10
-115.07221950000007
 20
477.25
 11
-18.572219500000074
 21
477.25
  0
ARC
  8
_0-0_0
  6
CONTINUOUS
 62
    7
 10
-110.37222350000002
 20
475.75
 40
0.5
 50
90.000003000000007
 51
179.99999099999999
  0
ARC
  8
_0-0_0
  6
CONTINUOUS
 62
    7
 10
-113.07221950000007
 20
474.75
 40
2.2000000000000002
 50
179.99999099999999
 51
0
  0
LINE
  8
_0-0_0
  6
CONTINUOUS
 62
    7
 10
-111.07221950000007
 20
451.14999399999999
 11
-110.57221950000007
 21
451.14999399999999
  0
LINE
  8
_0-0_0
  6
CONTINUOUS
 62
    7
 10
-110.57221950000007
 20
451.54998799999998
 11
-110.57221950000007
 21
451.14999399999999
  0
LINE
  8
_0-0_0
  6
CONTINUOUS
 62
    7
 10
-93.072219500000074
 20
451.54998799999998
 11
-57.072219500000074
 21
451.54998799999998
  0
LINE
  8
_0-0_0
  6
CONTINUOUS
 62
    7
 10
-43.572219500000074
 20
451.14999399999999
 11
-43.072219500000074
 21
451.14999399999999
  0
LINE
  8
_0-0_0
  6
CONTINUOUS
 62
    7
 10
-43.572219500000074
 20
451.54998799999998
 11
-43.572219500000074
 21
451.14999399999999
  0
LINE
  8
_0-0_0
  6
CONTINUOUS
 62
    7
 10
-32.572219500000074
 20
448.75
 11
-41.572219500000074
 21
448.75
  0
ARC
  8
_0-0_0
  6
CONTINUOUS
 62
    7
 10
-41.572219500000074
 20
449.25
 40
0.5
 50
179.99999099999999
 51
269.99999700000001
  0
LINE
  8
_0-0_0
  6
CONTINUOUS
 62
    7
 10
-32.572219500000074
 20
449.25
 11
-32.072219500000074
 21
449.25
  0
LINE
  8
_0-0_0
  6
CONTINUOUS
 62
    7
 10
-32.072219500000074
 20
449.25
 11
-32.072219500000074
 21
449.44998199999998
  0
LINE
  8
_0-0_0
  6
CONTINUOUS
 62
    7
 10
-27.572219500000074
 20
449.64999399999999
 11
-31.872238500000037
 21
449.64999399999999
  0
LINE
  8
_0-0_0
  6
CONTINUOUS
 62
    7
 10
-27.072219500000074
 20
450.14999399999999
 11
-27.072219500000074
 21
451.92511000000002
  0
ARC
  8
_0-0_0
  6
CONTINUOUS
 62
    7
 10
-30.120193500000028
 20
451.868988
 40
3.0490550000000001
 50
1.0548960000000001
 51
14.838094000000002
  0
LINE
  8
_0-0_0
  6
CONTINUOUS
 62
    7
 10
-27.572219500000074
 20
452.84997600000003
 11
-31.939773500000001
 21
452.84997600000003
  0
LINE
  8
_0-0_0
  6
CONTINUOUS
 62
    7
 10
-32.072219500000074
 20
452.99142499999999
 11
-32.072219500000074
 21
453.33367900000002
  0
ARC
  8
_0-0_0
  6
CONTINUOUS
 62
    7
 10
-34.072219500000074
 20
474.75
 40
2.2000000000000002
 50
179.99999099999999
 51
303.74900400000001
  0
LINE
  8
_0-0_0
  6
CONTINUOUS
 62
    7
 10
-36.27223250000003
 20
475.75
 11
-36.27223250000003
 21
474.75
  0
LINE
  8
_0-0_0
  6
CONTINUOUS
 62
    7
 10
-36.77223250000003
 20
476.25
 11
-110.37222350000002
 21
476.25
  0
LINE
  8
_0-0_0
  6
CONTINUOUS
 62
    7
 10
-110.87222350000002
 20
474.75
 11
-110.87222350000002
 21
475.75
  0
LINE
  8
_0-0_0
  6
CONTINUOUS
 62
    7
 10
-110.37222350000002
 20
474.54998799999998
 11
-110.37222350000002
 21
474.75
  0
ARC
  8
_0-0_0
  6
CONTINUOUS
 62
    7
 10
-109.37222350000002
 20
474.54998799999998
 40
1
 50
90.000003000000007
 51
179.99999099999999
  0
LINE
  8
_0-0_0
  6
CONTINUOUS
 62
    7
 10
-109.37222350000002
 20
475.54998799999998
 11
-96.072219500000074
 21
475.54998799999998
  0
LINE
  8
_0-0_0
  6
CONTINUOUS
 62
    7
 10
-54.072219500000074
 20
475.54998799999998
 11
-40.072219500000074
 21
475.54998799999998
  0
ARC
  8
_0-0_0
  6
CONTINUOUS
 62
    7
 10
-40.072219500000074
 20
472.54998799999998
 40
3
 50
0
 51
90.000003000000007
  0
LINE
  8
_0-0_0
  6
CONTINUOUS
 62
    7
 10
-37.072219500000074
 20
458.94998199999998
 11
-37.072219500000074
 21
472.54998799999998
  0
ARC
  8
_0-0_0
  6
CONTINUOUS
 62
    7
 10
-40.072219500000074
 20
458.94998199999998
 40
3
 50
269.99999700000001
 51
0
  0
LINE
  8
_0-0_0
  6
CONTINUOUS
 62
    7
 10
-40.072219500000074
 20
455.94998199999998
 11
-54.072219500000074
 21
455.94998199999998
  0
LINE
  8
_0-0_0
  6
CONTINUOUS
 62
    7
 10
-96.072219500000074
 20
455.94998199999998
 11
-110.07221950000007
 21
455.94998199999998
  0
ARC
  8
_0-0_0
  6
CONTINUOUS
 62
    7
 10
-110.07221950000007
 20
458.94998199999998
 40
3
 50
179.99999099999999
 51
269.99999700000001
  0
LINE
  8
_0-0_0
  6
CONTINUOUS
 62
    7
 10
-113.07221950000007
 20
471.18768299999999
 11
-113.07221950000007
 21
458.94998199999998
  0
ARC
  8
_0-0_0
  6
CONTINUOUS
 62
    7
 10
-112.07221950000007
 20
471.18768299999999
 40
1
 50
105.68034800000001
 51
179.99999100000002
  0
ARC
  8
_0-0_0
  6
CONTINUOUS
 62
    7
 10
-120.0242465
 20
474.03097500000001
 40
3.0490550000000001
 50
181.05489
 51
194.838089
  0
LINE
  8
_0-0_0
  6
CONTINUOUS
 62
    7
 10
-118.20468150000011
 20
473.04998799999998
 11
-122.57221950000007
 21
473.04998799999998
  0
LINE
  8
_0-0_0
  6
CONTINUOUS
 62
    7
 10
-118.07221950000007
 20
452.99142499999999
 11
-118.07221950000007
 21
453.096405
  0
LINE
  8
_0-0_0
  6
CONTINUOUS
 62
    7
 10
-118.20468150000011
 20
452.84997600000003
 11
-122.57221950000007
 21
452.84997600000003
  0
ARC
  8
_0-0_0
  6
CONTINUOUS
 62
    7
 10
-120.02307150000001
 20
451.86834700000003
 40
3.050319
 50
165.15540799999999
 51
178.932897
  0
LINE
  8
_0-0_0
  6
CONTINUOUS
 62
    7
 10
-123.07221950000007
 20
450.14999399999999
 11
-123.07221950000007
 21
451.92511000000002
  0
LINE
  8
_0-0_0
  6
CONTINUOUS
 62
    7
 10
-118.27221650000001
 20
449.64999399999999
 11
-122.57221950000007
 21
449.64999399999999
  0
LINE
  8
_0-0_0
  6
CONTINUOUS
 62
    7
 10
-118.07221950000007
 20
449.25
 11
-118.07221950000007
 21
449.44998199999998
  0
LINE
  8
_0-0_0
  6
CONTINUOUS
 62
    7
 10
-118.07221950000007
 20
449.25
 11
-117.57221950000007
 21
449.25
  0
LINE
  8
_0-0_0
  6
CONTINUOUS
 62
    7
 10
-112.57221950000007
 20
448.75
 11
-117.57221950000007
 21
448.75
  0
ARC
  8
_0-0_0
  6
CONTINUOUS
 62
    7
 10
-112.57221950000007
 20
449.25
 40
0.5
 50
269.99999700000001
 51
0
  0
LINE
  8
_0-0_0
  6
CONTINUOUS
 62
    7
 10
-122.75396750000004
 20
473.04998799999998
 11
-122.77430750000008
 21
473.050995
  0
LINE
  8
_0-0_0
  6
CONTINUOUS
 62
    7
 10
-122.77430750000008
 20
473.050995
 11
-122.79472350000003
 21
473.05413800000002
  0
LINE
  8
_0-0_0
  6
CONTINUOUS
 62
    7
 10
-122.79472350000003
 20
473.05413800000002
 11
-122.82153349999999
 21
473.06173699999999
  0
LINE
  8
_0-0_0
  6
CONTINUOUS
 62
    7
 10
-122.82153349999999
 20
473.06173699999999
 11
-122.84718350000003
 21
473.07312000000002
  0
LINE
  8
_0-0_0
  6
CONTINUOUS
 62
    7
 10
-122.84718350000003
 20
473.07312000000002
 11
-122.87098750000007
 21
473.08798200000001
  0
LINE
  8
_0-0_0
  6
CONTINUOUS
 62
    7
 10
-122.87098750000007
 20
473.08798200000001
 11
-122.88774150000006
 21
473.10150099999998
  0
LINE
  8
_0-0_0
  6
CONTINUOUS
 62
    7
 10
-122.88774150000006
 20
473.10150099999998
 11
-122.90324450000003
 21
473.11673000000002
  0
LINE
  8
_0-0_0
  6
CONTINUOUS
 62
    7
 10
-122.90324450000003
 20
473.11673000000002
 11
-122.93014549999998
 21
473.15136699999999
  0
LINE
  8
_0-0_0
  6
CONTINUOUS
 62
    7
 10
-122.93014549999998
 20
473.15136699999999
 11
-122.95118750000006
 21
473.18969700000002
  0
LINE
  8
_0-0_0
  6
CONTINUOUS
 62
    7
 10
-122.95118750000006
 20
473.18969700000002
 11
-122.96318050000002
 21
473.21963499999998
  0
LINE
  8
_0-0_0
  6
CONTINUOUS
 62
    7
 10
-122.96318050000002
 20
473.21963499999998
 11
-122.97221350000007
 21
473.25
  0
LINE
  8
_0-0_0
  6
CONTINUOUS
 62
    7
 10
-123.06102050000004
 20
473.75
 11
-130.07221950000007
 21
473.75
  0
LINE
  8
_0-0_0
  6
CONTINUOUS
 62
    7
 10
-130.07221950000007
 20
473.75
 11
-134.74766550000004
 21
473.75
  0
LINE
  8
_0-0_0
  6
CONTINUOUS
 62
    7
 10
-130.07221950000007
 20
473.75
 11
-130.07221950000007
 21
471.75
  0
LINE
  8
_0-0_0
  6
CONTINUOUS
 62
    7
 10
-118.07221950000007
 20
471.75
 11
-118.07221950000007
 21
472.80355800000001
  0
ARC
  8
_0-0_0
  6
CONTINUOUS
 62
    7
 10
-19.072219500000074
 20
474.94998199999998
 40
0.5
 50
269.99999700000001
 51
0
  0
ARC
  8
_0-0_0
  6
CONTINUOUS
 62
    7
 10
-31.572219500000074
 20
475.75
 40
0.5
 50
90.000003000000007
 51
179.99999099999999
  0
LINE
  8
_0-0_0
  6
CONTINUOUS
 62
    7
 10
-32.072219500000074
 20
474.94998199999998
 11
-32.072219500000074
 21
475.75
  0
LINE
  8
_0-0_0
  6
CONTINUOUS
 62
    7
 10
-111.87222350000002
 20
451.13284299999998
 11
-111.87222350000002
 21
449.14999399999999
  0
LINE
  8
_0-0_0
  6
CONTINUOUS
 62
    7
 10
-111.87222350000002
 20
449.14999399999999
 11
-110.87222350000002
 21
449.14999399999999
  0
LINE
  8
_0-0_0
  6
CONTINUOUS
 62
    7
 10
-110.57221950000007
 20
451.14999399999999
 11
-43.572219500000074
 21
451.14999399999999
  0
LINE
  8
_0-0_0
  6
CONTINUOUS
 62
    7
 10
-110.87222350000002
 20
449.14999399999999
 11
-43.27223250000003
 21
449.14999399999999
  0
LINE
  8
_0-0_0
  6
CONTINUOUS
 62
    7
 10
-43.27223250000003
 20
449.14999399999999
 11
-42.27223250000003
 21
449.14999399999999
  0
LINE
  8
_0-0_0
  6
CONTINUOUS
 62
    7
 10
-42.27223250000003
 20
451.13284299999998
 11
-42.27223250000003
 21
449.14999399999999
  0
LINE
  8
_0-0_0
  6
CONTINUOUS
 62
    7
 10
-32.072219500000074
 20
449.25
 11
-32.572219500000074
 21
448.75
  0
ARC
  8
_0-0_0
  6
CONTINUOUS
 62
    7
 10
-31.872238500000037
 20
449.44998199999998
 40
0.2
 50
90.000003000000007
 51
179.99999099999999
  0
ARC
  8
_0-0_0
  6
CONTINUOUS
 62
    7
 10
-27.572219500000074
 20
450.14999399999999
 40
0.5
 50
269.99999700000001
 51
0
  0
LINE
  8
_0-0_0
  6
CONTINUOUS
 62
    7
 10
-27.390487500000063
 20
452.84997600000003
 11
-27.370132500000068
 21
452.84896900000001
  0
LINE
  8
_0-0_0
  6
CONTINUOUS
 62
    7
 10
-27.370132500000068
 20
452.84896900000001
 11
-27.349716500000056
 21
452.84582499999999
  0
LINE
  8
_0-0_0
  6
CONTINUOUS
 62
    7
 10
-27.349716500000056
 20
452.84582499999999
 11
-27.322891500000082
 21
452.83822600000002
  0
LINE
  8
_0-0_0
  6
CONTINUOUS
 62
    7
 10
-27.322891500000082
 20
452.83822600000002
 11
-27.297256500000003
 21
452.82687399999998
  0
LINE
  8
_0-0_0
  6
CONTINUOUS
 62
    7
 10
-27.297256500000003
 20
452.82687399999998
 11
-27.273452500000076
 21
452.811981
  0
LINE
  8
_0-0_0
  6
CONTINUOUS
 62
    7
 10
-27.273452500000076
 20
452.811981
 11
-27.256698500000084
 21
452.79846199999997
  0
LINE
  8
_0-0_0
  6
CONTINUOUS
 62
    7
 10
-27.256698500000084
 20
452.79846199999997
 11
-27.241195500000003
 21
452.78326399999997
  0
LINE
  8
_0-0_0
  6
CONTINUOUS
 62
    7
 10
-27.241195500000003
 20
452.78326399999997
 11
-27.214309500000013
 21
452.74859600000002
  0
LINE
  8
_0-0_0
  6
CONTINUOUS
 62
    7
 10
-27.214309500000013
 20
452.74859600000002
 11
-27.193252500000028
 21
452.71026599999999
  0
LINE
  8
_0-0_0
  6
CONTINUOUS
 62
    7
 10
-27.193252500000028
 20
452.71026599999999
 11
-27.18125950000001
 21
452.68035900000001
  0
LINE
  8
_0-0_0
  6
CONTINUOUS
 62
    7
 10
-27.18125950000001
 20
452.68035900000001
 11
-27.172226500000079
 21
452.64999399999999
  0
LINE
  8
_0-0_0
  6
CONTINUOUS
 62
    7
 10
-27.390487500000063
 20
452.84997600000003
 11
-27.572219500000074
 21
452.84997600000003
  0
LINE
  8
_0-0_0
  6
CONTINUOUS
 62
    7
 10
-32.072219500000074
 20
471.29998799999998
 11
-32.072219500000074
 21
473.79998799999998
  0
LINE
  8
_0-0_0
  6
CONTINUOUS
 62
    7
 10
-32.072219500000074
 20
471.29998799999998
 11
-32.072219500000074
 21
454.79998799999998
  0
LINE
  8
_0-0_0
  6
CONTINUOUS
 62
    7
 10
-32.072219500000074
 20
453.33367900000002
 11
-32.072219500000074
 21
454.79998799999998
  0
ARC
  8
_0-0_0
  6
CONTINUOUS
 62
    7
 10
-32.572219500000074
 20
472.50500499999998
 40
0.5
 50
0
 51
123.74898500000002
  0
ARC
  8
_0-0_0
  6
CONTINUOUS
 62
    7
 10
-31.901931500000046
 20
453.02328499999999
 40
0.1734229999999999
 50
181.12417600000003
 51
270.64883800000007
  0
LINE
  8
_0-0_0
  6
CONTINUOUS
 62
    7
 10
-32.076278500000058
 20
453.04998799999998
 11
-32.07618750000006
 21
453.01986699999998
  0
ARC
  8
_0-0_0
  6
CONTINUOUS
 62
    7
 10
-36.77223250000003
 20
475.75
 40
0.5
 50
0
 51
90.000003000000007
  0
ARC
  8
_0-0_0
  6
CONTINUOUS
 62
    7
 10
-113.07221950000007
 20
474.75
 40
2.7000000000000002
 50
285.68033600000007
 51
0.0000000000000381
  0
ARC
  8
_0-0_0
  6
CONTINUOUS
 62
    7
 10
-96.072219500000074
 20
458.94998199999998
 40
3
 50
269.99999700000001
 51
0
  0
LINE
  8
_0-0_0
  6
CONTINUOUS
 62
    7
 10
-93.072219500000074
 20
458.94998199999998
 11
-93.072219500000074
 21
472.54998799999998
  0
ARC
  8
_0-0_0
  6
CONTINUOUS
 62
    7
 10
-96.072219500000074
 20
472.54998799999998
 40
3
 50
0
 51
90.000003000000007
  0
ARC
  8
_0-0_0
  6
CONTINUOUS
 62
    7
 10
-100.57221950000007
 20
468.25
 40
4.5
 50
269.99999700000001
 51
90.000002999999992
  0
LINE
  8
_0-0_0
  6
CONTINUOUS
 62
    7
 10
-100.57221950000007
 20
463.75
 11
-105.57221950000007
 21
463.75
  0
ARC
  8
_0-0_0
  6
CONTINUOUS
 62
    7
 10
-105.57221950000007
 20
468.25
 40
4.5
 50
90.000003000000007
 51
269.99999700000006
  0
LINE
  8
_0-0_0
  6
CONTINUOUS
 62
    7
 10
-105.57221950000007
 20
472.75
 11
-100.57221950000007
 21
472.75
  0
ARC
  8
_0-0_0
  6
CONTINUOUS
 62
    7
 10
-54.072219500000074
 20
458.94998199999998
 40
3
 50
179.99999099999999
 51
269.99999700000001
  0
LINE
  8
_0-0_0
  6
CONTINUOUS
 62
    7
 10
-57.072219500000074
 20
472.54998799999998
 11
-57.072219500000074
 21
458.94998199999998
  0
ARC
  8
_0-0_0
  6
CONTINUOUS
 62
    7
 10
-54.072219500000074
 20
472.54998799999998
 40
3
 50
90.000003000000007
 51
179.99999099999999
  0
ARC
  8
_0-0_0
  6
CONTINUOUS
 62
    7
 10
-44.572219500000074
 20
468.25
 40
4.5
 50
269.99999700000001
 51
90.000002999999992
  0
LINE
  8
_0-0_0
  6
CONTINUOUS
 62
    7
 10
-44.572219500000074
 20
463.75
 11
-49.572219500000074
 21
463.75
  0
ARC
  8
_0-0_0
  6
CONTINUOUS
 62
    7
 10
-49.572219500000074
 20
468.25
 40
4.5
 50
90.000003000000007
 51
269.99999700000006
  0
LINE
  8
_0-0_0
  6
CONTINUOUS
 62
    7
 10
-49.572219500000074
 20
472.75
 11
-44.572219500000074
 21
472.75
  0
LINE
  8
_0-0_0
  6
CONTINUOUS
 62
    7
 10
-122.57221950000007
 20
473.04998799999998
 11
-122.75396750000004
 21
473.04998799999998
  0
LINE
  8
_0-0_0
  6
CONTINUOUS
 62
    7
 10
-118.07221950000007
 20
471.75
 11
-118.07221950000007
 21
454.14999399999999
  0
LINE
  8
_0-0_0
  6
CONTINUOUS
 62
    7
 10
-118.07221950000007
 20
453.096405
 11
-118.07221950000007
 21
454.14999399999999
  0
ARC
  8
_0-0_0
  6
CONTINUOUS
 62
    7
 10
-118.24250849999999
 20
453.02328499999999
 40
0.1734209999999999
 50
269.35085600000002
 51
358.87625300000002
  0
LINE
  8
_0-0_0
  6
CONTINUOUS
 62
    7
 10
-118.06817650000005
 20
453.04998799999998
 11
-118.06825250000009
 21
453.01986699999998
  0
LINE
  8
_0-0_0
  6
CONTINUOUS
 62
    7
 10
-118.06817650000005
 20
472.84997600000003
 11
-118.06825250000009
 21
472.88012700000002
  0
ARC
  8
_0-0_0
  6
CONTINUOUS
 62
    7
 10
-118.24250849999999
 20
472.87670900000001
 40
0.1734219999999999
 50
1.1236539999999999
 51
90.649110000000007
  0
LINE
  8
_0-0_0
  6
CONTINUOUS
 62
    7
 10
-122.57221950000007
 20
452.84997600000003
 11
-122.75396750000004
 21
452.84997600000003
  0
LINE
  8
_0-0_0
  6
CONTINUOUS
 62
    7
 10
-122.75396750000004
 20
452.84997600000003
 11
-122.77430750000008
 21
452.84896900000001
  0
LINE
  8
_0-0_0
  6
CONTINUOUS
 62
    7
 10
-122.77430750000008
 20
452.84896900000001
 11
-122.79472350000003
 21
452.84582499999999
  0
LINE
  8
_0-0_0
  6
CONTINUOUS
 62
    7
 10
-122.79472350000003
 20
452.84582499999999
 11
-122.82153349999999
 21
452.83822600000002
  0
LINE
  8
_0-0_0
  6
CONTINUOUS
 62
    7
 10
-122.82153349999999
 20
452.83822600000002
 11
-122.84718350000003
 21
452.82687399999998
  0
LINE
  8
_0-0_0
  6
CONTINUOUS
 62
    7
 10
-122.84718350000003
 20
452.82687399999998
 11
-122.87098750000007
 21
452.811981
  0
LINE
  8
_0-0_0
  6
CONTINUOUS
 62
    7
 10
-122.87098750000007
 20
452.811981
 11
-122.88774150000006
 21
452.79846199999997
  0
LINE
  8
_0-0_0
  6
CONTINUOUS
 62
    7
 10
-122.88774150000006
 20
452.79846199999997
 11
-122.90324450000003
 21
452.78326399999997
  0
LINE
  8
_0-0_0
  6
CONTINUOUS
 62
    7
 10
-122.90324450000003
 20
452.78326399999997
 11
-122.93014549999998
 21
452.74859600000002
  0
LINE
  8
_0-0_0
  6
CONTINUOUS
 62
    7
 10
-122.93014549999998
 20
452.74859600000002
 11
-122.95118750000006
 21
452.71026599999999
  0
LINE
  8
_0-0_0
  6
CONTINUOUS
 62
    7
 10
-122.95118750000006
 20
452.71026599999999
 11
-122.96318050000002
 21
452.68035900000001
  0
LINE
  8
_0-0_0
  6
CONTINUOUS
 62
    7
 10
-122.96318050000002
 20
452.68035900000001
 11
-122.97221350000007
 21
452.64999399999999
  0
ARC
  8
_0-0_0
  6
CONTINUOUS
 62
    7
 10
-122.57221950000007
 20
450.14999399999999
 40
0.5
 50
179.99999099999999
 51
269.99999700000001
  0
ARC
  8
_0-0_0
  6
CONTINUOUS
 62
    7
 10
-118.27221650000001
 20
449.44998199999998
 40
0.2
 50
0
 51
90.000003000000007
  0
LINE
  8
_0-0_0
  6
CONTINUOUS
 62
    7
 10
-118.07221950000007
 20
449.25
 11
-117.57221950000007
 21
448.75
  0
ARC
  8
_0-0_0
  6
CONTINUOUS
 62
    7
 10
-134.74766550000004
 20
471.75
 40
2
 50
90.000003000000007
 51
108.434997
  0
LINE
  8
_0-0_0
  6
CONTINUOUS
 62
    7
 10
-130.07221950000007
 20
471.25
 11
-130.07221950000007
 21
471.75
  0
LINE
  8
_0-0_0
  6
CONTINUOUS
 62
    7
 10
-130.07221950000007
 20
468.25
 11
-130.07221950000007
 21
467.75
  0
LINE
  8
_0-0_0
  6
CONTINUOUS
 62
    7
 10
-130.07221950000007
 20
468.25
 11
-130.07221950000007
 21
471.25
  0
ARC
  8
_0-0_0
  6
CONTINUOUS
 62
    7
 10
-124.0722045
 20
468.44998199999998
 40
0.500016
 50
0.001164
 51
179.99560600000004
  0
LINE
  8
_0-0_0
  6
CONTINUOUS
 62
    7
 10
-124.57221950000007
 20
468.44998199999998
 11
-124.57221950000007
 21
456.44998199999998
  0
ARC
  8
_0-0_0
  6
CONTINUOUS
 62
    7
 10
-124.0722045
 20
456.45001200000002
 40
0.500016
 50
180.00117
 51
359.995611
  0
LINE
  8
_0-0_0
  6
CONTINUOUS
 62
    7
 10
-123.57221950000007
 20
468.44998199999998
 11
-123.57221950000007
 21
456.44998199999998
  0
ARC
  8
_0-0_0
  6
CONTINUOUS
 62
    7
 10
-125.5722045
 20
468.44998199999998
 40
0.500016
 50
0.001164
 51
179.99560600000004
  0
LINE
  8
_0-0_0
  6
CONTINUOUS
 62
    7
 10
-126.07221950000007
 20
468.44998199999998
 11
-126.07221950000007
 21
456.44998199999998
  0
ARC
  8
_0-0_0
  6
CONTINUOUS
 62
    7
 10
-125.5722045
 20
456.45001200000002
 40
0.500016
 50
180.00117
 51
359.995611
  0
LINE
  8
_0-0_0
  6
CONTINUOUS
 62
    7
 10
-125.07221950000007
 20
468.44998199999998
 11
-125.07221950000007
 21
456.44998199999998
  0
ARC
  8
_0-0_0
  6
CONTINUOUS
 62
    7
 10
-127.0722045
 20
468.44998199999998
 40
0.500016
 50
0.001164
 51
179.99560600000004
  0
LINE
  8
_0-0_0
  6
CONTINUOUS
 62
    7
 10
-127.57221950000007
 20
468.44998199999998
 11
-127.57221950000007
 21
456.44998199999998
  0
ARC
  8
_0-0_0
  6
CONTINUOUS
 62
    7
 10
-127.0722045
 20
456.45001200000002
 40
0.500016
 50
180.00117
 51
359.995611
  0
LINE
  8
_0-0_0
  6
CONTINUOUS
 62
    7
 10
-126.57221950000007
 20
468.44998199999998
 11
-126.57221950000007
 21
456.44998199999998
  0
ARC
  8
_0-0_0
  6
CONTINUOUS
 62
    7
 10
-128.5722045
 20
468.44998199999998
 40
0.500016
 50
0.001164
 51
179.99560600000004
  0
LINE
  8
_0-0_0
  6
CONTINUOUS
 62
    7
 10
-129.07221950000007
 20
468.44998199999998
 11
-129.07221950000007
 21
456.44998199999998
  0
ARC
  8
_0-0_0
  6
CONTINUOUS
 62
    7
 10
-128.5722045
 20
456.45001200000002
 40
0.500016
 50
180.00117
 51
359.995611
  0
LINE
  8
_0-0_0
  6
CONTINUOUS
 62
    7
 10
-128.07221950000007
 20
468.44998199999998
 11
-128.07221950000007
 21
456.44998199999998
  0
LINE
  8
_0-0_0
  6
CONTINUOUS
 62
    7
 10
-32.072219500000074
 20
474.44998199999998
 11
-31.572219500000074
 21
474.44998199999998
  0
LINE
  8
_0-0_0
  6
CONTINUOUS
 62
    7
 10
-31.572219500000074
 20
474.44998199999998
 11
-19.072219500000074
 21
474.44998199999998
  0
ARC
  8
_0-0_0
  6
CONTINUOUS
 62
    7
 10
-31.572219500000074
 20
474.94998199999998
 40
0.5
 50
179.99999099999999
 51
269.99999700000001
  0
LINE
  8
_0-0_0
  6
CONTINUOUS
 62
    7
 10
-32.072219500000074
 20
474.08395400000001
 11
-32.072219500000074
 21
474.44998199999998
  0
LINE
  8
_0-0_0
  6
CONTINUOUS
 62
    7
 10
-32.072219500000074
 20
473.83346599999999
 11
-32.072219500000074
 21
473.79998799999998
  0
LINE
  8
_0-0_0
  6
CONTINUOUS
 62
    7
 10
-32.072219500000074
 20
474.08395400000001
 11
-32.072219500000074
 21
473.83346599999999
  0
CIRCLE
  8
_0-0_0
  6
CONTINUOUS
 62
    7
 10
-113.07221950000007
 20
474.75
 40
1.4750000000000001
  0
CIRCLE
  8
_0-0_0
  6
CONTINUOUS
 62
    7
 10
-34.072219500000074
 20
474.75
 40
1.4750000000000001
  0
LINE
  8
_0-0_0
  6
CONTINUOUS
 62
    7
 10
-32.072219500000074
 20
449.09997600000003
 11
-32.072219500000074
 21
449.25
  0
LINE
  8
_0-0_0
  6
CONTINUOUS
 62
    7
 10
-26.572219500000074
 20
449.09997600000003
 11
-32.072219500000074
 21
449.09997600000003
  0
LINE
  8
_0-0_0
  6
CONTINUOUS
 62
    7
 10
-26.572219500000074
 20
451.64999399999999
 11
-27.072219500000074
 21
451.64999399999999
  0
LINE
  8
_0-0_0
  6
CONTINUOUS
 62
    7
 10
-31.572219500000074
 20
474.29998799999998
 11
-32.072219500000074
 21
473.79998799999998
  0
LINE
  8
_0-0_0
  6
CONTINUOUS
 62
    7
 10
-31.572219500000074
 20
474.29998799999998
 11
-26.572219500000074
 21
474.29998799999998
  0
LINE
  8
_0-0_0
  6
CONTINUOUS
 62
    7
 10
-123.06102050000004
 20
452.14999399999999
 11
-134.74766550000004
 21
452.14999399999999
  0
LINE
  8
_0-0_0
  6
CONTINUOUS
 62
    7
 10
-135.82221950000007
 20
473.49996900000002
 11
-135.38012750000007
 21
473.64733899999999
  0
LINE
  8
_0-0_0
  6
CONTINUOUS
 62
    7
 10
-139.54656950000003
 20
468.25
 11
-140.23992950000002
 21
468.25
  0
LINE
  8
_0-0_0
  6
CONTINUOUS
 62
    7
 10
-139.54656950000003
 20
468.25
 11
-135.22200050000004
 21
468.25
  0
LINE
  8
_0-0_0
  6
CONTINUOUS
 62
    7
 10
-134.74766550000004
 20
468.25
 11
-135.22200050000004
 21
468.25
  0
LINE
  8
_0-0_0
  6
CONTINUOUS
 62
    7
 10
-130.07221950000007
 20
468.25
 11
-134.74766550000004
 21
468.25
  0
LINE
  8
_0-0_0
  6
CONTINUOUS
 62
    7
 10
-32.072219500000074
 20
448.953552
 11
-32.072219500000074
 21
449.09997600000003
  0
LINE
  8
_0-0_0
  6
CONTINUOUS
 62
    7
 10
-32.072219500000074
 20
448.89642300000003
 11
-32.072219500000074
 21
448.953552
  0
LINE
  8
_0-0_0
  6
CONTINUOUS
 62
    7
 10
-32.072219500000074
 20
448.75
 11
-32.072219500000074
 21
448.89642300000003
  0
ARC
  8
_0-0_0
  6
CONTINUOUS
 62
    7
 10
-26.572219500000074
 20
449.59997600000003
 40
0.5
 50
269.99999700000001
 51
0
  0
LINE
  8
_0-0_0
  6
CONTINUOUS
 62
    7
 10
-26.072219500000074
 20
451.15570100000002
 11
-26.072219500000074
 21
449.59997600000003
  0
ARC
  8
_0-0_0
  6
CONTINUOUS
 62
    7
 10
-26.559127500000045
 20
451.15234400000003
 40
0.4869939999999999
 50
0.394923
 51
23.93947
  0
ARC
  8
_0-0_0
  6
CONTINUOUS
 62
    7
 10
-26.572219500000074
 20
451.14999399999999
 40
0.5
 50
23.578231000000002
 51
90.000002999999992
  0
LINE
  8
_0-0_0
  6
CONTINUOUS
 62
    7
 10
-26.072219500000074
 20
471.29998799999998
 11
-26.072219500000074
 21
473.79998799999998
  0
ARC
  8
_0-0_0
  6
CONTINUOUS
 62
    7
 10
-26.572219500000074
 20
473.79998799999998
 40
0.5
 50
0
 51
90.000003000000007
  0
LINE
  8
_0-0_0
  6
CONTINUOUS
 62
    7
 10
-26.572219500000074
 20
458
 11
-28.77223250000003
 21
458
  0
LINE
  8
_0-0_0
  6
CONTINUOUS
 62
    7
 10
-26.072219500000074
 20
471.29998799999998
 11
-26.072219500000074
 21
458.5
  0
LINE
  8
_0-0_0
  6
CONTINUOUS
 62
    7
 10
-29.072219500000074
 20
457.69998199999998
 11
-29.072219500000074
 21
455.12167399999998
  0
LINE
  8
_0-0_0
  6
CONTINUOUS
 62
    7
 10
-99.100677500000074
 20
464.14999399999999
 11
-107.04376250000007
 21
464.14999399999999
  0
ARC
  8
_0-0_0
  6
CONTINUOUS
 62
    7
 10
-107.04376250000007
 20
464.64999399999999
 40
0.5
 50
210.00000299999999
 51
269.99999700000001
  0
LINE
  8
_0-0_0
  6
CONTINUOUS
 62
    7
 10
-107.47677650000003
 20
464.39999399999999
 11
-109.55523650000009
 21
468
  0
ARC
  8
_0-0_0
  6
CONTINUOUS
 62
    7
 10
-109.12222350000002
 20
468.25
 40
0.5
 50
149.99999700000001
 51
210.00000299999996
  0
LINE
  8
_0-0_0
  6
CONTINUOUS
 62
    7
 10
-109.55523650000009
 20
468.5
 11
-107.47677650000003
 21
472.09997600000003
  0
ARC
  8
_0-0_0
  6
CONTINUOUS
 62
    7
 10
-107.04376250000007
 20
471.84997600000003
 40
0.5
 50
90.000003000000007
 51
149.99999700000001
  0
LINE
  8
_0-0_0
  6
CONTINUOUS
 62
    7
 10
-107.04376250000007
 20
472.34997600000003
 11
-99.100677500000074
 21
472.34997600000003
  0
ARC
  8
_0-0_0
  6
CONTINUOUS
 62
    7
 10
-99.100677500000074
 20
471.84997600000003
 40
0.5
 50
30.000001000000001
 51
90.000003000000007
  0
LINE
  8
_0-0_0
  6
CONTINUOUS
 62
    7
 10
-98.667663500000003
 20
472.09997600000003
 11
-96.589203500000053
 21
468.5
  0
ARC
  8
_0-0_0
  6
CONTINUOUS
 62
    7
 10
-97.022216500000013
 20
468.25
 40
0.5
 50
329.99998900000003
 51
30.000000999999983
  0
LINE
  8
_0-0_0
  6
CONTINUOUS
 62
    7
 10
-96.589203500000053
 20
468
 11
-98.667663500000003
 21
464.39999399999999
  0
ARC
  8
_0-0_0
  6
CONTINUOUS
 62
    7
 10
-99.100677500000074
 20
464.64999399999999
 40
0.5
 50
269.99999700000001
 51
329.99998900000003
  0
ARC
  8
_0-0_0
  6
CONTINUOUS
 62
    7
 10
-51.101486500000078
 20
464.75
 40
0.5
 50
210.00000299999999
 51
269.99999700000001
  0
LINE
  8
_0-0_0
  6
CONTINUOUS
 62
    7
 10
-51.534500500000036
 20
464.5
 11
-53.555221500000016
 21
468
  0
ARC
  8
_0-0_0
  6
CONTINUOUS
 62
    7
 10
-53.122238500000037
 20
468.25
 40
0.5
 50
149.99999700000001
 51
210.00000299999996
  0
LINE
  8
_0-0_0
  6
CONTINUOUS
 62
    7
 10
-53.555221500000016
 20
468.5
 11
-51.534500500000036
 21
472
  0
ARC
  8
_0-0_0
  6
CONTINUOUS
 62
    7
 10
-51.101486500000078
 20
471.75
 40
0.5
 50
90.000003000000007
 51
149.99999700000001
  0
LINE
  8
_0-0_0
  6
CONTINUOUS
 62
    7
 10
-51.101486500000078
 20
472.25
 11
-43.042953500000067
 21
472.25
  0
ARC
  8
_0-0_0
  6
CONTINUOUS
 62
    7
 10
-43.042953500000067
 20
471.75
 40
0.5
 50
30.000001000000001
 51
90.000003000000007
  0
LINE
  8
_0-0_0
  6
CONTINUOUS
 62
    7
 10
-42.609939500000053
 20
472
 11
-40.589218500000015
 21
468.5
  0
ARC
  8
_0-0_0
  6
CONTINUOUS
 62
    7
 10
-41.02223250000003
 20
468.25
 40
0.5
 50
329.99998900000003
 51
30.000000999999983
  0
LINE
  8
_0-0_0
  6
CONTINUOUS
 62
    7
 10
-40.589218500000015
 20
468
 11
-42.609939500000053
 21
464.5
  0
ARC
  8
_0-0_0
  6
CONTINUOUS
 62
    7
 10
-43.042953500000067
 20
464.75
 40
0.5
 50
269.99999700000001
 51
329.99998900000003
  0
LINE
  8
_0-0_0
  6
CONTINUOUS
 62
    7
 10
-43.042953500000067
 20
464.25
 11
-51.101486500000078
 21
464.25
  0
LINE
  8
_0-0_0
  6
CONTINUOUS
 62
    7
 10
-135.38012750000007
 20
452.25262500000002
 11
-135.26063550000003
 21
452.21701000000002
  0
LINE
  8
_0-0_0
  6
CONTINUOUS
 62
    7
 10
-135.26063550000003
 20
452.21701000000002
 11
-135.13906850000001
 21
452.18911700000001
  0
LINE
  8
_0-0_0
  6
CONTINUOUS
 62
    7
 10
-135.13906850000001
 20
452.18911700000001
 11
-135.01594550000004
 21
452.16906699999998
  0
LINE
  8
_0-0_0
  6
CONTINUOUS
 62
    7
 10
-135.01594550000004
 20
452.16906699999998
 11
-134.89172350000001
 21
452.15695199999999
  0
LINE
  8
_0-0_0
  6
CONTINUOUS
 62
    7
 10
-134.89172350000001
 20
452.15695199999999
 11
-134.76689150000004
 21
452.15283199999999
  0
LINE
  8
_0-0_0
  6
CONTINUOUS
 62
    7
 10
-134.76689150000004
 20
452.15283199999999
 11
-134.74766550000004
 21
452.15289300000001
  0
ARC
  8
_0-0_0
  6
CONTINUOUS
 62
    7
 10
-134.74766550000004
 20
454.14999399999999
 40
2
 50
251.56498899999997
 51
269.99999700000001
  0
LINE
  8
_0-0_0
  6
CONTINUOUS
 62
    7
 10
-141.07221950000007
 20
469.00003099999998
 11
-141.07221950000007
 21
467.87899800000002
  0
LINE
  8
_0-0_0
  6
CONTINUOUS
 62
    7
 10
-112.87222350000002
 20
473.64999399999999
 11
-113.27221650000001
 21
473.64999399999999
  0
LINE
  8
_0-0_0
  6
CONTINUOUS
 62
    7
 10
-112.87222350000002
 20
473.64999399999999
 11
-112.87222350000002
 21
474.29998799999998
  0
ARC
  8
_0-0_0
  6
CONTINUOUS
 62
    7
 10
-112.62222350000002
 20
474.29998799999998
 40
0.25
 50
90.000003000000007
 51
179.99999099999999
  0
LINE
  8
_0-0_0
  6
CONTINUOUS
 62
    7
 10
-112.62222350000002
 20
474.54998799999998
 11
-111.97221350000007
 21
474.54998799999998
  0
LINE
  8
_0-0_0
  6
CONTINUOUS
 62
    7
 10
-111.97221350000007
 20
474.54998799999998
 11
-111.97221350000007
 21
474.94998199999998
  0
LINE
  8
_0-0_0
  6
CONTINUOUS
 62
    7
 10
-112.62222350000002
 20
474.94998199999998
 11
-111.97221350000007
 21
474.94998199999998
  0
ARC
  8
_0-0_0
  6
CONTINUOUS
 62
    7
 10
-112.62222350000002
 20
475.19998199999998
 40
0.25
 50
179.99999099999999
 51
269.99999700000001
  0
LINE
  8
_0-0_0
  6
CONTINUOUS
 62
    7
 10
-112.87222350000002
 20
475.84997600000003
 11
-112.87222350000002
 21
475.19998199999998
  0
LINE
  8
_0-0_0
  6
CONTINUOUS
 62
    7
 10
-112.87222350000002
 20
475.84997600000003
 11
-113.27221650000001
 21
475.84997600000003
  0
LINE
  8
_0-0_0
  6
CONTINUOUS
 62
    7
 10
-113.27221650000001
 20
475.84997600000003
 11
-113.27221650000001
 21
475.19998199999998
  0
ARC
  8
_0-0_0
  6
CONTINUOUS
 62
    7
 10
-113.52221650000001
 20
475.19998199999998
 40
0.25
 50
269.99999700000001
 51
0
  0
LINE
  8
_0-0_0
  6
CONTINUOUS
 62
    7
 10
-113.52221650000001
 20
474.94998199999998
 11
-114.17222650000008
 21
474.94998199999998
  0
LINE
  8
_0-0_0
  6
CONTINUOUS
 62
    7
 10
-114.17222650000008
 20
474.54998799999998
 11
-114.17222650000008
 21
474.94998199999998
  0
LINE
  8
_0-0_0
  6
CONTINUOUS
 62
    7
 10
-113.52221650000001
 20
474.54998799999998
 11
-114.17222650000008
 21
474.54998799999998
  0
ARC
  8
_0-0_0
  6
CONTINUOUS
 62
    7
 10
-113.52221650000001
 20
474.29998799999998
 40
0.25
 50
0
 51
90.000003000000007
  0
LINE
  8
_0-0_0
  6
CONTINUOUS
 62
    7
 10
-113.27221650000001
 20
473.64999399999999
 11
-113.27221650000001
 21
474.29998799999998
  0
LINE
  8
_0-0_0
  6
CONTINUOUS
 62
    7
 10
-33.872238500000037
 20
473.64999399999999
 11
-34.27223250000003
 21
473.64999399999999
  0
LINE
  8
_0-0_0
  6
CONTINUOUS
 62
    7
 10
-33.872238500000037
 20
473.64999399999999
 11
-33.872238500000037
 21
474.29998799999998
  0
ARC
  8
_0-0_0
  6
CONTINUOUS
 62
    7
 10
-33.622238500000037
 20
474.29998799999998
 40
0.25
 50
90.000003000000007
 51
179.99999099999999
  0
LINE
  8
_0-0_0
  6
CONTINUOUS
 62
    7
 10
-33.622238500000037
 20
474.54998799999998
 11
-32.972213500000066
 21
474.54998799999998
  0
LINE
  8
_0-0_0
  6
CONTINUOUS
 62
    7
 10
-32.972213500000066
 20
474.54998799999998
 11
-32.972213500000066
 21
474.94998199999998
  0
LINE
  8
_0-0_0
  6
CONTINUOUS
 62
    7
 10
-33.622238500000037
 20
474.94998199999998
 11
-32.972213500000066
 21
474.94998199999998
  0
ARC
  8
_0-0_0
  6
CONTINUOUS
 62
    7
 10
-33.622238500000037
 20
475.19998199999998
 40
0.25
 50
179.99999099999999
 51
269.99999700000001
  0
LINE
  8
_0-0_0
  6
CONTINUOUS
 62
    7
 10
-33.872238500000037
 20
475.84997600000003
 11
-33.872238500000037
 21
475.19998199999998
  0
LINE
  8
_0-0_0
  6
CONTINUOUS
 62
    7
 10
-33.872238500000037
 20
475.84997600000003
 11
-34.27223250000003
 21
475.84997600000003
  0
LINE
  8
_0-0_0
  6
CONTINUOUS
 62
    7
 10
-34.27223250000003
 20
475.84997600000003
 11
-34.27223250000003
 21
475.19998199999998
  0
ARC
  8
_0-0_0
  6
CONTINUOUS
 62
    7
 10
-34.52223250000003
 20
475.19998199999998
 40
0.25
 50
269.99999700000001
 51
0
  0
LINE
  8
_0-0_0
  6
CONTINUOUS
 62
    7
 10
-34.52223250000003
 20
474.94998199999998
 11
-35.172226500000079
 21
474.94998199999998
  0
LINE
  8
_0-0_0
  6
CONTINUOUS
 62
    7
 10
-35.172226500000079
 20
474.54998799999998
 11
-35.172226500000079
 21
474.94998199999998
  0
LINE
  8
_0-0_0
  6
CONTINUOUS
 62
    7
 10
-34.52223250000003
 20
474.54998799999998
 11
-35.172226500000079
 21
474.54998799999998
  0
ARC
  8
_0-0_0
  6
CONTINUOUS
 62
    7
 10
-34.52223250000003
 20
474.29998799999998
 40
0.25
 50
0
 51
90.000003000000007
  0
LINE
  8
_0-0_0
  6
CONTINUOUS
 62
    7
 10
-34.27223250000003
 20
473.64999399999999
 11
-34.27223250000003
 21
474.29998799999998
  0
LINE
  8
_0-0_0
  6
CONTINUOUS
 62
    7
 10
-26.572219500000074
 20
448.75
 11
-32.072219500000074
 21
448.75
  0
LINE
  8
_0-0_0
  6
CONTINUOUS
 62
    7
 10
-26.072219500000074
 20
455
 11
-26.072219500000074
 21
458.5
  0
LINE
  8
_0-0_0
  6
CONTINUOUS
 62
    7
 10
-26.072219500000074
 20
455
 11
-26.072219500000074
 21
454.64999399999999
  0
LINE
  8
_0-0_0
  6
CONTINUOUS
 62
    7
 10
-26.072219500000074
 20
451.15570100000002
 11
-26.072219500000074
 21
454.64999399999999
  0
LINE
  8
_0-0_0
  6
CONTINUOUS
 62
    7
 10
-26.072219500000074
 20
449.307098
 11
-26.072219500000074
 21
449.59997600000003
  0
LINE
  8
_0-0_0
  6
CONTINUOUS
 62
    7
 10
-26.072219500000074
 20
449.307098
 11
-26.072219500000074
 21
449.25
  0
LINE
  8
_0-0_0
  6
CONTINUOUS
 62
    7
 10
-29.072219500000074
 20
453.57128899999998
 11
-29.072219500000074
 21
455.12167399999998
  0
LINE
  8
_0-0_0
  6
CONTINUOUS
 62
    7
 10
-29.072219500000074
 20
452.85012799999998
 11
-29.072219500000074
 21
453.57128899999998
  0
ARC
  8
_0-0_0
  6
CONTINUOUS
 62
    7
 10
-26.572219500000074
 20
458.5
 40
0.5
 50
269.99999700000001
 51
0
  0
ARC
  8
_0-0_0
  6
CONTINUOUS
 62
    7
 10
-28.77223250000003
 20
457.69998199999998
 40
0.2999999999999999
 50
90.000003000000007
 51
179.99999099999999
  0
LINE
  8
_0-0_0
  6
CONTINUOUS
 62
    7
 10
-139.70468150000011
 20
453.69415299999997
 11
-135.38012750000007
 21
452.25262500000002
  0
LINE
  8
_0-0_0
  6
CONTINUOUS
 62
    7
 10
-141.07221950000007
 20
455.59149200000002
 11
-141.07221950000007
 21
458.94229100000001
  0
LINE
  8
_0-0_0
  6
CONTINUOUS
 62
    7
 10
-141.07221950000007
 20
466.957672
 11
-141.07221950000007
 21
467.87899800000002
  0
ARC
  8
_0-0_0
  6
CONTINUOUS
 62
    7
 10
-139.07221950000007
 20
455.59149200000002
 40
2
 50
179.99999099999999
 51
251.56498899999997
  0
LINE
  8
_0-0_0
  6
CONTINUOUS
 62
    7
 10
-156.07222350000006
 20
472.47543300000001
 11
-156.07222350000006
 21
472.32870500000001
  0
LINE
  8
_0-0_0
  6
CONTINUOUS
 62
    7
 10
-156.07222350000006
 20
472.665955
 11
-156.07222350000006
 21
472.47543300000001
  0
LINE
  8
_0-0_0
  6
CONTINUOUS
 62
    7
 10
-156.07222350000006
 20
472.84097300000002
 11
-156.07222350000006
 21
472.665955
  0
LINE
  8
_0-0_0
  6
CONTINUOUS
 62
    7
 10
-156.07222350000006
 20
472.99856599999998
 11
-156.07222350000006
 21
472.84097300000002
  0
LINE
  8
_0-0_0
  6
CONTINUOUS
 62
    7
 10
-156.07222350000006
 20
473.13699300000002
 11
-156.07222350000006
 21
472.99856599999998
  0
LINE
  8
_0-0_0
  6
CONTINUOUS
 62
    7
 10
-156.07222350000006
 20
473.25476099999997
 11
-156.07222350000006
 21
473.13699300000002
  0
LINE
  8
_0-0_0
  6
CONTINUOUS
 62
    7
 10
-156.07222350000006
 20
473.350525
 11
-156.07222350000006
 21
473.25476099999997
  0
LINE
  8
_0-0_0
  6
CONTINUOUS
 62
    7
 10
-156.07222350000006
 20
473.42330900000002
 11
-156.07222350000006
 21
473.350525
  0
LINE
  8
_0-0_0
  6
CONTINUOUS
 62
    7
 10
-156.07222350000006
 20
473.5
 11
-156.07222350000006
 21
473.42330900000002
  0
LINE
  8
_0-0_0
  6
CONTINUOUS
 62
    7
 10
-156.07222350000006
 20
473.49688700000002
 11
-156.07222350000006
 21
473.47228999999999
  0
LINE
  8
_0-0_0
  6
CONTINUOUS
 62
    7
 10
-156.07222350000006
 20
473.5
 11
-156.07222350000006
 21
473.49688700000002
  0
LINE
  8
_0-0_0
  6
CONTINUOUS
 62
    7
 10
-156.07222350000006
 20
469.00305200000003
 11
-156.07222350000006
 21
469
  0
LINE
  8
_0-0_0
  6
CONTINUOUS
 62
    7
 10
-156.07222350000006
 20
469.02767899999998
 11
-156.07222350000006
 21
469.00305200000003
  0
LINE
  8
_0-0_0
  6
CONTINUOUS
 62
    7
 10
-156.07222350000006
 20
469.07666
 11
-156.07222350000006
 21
469
  0
LINE
  8
_0-0_0
  6
CONTINUOUS
 62
    7
 10
-156.07222350000006
 20
469.14941399999998
 11
-156.07222350000006
 21
469.07666
  0
LINE
  8
_0-0_0
  6
CONTINUOUS
 62
    7
 10
-156.07222350000006
 20
469.24520899999999
 11
-156.07222350000006
 21
469.14941399999998
  0
LINE
  8
_0-0_0
  6
CONTINUOUS
 62
    7
 10
-156.07222350000006
 20
469.27542099999999
 11
-156.07222350000006
 21
469.24520899999999
  0
LINE
  8
_0-0_0
  6
CONTINUOUS
 62
    7
 10
-156.07222350000006
 20
469.362976
 11
-156.07222350000006
 21
469.27542099999999
  0
LINE
  8
_0-0_0
  6
CONTINUOUS
 62
    7
 10
-156.07222350000006
 20
469.50140399999998
 11
-156.07222350000006
 21
469.362976
  0
LINE
  8
_0-0_0
  6
CONTINUOUS
 62
    7
 10
-156.07222350000006
 20
469.658997
 11
-156.07222350000006
 21
469.50140399999998
  0
LINE
  8
_0-0_0
  6
CONTINUOUS
 62
    7
 10
-156.07222350000006
 20
469.83401500000002
 11
-156.07222350000006
 21
469.658997
  0
LINE
  8
_0-0_0
  6
CONTINUOUS
 62
    7
 10
-156.07222350000006
 20
470.02453600000001
 11
-156.07222350000006
 21
469.83401500000002
  0
LINE
  8
_0-0_0
  6
CONTINUOUS
 62
    7
 10
-156.07222350000006
 20
470.22851600000001
 11
-156.07222350000006
 21
470.02453600000001
  0
LINE
  8
_0-0_0
  6
CONTINUOUS
 62
    7
 10
-156.07222350000006
 20
470.44366500000001
 11
-156.07222350000006
 21
470.22851600000001
  0
LINE
  8
_0-0_0
  6
CONTINUOUS
 62
    7
 10
-156.07222350000006
 20
470.66763300000002
 11
-156.07222350000006
 21
470.44366500000001
  0
LINE
  8
_0-0_0
  6
CONTINUOUS
 62
    7
 10
-156.07222350000006
 20
470.89801
 11
-156.07222350000006
 21
470.66763300000002
  0
LINE
  8
_0-0_0
  6
CONTINUOUS
 62
    7
 10
-156.07222350000006
 20
471.13223299999999
 11
-156.07222350000006
 21
470.89801
  0
LINE
  8
_0-0_0
  6
CONTINUOUS
 62
    7
 10
-156.07222350000006
 20
471.36773699999998
 11
-156.07222350000006
 21
471.13223299999999
  0
LINE
  8
_0-0_0
  6
CONTINUOUS
 62
    7
 10
-156.07222350000006
 20
471.60195900000002
 11
-156.07222350000006
 21
471.36773699999998
  0
LINE
  8
_0-0_0
  6
CONTINUOUS
 62
    7
 10
-156.07222350000006
 20
471.832336
 11
-156.07222350000006
 21
471.60195900000002
  0
LINE
  8
_0-0_0
  6
CONTINUOUS
 62
    7
 10
-156.07222350000006
 20
472.05630500000001
 11
-156.07222350000006
 21
471.832336
  0
LINE
  8
_0-0_0
  6
CONTINUOUS
 62
    7
 10
-156.07222350000006
 20
472.27145400000001
 11
-156.07222350000006
 21
472.05630500000001
  0
LINE
  8
_0-0_0
  6
CONTINUOUS
 62
    7
 10
-156.07222350000006
 20
472.32870500000001
 11
-156.07222350000006
 21
472.27145400000001
  0
LINE
  8
_0-0_0
  6
CONTINUOUS
 62
    7
 10
-140.77221650000001
 20
465.16198700000001
 11
-140.83100950000005
 21
465.40881300000001
  0
LINE
  8
_0-0_0
  6
CONTINUOUS
 62
    7
 10
-140.83100950000005
 20
465.40881300000001
 11
-140.88078350000001
 21
465.601135
  0
LINE
  8
_0-0_0
  6
CONTINUOUS
 62
    7
 10
-140.88078350000001
 20
465.601135
 11
-140.95191950000003
 21
465.86694299999999
  0
LINE
  8
_0-0_0
  6
CONTINUOUS
 62
    7
 10
-140.95191950000003
 20
465.86694299999999
 11
-140.98487850000004
 21
465.993652
  0
LINE
  8
_0-0_0
  6
CONTINUOUS
 62
    7
 10
-140.98487850000004
 20
465.993652
 11
-141.01013150000006
 21
466.09707600000002
  0
LINE
  8
_0-0_0
  6
CONTINUOUS
 62
    7
 10
-141.01013150000006
 20
466.09707600000002
 11
-141.03216550000002
 21
466.19702100000001
  0
LINE
  8
_0-0_0
  6
CONTINUOUS
 62
    7
 10
-141.03216550000002
 20
466.19702100000001
 11
-141.05354350000005
 21
466.314728
  0
LINE
  8
_0-0_0
  6
CONTINUOUS
 62
    7
 10
-141.05354350000005
 20
466.314728
 11
-141.0621185
 21
466.37686200000002
  0
LINE
  8
_0-0_0
  6
CONTINUOUS
 62
    7
 10
-141.0621185
 20
466.37686200000002
 11
-141.06819150000001
 21
466.43746900000002
  0
LINE
  8
_0-0_0
  6
CONTINUOUS
 62
    7
 10
-141.06819150000001
 20
466.43746900000002
 11
-141.07119750000004
 21
466.486694
  0
LINE
  8
_0-0_0
  6
CONTINUOUS
 62
    7
 10
-141.07119750000004
 20
466.486694
 11
-141.07221950000007
 21
466.53491200000002
  0
LINE
  8
_0-0_0
  6
CONTINUOUS
 62
    7
 10
-140.77221650000001
 20
460.737976
 11
-140.68875150000008
 21
461.11663800000002
  0
LINE
  8
_0-0_0
  6
CONTINUOUS
 62
    7
 10
-140.68875150000008
 20
461.11663800000002
 11
-140.64866649999999
 21
461.30816700000003
  0
LINE
  8
_0-0_0
  6
CONTINUOUS
 62
    7
 10
-140.64866649999999
 20
461.30816700000003
 11
-140.59259050000003
 21
461.598206
  0
LINE
  8
_0-0_0
  6
CONTINUOUS
 62
    7
 10
-140.59259050000003
 20
461.598206
 11
-140.55499250000003
 21
461.81778000000003
  0
LINE
  8
_0-0_0
  6
CONTINUOUS
 62
    7
 10
-140.55499250000003
 20
461.81778000000003
 11
-140.52233850000005
 21
462.03903200000002
  0
LINE
  8
_0-0_0
  6
CONTINUOUS
 62
    7
 10
-140.52233850000005
 20
462.03903200000002
 11
-140.49517850000007
 21
462.26583900000003
  0
LINE
  8
_0-0_0
  6
CONTINUOUS
 62
    7
 10
-140.49517850000007
 20
462.26583900000003
 11
-140.47511350000002
 21
462.493225
  0
LINE
  8
_0-0_0
  6
CONTINUOUS
 62
    7
 10
-140.47511350000002
 20
462.493225
 11
-140.46795650000001
 21
462.606964
  0
LINE
  8
_0-0_0
  6
CONTINUOUS
 62
    7
 10
-140.46795650000001
 20
462.606964
 11
-140.46279950000007
 21
462.720642
  0
LINE
  8
_0-0_0
  6
CONTINUOUS
 62
    7
 10
-140.46279950000007
 20
462.720642
 11
-140.45907650000004
 21
462.87207000000001
  0
LINE
  8
_0-0_0
  6
CONTINUOUS
 62
    7
 10
-140.45907650000004
 20
462.87207000000001
 11
-140.45903050000004
 21
463.02331500000003
  0
LINE
  8
_0-0_0
  6
CONTINUOUS
 62
    7
 10
-140.45903050000004
 20
463.02331500000003
 11
-140.46260050000001
 21
463.17437699999999
  0
LINE
  8
_0-0_0
  6
CONTINUOUS
 62
    7
 10
-140.46260050000001
 20
463.17437699999999
 11
-140.47210749999999
 21
463.36291499999999
  0
LINE
  8
_0-0_0
  6
CONTINUOUS
 62
    7
 10
-140.47210749999999
 20
463.36291499999999
 11
-140.48696949999999
 21
463.55117799999999
  0
LINE
  8
_0-0_0
  6
CONTINUOUS
 62
    7
 10
-140.48696949999999
 20
463.55117799999999
 11
-140.50689750000004
 21
463.739105
  0
LINE
  8
_0-0_0
  6
CONTINUOUS
 62
    7
 10
-140.50689750000004
 20
463.739105
 11
-140.52328550000004
 21
463.86798099999999
  0
LINE
  8
_0-0_0
  6
CONTINUOUS
 62
    7
 10
-140.52328550000004
 20
463.86798099999999
 11
-140.54170250000004
 21
463.99664300000001
  0
LINE
  8
_0-0_0
  6
CONTINUOUS
 62
    7
 10
-140.54170250000004
 20
463.99664300000001
 11
-140.56585749999999
 21
464.14855999999997
  0
LINE
  8
_0-0_0
  6
CONTINUOUS
 62
    7
 10
-140.56585749999999
 20
464.14855999999997
 11
-140.59225450000008
 21
464.29992700000003
  0
LINE
  8
_0-0_0
  6
CONTINUOUS
 62
    7
 10
-140.59225450000008
 20
464.29992700000003
 11
-140.64842250000004
 21
464.59054600000002
  0
LINE
  8
_0-0_0
  6
CONTINUOUS
 62
    7
 10
-140.64842250000004
 20
464.59054600000002
 11
-140.68858350000005
 21
464.78250100000002
  0
LINE
  8
_0-0_0
  6
CONTINUOUS
 62
    7
 10
-140.68858350000005
 20
464.78250100000002
 11
-140.77221650000001
 21
465.16198700000001
  0
LINE
  8
_0-0_0
  6
CONTINUOUS
 62
    7
 10
-140.77221650000001
 20
460.737976
 11
-140.83102450000001
 21
460.49111900000003
  0
LINE
  8
_0-0_0
  6
CONTINUOUS
 62
    7
 10
-140.83102450000001
 20
460.49111900000003
 11
-140.88078350000001
 21
460.29879799999998
  0
LINE
  8
_0-0_0
  6
CONTINUOUS
 62
    7
 10
-140.88078350000001
 20
460.29879799999998
 11
-140.95190450000007
 21
460.033051
  0
LINE
  8
_0-0_0
  6
CONTINUOUS
 62
    7
 10
-140.95190450000007
 20
460.033051
 11
-140.98486350000007
 21
459.906342
  0
LINE
  8
_0-0_0
  6
CONTINUOUS
 62
    7
 10
-140.98486350000007
 20
459.906342
 11
-141.01013150000006
 21
459.80291699999998
  0
LINE
  8
_0-0_0
  6
CONTINUOUS
 62
    7
 10
-141.01013150000006
 20
459.80291699999998
 11
-141.03216550000002
 21
459.70294200000001
  0
LINE
  8
_0-0_0
  6
CONTINUOUS
 62
    7
 10
-141.03216550000002
 20
459.70294200000001
 11
-141.05354350000005
 21
459.58523600000001
  0
LINE
  8
_0-0_0
  6
CONTINUOUS
 62
    7
 10
-141.05354350000005
 20
459.58523600000001
 11
-141.0621185
 21
459.52310199999999
  0
LINE
  8
_0-0_0
  6
CONTINUOUS
 62
    7
 10
-141.0621185
 20
459.52310199999999
 11
-141.06819150000001
 21
459.46249399999999
  0
LINE
  8
_0-0_0
  6
CONTINUOUS
 62
    7
 10
-141.06819150000001
 20
459.46249399999999
 11
-141.07119750000004
 21
459.41326900000001
  0
LINE
  8
_0-0_0
  6
CONTINUOUS
 62
    7
 10
-141.07119750000004
 20
459.41326900000001
 11
-141.07221950000007
 21
459.36505099999999
  0
ARC
  8
_0-0_0
  6
CONTINUOUS
 62
    7
 10
-26.572219500000074
 20
449.25
 40
0.5
 50
269.99999700000001
 51
0
  0
LINE
  8
_0-0_0
  6
CONTINUOUS
 62
    7
 10
-26.616562500000043
 20
453.57128899999998
 11
-26.616562500000043
 21
456.89999399999999
  0
LINE
  8
_0-0_0
  6
CONTINUOUS
 62
    7
 10
-26.616562500000043
 20
452.39999399999999
 11
-26.616562500000043
 21
453.57128899999998
  0
CIRCLE
  8
_0-0_0
  6
CONTINUOUS
 62
    7
 10
-103.07221950000007
 20
468.25
 40
2.5
  0
CIRCLE
  8
_0-0_0
  6
CONTINUOUS
 62
    7
 10
-47.072219500000074
 20
468.25
 40
2.5
  0
LINE
  8
_0-0_0
  6
CONTINUOUS
 62
    7
 10
-141.07221950000007
 20
459.05767800000001
 11
-150.78004850000002
 21
459.05767800000001
  0
LINE
  8
_0-0_0
  6
CONTINUOUS
 62
    7
 10
-150.78004850000002
 20
456.44998199999998
 11
-150.83453050000003
 21
456.51992799999999
  0
LINE
  8
_0-0_0
  6
CONTINUOUS
 62
    7
 10
-150.83453050000003
 20
456.51992799999999
 11
-150.88563150000004
 21
456.58874500000002
  0
LINE
  8
_0-0_0
  6
CONTINUOUS
 62
    7
 10
-150.88563150000004
 20
456.58874500000002
 11
-150.93326950000005
 21
456.65625
  0
LINE
  8
_0-0_0
  6
CONTINUOUS
 62
    7
 10
-150.93326950000005
 20
456.65625
 11
-150.97777150000002
 21
456.72280899999998
  0
LINE
  8
_0-0_0
  6
CONTINUOUS
 62
    7
 10
-150.97777150000002
 20
456.72280899999998
 11
-151.0324895
 21
456.81033300000001
  0
LINE
  8
_0-0_0
  6
CONTINUOUS
 62
    7
 10
-151.0324895
 20
456.81033300000001
 11
-151.08199750000006
 21
456.89645400000001
  0
LINE
  8
_0-0_0
  6
CONTINUOUS
 62
    7
 10
-151.08199750000006
 20
456.89645400000001
 11
-151.1264685000001
 21
456.98126200000002
  0
LINE
  8
_0-0_0
  6
CONTINUOUS
 62
    7
 10
-151.1264685000001
 20
456.98126200000002
 11
-151.1734355000001
 21
457.08160400000003
  0
LINE
  8
_0-0_0
  6
CONTINUOUS
 62
    7
 10
-151.1734355000001
 20
457.08160400000003
 11
-151.21364249999999
 21
457.18051100000002
  0
LINE
  8
_0-0_0
  6
CONTINUOUS
 62
    7
 10
-151.21364249999999
 20
457.18051100000002
 11
-151.24730350000004
 21
457.27825899999999
  0
LINE
  8
_0-0_0
  6
CONTINUOUS
 62
    7
 10
-151.24730350000004
 20
457.27825899999999
 11
-151.27459350000004
 21
457.375092
  0
LINE
  8
_0-0_0
  6
CONTINUOUS
 62
    7
 10
-151.27459350000004
 20
457.375092
 11
-151.29564249999999
 21
457.47113000000002
  0
LINE
  8
_0-0_0
  6
CONTINUOUS
 62
    7
 10
-151.29564249999999
 20
457.47113000000002
 11
-151.31157350000001
 21
457.57498199999998
  0
LINE
  8
_0-0_0
  6
CONTINUOUS
 62
    7
 10
-151.31157350000001
 20
457.57498199999998
 11
-151.32032450000008
 21
457.678406
  0
LINE
  8
_0-0_0
  6
CONTINUOUS
 62
    7
 10
-151.32032450000008
 20
457.678406
 11
-151.32196450000004
 21
457.78164700000002
  0
LINE
  8
_0-0_0
  6
CONTINUOUS
 62
    7
 10
-151.32196450000004
 20
457.78164700000002
 11
-151.31649450000009
 21
457.88494900000001
  0
LINE
  8
_0-0_0
  6
CONTINUOUS
 62
    7
 10
-151.31649450000009
 20
457.88494900000001
 11
-151.30389050000008
 21
457.98852499999998
  0
LINE
  8
_0-0_0
  6
CONTINUOUS
 62
    7
 10
-151.30389050000008
 20
457.98852499999998
 11
-151.28406949999999
 21
458.09268200000002
  0
LINE
  8
_0-0_0
  6
CONTINUOUS
 62
    7
 10
-151.28406949999999
 20
458.09268200000002
 11
-151.25692350000008
 21
458.197632
  0
LINE
  8
_0-0_0
  6
CONTINUOUS
 62
    7
 10
-151.25692350000008
 20
458.197632
 11
-151.22227850000002
 21
458.30367999999999
  0
LINE
  8
_0-0_0
  6
CONTINUOUS
 62
    7
 10
-151.22227850000002
 20
458.30367999999999
 11
-151.17992750000008
 21
458.41104100000001
  0
LINE
  8
_0-0_0
  6
CONTINUOUS
 62
    7
 10
-151.17992750000008
 20
458.41104100000001
 11
-151.12961250000001
 21
458.52005000000003
  0
LINE
  8
_0-0_0
  6
CONTINUOUS
 62
    7
 10
-151.12961250000001
 20
458.52005000000003
 11
-151.07536750000008
 21
458.623199
  0
LINE
  8
_0-0_0
  6
CONTINUOUS
 62
    7
 10
-151.07536750000008
 20
458.623199
 11
-151.01366050000001
 21
458.72824100000003
  0
LINE
  8
_0-0_0
  6
CONTINUOUS
 62
    7
 10
-151.01366050000001
 20
458.72824100000003
 11
-150.9441415
 21
458.83548000000002
  0
LINE
  8
_0-0_0
  6
CONTINUOUS
 62
    7
 10
-150.9441415
 20
458.83548000000002
 11
-150.8664205
 21
458.94519000000003
  0
LINE
  8
_0-0_0
  6
CONTINUOUS
 62
    7
 10
-150.8664205
 20
458.94519000000003
 11
-150.78004850000002
 21
459.05767800000001
  0
LINE
  8
_0-0_0
  6
CONTINUOUS
 62
    7
 10
-141.07221950000007
 20
456.44998199999998
 11
-150.78004850000002
 21
456.44998199999998
  0
LINE
  8
_0-0_0
  6
CONTINUOUS
 62
    7
 10
-141.07221950000007
 20
458.94229100000001
 11
-141.07221950000007
 21
459.05767800000001
  0
LINE
  8
_0-0_0
  6
CONTINUOUS
 62
    7
 10
-150.82222350000006
 20
456.44998199999998
 11
-150.78004850000002
 21
456.44998199999998
  0
LINE
  8
_0-0_0
  6
CONTINUOUS
 62
    7
 10
-141.07221950000007
 20
466.842285
 11
-150.78004850000002
 21
466.842285
  0
LINE
  8
_0-0_0
  6
CONTINUOUS
 62
    7
 10
-141.07221950000007
 20
466.957672
 11
-141.07221950000007
 21
466.842285
  0
LINE
  8
_0-0_0
  6
CONTINUOUS
 62
    7
 10
-150.78004850000002
 20
466.842285
 11
-150.83453050000003
 21
466.91223100000002
  0
LINE
  8
_0-0_0
  6
CONTINUOUS
 62
    7
 10
-150.83453050000003
 20
466.91223100000002
 11
-150.88563150000004
 21
466.98104899999998
  0
LINE
  8
_0-0_0
  6
CONTINUOUS
 62
    7
 10
-150.88563150000004
 20
466.98104899999998
 11
-150.93326950000005
 21
467.04855300000003
  0
LINE
  8
_0-0_0
  6
CONTINUOUS
 62
    7
 10
-150.93326950000005
 20
467.04855300000003
 11
-150.97777150000002
 21
467.11511200000001
  0
LINE
  8
_0-0_0
  6
CONTINUOUS
 62
    7
 10
-150.97777150000002
 20
467.11511200000001
 11
-151.0324895
 21
467.20263699999998
  0
LINE
  8
_0-0_0
  6
CONTINUOUS
 62
    7
 10
-151.0324895
 20
467.20263699999998
 11
-151.08199750000006
 21
467.28875699999998
  0
LINE
  8
_0-0_0
  6
CONTINUOUS
 62
    7
 10
-151.08199750000006
 20
467.28875699999998
 11
-151.1264685000001
 21
467.37359600000002
  0
LINE
  8
_0-0_0
  6
CONTINUOUS
 62
    7
 10
-151.1264685000001
 20
467.37359600000002
 11
-151.1734355000001
 21
467.473907
  0
LINE
  8
_0-0_0
  6
CONTINUOUS
 62
    7
 10
-151.1734355000001
 20
467.473907
 11
-151.21364249999999
 21
467.57281499999999
  0
LINE
  8
_0-0_0
  6
CONTINUOUS
 62
    7
 10
-151.21364249999999
 20
467.57281499999999
 11
-151.24730350000004
 21
467.670593
  0
LINE
  8
_0-0_0
  6
CONTINUOUS
 62
    7
 10
-151.24730350000004
 20
467.670593
 11
-151.27459350000004
 21
467.76739500000002
  0
LINE
  8
_0-0_0
  6
CONTINUOUS
 62
    7
 10
-151.27459350000004
 20
467.76739500000002
 11
-151.29564249999999
 21
467.86343399999998
  0
LINE
  8
_0-0_0
  6
CONTINUOUS
 62
    7
 10
-151.29564249999999
 20
467.86343399999998
 11
-151.31157350000001
 21
467.967285
  0
LINE
  8
_0-0_0
  6
CONTINUOUS
 62
    7
 10
-151.31157350000001
 20
467.967285
 11
-151.32032450000008
 21
468.07070900000002
  0
LINE
  8
_0-0_0
  6
CONTINUOUS
 62
    7
 10
-151.32032450000008
 20
468.07070900000002
 11
-151.32196450000004
 21
468.17394999999999
  0
LINE
  8
_0-0_0
  6
CONTINUOUS
 62
    7
 10
-151.32196450000004
 20
468.17394999999999
 11
-151.31649450000009
 21
468.27725199999998
  0
LINE
  8
_0-0_0
  6
CONTINUOUS
 62
    7
 10
-151.31649450000009
 20
468.27725199999998
 11
-151.30389050000008
 21
468.38082900000001
  0
LINE
  8
_0-0_0
  6
CONTINUOUS
 62
    7
 10
-151.30389050000008
 20
468.38082900000001
 11
-151.28406949999999
 21
468.48498499999999
  0
LINE
  8
_0-0_0
  6
CONTINUOUS
 62
    7
 10
-151.28406949999999
 20
468.48498499999999
 11
-151.25692350000008
 21
468.58993500000003
  0
LINE
  8
_0-0_0
  6
CONTINUOUS
 62
    7
 10
-151.25692350000008
 20
468.58993500000003
 11
-151.22227850000002
 21
468.69598400000001
  0
LINE
  8
_0-0_0
  6
CONTINUOUS
 62
    7
 10
-151.22227850000002
 20
468.69598400000001
 11
-151.17992750000008
 21
468.80334499999998
  0
LINE
  8
_0-0_0
  6
CONTINUOUS
 62
    7
 10
-151.17992750000008
 20
468.80334499999998
 11
-151.12961250000001
 21
468.91235399999999
  0
LINE
  8
_0-0_0
  6
CONTINUOUS
 62
    7
 10
-151.12961250000001
 20
468.91235399999999
 11
-151.08391950000009
 21
469
  0
LINE
  8
_0-0_0
  6
CONTINUOUS
 62
    7
 10
-156.07222350000006
 20
472.47543300000001
 11
-156.32222350000006
 21
472.5
  0
LINE
  8
_0-0_0
  6
CONTINUOUS
 62
    7
 10
-156.07222350000006
 20
472.27145400000001
 11
-156.32222350000006
 21
472.5
  0
LINE
  8
_0-0_0
  6
CONTINUOUS
 62
    7
 10
-156.07222350000006
 20
472.665955
 11
-156.32222350000006
 21
472.71945199999999
  0
LINE
  8
_0-0_0
  6
CONTINUOUS
 62
    7
 10
-156.07222350000006
 20
472.47543300000001
 11
-156.32222350000006
 21
472.71945199999999
  0
LINE
  8
_0-0_0
  6
CONTINUOUS
 62
    7
 10
-156.07222350000006
 20
472.84097300000002
 11
-156.32222350000006
 21
472.922821
  0
LINE
  8
_0-0_0
  6
CONTINUOUS
 62
    7
 10
-156.07222350000006
 20
472.665955
 11
-156.32222350000006
 21
472.922821
  0
LINE
  8
_0-0_0
  6
CONTINUOUS
 62
    7
 10
-156.07222350000006
 20
472.99856599999998
 11
-156.32222350000006
 21
473.10784899999999
  0
LINE
  8
_0-0_0
  6
CONTINUOUS
 62
    7
 10
-156.07222350000006
 20
472.84097300000002
 11
-156.32222350000006
 21
473.10784899999999
  0
LINE
  8
_0-0_0
  6
CONTINUOUS
 62
    7
 10
-156.07222350000006
 20
473.13699300000002
 11
-156.32222350000006
 21
473.27252199999998
  0
LINE
  8
_0-0_0
  6
CONTINUOUS
 62
    7
 10
-156.07222350000006
 20
472.99856599999998
 11
-156.32222350000006
 21
473.27252199999998
  0
LINE
  8
_0-0_0
  6
CONTINUOUS
 62
    7
 10
-156.07222350000006
 20
473.25476099999997
 11
-156.32222350000006
 21
473.41503899999998
  0
LINE
  8
_0-0_0
  6
CONTINUOUS
 62
    7
 10
-156.07222350000006
 20
473.13699300000002
 11
-156.32222350000006
 21
473.41503899999998
  0
LINE
  8
_0-0_0
  6
CONTINUOUS
 62
    7
 10
-156.07222350000006
 20
473.350525
 11
-156.32222350000006
 21
473.53384399999999
  0
LINE
  8
_0-0_0
  6
CONTINUOUS
 62
    7
 10
-156.07222350000006
 20
473.25476099999997
 11
-156.32222350000006
 21
473.53384399999999
  0
LINE
  8
_0-0_0
  6
CONTINUOUS
 62
    7
 10
-156.07222350000006
 20
473.42330900000002
 11
-156.32222350000006
 21
473.62762500000002
  0
LINE
  8
_0-0_0
  6
CONTINUOUS
 62
    7
 10
-156.07222350000006
 20
473.350525
 11
-156.32222350000006
 21
473.62762500000002
  0
LINE
  8
_0-0_0
  6
CONTINUOUS
 62
    7
 10
-156.07222350000006
 20
473.47228999999999
 11
-156.32222350000006
 21
473.69534299999998
  0
LINE
  8
_0-0_0
  6
CONTINUOUS
 62
    7
 10
-156.07222350000006
 20
473.42330900000002
 11
-156.32222350000006
 21
473.69534299999998
  0
LINE
  8
_0-0_0
  6
CONTINUOUS
 62
    7
 10
-156.07222350000006
 20
473.49688700000002
 11
-156.32222350000006
 21
473.73629799999998
  0
LINE
  8
_0-0_0
  6
CONTINUOUS
 62
    7
 10
-156.07222350000006
 20
473.47228999999999
 11
-156.32222350000006
 21
473.73629799999998
  0
LINE
  8
_0-0_0
  6
CONTINUOUS
 62
    7
 10
-156.07222350000006
 20
473.49688700000002
 11
-156.32222350000006
 21
473.75
  0
LINE
  8
_0-0_0
  6
CONTINUOUS
 62
    7
 10
-156.07222350000006
 20
469.00305200000003
 11
-156.32222350000006
 21
468.75
  0
LINE
  8
_0-0_0
  6
CONTINUOUS
 62
    7
 10
-156.07222350000006
 20
469.02767899999998
 11
-156.32222350000006
 21
468.76367199999999
  0
LINE
  8
_0-0_0
  6
CONTINUOUS
 62
    7
 10
-156.07222350000006
 20
469.00305200000003
 11
-156.32222350000006
 21
468.76367199999999
  0
LINE
  8
_0-0_0
  6
CONTINUOUS
 62
    7
 10
-156.07222350000006
 20
469.07666
 11
-156.32222350000006
 21
468.80462599999998
  0
LINE
  8
_0-0_0
  6
CONTINUOUS
 62
    7
 10
-156.07222350000006
 20
469.02767899999998
 11
-156.32222350000006
 21
468.80462599999998
  0
LINE
  8
_0-0_0
  6
CONTINUOUS
 62
    7
 10
-156.07222350000006
 20
469.14941399999998
 11
-156.32222350000006
 21
468.872345
  0
LINE
  8
_0-0_0
  6
CONTINUOUS
 62
    7
 10
-156.07222350000006
 20
469.07666
 11
-156.32222350000006
 21
468.872345
  0
LINE
  8
_0-0_0
  6
CONTINUOUS
 62
    7
 10
-156.07222350000006
 20
469.24520899999999
 11
-156.32222350000006
 21
468.96612499999998
  0
LINE
  8
_0-0_0
  6
CONTINUOUS
 62
    7
 10
-156.07222350000006
 20
469.14941399999998
 11
-156.32222350000006
 21
468.96612499999998
  0
LINE
  8
_0-0_0
  6
CONTINUOUS
 62
    7
 10
-156.07222350000006
 20
469.24520899999999
 11
-156.20218250000005
 21
469.16137700000002
  0
LINE
  8
_0-0_0
  6
CONTINUOUS
 62
    7
 10
-156.07222350000006
 20
469.362976
 11
-156.32222350000006
 21
469.08492999999999
  0
LINE
  8
_0-0_0
  6
CONTINUOUS
 62
    7
 10
-156.20218250000005
 20
469.16137700000002
 11
-156.32222350000006
 21
469.08492999999999
  0
LINE
  8
_0-0_0
  6
CONTINUOUS
 62
    7
 10
-156.07222350000006
 20
469.50140399999998
 11
-156.32222350000006
 21
469.22744799999998
  0
LINE
  8
_0-0_0
  6
CONTINUOUS
 62
    7
 10
-156.07222350000006
 20
469.362976
 11
-156.32222350000006
 21
469.22744799999998
  0
LINE
  8
_0-0_0
  6
CONTINUOUS
 62
    7
 10
-156.07222350000006
 20
469.658997
 11
-156.32222350000006
 21
469.39211999999998
  0
LINE
  8
_0-0_0
  6
CONTINUOUS
 62
    7
 10
-156.07222350000006
 20
469.50140399999998
 11
-156.32222350000006
 21
469.39211999999998
  0
LINE
  8
_0-0_0
  6
CONTINUOUS
 62
    7
 10
-156.07222350000006
 20
469.83401500000002
 11
-156.32222350000006
 21
469.57714800000002
  0
LINE
  8
_0-0_0
  6
CONTINUOUS
 62
    7
 10
-156.07222350000006
 20
469.658997
 11
-156.32222350000006
 21
469.57714800000002
  0
LINE
  8
_0-0_0
  6
CONTINUOUS
 62
    7
 10
-156.07222350000006
 20
470.02453600000001
 11
-156.32222350000006
 21
469.78051799999997
  0
LINE
  8
_0-0_0
  6
CONTINUOUS
 62
    7
 10
-156.07222350000006
 20
469.83401500000002
 11
-156.32222350000006
 21
469.78051799999997
  0
LINE
  8
_0-0_0
  6
CONTINUOUS
 62
    7
 10
-156.07222350000006
 20
470.22851600000001
 11
-156.32222350000006
 21
470
  0
LINE
  8
_0-0_0
  6
CONTINUOUS
 62
    7
 10
-156.07222350000006
 20
470.02453600000001
 11
-156.32222350000006
 21
470
  0
LINE
  8
_0-0_0
  6
CONTINUOUS
 62
    7
 10
-156.07222350000006
 20
470.44366500000001
 11
-156.32222350000006
 21
470.23315400000001
  0
LINE
  8
_0-0_0
  6
CONTINUOUS
 62
    7
 10
-156.07222350000006
 20
470.22851600000001
 11
-156.32222350000006
 21
470.23315400000001
  0
LINE
  8
_0-0_0
  6
CONTINUOUS
 62
    7
 10
-156.07222350000006
 20
470.66763300000002
 11
-156.32222350000006
 21
470.47744799999998
  0
LINE
  8
_0-0_0
  6
CONTINUOUS
 62
    7
 10
-156.07222350000006
 20
470.44366500000001
 11
-156.32222350000006
 21
470.47744799999998
  0
LINE
  8
_0-0_0
  6
CONTINUOUS
 62
    7
 10
-156.07222350000006
 20
470.89801
 11
-156.32222350000006
 21
470.73019399999998
  0
LINE
  8
_0-0_0
  6
CONTINUOUS
 62
    7
 10
-156.07222350000006
 20
470.66763300000002
 11
-156.32222350000006
 21
470.73019399999998
  0
LINE
  8
_0-0_0
  6
CONTINUOUS
 62
    7
 10
-156.07222350000006
 20
471.13223299999999
 11
-156.32222350000006
 21
470.98864700000001
  0
LINE
  8
_0-0_0
  6
CONTINUOUS
 62
    7
 10
-156.07222350000006
 20
470.89801
 11
-156.32222350000006
 21
470.98864700000001
  0
LINE
  8
_0-0_0
  6
CONTINUOUS
 62
    7
 10
-156.07222350000006
 20
471.36773699999998
 11
-156.32222350000006
 21
471.25
  0
LINE
  8
_0-0_0
  6
CONTINUOUS
 62
    7
 10
-156.07222350000006
 20
471.13223299999999
 11
-156.32222350000006
 21
471.25
  0
LINE
  8
_0-0_0
  6
CONTINUOUS
 62
    7
 10
-156.07222350000006
 20
471.60195900000002
 11
-156.32222350000006
 21
471.51129200000003
  0
LINE
  8
_0-0_0
  6
CONTINUOUS
 62
    7
 10
-156.07222350000006
 20
471.36773699999998
 11
-156.32222350000006
 21
471.51129200000003
  0
LINE
  8
_0-0_0
  6
CONTINUOUS
 62
    7
 10
-156.07222350000006
 20
471.832336
 11
-156.32222350000006
 21
471.76977499999998
  0
LINE
  8
_0-0_0
  6
CONTINUOUS
 62
    7
 10
-156.07222350000006
 20
471.60195900000002
 11
-156.32222350000006
 21
471.76977499999998
  0
LINE
  8
_0-0_0
  6
CONTINUOUS
 62
    7
 10
-156.07222350000006
 20
472.05630500000001
 11
-156.32222350000006
 21
472.02252199999998
  0
LINE
  8
_0-0_0
  6
CONTINUOUS
 62
    7
 10
-156.07222350000006
 20
471.832336
 11
-156.32222350000006
 21
472.02252199999998
  0
LINE
  8
_0-0_0
  6
CONTINUOUS
 62
    7
 10
-156.07222350000006
 20
472.27145400000001
 11
-156.32222350000006
 21
472.26681500000001
  0
LINE
  8
_0-0_0
  6
CONTINUOUS
 62
    7
 10
-156.07222350000006
 20
472.05630500000001
 11
-156.32222350000006
 21
472.26681500000001
  0
LINE
  8
_0-0_0
  6
CONTINUOUS
 62
    7
 10
-141.07221950000007
 20
464.512024
 11
-141.07221950000007
 21
465.55767800000001
  0
LINE
  8
_0-0_0
  6
CONTINUOUS
 62
    7
 10
-141.07221950000007
 20
466.842285
 11
-141.07221950000007
 21
465.55767800000001
  0
LINE
  8
_0-0_0
  6
CONTINUOUS
 62
    7
 10
-141.07221950000007
 20
464.512024
 11
-141.07221950000007
 21
461.38793900000002
  0
LINE
  8
_0-0_0
  6
CONTINUOUS
 62
    7
 10
-141.07221950000007
 20
460.342285
 11
-141.07221950000007
 21
459.05767800000001
  0
LINE
  8
_0-0_0
  6
CONTINUOUS
 62
    7
 10
-141.07221950000007
 20
460.342285
 11
-141.07221950000007
 21
461.38793900000002
  0
LINE
  8
_0-0_0
  6
CONTINUOUS
 62
    7
 10
-26.472213500000066
 20
453.69113199999998
 11
-26.472213500000066
 21
456.64999399999999
  0
LINE
  8
_0-0_0
  6
CONTINUOUS
 62
    7
 10
-26.472213500000066
 20
452.64999399999999
 11
-26.472213500000066
 21
453.69113199999998
  0
LINE
  8
_0-0_0
  6
CONTINUOUS
 62
    7
 10
-141.07221950000007
 20
460.342285
 11
-150.78004850000002
 21
460.342285
  0
ARC
  8
_0-0_0
  6
CONTINUOUS
 62
    7
 10
-145.89832650000005
 20
459.69909699999999
 40
4.9238749999999998
 50
172.49424200000001
 51
181.535968
  0
ARC
  8
_0-0_0
  6
CONTINUOUS
 62
    7
 10
-145.86030950000008
 20
459.70404100000002
 40
4.9620009999999999
 50
181.58130700000004
 51
187.48478900000003
  0
LINE
  8
_0-0_0
  6
CONTINUOUS
 62
    7
 10
-152.07222350000006
 20
460.21844499999997
 11
-152.07222350000006
 21
457.69998199999998
  0
LINE
  8
_0-0_0
  6
CONTINUOUS
 62
    7
 10
-152.07222350000006
 20
468.19998199999998
 11
-152.07222350000006
 21
460.21844499999997
  0
LINE
  8
_0-0_0
  6
CONTINUOUS
 62
    7
 10
-150.78004850000002
 20
465.55767800000001
 11
-150.87438550000002
 21
465.31106599999998
  0
LINE
  8
_0-0_0
  6
CONTINUOUS
 62
    7
 10
-150.87438550000002
 20
465.31106599999998
 11
-150.9583325000001
 21
465.07110599999999
  0
LINE
  8
_0-0_0
  6
CONTINUOUS
 62
    7
 10
-150.9583325000001
 20
465.07110599999999
 11
-151.0324895
 21
464.836975
  0
LINE
  8
_0-0_0
  6
CONTINUOUS
 62
    7
 10
-151.0324895
 20
464.836975
 11
-151.09737050000001
 21
464.60794099999998
  0
LINE
  8
_0-0_0
  6
CONTINUOUS
 62
    7
 10
-151.09737050000001
 20
464.60794099999998
 11
-151.15340850000007
 21
464.38326999999998
  0
LINE
  8
_0-0_0
  6
CONTINUOUS
 62
    7
 10
-151.15340850000007
 20
464.38326999999998
 11
-151.20097750000002
 21
464.16229199999998
  0
LINE
  8
_0-0_0
  6
CONTINUOUS
 62
    7
 10
-151.20097750000002
 20
464.16229199999998
 11
-151.24038350000001
 21
463.944366
  0
LINE
  8
_0-0_0
  6
CONTINUOUS
 62
    7
 10
-151.24038350000001
 20
463.944366
 11
-151.27186950000009
 21
463.72891199999998
  0
LINE
  8
_0-0_0
  6
CONTINUOUS
 62
    7
 10
-151.27186950000009
 20
463.72891199999998
 11
-151.29564249999999
 21
463.51538099999999
  0
LINE
  8
_0-0_0
  6
CONTINUOUS
 62
    7
 10
-151.29564249999999
 20
463.51538099999999
 11
-151.31157350000001
 21
463.30767800000001
  0
LINE
  8
_0-0_0
  6
CONTINUOUS
 62
    7
 10
-151.31157350000001
 20
463.30767800000001
 11
-151.32032450000008
 21
463.10082999999997
  0
LINE
  8
_0-0_0
  6
CONTINUOUS
 62
    7
 10
-151.32032450000008
 20
463.10082999999997
 11
-151.32196450000004
 21
462.89434799999998
  0
LINE
  8
_0-0_0
  6
CONTINUOUS
 62
    7
 10
-151.32196450000004
 20
462.89434799999998
 11
-151.31649450000009
 21
462.68777499999999
  0
LINE
  8
_0-0_0
  6
CONTINUOUS
 62
    7
 10
-151.31649450000009
 20
462.68777499999999
 11
-151.30389050000008
 21
462.480591
  0
LINE
  8
_0-0_0
  6
CONTINUOUS
 62
    7
 10
-151.30389050000008
 20
462.480591
 11
-151.28406949999999
 21
462.27227799999997
  0
LINE
  8
_0-0_0
  6
CONTINUOUS
 62
    7
 10
-151.28406949999999
 20
462.27227799999997
 11
-151.25692350000008
 21
462.06237800000002
  0
LINE
  8
_0-0_0
  6
CONTINUOUS
 62
    7
 10
-151.25692350000008
 20
462.06237800000002
 11
-151.22227850000002
 21
461.85031099999998
  0
LINE
  8
_0-0_0
  6
CONTINUOUS
 62
    7
 10
-151.22227850000002
 20
461.85031099999998
 11
-151.17992750000008
 21
461.635559
  0
LINE
  8
_0-0_0
  6
CONTINUOUS
 62
    7
 10
-151.17992750000008
 20
461.635559
 11
-151.12961250000001
 21
461.41754200000003
  0
LINE
  8
_0-0_0
  6
CONTINUOUS
 62
    7
 10
-151.12961250000001
 20
461.41754200000003
 11
-151.07536750000008
 21
461.21124300000002
  0
LINE
  8
_0-0_0
  6
CONTINUOUS
 62
    7
 10
-151.07536750000008
 20
461.21124300000002
 11
-151.01366050000001
 21
461.00116000000003
  0
LINE
  8
_0-0_0
  6
CONTINUOUS
 62
    7
 10
-151.01366050000001
 20
461.00116000000003
 11
-150.9441415
 21
460.78668199999998
  0
LINE
  8
_0-0_0
  6
CONTINUOUS
 62
    7
 10
-150.9441415
 20
460.78668199999998
 11
-150.8664205
 21
460.56726099999997
  0
LINE
  8
_0-0_0
  6
CONTINUOUS
 62
    7
 10
-150.8664205
 20
460.56726099999997
 11
-150.78004850000002
 21
460.342285
  0
ARC
  8
_0-0_0
  6
CONTINUOUS
 62
    7
 10
-145.90848950000009
 20
466.19998199999998
 40
4.9136889999999998
 50
172.48898299999999
 51
187.51101699999998
  0
LINE
  8
_0-0_0
  6
CONTINUOUS
 62
    7
 10
-141.07221950000007
 20
465.55767800000001
 11
-150.78004850000002
 21
465.55767800000001
  0
LINE
  8
_0-0_0
  6
CONTINUOUS
 62
    7
 10
-165.82222350000006
 20
472.47543300000001
 11
-165.57222350000006
 21
472.5
  0
LINE
  8
_0-0_0
  6
CONTINUOUS
 62
    7
 10
-165.57222350000006
 20
472.5
 11
-156.32222350000006
 21
472.5
  0
LINE
  8
_0-0_0
  6
CONTINUOUS
 62
    7
 10
-165.82222350000006
 20
472.27145400000001
 11
-165.57222350000006
 21
472.5
  0
LINE
  8
_0-0_0
  6
CONTINUOUS
 62
    7
 10
-165.82222350000006
 20
472.27145400000001
 11
-156.07222350000006
 21
472.27145400000001
  0
LINE
  8
_0-0_0
  6
CONTINUOUS
 62
    7
 10
-165.82222350000006
 20
472.665955
 11
-165.57222350000006
 21
472.71945199999999
  0
LINE
  8
_0-0_0
  6
CONTINUOUS
 62
    7
 10
-165.57222350000006
 20
472.71945199999999
 11
-156.32222350000006
 21
472.71945199999999
  0
LINE
  8
_0-0_0
  6
CONTINUOUS
 62
    7
 10
-165.82222350000006
 20
472.47543300000001
 11
-165.57222350000006
 21
472.71945199999999
  0
LINE
  8
_0-0_0
  6
CONTINUOUS
 62
    7
 10
-165.82222350000006
 20
472.84097300000002
 11
-165.57222350000006
 21
472.922821
  0
LINE
  8
_0-0_0
  6
CONTINUOUS
 62
    7
 10
-165.57222350000006
 20
472.922821
 11
-156.32222350000006
 21
472.922821
  0
LINE
  8
_0-0_0
  6
CONTINUOUS
 62
    7
 10
-165.82222350000006
 20
472.665955
 11
-165.57222350000006
 21
472.922821
  0
LINE
  8
_0-0_0
  6
CONTINUOUS
 62
    7
 10
-165.82222350000006
 20
472.99856599999998
 11
-165.57222350000006
 21
473.10784899999999
  0
LINE
  8
_0-0_0
  6
CONTINUOUS
 62
    7
 10
-165.57222350000006
 20
473.10784899999999
 11
-156.32222350000006
 21
473.10784899999999
  0
LINE
  8
_0-0_0
  6
CONTINUOUS
 62
    7
 10
-165.82222350000006
 20
472.84097300000002
 11
-165.57222350000006
 21
473.10784899999999
  0
LINE
  8
_0-0_0
  6
CONTINUOUS
 62
    7
 10
-165.82222350000006
 20
473.13699300000002
 11
-165.57222350000006
 21
473.27252199999998
  0
LINE
  8
_0-0_0
  6
CONTINUOUS
 62
    7
 10
-165.57222350000006
 20
473.27252199999998
 11
-156.32222350000006
 21
473.27252199999998
  0
LINE
  8
_0-0_0
  6
CONTINUOUS
 62
    7
 10
-165.82222350000006
 20
472.99856599999998
 11
-165.57222350000006
 21
473.27252199999998
  0
LINE
  8
_0-0_0
  6
CONTINUOUS
 62
    7
 10
-165.82222350000006
 20
473.25476099999997
 11
-165.57222350000006
 21
473.41503899999998
  0
LINE
  8
_0-0_0
  6
CONTINUOUS
 62
    7
 10
-165.57222350000006
 20
473.41503899999998
 11
-156.32222350000006
 21
473.41503899999998
  0
LINE
  8
_0-0_0
  6
CONTINUOUS
 62
    7
 10
-165.82222350000006
 20
473.13699300000002
 11
-165.57222350000006
 21
473.41503899999998
  0
LINE
  8
_0-0_0
  6
CONTINUOUS
 62
    7
 10
-165.82222350000006
 20
473.350525
 11
-165.57222350000006
 21
473.53384399999999
  0
LINE
  8
_0-0_0
  6
CONTINUOUS
 62
    7
 10
-165.57222350000006
 20
473.53384399999999
 11
-156.32222350000006
 21
473.53384399999999
  0
LINE
  8
_0-0_0
  6
CONTINUOUS
 62
    7
 10
-165.82222350000006
 20
473.25476099999997
 11
-165.57222350000006
 21
473.53384399999999
  0
LINE
  8
_0-0_0
  6
CONTINUOUS
 62
    7
 10
-165.82222350000006
 20
473.42330900000002
 11
-165.57222350000006
 21
473.62762500000002
  0
LINE
  8
_0-0_0
  6
CONTINUOUS
 62
    7
 10
-165.57222350000006
 20
473.62762500000002
 11
-156.32222350000006
 21
473.62762500000002
  0
LINE
  8
_0-0_0
  6
CONTINUOUS
 62
    7
 10
-165.82222350000006
 20
473.350525
 11
-165.57222350000006
 21
473.62762500000002
  0
LINE
  8
_0-0_0
  6
CONTINUOUS
 62
    7
 10
-165.82222350000006
 20
473.47228999999999
 11
-165.57222350000006
 21
473.69534299999998
  0
LINE
  8
_0-0_0
  6
CONTINUOUS
 62
    7
 10
-165.57222350000006
 20
473.69534299999998
 11
-156.32222350000006
 21
473.69534299999998
  0
LINE
  8
_0-0_0
  6
CONTINUOUS
 62
    7
 10
-165.82222350000006
 20
473.42330900000002
 11
-165.57222350000006
 21
473.69534299999998
  0
LINE
  8
_0-0_0
  6
CONTINUOUS
 62
    7
 10
-165.82222350000006
 20
473.49688700000002
 11
-165.57222350000006
 21
473.73629799999998
  0
LINE
  8
_0-0_0
  6
CONTINUOUS
 62
    7
 10
-165.57222350000006
 20
473.73629799999998
 11
-156.32222350000006
 21
473.73629799999998
  0
LINE
  8
_0-0_0
  6
CONTINUOUS
 62
    7
 10
-165.82222350000006
 20
473.47228999999999
 11
-165.57222350000006
 21
473.73629799999998
  0
LINE
  8
_0-0_0
  6
CONTINUOUS
 62
    7
 10
-165.57222350000006
 20
473.75
 11
-156.32222350000006
 21
473.75
  0
LINE
  8
_0-0_0
  6
CONTINUOUS
 62
    7
 10
-165.82222350000006
 20
473.49688700000002
 11
-165.57222350000006
 21
473.75
  0
LINE
  8
_0-0_0
  6
CONTINUOUS
 62
    7
 10
-165.82222350000006
 20
469.00305200000003
 11
-165.57222350000006
 21
468.75
  0
LINE
  8
_0-0_0
  6
CONTINUOUS
 62
    7
 10
-165.57222350000006
 20
468.75
 11
-156.32222350000006
 21
468.75
  0
LINE
  8
_0-0_0
  6
CONTINUOUS
 62
    7
 10
-165.82222350000006
 20
469.02767899999998
 11
-165.57222350000006
 21
468.76367199999999
  0
LINE
  8
_0-0_0
  6
CONTINUOUS
 62
    7
 10
-165.57222350000006
 20
468.76367199999999
 11
-156.32222350000006
 21
468.76367199999999
  0
LINE
  8
_0-0_0
  6
CONTINUOUS
 62
    7
 10
-165.82222350000006
 20
469.00305200000003
 11
-165.57222350000006
 21
468.76367199999999
  0
LINE
  8
_0-0_0
  6
CONTINUOUS
 62
    7
 10
-165.82222350000006
 20
469.07666
 11
-165.57222350000006
 21
468.80462599999998
  0
LINE
  8
_0-0_0
  6
CONTINUOUS
 62
    7
 10
-165.57222350000006
 20
468.80462599999998
 11
-156.32222350000006
 21
468.80462599999998
  0
LINE
  8
_0-0_0
  6
CONTINUOUS
 62
    7
 10
-165.82222350000006
 20
469.02767899999998
 11
-165.57222350000006
 21
468.80462599999998
  0
LINE
  8
_0-0_0
  6
CONTINUOUS
 62
    7
 10
-165.82222350000006
 20
469.14941399999998
 11
-165.57222350000006
 21
468.872345
  0
LINE
  8
_0-0_0
  6
CONTINUOUS
 62
    7
 10
-165.57222350000006
 20
468.872345
 11
-156.32222350000006
 21
468.872345
  0
LINE
  8
_0-0_0
  6
CONTINUOUS
 62
    7
 10
-165.82222350000006
 20
469.07666
 11
-165.57222350000006
 21
468.872345
  0
LINE
  8
_0-0_0
  6
CONTINUOUS
 62
    7
 10
-165.82222350000006
 20
469.24520899999999
 11
-165.57222350000006
 21
468.96612499999998
  0
LINE
  8
_0-0_0
  6
CONTINUOUS
 62
    7
 10
-165.57222350000006
 20
468.96612499999998
 11
-156.32222350000006
 21
468.96612499999998
  0
LINE
  8
_0-0_0
  6
CONTINUOUS
 62
    7
 10
-165.82222350000006
 20
469.14941399999998
 11
-165.57222350000006
 21
468.96612499999998
  0
LINE
  8
_0-0_0
  6
CONTINUOUS
 62
    7
 10
-165.57222350000006
 20
469.08492999999999
 11
-156.32222350000006
 21
469.08492999999999
  0
LINE
  8
_0-0_0
  6
CONTINUOUS
 62
    7
 10
-165.6922575000001
 20
469.16137700000002
 11
-165.57222350000006
 21
469.08492999999999
  0
LINE
  8
_0-0_0
  6
CONTINUOUS
 62
    7
 10
-165.82222350000006
 20
469.24520899999999
 11
-165.6922575000001
 21
469.16137700000002
  0
LINE
  8
_0-0_0
  6
CONTINUOUS
 62
    7
 10
-165.82222350000006
 20
469.362976
 11
-165.57222350000006
 21
469.08492999999999
  0
LINE
  8
_0-0_0
  6
CONTINUOUS
 62
    7
 10
-165.82222350000006
 20
469.50140399999998
 11
-165.57222350000006
 21
469.22744799999998
  0
LINE
  8
_0-0_0
  6
CONTINUOUS
 62
    7
 10
-165.57222350000006
 20
469.22744799999998
 11
-156.32222350000006
 21
469.22744799999998
  0
LINE
  8
_0-0_0
  6
CONTINUOUS
 62
    7
 10
-165.82222350000006
 20
469.362976
 11
-165.57222350000006
 21
469.22744799999998
  0
LINE
  8
_0-0_0
  6
CONTINUOUS
 62
    7
 10
-165.82222350000006
 20
469.658997
 11
-165.57222350000006
 21
469.39211999999998
  0
LINE
  8
_0-0_0
  6
CONTINUOUS
 62
    7
 10
-165.57222350000006
 20
469.39211999999998
 11
-156.32222350000006
 21
469.39211999999998
  0
LINE
  8
_0-0_0
  6
CONTINUOUS
 62
    7
 10
-165.82222350000006
 20
469.50140399999998
 11
-165.57222350000006
 21
469.39211999999998
  0
LINE
  8
_0-0_0
  6
CONTINUOUS
 62
    7
 10
-165.82222350000006
 20
469.83401500000002
 11
-165.57222350000006
 21
469.57714800000002
  0
LINE
  8
_0-0_0
  6
CONTINUOUS
 62
    7
 10
-165.57222350000006
 20
469.57714800000002
 11
-156.32222350000006
 21
469.57714800000002
  0
LINE
  8
_0-0_0
  6
CONTINUOUS
 62
    7
 10
-165.82222350000006
 20
469.658997
 11
-165.57222350000006
 21
469.57714800000002
  0
LINE
  8
_0-0_0
  6
CONTINUOUS
 62
    7
 10
-165.82222350000006
 20
470.02453600000001
 11
-165.57222350000006
 21
469.78051799999997
  0
LINE
  8
_0-0_0
  6
CONTINUOUS
 62
    7
 10
-165.57222350000006
 20
469.78051799999997
 11
-156.32222350000006
 21
469.78051799999997
  0
LINE
  8
_0-0_0
  6
CONTINUOUS
 62
    7
 10
-165.82222350000006
 20
469.83401500000002
 11
-165.57222350000006
 21
469.78051799999997
  0
LINE
  8
_0-0_0
  6
CONTINUOUS
 62
    7
 10
-165.82222350000006
 20
470.22851600000001
 11
-165.57222350000006
 21
470
  0
LINE
  8
_0-0_0
  6
CONTINUOUS
 62
    7
 10
-165.57222350000006
 20
470
 11
-156.32222350000006
 21
470
  0
LINE
  8
_0-0_0
  6
CONTINUOUS
 62
    7
 10
-165.82222350000006
 20
470.22851600000001
 11
-156.07222350000006
 21
470.22851600000001
  0
LINE
  8
_0-0_0
  6
CONTINUOUS
 62
    7
 10
-165.82222350000006
 20
470.02453600000001
 11
-165.57222350000006
 21
470
  0
LINE
  8
_0-0_0
  6
CONTINUOUS
 62
    7
 10
-165.82222350000006
 20
470.44366500000001
 11
-165.57222350000006
 21
470.23315400000001
  0
LINE
  8
_0-0_0
  6
CONTINUOUS
 62
    7
 10
-165.57222350000006
 20
470.23315400000001
 11
-156.32222350000006
 21
470.23315400000001
  0
LINE
  8
_0-0_0
  6
CONTINUOUS
 62
    7
 10
-165.82222350000006
 20
470.44366500000001
 11
-156.07222350000006
 21
470.44366500000001
  0
LINE
  8
_0-0_0
  6
CONTINUOUS
 62
    7
 10
-165.82222350000006
 20
470.22851600000001
 11
-165.57222350000006
 21
470.23315400000001
  0
LINE
  8
_0-0_0
  6
CONTINUOUS
 62
    7
 10
-165.82222350000006
 20
470.66763300000002
 11
-165.57222350000006
 21
470.47744799999998
  0
LINE
  8
_0-0_0
  6
CONTINUOUS
 62
    7
 10
-165.57222350000006
 20
470.47744799999998
 11
-156.32222350000006
 21
470.47744799999998
  0
LINE
  8
_0-0_0
  6
CONTINUOUS
 62
    7
 10
-165.82222350000006
 20
470.66763300000002
 11
-156.07222350000006
 21
470.66763300000002
  0
LINE
  8
_0-0_0
  6
CONTINUOUS
 62
    7
 10
-165.82222350000006
 20
470.44366500000001
 11
-165.57222350000006
 21
470.47744799999998
  0
LINE
  8
_0-0_0
  6
CONTINUOUS
 62
    7
 10
-165.82222350000006
 20
470.89801
 11
-165.57222350000006
 21
470.73019399999998
  0
LINE
  8
_0-0_0
  6
CONTINUOUS
 62
    7
 10
-165.57222350000006
 20
470.73019399999998
 11
-156.32222350000006
 21
470.73019399999998
  0
LINE
  8
_0-0_0
  6
CONTINUOUS
 62
    7
 10
-165.82222350000006
 20
470.89801
 11
-156.07222350000006
 21
470.89801
  0
LINE
  8
_0-0_0
  6
CONTINUOUS
 62
    7
 10
-165.82222350000006
 20
470.66763300000002
 11
-165.57222350000006
 21
470.73019399999998
  0
LINE
  8
_0-0_0
  6
CONTINUOUS
 62
    7
 10
-165.82222350000006
 20
471.13223299999999
 11
-165.57222350000006
 21
470.98864700000001
  0
LINE
  8
_0-0_0
  6
CONTINUOUS
 62
    7
 10
-165.57222350000006
 20
470.98864700000001
 11
-156.32222350000006
 21
470.98864700000001
  0
LINE
  8
_0-0_0
  6
CONTINUOUS
 62
    7
 10
-165.82222350000006
 20
471.13223299999999
 11
-156.07222350000006
 21
471.13223299999999
  0
LINE
  8
_0-0_0
  6
CONTINUOUS
 62
    7
 10
-165.82222350000006
 20
470.89801
 11
-165.57222350000006
 21
470.98864700000001
  0
LINE
  8
_0-0_0
  6
CONTINUOUS
 62
    7
 10
-165.82222350000006
 20
471.36773699999998
 11
-165.57222350000006
 21
471.25
  0
LINE
  8
_0-0_0
  6
CONTINUOUS
 62
    7
 10
-165.57222350000006
 20
471.25
 11
-156.32222350000006
 21
471.25
  0
LINE
  8
_0-0_0
  6
CONTINUOUS
 62
    7
 10
-165.82222350000006
 20
471.36773699999998
 11
-156.07222350000006
 21
471.36773699999998
  0
LINE
  8
_0-0_0
  6
CONTINUOUS
 62
    7
 10
-165.82222350000006
 20
471.13223299999999
 11
-165.57222350000006
 21
471.25
  0
LINE
  8
_0-0_0
  6
CONTINUOUS
 62
    7
 10
-165.82222350000006
 20
471.60195900000002
 11
-165.57222350000006
 21
471.51129200000003
  0
LINE
  8
_0-0_0
  6
CONTINUOUS
 62
    7
 10
-165.57222350000006
 20
471.51129200000003
 11
-156.32222350000006
 21
471.51129200000003
  0
LINE
  8
_0-0_0
  6
CONTINUOUS
 62
    7
 10
-165.82222350000006
 20
471.60195900000002
 11
-156.07222350000006
 21
471.60195900000002
  0
LINE
  8
_0-0_0
  6
CONTINUOUS
 62
    7
 10
-165.82222350000006
 20
471.36773699999998
 11
-165.57222350000006
 21
471.51129200000003
  0
LINE
  8
_0-0_0
  6
CONTINUOUS
 62
    7
 10
-165.82222350000006
 20
471.832336
 11
-165.57222350000006
 21
471.76977499999998
  0
LINE
  8
_0-0_0
  6
CONTINUOUS
 62
    7
 10
-165.57222350000006
 20
471.76977499999998
 11
-156.32222350000006
 21
471.76977499999998
  0
LINE
  8
_0-0_0
  6
CONTINUOUS
 62
    7
 10
-165.82222350000006
 20
471.832336
 11
-156.07222350000006
 21
471.832336
  0
LINE
  8
_0-0_0
  6
CONTINUOUS
 62
    7
 10
-165.82222350000006
 20
471.60195900000002
 11
-165.57222350000006
 21
471.76977499999998
  0
LINE
  8
_0-0_0
  6
CONTINUOUS
 62
    7
 10
-165.82222350000006
 20
472.05630500000001
 11
-165.57222350000006
 21
472.02252199999998
  0
LINE
  8
_0-0_0
  6
CONTINUOUS
 62
    7
 10
-165.57222350000006
 20
472.02252199999998
 11
-156.32222350000006
 21
472.02252199999998
  0
LINE
  8
_0-0_0
  6
CONTINUOUS
 62
    7
 10
-165.82222350000006
 20
472.05630500000001
 11
-156.07222350000006
 21
472.05630500000001
  0
LINE
  8
_0-0_0
  6
CONTINUOUS
 62
    7
 10
-165.82222350000006
 20
471.832336
 11
-165.57222350000006
 21
472.02252199999998
  0
LINE
  8
_0-0_0
  6
CONTINUOUS
 62
    7
 10
-165.82222350000006
 20
472.27145400000001
 11
-165.57222350000006
 21
472.26681500000001
  0
LINE
  8
_0-0_0
  6
CONTINUOUS
 62
    7
 10
-165.57222350000006
 20
472.26681500000001
 11
-156.32222350000006
 21
472.26681500000001
  0
LINE
  8
_0-0_0
  6
CONTINUOUS
 62
    7
 10
-165.82222350000006
 20
472.05630500000001
 11
-165.57222350000006
 21
472.26681500000001
  0
LINE
  8
_0-0_0
  6
CONTINUOUS
 62
    7
 10
-166.07222350000006
 20
473.25
 11
-166.07222350000006
 21
469.49481200000002
  0
LINE
  8
_0-0_0
  6
CONTINUOUS
 62
    7
 10
-166.07222350000006
 20
469.49481200000002
 11
-166.07222350000006
 21
469.25
  0
LINE
  8
_0-0_0
  6
CONTINUOUS
 62
    7
 10
-152.47222550000004
 20
467.94998199999998
 11
-152.47222550000004
 21
465.44998199999998
  0
LINE
  8
_0-0_0
  6
CONTINUOUS
 62
    7
 10
-152.47222550000004
 20
465.44998199999998
 11
-152.47222550000004
 21
457.94998199999998
  0
LINE
  8
_0-0_0
  6
CONTINUOUS
 62
    7
 10
-153.2722205
 20
467.48809799999998
 11
-153.2722205
 21
465.21905500000003
  0
LINE
  8
_0-0_0
  6
CONTINUOUS
 62
    7
 10
-153.2722205
 20
465.21905500000003
 11
-153.2722205
 21
458.41186499999998
  0
LINE
  8
_0-0_0
  6
CONTINUOUS
 62
    7
 10
-211.2722205
 20
466.94998199999998
 11
-211.2722205
 21
466.94863900000001
  0
LINE
  8
_0-0_0
  6
CONTINUOUS
 62
    7
 10
-211.2722205
 20
466.94863900000001
 11
-211.2722205
 21
458.94998199999998
  0
LINE
  8
_0-0_0
  6
CONTINUOUS
 62
    7
 10
-156.07222350000006
 20
452.403076
 11
-156.07222350000006
 21
452.39999399999999
  0
LINE
  8
_0-0_0
  6
CONTINUOUS
 62
    7
 10
-156.07222350000006
 20
452.42770400000001
 11
-156.07222350000006
 21
452.403076
  0
LINE
  8
_0-0_0
  6
CONTINUOUS
 62
    7
 10
-156.07222350000006
 20
452.476654
 11
-156.07222350000006
 21
452.42770400000001
  0
LINE
  8
_0-0_0
  6
CONTINUOUS
 62
    7
 10
-156.07222350000006
 20
452.54943800000001
 11
-156.07222350000006
 21
452.39999399999999
  0
LINE
  8
_0-0_0
  6
CONTINUOUS
 62
    7
 10
-156.07222350000006
 20
452.64520299999998
 11
-156.07222350000006
 21
452.54943800000001
  0
LINE
  8
_0-0_0
  6
CONTINUOUS
 62
    7
 10
-156.07222350000006
 20
452.67541499999999
 11
-156.07222350000006
 21
452.64520299999998
  0
LINE
  8
_0-0_0
  6
CONTINUOUS
 62
    7
 10
-156.07222350000006
 20
452.76297
 11
-156.07222350000006
 21
452.67541499999999
  0
LINE
  8
_0-0_0
  6
CONTINUOUS
 62
    7
 10
-156.07222350000006
 20
452.90139799999997
 11
-156.07222350000006
 21
452.76297
  0
LINE
  8
_0-0_0
  6
CONTINUOUS
 62
    7
 10
-156.07222350000006
 20
453.05898999999999
 11
-156.07222350000006
 21
452.90139799999997
  0
LINE
  8
_0-0_0
  6
CONTINUOUS
 62
    7
 10
-156.07222350000006
 20
453.23400900000001
 11
-156.07222350000006
 21
453.05898999999999
  0
LINE
  8
_0-0_0
  6
CONTINUOUS
 62
    7
 10
-156.07222350000006
 20
453.42453
 11
-156.07222350000006
 21
453.23400900000001
  0
LINE
  8
_0-0_0
  6
CONTINUOUS
 62
    7
 10
-156.07222350000006
 20
453.62851000000001
 11
-156.07222350000006
 21
453.42453
  0
LINE
  8
_0-0_0
  6
CONTINUOUS
 62
    7
 10
-156.07222350000006
 20
453.843658
 11
-156.07222350000006
 21
453.62851000000001
  0
LINE
  8
_0-0_0
  6
CONTINUOUS
 62
    7
 10
-156.07222350000006
 20
454.06762700000002
 11
-156.07222350000006
 21
453.843658
  0
LINE
  8
_0-0_0
  6
CONTINUOUS
 62
    7
 10
-156.07222350000006
 20
454.29800399999999
 11
-156.07222350000006
 21
454.06762700000002
  0
LINE
  8
_0-0_0
  6
CONTINUOUS
 62
    7
 10
-156.07222350000006
 20
454.53222699999998
 11
-156.07222350000006
 21
454.29800399999999
  0
LINE
  8
_0-0_0
  6
CONTINUOUS
 62
    7
 10
-156.07222350000006
 20
454.76773100000003
 11
-156.07222350000006
 21
454.53222699999998
  0
LINE
  8
_0-0_0
  6
CONTINUOUS
 62
    7
 10
-156.07222350000006
 20
455.00195300000001
 11
-156.07222350000006
 21
454.76773100000003
  0
LINE
  8
_0-0_0
  6
CONTINUOUS
 62
    7
 10
-156.07222350000006
 20
455.23232999999999
 11
-156.07222350000006
 21
455.00195300000001
  0
LINE
  8
_0-0_0
  6
CONTINUOUS
 62
    7
 10
-156.07222350000006
 20
455.456299
 11
-156.07222350000006
 21
455.23232999999999
  0
LINE
  8
_0-0_0
  6
CONTINUOUS
 62
    7
 10
-156.07222350000006
 20
455.671448
 11
-156.07222350000006
 21
455.456299
  0
LINE
  8
_0-0_0
  6
CONTINUOUS
 62
    7
 10
-156.07222350000006
 20
455.72869900000001
 11
-156.07222350000006
 21
455.671448
  0
LINE
  8
_0-0_0
  6
CONTINUOUS
 62
    7
 10
-156.07222350000006
 20
452.403076
 11
-156.32222350000006
 21
452.14999399999999
  0
LINE
  8
_0-0_0
  6
CONTINUOUS
 62
    7
 10
-156.07222350000006
 20
452.42770400000001
 11
-156.32222350000006
 21
452.16369600000002
  0
LINE
  8
_0-0_0
  6
CONTINUOUS
 62
    7
 10
-156.07222350000006
 20
452.403076
 11
-156.32222350000006
 21
452.16369600000002
  0
LINE
  8
_0-0_0
  6
CONTINUOUS
 62
    7
 10
-156.07222350000006
 20
452.476654
 11
-156.32222350000006
 21
452.20461999999998
  0
LINE
  8
_0-0_0
  6
CONTINUOUS
 62
    7
 10
-156.07222350000006
 20
452.42770400000001
 11
-156.32222350000006
 21
452.20461999999998
  0
LINE
  8
_0-0_0
  6
CONTINUOUS
 62
    7
 10
-156.07222350000006
 20
452.54943800000001
 11
-156.32222350000006
 21
452.27233899999999
  0
LINE
  8
_0-0_0
  6
CONTINUOUS
 62
    7
 10
-156.07222350000006
 20
452.476654
 11
-156.32222350000006
 21
452.27233899999999
  0
LINE
  8
_0-0_0
  6
CONTINUOUS
 62
    7
 10
-156.07222350000006
 20
452.64520299999998
 11
-156.32222350000006
 21
452.36611900000003
  0
LINE
  8
_0-0_0
  6
CONTINUOUS
 62
    7
 10
-156.07222350000006
 20
452.54943800000001
 11
-156.32222350000006
 21
452.36611900000003
  0
LINE
  8
_0-0_0
  6
CONTINUOUS
 62
    7
 10
-156.07222350000006
 20
452.64520299999998
 11
-156.20218250000005
 21
452.56137100000001
  0
LINE
  8
_0-0_0
  6
CONTINUOUS
 62
    7
 10
-156.07222350000006
 20
452.76297
 11
-156.32222350000006
 21
452.48492399999998
  0
LINE
  8
_0-0_0
  6
CONTINUOUS
 62
    7
 10
-156.20218250000005
 20
452.56137100000001
 11
-156.32222350000006
 21
452.48492399999998
  0
LINE
  8
_0-0_0
  6
CONTINUOUS
 62
    7
 10
-156.07222350000006
 20
452.90139799999997
 11
-156.32222350000006
 21
452.62744099999998
  0
LINE
  8
_0-0_0
  6
CONTINUOUS
 62
    7
 10
-156.07222350000006
 20
452.76297
 11
-156.32222350000006
 21
452.62744099999998
  0
LINE
  8
_0-0_0
  6
CONTINUOUS
 62
    7
 10
-156.07222350000006
 20
453.05898999999999
 11
-156.32222350000006
 21
452.79211400000003
  0
LINE
  8
_0-0_0
  6
CONTINUOUS
 62
    7
 10
-156.07222350000006
 20
452.90139799999997
 11
-156.32222350000006
 21
452.79211400000003
  0
LINE
  8
_0-0_0
  6
CONTINUOUS
 62
    7
 10
-156.07222350000006
 20
453.23400900000001
 11
-156.32222350000006
 21
452.97717299999999
  0
LINE
  8
_0-0_0
  6
CONTINUOUS
 62
    7
 10
-156.07222350000006
 20
453.05898999999999
 11
-156.32222350000006
 21
452.97717299999999
  0
LINE
  8
_0-0_0
  6
CONTINUOUS
 62
    7
 10
-156.07222350000006
 20
453.42453
 11
-156.32222350000006
 21
453.18051100000002
  0
LINE
  8
_0-0_0
  6
CONTINUOUS
 62
    7
 10
-156.07222350000006
 20
453.23400900000001
 11
-156.32222350000006
 21
453.18051100000002
  0
LINE
  8
_0-0_0
  6
CONTINUOUS
 62
    7
 10
-156.07222350000006
 20
453.62851000000001
 11
-156.32222350000006
 21
453.39999399999999
  0
LINE
  8
_0-0_0
  6
CONTINUOUS
 62
    7
 10
-156.07222350000006
 20
453.42453
 11
-156.32222350000006
 21
453.39999399999999
  0
LINE
  8
_0-0_0
  6
CONTINUOUS
 62
    7
 10
-156.07222350000006
 20
453.843658
 11
-156.32222350000006
 21
453.63314800000001
  0
LINE
  8
_0-0_0
  6
CONTINUOUS
 62
    7
 10
-156.07222350000006
 20
453.62851000000001
 11
-156.32222350000006
 21
453.63314800000001
  0
LINE
  8
_0-0_0
  6
CONTINUOUS
 62
    7
 10
-156.07222350000006
 20
454.06762700000002
 11
-156.32222350000006
 21
453.87744099999998
  0
LINE
  8
_0-0_0
  6
CONTINUOUS
 62
    7
 10
-156.07222350000006
 20
453.843658
 11
-156.32222350000006
 21
453.87744099999998
  0
LINE
  8
_0-0_0
  6
CONTINUOUS
 62
    7
 10
-156.07222350000006
 20
454.29800399999999
 11
-156.32222350000006
 21
454.13018799999998
  0
LINE
  8
_0-0_0
  6
CONTINUOUS
 62
    7
 10
-156.07222350000006
 20
454.06762700000002
 11
-156.32222350000006
 21
454.13018799999998
  0
LINE
  8
_0-0_0
  6
CONTINUOUS
 62
    7
 10
-156.07222350000006
 20
454.53222699999998
 11
-156.32222350000006
 21
454.38867199999999
  0
LINE
  8
_0-0_0
  6
CONTINUOUS
 62
    7
 10
-156.07222350000006
 20
454.29800399999999
 11
-156.32222350000006
 21
454.38867199999999
  0
LINE
  8
_0-0_0
  6
CONTINUOUS
 62
    7
 10
-156.07222350000006
 20
454.76773100000003
 11
-156.32222350000006
 21
454.64999399999999
  0
LINE
  8
_0-0_0
  6
CONTINUOUS
 62
    7
 10
-156.07222350000006
 20
454.53222699999998
 11
-156.32222350000006
 21
454.64999399999999
  0
LINE
  8
_0-0_0
  6
CONTINUOUS
 62
    7
 10
-156.07222350000006
 20
455.00195300000001
 11
-156.32222350000006
 21
454.911316
  0
LINE
  8
_0-0_0
  6
CONTINUOUS
 62
    7
 10
-156.07222350000006
 20
454.76773100000003
 11
-156.32222350000006
 21
454.911316
  0
LINE
  8
_0-0_0
  6
CONTINUOUS
 62
    7
 10
-156.07222350000006
 20
455.23232999999999
 11
-156.32222350000006
 21
455.16976899999997
  0
LINE
  8
_0-0_0
  6
CONTINUOUS
 62
    7
 10
-156.07222350000006
 20
455.00195300000001
 11
-156.32222350000006
 21
455.16976899999997
  0
LINE
  8
_0-0_0
  6
CONTINUOUS
 62
    7
 10
-156.07222350000006
 20
455.456299
 11
-156.32222350000006
 21
455.42251599999997
  0
LINE
  8
_0-0_0
  6
CONTINUOUS
 62
    7
 10
-156.07222350000006
 20
455.23232999999999
 11
-156.32222350000006
 21
455.42251599999997
  0
LINE
  8
_0-0_0
  6
CONTINUOUS
 62
    7
 10
-156.07222350000006
 20
455.671448
 11
-156.32222350000006
 21
455.666809
  0
LINE
  8
_0-0_0
  6
CONTINUOUS
 62
    7
 10
-156.07222350000006
 20
455.456299
 11
-156.32222350000006
 21
455.666809
  0
LINE
  8
_0-0_0
  6
CONTINUOUS
 62
    7
 10
-156.07222350000006
 20
455.875427
 11
-156.07222350000006
 21
455.72869900000001
  0
LINE
  8
_0-0_0
  6
CONTINUOUS
 62
    7
 10
-156.07222350000006
 20
455.875427
 11
-156.32222350000006
 21
455.89999399999999
  0
LINE
  8
_0-0_0
  6
CONTINUOUS
 62
    7
 10
-156.07222350000006
 20
455.671448
 11
-156.32222350000006
 21
455.89999399999999
  0
LINE
  8
_0-0_0
  6
CONTINUOUS
 62
    7
 10
-156.07222350000006
 20
456.06594799999999
 11
-156.07222350000006
 21
455.875427
  0
LINE
  8
_0-0_0
  6
CONTINUOUS
 62
    7
 10
-156.07222350000006
 20
456.24096700000001
 11
-156.07222350000006
 21
456.06594799999999
  0
LINE
  8
_0-0_0
  6
CONTINUOUS
 62
    7
 10
-156.07222350000006
 20
456.39855999999997
 11
-156.07222350000006
 21
456.24096700000001
  0
LINE
  8
_0-0_0
  6
CONTINUOUS
 62
    7
 10
-156.07222350000006
 20
456.53698700000001
 11
-156.07222350000006
 21
456.39855999999997
  0
LINE
  8
_0-0_0
  6
CONTINUOUS
 62
    7
 10
-156.07222350000006
 20
456.65475500000002
 11
-156.07222350000006
 21
456.53698700000001
  0
LINE
  8
_0-0_0
  6
CONTINUOUS
 62
    7
 10
-156.07222350000006
 20
456.75054899999998
 11
-156.07222350000006
 21
456.65475500000002
  0
LINE
  8
_0-0_0
  6
CONTINUOUS
 62
    7
 10
-156.07222350000006
 20
456.82330300000001
 11
-156.07222350000006
 21
456.75054899999998
  0
LINE
  8
_0-0_0
  6
CONTINUOUS
 62
    7
 10
-156.07222350000006
 20
456.87228399999998
 11
-156.07222350000006
 21
456.82330300000001
  0
LINE
  8
_0-0_0
  6
CONTINUOUS
 62
    7
 10
-156.07222350000006
 20
456.89999399999999
 11
-156.07222350000006
 21
456.87228399999998
  0
LINE
  8
_0-0_0
  6
CONTINUOUS
 62
    7
 10
-156.07222350000006
 20
456.89999399999999
 11
-156.07222350000006
 21
456.89691199999999
  0
LINE
  8
_0-0_0
  6
CONTINUOUS
 62
    7
 10
-165.82222350000006
 20
452.403076
 11
-165.57222350000006
 21
452.14999399999999
  0
LINE
  8
_0-0_0
  6
CONTINUOUS
 62
    7
 10
-165.57222350000006
 20
452.14999399999999
 11
-156.32222350000006
 21
452.14999399999999
  0
LINE
  8
_0-0_0
  6
CONTINUOUS
 62
    7
 10
-165.82222350000006
 20
452.42770400000001
 11
-165.57222350000006
 21
452.16369600000002
  0
LINE
  8
_0-0_0
  6
CONTINUOUS
 62
    7
 10
-165.57222350000006
 20
452.16369600000002
 11
-156.32222350000006
 21
452.16369600000002
  0
LINE
  8
_0-0_0
  6
CONTINUOUS
 62
    7
 10
-165.82222350000006
 20
452.403076
 11
-165.57222350000006
 21
452.16369600000002
  0
LINE
  8
_0-0_0
  6
CONTINUOUS
 62
    7
 10
-165.82222350000006
 20
452.476654
 11
-165.57222350000006
 21
452.20461999999998
  0
LINE
  8
_0-0_0
  6
CONTINUOUS
 62
    7
 10
-165.57222350000006
 20
452.20461999999998
 11
-156.32222350000006
 21
452.20461999999998
  0
LINE
  8
_0-0_0
  6
CONTINUOUS
 62
    7
 10
-165.82222350000006
 20
452.42770400000001
 11
-165.57222350000006
 21
452.20461999999998
  0
LINE
  8
_0-0_0
  6
CONTINUOUS
 62
    7
 10
-165.82222350000006
 20
452.54943800000001
 11
-165.57222350000006
 21
452.27233899999999
  0
LINE
  8
_0-0_0
  6
CONTINUOUS
 62
    7
 10
-165.57222350000006
 20
452.27233899999999
 11
-156.32222350000006
 21
452.27233899999999
  0
LINE
  8
_0-0_0
  6
CONTINUOUS
 62
    7
 10
-165.82222350000006
 20
452.476654
 11
-165.57222350000006
 21
452.27233899999999
  0
LINE
  8
_0-0_0
  6
CONTINUOUS
 62
    7
 10
-165.82222350000006
 20
452.64520299999998
 11
-165.57222350000006
 21
452.36611900000003
  0
LINE
  8
_0-0_0
  6
CONTINUOUS
 62
    7
 10
-165.57222350000006
 20
452.36611900000003
 11
-156.32222350000006
 21
452.36611900000003
  0
LINE
  8
_0-0_0
  6
CONTINUOUS
 62
    7
 10
-165.82222350000006
 20
452.54943800000001
 11
-165.57222350000006
 21
452.36611900000003
  0
LINE
  8
_0-0_0
  6
CONTINUOUS
 62
    7
 10
-165.57222350000006
 20
452.48492399999998
 11
-156.32222350000006
 21
452.48492399999998
  0
LINE
  8
_0-0_0
  6
CONTINUOUS
 62
    7
 10
-165.6922575000001
 20
452.56137100000001
 11
-165.57222350000006
 21
452.48492399999998
  0
LINE
  8
_0-0_0
  6
CONTINUOUS
 62
    7
 10
-165.82222350000006
 20
452.64520299999998
 11
-165.6922575000001
 21
452.56137100000001
  0
LINE
  8
_0-0_0
  6
CONTINUOUS
 62
    7
 10
-165.82222350000006
 20
452.76297
 11
-165.57222350000006
 21
452.48492399999998
  0
LINE
  8
_0-0_0
  6
CONTINUOUS
 62
    7
 10
-165.82222350000006
 20
452.90139799999997
 11
-165.57222350000006
 21
452.62744099999998
  0
LINE
  8
_0-0_0
  6
CONTINUOUS
 62
    7
 10
-165.57222350000006
 20
452.62744099999998
 11
-156.32222350000006
 21
452.62744099999998
  0
LINE
  8
_0-0_0
  6
CONTINUOUS
 62
    7
 10
-165.82222350000006
 20
452.76297
 11
-165.57222350000006
 21
452.62744099999998
  0
LINE
  8
_0-0_0
  6
CONTINUOUS
 62
    7
 10
-165.82222350000006
 20
453.05898999999999
 11
-165.57222350000006
 21
452.79211400000003
  0
LINE
  8
_0-0_0
  6
CONTINUOUS
 62
    7
 10
-165.57222350000006
 20
452.79211400000003
 11
-156.32222350000006
 21
452.79211400000003
  0
LINE
  8
_0-0_0
  6
CONTINUOUS
 62
    7
 10
-165.82222350000006
 20
452.90139799999997
 11
-165.57222350000006
 21
452.79211400000003
  0
LINE
  8
_0-0_0
  6
CONTINUOUS
 62
    7
 10
-165.82222350000006
 20
453.23400900000001
 11
-165.57222350000006
 21
452.97717299999999
  0
LINE
  8
_0-0_0
  6
CONTINUOUS
 62
    7
 10
-165.57222350000006
 20
452.97717299999999
 11
-156.32222350000006
 21
452.97717299999999
  0
LINE
  8
_0-0_0
  6
CONTINUOUS
 62
    7
 10
-165.82222350000006
 20
453.05898999999999
 11
-165.57222350000006
 21
452.97717299999999
  0
LINE
  8
_0-0_0
  6
CONTINUOUS
 62
    7
 10
-165.82222350000006
 20
453.42453
 11
-165.57222350000006
 21
453.18051100000002
  0
LINE
  8
_0-0_0
  6
CONTINUOUS
 62
    7
 10
-165.57222350000006
 20
453.18051100000002
 11
-156.32222350000006
 21
453.18051100000002
  0
LINE
  8
_0-0_0
  6
CONTINUOUS
 62
    7
 10
-165.82222350000006
 20
453.23400900000001
 11
-165.57222350000006
 21
453.18051100000002
  0
LINE
  8
_0-0_0
  6
CONTINUOUS
 62
    7
 10
-165.82222350000006
 20
453.62851000000001
 11
-165.57222350000006
 21
453.39999399999999
  0
LINE
  8
_0-0_0
  6
CONTINUOUS
 62
    7
 10
-165.57222350000006
 20
453.39999399999999
 11
-156.32222350000006
 21
453.39999399999999
  0
LINE
  8
_0-0_0
  6
CONTINUOUS
 62
    7
 10
-165.82222350000006
 20
453.62851000000001
 11
-156.07222350000006
 21
453.62851000000001
  0
LINE
  8
_0-0_0
  6
CONTINUOUS
 62
    7
 10
-165.82222350000006
 20
453.42453
 11
-165.57222350000006
 21
453.39999399999999
  0
LINE
  8
_0-0_0
  6
CONTINUOUS
 62
    7
 10
-165.82222350000006
 20
453.843658
 11
-165.57222350000006
 21
453.63314800000001
  0
LINE
  8
_0-0_0
  6
CONTINUOUS
 62
    7
 10
-165.57222350000006
 20
453.63314800000001
 11
-156.32222350000006
 21
453.63314800000001
  0
LINE
  8
_0-0_0
  6
CONTINUOUS
 62
    7
 10
-165.82222350000006
 20
453.843658
 11
-156.07222350000006
 21
453.843658
  0
LINE
  8
_0-0_0
  6
CONTINUOUS
 62
    7
 10
-165.82222350000006
 20
453.62851000000001
 11
-165.57222350000006
 21
453.63314800000001
  0
LINE
  8
_0-0_0
  6
CONTINUOUS
 62
    7
 10
-165.82222350000006
 20
454.06762700000002
 11
-165.57222350000006
 21
453.87744099999998
  0
LINE
  8
_0-0_0
  6
CONTINUOUS
 62
    7
 10
-165.57222350000006
 20
453.87744099999998
 11
-156.32222350000006
 21
453.87744099999998
  0
LINE
  8
_0-0_0
  6
CONTINUOUS
 62
    7
 10
-165.82222350000006
 20
454.06762700000002
 11
-156.07222350000006
 21
454.06762700000002
  0
LINE
  8
_0-0_0
  6
CONTINUOUS
 62
    7
 10
-165.82222350000006
 20
453.843658
 11
-165.57222350000006
 21
453.87744099999998
  0
LINE
  8
_0-0_0
  6
CONTINUOUS
 62
    7
 10
-165.82222350000006
 20
454.29800399999999
 11
-165.57222350000006
 21
454.13018799999998
  0
LINE
  8
_0-0_0
  6
CONTINUOUS
 62
    7
 10
-165.57222350000006
 20
454.13018799999998
 11
-156.32222350000006
 21
454.13018799999998
  0
LINE
  8
_0-0_0
  6
CONTINUOUS
 62
    7
 10
-165.82222350000006
 20
454.29800399999999
 11
-156.07222350000006
 21
454.29800399999999
  0
LINE
  8
_0-0_0
  6
CONTINUOUS
 62
    7
 10
-165.82222350000006
 20
454.06762700000002
 11
-165.57222350000006
 21
454.13018799999998
  0
LINE
  8
_0-0_0
  6
CONTINUOUS
 62
    7
 10
-165.82222350000006
 20
454.53222699999998
 11
-165.57222350000006
 21
454.38867199999999
  0
LINE
  8
_0-0_0
  6
CONTINUOUS
 62
    7
 10
-165.57222350000006
 20
454.38867199999999
 11
-156.32222350000006
 21
454.38867199999999
  0
LINE
  8
_0-0_0
  6
CONTINUOUS
 62
    7
 10
-165.82222350000006
 20
454.53222699999998
 11
-156.07222350000006
 21
454.53222699999998
  0
LINE
  8
_0-0_0
  6
CONTINUOUS
 62
    7
 10
-165.82222350000006
 20
454.29800399999999
 11
-165.57222350000006
 21
454.38867199999999
  0
LINE
  8
_0-0_0
  6
CONTINUOUS
 62
    7
 10
-165.82222350000006
 20
454.76773100000003
 11
-165.57222350000006
 21
454.64999399999999
  0
LINE
  8
_0-0_0
  6
CONTINUOUS
 62
    7
 10
-165.57222350000006
 20
454.64999399999999
 11
-156.32222350000006
 21
454.64999399999999
  0
LINE
  8
_0-0_0
  6
CONTINUOUS
 62
    7
 10
-165.82222350000006
 20
454.76773100000003
 11
-156.07222350000006
 21
454.76773100000003
  0
LINE
  8
_0-0_0
  6
CONTINUOUS
 62
    7
 10
-165.82222350000006
 20
454.53222699999998
 11
-165.57222350000006
 21
454.64999399999999
  0
LINE
  8
_0-0_0
  6
CONTINUOUS
 62
    7
 10
-165.82222350000006
 20
455.00195300000001
 11
-165.57222350000006
 21
454.911316
  0
LINE
  8
_0-0_0
  6
CONTINUOUS
 62
    7
 10
-165.57222350000006
 20
454.911316
 11
-156.32222350000006
 21
454.911316
  0
LINE
  8
_0-0_0
  6
CONTINUOUS
 62
    7
 10
-165.82222350000006
 20
455.00195300000001
 11
-156.07222350000006
 21
455.00195300000001
  0
LINE
  8
_0-0_0
  6
CONTINUOUS
 62
    7
 10
-165.82222350000006
 20
454.76773100000003
 11
-165.57222350000006
 21
454.911316
  0
LINE
  8
_0-0_0
  6
CONTINUOUS
 62
    7
 10
-165.82222350000006
 20
455.23232999999999
 11
-165.57222350000006
 21
455.16976899999997
  0
LINE
  8
_0-0_0
  6
CONTINUOUS
 62
    7
 10
-165.57222350000006
 20
455.16976899999997
 11
-156.32222350000006
 21
455.16976899999997
  0
LINE
  8
_0-0_0
  6
CONTINUOUS
 62
    7
 10
-165.82222350000006
 20
455.23232999999999
 11
-156.07222350000006
 21
455.23232999999999
  0
LINE
  8
_0-0_0
  6
CONTINUOUS
 62
    7
 10
-165.82222350000006
 20
455.00195300000001
 11
-165.57222350000006
 21
455.16976899999997
  0
LINE
  8
_0-0_0
  6
CONTINUOUS
 62
    7
 10
-165.82222350000006
 20
455.456299
 11
-165.57222350000006
 21
455.42251599999997
  0
LINE
  8
_0-0_0
  6
CONTINUOUS
 62
    7
 10
-165.57222350000006
 20
455.42251599999997
 11
-156.32222350000006
 21
455.42251599999997
  0
LINE
  8
_0-0_0
  6
CONTINUOUS
 62
    7
 10
-165.82222350000006
 20
455.456299
 11
-156.07222350000006
 21
455.456299
  0
LINE
  8
_0-0_0
  6
CONTINUOUS
 62
    7
 10
-165.82222350000006
 20
455.23232999999999
 11
-165.57222350000006
 21
455.42251599999997
  0
LINE
  8
_0-0_0
  6
CONTINUOUS
 62
    7
 10
-165.82222350000006
 20
455.671448
 11
-165.57222350000006
 21
455.666809
  0
LINE
  8
_0-0_0
  6
CONTINUOUS
 62
    7
 10
-165.57222350000006
 20
455.666809
 11
-156.32222350000006
 21
455.666809
  0
LINE
  8
_0-0_0
  6
CONTINUOUS
 62
    7
 10
-165.82222350000006
 20
455.671448
 11
-156.07222350000006
 21
455.671448
  0
LINE
  8
_0-0_0
  6
CONTINUOUS
 62
    7
 10
-165.82222350000006
 20
455.456299
 11
-165.57222350000006
 21
455.666809
  0
LINE
  8
_0-0_0
  6
CONTINUOUS
 62
    7
 10
-165.82222350000006
 20
455.875427
 11
-165.57222350000006
 21
455.89999399999999
  0
LINE
  8
_0-0_0
  6
CONTINUOUS
 62
    7
 10
-165.57222350000006
 20
455.89999399999999
 11
-156.32222350000006
 21
455.89999399999999
  0
LINE
  8
_0-0_0
  6
CONTINUOUS
 62
    7
 10
-165.82222350000006
 20
455.671448
 11
-165.57222350000006
 21
455.89999399999999
  0
LINE
  8
_0-0_0
  6
CONTINUOUS
 62
    7
 10
-156.07222350000006
 20
456.06594799999999
 11
-156.32222350000006
 21
456.11944599999998
  0
LINE
  8
_0-0_0
  6
CONTINUOUS
 62
    7
 10
-156.07222350000006
 20
455.875427
 11
-156.32222350000006
 21
456.11944599999998
  0
LINE
  8
_0-0_0
  6
CONTINUOUS
 62
    7
 10
-156.07222350000006
 20
456.24096700000001
 11
-156.32222350000006
 21
456.32281499999999
  0
LINE
  8
_0-0_0
  6
CONTINUOUS
 62
    7
 10
-156.07222350000006
 20
456.06594799999999
 11
-156.32222350000006
 21
456.32281499999999
  0
LINE
  8
_0-0_0
  6
CONTINUOUS
 62
    7
 10
-156.07222350000006
 20
456.39855999999997
 11
-156.32222350000006
 21
456.50784299999998
  0
LINE
  8
_0-0_0
  6
CONTINUOUS
 62
    7
 10
-156.07222350000006
 20
456.24096700000001
 11
-156.32222350000006
 21
456.50784299999998
  0
LINE
  8
_0-0_0
  6
CONTINUOUS
 62
    7
 10
-156.07222350000006
 20
456.53698700000001
 11
-156.32222350000006
 21
456.67251599999997
  0
LINE
  8
_0-0_0
  6
CONTINUOUS
 62
    7
 10
-156.07222350000006
 20
456.39855999999997
 11
-156.32222350000006
 21
456.67251599999997
  0
LINE
  8
_0-0_0
  6
CONTINUOUS
 62
    7
 10
-156.07222350000006
 20
456.65475500000002
 11
-156.32222350000006
 21
456.81506300000001
  0
LINE
  8
_0-0_0
  6
CONTINUOUS
 62
    7
 10
-156.07222350000006
 20
456.53698700000001
 11
-156.32222350000006
 21
456.81506300000001
  0
LINE
  8
_0-0_0
  6
CONTINUOUS
 62
    7
 10
-156.07222350000006
 20
456.75054899999998
 11
-156.32222350000006
 21
456.93383799999998
  0
LINE
  8
_0-0_0
  6
CONTINUOUS
 62
    7
 10
-156.07222350000006
 20
456.65475500000002
 11
-156.32222350000006
 21
456.93383799999998
  0
LINE
  8
_0-0_0
  6
CONTINUOUS
 62
    7
 10
-156.07222350000006
 20
456.82330300000001
 11
-156.32222350000006
 21
457.02761800000002
  0
LINE
  8
_0-0_0
  6
CONTINUOUS
 62
    7
 10
-156.07222350000006
 20
456.75054899999998
 11
-156.32222350000006
 21
457.02761800000002
  0
LINE
  8
_0-0_0
  6
CONTINUOUS
 62
    7
 10
-156.07222350000006
 20
456.87228399999998
 11
-156.32222350000006
 21
457.09533699999997
  0
LINE
  8
_0-0_0
  6
CONTINUOUS
 62
    7
 10
-156.07222350000006
 20
456.82330300000001
 11
-156.32222350000006
 21
457.09533699999997
  0
LINE
  8
_0-0_0
  6
CONTINUOUS
 62
    7
 10
-156.07222350000006
 20
456.89691199999999
 11
-156.32222350000006
 21
457.13629200000003
  0
LINE
  8
_0-0_0
  6
CONTINUOUS
 62
    7
 10
-156.07222350000006
 20
456.87228399999998
 11
-156.32222350000006
 21
457.13629200000003
  0
LINE
  8
_0-0_0
  6
CONTINUOUS
 62
    7
 10
-156.07222350000006
 20
456.89691199999999
 11
-156.32222350000006
 21
457.14999399999999
  0
LINE
  8
_0-0_0
  6
CONTINUOUS
 62
    7
 10
-166.07222350000006
 20
452.894836
 11
-166.07222350000006
 21
452.64999399999999
  0
LINE
  8
_0-0_0
  6
CONTINUOUS
 62
    7
 10
-165.82222350000006
 20
455.875427
 11
-165.57222350000006
 21
456.11944599999998
  0
LINE
  8
_0-0_0
  6
CONTINUOUS
 62
    7
 10
-165.82222350000006
 20
456.06594799999999
 11
-165.57222350000006
 21
456.11944599999998
  0
LINE
  8
_0-0_0
  6
CONTINUOUS
 62
    7
 10
-165.82222350000006
 20
456.06594799999999
 11
-165.57222350000006
 21
456.32281499999999
  0
LINE
  8
_0-0_0
  6
CONTINUOUS
 62
    7
 10
-165.82222350000006
 20
456.24096700000001
 11
-165.57222350000006
 21
456.32281499999999
  0
LINE
  8
_0-0_0
  6
CONTINUOUS
 62
    7
 10
-165.82222350000006
 20
456.24096700000001
 11
-165.57222350000006
 21
456.50784299999998
  0
LINE
  8
_0-0_0
  6
CONTINUOUS
 62
    7
 10
-165.82222350000006
 20
456.39855999999997
 11
-165.57222350000006
 21
456.50784299999998
  0
LINE
  8
_0-0_0
  6
CONTINUOUS
 62
    7
 10
-165.82222350000006
 20
456.39855999999997
 11
-165.57222350000006
 21
456.67251599999997
  0
LINE
  8
_0-0_0
  6
CONTINUOUS
 62
    7
 10
-165.82222350000006
 20
456.53698700000001
 11
-165.57222350000006
 21
456.67251599999997
  0
LINE
  8
_0-0_0
  6
CONTINUOUS
 62
    7
 10
-165.82222350000006
 20
456.53698700000001
 11
-165.57222350000006
 21
456.81506300000001
  0
LINE
  8
_0-0_0
  6
CONTINUOUS
 62
    7
 10
-165.82222350000006
 20
456.65475500000002
 11
-165.57222350000006
 21
456.81506300000001
  0
LINE
  8
_0-0_0
  6
CONTINUOUS
 62
    7
 10
-165.82222350000006
 20
456.65475500000002
 11
-165.57222350000006
 21
456.93383799999998
  0
LINE
  8
_0-0_0
  6
CONTINUOUS
 62
    7
 10
-165.82222350000006
 20
456.75054899999998
 11
-165.57222350000006
 21
456.93383799999998
  0
LINE
  8
_0-0_0
  6
CONTINUOUS
 62
    7
 10
-165.82222350000006
 20
456.75054899999998
 11
-165.57222350000006
 21
457.02761800000002
  0
LINE
  8
_0-0_0
  6
CONTINUOUS
 62
    7
 10
-165.82222350000006
 20
456.82330300000001
 11
-165.57222350000006
 21
457.02761800000002
  0
LINE
  8
_0-0_0
  6
CONTINUOUS
 62
    7
 10
-165.82222350000006
 20
456.82330300000001
 11
-165.57222350000006
 21
457.09533699999997
  0
LINE
  8
_0-0_0
  6
CONTINUOUS
 62
    7
 10
-165.82222350000006
 20
456.87228399999998
 11
-165.57222350000006
 21
457.09533699999997
  0
LINE
  8
_0-0_0
  6
CONTINUOUS
 62
    7
 10
-165.82222350000006
 20
456.87228399999998
 11
-165.57222350000006
 21
457.13629200000003
  0
LINE
  8
_0-0_0
  6
CONTINUOUS
 62
    7
 10
-165.82222350000006
 20
456.89691199999999
 11
-165.57222350000006
 21
457.13629200000003
  0
LINE
  8
_0-0_0
  6
CONTINUOUS
 62
    7
 10
-165.82222350000006
 20
456.89691199999999
 11
-165.57222350000006
 21
457.14999399999999
  0
LINE
  8
_0-0_0
  6
CONTINUOUS
 62
    7
 10
-166.07222350000006
 20
456.64999399999999
 11
-166.07222350000006
 21
452.894836
  0
LINE
  8
_0-0_0
  6
CONTINUOUS
 62
    7
 10
-165.57222350000006
 20
456.11944599999998
 11
-156.32222350000006
 21
456.11944599999998
  0
LINE
  8
_0-0_0
  6
CONTINUOUS
 62
    7
 10
-165.57222350000006
 20
456.32281499999999
 11
-156.32222350000006
 21
456.32281499999999
  0
LINE
  8
_0-0_0
  6
CONTINUOUS
 62
    7
 10
-165.57222350000006
 20
456.50784299999998
 11
-156.32222350000006
 21
456.50784299999998
  0
LINE
  8
_0-0_0
  6
CONTINUOUS
 62
    7
 10
-165.57222350000006
 20
456.67251599999997
 11
-156.32222350000006
 21
456.67251599999997
  0
LINE
  8
_0-0_0
  6
CONTINUOUS
 62
    7
 10
-165.57222350000006
 20
456.81506300000001
 11
-156.32222350000006
 21
456.81506300000001
  0
LINE
  8
_0-0_0
  6
CONTINUOUS
 62
    7
 10
-165.57222350000006
 20
456.93383799999998
 11
-156.32222350000006
 21
456.93383799999998
  0
LINE
  8
_0-0_0
  6
CONTINUOUS
 62
    7
 10
-165.57222350000006
 20
457.02761800000002
 11
-156.32222350000006
 21
457.02761800000002
  0
LINE
  8
_0-0_0
  6
CONTINUOUS
 62
    7
 10
-165.57222350000006
 20
457.09533699999997
 11
-156.32222350000006
 21
457.09533699999997
  0
LINE
  8
_0-0_0
  6
CONTINUOUS
 62
    7
 10
-165.57222350000006
 20
457.13629200000003
 11
-156.32222350000006
 21
457.13629200000003
  0
LINE
  8
_0-0_0
  6
CONTINUOUS
 62
    7
 10
-165.57222350000006
 20
457.14999399999999
 11
-156.32222350000006
 21
457.14999399999999
  0
LINE
  8
_0-0_0
  6
CONTINUOUS
 62
    7
 10
-130.07221950000007
 20
473.5
 11
-156.07222350000006
 21
473.5
  0
LINE
  8
_0-0_0
  6
CONTINUOUS
 62
    7
 10
-130.07221950000007
 20
469
 11
-156.07222350000006
 21
469
  0
LINE
  8
_0-0_0
  6
CONTINUOUS
 62
    7
 10
-29.072219500000074
 20
456.89999399999999
 11
-26.616562500000043
 21
456.89999399999999
  0
LINE
  8
_0-0_0
  6
CONTINUOUS
 62
    7
 10
-27.117630500000018
 20
452.39999399999999
 11
-26.616562500000043
 21
452.39999399999999
  0
LINE
  8
_0-0_0
  6
CONTINUOUS
 62
    7
 10
-156.07222350000006
 20
473.5
 11
-156.32222350000006
 21
473.75
  0
LINE
  8
_0-0_0
  6
CONTINUOUS
 62
    7
 10
-156.07222350000006
 20
469
 11
-156.32222350000006
 21
468.75
  0
LINE
  8
_0-0_0
  6
CONTINUOUS
 62
    7
 10
-26.472213500000066
 20
456.64999399999999
 11
-26.616562500000043
 21
456.89999399999999
  0
LINE
  8
_0-0_0
  6
CONTINUOUS
 62
    7
 10
-26.472213500000066
 20
452.64999399999999
 11
-26.616562500000043
 21
452.39999399999999
  0
LINE
  8
_0-0_0
  6
CONTINUOUS
 62
    7
 10
-152.07222350000006
 20
457.69998199999998
 11
-150.82222350000006
 21
456.44998199999998
  0
LINE
  8
_0-0_0
  6
CONTINUOUS
 62
    7
 10
-152.07222350000006
 20
468.19998199999998
 11
-151.27222849999998
 21
468.99996900000002
  0
LINE
  8
_0-0_0
  6
CONTINUOUS
 62
    7
 10
-166.07222350000006
 20
473.25
 11
-165.57237650000002
 21
473.74981700000001
  0
LINE
  8
_0-0_0
  6
CONTINUOUS
 62
    7
 10
-166.07222350000006
 20
469.25
 11
-165.57237650000002
 21
468.75015300000001
  0
LINE
  8
_0-0_0
  6
CONTINUOUS
 62
    7
 10
-152.07222350000006
 20
467.94998199999998
 11
-152.47222550000004
 21
467.94998199999998
  0
LINE
  8
_0-0_0
  6
CONTINUOUS
 62
    7
 10
-152.07222350000006
 20
457.94998199999998
 11
-152.47222550000004
 21
457.94998199999998
  0
LINE
  8
_0-0_0
  6
CONTINUOUS
 62
    7
 10
-153.2722205
 20
467.48809799999998
 11
-152.47222550000004
 21
467.94998199999998
  0
LINE
  8
_0-0_0
  6
CONTINUOUS
 62
    7
 10
-153.2722205
 20
458.41186499999998
 11
-152.47222550000004
 21
457.94998199999998
  0
LINE
  8
_0-0_0
  6
CONTINUOUS
 62
    7
 10
-153.2722205
 20
466.94998199999998
 11
-211.2722205
 21
466.94998199999998
  0
LINE
  8
_0-0_0
  6
CONTINUOUS
 62
    7
 10
-153.2722205
 20
458.94998199999998
 11
-211.2722205
 21
458.94998199999998
  0
LINE
  8
_0-0_0
  6
CONTINUOUS
 62
    7
 10
-135.8222505
 20
452.39999399999999
 11
-156.07222350000006
 21
452.39999399999999
  0
LINE
  8
_0-0_0
  6
CONTINUOUS
 62
    7
 10
-156.07222350000006
 20
452.39999399999999
 11
-156.32222350000006
 21
452.14999399999999
  0
LINE
  8
_0-0_0
  6
CONTINUOUS
 62
    7
 10
-151.27222849999998
 20
456.89999399999999
 11
-156.07222350000006
 21
456.89999399999999
  0
LINE
  8
_0-0_0
  6
CONTINUOUS
 62
    7
 10
-156.07222350000006
 20
456.89999399999999
 11
-156.32222350000006
 21
457.14999399999999
  0
LINE
  8
_0-0_0
  6
CONTINUOUS
 62
    7
 10
-166.07222350000006
 20
452.64999399999999
 11
-165.57237650000002
 21
452.15014600000001
  0
LINE
  8
_0-0_0
  6
CONTINUOUS
 62
    7
 10
-166.07222350000006
 20
456.64999399999999
 11
-165.57237650000002
 21
457.14984099999998
  0
LINE
  8
_0-0_0
  6
CONTINUOUS
 62
    7
 10
-239.58322150000004
 20
505.14999399999999
 11
-239.58322150000004
 21
492.14999399999999
  0
LINE
  8
_0-0_0
  6
CONTINUOUS
 62
    7
 10
-239.3832245000001
 20
505.14999399999999
 11
-239.58322150000004
 21
505.14999399999999
  0
LINE
  8
_0-0_0
  6
CONTINUOUS
 62
    7
 10
-239.3832245000001
 20
492.14999399999999
 11
-239.58322150000004
 21
492.14999399999999
  0
LINE
  8
_0-0_0
  6
CONTINUOUS
 62
    7
 10
-239.3832245000001
 20
505.14999399999999
 11
-239.3832245000001
 21
523.75
  0
LINE
  8
_0-0_0
  6
CONTINUOUS
 62
    7
 10
-239.28322250000008
 20
523.75
 11
-239.3832245000001
 21
523.75
  0
LINE
  8
_0-0_0
  6
CONTINUOUS
 62
    7
 10
-239.28322250000008
 20
526.25
 11
-239.28322250000008
 21
523.75
  0
ARC
  8
_0-0_0
  6
CONTINUOUS
 62
    7
 10
-239.78322250000008
 20
526.25
 40
0.5
 50
0
 51
90.000003000000007
  0
LINE
  8
_0-0_0
  6
CONTINUOUS
 62
    7
 10
-239.78322250000008
 20
526.75
 11
-242.78322250000008
 21
526.75
  0
ARC
  8
_0-0_0
  6
CONTINUOUS
 62
    7
 10
-242.78322250000008
 20
526.25
 40
0.5
 50
90.000003000000007
 51
179.99999099999999
  0
ARC
  8
_0-0_0
  6
CONTINUOUS
 62
    7
 10
-247.28322250000008
 20
478.75
 40
0.5
 50
179.99999099999999
 51
269.99999700000001
  0
LINE
  8
_0-0_0
  6
CONTINUOUS
 62
    7
 10
-244.78322250000008
 20
478.25
 11
-247.28322250000008
 21
478.25
  0
ARC
  8
_0-0_0
  6
CONTINUOUS
 62
    7
 10
-244.78322250000008
 20
478.75
 40
0.5
 50
269.99999700000001
 51
0
  0
LINE
  8
_0-0_0
  6
CONTINUOUS
 62
    7
 10
-244.28322250000008
 20
483.75
 11
-244.28322250000008
 21
478.75
  0
ARC
  8
_0-0_0
  6
CONTINUOUS
 62
    7
 10
-243.78322250000008
 20
483.75
 40
0.5
 50
90.000003000000007
 51
179.99999099999999
  0
LINE
  8
_0-0_0
  6
CONTINUOUS
 62
    7
 10
-239.78322250000008
 20
484.25
 11
-243.78322250000008
 21
484.25
  0
ARC
  8
_0-0_0
  6
CONTINUOUS
 62
    7
 10
-239.78322250000008
 20
484.75
 40
0.5
 50
269.99999700000001
 51
0
  0
LINE
  8
_0-0_0
  6
CONTINUOUS
 62
    7
 10
-239.28322250000008
 20
487.94998199999998
 11
-239.28322250000008
 21
484.75
  0
LINE
  8
_0-0_0
  6
CONTINUOUS
 62
    7
 10
-239.3832245000001
 20
487.94998199999998
 11
-239.28322250000008
 21
487.94998199999998
  0
LINE
  8
_0-0_0
  6
CONTINUOUS
 62
    7
 10
-239.3832245000001
 20
487.94998199999998
 11
-239.3832245000001
 21
492.14999399999999
  0
LINE
  8
_0-0_0
  6
CONTINUOUS
 62
    7
 10
-240.28322250000008
 20
526.25
 11
-258.08322150000004
 21
526.25
  0
ARC
  8
_0-0_0
  6
CONTINUOUS
 62
    7
 10
-240.28322250000008
 20
525.75
 40
0.5
 50
0
 51
90.000003000000007
  0
LINE
  8
_0-0_0
  6
CONTINUOUS
 62
    7
 10
-239.78322250000008
 20
525.75
 11
-239.78322250000008
 21
485.25
  0
ARC
  8
_0-0_0
  6
CONTINUOUS
 62
    7
 10
-240.28322250000008
 20
485.25
 40
0.5
 50
269.99999700000001
 51
0
  0
LINE
  8
_0-0_0
  6
CONTINUOUS
 62
    7
 10
-243.78322250000008
 20
484.75
 11
-240.28322250000008
 21
484.75
  0
ARC
  8
_0-0_0
  6
CONTINUOUS
 62
    7
 10
-243.78322250000008
 20
483.75
 40
1
 50
90.000003000000007
 51
179.99999099999999
  0
LINE
  8
_0-0_0
  6
CONTINUOUS
 62
    7
 10
-244.78322250000008
 20
483.75
 11
-244.78322250000008
 21
479.25
  0
ARC
  8
_0-0_0
  6
CONTINUOUS
 62
    7
 10
-245.28322250000008
 20
479.25
 40
0.5
 50
269.99999700000001
 51
0
  0
LINE
  8
_0-0_0
  6
CONTINUOUS
 62
    7
 10
-262.28322250000008
 20
478.75
 11
-245.28322250000008
 21
478.75
  0
LINE
  8
_0-0_0
  6
CONTINUOUS
 62
    7
 10
-243.78322250000008
 20
526.44998199999998
 11
-243.78322250000008
 21
526.25
  0
ARC
  8
_0-0_0
  6
CONTINUOUS
 62
    7
 10
-244.08322150000004
 20
526.44998199999998
 40
0.2999999999999999
 50
0
 51
90.000003000000007
  0
LINE
  8
_0-0_0
  6
CONTINUOUS
 62
    7
 10
-244.08322150000004
 20
526.75
 11
-258.78322250000008
 21
526.75
  0
ARC
  8
_0-0_0
  6
CONTINUOUS
 62
    7
 10
-258.78322250000008
 20
526.44998199999998
 40
0.2999999999999999
 50
90.000003000000007
 51
179.99999099999999
  0
LINE
  8
_0-0_0
  6
CONTINUOUS
 62
    7
 10
-259.08322150000004
 20
526.44998199999998
 11
-259.08322150000004
 21
523.25
  0
LINE
  8
_0-0_0
  6
CONTINUOUS
 62
    7
 10
-259.08322150000004
 20
523.25
 11
-264.78322250000008
 21
523.25
  0
LINE
  8
_0-0_0
  6
CONTINUOUS
 62
    7
 10
-264.78322250000008
 20
523.25
 11
-265.58322150000004
 21
522.44998199999998
  0
ARC
  8
_0-0_0
  6
CONTINUOUS
 62
    7
 10
-258.08322150000004
 20
525.75
 40
0.5
 50
90.000003000000007
 51
179.99999099999999
  0
LINE
  8
_0-0_0
  6
CONTINUOUS
 62
    7
 10
-258.58322150000004
 20
525.75
 11
-258.58322150000004
 21
522.94998199999998
  0
ARC
  8
_0-0_0
  6
CONTINUOUS
 62
    7
 10
-259.08322150000004
 20
522.94998199999998
 40
0.5
 50
269.99999700000001
 51
0
  0
LINE
  8
_0-0_0
  6
CONTINUOUS
 62
    7
 10
-259.08322150000004
 20
522.44998199999998
 11
-267.28322250000008
 21
522.44998199999998
  0
ARC
  8
_0-0_0
  6
CONTINUOUS
 62
    7
 10
-267.28322250000008
 20
521.94998199999998
 40
0.5
 50
90.000003000000007
 51
179.99999099999999
  0
LINE
  8
_0-0_0
  6
CONTINUOUS
 62
    7
 10
-267.78322250000008
 20
485.25
 11
-267.78322250000008
 21
521.94998199999998
  0
ARC
  8
_0-0_0
  6
CONTINUOUS
 62
    7
 10
-267.28322250000008
 20
485.25
 40
0.5
 50
179.99999099999999
 51
269.99999700000001
  0
LINE
  8
_0-0_0
  6
CONTINUOUS
 62
    7
 10
-267.28322250000008
 20
484.75
 11
-263.78322250000008
 21
484.75
  0
ARC
  8
_0-0_0
  6
CONTINUOUS
 62
    7
 10
-263.78322250000008
 20
483.75
 40
1
 50
0
 51
90.000003000000007
  0
LINE
  8
_0-0_0
  6
CONTINUOUS
 62
    7
 10
-262.78322250000008
 20
479.25
 11
-262.78322250000008
 21
483.75
  0
ARC
  8
_0-0_0
  6
CONTINUOUS
 62
    7
 10
-262.28322250000008
 20
479.25
 40
0.5
 50
179.99999099999999
 51
269.99999700000001
  0
CIRCLE
  8
_0-0_0
  6
CONTINUOUS
 62
    7
 10
-253.78322250000008
 20
487.75
 40
2.0670000000000002
  0
LINE
  8
_0-0_0
  6
CONTINUOUS
 62
    7
 10
-265.78322250000008
 20
522.75
 11
-265.78322250000008
 21
522.44998199999998
  0
LINE
  8
_0-0_0
  6
CONTINUOUS
 62
    7
 10
-265.78322250000008
 20
522.75
 11
-267.78322250000008
 21
522.75
  0
ARC
  8
_0-0_0
  6
CONTINUOUS
 62
    7
 10
-267.78322250000008
 20
522.25
 40
0.5
 50
90.000003000000007
 51
179.99999099999999
  0
LINE
  8
_0-0_0
  6
CONTINUOUS
 62
    7
 10
-268.28322250000008
 20
522.25
 11
-268.28322250000008
 21
484.75
  0
ARC
  8
_0-0_0
  6
CONTINUOUS
 62
    7
 10
-267.78322250000008
 20
484.75
 40
0.5
 50
179.99999099999999
 51
269.99999700000001
  0
LINE
  8
_0-0_0
  6
CONTINUOUS
 62
    7
 10
-263.78322250000008
 20
484.25
 11
-267.78322250000008
 21
484.25
  0
ARC
  8
_0-0_0
  6
CONTINUOUS
 62
    7
 10
-263.78322250000008
 20
483.75
 40
0.5
 50
0
 51
90.000003000000007
  0
LINE
  8
_0-0_0
  6
CONTINUOUS
 62
    7
 10
-263.28322250000008
 20
478.75
 11
-263.28322250000008
 21
483.75
  0
ARC
  8
_0-0_0
  6
CONTINUOUS
 62
    7
 10
-262.78322250000008
 20
478.75
 40
0.5
 50
179.99999099999999
 51
269.99999700000001
  0
LINE
  8
_0-0_0
  6
CONTINUOUS
 62
    7
 10
-262.78322250000008
 20
478.25
 11
-260.28322250000008
 21
478.25
  0
ARC
  8
_0-0_0
  6
CONTINUOUS
 62
    7
 10
-260.28322250000008
 20
478.75
 40
0.5
 50
269.99999700000001
 51
0
  0
LINE
  8
_0-0_0
  6
CONTINUOUS
 62
    7
 10
-244.28322250000008
 20
478.75
 11
-244.18322350000005
 21
478.75
  0
LINE
  8
_0-0_0
  6
CONTINUOUS
 62
    7
 10
-244.18322350000005
 20
478.75
 11
-244.18322350000005
 21
479.25
  0
LINE
  8
_0-0_0
  6
CONTINUOUS
 62
    7
 10
-244.18322350000005
 20
483.25
 11
-244.18322350000005
 21
479.25
  0
LINE
  8
_0-0_0
  6
CONTINUOUS
 62
    7
 10
-244.28322250000008
 20
483.75
 11
-244.18322350000005
 21
483.75
  0
LINE
  8
_0-0_0
  6
CONTINUOUS
 62
    7
 10
-244.18322350000005
 20
483.25
 11
-244.18322350000005
 21
483.75
  0
LINE
  8
_0-0_0
  6
CONTINUOUS
 62
    7
 10
-244.08322150000004
 20
479.25
 11
-244.08322150000004
 21
479.38034099999999
  0
LINE
  8
_0-0_0
  6
CONTINUOUS
 62
    7
 10
-244.08322150000004
 20
482.88034099999999
 11
-244.08322150000004
 21
479.38034099999999
  0
LINE
  8
_0-0_0
  6
CONTINUOUS
 62
    7
 10
-244.18322350000005
 20
483.14999399999999
 11
-244.08322150000004
 21
483.14999399999999
  0
LINE
  8
_0-0_0
  6
CONTINUOUS
 62
    7
 10
-244.08322150000004
 20
482.88034099999999
 11
-244.08322150000004
 21
483.14999399999999
  0
LINE
  8
_0-0_0
  6
CONTINUOUS
 62
    7
 10
-244.18322350000005
 20
479.25
 11
-244.08322150000004
 21
479.25
  0
LINE
  8
_0-0_0
  6
CONTINUOUS
 62
    7
 10
-244.18322350000005
 20
479.25
 11
-244.08322150000004
 21
479.25
  0
LINE
  8
_0-0_0
  6
CONTINUOUS
 62
    7
 10
-262.58322150000004
 20
476.25
 11
-258.38322049999999
 21
476.25
  0
LINE
  8
_0-0_0
  6
CONTINUOUS
 62
    7
 10
-246.78322250000008
 20
476.25
 11
-249.18322350000005
 21
476.25
  0
LINE
  8
_0-0_0
  6
CONTINUOUS
 62
    7
 10
-246.78322250000008
 20
476.25
 11
-245.58322150000004
 21
476.25
  0
ARC
  8
_0-0_0
  6
CONTINUOUS
 62
    7
 10
-245.58322150000004
 20
475.75
 40
0.5
 50
0
 51
90.000003000000007
  0
ARC
  8
_0-0_0
  6
CONTINUOUS
 62
    7
 10
-246.78322250000008
 20
475.75
 40
0.5
 50
90.000003000000007
 51
179.99999099999999
  0
ARC
  8
_0-0_0
  6
CONTINUOUS
 62
    7
 10
-249.18322350000005
 20
476.75
 40
0.5
 50
179.99999099999999
 51
269.99999700000001
  0
ARC
  8
_0-0_0
  6
CONTINUOUS
 62
    7
 10
-258.38322049999999
 20
476.75
 40
0.5
 50
269.99999700000001
 51
0
  0
ARC
  8
_0-0_0
  6
CONTINUOUS
 62
    7
 10
-262.58322150000004
 20
475.75
 40
0.5
 50
90.000003000000007
 51
179.99999099999999
  0
LINE
  8
_0-0_0
  6
CONTINUOUS
 62
    7
 10
-261.58322150000004
 20
476.75
 11
-261.58322150000004
 21
476.25
  0
ARC
  8
_0-0_0
  6
CONTINUOUS
 62
    7
 10
-261.08322150000004
 20
476.75
 40
0.5
 50
90.000003000000007
 51
179.99999099999999
  0
LINE
  8
_0-0_0
  6
CONTINUOUS
 62
    7
 10
-259.58322150000004
 20
477.25
 11
-261.08322150000004
 21
477.25
  0
ARC
  8
_0-0_0
  6
CONTINUOUS
 62
    7
 10
-259.58322150000004
 20
478.25
 40
1
 50
269.99999700000001
 51
0
  0
LINE
  8
_0-0_0
  6
CONTINUOUS
 62
    7
 10
-258.58322150000004
 20
478.75
 11
-258.58322150000004
 21
478.25
  0
LINE
  8
_0-0_0
  6
CONTINUOUS
 62
    7
 10
-258.08322150000004
 20
478.75
 11
-258.08322150000004
 21
477.75
  0
ARC
  8
_0-0_0
  6
CONTINUOUS
 62
    7
 10
-259.58322150000004
 20
477.75
 40
1.5
 50
269.99999700000001
 51
0
  0
ARC
  8
_0-0_0
  6
CONTINUOUS
 62
    7
 10
-247.98322350000001
 20
477.75
 40
1.5
 50
179.99999099999999
 51
269.99999700000001
  0
LINE
  8
_0-0_0
  6
CONTINUOUS
 62
    7
 10
-245.98322350000001
 20
476.75
 11
-245.98322350000001
 21
476.25
  0
ARC
  8
_0-0_0
  6
CONTINUOUS
 62
    7
 10
-246.48322350000001
 20
476.75
 40
0.5
 50
0
 51
90.000003000000007
  0
LINE
  8
_0-0_0
  6
CONTINUOUS
 62
    7
 10
-247.98322350000001
 20
477.25
 11
-246.48322350000001
 21
477.25
  0
ARC
  8
_0-0_0
  6
CONTINUOUS
 62
    7
 10
-247.98322350000001
 20
478.25
 40
1
 50
179.99999099999999
 51
269.99999700000001
  0
LINE
  8
_0-0_0
  6
CONTINUOUS
 62
    7
 10
-248.98322350000001
 20
478.75
 11
-248.98322350000001
 21
478.25
  0
LINE
  8
_0-0_0
  6
CONTINUOUS
 62
    7
 10
-249.48322350000001
 20
478.75
 11
-249.48322350000001
 21
477.75
  0
LINE
  8
_0-0_0
  6
CONTINUOUS
 62
    7
 10
-245.08322150000004
 20
449.25
 11
-245.08322150000004
 21
450.14999399999999
  0
LINE
  8
_0-0_0
  6
CONTINUOUS
 62
    7
 10
-245.08322150000004
 20
450.14999399999999
 11
-245.08322150000004
 21
452.64999399999999
  0
LINE
  8
_0-0_0
  6
CONTINUOUS
 62
    7
 10
-245.08322150000004
 20
452.64999399999999
 11
-245.08322150000004
 21
473.25
  0
LINE
  8
_0-0_0
  6
CONTINUOUS
 62
    7
 10
-245.08322150000004
 20
473.25
 11
-245.08322150000004
 21
475.75
  0
LINE
  8
_0-0_0
  6
CONTINUOUS
 62
    7
 10
-247.28322250000008
 20
475.75
 11
-247.28322250000008
 21
474.504974
  0
LINE
  8
_0-0_0
  6
CONTINUOUS
 62
    7
 10
-249.68322350000005
 20
476.75
 11
-249.68322350000005
 21
478.54998799999998
  0
ARC
  8
_0-0_0
  6
CONTINUOUS
 62
    7
 10
-250.18322350000005
 20
478.54998799999998
 40
0.5
 50
0
 51
23.579369
  0
LINE
  8
_0-0_0
  6
CONTINUOUS
 62
    7
 10
-257.88322049999999
 20
476.75
 11
-257.88322049999999
 21
478.54998799999998
  0
ARC
  8
_0-0_0
  6
CONTINUOUS
 62
    7
 10
-257.38322049999999
 20
478.54998799999998
 40
0.5
 50
156.420635
 51
179.99999099999999
  0
LINE
  8
_0-0_0
  6
CONTINUOUS
 62
    7
 10
-263.08322150000004
 20
449.25
 11
-263.08322150000004
 21
459.44998199999998
  0
LINE
  8
_0-0_0
  6
CONTINUOUS
 62
    7
 10
-263.08322150000004
 20
459.44998199999998
 11
-263.08322150000004
 21
460.44998199999998
  0
LINE
  8
_0-0_0
  6
CONTINUOUS
 62
    7
 10
-263.08322150000004
 20
460.44998199999998
 11
-263.08322150000004
 21
465.44998199999998
  0
LINE
  8
_0-0_0
  6
CONTINUOUS
 62
    7
 10
-263.08322150000004
 20
465.44998199999998
 11
-263.08322150000004
 21
466.44998199999998
  0
LINE
  8
_0-0_0
  6
CONTINUOUS
 62
    7
 10
-263.08322150000004
 20
475.75
 11
-263.08322150000004
 21
466.44998199999998
  0
LINE
  8
_0-0_0
  6
CONTINUOUS
 62
    7
 10
-244.28322250000008
 20
474.75
 11
-245.08322150000004
 21
474.75
  0
LINE
  8
_0-0_0
  6
CONTINUOUS
 62
    7
 10
-244.28322250000008
 20
475.54998799999998
 11
-245.08322150000004
 21
475.54998799999998
  0
LINE
  8
_0-0_0
  6
CONTINUOUS
 62
    7
 10
-244.28322250000008
 20
474.54998799999998
 11
-244.28322250000008
 21
475.54998799999998
  0
LINE
  8
_0-0_0
  6
CONTINUOUS
 62
    7
 10
-244.28322250000008
 20
455.94998199999998
 11
-245.08322150000004
 21
455.94998199999998
  0
LINE
  8
_0-0_0
  6
CONTINUOUS
 62
    7
 10
-244.28322250000008
 20
455.94998199999998
 11
-244.28322250000008
 21
458.94998199999998
  0
LINE
  8
_0-0_0
  6
CONTINUOUS
 62
    7
 10
-244.28322250000008
 20
471.18768299999999
 11
-244.28322250000008
 21
458.94998199999998
  0
LINE
  8
_0-0_0
  6
CONTINUOUS
 62
    7
 10
-244.28322250000008
 20
471.18768299999999
 11
-244.28322250000008
 21
472.15045199999997
  0
LINE
  8
_0-0_0
  6
CONTINUOUS
 62
    7
 10
-245.08322150000004
 20
472.15045199999997
 11
-245.08322150000004
 21
474.75
  0
ARC
  8
_0-0_0
  6
CONTINUOUS
 62
    7
 10
-250.69814650000001
 20
471.43203699999998
 40
5.7120379999999997
 50
18.558475999999999
 51
26.433648000000002
  0
ARC
  8
_0-0_0
  6
CONTINUOUS
 62
    7
 10
-245.28322250000008
 20
473.25
 40
0.2
 50
269.99999700000001
 51
0
  0
ARC
  8
_0-0_0
  6
CONTINUOUS
 62
    7
 10
-245.28322250000008
 20
452.64999399999999
 40
0.2
 50
0
 51
90.000003000000007
  0
ARC
  8
_0-0_0
  6
CONTINUOUS
 62
    7
 10
-250.69803250000007
 20
454.46801799999997
 40
5.711964
 50
333.565022
 51
341.44031000000001
  0
ARC
  8
_0-0_0
  6
CONTINUOUS
 62
    7
 10
-245.58322150000004
 20
450.14999399999999
 40
0.5
 50
269.99999700000001
 51
0
  0
LINE
  8
_0-0_0
  6
CONTINUOUS
 62
    7
 10
-245.58322150000004
 20
449.25
 11
-245.08322150000004
 21
449.25
  0
LINE
  8
_0-0_0
  6
CONTINUOUS
 62
    7
 10
-245.08322150000004
 20
449.25
 11
-245.58322150000004
 21
448.75
  0
ARC
  8
_0-0_0
  6
CONTINUOUS
 62
    7
 10
-247.28322250000008
 20
471.75
 40
2.2999999999999998
 50
34.417387999999995
 51
79.713437000000013
  0
LINE
  8
_0-0_0
  6
CONTINUOUS
 62
    7
 10
-245.3445395
 20
473.04998799999998
 11
-245.38585250000006
 21
473.04998799999998
  0
LINE
  8
_0-0_0
  6
CONTINUOUS
 62
    7
 10
-245.3445395
 20
473.04998799999998
 11
-245.33498050000003
 21
473.05102499999998
  0
LINE
  8
_0-0_0
  6
CONTINUOUS
 62
    7
 10
-245.33498050000003
 20
473.05102499999998
 11
-245.3254895
 21
473.05419899999998
  0
LINE
  8
_0-0_0
  6
CONTINUOUS
 62
    7
 10
-245.3254895
 20
473.05419899999998
 11
-245.31623450000006
 21
473.05960099999999
  0
LINE
  8
_0-0_0
  6
CONTINUOUS
 62
    7
 10
-245.31623450000006
 20
473.05960099999999
 11
-245.30743849999999
 21
473.06710800000002
  0
LINE
  8
_0-0_0
  6
CONTINUOUS
 62
    7
 10
-245.30743849999999
 20
473.06710800000002
 11
-245.29203849999999
 21
473.08776899999998
  0
LINE
  8
_0-0_0
  6
CONTINUOUS
 62
    7
 10
-245.29203849999999
 20
473.08776899999998
 11
-245.28026250000005
 21
473.11502100000001
  0
LINE
  8
_0-0_0
  6
CONTINUOUS
 62
    7
 10
-245.28026250000005
 20
473.11502100000001
 11
-245.2730825000001
 21
473.147156
  0
LINE
  8
_0-0_0
  6
CONTINUOUS
 62
    7
 10
-245.2730825000001
 20
473.147156
 11
-245.2711905000001
 21
473.18221999999997
  0
LINE
  8
_0-0_0
  6
CONTINUOUS
 62
    7
 10
-245.2711905000001
 20
473.18221999999997
 11
-245.27503550000006
 21
473.21838400000001
  0
LINE
  8
_0-0_0
  6
CONTINUOUS
 62
    7
 10
-245.27503550000006
 20
473.21838400000001
 11
-245.28322250000008
 21
473.25
  0
ARC
  8
_0-0_0
  6
CONTINUOUS
 62
    7
 10
-246.78322250000008
 20
474.504974
 40
0.5
 50
179.99999099999999
 51
259.71343899999994
  0
LINE
  8
_0-0_0
  6
CONTINUOUS
 62
    7
 10
-262.28322250000008
 20
471.75
 11
-262.28322250000008
 21
458.14999399999999
  0
LINE
  8
_0-0_0
  6
CONTINUOUS
 62
    7
 10
-262.28322250000008
 20
457.64999399999999
 11
-262.28322250000008
 21
458.14999399999999
  0
LINE
  8
_0-0_0
  6
CONTINUOUS
 62
    7
 10
-262.28322250000008
 20
454.64999399999999
 11
-262.28322250000008
 21
457.64999399999999
  0
LINE
  8
_0-0_0
  6
CONTINUOUS
 62
    7
 10
-262.28322250000008
 20
454.14999399999999
 11
-262.28322250000008
 21
454.64999399999999
  0
ARC
  8
_0-0_0
  6
CONTINUOUS
 62
    7
 10
-260.28322250000008
 20
471.75
 40
2
 50
93.840255999999997
 51
179.99999099999999
  0
LINE
  8
_0-0_0
  6
CONTINUOUS
 62
    7
 10
-260.28322250000008
 20
473.75
 11
-251.28322250000008
 21
473.75
  0
LINE
  8
_0-0_0
  6
CONTINUOUS
 62
    7
 10
-247.28322250000008
 20
473.75
 11
-247.78322250000008
 21
473.75
  0
LINE
  8
_0-0_0
  6
CONTINUOUS
 62
    7
 10
-247.78322250000008
 20
473.75
 11
-250.78322250000008
 21
473.75
  0
LINE
  8
_0-0_0
  6
CONTINUOUS
 62
    7
 10
-251.28322250000008
 20
473.75
 11
-250.78322250000008
 21
473.75
  0
ARC
  8
_0-0_0
  6
CONTINUOUS
 62
    7
 10
-247.28322250000008
 20
471.75
 40
2
 50
0
 51
90.000003000000007
  0
LINE
  8
_0-0_0
  6
CONTINUOUS
 62
    7
 10
-263.28322250000008
 20
474.75
 11
-263.08322150000004
 21
474.75
  0
LINE
  8
_0-0_0
  6
CONTINUOUS
 62
    7
 10
-263.28322250000008
 20
475.54998799999998
 11
-263.08322150000004
 21
475.54998799999998
  0
LINE
  8
_0-0_0
  6
CONTINUOUS
 62
    7
 10
-263.28322250000008
 20
475.54998799999998
 11
-263.28322250000008
 21
474.75012199999998
  0
LINE
  8
_0-0_0
  6
CONTINUOUS
 62
    7
 10
-263.28322250000008
 20
455.94998199999998
 11
-263.08322150000004
 21
455.94998199999998
  0
LINE
  8
_0-0_0
  6
CONTINUOUS
 62
    7
 10
-263.28322250000008
 20
458.94998199999998
 11
-263.28322250000008
 21
455.94998199999998
  0
LINE
  8
_0-0_0
  6
CONTINUOUS
 62
    7
 10
-263.28322250000008
 20
471.18768299999999
 11
-263.28322250000008
 21
458.94998199999998
  0
LINE
  8
_0-0_0
  6
CONTINUOUS
 62
    7
 10
-263.28322250000008
 20
472.15045199999997
 11
-263.28322250000008
 21
471.18768299999999
  0
ARC
  8
_0-0_0
  6
CONTINUOUS
 62
    7
 10
-262.58322150000004
 20
465.44998199999998
 40
0.5
 50
90.000003000000007
 51
179.99999099999999
  0
ARC
  8
_0-0_0
  6
CONTINUOUS
 62
    7
 10
-262.58322150000004
 20
460.44998199999998
 40
0.5
 50
179.99999099999999
 51
269.99999700000001
  0
LINE
  8
_0-0_0
  6
CONTINUOUS
 62
    7
 10
-263.08322150000004
 20
449.25
 11
-262.58322150000004
 21
449.25
  0
LINE
  8
_0-0_0
  6
CONTINUOUS
 62
    7
 10
-263.08322150000004
 20
449.25
 11
-262.58322150000004
 21
448.75
  0
LINE
  8
_0-0_0
  6
CONTINUOUS
 62
    7
 10
-245.08322150000004
 20
455.95001200000002
 11
-245.08322150000004
 21
454.79998799999998
  0
ARC
  8
_0-0_0
  6
CONTINUOUS
 62
    7
 10
-247.48322350000001
 20
454.79998799999998
 40
2.3999999999999999
 50
359.58604600000001
 51
0.0000099999999787
  0
LINE
  8
_0-0_0
  6
CONTINUOUS
 62
    7
 10
-244.28322250000008
 20
472.15045199999997
 11
-244.28322250000008
 21
474.75
  0
LINE
  8
_0-0_0
  6
CONTINUOUS
 62
    7
 10
-245.28322250000008
 20
473.04998799999998
 11
-245.3445395
 21
473.04998799999998
  0
LINE
  8
_0-0_0
  6
CONTINUOUS
 62
    7
 10
-245.38585250000006
 20
473.04998799999998
 11
-245.3880805
 21
473.04998799999998
  0
LINE
  8
_0-0_0
  6
CONTINUOUS
 62
    7
 10
-245.58322150000004
 20
449.25
 11
-262.58322150000004
 21
449.25
  0
LINE
  8
_0-0_0
  6
CONTINUOUS
 62
    7
 10
-245.51975650000008
 20
453.04998799999998
 11
-245.48283050000009
 21
452.97976699999998
  0
LINE
  8
_0-0_0
  6
CONTINUOUS
 62
    7
 10
-245.48283050000009
 20
452.97976699999998
 11
-245.46322650000002
 21
452.94528200000002
  0
LINE
  8
_0-0_0
  6
CONTINUOUS
 62
    7
 10
-245.46322650000002
 20
452.94528200000002
 11
-245.43714150000005
 21
452.90344199999998
  0
LINE
  8
_0-0_0
  6
CONTINUOUS
 62
    7
 10
-245.43714150000005
 20
452.90344199999998
 11
-245.4238325
 21
452.88439899999997
  0
LINE
  8
_0-0_0
  6
CONTINUOUS
 62
    7
 10
-245.4238325
 20
452.88439899999997
 11
-245.40547550000008
 21
452.86200000000002
  0
LINE
  8
_0-0_0
  6
CONTINUOUS
 62
    7
 10
-245.40547550000008
 20
452.86200000000002
 11
-245.39268150000009
 21
452.85137900000001
  0
LINE
  8
_0-0_0
  6
CONTINUOUS
 62
    7
 10
-245.39268150000009
 20
452.85137900000001
 11
-245.3880805
 21
452.84997600000003
  0
LINE
  8
_0-0_0
  6
CONTINUOUS
 62
    7
 10
-245.38585250000006
 20
452.84997600000003
 11
-245.3880805
 21
452.84997600000003
  0
LINE
  8
_0-0_0
  6
CONTINUOUS
 62
    7
 10
-245.51975650000008
 20
472.84997600000003
 11
-245.48283050000009
 21
472.92022700000001
  0
LINE
  8
_0-0_0
  6
CONTINUOUS
 62
    7
 10
-245.48283050000009
 20
472.92022700000001
 11
-245.46322250000003
 21
472.95468099999999
  0
LINE
  8
_0-0_0
  6
CONTINUOUS
 62
    7
 10
-245.46322250000003
 20
472.95468099999999
 11
-245.43714150000005
 21
472.99652099999997
  0
LINE
  8
_0-0_0
  6
CONTINUOUS
 62
    7
 10
-245.43714150000005
 20
472.99652099999997
 11
-245.4238325
 21
473.01556399999998
  0
LINE
  8
_0-0_0
  6
CONTINUOUS
 62
    7
 10
-245.4238325
 20
473.01556399999998
 11
-245.40547550000008
 21
473.03796399999999
  0
LINE
  8
_0-0_0
  6
CONTINUOUS
 62
    7
 10
-245.40547550000008
 20
473.03796399999999
 11
-245.39268150000009
 21
473.04858400000001
  0
LINE
  8
_0-0_0
  6
CONTINUOUS
 62
    7
 10
-245.39268150000009
 20
473.04858400000001
 11
-245.3880805
 21
473.04998799999998
  0
LINE
  8
_0-0_0
  6
CONTINUOUS
 62
    7
 10
-245.38585250000006
 20
452.84997600000003
 11
-245.3445395
 21
452.84997600000003
  0
LINE
  8
_0-0_0
  6
CONTINUOUS
 62
    7
 10
-245.28322250000008
 20
452.84997600000003
 11
-245.3445395
 21
452.84997600000003
  0
LINE
  8
_0-0_0
  6
CONTINUOUS
 62
    7
 10
-245.3445395
 20
452.84997600000003
 11
-245.33498050000003
 21
452.84893799999998
  0
LINE
  8
_0-0_0
  6
CONTINUOUS
 62
    7
 10
-245.33498050000003
 20
452.84893799999998
 11
-245.3254895
 21
452.84576399999997
  0
LINE
  8
_0-0_0
  6
CONTINUOUS
 62
    7
 10
-245.3254895
 20
452.84576399999997
 11
-245.31623450000006
 21
452.84036300000002
  0
LINE
  8
_0-0_0
  6
CONTINUOUS
 62
    7
 10
-245.31623450000006
 20
452.84036300000002
 11
-245.30743849999999
 21
452.832855
  0
LINE
  8
_0-0_0
  6
CONTINUOUS
 62
    7
 10
-245.30743849999999
 20
452.832855
 11
-245.29203849999999
 21
452.81222500000001
  0
LINE
  8
_0-0_0
  6
CONTINUOUS
 62
    7
 10
-245.29203849999999
 20
452.81222500000001
 11
-245.28026250000005
 21
452.784943
  0
LINE
  8
_0-0_0
  6
CONTINUOUS
 62
    7
 10
-245.28026250000005
 20
452.784943
 11
-245.2730825000001
 21
452.75280800000002
  0
LINE
  8
_0-0_0
  6
CONTINUOUS
 62
    7
 10
-245.2730825000001
 20
452.75280800000002
 11
-245.2711905000001
 21
452.71774299999998
  0
LINE
  8
_0-0_0
  6
CONTINUOUS
 62
    7
 10
-245.2711905000001
 20
452.71774299999998
 11
-245.27503550000006
 21
452.68158
  0
LINE
  8
_0-0_0
  6
CONTINUOUS
 62
    7
 10
-245.27503550000006
 20
452.68158
 11
-245.28322250000008
 21
452.64999399999999
  0
ARC
  8
_0-0_0
  6
CONTINUOUS
 62
    7
 10
-247.28322250000008
 20
454.14999399999999
 40
2.2999999999999998
 50
280.28656300000006
 51
325.58260500000006
  0
LINE
  8
_0-0_0
  6
CONTINUOUS
 62
    7
 10
-245.58322150000004
 20
449.64999399999999
 11
-246.78322250000008
 21
449.64999399999999
  0
LINE
  8
_0-0_0
  6
CONTINUOUS
 62
    7
 10
-245.58322150000004
 20
448.75
 11
-262.58322150000004
 21
448.75
  0
LINE
  8
_0-0_0
  6
CONTINUOUS
 62
    7
 10
-262.28322950000006
 20
465.94998199999998
 11
-262.58322150000004
 21
465.94998199999998
  0
ARC
  8
_0-0_0
  6
CONTINUOUS
 62
    7
 10
-261.78322250000008
 20
458.14999399999999
 40
0.5
 50
179.99999099999999
 51
269.99999700000001
  0
CIRCLE
  8
_0-0_0
  6
CONTINUOUS
 62
    7
 10
-259.78322250000008
 20
454.64999399999999
 40
2.5
  0
LINE
  8
_0-0_0
  6
CONTINUOUS
 62
    7
 10
-256.78322250000008
 20
452.14999399999999
 11
-259.78322250000008
 21
452.14999399999999
  0
LINE
  8
_0-0_0
  6
CONTINUOUS
 62
    7
 10
-256.28322250000008
 20
452.14999399999999
 11
-256.78322250000008
 21
452.14999399999999
  0
ARC
  8
_0-0_0
  6
CONTINUOUS
 62
    7
 10
-260.28322250000008
 20
454.14999399999999
 40
2
 50
179.99999099999999
 51
269.99999700000001
  0
LINE
  8
_0-0_0
  6
CONTINUOUS
 62
    7
 10
-259.78322250000008
 20
452.14999399999999
 11
-260.28322250000008
 21
452.14999399999999
  0
LINE
  8
_0-0_0
  6
CONTINUOUS
 62
    7
 10
-260.28322250000008
 20
473.64733899999999
 11
-260.2991025
 21
473.67459100000002
  0
LINE
  8
_0-0_0
  6
CONTINUOUS
 62
    7
 10
-260.2991025
 20
473.67459100000002
 11
-260.31494950000001
 21
473.69757099999998
  0
LINE
  8
_0-0_0
  6
CONTINUOUS
 62
    7
 10
-260.31494950000001
 20
473.69757099999998
 11
-260.32893050000007
 21
473.71432499999997
  0
LINE
  8
_0-0_0
  6
CONTINUOUS
 62
    7
 10
-260.32893050000007
 20
473.71432499999997
 11
-260.3428265
 21
473.72766100000001
  0
LINE
  8
_0-0_0
  6
CONTINUOUS
 62
    7
 10
-260.3428265
 20
473.72766100000001
 11
-260.35504550000007
 21
473.736603
  0
LINE
  8
_0-0_0
  6
CONTINUOUS
 62
    7
 10
-260.35504550000007
 20
473.736603
 11
-260.36716450000006
 21
473.74279799999999
  0
LINE
  8
_0-0_0
  6
CONTINUOUS
 62
    7
 10
-260.36716450000006
 20
473.74279799999999
 11
-260.37802850000003
 21
473.74609400000003
  0
LINE
  8
_0-0_0
  6
CONTINUOUS
 62
    7
 10
-260.37802850000003
 20
473.74609400000003
 11
-260.38879050000003
 21
473.74713100000002
  0
LINE
  8
_0-0_0
  6
CONTINUOUS
 62
    7
 10
-260.38879050000003
 20
473.74713100000002
 11
-260.39125050000007
 21
473.74707000000001
  0
LINE
  8
_0-0_0
  6
CONTINUOUS
 62
    7
 10
-245.28322250000008
 20
471.25
 11
-245.28322250000008
 21
471.75
  0
CIRCLE
  8
_0-0_0
  6
CONTINUOUS
 62
    7
 10
-247.78322250000008
 20
471.25
 40
2.5
  0
LINE
  8
_0-0_0
  6
CONTINUOUS
 62
    7
 10
-245.28322250000008
 20
468.25
 11
-245.28322250000008
 21
467.75
  0
LINE
  8
_0-0_0
  6
CONTINUOUS
 62
    7
 10
-245.28322250000008
 20
468.25
 11
-245.28322250000008
 21
471.25
  0
ARC
  8
_0-0_0
  6
CONTINUOUS
 62
    7
 10
-251.28322250000008
 20
473.25
 40
0.5
 50
0
 51
90.000003000000007
  0
LINE
  8
_0-0_0
  6
CONTINUOUS
 62
    7
 10
-245.28322250000008
 20
454.14999399999999
 11
-245.28322250000008
 21
467.75
  0
LINE
  8
_0-0_0
  6
CONTINUOUS
 62
    7
 10
-263.28322250000008
 20
474.75
 11
-263.28322250000008
 21
472.15045199999997
  0
LINE
  8
_0-0_0
  6
CONTINUOUS
 62
    7
 10
-262.58322150000004
 20
459.94998199999998
 11
-262.28322950000006
 21
459.94998199999998
  0
LINE
  8
_0-0_0
  6
CONTINUOUS
 62
    7
 10
-245.08322150000004
 20
475.550049
 11
-245.08322150000004
 21
475.75
  0
ARC
  8
_0-0_0
  6
CONTINUOUS
 62
    7
 10
-247.28322250000008
 20
454.14999399999999
 40
2
 50
273.84026500000004
 51
0.000010000000014
  0
LINE
  8
_0-0_0
  6
CONTINUOUS
 62
    7
 10
-247.28322250000008
 20
452.14999399999999
 11
-256.28322250000008
 21
452.14999399999999
  0
ARC
  8
_0-0_0
  6
CONTINUOUS
 62
    7
 10
-246.78322250000008
 20
451.39498900000001
 40
0.5
 50
100.28656100000001
 51
179.99999099999999
  0
LINE
  8
_0-0_0
  6
CONTINUOUS
 62
    7
 10
-247.28322250000008
 20
450.14999399999999
 11
-247.28322250000008
 21
451.39498900000001
  0
ARC
  8
_0-0_0
  6
CONTINUOUS
 62
    7
 10
-246.78322250000008
 20
450.14999399999999
 40
0.5
 50
179.99999099999999
 51
269.99999700000001
  0
LINE
  8
_0-0_0
  6
CONTINUOUS
 62
    7
 10
-261.70624950000001
 20
457.64999399999999
 11
-261.78322250000008
 21
457.64999399999999
  0
LINE
  8
_0-0_0
  6
CONTINUOUS
 62
    7
 10
-259.78322250000008
 20
457.64999399999999
 11
-260.26472450000006
 21
457.64999399999999
  0
LINE
  8
_0-0_0
  6
CONTINUOUS
 62
    7
 10
-260.26472450000006
 20
457.64999399999999
 11
-261.70624950000001
 21
457.64999399999999
  0
LINE
  8
_0-0_0
  6
CONTINUOUS
 62
    7
 10
-256.78322250000008
 20
452.64999399999999
 11
-256.78322250000008
 21
452.72695900000002
  0
LINE
  8
_0-0_0
  6
CONTINUOUS
 62
    7
 10
-256.78322250000008
 20
454.16848800000002
 11
-256.78322250000008
 21
452.72695900000002
  0
LINE
  8
_0-0_0
  6
CONTINUOUS
 62
    7
 10
-256.78322250000008
 20
454.16848800000002
 11
-256.78322250000008
 21
454.64999399999999
  0
ARC
  8
_0-0_0
  6
CONTINUOUS
 62
    7
 10
-259.78322250000008
 20
454.64999399999999
 40
3
 50
0
 51
89.999995999999996
  0
ARC
  8
_0-0_0
  6
CONTINUOUS
 62
    7
 10
-256.28322250000008
 20
452.64999399999999
 40
0.5
 50
179.99999099999999
 51
269.99999700000001
  0
LINE
  8
_0-0_0
  6
CONTINUOUS
 62
    7
 10
-250.78322250000008
 20
473.17300399999999
 11
-250.78322250000008
 21
473.25
  0
LINE
  8
_0-0_0
  6
CONTINUOUS
 62
    7
 10
-250.78322250000008
 20
471.73147599999999
 11
-250.78322250000008
 21
473.17300399999999
  0
LINE
  8
_0-0_0
  6
CONTINUOUS
 62
    7
 10
-250.78322250000008
 20
471.25
 11
-250.78322250000008
 21
471.73147599999999
  0
ARC
  8
_0-0_0
  6
CONTINUOUS
 62
    7
 10
-247.78322250000008
 20
471.25
 40
3
 50
179.99999099999999
 51
269.99999700000001
  0
LINE
  8
_0-0_0
  6
CONTINUOUS
 62
    7
 10
-247.30172350000009
 20
468.25
 11
-247.78322250000008
 21
468.25
  0
LINE
  8
_0-0_0
  6
CONTINUOUS
 62
    7
 10
-247.30172350000009
 20
468.25
 11
-245.86019550000003
 21
468.25
  0
LINE
  8
_0-0_0
  6
CONTINUOUS
 62
    7
 10
-245.78322250000008
 20
468.25
 11
-245.86019550000003
 21
468.25
  0
ARC
  8
_0-0_0
  6
CONTINUOUS
 62
    7
 10
-245.78322250000008
 20
467.75
 40
0.5
 50
0
 51
90.000003000000007
  0
LINE
  8
_0-0_0
  6
CONTINUOUS
 62
    7
 10
-247.28322250000008
 20
452.25262500000002
 11
-247.26734150000004
 21
452.22537199999999
  0
LINE
  8
_0-0_0
  6
CONTINUOUS
 62
    7
 10
-247.26734150000004
 20
452.22537199999999
 11
-247.25149550000003
 21
452.20239299999997
  0
LINE
  8
_0-0_0
  6
CONTINUOUS
 62
    7
 10
-247.25149550000003
 20
452.20239299999997
 11
-247.23751450000009
 21
452.18563799999998
  0
LINE
  8
_0-0_0
  6
CONTINUOUS
 62
    7
 10
-247.23751450000009
 20
452.18563799999998
 11
-247.22361750000005
 21
452.172302
  0
LINE
  8
_0-0_0
  6
CONTINUOUS
 62
    7
 10
-247.22361750000005
 20
452.172302
 11
-247.21139950000008
 21
452.16339099999999
  0
LINE
  8
_0-0_0
  6
CONTINUOUS
 62
    7
 10
-247.21139950000008
 20
452.16339099999999
 11
-247.19928350000009
 21
452.15716600000002
  0
LINE
  8
_0-0_0
  6
CONTINUOUS
 62
    7
 10
-247.19928350000009
 20
452.15716600000002
 11
-247.18841550000002
 21
452.15390000000002
  0
LINE
  8
_0-0_0
  6
CONTINUOUS
 62
    7
 10
-247.18841550000002
 20
452.15390000000002
 11
-247.17765450000002
 21
452.15283199999999
  0
LINE
  8
_0-0_0
  6
CONTINUOUS
 62
    7
 10
-247.17765450000002
 20
452.15283199999999
 11
-247.17519750000008
 21
452.15289300000001
  0
ARC
  8
_0-0_0
  6
CONTINUOUS
 62
    7
 10
-257.01333650000004
 20
461.77673299999998
 40
3.063399
 50
199.82113599999997
 51
205.28948099999999
  0
ARC
  8
_0-0_0
  6
CONTINUOUS
 62
    7
 10
-257.01365650000002
 20
464.12335200000001
 40
3.0630549999999999
 50
154.710137
 51
160.17869999999999
  0
ARC
  8
_0-0_0
  6
CONTINUOUS
 62
    7
 10
-253.78322250000008
 20
462.94998199999998
 40
6.5
 50
160.10415599999999
 51
199.895612
  0
ARC
  8
_0-0_0
  6
CONTINUOUS
 62
    7
 10
-250.55310450000002
 20
464.12322999999998
 40
3.0633949999999999
 50
19.82113
 51
25.289566000000001
  0
ARC
  8
_0-0_0
  6
CONTINUOUS
 62
    7
 10
-250.55278450000003
 20
461.776611
 40
3.0630519999999999
 50
334.71006
 51
340.17869200000001
  0
LINE
  8
_0-0_0
  6
CONTINUOUS
 62
    7
 10
-253.04155350000008
 20
456.44998199999998
 11
-248.52489150000008
 21
459.05767800000001
  0
LINE
  8
_0-0_0
  6
CONTINUOUS
 62
    7
 10
-254.52489150000008
 20
456.44998199999998
 11
-253.04155350000008
 21
456.44998199999998
  0
LINE
  8
_0-0_0
  6
CONTINUOUS
 62
    7
 10
-259.04155350000008
 20
459.05767800000001
 11
-254.52489150000008
 21
456.44998199999998
  0
LINE
  8
_0-0_0
  6
CONTINUOUS
 62
    7
 10
-259.78322250000008
 20
465.55767800000001
 11
-259.78322250000008
 21
460.342285
  0
LINE
  8
_0-0_0
  6
CONTINUOUS
 62
    7
 10
-259.04155350000008
 20
459.05767800000001
 11
-259.78322250000008
 21
460.342285
  0
LINE
  8
_0-0_0
  6
CONTINUOUS
 62
    7
 10
-254.52489150000008
 20
469.44998199999998
 11
-259.04155350000008
 21
466.842285
  0
LINE
  8
_0-0_0
  6
CONTINUOUS
 62
    7
 10
-259.33567850000009
 20
466.332855
 11
-259.78322250000008
 21
465.55767800000001
  0
LINE
  8
_0-0_0
  6
CONTINUOUS
 62
    7
 10
-259.33567850000009
 20
466.332855
 11
-259.04155350000008
 21
466.842285
  0
LINE
  8
_0-0_0
  6
CONTINUOUS
 62
    7
 10
-253.04155350000008
 20
469.44998199999998
 11
-254.52489150000008
 21
469.44998199999998
  0
LINE
  8
_0-0_0
  6
CONTINUOUS
 62
    7
 10
-248.52489150000008
 20
466.842285
 11
-253.04155350000008
 21
469.44998199999998
  0
ARC
  8
_0-0_0
  6
CONTINUOUS
 62
    7
 10
-253.78322250000008
 20
462.94998199999998
 40
6.5
 50
340.10416099999998
 51
19.895609999999952
  0
LINE
  8
_0-0_0
  6
CONTINUOUS
 62
    7
 10
-248.23077050000006
 20
459.56710800000002
 11
-247.78322250000008
 21
460.342285
  0
LINE
  8
_0-0_0
  6
CONTINUOUS
 62
    7
 10
-248.23077050000006
 20
459.56710800000002
 11
-248.52489150000008
 21
459.05767800000001
  0
CIRCLE
  8
_0-0_0
  6
CONTINUOUS
 62
    7
 10
-253.78322250000008
 20
462.94998199999998
 40
5.25
  0
LINE
  8
_0-0_0
  6
CONTINUOUS
 62
    7
 10
-247.78322250000008
 20
465.55767800000001
 11
-247.78322250000008
 21
460.342285
  0
LINE
  8
_0-0_0
  6
CONTINUOUS
 62
    7
 10
-248.52489150000008
 20
466.842285
 11
-247.78322250000008
 21
465.55767800000001
  0
LINE
  8
_0-0_0
  6
CONTINUOUS
 62
    7
 10
-245.89621350000004
 20
472.47543300000001
 11
-245.61816050000004
 21
472.5
  0
LINE
  8
_0-0_0
  6
CONTINUOUS
 62
    7
 10
-245.77845750000006
 20
472.27145400000001
 11
-245.61816050000004
 21
472.5
  0
LINE
  8
_0-0_0
  6
CONTINUOUS
 62
    7
 10
-246.03464150000002
 20
472.665955
 11
-245.76067750000004
 21
472.71945199999999
  0
LINE
  8
_0-0_0
  6
CONTINUOUS
 62
    7
 10
-245.89621350000004
 20
472.47543300000001
 11
-245.76067750000004
 21
472.71945199999999
  0
LINE
  8
_0-0_0
  6
CONTINUOUS
 62
    7
 10
-246.19223450000004
 20
472.84097300000002
 11
-245.92535750000002
 21
472.922821
  0
LINE
  8
_0-0_0
  6
CONTINUOUS
 62
    7
 10
-246.03464150000002
 20
472.665955
 11
-245.92535750000002
 21
472.922821
  0
LINE
  8
_0-0_0
  6
CONTINUOUS
 62
    7
 10
-246.36725250000006
 20
472.99856599999998
 11
-246.1103935000001
 21
473.10784899999999
  0
LINE
  8
_0-0_0
  6
CONTINUOUS
 62
    7
 10
-246.19223450000004
 20
472.84097300000002
 11
-246.1103935000001
 21
473.10784899999999
  0
LINE
  8
_0-0_0
  6
CONTINUOUS
 62
    7
 10
-246.55778550000002
 20
473.13699300000002
 11
-246.31375850000006
 21
473.27252199999998
  0
LINE
  8
_0-0_0
  6
CONTINUOUS
 62
    7
 10
-246.36725250000006
 20
472.99856599999998
 11
-246.31375850000006
 21
473.27252199999998
  0
LINE
  8
_0-0_0
  6
CONTINUOUS
 62
    7
 10
-246.76174550000007
 20
473.25476099999997
 11
-246.53322250000008
 21
473.41503899999998
  0
LINE
  8
_0-0_0
  6
CONTINUOUS
 62
    7
 10
-246.55778550000002
 20
473.13699300000002
 11
-246.53322250000008
 21
473.41503899999998
  0
LINE
  8
_0-0_0
  6
CONTINUOUS
 62
    7
 10
-246.97689450000007
 20
473.350525
 11
-246.76638050000008
 21
473.53384399999999
  0
LINE
  8
_0-0_0
  6
CONTINUOUS
 62
    7
 10
-246.76174550000007
 20
473.25476099999997
 11
-246.76638050000008
 21
473.53384399999999
  0
LINE
  8
_0-0_0
  6
CONTINUOUS
 62
    7
 10
-247.20087850000004
 20
473.42330900000002
 11
-247.01067750000004
 21
473.62762500000002
  0
LINE
  8
_0-0_0
  6
CONTINUOUS
 62
    7
 10
-246.97689450000007
 20
473.350525
 11
-247.01067750000004
 21
473.62762500000002
  0
LINE
  8
_0-0_0
  6
CONTINUOUS
 62
    7
 10
-247.43124450000005
 20
473.47228999999999
 11
-247.26344349999999
 21
473.69534299999998
  0
LINE
  8
_0-0_0
  6
CONTINUOUS
 62
    7
 10
-247.20087850000004
 20
473.42330900000002
 11
-247.26344349999999
 21
473.69534299999998
  0
LINE
  8
_0-0_0
  6
CONTINUOUS
 62
    7
 10
-247.66546650000009
 20
473.49688700000002
 11
-247.52190050000002
 21
473.73629799999998
  0
LINE
  8
_0-0_0
  6
CONTINUOUS
 62
    7
 10
-247.43124450000005
 20
473.47228999999999
 11
-247.52190050000002
 21
473.73629799999998
  0
LINE
  8
_0-0_0
  6
CONTINUOUS
 62
    7
 10
-247.90097850000006
 20
473.49688700000002
 11
-247.78322250000008
 21
473.75
  0
LINE
  8
_0-0_0
  6
CONTINUOUS
 62
    7
 10
-247.66546650000009
 20
473.49688700000002
 11
-247.78322250000008
 21
473.75
  0
LINE
  8
_0-0_0
  6
CONTINUOUS
 62
    7
 10
-248.1352005
 20
473.47228999999999
 11
-248.04454450000003
 21
473.73629799999998
  0
LINE
  8
_0-0_0
  6
CONTINUOUS
 62
    7
 10
-247.90097850000006
 20
473.49688700000002
 11
-248.04454450000003
 21
473.73629799999998
  0
LINE
  8
_0-0_0
  6
CONTINUOUS
 62
    7
 10
-248.3655665
 20
473.42330900000002
 11
-248.30300150000005
 21
473.69534299999998
  0
LINE
  8
_0-0_0
  6
CONTINUOUS
 62
    7
 10
-248.1352005
 20
473.47228999999999
 11
-248.30300150000005
 21
473.69534299999998
  0
LINE
  8
_0-0_0
  6
CONTINUOUS
 62
    7
 10
-248.58955050000009
 20
473.350525
 11
-248.5557675
 21
473.62762500000002
  0
LINE
  8
_0-0_0
  6
CONTINUOUS
 62
    7
 10
-248.3655665
 20
473.42330900000002
 11
-248.5557675
 21
473.62762500000002
  0
LINE
  8
_0-0_0
  6
CONTINUOUS
 62
    7
 10
-248.80469950000008
 20
473.25476099999997
 11
-248.80006450000008
 21
473.53384399999999
  0
LINE
  8
_0-0_0
  6
CONTINUOUS
 62
    7
 10
-248.58955050000009
 20
473.350525
 11
-248.80006450000008
 21
473.53384399999999
  0
LINE
  8
_0-0_0
  6
CONTINUOUS
 62
    7
 10
-248.92423650000001
 20
473.338593
 11
-249.03322250000008
 21
473.41503899999998
  0
LINE
  8
_0-0_0
  6
CONTINUOUS
 62
    7
 10
-248.80469950000008
 20
473.25476099999997
 11
-248.92423650000001
 21
473.338593
  0
LINE
  8
_0-0_0
  6
CONTINUOUS
 62
    7
 10
-249.00865950000002
 20
473.13699300000002
 11
-249.03322250000008
 21
473.41503899999998
  0
LINE
  8
_0-0_0
  6
CONTINUOUS
 62
    7
 10
-249.19919250000009
 20
472.99856599999998
 11
-249.2526855000001
 21
473.27252199999998
  0
LINE
  8
_0-0_0
  6
CONTINUOUS
 62
    7
 10
-249.00865950000002
 20
473.13699300000002
 11
-249.2526855000001
 21
473.27252199999998
  0
LINE
  8
_0-0_0
  6
CONTINUOUS
 62
    7
 10
-249.3742105
 20
472.84097300000002
 11
-249.45605050000006
 21
473.10784899999999
  0
LINE
  8
_0-0_0
  6
CONTINUOUS
 62
    7
 10
-249.19919250000009
 20
472.99856599999998
 11
-249.45605050000006
 21
473.10784899999999
  0
LINE
  8
_0-0_0
  6
CONTINUOUS
 62
    7
 10
-249.53180350000002
 20
472.665955
 11
-249.64108650000003
 21
472.922821
  0
LINE
  8
_0-0_0
  6
CONTINUOUS
 62
    7
 10
-249.3742105
 20
472.84097300000002
 11
-249.64108650000003
 21
472.922821
  0
LINE
  8
_0-0_0
  6
CONTINUOUS
 62
    7
 10
-249.6702305
 20
472.47543300000001
 11
-249.8057675
 21
472.71945199999999
  0
LINE
  8
_0-0_0
  6
CONTINUOUS
 62
    7
 10
-249.53180350000002
 20
472.665955
 11
-249.8057675
 21
472.71945199999999
  0
LINE
  8
_0-0_0
  6
CONTINUOUS
 62
    7
 10
-249.78798649999999
 20
472.27145400000001
 11
-249.9482845
 21
472.5
  0
LINE
  8
_0-0_0
  6
CONTINUOUS
 62
    7
 10
-249.6702305
 20
472.47543300000001
 11
-249.9482845
 21
472.5
  0
LINE
  8
_0-0_0
  6
CONTINUOUS
 62
    7
 10
-249.88377750000006
 20
472.05630500000001
 11
-250.06708550000008
 21
472.26681500000001
  0
LINE
  8
_0-0_0
  6
CONTINUOUS
 62
    7
 10
-249.78798649999999
 20
472.27145400000001
 11
-250.06708550000008
 21
472.26681500000001
  0
LINE
  8
_0-0_0
  6
CONTINUOUS
 62
    7
 10
-249.95655450000004
 20
471.832336
 11
-250.16086250000001
 21
472.02252199999998
  0
LINE
  8
_0-0_0
  6
CONTINUOUS
 62
    7
 10
-249.88377750000006
 20
472.05630500000001
 11
-250.16086250000001
 21
472.02252199999998
  0
LINE
  8
_0-0_0
  6
CONTINUOUS
 62
    7
 10
-250.00551949999999
 20
471.60195900000002
 11
-250.22859249999999
 21
471.76977499999998
  0
LINE
  8
_0-0_0
  6
CONTINUOUS
 62
    7
 10
-249.95655450000004
 20
471.832336
 11
-250.22859249999999
 21
471.76977499999998
  0
LINE
  8
_0-0_0
  6
CONTINUOUS
 62
    7
 10
-250.00551949999999
 20
471.60195900000002
 11
-250.26952750000009
 21
471.51129200000003
  0
LINE
  8
_0-0_0
  6
CONTINUOUS
 62
    7
 10
-250.03014050000002
 20
471.36773699999998
 11
-250.26952750000009
 21
471.51129200000003
  0
LINE
  8
_0-0_0
  6
CONTINUOUS
 62
    7
 10
-250.03014050000002
 20
471.13223299999999
 11
-250.28322250000008
 21
471.25
  0
LINE
  8
_0-0_0
  6
CONTINUOUS
 62
    7
 10
-250.03014050000002
 20
471.36773699999998
 11
-250.28322250000008
 21
471.25
  0
LINE
  8
_0-0_0
  6
CONTINUOUS
 62
    7
 10
-250.00551949999999
 20
470.89801
 11
-250.26952750000009
 21
470.98864700000001
  0
LINE
  8
_0-0_0
  6
CONTINUOUS
 62
    7
 10
-250.03014050000002
 20
471.13223299999999
 11
-250.26952750000009
 21
470.98864700000001
  0
LINE
  8
_0-0_0
  6
CONTINUOUS
 62
    7
 10
-249.95655450000004
 20
470.66763300000002
 11
-250.22859249999999
 21
470.73019399999998
  0
LINE
  8
_0-0_0
  6
CONTINUOUS
 62
    7
 10
-250.00551949999999
 20
470.89801
 11
-250.22859249999999
 21
470.73019399999998
  0
LINE
  8
_0-0_0
  6
CONTINUOUS
 62
    7
 10
-249.88377750000006
 20
470.44366500000001
 11
-250.16086250000001
 21
470.47744799999998
  0
LINE
  8
_0-0_0
  6
CONTINUOUS
 62
    7
 10
-249.95655450000004
 20
470.66763300000002
 11
-250.16086250000001
 21
470.47744799999998
  0
LINE
  8
_0-0_0
  6
CONTINUOUS
 62
    7
 10
-249.78798649999999
 20
470.22851600000001
 11
-250.06708550000008
 21
470.23315400000001
  0
LINE
  8
_0-0_0
  6
CONTINUOUS
 62
    7
 10
-249.88377750000006
 20
470.44366500000001
 11
-250.06708550000008
 21
470.23315400000001
  0
LINE
  8
_0-0_0
  6
CONTINUOUS
 62
    7
 10
-249.6702305
 20
470.02453600000001
 11
-249.9482845
 21
470
  0
LINE
  8
_0-0_0
  6
CONTINUOUS
 62
    7
 10
-249.78798649999999
 20
470.22851600000001
 11
-249.9482845
 21
470
  0
LINE
  8
_0-0_0
  6
CONTINUOUS
 62
    7
 10
-249.53180350000002
 20
469.83401500000002
 11
-249.8057675
 21
469.78051799999997
  0
LINE
  8
_0-0_0
  6
CONTINUOUS
 62
    7
 10
-249.6702305
 20
470.02453600000001
 11
-249.8057675
 21
469.78051799999997
  0
LINE
  8
_0-0_0
  6
CONTINUOUS
 62
    7
 10
-249.3742105
 20
469.658997
 11
-249.64108650000003
 21
469.57714800000002
  0
LINE
  8
_0-0_0
  6
CONTINUOUS
 62
    7
 10
-249.53180350000002
 20
469.83401500000002
 11
-249.64108650000003
 21
469.57714800000002
  0
LINE
  8
_0-0_0
  6
CONTINUOUS
 62
    7
 10
-249.19919250000009
 20
469.50140399999998
 11
-249.45605050000006
 21
469.39211999999998
  0
LINE
  8
_0-0_0
  6
CONTINUOUS
 62
    7
 10
-249.3742105
 20
469.658997
 11
-249.45605050000006
 21
469.39211999999998
  0
LINE
  8
_0-0_0
  6
CONTINUOUS
 62
    7
 10
-249.00865950000002
 20
469.362976
 11
-249.2526855000001
 21
469.22744799999998
  0
LINE
  8
_0-0_0
  6
CONTINUOUS
 62
    7
 10
-249.19919250000009
 20
469.50140399999998
 11
-249.2526855000001
 21
469.22744799999998
  0
LINE
  8
_0-0_0
  6
CONTINUOUS
 62
    7
 10
-248.80469950000008
 20
469.24520899999999
 11
-249.03322250000008
 21
469.08492999999999
  0
LINE
  8
_0-0_0
  6
CONTINUOUS
 62
    7
 10
-249.00865950000002
 20
469.362976
 11
-249.03322250000008
 21
469.08492999999999
  0
LINE
  8
_0-0_0
  6
CONTINUOUS
 62
    7
 10
-248.58955050000009
 20
469.14941399999998
 11
-248.80006450000008
 21
468.96612499999998
  0
LINE
  8
_0-0_0
  6
CONTINUOUS
 62
    7
 10
-248.80469950000008
 20
469.24520899999999
 11
-248.80006450000008
 21
468.96612499999998
  0
LINE
  8
_0-0_0
  6
CONTINUOUS
 62
    7
 10
-248.3655665
 20
469.07666
 11
-248.5557675
 21
468.872345
  0
LINE
  8
_0-0_0
  6
CONTINUOUS
 62
    7
 10
-248.58955050000009
 20
469.14941399999998
 11
-248.5557675
 21
468.872345
  0
LINE
  8
_0-0_0
  6
CONTINUOUS
 62
    7
 10
-248.1352005
 20
469.02767899999998
 11
-248.30300150000005
 21
468.80462599999998
  0
LINE
  8
_0-0_0
  6
CONTINUOUS
 62
    7
 10
-248.3655665
 20
469.07666
 11
-248.30300150000005
 21
468.80462599999998
  0
LINE
  8
_0-0_0
  6
CONTINUOUS
 62
    7
 10
-247.90097850000006
 20
469.00305200000003
 11
-248.04454450000003
 21
468.76367199999999
  0
LINE
  8
_0-0_0
  6
CONTINUOUS
 62
    7
 10
-248.1352005
 20
469.02767899999998
 11
-248.04454450000003
 21
468.76367199999999
  0
LINE
  8
_0-0_0
  6
CONTINUOUS
 62
    7
 10
-247.66546650000009
 20
469.00305200000003
 11
-247.78322250000008
 21
468.75
  0
LINE
  8
_0-0_0
  6
CONTINUOUS
 62
    7
 10
-247.90097850000006
 20
469.00305200000003
 11
-247.78322250000008
 21
468.75
  0
LINE
  8
_0-0_0
  6
CONTINUOUS
 62
    7
 10
-247.43124450000005
 20
469.02767899999998
 11
-247.52190050000002
 21
468.76367199999999
  0
LINE
  8
_0-0_0
  6
CONTINUOUS
 62
    7
 10
-247.66546650000009
 20
469.00305200000003
 11
-247.52190050000002
 21
468.76367199999999
  0
LINE
  8
_0-0_0
  6
CONTINUOUS
 62
    7
 10
-247.20087850000004
 20
469.07666
 11
-247.26344349999999
 21
468.80462599999998
  0
LINE
  8
_0-0_0
  6
CONTINUOUS
 62
    7
 10
-247.43124450000005
 20
469.02767899999998
 11
-247.26344349999999
 21
468.80462599999998
  0
LINE
  8
_0-0_0
  6
CONTINUOUS
 62
    7
 10
-246.97689450000007
 20
469.14941399999998
 11
-247.01067750000004
 21
468.872345
  0
LINE
  8
_0-0_0
  6
CONTINUOUS
 62
    7
 10
-247.20087850000004
 20
469.07666
 11
-247.01067750000004
 21
468.872345
  0
LINE
  8
_0-0_0
  6
CONTINUOUS
 62
    7
 10
-246.76174550000007
 20
469.24520899999999
 11
-246.76638050000008
 21
468.96612499999998
  0
LINE
  8
_0-0_0
  6
CONTINUOUS
 62
    7
 10
-246.97689450000007
 20
469.14941399999998
 11
-246.76638050000008
 21
468.96612499999998
  0
LINE
  8
_0-0_0
  6
CONTINUOUS
 62
    7
 10
-246.64220850000004
 20
469.16137700000002
 11
-246.53322250000008
 21
469.08492999999999
  0
LINE
  8
_0-0_0
  6
CONTINUOUS
 62
    7
 10
-246.76174550000007
 20
469.24520899999999
 11
-246.64220850000004
 21
469.16137700000002
  0
LINE
  8
_0-0_0
  6
CONTINUOUS
 62
    7
 10
-246.55778550000002
 20
469.362976
 11
-246.53322250000008
 21
469.08492999999999
  0
LINE
  8
_0-0_0
  6
CONTINUOUS
 62
    7
 10
-246.36725250000006
 20
469.50140399999998
 11
-246.31375850000006
 21
469.22744799999998
  0
LINE
  8
_0-0_0
  6
CONTINUOUS
 62
    7
 10
-246.55778550000002
 20
469.362976
 11
-246.31375850000006
 21
469.22744799999998
  0
LINE
  8
_0-0_0
  6
CONTINUOUS
 62
    7
 10
-246.19223450000004
 20
469.658997
 11
-246.1103935000001
 21
469.39211999999998
  0
LINE
  8
_0-0_0
  6
CONTINUOUS
 62
    7
 10
-246.36725250000006
 20
469.50140399999998
 11
-246.1103935000001
 21
469.39211999999998
  0
LINE
  8
_0-0_0
  6
CONTINUOUS
 62
    7
 10
-246.03464150000002
 20
469.83401500000002
 11
-245.92535750000002
 21
469.57714800000002
  0
LINE
  8
_0-0_0
  6
CONTINUOUS
 62
    7
 10
-246.19223450000004
 20
469.658997
 11
-245.92535750000002
 21
469.57714800000002
  0
LINE
  8
_0-0_0
  6
CONTINUOUS
 62
    7
 10
-245.89621350000004
 20
470.02453600000001
 11
-245.76067750000004
 21
469.78051799999997
  0
LINE
  8
_0-0_0
  6
CONTINUOUS
 62
    7
 10
-246.03464150000002
 20
469.83401500000002
 11
-245.76067750000004
 21
469.78051799999997
  0
LINE
  8
_0-0_0
  6
CONTINUOUS
 62
    7
 10
-245.77845750000006
 20
470.22851600000001
 11
-245.61816050000004
 21
470
  0
LINE
  8
_0-0_0
  6
CONTINUOUS
 62
    7
 10
-245.89621350000004
 20
470.02453600000001
 11
-245.61816050000004
 21
470
  0
LINE
  8
_0-0_0
  6
CONTINUOUS
 62
    7
 10
-245.6826665000001
 20
470.44366500000001
 11
-245.49935950000008
 21
470.23315400000001
  0
LINE
  8
_0-0_0
  6
CONTINUOUS
 62
    7
 10
-245.77845750000006
 20
470.22851600000001
 11
-245.49935950000008
 21
470.23315400000001
  0
LINE
  8
_0-0_0
  6
CONTINUOUS
 62
    7
 10
-245.60989050000001
 20
470.66763300000002
 11
-245.40558250000004
 21
470.47744799999998
  0
LINE
  8
_0-0_0
  6
CONTINUOUS
 62
    7
 10
-245.6826665000001
 20
470.44366500000001
 11
-245.40558250000004
 21
470.47744799999998
  0
LINE
  8
_0-0_0
  6
CONTINUOUS
 62
    7
 10
-245.56092450000006
 20
470.89801
 11
-245.33785250000005
 21
470.73019399999998
  0
LINE
  8
_0-0_0
  6
CONTINUOUS
 62
    7
 10
-245.60989050000001
 20
470.66763300000002
 11
-245.33785250000005
 21
470.73019399999998
  0
LINE
  8
_0-0_0
  6
CONTINUOUS
 62
    7
 10
-245.53630450000003
 20
471.13223299999999
 11
-245.29691750000006
 21
470.98864700000001
  0
LINE
  8
_0-0_0
  6
CONTINUOUS
 62
    7
 10
-245.56092450000006
 20
470.89801
 11
-245.29691750000006
 21
470.98864700000001
  0
LINE
  8
_0-0_0
  6
CONTINUOUS
 62
    7
 10
-245.53630450000003
 20
471.36773699999998
 11
-245.28322250000008
 21
471.25
  0
LINE
  8
_0-0_0
  6
CONTINUOUS
 62
    7
 10
-245.53630450000003
 20
471.13223299999999
 11
-245.28322250000008
 21
471.25
  0
LINE
  8
_0-0_0
  6
CONTINUOUS
 62
    7
 10
-245.56092450000006
 20
471.60195900000002
 11
-245.29691750000006
 21
471.51129200000003
  0
LINE
  8
_0-0_0
  6
CONTINUOUS
 62
    7
 10
-245.53630450000003
 20
471.36773699999998
 11
-245.29691750000006
 21
471.51129200000003
  0
LINE
  8
_0-0_0
  6
CONTINUOUS
 62
    7
 10
-245.60989050000001
 20
471.832336
 11
-245.33785250000005
 21
471.76977499999998
  0
LINE
  8
_0-0_0
  6
CONTINUOUS
 62
    7
 10
-245.56092450000006
 20
471.60195900000002
 11
-245.33785250000005
 21
471.76977499999998
  0
LINE
  8
_0-0_0
  6
CONTINUOUS
 62
    7
 10
-245.6826665000001
 20
472.05630500000001
 11
-245.40558250000004
 21
472.02252199999998
  0
LINE
  8
_0-0_0
  6
CONTINUOUS
 62
    7
 10
-245.60989050000001
 20
471.832336
 11
-245.40558250000004
 21
472.02252199999998
  0
LINE
  8
_0-0_0
  6
CONTINUOUS
 62
    7
 10
-245.77845750000006
 20
472.27145400000001
 11
-245.49935950000008
 21
472.26681500000001
  0
LINE
  8
_0-0_0
  6
CONTINUOUS
 62
    7
 10
-245.6826665000001
 20
472.05630500000001
 11
-245.49935950000008
 21
472.26681500000001
  0
CIRCLE
  8
_0-0_0
  6
CONTINUOUS
 62
    7
 10
-247.78322250000008
 20
471.25
 40
2
  0
CIRCLE
  8
_0-0_0
  6
CONTINUOUS
 62
    7
 10
-253.78322250000008
 20
462.94998199999998
 40
5
  0
LINE
  8
_0-0_0
  6
CONTINUOUS
 62
    7
 10
-247.20111450000002
 20
470.25
 11
-248.36532950000003
 21
470.25
  0
LINE
  8
_0-0_0
  6
CONTINUOUS
 62
    7
 10
-248.36532950000003
 20
470.25
 11
-248.93322350000005
 21
471.25
  0
LINE
  8
_0-0_0
  6
CONTINUOUS
 62
    7
 10
-248.93322350000005
 20
471.25
 11
-248.36532950000003
 21
472.25
  0
LINE
  8
_0-0_0
  6
CONTINUOUS
 62
    7
 10
-248.36532950000003
 20
472.25
 11
-247.20111450000002
 21
472.25
  0
LINE
  8
_0-0_0
  6
CONTINUOUS
 62
    7
 10
-247.20111450000002
 20
472.25
 11
-246.63322049999999
 21
471.25
  0
LINE
  8
_0-0_0
  6
CONTINUOUS
 62
    7
 10
-246.63322049999999
 20
471.25
 11
-247.20111450000002
 21
470.25
  0
CIRCLE
  8
_0-0_0
  6
CONTINUOUS
 62
    7
 10
-253.78322250000008
 20
462.94998199999998
 40
4.5381200000000002
  0
CIRCLE
  8
_0-0_0
  6
CONTINUOUS
 62
    7
 10
-253.78322250000008
 20
462.94998199999998
 40
4
  0
LINE
  8
_0-0_0
  6
CONTINUOUS
 62
    7
 10
-261.6702305
 20
453.42453
 11
-261.9482845
 21
453.39999399999999
  0
LINE
  8
_0-0_0
  6
CONTINUOUS
 62
    7
 10
-261.78798649999999
 20
453.62851000000001
 11
-261.9482845
 21
453.39999399999999
  0
LINE
  8
_0-0_0
  6
CONTINUOUS
 62
    7
 10
-261.53180350000002
 20
453.23400900000001
 11
-261.8057675
 21
453.18051100000002
  0
LINE
  8
_0-0_0
  6
CONTINUOUS
 62
    7
 10
-261.6702305
 20
453.42453
 11
-261.8057675
 21
453.18051100000002
  0
LINE
  8
_0-0_0
  6
CONTINUOUS
 62
    7
 10
-261.3742105
 20
453.05898999999999
 11
-261.64108650000003
 21
452.97717299999999
  0
LINE
  8
_0-0_0
  6
CONTINUOUS
 62
    7
 10
-261.53180350000002
 20
453.23400900000001
 11
-261.64108650000003
 21
452.97717299999999
  0
LINE
  8
_0-0_0
  6
CONTINUOUS
 62
    7
 10
-261.19919250000009
 20
452.90139799999997
 11
-261.45605050000006
 21
452.79211400000003
  0
LINE
  8
_0-0_0
  6
CONTINUOUS
 62
    7
 10
-261.3742105
 20
453.05898999999999
 11
-261.45605050000006
 21
452.79211400000003
  0
LINE
  8
_0-0_0
  6
CONTINUOUS
 62
    7
 10
-261.00865950000002
 20
452.76297
 11
-261.2526855000001
 21
452.62744099999998
  0
LINE
  8
_0-0_0
  6
CONTINUOUS
 62
    7
 10
-261.19919250000009
 20
452.90139799999997
 11
-261.2526855000001
 21
452.62744099999998
  0
LINE
  8
_0-0_0
  6
CONTINUOUS
 62
    7
 10
-260.80469950000008
 20
452.64520299999998
 11
-261.03322250000008
 21
452.48492399999998
  0
LINE
  8
_0-0_0
  6
CONTINUOUS
 62
    7
 10
-261.00865950000002
 20
452.76297
 11
-261.03322250000008
 21
452.48492399999998
  0
LINE
  8
_0-0_0
  6
CONTINUOUS
 62
    7
 10
-260.58955050000009
 20
452.54943800000001
 11
-260.80006450000008
 21
452.36611900000003
  0
LINE
  8
_0-0_0
  6
CONTINUOUS
 62
    7
 10
-260.80469950000008
 20
452.64520299999998
 11
-260.80006450000008
 21
452.36611900000003
  0
LINE
  8
_0-0_0
  6
CONTINUOUS
 62
    7
 10
-260.3655665
 20
452.476654
 11
-260.5557675
 21
452.27233899999999
  0
LINE
  8
_0-0_0
  6
CONTINUOUS
 62
    7
 10
-260.58955050000009
 20
452.54943800000001
 11
-260.5557675
 21
452.27233899999999
  0
LINE
  8
_0-0_0
  6
CONTINUOUS
 62
    7
 10
-260.1352005
 20
452.42770400000001
 11
-260.30300150000005
 21
452.20461999999998
  0
LINE
  8
_0-0_0
  6
CONTINUOUS
 62
    7
 10
-260.3655665
 20
452.476654
 11
-260.30300150000005
 21
452.20461999999998
  0
LINE
  8
_0-0_0
  6
CONTINUOUS
 62
    7
 10
-259.90097850000006
 20
452.403076
 11
-260.04454450000003
 21
452.16369600000002
  0
LINE
  8
_0-0_0
  6
CONTINUOUS
 62
    7
 10
-260.1352005
 20
452.42770400000001
 11
-260.04454450000003
 21
452.16369600000002
  0
LINE
  8
_0-0_0
  6
CONTINUOUS
 62
    7
 10
-259.66546650000009
 20
452.403076
 11
-259.78322250000008
 21
452.14999399999999
  0
LINE
  8
_0-0_0
  6
CONTINUOUS
 62
    7
 10
-259.90097850000006
 20
452.403076
 11
-259.78322250000008
 21
452.14999399999999
  0
LINE
  8
_0-0_0
  6
CONTINUOUS
 62
    7
 10
-259.43124450000005
 20
452.42770400000001
 11
-259.52190050000002
 21
452.16369600000002
  0
LINE
  8
_0-0_0
  6
CONTINUOUS
 62
    7
 10
-259.66546650000009
 20
452.403076
 11
-259.52190050000002
 21
452.16369600000002
  0
LINE
  8
_0-0_0
  6
CONTINUOUS
 62
    7
 10
-259.20087850000004
 20
452.476654
 11
-259.26344349999999
 21
452.20461999999998
  0
LINE
  8
_0-0_0
  6
CONTINUOUS
 62
    7
 10
-259.43124450000005
 20
452.42770400000001
 11
-259.26344349999999
 21
452.20461999999998
  0
LINE
  8
_0-0_0
  6
CONTINUOUS
 62
    7
 10
-258.97689450000007
 20
452.54943800000001
 11
-259.01067750000004
 21
452.27233899999999
  0
LINE
  8
_0-0_0
  6
CONTINUOUS
 62
    7
 10
-259.20087850000004
 20
452.476654
 11
-259.01067750000004
 21
452.27233899999999
  0
LINE
  8
_0-0_0
  6
CONTINUOUS
 62
    7
 10
-258.76174550000007
 20
452.64520299999998
 11
-258.76638050000008
 21
452.36611900000003
  0
LINE
  8
_0-0_0
  6
CONTINUOUS
 62
    7
 10
-258.97689450000007
 20
452.54943800000001
 11
-258.76638050000008
 21
452.36611900000003
  0
LINE
  8
_0-0_0
  6
CONTINUOUS
 62
    7
 10
-258.64220850000004
 20
452.56137100000001
 11
-258.53322250000008
 21
452.48492399999998
  0
LINE
  8
_0-0_0
  6
CONTINUOUS
 62
    7
 10
-258.76174550000007
 20
452.64520299999998
 11
-258.64220850000004
 21
452.56137100000001
  0
LINE
  8
_0-0_0
  6
CONTINUOUS
 62
    7
 10
-258.55778550000002
 20
452.76297
 11
-258.53322250000008
 21
452.48492399999998
  0
LINE
  8
_0-0_0
  6
CONTINUOUS
 62
    7
 10
-258.36725250000006
 20
452.90139799999997
 11
-258.31375850000006
 21
452.62744099999998
  0
LINE
  8
_0-0_0
  6
CONTINUOUS
 62
    7
 10
-258.55778550000002
 20
452.76297
 11
-258.31375850000006
 21
452.62744099999998
  0
LINE
  8
_0-0_0
  6
CONTINUOUS
 62
    7
 10
-258.19223450000004
 20
453.05898999999999
 11
-258.1103935000001
 21
452.79211400000003
  0
LINE
  8
_0-0_0
  6
CONTINUOUS
 62
    7
 10
-258.36725250000006
 20
452.90139799999997
 11
-258.1103935000001
 21
452.79211400000003
  0
LINE
  8
_0-0_0
  6
CONTINUOUS
 62
    7
 10
-258.03464550000001
 20
453.23400900000001
 11
-257.92535750000002
 21
452.97717299999999
  0
LINE
  8
_0-0_0
  6
CONTINUOUS
 62
    7
 10
-258.19223450000004
 20
453.05898999999999
 11
-257.92535750000002
 21
452.97717299999999
  0
LINE
  8
_0-0_0
  6
CONTINUOUS
 62
    7
 10
-257.89621350000004
 20
453.42453
 11
-257.76067750000004
 21
453.18051100000002
  0
LINE
  8
_0-0_0
  6
CONTINUOUS
 62
    7
 10
-258.03464550000001
 20
453.23400900000001
 11
-257.76067750000004
 21
453.18051100000002
  0
LINE
  8
_0-0_0
  6
CONTINUOUS
 62
    7
 10
-257.77845750000006
 20
453.62851000000001
 11
-257.61816050000004
 21
453.39999399999999
  0
LINE
  8
_0-0_0
  6
CONTINUOUS
 62
    7
 10
-257.89621350000004
 20
453.42453
 11
-257.61816050000004
 21
453.39999399999999
  0
LINE
  8
_0-0_0
  6
CONTINUOUS
 62
    7
 10
-257.6826665000001
 20
453.843658
 11
-257.49935950000008
 21
453.63314800000001
  0
LINE
  8
_0-0_0
  6
CONTINUOUS
 62
    7
 10
-257.77845750000006
 20
453.62851000000001
 11
-257.49935950000008
 21
453.63314800000001
  0
LINE
  8
_0-0_0
  6
CONTINUOUS
 62
    7
 10
-257.60989050000001
 20
454.06762700000002
 11
-257.40558250000004
 21
453.87744099999998
  0
LINE
  8
_0-0_0
  6
CONTINUOUS
 62
    7
 10
-257.6826665000001
 20
453.843658
 11
-257.40558250000004
 21
453.87744099999998
  0
LINE
  8
_0-0_0
  6
CONTINUOUS
 62
    7
 10
-257.56092450000006
 20
454.29800399999999
 11
-257.33785250000005
 21
454.13018799999998
  0
LINE
  8
_0-0_0
  6
CONTINUOUS
 62
    7
 10
-257.60989050000001
 20
454.06762700000002
 11
-257.33785250000005
 21
454.13018799999998
  0
LINE
  8
_0-0_0
  6
CONTINUOUS
 62
    7
 10
-257.53630450000003
 20
454.53222699999998
 11
-257.29691750000006
 21
454.38867199999999
  0
LINE
  8
_0-0_0
  6
CONTINUOUS
 62
    7
 10
-257.56092450000006
 20
454.29800399999999
 11
-257.29691750000006
 21
454.38867199999999
  0
LINE
  8
_0-0_0
  6
CONTINUOUS
 62
    7
 10
-257.53630450000003
 20
454.76773100000003
 11
-257.28322250000008
 21
454.64999399999999
  0
LINE
  8
_0-0_0
  6
CONTINUOUS
 62
    7
 10
-257.53630450000003
 20
454.53222699999998
 11
-257.28322250000008
 21
454.64999399999999
  0
LINE
  8
_0-0_0
  6
CONTINUOUS
 62
    7
 10
-257.56092450000006
 20
455.00195300000001
 11
-257.29691750000006
 21
454.911316
  0
LINE
  8
_0-0_0
  6
CONTINUOUS
 62
    7
 10
-257.53630450000003
 20
454.76773100000003
 11
-257.29691750000006
 21
454.911316
  0
LINE
  8
_0-0_0
  6
CONTINUOUS
 62
    7
 10
-257.60989050000001
 20
455.23232999999999
 11
-257.33785250000005
 21
455.16976899999997
  0
LINE
  8
_0-0_0
  6
CONTINUOUS
 62
    7
 10
-257.56092450000006
 20
455.00195300000001
 11
-257.33785250000005
 21
455.16976899999997
  0
LINE
  8
_0-0_0
  6
CONTINUOUS
 62
    7
 10
-257.6826665000001
 20
455.456299
 11
-257.40558250000004
 21
455.42251599999997
  0
LINE
  8
_0-0_0
  6
CONTINUOUS
 62
    7
 10
-257.60989050000001
 20
455.23232999999999
 11
-257.40558250000004
 21
455.42251599999997
  0
LINE
  8
_0-0_0
  6
CONTINUOUS
 62
    7
 10
-257.77845750000006
 20
455.671448
 11
-257.49935950000008
 21
455.666809
  0
LINE
  8
_0-0_0
  6
CONTINUOUS
 62
    7
 10
-257.6826665000001
 20
455.456299
 11
-257.49935950000008
 21
455.666809
  0
LINE
  8
_0-0_0
  6
CONTINUOUS
 62
    7
 10
-257.89621350000004
 20
455.875427
 11
-257.61816050000004
 21
455.89999399999999
  0
LINE
  8
_0-0_0
  6
CONTINUOUS
 62
    7
 10
-257.77845750000006
 20
455.671448
 11
-257.61816050000004
 21
455.89999399999999
  0
LINE
  8
_0-0_0
  6
CONTINUOUS
 62
    7
 10
-261.19919250000009
 20
456.39855999999997
 11
-261.2526855000001
 21
456.67251599999997
  0
LINE
  8
_0-0_0
  6
CONTINUOUS
 62
    7
 10
-261.19919250000009
 20
456.39855999999997
 11
-261.45605050000006
 21
456.50784299999998
  0
LINE
  8
_0-0_0
  6
CONTINUOUS
 62
    7
 10
-261.3742105
 20
456.24096700000001
 11
-261.45605050000006
 21
456.50784299999998
  0
LINE
  8
_0-0_0
  6
CONTINUOUS
 62
    7
 10
-261.3742105
 20
456.24096700000001
 11
-261.64108650000003
 21
456.32281499999999
  0
LINE
  8
_0-0_0
  6
CONTINUOUS
 62
    7
 10
-261.53180350000002
 20
456.06594799999999
 11
-261.64108650000003
 21
456.32281499999999
  0
LINE
  8
_0-0_0
  6
CONTINUOUS
 62
    7
 10
-261.53180350000002
 20
456.06594799999999
 11
-261.8057675
 21
456.11944599999998
  0
LINE
  8
_0-0_0
  6
CONTINUOUS
 62
    7
 10
-261.6702305
 20
455.875427
 11
-261.8057675
 21
456.11944599999998
  0
LINE
  8
_0-0_0
  6
CONTINUOUS
 62
    7
 10
-261.6702305
 20
455.875427
 11
-261.9482845
 21
455.89999399999999
  0
LINE
  8
_0-0_0
  6
CONTINUOUS
 62
    7
 10
-261.78798649999999
 20
455.671448
 11
-261.9482845
 21
455.89999399999999
  0
LINE
  8
_0-0_0
  6
CONTINUOUS
 62
    7
 10
-261.78798649999999
 20
455.671448
 11
-262.06708550000008
 21
455.666809
  0
LINE
  8
_0-0_0
  6
CONTINUOUS
 62
    7
 10
-261.88377750000006
 20
455.456299
 11
-262.06708550000008
 21
455.666809
  0
LINE
  8
_0-0_0
  6
CONTINUOUS
 62
    7
 10
-261.88377750000006
 20
455.456299
 11
-262.16086250000001
 21
455.42251599999997
  0
LINE
  8
_0-0_0
  6
CONTINUOUS
 62
    7
 10
-261.95655450000004
 20
455.23232999999999
 11
-262.16086250000001
 21
455.42251599999997
  0
LINE
  8
_0-0_0
  6
CONTINUOUS
 62
    7
 10
-261.95655450000004
 20
455.23232999999999
 11
-262.22859249999999
 21
455.16976899999997
  0
LINE
  8
_0-0_0
  6
CONTINUOUS
 62
    7
 10
-262.00551949999999
 20
455.00195300000001
 11
-262.22859249999999
 21
455.16976899999997
  0
LINE
  8
_0-0_0
  6
CONTINUOUS
 62
    7
 10
-262.00551949999999
 20
455.00195300000001
 11
-262.26952750000009
 21
454.911316
  0
LINE
  8
_0-0_0
  6
CONTINUOUS
 62
    7
 10
-262.03014050000002
 20
454.76773100000003
 11
-262.26952750000009
 21
454.911316
  0
LINE
  8
_0-0_0
  6
CONTINUOUS
 62
    7
 10
-262.03014050000002
 20
454.76773100000003
 11
-262.28322250000008
 21
454.64999399999999
  0
LINE
  8
_0-0_0
  6
CONTINUOUS
 62
    7
 10
-262.03014050000002
 20
454.53222699999998
 11
-262.28322250000008
 21
454.64999399999999
  0
LINE
  8
_0-0_0
  6
CONTINUOUS
 62
    7
 10
-262.03014050000002
 20
454.53222699999998
 11
-262.26952750000009
 21
454.38867199999999
  0
LINE
  8
_0-0_0
  6
CONTINUOUS
 62
    7
 10
-262.00551949999999
 20
454.29800399999999
 11
-262.26952750000009
 21
454.38867199999999
  0
LINE
  8
_0-0_0
  6
CONTINUOUS
 62
    7
 10
-262.00551949999999
 20
454.29800399999999
 11
-262.22859249999999
 21
454.13018799999998
  0
LINE
  8
_0-0_0
  6
CONTINUOUS
 62
    7
 10
-261.95655450000004
 20
454.06762700000002
 11
-262.22859249999999
 21
454.13018799999998
  0
LINE
  8
_0-0_0
  6
CONTINUOUS
 62
    7
 10
-261.95655450000004
 20
454.06762700000002
 11
-262.16086250000001
 21
453.87744099999998
  0
LINE
  8
_0-0_0
  6
CONTINUOUS
 62
    7
 10
-261.88377750000006
 20
453.843658
 11
-262.16086250000001
 21
453.87744099999998
  0
LINE
  8
_0-0_0
  6
CONTINUOUS
 62
    7
 10
-261.88377750000006
 20
453.843658
 11
-262.06708550000008
 21
453.63314800000001
  0
LINE
  8
_0-0_0
  6
CONTINUOUS
 62
    7
 10
-261.78798649999999
 20
453.62851000000001
 11
-262.06708550000008
 21
453.63314800000001
  0
CIRCLE
  8
_0-0_0
  6
CONTINUOUS
 62
    7
 10
-259.78322250000008
 20
454.64999399999999
 40
2
  0
LINE
  8
_0-0_0
  6
CONTINUOUS
 62
    7
 10
-260.92423650000001
 20
456.738586
 11
-261.03322250000008
 21
456.81506300000001
  0
LINE
  8
_0-0_0
  6
CONTINUOUS
 62
    7
 10
-261.00865950000002
 20
456.53698700000001
 11
-261.03322250000008
 21
456.81506300000001
  0
LINE
  8
_0-0_0
  6
CONTINUOUS
 62
    7
 10
-261.00865950000002
 20
456.53698700000001
 11
-261.2526855000001
 21
456.67251599999997
  0
LINE
  8
_0-0_0
  6
CONTINUOUS
 62
    7
 10
-257.89621350000004
 20
455.875427
 11
-257.76067750000004
 21
456.11944599999998
  0
LINE
  8
_0-0_0
  6
CONTINUOUS
 62
    7
 10
-258.03464550000001
 20
456.06594799999999
 11
-257.76067750000004
 21
456.11944599999998
  0
LINE
  8
_0-0_0
  6
CONTINUOUS
 62
    7
 10
-258.03464550000001
 20
456.06594799999999
 11
-257.92535750000002
 21
456.32281499999999
  0
LINE
  8
_0-0_0
  6
CONTINUOUS
 62
    7
 10
-258.19223450000004
 20
456.24096700000001
 11
-257.92535750000002
 21
456.32281499999999
  0
LINE
  8
_0-0_0
  6
CONTINUOUS
 62
    7
 10
-258.19223450000004
 20
456.24096700000001
 11
-258.1103935000001
 21
456.50784299999998
  0
LINE
  8
_0-0_0
  6
CONTINUOUS
 62
    7
 10
-258.36725250000006
 20
456.39855999999997
 11
-258.1103935000001
 21
456.50784299999998
  0
LINE
  8
_0-0_0
  6
CONTINUOUS
 62
    7
 10
-258.36725250000006
 20
456.39855999999997
 11
-258.31375850000006
 21
456.67251599999997
  0
LINE
  8
_0-0_0
  6
CONTINUOUS
 62
    7
 10
-258.55778550000002
 20
456.53698700000001
 11
-258.31375850000006
 21
456.67251599999997
  0
LINE
  8
_0-0_0
  6
CONTINUOUS
 62
    7
 10
-258.55778550000002
 20
456.53698700000001
 11
-258.53322250000008
 21
456.81506300000001
  0
LINE
  8
_0-0_0
  6
CONTINUOUS
 62
    7
 10
-258.76174550000007
 20
456.65475500000002
 11
-258.53322250000008
 21
456.81506300000001
  0
LINE
  8
_0-0_0
  6
CONTINUOUS
 62
    7
 10
-258.76174550000007
 20
456.65475500000002
 11
-258.76638050000008
 21
456.93383799999998
  0
LINE
  8
_0-0_0
  6
CONTINUOUS
 62
    7
 10
-258.97689450000007
 20
456.75054899999998
 11
-258.76638050000008
 21
456.93383799999998
  0
LINE
  8
_0-0_0
  6
CONTINUOUS
 62
    7
 10
-258.97689450000007
 20
456.75054899999998
 11
-259.01067750000004
 21
457.02761800000002
  0
LINE
  8
_0-0_0
  6
CONTINUOUS
 62
    7
 10
-259.20087850000004
 20
456.82330300000001
 11
-259.01067750000004
 21
457.02761800000002
  0
LINE
  8
_0-0_0
  6
CONTINUOUS
 62
    7
 10
-259.20087850000004
 20
456.82330300000001
 11
-259.26344349999999
 21
457.09533699999997
  0
LINE
  8
_0-0_0
  6
CONTINUOUS
 62
    7
 10
-259.43124450000005
 20
456.87228399999998
 11
-259.26344349999999
 21
457.09533699999997
  0
LINE
  8
_0-0_0
  6
CONTINUOUS
 62
    7
 10
-259.43124450000005
 20
456.87228399999998
 11
-259.52190050000002
 21
457.13629200000003
  0
LINE
  8
_0-0_0
  6
CONTINUOUS
 62
    7
 10
-259.66546650000009
 20
456.89691199999999
 11
-259.52190050000002
 21
457.13629200000003
  0
LINE
  8
_0-0_0
  6
CONTINUOUS
 62
    7
 10
-259.66546650000009
 20
456.89691199999999
 11
-259.78322250000008
 21
457.14999399999999
  0
LINE
  8
_0-0_0
  6
CONTINUOUS
 62
    7
 10
-259.90097850000006
 20
456.89691199999999
 11
-259.78322250000008
 21
457.14999399999999
  0
LINE
  8
_0-0_0
  6
CONTINUOUS
 62
    7
 10
-259.90097850000006
 20
456.89691199999999
 11
-260.04454450000003
 21
457.13629200000003
  0
LINE
  8
_0-0_0
  6
CONTINUOUS
 62
    7
 10
-260.1352005
 20
456.87228399999998
 11
-260.04454450000003
 21
457.13629200000003
  0
LINE
  8
_0-0_0
  6
CONTINUOUS
 62
    7
 10
-260.1352005
 20
456.87228399999998
 11
-260.30300150000005
 21
457.09533699999997
  0
LINE
  8
_0-0_0
  6
CONTINUOUS
 62
    7
 10
-260.3655665
 20
456.82330300000001
 11
-260.30300150000005
 21
457.09533699999997
  0
LINE
  8
_0-0_0
  6
CONTINUOUS
 62
    7
 10
-260.3655665
 20
456.82330300000001
 11
-260.5557675
 21
457.02761800000002
  0
LINE
  8
_0-0_0
  6
CONTINUOUS
 62
    7
 10
-260.58955050000009
 20
456.75054899999998
 11
-260.5557675
 21
457.02761800000002
  0
LINE
  8
_0-0_0
  6
CONTINUOUS
 62
    7
 10
-260.58955050000009
 20
456.75054899999998
 11
-260.80006450000008
 21
456.93383799999998
  0
LINE
  8
_0-0_0
  6
CONTINUOUS
 62
    7
 10
-260.80469950000008
 20
456.65475500000002
 11
-260.80006450000008
 21
456.93383799999998
  0
LINE
  8
_0-0_0
  6
CONTINUOUS
 62
    7
 10
-260.80469950000008
 20
456.65475500000002
 11
-260.92423650000001
 21
456.738586
  0
LINE
  8
_0-0_0
  6
CONTINUOUS
 62
    7
 10
-259.20111450000002
 20
453.64999399999999
 11
-260.36532950000003
 21
453.64999399999999
  0
LINE
  8
_0-0_0
  6
CONTINUOUS
 62
    7
 10
-260.36532950000003
 20
453.64999399999999
 11
-260.93322350000005
 21
454.64999399999999
  0
LINE
  8
_0-0_0
  6
CONTINUOUS
 62
    7
 10
-260.93322350000005
 20
454.64999399999999
 11
-260.36532950000003
 21
455.64999399999999
  0
LINE
  8
_0-0_0
  6
CONTINUOUS
 62
    7
 10
-260.36532950000003
 20
455.64999399999999
 11
-259.20111450000002
 21
455.64999399999999
  0
LINE
  8
_0-0_0
  6
CONTINUOUS
 62
    7
 10
-259.20111450000002
 20
455.64999399999999
 11
-258.63322049999999
 21
454.64999399999999
  0
LINE
  8
_0-0_0
  6
CONTINUOUS
 62
    7
 10
-258.63322049999999
 20
454.64999399999999
 11
-259.20111450000002
 21
453.64999399999999
  0
LINE
  8
_0-0_0
  6
CONTINUOUS
 62
    7
 10
-245.08322550000003
 20
472.05029300000001
 11
-245.08322150000004
 21
472.05627399999997
  0
LINE
  8
_0-0_0
  6
CONTINUOUS
 62
    7
 10
-245.08322150000004
 20
473.25
 11
-245.08359150000001
 21
473.23788500000001
  0
LINE
  8
_0-0_0
  6
CONTINUOUS
 62
    7
 10
-245.08359150000001
 20
452.66210899999999
 11
-245.08322150000004
 21
452.64999399999999
  0
ARC
  8
_0-0_0
  6
CONTINUOUS
 62
    7
 10
-260.28322250000008
 20
471.75
 40
2
 50
90.000003000000007
 51
93.840255999999997
  0
ARC
  8
_0-0_0
  6
CONTINUOUS
 62
    7
 10
-247.28322250000008
 20
454.14999399999999
 40
2
 50
269.99999700000001
 51
273.84026499999999
  0
ENDSEC
  0
EOF
