  0
SECTION
  2
HEADER
  9
$ACADVER
  1
AC1009
  9
$INSBASE
 10
0
 20
0
 30
0
  9
$EXTMIN
 10
0
 20
0
  9
$EXTMAX
 10
841
 20
594
  9
$LIMMIN
 10
0
 20
0
  9
$LIMMAX
 10
841
 20
594
  9
$LTSCALE
 40
1
  0
ENDSEC
  0
SECTION
  2
TABLES
  0
TABLE
  2
LTYPE
 70
     9
  0
LTYPE
  2
CONTINUOUS
 70
    64
  3
実線
 72
    65
 73
     0
 40
0.0
  0
LTYPE
  2
DASHED1
 70
    64
  3
--  --  --  --  --  --  --  --  
 72
    65
 73
     2
 40
2.5
 49
1.25
 49
-1.25
  0
LTYPE
  2
DASHED2
 70
    64
  3
----    ----    ----    ----    
 72
    65
 73
     2
 40
5.0
 49
2.5
 49
-2.5
  0
LTYPE
  2
DASHED3
 70
    64
  3
------  ------  ------  ------  
 72
    65
 73
     2
 40
5.0
 49
3.75
 49
-1.25
  0
LTYPE
  2
CENTER1
 70
    64
  3
----- - ----- - ----- - ----- - 
 72
    65
 73
     4
 40
10.0
 49
6.25
 49
-1.25
 49
1.25
 49
-1.25
  0
LTYPE
  2
CENTER2
 70
    64
  3
----------  --  ----------  --  
 72
    65
 73
     4
 40
20.0
 49
12.5
 49
-2.5
 49
2.5
 49
-2.5
  0
LTYPE
  2
PHANTOM1
 70
    64
  3
--- - - --- - - --- - - --- - - 
 72
    65
 73
     6
 40
10.0
 49
3.25
 49
-1.25
 49
1.25
 49
-1.25
 49
1.25
 49
-1.25
  0
LTYPE
  2
PHANTOM2
 70
    64
  3
--------  -  -  --------  -  -  
 72
    65
 73
     6
 40
20.0
 49
10.0
 49
-2.5
 49
1.25
 49
-2.5
 49
1.25
 49
-2.5
  0
LTYPE
  2
DOT
 70
    64
  3
-   -   -   -   -   -   -   -   
 72
    65
 73
     2
 40
2.5
 49
0.625
 49
-1.875
  0
LTYPE
  2
DUMMY
 70
    64
  3
ダミー
 72
    65
 73
     0
 40
0.0
  0
LTYPE
  2
RAND1
 70
    64
  3
ランダム線1
 72
    65
 73
     4
 40
10.0
 49
1.0
 49
-2.0
 49
3.0
 49
-4.0
  0
LTYPE
  2
RAND2
 70
    64
  3
ランダム線2
 72
    65
 73
     4
 40
14.0
 49
2.0
 49
-3.0
 49
4.0
 49
-5.0
  0
LTYPE
  2
RAND3
 70
    64
  3
ランダム線3
 72
    65
 73
     4
 40
18.0
 49
3.0
 49
-4.0
 49
5.0
 49
-6.0
  0
LTYPE
  2
RAND4
 70
    64
  3
ランダム線4
 72
    65
 73
     4
 40
22.0
 49
4.0
 49
-5.0
 49
6.0
 49
-7.0
  0
LTYPE
  2
RAND5
 70
    64
  3
ランダム線5
 72
    65
 73
     4
 40
26.0
 49
5.0
 49
-6.0
 49
7.0
 49
-8.0
  0
LTYPE
  2
LONG1
 70
    64
  3
----------  --  ----------  --  
 72
    65
 73
     4
 40
40.0
 49
32.5
 49
-2.5
 49
2.5
 49
-2.5
  0
LTYPE
  2
LONG2
 70
    64
  3
--------  -  -  --------  -  -  
 72
    65
 73
     6
 40
40.0
 49
30.0
 49
-2.5
 49
1.25
 49
-2.5
 49
1.25
 49
-2.5
  0
LTYPE
  2
LONG3
 70
    64
  3
+++++++++++++++..+++++++++++++++
 72
    65
 73
     2
 40
40.0
 49
37.5
 49
-2.5
  0
LTYPE
  2
LONG4
 70
    64
  3
+++++++++++++++..+++++++++++++++
 72
    65
 73
     2
 40
80.0
 49
75.0
 49
-5.0
  0
LTYPE
  2
LONG5
 70
    64
  3
----------  --  ----------  --  
 72
    65
 73
     4
 40
60.0
 49
37.5
 49
-7.5
 49
7.5
 49
-7.5
  0
LTYPE
  2
dashed
 70
   64
  3
-------   -------------   ------
 72
   65
 73
    2
 40
7.5
 49
6
 49
-1.5
  0
LTYPE
  2
dashed_spaced
 70
   64
  3
----        --------        ----
 72
   65
 73
    2
 40
12
 49
6
 49
-6
  0
LTYPE
  2
long_dashed_dotted
 70
   64
  3
------------- --- --------------
 72
   65
 73
    4
 40
15.25
 49
12
 49
-1.5
 49
0.25
 49
-1.5
  0
LTYPE
  2
long_dashed_double-dotted
 70
   64
  3
----------- --- --- ------------
 72
   65
 73
    6
 40
17
 49
12
 49
-1.5
 49
0.25
 49
-1.5
 49
0.25
 49
-1.5
  0
LTYPE
  2
long_dashed_triplicate-dotted
 70
   64
  3
--------- --- --- --- ----------
 72
   65
 73
    8
 40
18.75
 49
12
 49
-1.5
 49
0.25
 49
-1.5
 49
0.25
 49
-1.5
 49
0.25
 49
-1.5
  0
LTYPE
  2
dotted
 70
   64
  3
   -       -       -       -    
 72
   65
 73
    2
 40
1.75
 49
0.25
 49
-1.5
  0
LTYPE
  2
chain
 70
   64
  3
-------------- -- --------------
 72
   65
 73
    4
 40
18.5
 49
12
 49
-1.5
 49
3.5
 49
-1.5
  0
LTYPE
  2
chain_double_dash
 70
   64
  3
------------ -- -- -------------
 72
   65
 73
    6
 40
23.5
 49
12
 49
-1.5
 49
3.5
 49
-1.5
 49
3.5
 49
-1.5
  0
LTYPE
  2
dashed_dotted
 70
   64
  3
-----------     -     ----------
 72
   65
 73
    4
 40
9.25
 49
6
 49
-1.5
 49
0.25
 49
-1.5
  0
LTYPE
  2
double-dashed_dotted
 70
   64
  3
------   -----------   -   -----
 72
   65
 73
    6
 40
16.75
 49
6
 49
-1.5
 49
6
 49
-1.5
 49
0.25
 49
-1.5
  0
LTYPE
  2
dashed_double-dotted
 70
   64
  3
---------    -    -    ---------
 72
   65
 73
    6
 40
11
 49
6
 49
-1.5
 49
0.25
 49
-1.5
 49
0.25
 49
-1.5
  0
LTYPE
  2
double-dashed_double-dotted
 70
   64
  3
-----   ---------   -   -   ----
 72
   65
 73
    8
 40
18.5
 49
6
 49
-1.5
 49
6
 49
-1.5
 49
0.25
 49
-1.5
 49
0.25
 49
-1.5
  0
LTYPE
  2
dashed_triplicate-dotted
 70
   64
  3
-------    -    -    -    ------
 72
   65
 73
    8
 40
12.75
 49
6
 49
-1.5
 49
0.25
 49
-1.5
 49
0.25
 49
-1.5
 49
0.25
 49
-1.5
  0
LTYPE
  2
double-dashed_triplicate-dotted
 70
   64
  3
-----  ---------  -  -  -  -----
 72
   65
 73
   10
 40
20.25
 49
6
 49
-1.5
 49
6
 49
-1.5
 49
0.25
 49
-1.5
 49
0.25
 49
-1.5
 49
0.25
 49
-1.5
  0
LTYPE
  2
undefined
 70
   64
  3
--------------------------------
 72
   65
 73
    0
 40
0
  0
ENDTAB
  0
TABLE
  2
STYLE
  5
3
100
AcDbSymbolTable
 70
     1
  0
STYLE
  5
10
100
AcDbSymbolTableRecord
100
AcDbTextStyleTableRecord
  2
STANDARD
 70
     0
 40
0.0
 41
1.0
 50
0.0
 71
     0
 42
0.2
  3
txt
  4
bigfont.shx
  0
STYLE
  5
26
100
AcDbSymbolTableRecord
100
AcDbTextStyleTableRecord
  2
TATEGAKI
 70
    68
 40
0.0
 41
1.0
 50
0.0
 71
     0
 42
1.0
  3
txt
  4
bigfont.shx
  0
ENDTAB
  0
TABLE
  2
LAYER
 70
    2
  0
LAYER
  2
_0-0_0
 70
   64
 62
    7
  6
CONTINUOUS
  0
LAYER
  2
ADD_LINE
 70
   64
 62
    7
  6
CONTINUOUS
  0
ENDTAB
  0
ENDSEC
  0
SECTION
  2
BLOCKS
  0
ENDSEC
  0
SECTION
  2
ENTITIES
  0
ARC
  8
_0-0_0
  6
CONTINUOUS
 62
    7
 10
151.22778349999993
 20
468.34997600000003
 40
0.2
 50
269.99999700000001
 51
20.376440000000013
  0
LINE
  8
_0-0_0
  6
CONTINUOUS
 62
    7
 10
151.41528349999993
 20
468.41961700000002
 11
150.11526449999997
 21
471.91961700000002
  0
ARC
  8
_0-0_0
  6
CONTINUOUS
 62
    7
 10
149.92779549999995
 20
471.84997600000003
 40
0.2
 50
20.376439999999999
 51
159.62355600000001
  0
LINE
  8
_0-0_0
  6
CONTINUOUS
 62
    7
 10
148.44030749999996
 20
468.41961700000002
 11
149.74029549999995
 21
471.91961700000002
  0
ARC
  8
_0-0_0
  6
CONTINUOUS
 62
    7
 10
148.62777649999998
 20
468.34997600000003
 40
0.2
 50
159.62355600000001
 51
269.99999700000001
  0
LINE
  8
_0-0_0
  6
CONTINUOUS
 62
    7
 10
148.62777649999998
 20
468.14999399999999
 11
151.22778349999993
 21
468.14999399999999
  0
LINE
  8
_0-0_0
  6
CONTINUOUS
 62
    7
 10
-14.005035500000076
 20
516.75271599999996
 11
-14.005035500000076
 21
516.75170900000001
  0
LINE
  8
_0-0_0
  6
CONTINUOUS
 62
    7
 10
968.92773450000004
 20
505.14999399999999
 11
968.92773450000004
 21
492.14999399999999
  0
LINE
  8
_0-0_0
  6
CONTINUOUS
 62
    7
 10
95.927780499999926
 20
505.14999399999999
 11
95.927780499999926
 21
492.14999399999999
  0
LINE
  8
_0-0_0
  6
CONTINUOUS
 62
    7
 10
95.927780499999926
 20
505.14999399999999
 11
968.92773450000004
 21
505.14999399999999
  0
LINE
  8
_0-0_0
  6
CONTINUOUS
 62
    7
 10
95.927780499999926
 20
505.14999399999999
 11
95.927780499999926
 21
523.75
  0
LINE
  8
_0-0_0
  6
CONTINUOUS
 62
    7
 10
95.927780499999926
 20
526.25
 11
95.927780499999926
 21
523.75
  0
LINE
  8
_0-0_0
  6
CONTINUOUS
 62
    7
 10
95.927780499999926
 20
526.75
 11
95.927780499999926
 21
526.25
  0
LINE
  8
_0-0_0
  6
CONTINUOUS
 62
    7
 10
95.927780499999926
 20
478.75
 11
95.927780499999926
 21
478.25
  0
LINE
  8
_0-0_0
  6
CONTINUOUS
 62
    7
 10
95.927780499999926
 20
483.75
 11
95.927780499999926
 21
478.75
  0
LINE
  8
_0-0_0
  6
CONTINUOUS
 62
    7
 10
95.927780499999926
 20
484.25
 11
95.927780499999926
 21
483.75
  0
LINE
  8
_0-0_0
  6
CONTINUOUS
 62
    7
 10
95.927780499999926
 20
484.75
 11
95.927780499999926
 21
484.25
  0
LINE
  8
_0-0_0
  6
CONTINUOUS
 62
    7
 10
95.927780499999926
 20
487.94998199999998
 11
95.927780499999926
 21
484.75
  0
LINE
  8
_0-0_0
  6
CONTINUOUS
 62
    7
 10
95.927780499999926
 20
487.94998199999998
 11
95.927780499999926
 21
492.14999399999999
  0
LINE
  8
_0-0_0
  6
CONTINUOUS
 62
    7
 10
95.927780499999926
 20
492.14999399999999
 11
968.92773450000004
 21
492.14999399999999
  0
LINE
  8
_0-0_0
  6
CONTINUOUS
 62
    7
 10
968.92773450000004
 20
487.94998199999998
 11
968.92773450000004
 21
492.14999399999999
  0
LINE
  8
_0-0_0
  6
CONTINUOUS
 62
    7
 10
968.92773450000004
 20
484.75
 11
968.92773450000004
 21
487.94998199999998
  0
LINE
  8
_0-0_0
  6
CONTINUOUS
 62
    7
 10
968.92773450000004
 20
484.75
 11
968.92773450000004
 21
484.25
  0
LINE
  8
_0-0_0
  6
CONTINUOUS
 62
    7
 10
968.92773450000004
 20
484.25
 11
968.92773450000004
 21
483.75
  0
LINE
  8
_0-0_0
  6
CONTINUOUS
 62
    7
 10
968.92773450000004
 20
483.75
 11
968.92773450000004
 21
478.75
  0
LINE
  8
_0-0_0
  6
CONTINUOUS
 62
    7
 10
968.92773450000004
 20
478.75
 11
968.92773450000004
 21
478.25
  0
LINE
  8
_0-0_0
  6
CONTINUOUS
 62
    7
 10
968.92773450000004
 20
526.75
 11
968.92773450000004
 21
526.25
  0
LINE
  8
_0-0_0
  6
CONTINUOUS
 62
    7
 10
968.92773450000004
 20
523.75
 11
968.92773450000004
 21
526.25
  0
LINE
  8
_0-0_0
  6
CONTINUOUS
 62
    7
 10
968.92773450000004
 20
505.14999399999999
 11
968.92773450000004
 21
523.75
  0
CIRCLE
  8
_0-0_0
  6
CONTINUOUS
 62
    7
 10
932.42773450000004
 20
514.25
 40
6
  0
CIRCLE
  8
_0-0_0
  6
CONTINUOUS
 62
    7
 10
832.4277955
 20
514.25
 40
6
  0
CIRCLE
  8
_0-0_0
  6
CONTINUOUS
 62
    7
 10
732.4277955
 20
514.25
 40
6
  0
CIRCLE
  8
_0-0_0
  6
CONTINUOUS
 62
    7
 10
632.4277955
 20
514.25
 40
6
  0
CIRCLE
  8
_0-0_0
  6
CONTINUOUS
 62
    7
 10
532.4277955
 20
514.25
 40
6
  0
CIRCLE
  8
_0-0_0
  6
CONTINUOUS
 62
    7
 10
432.4277955
 20
514.25
 40
6
  0
CIRCLE
  8
_0-0_0
  6
CONTINUOUS
 62
    7
 10
332.42779549999995
 20
514.25
 40
6
  0
CIRCLE
  8
_0-0_0
  6
CONTINUOUS
 62
    7
 10
232.42779549999995
 20
514.25
 40
6
  0
CIRCLE
  8
_0-0_0
  6
CONTINUOUS
 62
    7
 10
132.42779549999995
 20
514.25
 40
6
  0
LINE
  8
_0-0_0
  6
CONTINUOUS
 62
    7
 10
95.927780499999926
 20
523.75
 11
968.92773450000004
 21
523.75
  0
LINE
  8
_0-0_0
  6
CONTINUOUS
 62
    7
 10
95.927780499999926
 20
526.75
 11
968.92773450000004
 21
526.75
  0
LINE
  8
_0-0_0
  6
CONTINUOUS
 62
    7
 10
95.927780499999926
 20
526.25
 11
93.427780499999926
 21
526.25
  0
LINE
  8
_0-0_0
  6
CONTINUOUS
 62
    7
 10
93.427780499999926
 20
526.25
 11
93.427780499999926
 21
525.75
  0
LINE
  8
_0-0_0
  6
CONTINUOUS
 62
    7
 10
93.427780499999926
 20
525.75
 11
93.427780499999926
 21
485.25
  0
LINE
  8
_0-0_0
  6
CONTINUOUS
 62
    7
 10
95.927780499999926
 20
484.75
 11
93.427780499999926
 21
484.75
  0
LINE
  8
_0-0_0
  6
CONTINUOUS
 62
    7
 10
93.427780499999926
 20
485.25
 11
93.427780499999926
 21
484.75
  0
LINE
  8
_0-0_0
  6
CONTINUOUS
 62
    7
 10
93.427780499999926
 20
484.75
 11
93.427780499999926
 21
483.75
  0
LINE
  8
_0-0_0
  6
CONTINUOUS
 62
    7
 10
93.427780499999926
 20
483.75
 11
93.427780499999926
 21
479.25
  0
LINE
  8
_0-0_0
  6
CONTINUOUS
 62
    7
 10
95.927780499999926
 20
478.75
 11
93.427780499999926
 21
478.75
  0
LINE
  8
_0-0_0
  6
CONTINUOUS
 62
    7
 10
93.427780499999926
 20
479.25
 11
93.427780499999926
 21
478.75
  0
LINE
  8
_0-0_0
  6
CONTINUOUS
 62
    7
 10
95.927780499999926
 20
478.25
 11
968.92773450000004
 21
478.25
  0
LINE
  8
_0-0_0
  6
CONTINUOUS
 62
    7
 10
95.927780499999926
 20
484.25
 11
968.92773450000004
 21
484.25
  0
LINE
  8
_0-0_0
  6
CONTINUOUS
 62
    7
 10
95.927780499999926
 20
487.94998199999998
 11
968.92773450000004
 21
487.94998199999998
  0
LINE
  8
_0-0_0
  6
CONTINUOUS
 62
    7
 10
968.92773450000004
 20
526.25
 11
971.42773450000004
 21
526.25
  0
LINE
  8
_0-0_0
  6
CONTINUOUS
 62
    7
 10
971.42773450000004
 20
526.25
 11
971.42773450000004
 21
525.75
  0
LINE
  8
_0-0_0
  6
CONTINUOUS
 62
    7
 10
971.42773450000004
 20
525.75
 11
971.42773450000004
 21
485.25
  0
LINE
  8
_0-0_0
  6
CONTINUOUS
 62
    7
 10
968.92773450000004
 20
484.75
 11
971.42773450000004
 21
484.75
  0
LINE
  8
_0-0_0
  6
CONTINUOUS
 62
    7
 10
971.42773450000004
 20
485.25
 11
971.42773450000004
 21
484.75
  0
LINE
  8
_0-0_0
  6
CONTINUOUS
 62
    7
 10
971.42773450000004
 20
484.75
 11
971.42773450000004
 21
483.75
  0
LINE
  8
_0-0_0
  6
CONTINUOUS
 62
    7
 10
971.42773450000004
 20
483.75
 11
971.42773450000004
 21
479.25
  0
LINE
  8
_0-0_0
  6
CONTINUOUS
 62
    7
 10
968.92773450000004
 20
478.75
 11
971.42773450000004
 21
478.75
  0
LINE
  8
_0-0_0
  6
CONTINUOUS
 62
    7
 10
971.42773450000004
 20
479.25
 11
971.42773450000004
 21
478.75
  0
ARC
  8
_0-0_0
  6
CONTINUOUS
 62
    7
 10
153.42779549999995
 20
479.25
 40
0.5
 50
269.99999700000001
 51
0
  0
LINE
  8
_0-0_0
  6
CONTINUOUS
 62
    7
 10
153.42779549999995
 20
478.75
 11
146.42779549999995
 21
478.75
  0
ARC
  8
_0-0_0
  6
CONTINUOUS
 62
    7
 10
146.42779549999995
 20
479.25
 40
0.5
 50
179.99999099999999
 51
269.99999700000001
  0
LINE
  8
_0-0_0
  6
CONTINUOUS
 62
    7
 10
145.92779549999995
 20
483.25
 11
145.92779549999995
 21
479.25
  0
ARC
  8
_0-0_0
  6
CONTINUOUS
 62
    7
 10
146.42779549999995
 20
483.25
 40
0.5
 50
90.000003000000007
 51
179.99999099999999
  0
ARC
  8
_0-0_0
  6
CONTINUOUS
 62
    7
 10
153.42779549999995
 20
483.25
 40
0.5
 50
0
 51
90.000003000000007
  0
LINE
  8
_0-0_0
  6
CONTINUOUS
 62
    7
 10
146.42779549999995
 20
483.75
 11
153.42779549999995
 21
483.75
  0
LINE
  8
_0-0_0
  6
CONTINUOUS
 62
    7
 10
968.92773450000004
 20
526.75
 11
968.92773450000004
 21
526.44998199999998
  0
LINE
  8
_0-0_0
  6
CONTINUOUS
 62
    7
 10
968.92773450000004
 20
526.44998199999998
 11
968.92773450000004
 21
526.25
  0
CIRCLE
  8
_0-0_0
  6
CONTINUOUS
 62
    7
 10
932.42773450000004
 20
514.25
 40
5.5
  0
CIRCLE
  8
_0-0_0
  6
CONTINUOUS
 62
    7
 10
832.4277955
 20
514.25
 40
5.5
  0
CIRCLE
  8
_0-0_0
  6
CONTINUOUS
 62
    7
 10
732.4277955
 20
514.25
 40
5.5
  0
CIRCLE
  8
_0-0_0
  6
CONTINUOUS
 62
    7
 10
632.4277955
 20
514.25
 40
5.5
  0
CIRCLE
  8
_0-0_0
  6
CONTINUOUS
 62
    7
 10
532.4277955
 20
514.25
 40
5.5
  0
CIRCLE
  8
_0-0_0
  6
CONTINUOUS
 62
    7
 10
432.4277955
 20
514.25
 40
5.5
  0
CIRCLE
  8
_0-0_0
  6
CONTINUOUS
 62
    7
 10
332.42779549999995
 20
514.25
 40
5.5
  0
CIRCLE
  8
_0-0_0
  6
CONTINUOUS
 62
    7
 10
232.42779549999995
 20
514.25
 40
5.5
  0
CIRCLE
  8
_0-0_0
  6
CONTINUOUS
 62
    7
 10
132.42779549999995
 20
514.25
 40
5.5
  0
LINE
  8
_0-0_0
  6
CONTINUOUS
 62
    7
 10
153.92779549999995
 20
479.25
 11
153.92779549999995
 21
483.25
  0
CIRCLE
  8
_0-0_0
  6
CONTINUOUS
 62
    7
 10
932.42773450000004
 20
514.25
 40
3.5
  0
CIRCLE
  8
_0-0_0
  6
CONTINUOUS
 62
    7
 10
832.4277955
 20
514.25
 40
3.5
  0
CIRCLE
  8
_0-0_0
  6
CONTINUOUS
 62
    7
 10
732.4277955
 20
514.25
 40
3.5
  0
CIRCLE
  8
_0-0_0
  6
CONTINUOUS
 62
    7
 10
632.4277955
 20
514.25
 40
3.5
  0
CIRCLE
  8
_0-0_0
  6
CONTINUOUS
 62
    7
 10
532.4277955
 20
514.25
 40
3.5
  0
CIRCLE
  8
_0-0_0
  6
CONTINUOUS
 62
    7
 10
432.4277955
 20
514.25
 40
3.5
  0
CIRCLE
  8
_0-0_0
  6
CONTINUOUS
 62
    7
 10
332.42779549999995
 20
514.25
 40
3.5
  0
CIRCLE
  8
_0-0_0
  6
CONTINUOUS
 62
    7
 10
232.42779549999995
 20
514.25
 40
3.5
  0
CIRCLE
  8
_0-0_0
  6
CONTINUOUS
 62
    7
 10
132.42779549999995
 20
514.25
 40
3.5
  0
ARC
  8
_0-0_0
  6
CONTINUOUS
 62
    7
 10
151.22778349999993
 20
482.94998199999998
 40
0.2
 50
339.62356199999999
 51
90.000002999999978
  0
LINE
  8
_0-0_0
  6
CONTINUOUS
 62
    7
 10
151.41528349999993
 20
482.88034099999999
 11
150.11526449999997
 21
479.38034099999999
  0
ARC
  8
_0-0_0
  6
CONTINUOUS
 62
    7
 10
149.92779549999995
 20
479.44998199999998
 40
0.2
 50
200.37643
 51
339.62356199999999
  0
LINE
  8
_0-0_0
  6
CONTINUOUS
 62
    7
 10
148.44030749999996
 20
482.88034099999999
 11
149.74029549999995
 21
479.38034099999999
  0
ARC
  8
_0-0_0
  6
CONTINUOUS
 62
    7
 10
148.62777649999998
 20
482.94998199999998
 40
0.2
 50
90.000003000000007
 51
200.37643
  0
LINE
  8
_0-0_0
  6
CONTINUOUS
 62
    7
 10
148.62777649999998
 20
483.14999399999999
 11
151.22778349999993
 21
483.14999399999999
  0
ARC
  8
_0-0_0
  6
CONTINUOUS
 62
    7
 10
888.6278074999999
 20
482.94998199999998
 40
0.2
 50
90.000003000000007
 51
200.37643
  0
LINE
  8
_0-0_0
  6
CONTINUOUS
 62
    7
 10
888.6278074999999
 20
483.14999399999999
 11
891.22778349999999
 21
483.14999399999999
  0
ARC
  8
_0-0_0
  6
CONTINUOUS
 62
    7
 10
886.4277955
 20
483.25
 40
0.5
 50
90.000003000000007
 51
179.99999099999999
  0
LINE
  8
_0-0_0
  6
CONTINUOUS
 62
    7
 10
885.9277955
 20
483.25
 11
885.9277955
 21
479.25
  0
ARC
  8
_0-0_0
  6
CONTINUOUS
 62
    7
 10
886.4277955
 20
479.25
 40
0.5
 50
179.99999099999999
 51
269.99999700000001
  0
LINE
  8
_0-0_0
  6
CONTINUOUS
 62
    7
 10
893.4277955
 20
478.75
 11
886.4277955
 21
478.75
  0
ARC
  8
_0-0_0
  6
CONTINUOUS
 62
    7
 10
893.4277955
 20
479.25
 40
0.5
 50
269.99999700000001
 51
0
  0
LINE
  8
_0-0_0
  6
CONTINUOUS
 62
    7
 10
893.92773450000004
 20
479.25
 11
893.92773450000004
 21
483.25
  0
ARC
  8
_0-0_0
  6
CONTINUOUS
 62
    7
 10
893.4277955
 20
483.25
 40
0.5
 50
0
 51
90.000003000000007
  0
LINE
  8
_0-0_0
  6
CONTINUOUS
 62
    7
 10
886.4277955
 20
483.75
 11
893.4277955
 21
483.75
  0
LINE
  8
_0-0_0
  6
CONTINUOUS
 62
    7
 10
888.4403074999999
 20
482.88034099999999
 11
889.7402955
 21
479.38034099999999
  0
ARC
  8
_0-0_0
  6
CONTINUOUS
 62
    7
 10
889.9277955
 20
479.44998199999998
 40
0.2
 50
200.37643
 51
339.62356199999999
  0
LINE
  8
_0-0_0
  6
CONTINUOUS
 62
    7
 10
891.41528349999999
 20
482.88034099999999
 11
890.1152955
 21
479.38034099999999
  0
ARC
  8
_0-0_0
  6
CONTINUOUS
 62
    7
 10
891.22778349999999
 20
482.94998199999998
 40
0.2
 50
339.62356199999999
 51
90.000002999999978
  0
LINE
  8
_0-0_0
  6
CONTINUOUS
 62
    7
 10
102.42778049999993
 20
476.25
 11
107.42778049999993
 21
476.25
  0
LINE
  8
_0-0_0
  6
CONTINUOUS
 62
    7
 10
107.42778049999993
 20
476.25
 11
109.22776749999997
 21
476.25
  0
LINE
  8
_0-0_0
  6
CONTINUOUS
 62
    7
 10
109.22776749999997
 20
476.25
 11
109.92778049999993
 21
476.25
  0
ARC
  8
_0-0_0
  6
CONTINUOUS
 62
    7
 10
109.22776749999997
 20
475.75
 40
0.5
 50
0
 51
90.000003000000007
  0
ARC
  8
_0-0_0
  6
CONTINUOUS
 62
    7
 10
102.42778049999993
 20
475.75
 40
0.5
 50
90.000003000000007
 51
179.99999099999999
  0
ARC
  8
_0-0_0
  6
CONTINUOUS
 62
    7
 10
205.92779549999995
 20
475.75
 40
0.5
 50
0
 51
90.000003000000007
  0
LINE
  8
_0-0_0
  6
CONTINUOUS
 62
    7
 10
109.92778049999993
 20
476.25
 11
109.92778049999993
 21
474.75
  0
LINE
  8
_0-0_0
  6
CONTINUOUS
 62
    7
 10
109.92778049999993
 20
476.75
 11
109.92778049999993
 21
476.25
  0
LINE
  8
_0-0_0
  6
CONTINUOUS
 62
    7
 10
109.92778049999993
 20
477.25
 11
109.92778049999993
 21
476.75
  0
LINE
  8
_0-0_0
  6
CONTINUOUS
 62
    7
 10
109.92778049999993
 20
478.25
 11
109.92778049999993
 21
477.25
  0
LINE
  8
_0-0_0
  6
CONTINUOUS
 62
    7
 10
113.92778049999993
 20
476.25
 11
114.62776149999996
 21
476.25
  0
LINE
  8
_0-0_0
  6
CONTINUOUS
 62
    7
 10
109.72776749999997
 20
475.75
 11
109.72776749999997
 21
474.75
  0
LINE
  8
_0-0_0
  6
CONTINUOUS
 62
    7
 10
112.92778049999993
 20
449.25
 11
112.92778049999993
 21
450.84997600000003
  0
LINE
  8
_0-0_0
  6
CONTINUOUS
 62
    7
 10
112.92778049999993
 20
449.25
 11
107.42778049999993
 21
449.25
  0
LINE
  8
_0-0_0
  6
CONTINUOUS
 62
    7
 10
128.92779549999995
 20
455.94998199999998
 11
170.92779549999995
 21
455.94998199999998
  0
LINE
  8
_0-0_0
  6
CONTINUOUS
 62
    7
 10
128.92779549999995
 20
475.54998799999998
 11
170.92779549999995
 21
475.54998799999998
  0
LINE
  8
_0-0_0
  6
CONTINUOUS
 62
    7
 10
192.42779549999995
 20
449.25
 11
182.92779549999995
 21
449.25
  0
LINE
  8
_0-0_0
  6
CONTINUOUS
 62
    7
 10
182.92779549999995
 20
449.25
 11
182.92779549999995
 21
450.84997600000003
  0
ARC
  8
_0-0_0
  6
CONTINUOUS
 62
    7
 10
182.62777649999998
 20
450.84997600000003
 40
0.2999999999999999
 50
0
 51
90.000003000000007
  0
LINE
  8
_0-0_0
  6
CONTINUOUS
 62
    7
 10
181.92779549999995
 20
451.14999399999999
 11
182.62777649999998
 21
451.14999399999999
  0
LINE
  8
_0-0_0
  6
CONTINUOUS
 62
    7
 10
181.42779549999995
 20
451.54998799999998
 11
181.92779549999995
 21
451.54998799999998
  0
LINE
  8
_0-0_0
  6
CONTINUOUS
 62
    7
 10
167.92779549999995
 20
451.54998799999998
 11
181.42779549999995
 21
451.54998799999998
  0
ARC
  8
_0-0_0
  6
CONTINUOUS
 62
    7
 10
165.42779549999995
 20
451.54998799999998
 40
2.5
 50
0
 51
90.000003000000007
  0
LINE
  8
_0-0_0
  6
CONTINUOUS
 62
    7
 10
134.42779549999995
 20
454.04998799999998
 11
165.42779549999995
 21
454.04998799999998
  0
ARC
  8
_0-0_0
  6
CONTINUOUS
 62
    7
 10
134.42779549999995
 20
451.54998799999998
 40
2.5
 50
90.000003000000007
 51
179.99999099999999
  0
LINE
  8
_0-0_0
  6
CONTINUOUS
 62
    7
 10
114.42778049999993
 20
451.54998799999998
 11
131.92779549999995
 21
451.54998799999998
  0
LINE
  8
_0-0_0
  6
CONTINUOUS
 62
    7
 10
113.92778049999993
 20
451.54998799999998
 11
114.42778049999993
 21
451.54998799999998
  0
LINE
  8
_0-0_0
  6
CONTINUOUS
 62
    7
 10
113.22776749999997
 20
451.14999399999999
 11
113.92778049999993
 21
451.14999399999999
  0
ARC
  8
_0-0_0
  6
CONTINUOUS
 62
    7
 10
113.22776749999997
 20
450.84997600000003
 40
0.2999999999999999
 50
90.000003000000007
 51
179.99999099999999
  0
LINE
  8
_0-0_0
  6
CONTINUOUS
 62
    7
 10
101.92778049999993
 20
473.97485399999999
 11
101.92778049999993
 21
475.75
  0
LINE
  8
_0-0_0
  6
CONTINUOUS
 62
    7
 10
106.92778049999993
 20
476.75
 11
106.92778049999993
 21
476.25
  0
LINE
  8
_0-0_0
  6
CONTINUOUS
 62
    7
 10
106.92778049999993
 20
472.80355800000001
 11
106.92778049999993
 21
472.90853900000002
  0
LINE
  8
_0-0_0
  6
CONTINUOUS
 62
    7
 10
106.92778049999993
 20
476.75
 11
106.92778049999993
 21
478.24996900000002
  0
LINE
  8
_0-0_0
  6
CONTINUOUS
 62
    7
 10
206.42779549999995
 20
478.24996900000002
 11
206.42779549999995
 21
476.75
  0
LINE
  8
_0-0_0
  6
CONTINUOUS
 62
    7
 10
206.42779549999995
 20
476.75
 11
206.42779549999995
 21
475.75
  0
LINE
  8
_0-0_0
  6
CONTINUOUS
 62
    7
 10
206.42779549999995
 20
474.94998199999998
 11
206.42779549999995
 21
475.75
  0
LINE
  8
_0-0_0
  6
CONTINUOUS
 62
    7
 10
205.92779549999995
 20
476.25
 11
206.42779549999995
 21
476.25
  0
LINE
  8
_0-0_0
  6
CONTINUOUS
 62
    7
 10
193.42779549999995
 20
476.25
 11
205.92779549999995
 21
476.25
  0
LINE
  8
_0-0_0
  6
CONTINUOUS
 62
    7
 10
206.42779549999995
 20
478.25
 11
206.42779549999995
 21
477.25
  0
LINE
  8
_0-0_0
  6
CONTINUOUS
 62
    7
 10
206.42779549999995
 20
476.75
 11
206.42779549999995
 21
476.25
  0
LINE
  8
_0-0_0
  6
CONTINUOUS
 62
    7
 10
206.42779549999995
 20
477.25
 11
206.42779549999995
 21
476.75
  0
ARC
  8
_0-0_0
  6
CONTINUOUS
 62
    7
 10
111.92778049999993
 20
474.75
 40
2
 50
179.99999099999999
 51
0
  0
LINE
  8
_0-0_0
  6
CONTINUOUS
 62
    7
 10
192.92779549999995
 20
476.25
 11
193.42779549999995
 21
476.25
  0
LINE
  8
_0-0_0
  6
CONTINUOUS
 62
    7
 10
192.92779549999995
 20
475.75
 11
192.92779549999995
 21
476.25
  0
LINE
  8
_0-0_0
  6
CONTINUOUS
 62
    7
 10
192.92779549999995
 20
474.75
 11
192.92779549999995
 21
474.94998199999998
  0
ARC
  8
_0-0_0
  6
CONTINUOUS
 62
    7
 10
190.92779549999995
 20
474.75
 40
2
 50
179.99999099999999
 51
0
  0
LINE
  8
_0-0_0
  6
CONTINUOUS
 62
    7
 10
188.92779549999995
 20
476.25
 11
188.92779549999995
 21
474.75
  0
LINE
  8
_0-0_0
  6
CONTINUOUS
 62
    7
 10
188.22778349999993
 20
476.25
 11
188.92779549999995
 21
476.25
  0
LINE
  8
_0-0_0
  6
CONTINUOUS
 62
    7
 10
113.92778049999993
 20
474.75
 11
113.92778049999993
 21
476.25
  0
LINE
  8
_0-0_0
  6
CONTINUOUS
 62
    7
 10
109.92778049999993
 20
477.25
 11
206.42779549999995
 21
477.25
  0
ARC
  8
_0-0_0
  6
CONTINUOUS
 62
    7
 10
114.62776149999996
 20
475.75
 40
0.5
 50
90.000003000000007
 51
179.99999099999999
  0
ARC
  8
_0-0_0
  6
CONTINUOUS
 62
    7
 10
111.92778049999993
 20
474.75
 40
2.2000000000000002
 50
179.99999099999999
 51
0
  0
LINE
  8
_0-0_0
  6
CONTINUOUS
 62
    7
 10
113.92778049999993
 20
451.14999399999999
 11
114.42778049999993
 21
451.14999399999999
  0
LINE
  8
_0-0_0
  6
CONTINUOUS
 62
    7
 10
114.42778049999993
 20
451.54998799999998
 11
114.42778049999993
 21
451.14999399999999
  0
LINE
  8
_0-0_0
  6
CONTINUOUS
 62
    7
 10
131.92779549999995
 20
451.54998799999998
 11
167.92779549999995
 21
451.54998799999998
  0
LINE
  8
_0-0_0
  6
CONTINUOUS
 62
    7
 10
181.42779549999995
 20
451.14999399999999
 11
181.92779549999995
 21
451.14999399999999
  0
LINE
  8
_0-0_0
  6
CONTINUOUS
 62
    7
 10
181.42779549999995
 20
451.54998799999998
 11
181.42779549999995
 21
451.14999399999999
  0
LINE
  8
_0-0_0
  6
CONTINUOUS
 62
    7
 10
192.42779549999995
 20
448.75
 11
183.42779549999995
 21
448.75
  0
ARC
  8
_0-0_0
  6
CONTINUOUS
 62
    7
 10
183.42779549999995
 20
449.25
 40
0.5
 50
179.99999099999999
 51
269.99999700000001
  0
LINE
  8
_0-0_0
  6
CONTINUOUS
 62
    7
 10
192.42779549999995
 20
449.25
 11
192.92779549999995
 21
449.25
  0
LINE
  8
_0-0_0
  6
CONTINUOUS
 62
    7
 10
192.92779549999995
 20
449.25
 11
192.92779549999995
 21
449.44998199999998
  0
LINE
  8
_0-0_0
  6
CONTINUOUS
 62
    7
 10
197.42779549999995
 20
449.64999399999999
 11
193.12777649999998
 21
449.64999399999999
  0
LINE
  8
_0-0_0
  6
CONTINUOUS
 62
    7
 10
197.92779549999995
 20
450.14999399999999
 11
197.92779549999995
 21
451.92511000000002
  0
ARC
  8
_0-0_0
  6
CONTINUOUS
 62
    7
 10
194.87982149999993
 20
451.868988
 40
3.0490550000000001
 50
1.0548960000000001
 51
14.838094000000002
  0
LINE
  8
_0-0_0
  6
CONTINUOUS
 62
    7
 10
197.42779549999995
 20
452.84997600000003
 11
193.06024149999996
 21
452.84997600000003
  0
LINE
  8
_0-0_0
  6
CONTINUOUS
 62
    7
 10
192.92779549999995
 20
452.99142499999999
 11
192.92779549999995
 21
453.33367900000002
  0
ARC
  8
_0-0_0
  6
CONTINUOUS
 62
    7
 10
190.92779549999995
 20
474.75
 40
2.2000000000000002
 50
179.99999099999999
 51
303.74900400000001
  0
LINE
  8
_0-0_0
  6
CONTINUOUS
 62
    7
 10
188.72778349999993
 20
475.75
 11
188.72778349999993
 21
474.75
  0
LINE
  8
_0-0_0
  6
CONTINUOUS
 62
    7
 10
188.22778349999993
 20
476.25
 11
114.62776149999996
 21
476.25
  0
LINE
  8
_0-0_0
  6
CONTINUOUS
 62
    7
 10
114.12776149999996
 20
474.75
 11
114.12776149999996
 21
475.75
  0
LINE
  8
_0-0_0
  6
CONTINUOUS
 62
    7
 10
114.62776149999996
 20
474.54998799999998
 11
114.62776149999996
 21
474.75
  0
ARC
  8
_0-0_0
  6
CONTINUOUS
 62
    7
 10
115.62776149999996
 20
474.54998799999998
 40
1
 50
90.000003000000007
 51
179.99999099999999
  0
LINE
  8
_0-0_0
  6
CONTINUOUS
 62
    7
 10
115.62776149999996
 20
475.54998799999998
 11
128.92779549999995
 21
475.54998799999998
  0
LINE
  8
_0-0_0
  6
CONTINUOUS
 62
    7
 10
170.92779549999995
 20
475.54998799999998
 11
184.92779549999995
 21
475.54998799999998
  0
ARC
  8
_0-0_0
  6
CONTINUOUS
 62
    7
 10
184.92779549999995
 20
472.54998799999998
 40
3
 50
0
 51
90.000003000000007
  0
LINE
  8
_0-0_0
  6
CONTINUOUS
 62
    7
 10
187.92779549999995
 20
458.94998199999998
 11
187.92779549999995
 21
472.54998799999998
  0
ARC
  8
_0-0_0
  6
CONTINUOUS
 62
    7
 10
184.92779549999995
 20
458.94998199999998
 40
3
 50
269.99999700000001
 51
0
  0
LINE
  8
_0-0_0
  6
CONTINUOUS
 62
    7
 10
184.92779549999995
 20
455.94998199999998
 11
170.92779549999995
 21
455.94998199999998
  0
LINE
  8
_0-0_0
  6
CONTINUOUS
 62
    7
 10
128.92779549999995
 20
455.94998199999998
 11
114.92778049999993
 21
455.94998199999998
  0
ARC
  8
_0-0_0
  6
CONTINUOUS
 62
    7
 10
114.92778049999993
 20
458.94998199999998
 40
3
 50
179.99999099999999
 51
269.99999700000001
  0
LINE
  8
_0-0_0
  6
CONTINUOUS
 62
    7
 10
111.92778049999993
 20
471.18768299999999
 11
111.92778049999993
 21
458.94998199999998
  0
ARC
  8
_0-0_0
  6
CONTINUOUS
 62
    7
 10
112.92778049999993
 20
471.18768299999999
 40
1
 50
105.68034800000001
 51
179.99999100000002
  0
ARC
  8
_0-0_0
  6
CONTINUOUS
 62
    7
 10
104.9757535
 20
474.03097500000001
 40
3.0490550000000001
 50
181.05489
 51
194.838089
  0
LINE
  8
_0-0_0
  6
CONTINUOUS
 62
    7
 10
106.79530349999993
 20
473.04998799999998
 11
102.42778049999993
 21
473.04998799999998
  0
LINE
  8
_0-0_0
  6
CONTINUOUS
 62
    7
 10
106.92778049999993
 20
452.99142499999999
 11
106.92778049999993
 21
453.096405
  0
LINE
  8
_0-0_0
  6
CONTINUOUS
 62
    7
 10
106.79530349999993
 20
452.84997600000003
 11
102.42778049999993
 21
452.84997600000003
  0
ARC
  8
_0-0_0
  6
CONTINUOUS
 62
    7
 10
104.97691349999997
 20
451.86834700000003
 40
3.050319
 50
165.15540799999999
 51
178.932897
  0
LINE
  8
_0-0_0
  6
CONTINUOUS
 62
    7
 10
101.92778049999993
 20
450.14999399999999
 11
101.92778049999993
 21
451.92511000000002
  0
LINE
  8
_0-0_0
  6
CONTINUOUS
 62
    7
 10
106.72776749999997
 20
449.64999399999999
 11
102.42778049999993
 21
449.64999399999999
  0
LINE
  8
_0-0_0
  6
CONTINUOUS
 62
    7
 10
106.92778049999993
 20
449.25
 11
106.92778049999993
 21
449.44998199999998
  0
LINE
  8
_0-0_0
  6
CONTINUOUS
 62
    7
 10
106.92778049999993
 20
449.25
 11
107.42778049999993
 21
449.25
  0
LINE
  8
_0-0_0
  6
CONTINUOUS
 62
    7
 10
112.42778049999993
 20
448.75
 11
107.42778049999993
 21
448.75
  0
ARC
  8
_0-0_0
  6
CONTINUOUS
 62
    7
 10
112.42778049999993
 20
449.25
 40
0.5
 50
269.99999700000001
 51
0
  0
LINE
  8
_0-0_0
  6
CONTINUOUS
 62
    7
 10
102.24601749999999
 20
473.04998799999998
 11
102.22569249999992
 21
473.050995
  0
LINE
  8
_0-0_0
  6
CONTINUOUS
 62
    7
 10
102.22569249999992
 20
473.050995
 11
102.20527649999997
 21
473.05413800000002
  0
LINE
  8
_0-0_0
  6
CONTINUOUS
 62
    7
 10
102.20527649999997
 20
473.05413800000002
 11
102.17845149999994
 21
473.06173699999999
  0
LINE
  8
_0-0_0
  6
CONTINUOUS
 62
    7
 10
102.17845149999994
 20
473.06173699999999
 11
102.15281649999997
 21
473.07312000000002
  0
LINE
  8
_0-0_0
  6
CONTINUOUS
 62
    7
 10
102.15281649999997
 20
473.07312000000002
 11
102.12901249999993
 21
473.08798200000001
  0
LINE
  8
_0-0_0
  6
CONTINUOUS
 62
    7
 10
102.12901249999993
 20
473.08798200000001
 11
102.11225849999994
 21
473.10150099999998
  0
LINE
  8
_0-0_0
  6
CONTINUOUS
 62
    7
 10
102.11225849999994
 20
473.10150099999998
 11
102.09675549999997
 21
473.11673000000002
  0
LINE
  8
_0-0_0
  6
CONTINUOUS
 62
    7
 10
102.09675549999997
 20
473.11673000000002
 11
102.06983949999994
 21
473.15136699999999
  0
LINE
  8
_0-0_0
  6
CONTINUOUS
 62
    7
 10
102.06983949999994
 20
473.15136699999999
 11
102.04881249999994
 21
473.18969700000002
  0
LINE
  8
_0-0_0
  6
CONTINUOUS
 62
    7
 10
102.04881249999994
 20
473.18969700000002
 11
102.03681949999998
 21
473.21963499999998
  0
LINE
  8
_0-0_0
  6
CONTINUOUS
 62
    7
 10
102.03681949999998
 20
473.21963499999998
 11
102.02778649999993
 21
473.25
  0
LINE
  8
_0-0_0
  6
CONTINUOUS
 62
    7
 10
101.93897949999996
 20
473.75
 11
94.927780499999926
 21
473.75
  0
LINE
  8
_0-0_0
  6
CONTINUOUS
 62
    7
 10
94.927780499999926
 20
473.75
 11
90.252334499999961
 21
473.75
  0
LINE
  8
_0-0_0
  6
CONTINUOUS
 62
    7
 10
94.927780499999926
 20
473.75
 11
94.927780499999926
 21
471.75
  0
LINE
  8
_0-0_0
  6
CONTINUOUS
 62
    7
 10
106.92778049999993
 20
471.75
 11
106.92778049999993
 21
472.80355800000001
  0
ARC
  8
_0-0_0
  6
CONTINUOUS
 62
    7
 10
205.92779549999995
 20
474.94998199999998
 40
0.5
 50
269.99999700000001
 51
0
  0
ARC
  8
_0-0_0
  6
CONTINUOUS
 62
    7
 10
193.42779549999995
 20
475.75
 40
0.5
 50
90.000003000000007
 51
179.99999099999999
  0
LINE
  8
_0-0_0
  6
CONTINUOUS
 62
    7
 10
192.92779549999995
 20
474.94998199999998
 11
192.92779549999995
 21
475.75
  0
LINE
  8
_0-0_0
  6
CONTINUOUS
 62
    7
 10
113.12776149999996
 20
451.13284299999998
 11
113.12776149999996
 21
449.14999399999999
  0
LINE
  8
_0-0_0
  6
CONTINUOUS
 62
    7
 10
113.12776149999996
 20
449.14999399999999
 11
114.12776149999996
 21
449.14999399999999
  0
LINE
  8
_0-0_0
  6
CONTINUOUS
 62
    7
 10
114.42778049999993
 20
451.14999399999999
 11
181.42779549999995
 21
451.14999399999999
  0
LINE
  8
_0-0_0
  6
CONTINUOUS
 62
    7
 10
114.12776149999996
 20
449.14999399999999
 11
181.72778349999993
 21
449.14999399999999
  0
LINE
  8
_0-0_0
  6
CONTINUOUS
 62
    7
 10
181.72778349999993
 20
449.14999399999999
 11
182.72778349999993
 21
449.14999399999999
  0
LINE
  8
_0-0_0
  6
CONTINUOUS
 62
    7
 10
182.72778349999993
 20
451.13284299999998
 11
182.72778349999993
 21
449.14999399999999
  0
LINE
  8
_0-0_0
  6
CONTINUOUS
 62
    7
 10
192.92779549999995
 20
449.25
 11
192.42779549999995
 21
448.75
  0
ARC
  8
_0-0_0
  6
CONTINUOUS
 62
    7
 10
193.12777649999998
 20
449.44998199999998
 40
0.2
 50
90.000003000000007
 51
179.99999099999999
  0
ARC
  8
_0-0_0
  6
CONTINUOUS
 62
    7
 10
197.42779549999995
 20
450.14999399999999
 40
0.5
 50
269.99999700000001
 51
0
  0
LINE
  8
_0-0_0
  6
CONTINUOUS
 62
    7
 10
197.60952749999996
 20
452.84997600000003
 11
197.62988249999995
 21
452.84896900000001
  0
LINE
  8
_0-0_0
  6
CONTINUOUS
 62
    7
 10
197.62988249999995
 20
452.84896900000001
 11
197.65029849999996
 21
452.84582499999999
  0
LINE
  8
_0-0_0
  6
CONTINUOUS
 62
    7
 10
197.65029849999996
 20
452.84582499999999
 11
197.67712349999994
 21
452.83822600000002
  0
LINE
  8
_0-0_0
  6
CONTINUOUS
 62
    7
 10
197.67712349999994
 20
452.83822600000002
 11
197.70275849999996
 21
452.82687399999998
  0
LINE
  8
_0-0_0
  6
CONTINUOUS
 62
    7
 10
197.70275849999996
 20
452.82687399999998
 11
197.72656249999994
 21
452.811981
  0
LINE
  8
_0-0_0
  6
CONTINUOUS
 62
    7
 10
197.72656249999994
 20
452.811981
 11
197.74331649999993
 21
452.79846199999997
  0
LINE
  8
_0-0_0
  6
CONTINUOUS
 62
    7
 10
197.74331649999993
 20
452.79846199999997
 11
197.75881949999996
 21
452.78326399999997
  0
LINE
  8
_0-0_0
  6
CONTINUOUS
 62
    7
 10
197.75881949999996
 20
452.78326399999997
 11
197.78570549999995
 21
452.74859600000002
  0
LINE
  8
_0-0_0
  6
CONTINUOUS
 62
    7
 10
197.78570549999995
 20
452.74859600000002
 11
197.80676249999993
 21
452.71026599999999
  0
LINE
  8
_0-0_0
  6
CONTINUOUS
 62
    7
 10
197.80676249999993
 20
452.71026599999999
 11
197.81875549999995
 21
452.68035900000001
  0
LINE
  8
_0-0_0
  6
CONTINUOUS
 62
    7
 10
197.81875549999995
 20
452.68035900000001
 11
197.82778949999994
 21
452.64999399999999
  0
LINE
  8
_0-0_0
  6
CONTINUOUS
 62
    7
 10
197.60952749999996
 20
452.84997600000003
 11
197.42779549999995
 21
452.84997600000003
  0
LINE
  8
_0-0_0
  6
CONTINUOUS
 62
    7
 10
192.92779549999995
 20
471.29998799999998
 11
192.92779549999995
 21
473.79998799999998
  0
LINE
  8
_0-0_0
  6
CONTINUOUS
 62
    7
 10
192.92779549999995
 20
471.29998799999998
 11
192.92779549999995
 21
454.79998799999998
  0
LINE
  8
_0-0_0
  6
CONTINUOUS
 62
    7
 10
192.92779549999995
 20
453.33367900000002
 11
192.92779549999995
 21
454.79998799999998
  0
ARC
  8
_0-0_0
  6
CONTINUOUS
 62
    7
 10
192.42779549999995
 20
472.50500499999998
 40
0.5
 50
0
 51
123.74898500000002
  0
ARC
  8
_0-0_0
  6
CONTINUOUS
 62
    7
 10
193.09808349999997
 20
453.02328499999999
 40
0.1734229999999999
 50
181.12417600000003
 51
270.64883800000007
  0
LINE
  8
_0-0_0
  6
CONTINUOUS
 62
    7
 10
192.92373649999996
 20
453.04998799999998
 11
192.92382849999996
 21
453.01986699999998
  0
ARC
  8
_0-0_0
  6
CONTINUOUS
 62
    7
 10
188.22778349999993
 20
475.75
 40
0.5
 50
0
 51
90.000003000000007
  0
ARC
  8
_0-0_0
  6
CONTINUOUS
 62
    7
 10
111.92778049999993
 20
474.75
 40
2.7000000000000002
 50
285.68033600000007
 51
0.0000000000000381
  0
ARC
  8
_0-0_0
  6
CONTINUOUS
 62
    7
 10
128.92779549999995
 20
458.94998199999998
 40
3
 50
269.99999700000001
 51
0
  0
LINE
  8
_0-0_0
  6
CONTINUOUS
 62
    7
 10
131.92779549999995
 20
458.94998199999998
 11
131.92779549999995
 21
472.54998799999998
  0
ARC
  8
_0-0_0
  6
CONTINUOUS
 62
    7
 10
128.92779549999995
 20
472.54998799999998
 40
3
 50
0
 51
90.000003000000007
  0
ARC
  8
_0-0_0
  6
CONTINUOUS
 62
    7
 10
124.42778049999993
 20
468.25
 40
4.5
 50
269.99999700000001
 51
90.000002999999992
  0
LINE
  8
_0-0_0
  6
CONTINUOUS
 62
    7
 10
124.42778049999993
 20
463.75
 11
119.42778049999993
 21
463.75
  0
ARC
  8
_0-0_0
  6
CONTINUOUS
 62
    7
 10
119.42778049999993
 20
468.25
 40
4.5
 50
90.000003000000007
 51
269.99999700000006
  0
LINE
  8
_0-0_0
  6
CONTINUOUS
 62
    7
 10
119.42778049999993
 20
472.75
 11
124.42778049999993
 21
472.75
  0
ARC
  8
_0-0_0
  6
CONTINUOUS
 62
    7
 10
170.92779549999995
 20
458.94998199999998
 40
3
 50
179.99999099999999
 51
269.99999700000001
  0
LINE
  8
_0-0_0
  6
CONTINUOUS
 62
    7
 10
167.92779549999995
 20
472.54998799999998
 11
167.92779549999995
 21
458.94998199999998
  0
ARC
  8
_0-0_0
  6
CONTINUOUS
 62
    7
 10
170.92779549999995
 20
472.54998799999998
 40
3
 50
90.000003000000007
 51
179.99999099999999
  0
ARC
  8
_0-0_0
  6
CONTINUOUS
 62
    7
 10
180.42779549999995
 20
468.25
 40
4.5
 50
269.99999700000001
 51
90.000002999999992
  0
LINE
  8
_0-0_0
  6
CONTINUOUS
 62
    7
 10
180.42779549999995
 20
463.75
 11
175.42779549999995
 21
463.75
  0
ARC
  8
_0-0_0
  6
CONTINUOUS
 62
    7
 10
175.42779549999995
 20
468.25
 40
4.5
 50
90.000003000000007
 51
269.99999700000006
  0
LINE
  8
_0-0_0
  6
CONTINUOUS
 62
    7
 10
175.42779549999995
 20
472.75
 11
180.42779549999995
 21
472.75
  0
LINE
  8
_0-0_0
  6
CONTINUOUS
 62
    7
 10
102.42778049999993
 20
473.04998799999998
 11
102.24601749999999
 21
473.04998799999998
  0
LINE
  8
_0-0_0
  6
CONTINUOUS
 62
    7
 10
106.92778049999993
 20
471.75
 11
106.92778049999993
 21
454.14999399999999
  0
LINE
  8
_0-0_0
  6
CONTINUOUS
 62
    7
 10
106.92778049999993
 20
453.096405
 11
106.92778049999993
 21
454.14999399999999
  0
ARC
  8
_0-0_0
  6
CONTINUOUS
 62
    7
 10
106.75749149999996
 20
453.02328499999999
 40
0.1734209999999999
 50
269.35085600000002
 51
358.87625300000002
  0
LINE
  8
_0-0_0
  6
CONTINUOUS
 62
    7
 10
106.93180849999999
 20
453.04998799999998
 11
106.93174749999997
 21
453.01986699999998
  0
LINE
  8
_0-0_0
  6
CONTINUOUS
 62
    7
 10
106.93180849999999
 20
472.84997600000003
 11
106.93174749999997
 21
472.88012700000002
  0
ARC
  8
_0-0_0
  6
CONTINUOUS
 62
    7
 10
106.75749149999996
 20
472.87670900000001
 40
0.1734219999999999
 50
1.1236539999999999
 51
90.649110000000007
  0
LINE
  8
_0-0_0
  6
CONTINUOUS
 62
    7
 10
102.42778049999993
 20
452.84997600000003
 11
102.24601749999999
 21
452.84997600000003
  0
LINE
  8
_0-0_0
  6
CONTINUOUS
 62
    7
 10
102.24601749999999
 20
452.84997600000003
 11
102.22569249999992
 21
452.84896900000001
  0
LINE
  8
_0-0_0
  6
CONTINUOUS
 62
    7
 10
102.22569249999992
 20
452.84896900000001
 11
102.20527649999997
 21
452.84582499999999
  0
LINE
  8
_0-0_0
  6
CONTINUOUS
 62
    7
 10
102.20527649999997
 20
452.84582499999999
 11
102.17845149999994
 21
452.83822600000002
  0
LINE
  8
_0-0_0
  6
CONTINUOUS
 62
    7
 10
102.17845149999994
 20
452.83822600000002
 11
102.15281649999997
 21
452.82687399999998
  0
LINE
  8
_0-0_0
  6
CONTINUOUS
 62
    7
 10
102.15281649999997
 20
452.82687399999998
 11
102.12901249999993
 21
452.811981
  0
LINE
  8
_0-0_0
  6
CONTINUOUS
 62
    7
 10
102.12901249999993
 20
452.811981
 11
102.11225849999994
 21
452.79846199999997
  0
LINE
  8
_0-0_0
  6
CONTINUOUS
 62
    7
 10
102.11225849999994
 20
452.79846199999997
 11
102.09675549999997
 21
452.78326399999997
  0
LINE
  8
_0-0_0
  6
CONTINUOUS
 62
    7
 10
102.09675549999997
 20
452.78326399999997
 11
102.06983949999994
 21
452.74859600000002
  0
LINE
  8
_0-0_0
  6
CONTINUOUS
 62
    7
 10
102.06983949999994
 20
452.74859600000002
 11
102.04881249999994
 21
452.71026599999999
  0
LINE
  8
_0-0_0
  6
CONTINUOUS
 62
    7
 10
102.04881249999994
 20
452.71026599999999
 11
102.03681949999998
 21
452.68035900000001
  0
LINE
  8
_0-0_0
  6
CONTINUOUS
 62
    7
 10
102.03681949999998
 20
452.68035900000001
 11
102.02778649999993
 21
452.64999399999999
  0
ARC
  8
_0-0_0
  6
CONTINUOUS
 62
    7
 10
102.42778049999993
 20
450.14999399999999
 40
0.5
 50
179.99999099999999
 51
269.99999700000001
  0
ARC
  8
_0-0_0
  6
CONTINUOUS
 62
    7
 10
106.72776749999997
 20
449.44998199999998
 40
0.2
 50
0
 51
90.000003000000007
  0
LINE
  8
_0-0_0
  6
CONTINUOUS
 62
    7
 10
106.92778049999993
 20
449.25
 11
107.42778049999993
 21
448.75
  0
ARC
  8
_0-0_0
  6
CONTINUOUS
 62
    7
 10
90.252334499999961
 20
471.75
 40
2
 50
90.000003000000007
 51
108.434997
  0
LINE
  8
_0-0_0
  6
CONTINUOUS
 62
    7
 10
94.927780499999926
 20
471.25
 11
94.927780499999926
 21
471.75
  0
LINE
  8
_0-0_0
  6
CONTINUOUS
 62
    7
 10
94.927780499999926
 20
468.25
 11
94.927780499999926
 21
467.75
  0
LINE
  8
_0-0_0
  6
CONTINUOUS
 62
    7
 10
94.927780499999926
 20
468.25
 11
94.927780499999926
 21
471.25
  0
ARC
  8
_0-0_0
  6
CONTINUOUS
 62
    7
 10
100.92778049999993
 20
468.44998199999998
 40
0.500016
 50
0.001164
 51
179.99560600000004
  0
LINE
  8
_0-0_0
  6
CONTINUOUS
 62
    7
 10
100.42778049999993
 20
468.44998199999998
 11
100.42778049999993
 21
456.44998199999998
  0
ARC
  8
_0-0_0
  6
CONTINUOUS
 62
    7
 10
100.92778049999993
 20
456.45001200000002
 40
0.500016
 50
180.00117
 51
359.995611
  0
LINE
  8
_0-0_0
  6
CONTINUOUS
 62
    7
 10
101.42778049999993
 20
468.44998199999998
 11
101.42778049999993
 21
456.44998199999998
  0
ARC
  8
_0-0_0
  6
CONTINUOUS
 62
    7
 10
99.427780499999926
 20
468.44998199999998
 40
0.500016
 50
0.001164
 51
179.99560600000004
  0
LINE
  8
_0-0_0
  6
CONTINUOUS
 62
    7
 10
98.927780499999926
 20
468.44998199999998
 11
98.927780499999926
 21
456.44998199999998
  0
ARC
  8
_0-0_0
  6
CONTINUOUS
 62
    7
 10
99.427780499999926
 20
456.45001200000002
 40
0.500016
 50
180.00117
 51
359.995611
  0
LINE
  8
_0-0_0
  6
CONTINUOUS
 62
    7
 10
99.927780499999926
 20
468.44998199999998
 11
99.927780499999926
 21
456.44998199999998
  0
ARC
  8
_0-0_0
  6
CONTINUOUS
 62
    7
 10
97.927780499999926
 20
468.44998199999998
 40
0.500016
 50
0.001164
 51
179.99560600000004
  0
LINE
  8
_0-0_0
  6
CONTINUOUS
 62
    7
 10
97.427780499999926
 20
468.44998199999998
 11
97.427780499999926
 21
456.44998199999998
  0
ARC
  8
_0-0_0
  6
CONTINUOUS
 62
    7
 10
97.927780499999926
 20
456.45001200000002
 40
0.500016
 50
180.00117
 51
359.995611
  0
LINE
  8
_0-0_0
  6
CONTINUOUS
 62
    7
 10
98.427780499999926
 20
468.44998199999998
 11
98.427780499999926
 21
456.44998199999998
  0
ARC
  8
_0-0_0
  6
CONTINUOUS
 62
    7
 10
96.427780499999926
 20
468.44998199999998
 40
0.500016
 50
0.001164
 51
179.99560600000004
  0
LINE
  8
_0-0_0
  6
CONTINUOUS
 62
    7
 10
95.927780499999926
 20
468.44998199999998
 11
95.927780499999926
 21
456.44998199999998
  0
ARC
  8
_0-0_0
  6
CONTINUOUS
 62
    7
 10
96.427780499999926
 20
456.45001200000002
 40
0.500016
 50
180.00117
 51
359.995611
  0
LINE
  8
_0-0_0
  6
CONTINUOUS
 62
    7
 10
96.927780499999926
 20
468.44998199999998
 11
96.927780499999926
 21
456.44998199999998
  0
LINE
  8
_0-0_0
  6
CONTINUOUS
 62
    7
 10
192.92779549999995
 20
474.44998199999998
 11
193.42779549999995
 21
474.44998199999998
  0
LINE
  8
_0-0_0
  6
CONTINUOUS
 62
    7
 10
193.42779549999995
 20
474.44998199999998
 11
205.92779549999995
 21
474.44998199999998
  0
ARC
  8
_0-0_0
  6
CONTINUOUS
 62
    7
 10
193.42779549999995
 20
474.94998199999998
 40
0.5
 50
179.99999099999999
 51
269.99999700000001
  0
LINE
  8
_0-0_0
  6
CONTINUOUS
 62
    7
 10
192.92779549999995
 20
474.08395400000001
 11
192.92779549999995
 21
474.44998199999998
  0
LINE
  8
_0-0_0
  6
CONTINUOUS
 62
    7
 10
192.92779549999995
 20
473.83346599999999
 11
192.92779549999995
 21
473.79998799999998
  0
LINE
  8
_0-0_0
  6
CONTINUOUS
 62
    7
 10
192.92779549999995
 20
474.08395400000001
 11
192.92779549999995
 21
473.83346599999999
  0
CIRCLE
  8
_0-0_0
  6
CONTINUOUS
 62
    7
 10
111.92778049999993
 20
474.75
 40
1.4750000000000001
  0
CIRCLE
  8
_0-0_0
  6
CONTINUOUS
 62
    7
 10
190.92779549999995
 20
474.75
 40
1.4750000000000001
  0
LINE
  8
_0-0_0
  6
CONTINUOUS
 62
    7
 10
192.92779549999995
 20
449.09997600000003
 11
192.92779549999995
 21
449.25
  0
LINE
  8
_0-0_0
  6
CONTINUOUS
 62
    7
 10
198.42779549999995
 20
449.09997600000003
 11
192.92779549999995
 21
449.09997600000003
  0
LINE
  8
_0-0_0
  6
CONTINUOUS
 62
    7
 10
198.42779549999995
 20
451.64999399999999
 11
197.92779549999995
 21
451.64999399999999
  0
LINE
  8
_0-0_0
  6
CONTINUOUS
 62
    7
 10
193.42779549999995
 20
474.29998799999998
 11
192.92779549999995
 21
473.79998799999998
  0
LINE
  8
_0-0_0
  6
CONTINUOUS
 62
    7
 10
193.42779549999995
 20
474.29998799999998
 11
198.42779549999995
 21
474.29998799999998
  0
LINE
  8
_0-0_0
  6
CONTINUOUS
 62
    7
 10
101.93897949999996
 20
452.14999399999999
 11
90.252334499999961
 21
452.14999399999999
  0
LINE
  8
_0-0_0
  6
CONTINUOUS
 62
    7
 10
89.177780499999926
 20
473.49996900000002
 11
89.619857499999966
 21
473.64733899999999
  0
LINE
  8
_0-0_0
  6
CONTINUOUS
 62
    7
 10
85.453414499999951
 20
468.25
 11
84.760055499999964
 21
468.25
  0
LINE
  8
_0-0_0
  6
CONTINUOUS
 62
    7
 10
85.453414499999951
 20
468.25
 11
89.777999499999964
 21
468.25
  0
LINE
  8
_0-0_0
  6
CONTINUOUS
 62
    7
 10
90.252334499999961
 20
468.25
 11
89.777999499999964
 21
468.25
  0
LINE
  8
_0-0_0
  6
CONTINUOUS
 62
    7
 10
94.927780499999926
 20
468.25
 11
90.252334499999961
 21
468.25
  0
LINE
  8
_0-0_0
  6
CONTINUOUS
 62
    7
 10
192.92779549999995
 20
448.953552
 11
192.92779549999995
 21
449.09997600000003
  0
LINE
  8
_0-0_0
  6
CONTINUOUS
 62
    7
 10
192.92779549999995
 20
448.89642300000003
 11
192.92779549999995
 21
448.953552
  0
LINE
  8
_0-0_0
  6
CONTINUOUS
 62
    7
 10
192.92779549999995
 20
448.75
 11
192.92779549999995
 21
448.89642300000003
  0
ARC
  8
_0-0_0
  6
CONTINUOUS
 62
    7
 10
198.42779549999995
 20
449.59997600000003
 40
0.5
 50
269.99999700000001
 51
0
  0
LINE
  8
_0-0_0
  6
CONTINUOUS
 62
    7
 10
198.92779549999995
 20
451.15570100000002
 11
198.92779549999995
 21
449.59997600000003
  0
ARC
  8
_0-0_0
  6
CONTINUOUS
 62
    7
 10
198.44088749999997
 20
451.15234400000003
 40
0.4869939999999999
 50
0.394923
 51
23.93947
  0
ARC
  8
_0-0_0
  6
CONTINUOUS
 62
    7
 10
198.42779549999995
 20
451.14999399999999
 40
0.5
 50
23.578231000000002
 51
90.000002999999992
  0
LINE
  8
_0-0_0
  6
CONTINUOUS
 62
    7
 10
198.92779549999995
 20
471.29998799999998
 11
198.92779549999995
 21
473.79998799999998
  0
ARC
  8
_0-0_0
  6
CONTINUOUS
 62
    7
 10
198.42779549999995
 20
473.79998799999998
 40
0.5
 50
0
 51
90.000003000000007
  0
LINE
  8
_0-0_0
  6
CONTINUOUS
 62
    7
 10
198.42779549999995
 20
458
 11
196.22778349999993
 21
458
  0
LINE
  8
_0-0_0
  6
CONTINUOUS
 62
    7
 10
198.92779549999995
 20
471.29998799999998
 11
198.92779549999995
 21
458.5
  0
LINE
  8
_0-0_0
  6
CONTINUOUS
 62
    7
 10
195.92779549999995
 20
457.69998199999998
 11
195.92779549999995
 21
455.12167399999998
  0
LINE
  8
_0-0_0
  6
CONTINUOUS
 62
    7
 10
125.89932249999998
 20
464.14999399999999
 11
117.95622249999997
 21
464.14999399999999
  0
ARC
  8
_0-0_0
  6
CONTINUOUS
 62
    7
 10
117.95622249999997
 20
464.64999399999999
 40
0.5
 50
210.00000299999999
 51
269.99999700000001
  0
LINE
  8
_0-0_0
  6
CONTINUOUS
 62
    7
 10
117.52320849999995
 20
464.39999399999999
 11
115.44474749999995
 21
468
  0
ARC
  8
_0-0_0
  6
CONTINUOUS
 62
    7
 10
115.87776149999996
 20
468.25
 40
0.5
 50
149.99999700000001
 51
210.00000299999996
  0
LINE
  8
_0-0_0
  6
CONTINUOUS
 62
    7
 10
115.44474749999995
 20
468.5
 11
117.52320849999995
 21
472.09997600000003
  0
ARC
  8
_0-0_0
  6
CONTINUOUS
 62
    7
 10
117.95622249999997
 20
471.84997600000003
 40
0.5
 50
90.000003000000007
 51
149.99999700000001
  0
LINE
  8
_0-0_0
  6
CONTINUOUS
 62
    7
 10
117.95622249999997
 20
472.34997600000003
 11
125.89932249999998
 21
472.34997600000003
  0
ARC
  8
_0-0_0
  6
CONTINUOUS
 62
    7
 10
125.89932249999998
 20
471.84997600000003
 40
0.5
 50
30.000001000000001
 51
90.000003000000007
  0
LINE
  8
_0-0_0
  6
CONTINUOUS
 62
    7
 10
126.33233649999994
 20
472.09997600000003
 11
128.41079649999995
 21
468.5
  0
ARC
  8
_0-0_0
  6
CONTINUOUS
 62
    7
 10
127.97778349999993
 20
468.25
 40
0.5
 50
329.99998900000003
 51
30.000000999999983
  0
LINE
  8
_0-0_0
  6
CONTINUOUS
 62
    7
 10
128.41079649999995
 20
468
 11
126.33233649999994
 21
464.39999399999999
  0
ARC
  8
_0-0_0
  6
CONTINUOUS
 62
    7
 10
125.89932249999998
 20
464.64999399999999
 40
0.5
 50
269.99999700000001
 51
329.99998900000003
  0
ARC
  8
_0-0_0
  6
CONTINUOUS
 62
    7
 10
173.89852849999994
 20
464.75
 40
0.5
 50
210.00000299999999
 51
269.99999700000001
  0
LINE
  8
_0-0_0
  6
CONTINUOUS
 62
    7
 10
173.46551549999998
 20
464.5
 11
171.44479349999995
 21
468
  0
ARC
  8
_0-0_0
  6
CONTINUOUS
 62
    7
 10
171.87777649999998
 20
468.25
 40
0.5
 50
149.99999700000001
 51
210.00000299999996
  0
LINE
  8
_0-0_0
  6
CONTINUOUS
 62
    7
 10
171.44479349999995
 20
468.5
 11
173.46551549999998
 21
472
  0
ARC
  8
_0-0_0
  6
CONTINUOUS
 62
    7
 10
173.89852849999994
 20
471.75
 40
0.5
 50
90.000003000000007
 51
149.99999700000001
  0
LINE
  8
_0-0_0
  6
CONTINUOUS
 62
    7
 10
173.89852849999994
 20
472.25
 11
181.95706149999995
 21
472.25
  0
ARC
  8
_0-0_0
  6
CONTINUOUS
 62
    7
 10
181.95706149999995
 20
471.75
 40
0.5
 50
30.000001000000001
 51
90.000003000000007
  0
LINE
  8
_0-0_0
  6
CONTINUOUS
 62
    7
 10
182.39007549999997
 20
472
 11
184.41079649999995
 21
468.5
  0
ARC
  8
_0-0_0
  6
CONTINUOUS
 62
    7
 10
183.97778349999993
 20
468.25
 40
0.5
 50
329.99998900000003
 51
30.000000999999983
  0
LINE
  8
_0-0_0
  6
CONTINUOUS
 62
    7
 10
184.41079649999995
 20
468
 11
182.39007549999997
 21
464.5
  0
ARC
  8
_0-0_0
  6
CONTINUOUS
 62
    7
 10
181.95706149999995
 20
464.75
 40
0.5
 50
269.99999700000001
 51
329.99998900000003
  0
LINE
  8
_0-0_0
  6
CONTINUOUS
 62
    7
 10
181.95706149999995
 20
464.25
 11
173.89852849999994
 21
464.25
  0
LINE
  8
_0-0_0
  6
CONTINUOUS
 62
    7
 10
89.619857499999966
 20
452.25262500000002
 11
89.739364499999965
 21
452.21701000000002
  0
LINE
  8
_0-0_0
  6
CONTINUOUS
 62
    7
 10
89.739364499999965
 20
452.21701000000002
 11
89.860916499999917
 21
452.18911700000001
  0
LINE
  8
_0-0_0
  6
CONTINUOUS
 62
    7
 10
89.860916499999917
 20
452.18911700000001
 11
89.984054499999957
 21
452.16906699999998
  0
LINE
  8
_0-0_0
  6
CONTINUOUS
 62
    7
 10
89.984054499999957
 20
452.16906699999998
 11
90.108260499999972
 21
452.15695199999999
  0
LINE
  8
_0-0_0
  6
CONTINUOUS
 62
    7
 10
90.108260499999972
 20
452.15695199999999
 11
90.233108499999958
 21
452.15283199999999
  0
LINE
  8
_0-0_0
  6
CONTINUOUS
 62
    7
 10
90.233108499999958
 20
452.15283199999999
 11
90.252334499999961
 21
452.15289300000001
  0
ARC
  8
_0-0_0
  6
CONTINUOUS
 62
    7
 10
90.252334499999961
 20
454.14999399999999
 40
2
 50
251.56498899999997
 51
269.99999700000001
  0
LINE
  8
_0-0_0
  6
CONTINUOUS
 62
    7
 10
83.927780499999926
 20
469.00003099999998
 11
83.927780499999926
 21
467.87899800000002
  0
LINE
  8
_0-0_0
  6
CONTINUOUS
 62
    7
 10
112.12776149999996
 20
473.64999399999999
 11
111.72776749999997
 21
473.64999399999999
  0
LINE
  8
_0-0_0
  6
CONTINUOUS
 62
    7
 10
112.12776149999996
 20
473.64999399999999
 11
112.12776149999996
 21
474.29998799999998
  0
ARC
  8
_0-0_0
  6
CONTINUOUS
 62
    7
 10
112.37776149999996
 20
474.29998799999998
 40
0.25
 50
90.000003000000007
 51
179.99999099999999
  0
LINE
  8
_0-0_0
  6
CONTINUOUS
 62
    7
 10
112.37776149999996
 20
474.54998799999998
 11
113.02778649999993
 21
474.54998799999998
  0
LINE
  8
_0-0_0
  6
CONTINUOUS
 62
    7
 10
113.02778649999993
 20
474.54998799999998
 11
113.02778649999993
 21
474.94998199999998
  0
LINE
  8
_0-0_0
  6
CONTINUOUS
 62
    7
 10
112.37776149999996
 20
474.94998199999998
 11
113.02778649999993
 21
474.94998199999998
  0
ARC
  8
_0-0_0
  6
CONTINUOUS
 62
    7
 10
112.37776149999996
 20
475.19998199999998
 40
0.25
 50
179.99999099999999
 51
269.99999700000001
  0
LINE
  8
_0-0_0
  6
CONTINUOUS
 62
    7
 10
112.12776149999996
 20
475.84997600000003
 11
112.12776149999996
 21
475.19998199999998
  0
LINE
  8
_0-0_0
  6
CONTINUOUS
 62
    7
 10
112.12776149999996
 20
475.84997600000003
 11
111.72776749999997
 21
475.84997600000003
  0
LINE
  8
_0-0_0
  6
CONTINUOUS
 62
    7
 10
111.72776749999997
 20
475.84997600000003
 11
111.72776749999997
 21
475.19998199999998
  0
ARC
  8
_0-0_0
  6
CONTINUOUS
 62
    7
 10
111.47776749999997
 20
475.19998199999998
 40
0.25
 50
269.99999700000001
 51
0
  0
LINE
  8
_0-0_0
  6
CONTINUOUS
 62
    7
 10
111.47776749999997
 20
474.94998199999998
 11
110.82777349999992
 21
474.94998199999998
  0
LINE
  8
_0-0_0
  6
CONTINUOUS
 62
    7
 10
110.82777349999992
 20
474.54998799999998
 11
110.82777349999992
 21
474.94998199999998
  0
LINE
  8
_0-0_0
  6
CONTINUOUS
 62
    7
 10
111.47776749999997
 20
474.54998799999998
 11
110.82777349999992
 21
474.54998799999998
  0
ARC
  8
_0-0_0
  6
CONTINUOUS
 62
    7
 10
111.47776749999997
 20
474.29998799999998
 40
0.25
 50
0
 51
90.000003000000007
  0
LINE
  8
_0-0_0
  6
CONTINUOUS
 62
    7
 10
111.72776749999997
 20
473.64999399999999
 11
111.72776749999997
 21
474.29998799999998
  0
LINE
  8
_0-0_0
  6
CONTINUOUS
 62
    7
 10
191.12777649999998
 20
473.64999399999999
 11
190.72778349999993
 21
473.64999399999999
  0
LINE
  8
_0-0_0
  6
CONTINUOUS
 62
    7
 10
191.12777649999998
 20
473.64999399999999
 11
191.12777649999998
 21
474.29998799999998
  0
ARC
  8
_0-0_0
  6
CONTINUOUS
 62
    7
 10
191.37777649999998
 20
474.29998799999998
 40
0.25
 50
90.000003000000007
 51
179.99999099999999
  0
LINE
  8
_0-0_0
  6
CONTINUOUS
 62
    7
 10
191.37777649999998
 20
474.54998799999998
 11
192.02780149999995
 21
474.54998799999998
  0
LINE
  8
_0-0_0
  6
CONTINUOUS
 62
    7
 10
192.02780149999995
 20
474.54998799999998
 11
192.02780149999995
 21
474.94998199999998
  0
LINE
  8
_0-0_0
  6
CONTINUOUS
 62
    7
 10
191.37777649999998
 20
474.94998199999998
 11
192.02780149999995
 21
474.94998199999998
  0
ARC
  8
_0-0_0
  6
CONTINUOUS
 62
    7
 10
191.37777649999998
 20
475.19998199999998
 40
0.25
 50
179.99999099999999
 51
269.99999700000001
  0
LINE
  8
_0-0_0
  6
CONTINUOUS
 62
    7
 10
191.12777649999998
 20
475.84997600000003
 11
191.12777649999998
 21
475.19998199999998
  0
LINE
  8
_0-0_0
  6
CONTINUOUS
 62
    7
 10
191.12777649999998
 20
475.84997600000003
 11
190.72778349999993
 21
475.84997600000003
  0
LINE
  8
_0-0_0
  6
CONTINUOUS
 62
    7
 10
190.72778349999993
 20
475.84997600000003
 11
190.72778349999993
 21
475.19998199999998
  0
ARC
  8
_0-0_0
  6
CONTINUOUS
 62
    7
 10
190.47778349999993
 20
475.19998199999998
 40
0.25
 50
269.99999700000001
 51
0
  0
LINE
  8
_0-0_0
  6
CONTINUOUS
 62
    7
 10
190.47778349999993
 20
474.94998199999998
 11
189.82778949999994
 21
474.94998199999998
  0
LINE
  8
_0-0_0
  6
CONTINUOUS
 62
    7
 10
189.82778949999994
 20
474.54998799999998
 11
189.82778949999994
 21
474.94998199999998
  0
LINE
  8
_0-0_0
  6
CONTINUOUS
 62
    7
 10
190.47778349999993
 20
474.54998799999998
 11
189.82778949999994
 21
474.54998799999998
  0
ARC
  8
_0-0_0
  6
CONTINUOUS
 62
    7
 10
190.47778349999993
 20
474.29998799999998
 40
0.25
 50
0
 51
90.000003000000007
  0
LINE
  8
_0-0_0
  6
CONTINUOUS
 62
    7
 10
190.72778349999993
 20
473.64999399999999
 11
190.72778349999993
 21
474.29998799999998
  0
LINE
  8
_0-0_0
  6
CONTINUOUS
 62
    7
 10
198.42779549999995
 20
448.75
 11
192.92779549999995
 21
448.75
  0
LINE
  8
_0-0_0
  6
CONTINUOUS
 62
    7
 10
198.92779549999995
 20
455
 11
198.92779549999995
 21
458.5
  0
LINE
  8
_0-0_0
  6
CONTINUOUS
 62
    7
 10
198.92779549999995
 20
455
 11
198.92779549999995
 21
454.64999399999999
  0
LINE
  8
_0-0_0
  6
CONTINUOUS
 62
    7
 10
198.92779549999995
 20
451.15570100000002
 11
198.92779549999995
 21
454.64999399999999
  0
LINE
  8
_0-0_0
  6
CONTINUOUS
 62
    7
 10
198.92779549999995
 20
449.307098
 11
198.92779549999995
 21
449.59997600000003
  0
LINE
  8
_0-0_0
  6
CONTINUOUS
 62
    7
 10
198.92779549999995
 20
449.307098
 11
198.92779549999995
 21
449.25
  0
LINE
  8
_0-0_0
  6
CONTINUOUS
 62
    7
 10
195.92779549999995
 20
453.57128899999998
 11
195.92779549999995
 21
455.12167399999998
  0
LINE
  8
_0-0_0
  6
CONTINUOUS
 62
    7
 10
195.92779549999995
 20
452.85012799999998
 11
195.92779549999995
 21
453.57128899999998
  0
ARC
  8
_0-0_0
  6
CONTINUOUS
 62
    7
 10
198.42779549999995
 20
458.5
 40
0.5
 50
269.99999700000001
 51
0
  0
ARC
  8
_0-0_0
  6
CONTINUOUS
 62
    7
 10
196.22778349999993
 20
457.69998199999998
 40
0.2999999999999999
 50
90.000003000000007
 51
179.99999099999999
  0
LINE
  8
_0-0_0
  6
CONTINUOUS
 62
    7
 10
85.295303499999932
 20
453.69415299999997
 11
89.619857499999966
 21
452.25262500000002
  0
LINE
  8
_0-0_0
  6
CONTINUOUS
 62
    7
 10
83.927780499999926
 20
455.59149200000002
 11
83.927780499999926
 21
458.94229100000001
  0
LINE
  8
_0-0_0
  6
CONTINUOUS
 62
    7
 10
83.927780499999926
 20
466.957672
 11
83.927780499999926
 21
467.87899800000002
  0
ARC
  8
_0-0_0
  6
CONTINUOUS
 62
    7
 10
85.927780499999926
 20
455.59149200000002
 40
2
 50
179.99999099999999
 51
251.56498899999997
  0
LINE
  8
_0-0_0
  6
CONTINUOUS
 62
    7
 10
68.927780499999926
 20
472.47543300000001
 11
68.927780499999926
 21
472.32870500000001
  0
LINE
  8
_0-0_0
  6
CONTINUOUS
 62
    7
 10
68.927780499999926
 20
472.665955
 11
68.927780499999926
 21
472.47543300000001
  0
LINE
  8
_0-0_0
  6
CONTINUOUS
 62
    7
 10
68.927780499999926
 20
472.84097300000002
 11
68.927780499999926
 21
472.665955
  0
LINE
  8
_0-0_0
  6
CONTINUOUS
 62
    7
 10
68.927780499999926
 20
472.99856599999998
 11
68.927780499999926
 21
472.84097300000002
  0
LINE
  8
_0-0_0
  6
CONTINUOUS
 62
    7
 10
68.927780499999926
 20
473.13699300000002
 11
68.927780499999926
 21
472.99856599999998
  0
LINE
  8
_0-0_0
  6
CONTINUOUS
 62
    7
 10
68.927780499999926
 20
473.25476099999997
 11
68.927780499999926
 21
473.13699300000002
  0
LINE
  8
_0-0_0
  6
CONTINUOUS
 62
    7
 10
68.927780499999926
 20
473.350525
 11
68.927780499999926
 21
473.25476099999997
  0
LINE
  8
_0-0_0
  6
CONTINUOUS
 62
    7
 10
68.927780499999926
 20
473.42330900000002
 11
68.927780499999926
 21
473.350525
  0
LINE
  8
_0-0_0
  6
CONTINUOUS
 62
    7
 10
68.927780499999926
 20
473.47228999999999
 11
68.927780499999926
 21
473.42330900000002
  0
LINE
  8
_0-0_0
  6
CONTINUOUS
 62
    7
 10
68.927780499999926
 20
473.49688700000002
 11
68.927780499999926
 21
473.47228999999999
  0
LINE
  8
_0-0_0
  6
CONTINUOUS
 62
    7
 10
68.927780499999926
 20
473.5
 11
68.927780499999926
 21
473.49688700000002
  0
LINE
  8
_0-0_0
  6
CONTINUOUS
 62
    7
 10
68.927780499999926
 20
469.00305200000003
 11
68.927780499999926
 21
469
  0
LINE
  8
_0-0_0
  6
CONTINUOUS
 62
    7
 10
68.927780499999926
 20
469.02767899999998
 11
68.927780499999926
 21
469.00305200000003
  0
LINE
  8
_0-0_0
  6
CONTINUOUS
 62
    7
 10
68.927780499999926
 20
469.07666
 11
68.927780499999926
 21
469.02767899999998
  0
LINE
  8
_0-0_0
  6
CONTINUOUS
 62
    7
 10
68.927780499999926
 20
469.14941399999998
 11
68.927780499999926
 21
469.07666
  0
LINE
  8
_0-0_0
  6
CONTINUOUS
 62
    7
 10
68.927780499999926
 20
469.24520899999999
 11
68.927780499999926
 21
469.14941399999998
  0
LINE
  8
_0-0_0
  6
CONTINUOUS
 62
    7
 10
68.927780499999926
 20
469.27542099999999
 11
68.927780499999926
 21
469.24520899999999
  0
LINE
  8
_0-0_0
  6
CONTINUOUS
 62
    7
 10
68.927780499999926
 20
469.362976
 11
68.927780499999926
 21
469.27542099999999
  0
LINE
  8
_0-0_0
  6
CONTINUOUS
 62
    7
 10
68.927780499999926
 20
469.50140399999998
 11
68.927780499999926
 21
469.362976
  0
LINE
  8
_0-0_0
  6
CONTINUOUS
 62
    7
 10
68.927780499999926
 20
469.658997
 11
68.927780499999926
 21
469.50140399999998
  0
LINE
  8
_0-0_0
  6
CONTINUOUS
 62
    7
 10
68.927780499999926
 20
469.83401500000002
 11
68.927780499999926
 21
469.658997
  0
LINE
  8
_0-0_0
  6
CONTINUOUS
 62
    7
 10
68.927780499999926
 20
470.02453600000001
 11
68.927780499999926
 21
469.83401500000002
  0
LINE
  8
_0-0_0
  6
CONTINUOUS
 62
    7
 10
68.927780499999926
 20
470.22851600000001
 11
68.927780499999926
 21
470.02453600000001
  0
LINE
  8
_0-0_0
  6
CONTINUOUS
 62
    7
 10
68.927780499999926
 20
470.44366500000001
 11
68.927780499999926
 21
470.22851600000001
  0
LINE
  8
_0-0_0
  6
CONTINUOUS
 62
    7
 10
68.927780499999926
 20
470.66763300000002
 11
68.927780499999926
 21
470.44366500000001
  0
LINE
  8
_0-0_0
  6
CONTINUOUS
 62
    7
 10
68.927780499999926
 20
470.89801
 11
68.927780499999926
 21
470.66763300000002
  0
LINE
  8
_0-0_0
  6
CONTINUOUS
 62
    7
 10
68.927780499999926
 20
471.13223299999999
 11
68.927780499999926
 21
470.89801
  0
LINE
  8
_0-0_0
  6
CONTINUOUS
 62
    7
 10
68.927780499999926
 20
471.36773699999998
 11
68.927780499999926
 21
471.13223299999999
  0
LINE
  8
_0-0_0
  6
CONTINUOUS
 62
    7
 10
68.927780499999926
 20
471.60195900000002
 11
68.927780499999926
 21
471.36773699999998
  0
LINE
  8
_0-0_0
  6
CONTINUOUS
 62
    7
 10
68.927780499999926
 20
471.832336
 11
68.927780499999926
 21
471.60195900000002
  0
LINE
  8
_0-0_0
  6
CONTINUOUS
 62
    7
 10
68.927780499999926
 20
472.05630500000001
 11
68.927780499999926
 21
471.832336
  0
LINE
  8
_0-0_0
  6
CONTINUOUS
 62
    7
 10
68.927780499999926
 20
472.27145400000001
 11
68.927780499999926
 21
472.05630500000001
  0
LINE
  8
_0-0_0
  6
CONTINUOUS
 62
    7
 10
68.927780499999926
 20
472.32870500000001
 11
68.927780499999926
 21
472.27145400000001
  0
LINE
  8
_0-0_0
  6
CONTINUOUS
 62
    7
 10
84.22776749999997
 20
465.16198700000001
 11
84.16899049999995
 21
465.40881300000001
  0
LINE
  8
_0-0_0
  6
CONTINUOUS
 62
    7
 10
84.16899049999995
 20
465.40881300000001
 11
84.119216499999993
 21
465.601135
  0
LINE
  8
_0-0_0
  6
CONTINUOUS
 62
    7
 10
84.119216499999993
 20
465.601135
 11
84.048080499999969
 21
465.86694299999999
  0
LINE
  8
_0-0_0
  6
CONTINUOUS
 62
    7
 10
84.048080499999969
 20
465.86694299999999
 11
84.015121499999964
 21
465.993652
  0
LINE
  8
_0-0_0
  6
CONTINUOUS
 62
    7
 10
84.015121499999964
 20
465.993652
 11
83.989852499999984
 21
466.09707600000002
  0
LINE
  8
_0-0_0
  6
CONTINUOUS
 62
    7
 10
83.989852499999984
 20
466.09707600000002
 11
83.967819499999962
 21
466.19702100000001
  0
LINE
  8
_0-0_0
  6
CONTINUOUS
 62
    7
 10
83.967819499999962
 20
466.19702100000001
 11
83.946456499999954
 21
466.314728
  0
LINE
  8
_0-0_0
  6
CONTINUOUS
 62
    7
 10
83.946456499999954
 20
466.314728
 11
83.937881499999946
 21
466.37686200000002
  0
LINE
  8
_0-0_0
  6
CONTINUOUS
 62
    7
 10
83.937881499999946
 20
466.37686200000002
 11
83.931808499999988
 21
466.43746900000002
  0
LINE
  8
_0-0_0
  6
CONTINUOUS
 62
    7
 10
83.931808499999988
 20
466.43746900000002
 11
83.928787499999999
 21
466.486694
  0
LINE
  8
_0-0_0
  6
CONTINUOUS
 62
    7
 10
83.928787499999999
 20
466.486694
 11
83.927780499999926
 21
466.53491200000002
  0
LINE
  8
_0-0_0
  6
CONTINUOUS
 62
    7
 10
84.22776749999997
 20
460.737976
 11
84.311233499999958
 21
461.11663800000002
  0
LINE
  8
_0-0_0
  6
CONTINUOUS
 62
    7
 10
84.311233499999958
 20
461.11663800000002
 11
84.351333499999953
 21
461.30816700000003
  0
LINE
  8
_0-0_0
  6
CONTINUOUS
 62
    7
 10
84.351333499999953
 20
461.30816700000003
 11
84.407394499999953
 21
461.598206
  0
LINE
  8
_0-0_0
  6
CONTINUOUS
 62
    7
 10
84.407394499999953
 20
461.598206
 11
84.444991499999958
 21
461.81778000000003
  0
LINE
  8
_0-0_0
  6
CONTINUOUS
 62
    7
 10
84.444991499999958
 20
461.81778000000003
 11
84.477645499999994
 21
462.03903200000002
  0
LINE
  8
_0-0_0
  6
CONTINUOUS
 62
    7
 10
84.477645499999994
 20
462.03903200000002
 11
84.504806499999972
 21
462.26583900000003
  0
LINE
  8
_0-0_0
  6
CONTINUOUS
 62
    7
 10
84.504806499999972
 20
462.26583900000003
 11
84.52488649999998
 21
462.493225
  0
LINE
  8
_0-0_0
  6
CONTINUOUS
 62
    7
 10
84.52488649999998
 20
462.493225
 11
84.532028499999967
 21
462.606964
  0
LINE
  8
_0-0_0
  6
CONTINUOUS
 62
    7
 10
84.532028499999967
 20
462.606964
 11
84.537185499999964
 21
462.720642
  0
LINE
  8
_0-0_0
  6
CONTINUOUS
 62
    7
 10
84.537185499999964
 20
462.720642
 11
84.540908499999944
 21
462.87207000000001
  0
LINE
  8
_0-0_0
  6
CONTINUOUS
 62
    7
 10
84.540908499999944
 20
462.87207000000001
 11
84.54096949999996
 21
463.02331500000003
  0
LINE
  8
_0-0_0
  6
CONTINUOUS
 62
    7
 10
84.54096949999996
 20
463.02331500000003
 11
84.537399499999992
 21
463.17437699999999
  0
LINE
  8
_0-0_0
  6
CONTINUOUS
 62
    7
 10
84.537399499999992
 20
463.17437699999999
 11
84.527877499999931
 21
463.36291499999999
  0
LINE
  8
_0-0_0
  6
CONTINUOUS
 62
    7
 10
84.527877499999931
 20
463.36291499999999
 11
84.513015499999938
 21
463.55117799999999
  0
LINE
  8
_0-0_0
  6
CONTINUOUS
 62
    7
 10
84.513015499999938
 20
463.55117799999999
 11
84.493087499999945
 21
463.739105
  0
LINE
  8
_0-0_0
  6
CONTINUOUS
 62
    7
 10
84.493087499999945
 20
463.739105
 11
84.476699499999995
 21
463.86798099999999
  0
LINE
  8
_0-0_0
  6
CONTINUOUS
 62
    7
 10
84.476699499999995
 20
463.86798099999999
 11
84.458297499999958
 21
463.99664300000001
  0
LINE
  8
_0-0_0
  6
CONTINUOUS
 62
    7
 10
84.458297499999958
 20
463.99664300000001
 11
84.434127499999931
 21
464.14855999999997
  0
LINE
  8
_0-0_0
  6
CONTINUOUS
 62
    7
 10
84.434127499999931
 20
464.14855999999997
 11
84.407729499999959
 21
464.29992700000003
  0
LINE
  8
_0-0_0
  6
CONTINUOUS
 62
    7
 10
84.407729499999959
 20
464.29992700000003
 11
84.351577499999962
 21
464.59054600000002
  0
LINE
  8
_0-0_0
  6
CONTINUOUS
 62
    7
 10
84.351577499999962
 20
464.59054600000002
 11
84.31141649999995
 21
464.78250100000002
  0
LINE
  8
_0-0_0
  6
CONTINUOUS
 62
    7
 10
84.31141649999995
 20
464.78250100000002
 11
84.22776749999997
 21
465.16198700000001
  0
LINE
  8
_0-0_0
  6
CONTINUOUS
 62
    7
 10
84.22776749999997
 20
460.737976
 11
84.168960499999969
 21
460.49111900000003
  0
LINE
  8
_0-0_0
  6
CONTINUOUS
 62
    7
 10
84.168960499999969
 20
460.49111900000003
 11
84.119216499999993
 21
460.29879799999998
  0
LINE
  8
_0-0_0
  6
CONTINUOUS
 62
    7
 10
84.119216499999993
 20
460.29879799999998
 11
84.048080499999969
 21
460.033051
  0
LINE
  8
_0-0_0
  6
CONTINUOUS
 62
    7
 10
84.048080499999969
 20
460.033051
 11
84.015121499999964
 21
459.906342
  0
LINE
  8
_0-0_0
  6
CONTINUOUS
 62
    7
 10
84.015121499999964
 20
459.906342
 11
83.989852499999984
 21
459.80291699999998
  0
LINE
  8
_0-0_0
  6
CONTINUOUS
 62
    7
 10
83.989852499999984
 20
459.80291699999998
 11
83.967819499999962
 21
459.70294200000001
  0
LINE
  8
_0-0_0
  6
CONTINUOUS
 62
    7
 10
83.967819499999962
 20
459.70294200000001
 11
83.946456499999954
 21
459.58523600000001
  0
LINE
  8
_0-0_0
  6
CONTINUOUS
 62
    7
 10
83.946456499999954
 20
459.58523600000001
 11
83.937881499999946
 21
459.52310199999999
  0
LINE
  8
_0-0_0
  6
CONTINUOUS
 62
    7
 10
83.937881499999946
 20
459.52310199999999
 11
83.931808499999988
 21
459.46249399999999
  0
LINE
  8
_0-0_0
  6
CONTINUOUS
 62
    7
 10
83.931808499999988
 20
459.46249399999999
 11
83.928787499999999
 21
459.41326900000001
  0
LINE
  8
_0-0_0
  6
CONTINUOUS
 62
    7
 10
83.928787499999999
 20
459.41326900000001
 11
83.927780499999926
 21
459.36505099999999
  0
ARC
  8
_0-0_0
  6
CONTINUOUS
 62
    7
 10
198.42779549999995
 20
449.25
 40
0.5
 50
269.99999700000001
 51
0
  0
LINE
  8
_0-0_0
  6
CONTINUOUS
 62
    7
 10
198.38345349999997
 20
453.57128899999998
 11
198.38345349999997
 21
456.89999399999999
  0
LINE
  8
_0-0_0
  6
CONTINUOUS
 62
    7
 10
198.38345349999997
 20
452.39999399999999
 11
198.38345349999997
 21
453.57128899999998
  0
CIRCLE
  8
_0-0_0
  6
CONTINUOUS
 62
    7
 10
121.92778049999993
 20
468.25
 40
2.5
  0
CIRCLE
  8
_0-0_0
  6
CONTINUOUS
 62
    7
 10
177.92779549999995
 20
468.25
 40
2.5
  0
LINE
  8
_0-0_0
  6
CONTINUOUS
 62
    7
 10
83.927780499999926
 20
459.05767800000001
 11
74.219955499999969
 21
459.05767800000001
  0
LINE
  8
_0-0_0
  6
CONTINUOUS
 62
    7
 10
74.219955499999969
 20
456.44998199999998
 11
74.16546649999998
 21
456.51992799999999
  0
LINE
  8
_0-0_0
  6
CONTINUOUS
 62
    7
 10
74.16546649999998
 20
456.51992799999999
 11
74.114364499999965
 21
456.58874500000002
  0
LINE
  8
_0-0_0
  6
CONTINUOUS
 62
    7
 10
74.114364499999965
 20
456.58874500000002
 11
74.066726499999959
 21
456.65625
  0
LINE
  8
_0-0_0
  6
CONTINUOUS
 62
    7
 10
74.066726499999959
 20
456.65625
 11
74.022231499999975
 21
456.72280899999998
  0
LINE
  8
_0-0_0
  6
CONTINUOUS
 62
    7
 10
74.022231499999975
 20
456.72280899999998
 11
73.967513499999995
 21
456.81033300000001
  0
LINE
  8
_0-0_0
  6
CONTINUOUS
 62
    7
 10
73.967513499999995
 20
456.81033300000001
 11
73.917999499999951
 21
456.89645400000001
  0
LINE
  8
_0-0_0
  6
CONTINUOUS
 62
    7
 10
73.917999499999951
 20
456.89645400000001
 11
73.873519499999929
 21
456.98126200000002
  0
LINE
  8
_0-0_0
  6
CONTINUOUS
 62
    7
 10
73.873519499999929
 20
456.98126200000002
 11
73.826553499999932
 21
457.08160400000003
  0
LINE
  8
_0-0_0
  6
CONTINUOUS
 62
    7
 10
73.826553499999932
 20
457.08160400000003
 11
73.786361499999998
 21
457.18051100000002
  0
LINE
  8
_0-0_0
  6
CONTINUOUS
 62
    7
 10
73.786361499999998
 20
457.18051100000002
 11
73.752700499999946
 21
457.27825899999999
  0
LINE
  8
_0-0_0
  6
CONTINUOUS
 62
    7
 10
73.752700499999946
 20
457.27825899999999
 11
73.725402499999973
 21
457.375092
  0
LINE
  8
_0-0_0
  6
CONTINUOUS
 62
    7
 10
73.725402499999973
 20
457.375092
 11
73.70436049999995
 21
457.47113000000002
  0
LINE
  8
_0-0_0
  6
CONTINUOUS
 62
    7
 10
73.70436049999995
 20
457.47113000000002
 11
73.688430499999981
 21
457.57498199999998
  0
LINE
  8
_0-0_0
  6
CONTINUOUS
 62
    7
 10
73.688430499999981
 20
457.57498199999998
 11
73.679672499999924
 21
457.678406
  0
LINE
  8
_0-0_0
  6
CONTINUOUS
 62
    7
 10
73.679672499999924
 20
457.678406
 11
73.678024499999992
 21
457.78164700000002
  0
LINE
  8
_0-0_0
  6
CONTINUOUS
 62
    7
 10
73.678024499999992
 20
457.78164700000002
 11
73.683502499999918
 21
457.88494900000001
  0
LINE
  8
_0-0_0
  6
CONTINUOUS
 62
    7
 10
73.683502499999918
 20
457.88494900000001
 11
73.696105499999931
 21
457.98852499999998
  0
LINE
  8
_0-0_0
  6
CONTINUOUS
 62
    7
 10
73.696105499999931
 20
457.98852499999998
 11
73.715926499999966
 21
458.09268200000002
  0
LINE
  8
_0-0_0
  6
CONTINUOUS
 62
    7
 10
73.715926499999966
 20
458.09268200000002
 11
73.743072499999926
 21
458.197632
  0
LINE
  8
_0-0_0
  6
CONTINUOUS
 62
    7
 10
73.743072499999926
 20
458.197632
 11
73.777725499999974
 21
458.30367999999999
  0
LINE
  8
_0-0_0
  6
CONTINUOUS
 62
    7
 10
73.777725499999974
 20
458.30367999999999
 11
73.820068499999934
 21
458.41104100000001
  0
LINE
  8
_0-0_0
  6
CONTINUOUS
 62
    7
 10
73.820068499999934
 20
458.41104100000001
 11
73.870376499999963
 21
458.52005000000003
  0
LINE
  8
_0-0_0
  6
CONTINUOUS
 62
    7
 10
73.870376499999963
 20
458.52005000000003
 11
73.924636499999963
 21
458.623199
  0
LINE
  8
_0-0_0
  6
CONTINUOUS
 62
    7
 10
73.924636499999963
 20
458.623199
 11
73.986343499999975
 21
458.72824100000003
  0
LINE
  8
_0-0_0
  6
CONTINUOUS
 62
    7
 10
73.986343499999975
 20
458.72824100000003
 11
74.055862499999989
 21
458.83548000000002
  0
LINE
  8
_0-0_0
  6
CONTINUOUS
 62
    7
 10
74.055862499999989
 20
458.83548000000002
 11
74.133575499999949
 21
458.94519000000003
  0
LINE
  8
_0-0_0
  6
CONTINUOUS
 62
    7
 10
74.133575499999949
 20
458.94519000000003
 11
74.219955499999969
 21
459.05767800000001
  0
LINE
  8
_0-0_0
  6
CONTINUOUS
 62
    7
 10
83.927780499999926
 20
456.44998199999998
 11
74.219955499999969
 21
456.44998199999998
  0
LINE
  8
_0-0_0
  6
CONTINUOUS
 62
    7
 10
83.927780499999926
 20
458.94229100000001
 11
83.927780499999926
 21
459.05767800000001
  0
LINE
  8
_0-0_0
  6
CONTINUOUS
 62
    7
 10
74.177780499999926
 20
456.44998199999998
 11
74.219955499999969
 21
456.44998199999998
  0
LINE
  8
_0-0_0
  6
CONTINUOUS
 62
    7
 10
83.927780499999926
 20
466.842285
 11
74.219955499999969
 21
466.842285
  0
LINE
  8
_0-0_0
  6
CONTINUOUS
 62
    7
 10
83.927780499999926
 20
466.957672
 11
83.927780499999926
 21
466.842285
  0
LINE
  8
_0-0_0
  6
CONTINUOUS
 62
    7
 10
74.219955499999969
 20
466.842285
 11
74.16546649999998
 21
466.91223100000002
  0
LINE
  8
_0-0_0
  6
CONTINUOUS
 62
    7
 10
74.16546649999998
 20
466.91223100000002
 11
74.114364499999965
 21
466.98104899999998
  0
LINE
  8
_0-0_0
  6
CONTINUOUS
 62
    7
 10
74.114364499999965
 20
466.98104899999998
 11
74.066726499999959
 21
467.04855300000003
  0
LINE
  8
_0-0_0
  6
CONTINUOUS
 62
    7
 10
74.066726499999959
 20
467.04855300000003
 11
74.022231499999975
 21
467.11511200000001
  0
LINE
  8
_0-0_0
  6
CONTINUOUS
 62
    7
 10
74.022231499999975
 20
467.11511200000001
 11
73.967513499999995
 21
467.20263699999998
  0
LINE
  8
_0-0_0
  6
CONTINUOUS
 62
    7
 10
73.967513499999995
 20
467.20263699999998
 11
73.917999499999951
 21
467.28875699999998
  0
LINE
  8
_0-0_0
  6
CONTINUOUS
 62
    7
 10
73.917999499999951
 20
467.28875699999998
 11
73.873519499999929
 21
467.37359600000002
  0
LINE
  8
_0-0_0
  6
CONTINUOUS
 62
    7
 10
73.873519499999929
 20
467.37359600000002
 11
73.826553499999932
 21
467.473907
  0
LINE
  8
_0-0_0
  6
CONTINUOUS
 62
    7
 10
73.826553499999932
 20
467.473907
 11
73.786361499999998
 21
467.57281499999999
  0
LINE
  8
_0-0_0
  6
CONTINUOUS
 62
    7
 10
73.786361499999998
 20
467.57281499999999
 11
73.752700499999946
 21
467.670593
  0
LINE
  8
_0-0_0
  6
CONTINUOUS
 62
    7
 10
73.752700499999946
 20
467.670593
 11
73.725402499999973
 21
467.76739500000002
  0
LINE
  8
_0-0_0
  6
CONTINUOUS
 62
    7
 10
73.725402499999973
 20
467.76739500000002
 11
73.70436049999995
 21
467.86343399999998
  0
LINE
  8
_0-0_0
  6
CONTINUOUS
 62
    7
 10
73.70436049999995
 20
467.86343399999998
 11
73.688430499999981
 21
467.967285
  0
LINE
  8
_0-0_0
  6
CONTINUOUS
 62
    7
 10
73.688430499999981
 20
467.967285
 11
73.679672499999924
 21
468.07070900000002
  0
LINE
  8
_0-0_0
  6
CONTINUOUS
 62
    7
 10
73.679672499999924
 20
468.07070900000002
 11
73.678024499999992
 21
468.17394999999999
  0
LINE
  8
_0-0_0
  6
CONTINUOUS
 62
    7
 10
73.678024499999992
 20
468.17394999999999
 11
73.683502499999918
 21
468.27725199999998
  0
LINE
  8
_0-0_0
  6
CONTINUOUS
 62
    7
 10
73.683502499999918
 20
468.27725199999998
 11
73.696105499999931
 21
468.38082900000001
  0
LINE
  8
_0-0_0
  6
CONTINUOUS
 62
    7
 10
73.696105499999931
 20
468.38082900000001
 11
73.715926499999966
 21
468.48498499999999
  0
LINE
  8
_0-0_0
  6
CONTINUOUS
 62
    7
 10
73.715926499999966
 20
468.48498499999999
 11
73.743072499999926
 21
468.58993500000003
  0
LINE
  8
_0-0_0
  6
CONTINUOUS
 62
    7
 10
73.743072499999926
 20
468.58993500000003
 11
73.777725499999974
 21
468.69598400000001
  0
LINE
  8
_0-0_0
  6
CONTINUOUS
 62
    7
 10
73.777725499999974
 20
468.69598400000001
 11
73.820068499999934
 21
468.80334499999998
  0
LINE
  8
_0-0_0
  6
CONTINUOUS
 62
    7
 10
73.820068499999934
 20
468.80334499999998
 11
73.870376499999963
 21
468.91235399999999
  0
LINE
  8
_0-0_0
  6
CONTINUOUS
 62
    7
 10
73.870376499999963
 20
468.91235399999999
 11
73.916076499999917
 21
469
  0
LINE
  8
_0-0_0
  6
CONTINUOUS
 62
    7
 10
68.927780499999926
 20
472.47543300000001
 11
68.677780499999926
 21
472.5
  0
LINE
  8
_0-0_0
  6
CONTINUOUS
 62
    7
 10
68.927780499999926
 20
472.27145400000001
 11
68.677780499999926
 21
472.5
  0
LINE
  8
_0-0_0
  6
CONTINUOUS
 62
    7
 10
68.927780499999926
 20
472.665955
 11
68.677780499999926
 21
472.71945199999999
  0
LINE
  8
_0-0_0
  6
CONTINUOUS
 62
    7
 10
68.927780499999926
 20
472.47543300000001
 11
68.677780499999926
 21
472.71945199999999
  0
LINE
  8
_0-0_0
  6
CONTINUOUS
 62
    7
 10
68.927780499999926
 20
472.84097300000002
 11
68.677780499999926
 21
472.922821
  0
LINE
  8
_0-0_0
  6
CONTINUOUS
 62
    7
 10
68.927780499999926
 20
472.665955
 11
68.677780499999926
 21
472.922821
  0
LINE
  8
_0-0_0
  6
CONTINUOUS
 62
    7
 10
68.927780499999926
 20
472.99856599999998
 11
68.677780499999926
 21
473.10784899999999
  0
LINE
  8
_0-0_0
  6
CONTINUOUS
 62
    7
 10
68.927780499999926
 20
472.84097300000002
 11
68.677780499999926
 21
473.10784899999999
  0
LINE
  8
_0-0_0
  6
CONTINUOUS
 62
    7
 10
68.927780499999926
 20
473.13699300000002
 11
68.677780499999926
 21
473.27252199999998
  0
LINE
  8
_0-0_0
  6
CONTINUOUS
 62
    7
 10
68.927780499999926
 20
472.99856599999998
 11
68.677780499999926
 21
473.27252199999998
  0
LINE
  8
_0-0_0
  6
CONTINUOUS
 62
    7
 10
68.927780499999926
 20
473.25476099999997
 11
68.677780499999926
 21
473.41503899999998
  0
LINE
  8
_0-0_0
  6
CONTINUOUS
 62
    7
 10
68.927780499999926
 20
473.13699300000002
 11
68.677780499999926
 21
473.41503899999998
  0
LINE
  8
_0-0_0
  6
CONTINUOUS
 62
    7
 10
68.927780499999926
 20
473.350525
 11
68.677780499999926
 21
473.53384399999999
  0
LINE
  8
_0-0_0
  6
CONTINUOUS
 62
    7
 10
68.927780499999926
 20
473.25476099999997
 11
68.677780499999926
 21
473.53384399999999
  0
LINE
  8
_0-0_0
  6
CONTINUOUS
 62
    7
 10
68.927780499999926
 20
473.42330900000002
 11
68.677780499999926
 21
473.62762500000002
  0
LINE
  8
_0-0_0
  6
CONTINUOUS
 62
    7
 10
68.927780499999926
 20
473.350525
 11
68.677780499999926
 21
473.62762500000002
  0
LINE
  8
_0-0_0
  6
CONTINUOUS
 62
    7
 10
68.927780499999926
 20
473.47228999999999
 11
68.677780499999926
 21
473.69534299999998
  0
LINE
  8
_0-0_0
  6
CONTINUOUS
 62
    7
 10
68.927780499999926
 20
473.42330900000002
 11
68.677780499999926
 21
473.69534299999998
  0
LINE
  8
_0-0_0
  6
CONTINUOUS
 62
    7
 10
68.927780499999926
 20
473.49688700000002
 11
68.677780499999926
 21
473.73629799999998
  0
LINE
  8
_0-0_0
  6
CONTINUOUS
 62
    7
 10
68.927780499999926
 20
473.47228999999999
 11
68.677780499999926
 21
473.73629799999998
  0
LINE
  8
_0-0_0
  6
CONTINUOUS
 62
    7
 10
68.927780499999926
 20
473.49688700000002
 11
68.677780499999926
 21
473.75
  0
LINE
  8
_0-0_0
  6
CONTINUOUS
 62
    7
 10
68.927780499999926
 20
469.00305200000003
 11
68.677780499999926
 21
468.75
  0
LINE
  8
_0-0_0
  6
CONTINUOUS
 62
    7
 10
68.927780499999926
 20
469.02767899999998
 11
68.677780499999926
 21
468.76367199999999
  0
LINE
  8
_0-0_0
  6
CONTINUOUS
 62
    7
 10
68.927780499999926
 20
469.00305200000003
 11
68.677780499999926
 21
468.76367199999999
  0
LINE
  8
_0-0_0
  6
CONTINUOUS
 62
    7
 10
68.927780499999926
 20
469.07666
 11
68.677780499999926
 21
468.80462599999998
  0
LINE
  8
_0-0_0
  6
CONTINUOUS
 62
    7
 10
68.927780499999926
 20
469.02767899999998
 11
68.677780499999926
 21
468.80462599999998
  0
LINE
  8
_0-0_0
  6
CONTINUOUS
 62
    7
 10
68.927780499999926
 20
469.14941399999998
 11
68.677780499999926
 21
468.872345
  0
LINE
  8
_0-0_0
  6
CONTINUOUS
 62
    7
 10
68.927780499999926
 20
469.07666
 11
68.677780499999926
 21
468.872345
  0
LINE
  8
_0-0_0
  6
CONTINUOUS
 62
    7
 10
68.927780499999926
 20
469.24520899999999
 11
68.677780499999926
 21
468.96612499999998
  0
LINE
  8
_0-0_0
  6
CONTINUOUS
 62
    7
 10
68.927780499999926
 20
469.14941399999998
 11
68.677780499999926
 21
468.96612499999998
  0
LINE
  8
_0-0_0
  6
CONTINUOUS
 62
    7
 10
68.927780499999926
 20
469.24520899999999
 11
68.797805499999981
 21
469.16137700000002
  0
LINE
  8
_0-0_0
  6
CONTINUOUS
 62
    7
 10
68.927780499999926
 20
469.362976
 11
68.677780499999926
 21
469.08492999999999
  0
LINE
  8
_0-0_0
  6
CONTINUOUS
 62
    7
 10
68.797805499999981
 20
469.16137700000002
 11
68.677780499999926
 21
469.08492999999999
  0
LINE
  8
_0-0_0
  6
CONTINUOUS
 62
    7
 10
68.927780499999926
 20
469.50140399999998
 11
68.677780499999926
 21
469.22744799999998
  0
LINE
  8
_0-0_0
  6
CONTINUOUS
 62
    7
 10
68.927780499999926
 20
469.362976
 11
68.677780499999926
 21
469.22744799999998
  0
LINE
  8
_0-0_0
  6
CONTINUOUS
 62
    7
 10
68.927780499999926
 20
469.658997
 11
68.677780499999926
 21
469.39211999999998
  0
LINE
  8
_0-0_0
  6
CONTINUOUS
 62
    7
 10
68.927780499999926
 20
469.50140399999998
 11
68.677780499999926
 21
469.39211999999998
  0
LINE
  8
_0-0_0
  6
CONTINUOUS
 62
    7
 10
68.927780499999926
 20
469.83401500000002
 11
68.677780499999926
 21
469.57714800000002
  0
LINE
  8
_0-0_0
  6
CONTINUOUS
 62
    7
 10
68.927780499999926
 20
469.658997
 11
68.677780499999926
 21
469.57714800000002
  0
LINE
  8
_0-0_0
  6
CONTINUOUS
 62
    7
 10
68.927780499999926
 20
470.02453600000001
 11
68.677780499999926
 21
469.78051799999997
  0
LINE
  8
_0-0_0
  6
CONTINUOUS
 62
    7
 10
68.927780499999926
 20
469.83401500000002
 11
68.677780499999926
 21
469.78051799999997
  0
LINE
  8
_0-0_0
  6
CONTINUOUS
 62
    7
 10
68.927780499999926
 20
470.22851600000001
 11
68.677780499999926
 21
470
  0
LINE
  8
_0-0_0
  6
CONTINUOUS
 62
    7
 10
68.927780499999926
 20
470.02453600000001
 11
68.677780499999926
 21
470
  0
LINE
  8
_0-0_0
  6
CONTINUOUS
 62
    7
 10
68.927780499999926
 20
470.44366500000001
 11
68.677780499999926
 21
470.23315400000001
  0
LINE
  8
_0-0_0
  6
CONTINUOUS
 62
    7
 10
68.927780499999926
 20
470.22851600000001
 11
68.677780499999926
 21
470.23315400000001
  0
LINE
  8
_0-0_0
  6
CONTINUOUS
 62
    7
 10
68.927780499999926
 20
470.66763300000002
 11
68.677780499999926
 21
470.47744799999998
  0
LINE
  8
_0-0_0
  6
CONTINUOUS
 62
    7
 10
68.927780499999926
 20
470.44366500000001
 11
68.677780499999926
 21
470.47744799999998
  0
LINE
  8
_0-0_0
  6
CONTINUOUS
 62
    7
 10
68.927780499999926
 20
470.89801
 11
68.677780499999926
 21
470.73019399999998
  0
LINE
  8
_0-0_0
  6
CONTINUOUS
 62
    7
 10
68.927780499999926
 20
470.66763300000002
 11
68.677780499999926
 21
470.73019399999998
  0
LINE
  8
_0-0_0
  6
CONTINUOUS
 62
    7
 10
68.927780499999926
 20
471.13223299999999
 11
68.677780499999926
 21
470.98864700000001
  0
LINE
  8
_0-0_0
  6
CONTINUOUS
 62
    7
 10
68.927780499999926
 20
470.89801
 11
68.677780499999926
 21
470.98864700000001
  0
LINE
  8
_0-0_0
  6
CONTINUOUS
 62
    7
 10
68.927780499999926
 20
471.36773699999998
 11
68.677780499999926
 21
471.25
  0
LINE
  8
_0-0_0
  6
CONTINUOUS
 62
    7
 10
68.927780499999926
 20
471.13223299999999
 11
68.677780499999926
 21
471.25
  0
LINE
  8
_0-0_0
  6
CONTINUOUS
 62
    7
 10
68.927780499999926
 20
471.60195900000002
 11
68.677780499999926
 21
471.51129200000003
  0
LINE
  8
_0-0_0
  6
CONTINUOUS
 62
    7
 10
68.927780499999926
 20
471.36773699999998
 11
68.677780499999926
 21
471.51129200000003
  0
LINE
  8
_0-0_0
  6
CONTINUOUS
 62
    7
 10
68.927780499999926
 20
471.832336
 11
68.677780499999926
 21
471.76977499999998
  0
LINE
  8
_0-0_0
  6
CONTINUOUS
 62
    7
 10
68.927780499999926
 20
471.60195900000002
 11
68.677780499999926
 21
471.76977499999998
  0
LINE
  8
_0-0_0
  6
CONTINUOUS
 62
    7
 10
68.927780499999926
 20
472.05630500000001
 11
68.677780499999926
 21
472.02252199999998
  0
LINE
  8
_0-0_0
  6
CONTINUOUS
 62
    7
 10
68.927780499999926
 20
471.832336
 11
68.677780499999926
 21
472.02252199999998
  0
LINE
  8
_0-0_0
  6
CONTINUOUS
 62
    7
 10
68.927780499999926
 20
472.27145400000001
 11
68.677780499999926
 21
472.26681500000001
  0
LINE
  8
_0-0_0
  6
CONTINUOUS
 62
    7
 10
68.927780499999926
 20
472.05630500000001
 11
68.677780499999926
 21
472.26681500000001
  0
LINE
  8
_0-0_0
  6
CONTINUOUS
 62
    7
 10
83.927780499999926
 20
464.512024
 11
83.927780499999926
 21
465.55767800000001
  0
LINE
  8
_0-0_0
  6
CONTINUOUS
 62
    7
 10
83.927780499999926
 20
466.842285
 11
83.927780499999926
 21
465.55767800000001
  0
LINE
  8
_0-0_0
  6
CONTINUOUS
 62
    7
 10
83.927780499999926
 20
464.512024
 11
83.927780499999926
 21
461.38793900000002
  0
LINE
  8
_0-0_0
  6
CONTINUOUS
 62
    7
 10
83.927780499999926
 20
460.342285
 11
83.927780499999926
 21
459.05767800000001
  0
LINE
  8
_0-0_0
  6
CONTINUOUS
 62
    7
 10
83.927780499999926
 20
460.342285
 11
83.927780499999926
 21
461.38793900000002
  0
LINE
  8
_0-0_0
  6
CONTINUOUS
 62
    7
 10
198.52780149999995
 20
453.69113199999998
 11
198.52780149999995
 21
456.64999399999999
  0
LINE
  8
_0-0_0
  6
CONTINUOUS
 62
    7
 10
198.52780149999995
 20
452.64999399999999
 11
198.52780149999995
 21
453.69113199999998
  0
LINE
  8
_0-0_0
  6
CONTINUOUS
 62
    7
 10
83.927780499999926
 20
460.342285
 11
74.219955499999969
 21
460.342285
  0
ARC
  8
_0-0_0
  6
CONTINUOUS
 62
    7
 10
79.101669499999957
 20
459.69909699999999
 40
4.9238749999999998
 50
172.49424200000001
 51
181.535968
  0
ARC
  8
_0-0_0
  6
CONTINUOUS
 62
    7
 10
79.139694499999962
 20
459.70404100000002
 40
4.9620009999999999
 50
181.58130700000004
 51
187.48478900000003
  0
LINE
  8
_0-0_0
  6
CONTINUOUS
 62
    7
 10
72.927780499999926
 20
460.21844499999997
 11
72.927780499999926
 21
457.69998199999998
  0
LINE
  8
_0-0_0
  6
CONTINUOUS
 62
    7
 10
72.927780499999926
 20
468.19998199999998
 11
72.927780499999926
 21
460.21844499999997
  0
LINE
  8
_0-0_0
  6
CONTINUOUS
 62
    7
 10
74.219955499999969
 20
465.55767800000001
 11
74.125610499999993
 21
465.31106599999998
  0
LINE
  8
_0-0_0
  6
CONTINUOUS
 62
    7
 10
74.125610499999993
 20
465.31106599999998
 11
74.04167149999995
 21
465.07110599999999
  0
LINE
  8
_0-0_0
  6
CONTINUOUS
 62
    7
 10
74.04167149999995
 20
465.07110599999999
 11
73.967513499999995
 21
464.836975
  0
LINE
  8
_0-0_0
  6
CONTINUOUS
 62
    7
 10
73.967513499999995
 20
464.836975
 11
73.902633499999979
 21
464.60794099999998
  0
LINE
  8
_0-0_0
  6
CONTINUOUS
 62
    7
 10
73.902633499999979
 20
464.60794099999998
 11
73.846588499999939
 21
464.38326999999998
  0
LINE
  8
_0-0_0
  6
CONTINUOUS
 62
    7
 10
73.846588499999939
 20
464.38326999999998
 11
73.799026499999968
 21
464.16229199999998
  0
LINE
  8
_0-0_0
  6
CONTINUOUS
 62
    7
 10
73.799026499999968
 20
464.16229199999998
 11
73.759612499999946
 21
463.944366
  0
LINE
  8
_0-0_0
  6
CONTINUOUS
 62
    7
 10
73.759612499999946
 20
463.944366
 11
73.728134499999953
 21
463.72891199999998
  0
LINE
  8
_0-0_0
  6
CONTINUOUS
 62
    7
 10
73.728134499999953
 20
463.72891199999998
 11
73.70436049999995
 21
463.51538099999999
  0
LINE
  8
_0-0_0
  6
CONTINUOUS
 62
    7
 10
73.70436049999995
 20
463.51538099999999
 11
73.688430499999981
 21
463.30767800000001
  0
LINE
  8
_0-0_0
  6
CONTINUOUS
 62
    7
 10
73.688430499999981
 20
463.30767800000001
 11
73.679672499999924
 21
463.10082999999997
  0
LINE
  8
_0-0_0
  6
CONTINUOUS
 62
    7
 10
73.679672499999924
 20
463.10082999999997
 11
73.678024499999992
 21
462.89434799999998
  0
LINE
  8
_0-0_0
  6
CONTINUOUS
 62
    7
 10
73.678024499999992
 20
462.89434799999998
 11
73.683502499999918
 21
462.68777499999999
  0
LINE
  8
_0-0_0
  6
CONTINUOUS
 62
    7
 10
73.683502499999918
 20
462.68777499999999
 11
73.696105499999931
 21
462.480591
  0
LINE
  8
_0-0_0
  6
CONTINUOUS
 62
    7
 10
73.696105499999931
 20
462.480591
 11
73.715926499999966
 21
462.27227799999997
  0
LINE
  8
_0-0_0
  6
CONTINUOUS
 62
    7
 10
73.715926499999966
 20
462.27227799999997
 11
73.743072499999926
 21
462.06237800000002
  0
LINE
  8
_0-0_0
  6
CONTINUOUS
 62
    7
 10
73.743072499999926
 20
462.06237800000002
 11
73.777725499999974
 21
461.85031099999998
  0
LINE
  8
_0-0_0
  6
CONTINUOUS
 62
    7
 10
73.777725499999974
 20
461.85031099999998
 11
73.820068499999934
 21
461.635559
  0
LINE
  8
_0-0_0
  6
CONTINUOUS
 62
    7
 10
73.820068499999934
 20
461.635559
 11
73.870376499999963
 21
461.41754200000003
  0
LINE
  8
_0-0_0
  6
CONTINUOUS
 62
    7
 10
73.870376499999963
 20
461.41754200000003
 11
73.924636499999963
 21
461.21124300000002
  0
LINE
  8
_0-0_0
  6
CONTINUOUS
 62
    7
 10
73.924636499999963
 20
461.21124300000002
 11
73.986343499999975
 21
461.00116000000003
  0
LINE
  8
_0-0_0
  6
CONTINUOUS
 62
    7
 10
73.986343499999975
 20
461.00116000000003
 11
74.055862499999989
 21
460.78668199999998
  0
LINE
  8
_0-0_0
  6
CONTINUOUS
 62
    7
 10
74.055862499999989
 20
460.78668199999998
 11
74.133575499999949
 21
460.56726099999997
  0
LINE
  8
_0-0_0
  6
CONTINUOUS
 62
    7
 10
74.133575499999949
 20
460.56726099999997
 11
74.219955499999969
 21
460.342285
  0
ARC
  8
_0-0_0
  6
CONTINUOUS
 62
    7
 10
79.091506499999923
 20
466.19998199999998
 40
4.9136889999999998
 50
172.48898299999999
 51
187.51101699999998
  0
LINE
  8
_0-0_0
  6
CONTINUOUS
 62
    7
 10
83.927780499999926
 20
465.55767800000001
 11
74.219955499999969
 21
465.55767800000001
  0
LINE
  8
_0-0_0
  6
CONTINUOUS
 62
    7
 10
59.177780499999926
 20
472.47543300000001
 11
59.427780499999926
 21
472.5
  0
LINE
  8
_0-0_0
  6
CONTINUOUS
 62
    7
 10
59.427780499999926
 20
472.5
 11
68.677780499999926
 21
472.5
  0
LINE
  8
_0-0_0
  6
CONTINUOUS
 62
    7
 10
59.177780499999926
 20
472.27145400000001
 11
59.427780499999926
 21
472.5
  0
LINE
  8
_0-0_0
  6
CONTINUOUS
 62
    7
 10
59.177780499999926
 20
472.27145400000001
 11
68.927780499999926
 21
472.27145400000001
  0
LINE
  8
_0-0_0
  6
CONTINUOUS
 62
    7
 10
59.177780499999926
 20
472.665955
 11
59.427780499999926
 21
472.71945199999999
  0
LINE
  8
_0-0_0
  6
CONTINUOUS
 62
    7
 10
59.427780499999926
 20
472.71945199999999
 11
68.677780499999926
 21
472.71945199999999
  0
LINE
  8
_0-0_0
  6
CONTINUOUS
 62
    7
 10
59.177780499999926
 20
472.47543300000001
 11
59.427780499999926
 21
472.71945199999999
  0
LINE
  8
_0-0_0
  6
CONTINUOUS
 62
    7
 10
59.177780499999926
 20
472.84097300000002
 11
59.427780499999926
 21
472.922821
  0
LINE
  8
_0-0_0
  6
CONTINUOUS
 62
    7
 10
59.427780499999926
 20
472.922821
 11
68.677780499999926
 21
472.922821
  0
LINE
  8
_0-0_0
  6
CONTINUOUS
 62
    7
 10
59.177780499999926
 20
472.665955
 11
59.427780499999926
 21
472.922821
  0
LINE
  8
_0-0_0
  6
CONTINUOUS
 62
    7
 10
59.177780499999926
 20
472.99856599999998
 11
59.427780499999926
 21
473.10784899999999
  0
LINE
  8
_0-0_0
  6
CONTINUOUS
 62
    7
 10
59.427780499999926
 20
473.10784899999999
 11
68.677780499999926
 21
473.10784899999999
  0
LINE
  8
_0-0_0
  6
CONTINUOUS
 62
    7
 10
59.177780499999926
 20
472.84097300000002
 11
59.427780499999926
 21
473.10784899999999
  0
LINE
  8
_0-0_0
  6
CONTINUOUS
 62
    7
 10
59.177780499999926
 20
473.13699300000002
 11
59.427780499999926
 21
473.27252199999998
  0
LINE
  8
_0-0_0
  6
CONTINUOUS
 62
    7
 10
59.427780499999926
 20
473.27252199999998
 11
68.677780499999926
 21
473.27252199999998
  0
LINE
  8
_0-0_0
  6
CONTINUOUS
 62
    7
 10
59.177780499999926
 20
472.99856599999998
 11
59.427780499999926
 21
473.27252199999998
  0
LINE
  8
_0-0_0
  6
CONTINUOUS
 62
    7
 10
59.177780499999926
 20
473.25476099999997
 11
59.427780499999926
 21
473.41503899999998
  0
LINE
  8
_0-0_0
  6
CONTINUOUS
 62
    7
 10
59.427780499999926
 20
473.41503899999998
 11
68.677780499999926
 21
473.41503899999998
  0
LINE
  8
_0-0_0
  6
CONTINUOUS
 62
    7
 10
59.177780499999926
 20
473.13699300000002
 11
59.427780499999926
 21
473.41503899999998
  0
LINE
  8
_0-0_0
  6
CONTINUOUS
 62
    7
 10
59.177780499999926
 20
473.350525
 11
59.427780499999926
 21
473.53384399999999
  0
LINE
  8
_0-0_0
  6
CONTINUOUS
 62
    7
 10
59.427780499999926
 20
473.53384399999999
 11
68.677780499999926
 21
473.53384399999999
  0
LINE
  8
_0-0_0
  6
CONTINUOUS
 62
    7
 10
59.177780499999926
 20
473.25476099999997
 11
59.427780499999926
 21
473.53384399999999
  0
LINE
  8
_0-0_0
  6
CONTINUOUS
 62
    7
 10
59.177780499999926
 20
473.42330900000002
 11
59.427780499999926
 21
473.62762500000002
  0
LINE
  8
_0-0_0
  6
CONTINUOUS
 62
    7
 10
59.427780499999926
 20
473.62762500000002
 11
68.677780499999926
 21
473.62762500000002
  0
LINE
  8
_0-0_0
  6
CONTINUOUS
 62
    7
 10
59.177780499999926
 20
473.350525
 11
59.427780499999926
 21
473.62762500000002
  0
LINE
  8
_0-0_0
  6
CONTINUOUS
 62
    7
 10
59.177780499999926
 20
473.47228999999999
 11
59.427780499999926
 21
473.69534299999998
  0
LINE
  8
_0-0_0
  6
CONTINUOUS
 62
    7
 10
59.427780499999926
 20
473.69534299999998
 11
68.677780499999926
 21
473.69534299999998
  0
LINE
  8
_0-0_0
  6
CONTINUOUS
 62
    7
 10
59.177780499999926
 20
473.42330900000002
 11
59.427780499999926
 21
473.69534299999998
  0
LINE
  8
_0-0_0
  6
CONTINUOUS
 62
    7
 10
59.177780499999926
 20
473.49688700000002
 11
59.427780499999926
 21
473.73629799999998
  0
LINE
  8
_0-0_0
  6
CONTINUOUS
 62
    7
 10
59.427780499999926
 20
473.73629799999998
 11
68.677780499999926
 21
473.73629799999998
  0
LINE
  8
_0-0_0
  6
CONTINUOUS
 62
    7
 10
59.177780499999926
 20
473.47228999999999
 11
59.427780499999926
 21
473.73629799999998
  0
LINE
  8
_0-0_0
  6
CONTINUOUS
 62
    7
 10
59.427780499999926
 20
473.75
 11
68.677780499999926
 21
473.75
  0
LINE
  8
_0-0_0
  6
CONTINUOUS
 62
    7
 10
59.177780499999926
 20
473.49688700000002
 11
59.427780499999926
 21
473.75
  0
LINE
  8
_0-0_0
  6
CONTINUOUS
 62
    7
 10
59.177780499999926
 20
469.00305200000003
 11
59.427780499999926
 21
468.75
  0
LINE
  8
_0-0_0
  6
CONTINUOUS
 62
    7
 10
59.427780499999926
 20
468.75
 11
68.677780499999926
 21
468.75
  0
LINE
  8
_0-0_0
  6
CONTINUOUS
 62
    7
 10
59.177780499999926
 20
469.02767899999998
 11
59.427780499999926
 21
468.76367199999999
  0
LINE
  8
_0-0_0
  6
CONTINUOUS
 62
    7
 10
59.427780499999926
 20
468.76367199999999
 11
68.677780499999926
 21
468.76367199999999
  0
LINE
  8
_0-0_0
  6
CONTINUOUS
 62
    7
 10
59.177780499999926
 20
469.00305200000003
 11
59.427780499999926
 21
468.76367199999999
  0
LINE
  8
_0-0_0
  6
CONTINUOUS
 62
    7
 10
59.177780499999926
 20
469.07666
 11
59.427780499999926
 21
468.80462599999998
  0
LINE
  8
_0-0_0
  6
CONTINUOUS
 62
    7
 10
59.427780499999926
 20
468.80462599999998
 11
68.677780499999926
 21
468.80462599999998
  0
LINE
  8
_0-0_0
  6
CONTINUOUS
 62
    7
 10
59.177780499999926
 20
469.02767899999998
 11
59.427780499999926
 21
468.80462599999998
  0
LINE
  8
_0-0_0
  6
CONTINUOUS
 62
    7
 10
59.177780499999926
 20
469.14941399999998
 11
59.427780499999926
 21
468.872345
  0
LINE
  8
_0-0_0
  6
CONTINUOUS
 62
    7
 10
59.427780499999926
 20
468.872345
 11
68.677780499999926
 21
468.872345
  0
LINE
  8
_0-0_0
  6
CONTINUOUS
 62
    7
 10
59.177780499999926
 20
469.07666
 11
59.427780499999926
 21
468.872345
  0
LINE
  8
_0-0_0
  6
CONTINUOUS
 62
    7
 10
59.177780499999926
 20
469.24520899999999
 11
59.427780499999926
 21
468.96612499999998
  0
LINE
  8
_0-0_0
  6
CONTINUOUS
 62
    7
 10
59.427780499999926
 20
468.96612499999998
 11
68.677780499999926
 21
468.96612499999998
  0
LINE
  8
_0-0_0
  6
CONTINUOUS
 62
    7
 10
59.177780499999926
 20
469.14941399999998
 11
59.427780499999926
 21
468.96612499999998
  0
LINE
  8
_0-0_0
  6
CONTINUOUS
 62
    7
 10
59.427780499999926
 20
469.08492999999999
 11
68.677780499999926
 21
469.08492999999999
  0
LINE
  8
_0-0_0
  6
CONTINUOUS
 62
    7
 10
59.307739499999968
 20
469.16137700000002
 11
59.427780499999926
 21
469.08492999999999
  0
LINE
  8
_0-0_0
  6
CONTINUOUS
 62
    7
 10
59.177780499999926
 20
469.24520899999999
 11
59.307739499999968
 21
469.16137700000002
  0
LINE
  8
_0-0_0
  6
CONTINUOUS
 62
    7
 10
59.177780499999926
 20
469.362976
 11
59.427780499999926
 21
469.08492999999999
  0
LINE
  8
_0-0_0
  6
CONTINUOUS
 62
    7
 10
59.177780499999926
 20
469.50140399999998
 11
59.427780499999926
 21
469.22744799999998
  0
LINE
  8
_0-0_0
  6
CONTINUOUS
 62
    7
 10
59.427780499999926
 20
469.22744799999998
 11
68.677780499999926
 21
469.22744799999998
  0
LINE
  8
_0-0_0
  6
CONTINUOUS
 62
    7
 10
59.177780499999926
 20
469.362976
 11
59.427780499999926
 21
469.22744799999998
  0
LINE
  8
_0-0_0
  6
CONTINUOUS
 62
    7
 10
59.177780499999926
 20
469.658997
 11
59.427780499999926
 21
469.39211999999998
  0
LINE
  8
_0-0_0
  6
CONTINUOUS
 62
    7
 10
59.427780499999926
 20
469.39211999999998
 11
68.677780499999926
 21
469.39211999999998
  0
LINE
  8
_0-0_0
  6
CONTINUOUS
 62
    7
 10
59.177780499999926
 20
469.50140399999998
 11
59.427780499999926
 21
469.39211999999998
  0
LINE
  8
_0-0_0
  6
CONTINUOUS
 62
    7
 10
59.177780499999926
 20
469.83401500000002
 11
59.427780499999926
 21
469.57714800000002
  0
LINE
  8
_0-0_0
  6
CONTINUOUS
 62
    7
 10
59.427780499999926
 20
469.57714800000002
 11
68.677780499999926
 21
469.57714800000002
  0
LINE
  8
_0-0_0
  6
CONTINUOUS
 62
    7
 10
59.177780499999926
 20
469.658997
 11
59.427780499999926
 21
469.57714800000002
  0
LINE
  8
_0-0_0
  6
CONTINUOUS
 62
    7
 10
59.177780499999926
 20
470.02453600000001
 11
59.427780499999926
 21
469.78051799999997
  0
LINE
  8
_0-0_0
  6
CONTINUOUS
 62
    7
 10
59.427780499999926
 20
469.78051799999997
 11
68.677780499999926
 21
469.78051799999997
  0
LINE
  8
_0-0_0
  6
CONTINUOUS
 62
    7
 10
59.177780499999926
 20
469.83401500000002
 11
59.427780499999926
 21
469.78051799999997
  0
LINE
  8
_0-0_0
  6
CONTINUOUS
 62
    7
 10
59.177780499999926
 20
470.22851600000001
 11
59.427780499999926
 21
470
  0
LINE
  8
_0-0_0
  6
CONTINUOUS
 62
    7
 10
59.427780499999926
 20
470
 11
68.677780499999926
 21
470
  0
LINE
  8
_0-0_0
  6
CONTINUOUS
 62
    7
 10
59.177780499999926
 20
470.22851600000001
 11
68.927780499999926
 21
470.22851600000001
  0
LINE
  8
_0-0_0
  6
CONTINUOUS
 62
    7
 10
59.177780499999926
 20
470.02453600000001
 11
59.427780499999926
 21
470
  0
LINE
  8
_0-0_0
  6
CONTINUOUS
 62
    7
 10
59.177780499999926
 20
470.44366500000001
 11
59.427780499999926
 21
470.23315400000001
  0
LINE
  8
_0-0_0
  6
CONTINUOUS
 62
    7
 10
59.427780499999926
 20
470.23315400000001
 11
68.677780499999926
 21
470.23315400000001
  0
LINE
  8
_0-0_0
  6
CONTINUOUS
 62
    7
 10
59.177780499999926
 20
470.44366500000001
 11
68.927780499999926
 21
470.44366500000001
  0
LINE
  8
_0-0_0
  6
CONTINUOUS
 62
    7
 10
59.177780499999926
 20
470.22851600000001
 11
59.427780499999926
 21
470.23315400000001
  0
LINE
  8
_0-0_0
  6
CONTINUOUS
 62
    7
 10
59.177780499999926
 20
470.66763300000002
 11
59.427780499999926
 21
470.47744799999998
  0
LINE
  8
_0-0_0
  6
CONTINUOUS
 62
    7
 10
59.427780499999926
 20
470.47744799999998
 11
68.677780499999926
 21
470.47744799999998
  0
LINE
  8
_0-0_0
  6
CONTINUOUS
 62
    7
 10
59.177780499999926
 20
470.66763300000002
 11
68.927780499999926
 21
470.66763300000002
  0
LINE
  8
_0-0_0
  6
CONTINUOUS
 62
    7
 10
59.177780499999926
 20
470.44366500000001
 11
59.427780499999926
 21
470.47744799999998
  0
LINE
  8
_0-0_0
  6
CONTINUOUS
 62
    7
 10
59.177780499999926
 20
470.89801
 11
59.427780499999926
 21
470.73019399999998
  0
LINE
  8
_0-0_0
  6
CONTINUOUS
 62
    7
 10
59.427780499999926
 20
470.73019399999998
 11
68.677780499999926
 21
470.73019399999998
  0
LINE
  8
_0-0_0
  6
CONTINUOUS
 62
    7
 10
59.177780499999926
 20
470.89801
 11
68.927780499999926
 21
470.89801
  0
LINE
  8
_0-0_0
  6
CONTINUOUS
 62
    7
 10
59.177780499999926
 20
470.66763300000002
 11
59.427780499999926
 21
470.73019399999998
  0
LINE
  8
_0-0_0
  6
CONTINUOUS
 62
    7
 10
59.177780499999926
 20
471.13223299999999
 11
59.427780499999926
 21
470.98864700000001
  0
LINE
  8
_0-0_0
  6
CONTINUOUS
 62
    7
 10
59.427780499999926
 20
470.98864700000001
 11
68.677780499999926
 21
470.98864700000001
  0
LINE
  8
_0-0_0
  6
CONTINUOUS
 62
    7
 10
59.177780499999926
 20
471.13223299999999
 11
68.927780499999926
 21
471.13223299999999
  0
LINE
  8
_0-0_0
  6
CONTINUOUS
 62
    7
 10
59.177780499999926
 20
470.89801
 11
59.427780499999926
 21
470.98864700000001
  0
LINE
  8
_0-0_0
  6
CONTINUOUS
 62
    7
 10
59.177780499999926
 20
471.36773699999998
 11
59.427780499999926
 21
471.25
  0
LINE
  8
_0-0_0
  6
CONTINUOUS
 62
    7
 10
59.427780499999926
 20
471.25
 11
68.677780499999926
 21
471.25
  0
LINE
  8
_0-0_0
  6
CONTINUOUS
 62
    7
 10
59.177780499999926
 20
471.36773699999998
 11
68.927780499999926
 21
471.36773699999998
  0
LINE
  8
_0-0_0
  6
CONTINUOUS
 62
    7
 10
59.177780499999926
 20
471.13223299999999
 11
59.427780499999926
 21
471.25
  0
LINE
  8
_0-0_0
  6
CONTINUOUS
 62
    7
 10
59.177780499999926
 20
471.60195900000002
 11
59.427780499999926
 21
471.51129200000003
  0
LINE
  8
_0-0_0
  6
CONTINUOUS
 62
    7
 10
59.427780499999926
 20
471.51129200000003
 11
68.677780499999926
 21
471.51129200000003
  0
LINE
  8
_0-0_0
  6
CONTINUOUS
 62
    7
 10
59.177780499999926
 20
471.60195900000002
 11
68.927780499999926
 21
471.60195900000002
  0
LINE
  8
_0-0_0
  6
CONTINUOUS
 62
    7
 10
59.177780499999926
 20
471.36773699999998
 11
59.427780499999926
 21
471.51129200000003
  0
LINE
  8
_0-0_0
  6
CONTINUOUS
 62
    7
 10
59.177780499999926
 20
471.832336
 11
59.427780499999926
 21
471.76977499999998
  0
LINE
  8
_0-0_0
  6
CONTINUOUS
 62
    7
 10
59.427780499999926
 20
471.76977499999998
 11
68.677780499999926
 21
471.76977499999998
  0
LINE
  8
_0-0_0
  6
CONTINUOUS
 62
    7
 10
59.177780499999926
 20
471.832336
 11
68.927780499999926
 21
471.832336
  0
LINE
  8
_0-0_0
  6
CONTINUOUS
 62
    7
 10
59.177780499999926
 20
471.60195900000002
 11
59.427780499999926
 21
471.76977499999998
  0
LINE
  8
_0-0_0
  6
CONTINUOUS
 62
    7
 10
59.177780499999926
 20
472.05630500000001
 11
59.427780499999926
 21
472.02252199999998
  0
LINE
  8
_0-0_0
  6
CONTINUOUS
 62
    7
 10
59.427780499999926
 20
472.02252199999998
 11
68.677780499999926
 21
472.02252199999998
  0
LINE
  8
_0-0_0
  6
CONTINUOUS
 62
    7
 10
59.177780499999926
 20
472.05630500000001
 11
68.927780499999926
 21
472.05630500000001
  0
LINE
  8
_0-0_0
  6
CONTINUOUS
 62
    7
 10
59.177780499999926
 20
471.832336
 11
59.427780499999926
 21
472.02252199999998
  0
LINE
  8
_0-0_0
  6
CONTINUOUS
 62
    7
 10
59.177780499999926
 20
472.27145400000001
 11
59.427780499999926
 21
472.26681500000001
  0
LINE
  8
_0-0_0
  6
CONTINUOUS
 62
    7
 10
59.427780499999926
 20
472.26681500000001
 11
68.677780499999926
 21
472.26681500000001
  0
LINE
  8
_0-0_0
  6
CONTINUOUS
 62
    7
 10
59.177780499999926
 20
472.05630500000001
 11
59.427780499999926
 21
472.26681500000001
  0
LINE
  8
_0-0_0
  6
CONTINUOUS
 62
    7
 10
58.927780499999926
 20
473.25
 11
58.927780499999926
 21
469.49481200000002
  0
LINE
  8
_0-0_0
  6
CONTINUOUS
 62
    7
 10
58.927780499999926
 20
469.49481200000002
 11
58.927780499999926
 21
469.25
  0
LINE
  8
_0-0_0
  6
CONTINUOUS
 62
    7
 10
72.527770499999974
 20
467.94998199999998
 11
72.527770499999974
 21
465.44998199999998
  0
LINE
  8
_0-0_0
  6
CONTINUOUS
 62
    7
 10
72.527770499999974
 20
465.44998199999998
 11
72.527770499999974
 21
457.94998199999998
  0
LINE
  8
_0-0_0
  6
CONTINUOUS
 62
    7
 10
71.72776749999997
 20
467.48809799999998
 11
71.72776749999997
 21
465.21905500000003
  0
LINE
  8
_0-0_0
  6
CONTINUOUS
 62
    7
 10
71.72776749999997
 20
465.21905500000003
 11
71.72776749999997
 21
458.41186499999998
  0
LINE
  8
_0-0_0
  6
CONTINUOUS
 62
    7
 10
13.72776749999997
 20
466.94998199999998
 11
13.72776749999997
 21
466.94863900000001
  0
LINE
  8
_0-0_0
  6
CONTINUOUS
 62
    7
 10
13.72776749999997
 20
466.94863900000001
 11
13.72776749999997
 21
458.94998199999998
  0
LINE
  8
_0-0_0
  6
CONTINUOUS
 62
    7
 10
68.927780499999926
 20
452.403076
 11
68.927780499999926
 21
452.39999399999999
  0
LINE
  8
_0-0_0
  6
CONTINUOUS
 62
    7
 10
68.927780499999926
 20
452.42770400000001
 11
68.927780499999926
 21
452.403076
  0
LINE
  8
_0-0_0
  6
CONTINUOUS
 62
    7
 10
68.927780499999926
 20
452.476654
 11
68.927780499999926
 21
452.42770400000001
  0
LINE
  8
_0-0_0
  6
CONTINUOUS
 62
    7
 10
68.927780499999926
 20
452.54943800000001
 11
68.927780499999926
 21
452.476654
  0
LINE
  8
_0-0_0
  6
CONTINUOUS
 62
    7
 10
68.927780499999926
 20
452.64520299999998
 11
68.927780499999926
 21
452.54943800000001
  0
LINE
  8
_0-0_0
  6
CONTINUOUS
 62
    7
 10
68.927780499999926
 20
452.67541499999999
 11
68.927780499999926
 21
452.64520299999998
  0
LINE
  8
_0-0_0
  6
CONTINUOUS
 62
    7
 10
68.927780499999926
 20
452.76297
 11
68.927780499999926
 21
452.67541499999999
  0
LINE
  8
_0-0_0
  6
CONTINUOUS
 62
    7
 10
68.927780499999926
 20
452.90139799999997
 11
68.927780499999926
 21
452.76297
  0
LINE
  8
_0-0_0
  6
CONTINUOUS
 62
    7
 10
68.927780499999926
 20
453.05898999999999
 11
68.927780499999926
 21
452.90139799999997
  0
LINE
  8
_0-0_0
  6
CONTINUOUS
 62
    7
 10
68.927780499999926
 20
453.23400900000001
 11
68.927780499999926
 21
453.05898999999999
  0
LINE
  8
_0-0_0
  6
CONTINUOUS
 62
    7
 10
68.927780499999926
 20
453.42453
 11
68.927780499999926
 21
453.23400900000001
  0
LINE
  8
_0-0_0
  6
CONTINUOUS
 62
    7
 10
68.927780499999926
 20
453.62851000000001
 11
68.927780499999926
 21
453.42453
  0
LINE
  8
_0-0_0
  6
CONTINUOUS
 62
    7
 10
68.927780499999926
 20
453.843658
 11
68.927780499999926
 21
453.62851000000001
  0
LINE
  8
_0-0_0
  6
CONTINUOUS
 62
    7
 10
68.927780499999926
 20
454.06762700000002
 11
68.927780499999926
 21
453.843658
  0
LINE
  8
_0-0_0
  6
CONTINUOUS
 62
    7
 10
68.927780499999926
 20
454.29800399999999
 11
68.927780499999926
 21
454.06762700000002
  0
LINE
  8
_0-0_0
  6
CONTINUOUS
 62
    7
 10
68.927780499999926
 20
454.53222699999998
 11
68.927780499999926
 21
454.29800399999999
  0
LINE
  8
_0-0_0
  6
CONTINUOUS
 62
    7
 10
68.927780499999926
 20
454.76773100000003
 11
68.927780499999926
 21
454.53222699999998
  0
LINE
  8
_0-0_0
  6
CONTINUOUS
 62
    7
 10
68.927780499999926
 20
455.00195300000001
 11
68.927780499999926
 21
454.76773100000003
  0
LINE
  8
_0-0_0
  6
CONTINUOUS
 62
    7
 10
68.927780499999926
 20
455.23232999999999
 11
68.927780499999926
 21
455.00195300000001
  0
LINE
  8
_0-0_0
  6
CONTINUOUS
 62
    7
 10
68.927780499999926
 20
455.456299
 11
68.927780499999926
 21
455.23232999999999
  0
LINE
  8
_0-0_0
  6
CONTINUOUS
 62
    7
 10
68.927780499999926
 20
455.671448
 11
68.927780499999926
 21
455.456299
  0
LINE
  8
_0-0_0
  6
CONTINUOUS
 62
    7
 10
68.927780499999926
 20
455.72869900000001
 11
68.927780499999926
 21
455.671448
  0
LINE
  8
_0-0_0
  6
CONTINUOUS
 62
    7
 10
68.927780499999926
 20
452.403076
 11
68.677780499999926
 21
452.14999399999999
  0
LINE
  8
_0-0_0
  6
CONTINUOUS
 62
    7
 10
68.927780499999926
 20
452.42770400000001
 11
68.677780499999926
 21
452.16369600000002
  0
LINE
  8
_0-0_0
  6
CONTINUOUS
 62
    7
 10
68.927780499999926
 20
452.403076
 11
68.677780499999926
 21
452.16369600000002
  0
LINE
  8
_0-0_0
  6
CONTINUOUS
 62
    7
 10
68.927780499999926
 20
452.476654
 11
68.677780499999926
 21
452.20461999999998
  0
LINE
  8
_0-0_0
  6
CONTINUOUS
 62
    7
 10
68.927780499999926
 20
452.42770400000001
 11
68.677780499999926
 21
452.20461999999998
  0
LINE
  8
_0-0_0
  6
CONTINUOUS
 62
    7
 10
68.927780499999926
 20
452.54943800000001
 11
68.677780499999926
 21
452.27233899999999
  0
LINE
  8
_0-0_0
  6
CONTINUOUS
 62
    7
 10
68.927780499999926
 20
452.476654
 11
68.677780499999926
 21
452.27233899999999
  0
LINE
  8
_0-0_0
  6
CONTINUOUS
 62
    7
 10
68.927780499999926
 20
452.64520299999998
 11
68.677780499999926
 21
452.36611900000003
  0
LINE
  8
_0-0_0
  6
CONTINUOUS
 62
    7
 10
68.927780499999926
 20
452.54943800000001
 11
68.677780499999926
 21
452.36611900000003
  0
LINE
  8
_0-0_0
  6
CONTINUOUS
 62
    7
 10
68.927780499999926
 20
452.64520299999998
 11
68.797805499999981
 21
452.56137100000001
  0
LINE
  8
_0-0_0
  6
CONTINUOUS
 62
    7
 10
68.927780499999926
 20
452.76297
 11
68.677780499999926
 21
452.48492399999998
  0
LINE
  8
_0-0_0
  6
CONTINUOUS
 62
    7
 10
68.797805499999981
 20
452.56137100000001
 11
68.677780499999926
 21
452.48492399999998
  0
LINE
  8
_0-0_0
  6
CONTINUOUS
 62
    7
 10
68.927780499999926
 20
452.90139799999997
 11
68.677780499999926
 21
452.62744099999998
  0
LINE
  8
_0-0_0
  6
CONTINUOUS
 62
    7
 10
68.927780499999926
 20
452.76297
 11
68.677780499999926
 21
452.62744099999998
  0
LINE
  8
_0-0_0
  6
CONTINUOUS
 62
    7
 10
68.927780499999926
 20
453.05898999999999
 11
68.677780499999926
 21
452.79211400000003
  0
LINE
  8
_0-0_0
  6
CONTINUOUS
 62
    7
 10
68.927780499999926
 20
452.90139799999997
 11
68.677780499999926
 21
452.79211400000003
  0
LINE
  8
_0-0_0
  6
CONTINUOUS
 62
    7
 10
68.927780499999926
 20
453.23400900000001
 11
68.677780499999926
 21
452.97717299999999
  0
LINE
  8
_0-0_0
  6
CONTINUOUS
 62
    7
 10
68.927780499999926
 20
453.05898999999999
 11
68.677780499999926
 21
452.97717299999999
  0
LINE
  8
_0-0_0
  6
CONTINUOUS
 62
    7
 10
68.927780499999926
 20
453.42453
 11
68.677780499999926
 21
453.18051100000002
  0
LINE
  8
_0-0_0
  6
CONTINUOUS
 62
    7
 10
68.927780499999926
 20
453.23400900000001
 11
68.677780499999926
 21
453.18051100000002
  0
LINE
  8
_0-0_0
  6
CONTINUOUS
 62
    7
 10
68.927780499999926
 20
453.62851000000001
 11
68.677780499999926
 21
453.39999399999999
  0
LINE
  8
_0-0_0
  6
CONTINUOUS
 62
    7
 10
68.927780499999926
 20
453.42453
 11
68.677780499999926
 21
453.39999399999999
  0
LINE
  8
_0-0_0
  6
CONTINUOUS
 62
    7
 10
68.927780499999926
 20
453.843658
 11
68.677780499999926
 21
453.63314800000001
  0
LINE
  8
_0-0_0
  6
CONTINUOUS
 62
    7
 10
68.927780499999926
 20
453.62851000000001
 11
68.677780499999926
 21
453.63314800000001
  0
LINE
  8
_0-0_0
  6
CONTINUOUS
 62
    7
 10
68.927780499999926
 20
454.06762700000002
 11
68.677780499999926
 21
453.87744099999998
  0
LINE
  8
_0-0_0
  6
CONTINUOUS
 62
    7
 10
68.927780499999926
 20
453.843658
 11
68.677780499999926
 21
453.87744099999998
  0
LINE
  8
_0-0_0
  6
CONTINUOUS
 62
    7
 10
68.927780499999926
 20
454.29800399999999
 11
68.677780499999926
 21
454.13018799999998
  0
LINE
  8
_0-0_0
  6
CONTINUOUS
 62
    7
 10
68.927780499999926
 20
454.06762700000002
 11
68.677780499999926
 21
454.13018799999998
  0
LINE
  8
_0-0_0
  6
CONTINUOUS
 62
    7
 10
68.927780499999926
 20
454.53222699999998
 11
68.677780499999926
 21
454.38867199999999
  0
LINE
  8
_0-0_0
  6
CONTINUOUS
 62
    7
 10
68.927780499999926
 20
454.29800399999999
 11
68.677780499999926
 21
454.38867199999999
  0
LINE
  8
_0-0_0
  6
CONTINUOUS
 62
    7
 10
68.927780499999926
 20
454.76773100000003
 11
68.677780499999926
 21
454.64999399999999
  0
LINE
  8
_0-0_0
  6
CONTINUOUS
 62
    7
 10
68.927780499999926
 20
454.53222699999998
 11
68.677780499999926
 21
454.64999399999999
  0
LINE
  8
_0-0_0
  6
CONTINUOUS
 62
    7
 10
68.927780499999926
 20
455.00195300000001
 11
68.677780499999926
 21
454.911316
  0
LINE
  8
_0-0_0
  6
CONTINUOUS
 62
    7
 10
68.927780499999926
 20
454.76773100000003
 11
68.677780499999926
 21
454.911316
  0
LINE
  8
_0-0_0
  6
CONTINUOUS
 62
    7
 10
68.927780499999926
 20
455.23232999999999
 11
68.677780499999926
 21
455.16976899999997
  0
LINE
  8
_0-0_0
  6
CONTINUOUS
 62
    7
 10
68.927780499999926
 20
455.00195300000001
 11
68.677780499999926
 21
455.16976899999997
  0
LINE
  8
_0-0_0
  6
CONTINUOUS
 62
    7
 10
68.927780499999926
 20
455.456299
 11
68.677780499999926
 21
455.42251599999997
  0
LINE
  8
_0-0_0
  6
CONTINUOUS
 62
    7
 10
68.927780499999926
 20
455.23232999999999
 11
68.677780499999926
 21
455.42251599999997
  0
LINE
  8
_0-0_0
  6
CONTINUOUS
 62
    7
 10
68.927780499999926
 20
455.671448
 11
68.677780499999926
 21
455.666809
  0
LINE
  8
_0-0_0
  6
CONTINUOUS
 62
    7
 10
68.927780499999926
 20
455.456299
 11
68.677780499999926
 21
455.666809
  0
LINE
  8
_0-0_0
  6
CONTINUOUS
 62
    7
 10
68.927780499999926
 20
455.875427
 11
68.927780499999926
 21
455.72869900000001
  0
LINE
  8
_0-0_0
  6
CONTINUOUS
 62
    7
 10
68.927780499999926
 20
455.875427
 11
68.677780499999926
 21
455.89999399999999
  0
LINE
  8
_0-0_0
  6
CONTINUOUS
 62
    7
 10
68.927780499999926
 20
455.671448
 11
68.677780499999926
 21
455.89999399999999
  0
LINE
  8
_0-0_0
  6
CONTINUOUS
 62
    7
 10
68.927780499999926
 20
456.06594799999999
 11
68.927780499999926
 21
455.875427
  0
LINE
  8
_0-0_0
  6
CONTINUOUS
 62
    7
 10
68.927780499999926
 20
456.24096700000001
 11
68.927780499999926
 21
456.06594799999999
  0
LINE
  8
_0-0_0
  6
CONTINUOUS
 62
    7
 10
68.927780499999926
 20
456.39855999999997
 11
68.927780499999926
 21
456.24096700000001
  0
LINE
  8
_0-0_0
  6
CONTINUOUS
 62
    7
 10
68.927780499999926
 20
456.53698700000001
 11
68.927780499999926
 21
456.39855999999997
  0
LINE
  8
_0-0_0
  6
CONTINUOUS
 62
    7
 10
68.927780499999926
 20
456.65475500000002
 11
68.927780499999926
 21
456.53698700000001
  0
LINE
  8
_0-0_0
  6
CONTINUOUS
 62
    7
 10
68.927780499999926
 20
456.89999399999999
 11
68.927780499999926
 21
456.65475500000002
  0
LINE
  8
_0-0_0
  6
CONTINUOUS
 62
    7
 10
68.927780499999926
 20
456.82330300000001
 11
68.927780499999926
 21
456.75054899999998
  0
LINE
  8
_0-0_0
  6
CONTINUOUS
 62
    7
 10
68.927780499999926
 20
456.87228399999998
 11
68.927780499999926
 21
456.82330300000001
  0
LINE
  8
_0-0_0
  6
CONTINUOUS
 62
    7
 10
68.927780499999926
 20
456.89691199999999
 11
68.927780499999926
 21
456.87228399999998
  0
LINE
  8
_0-0_0
  6
CONTINUOUS
 62
    7
 10
68.927780499999926
 20
456.89999399999999
 11
68.927780499999926
 21
456.89691199999999
  0
LINE
  8
_0-0_0
  6
CONTINUOUS
 62
    7
 10
59.177780499999926
 20
452.403076
 11
59.427780499999926
 21
452.14999399999999
  0
LINE
  8
_0-0_0
  6
CONTINUOUS
 62
    7
 10
59.427780499999926
 20
452.14999399999999
 11
68.677780499999926
 21
452.14999399999999
  0
LINE
  8
_0-0_0
  6
CONTINUOUS
 62
    7
 10
59.177780499999926
 20
452.42770400000001
 11
59.427780499999926
 21
452.16369600000002
  0
LINE
  8
_0-0_0
  6
CONTINUOUS
 62
    7
 10
59.427780499999926
 20
452.16369600000002
 11
68.677780499999926
 21
452.16369600000002
  0
LINE
  8
_0-0_0
  6
CONTINUOUS
 62
    7
 10
59.177780499999926
 20
452.403076
 11
59.427780499999926
 21
452.16369600000002
  0
LINE
  8
_0-0_0
  6
CONTINUOUS
 62
    7
 10
59.177780499999926
 20
452.476654
 11
59.427780499999926
 21
452.20461999999998
  0
LINE
  8
_0-0_0
  6
CONTINUOUS
 62
    7
 10
59.427780499999926
 20
452.20461999999998
 11
68.677780499999926
 21
452.20461999999998
  0
LINE
  8
_0-0_0
  6
CONTINUOUS
 62
    7
 10
59.177780499999926
 20
452.42770400000001
 11
59.427780499999926
 21
452.20461999999998
  0
LINE
  8
_0-0_0
  6
CONTINUOUS
 62
    7
 10
59.177780499999926
 20
452.54943800000001
 11
59.427780499999926
 21
452.27233899999999
  0
LINE
  8
_0-0_0
  6
CONTINUOUS
 62
    7
 10
59.427780499999926
 20
452.27233899999999
 11
68.677780499999926
 21
452.27233899999999
  0
LINE
  8
_0-0_0
  6
CONTINUOUS
 62
    7
 10
59.177780499999926
 20
452.476654
 11
59.427780499999926
 21
452.27233899999999
  0
LINE
  8
_0-0_0
  6
CONTINUOUS
 62
    7
 10
59.177780499999926
 20
452.64520299999998
 11
59.427780499999926
 21
452.36611900000003
  0
LINE
  8
_0-0_0
  6
CONTINUOUS
 62
    7
 10
59.427780499999926
 20
452.36611900000003
 11
68.677780499999926
 21
452.36611900000003
  0
LINE
  8
_0-0_0
  6
CONTINUOUS
 62
    7
 10
59.177780499999926
 20
452.54943800000001
 11
59.427780499999926
 21
452.36611900000003
  0
LINE
  8
_0-0_0
  6
CONTINUOUS
 62
    7
 10
59.427780499999926
 20
452.48492399999998
 11
68.677780499999926
 21
452.48492399999998
  0
LINE
  8
_0-0_0
  6
CONTINUOUS
 62
    7
 10
59.307739499999968
 20
452.56137100000001
 11
59.427780499999926
 21
452.48492399999998
  0
LINE
  8
_0-0_0
  6
CONTINUOUS
 62
    7
 10
59.177780499999926
 20
452.64520299999998
 11
59.307739499999968
 21
452.56137100000001
  0
LINE
  8
_0-0_0
  6
CONTINUOUS
 62
    7
 10
59.177780499999926
 20
452.76297
 11
59.427780499999926
 21
452.48492399999998
  0
LINE
  8
_0-0_0
  6
CONTINUOUS
 62
    7
 10
59.177780499999926
 20
452.90139799999997
 11
59.427780499999926
 21
452.62744099999998
  0
LINE
  8
_0-0_0
  6
CONTINUOUS
 62
    7
 10
59.427780499999926
 20
452.62744099999998
 11
68.677780499999926
 21
452.62744099999998
  0
LINE
  8
_0-0_0
  6
CONTINUOUS
 62
    7
 10
59.177780499999926
 20
452.76297
 11
59.427780499999926
 21
452.62744099999998
  0
LINE
  8
_0-0_0
  6
CONTINUOUS
 62
    7
 10
59.177780499999926
 20
453.05898999999999
 11
59.427780499999926
 21
452.79211400000003
  0
LINE
  8
_0-0_0
  6
CONTINUOUS
 62
    7
 10
59.427780499999926
 20
452.79211400000003
 11
68.677780499999926
 21
452.79211400000003
  0
LINE
  8
_0-0_0
  6
CONTINUOUS
 62
    7
 10
59.177780499999926
 20
452.90139799999997
 11
59.427780499999926
 21
452.79211400000003
  0
LINE
  8
_0-0_0
  6
CONTINUOUS
 62
    7
 10
59.177780499999926
 20
453.23400900000001
 11
59.427780499999926
 21
452.97717299999999
  0
LINE
  8
_0-0_0
  6
CONTINUOUS
 62
    7
 10
59.427780499999926
 20
452.97717299999999
 11
68.677780499999926
 21
452.97717299999999
  0
LINE
  8
_0-0_0
  6
CONTINUOUS
 62
    7
 10
59.177780499999926
 20
453.05898999999999
 11
59.427780499999926
 21
452.97717299999999
  0
LINE
  8
_0-0_0
  6
CONTINUOUS
 62
    7
 10
59.177780499999926
 20
453.42453
 11
59.427780499999926
 21
453.18051100000002
  0
LINE
  8
_0-0_0
  6
CONTINUOUS
 62
    7
 10
59.427780499999926
 20
453.18051100000002
 11
68.677780499999926
 21
453.18051100000002
  0
LINE
  8
_0-0_0
  6
CONTINUOUS
 62
    7
 10
59.177780499999926
 20
453.23400900000001
 11
59.427780499999926
 21
453.18051100000002
  0
LINE
  8
_0-0_0
  6
CONTINUOUS
 62
    7
 10
59.177780499999926
 20
453.62851000000001
 11
59.427780499999926
 21
453.39999399999999
  0
LINE
  8
_0-0_0
  6
CONTINUOUS
 62
    7
 10
59.427780499999926
 20
453.39999399999999
 11
68.677780499999926
 21
453.39999399999999
  0
LINE
  8
_0-0_0
  6
CONTINUOUS
 62
    7
 10
59.177780499999926
 20
453.62851000000001
 11
68.927780499999926
 21
453.62851000000001
  0
LINE
  8
_0-0_0
  6
CONTINUOUS
 62
    7
 10
59.177780499999926
 20
453.42453
 11
59.427780499999926
 21
453.39999399999999
  0
LINE
  8
_0-0_0
  6
CONTINUOUS
 62
    7
 10
59.177780499999926
 20
453.843658
 11
59.427780499999926
 21
453.63314800000001
  0
LINE
  8
_0-0_0
  6
CONTINUOUS
 62
    7
 10
59.427780499999926
 20
453.63314800000001
 11
68.677780499999926
 21
453.63314800000001
  0
LINE
  8
_0-0_0
  6
CONTINUOUS
 62
    7
 10
59.177780499999926
 20
453.843658
 11
68.927780499999926
 21
453.843658
  0
LINE
  8
_0-0_0
  6
CONTINUOUS
 62
    7
 10
59.177780499999926
 20
453.62851000000001
 11
59.427780499999926
 21
453.63314800000001
  0
LINE
  8
_0-0_0
  6
CONTINUOUS
 62
    7
 10
59.177780499999926
 20
454.06762700000002
 11
59.427780499999926
 21
453.87744099999998
  0
LINE
  8
_0-0_0
  6
CONTINUOUS
 62
    7
 10
59.427780499999926
 20
453.87744099999998
 11
68.677780499999926
 21
453.87744099999998
  0
LINE
  8
_0-0_0
  6
CONTINUOUS
 62
    7
 10
59.177780499999926
 20
454.06762700000002
 11
68.927780499999926
 21
454.06762700000002
  0
LINE
  8
_0-0_0
  6
CONTINUOUS
 62
    7
 10
59.177780499999926
 20
453.843658
 11
59.427780499999926
 21
453.87744099999998
  0
LINE
  8
_0-0_0
  6
CONTINUOUS
 62
    7
 10
59.177780499999926
 20
454.29800399999999
 11
59.427780499999926
 21
454.13018799999998
  0
LINE
  8
_0-0_0
  6
CONTINUOUS
 62
    7
 10
59.427780499999926
 20
454.13018799999998
 11
68.677780499999926
 21
454.13018799999998
  0
LINE
  8
_0-0_0
  6
CONTINUOUS
 62
    7
 10
59.177780499999926
 20
454.29800399999999
 11
68.927780499999926
 21
454.29800399999999
  0
LINE
  8
_0-0_0
  6
CONTINUOUS
 62
    7
 10
59.177780499999926
 20
454.06762700000002
 11
59.427780499999926
 21
454.13018799999998
  0
LINE
  8
_0-0_0
  6
CONTINUOUS
 62
    7
 10
59.177780499999926
 20
454.53222699999998
 11
59.427780499999926
 21
454.38867199999999
  0
LINE
  8
_0-0_0
  6
CONTINUOUS
 62
    7
 10
59.427780499999926
 20
454.38867199999999
 11
68.677780499999926
 21
454.38867199999999
  0
LINE
  8
_0-0_0
  6
CONTINUOUS
 62
    7
 10
59.177780499999926
 20
454.53222699999998
 11
68.927780499999926
 21
454.53222699999998
  0
LINE
  8
_0-0_0
  6
CONTINUOUS
 62
    7
 10
59.177780499999926
 20
454.29800399999999
 11
59.427780499999926
 21
454.38867199999999
  0
LINE
  8
_0-0_0
  6
CONTINUOUS
 62
    7
 10
59.177780499999926
 20
454.76773100000003
 11
59.427780499999926
 21
454.64999399999999
  0
LINE
  8
_0-0_0
  6
CONTINUOUS
 62
    7
 10
59.427780499999926
 20
454.64999399999999
 11
68.677780499999926
 21
454.64999399999999
  0
LINE
  8
_0-0_0
  6
CONTINUOUS
 62
    7
 10
59.177780499999926
 20
454.76773100000003
 11
68.927780499999926
 21
454.76773100000003
  0
LINE
  8
_0-0_0
  6
CONTINUOUS
 62
    7
 10
59.177780499999926
 20
454.53222699999998
 11
59.427780499999926
 21
454.64999399999999
  0
LINE
  8
_0-0_0
  6
CONTINUOUS
 62
    7
 10
59.177780499999926
 20
455.00195300000001
 11
59.427780499999926
 21
454.911316
  0
LINE
  8
_0-0_0
  6
CONTINUOUS
 62
    7
 10
59.427780499999926
 20
454.911316
 11
68.677780499999926
 21
454.911316
  0
LINE
  8
_0-0_0
  6
CONTINUOUS
 62
    7
 10
59.177780499999926
 20
455.00195300000001
 11
68.927780499999926
 21
455.00195300000001
  0
LINE
  8
_0-0_0
  6
CONTINUOUS
 62
    7
 10
59.177780499999926
 20
454.76773100000003
 11
59.427780499999926
 21
454.911316
  0
LINE
  8
_0-0_0
  6
CONTINUOUS
 62
    7
 10
59.177780499999926
 20
455.23232999999999
 11
59.427780499999926
 21
455.16976899999997
  0
LINE
  8
_0-0_0
  6
CONTINUOUS
 62
    7
 10
59.427780499999926
 20
455.16976899999997
 11
68.677780499999926
 21
455.16976899999997
  0
LINE
  8
_0-0_0
  6
CONTINUOUS
 62
    7
 10
59.177780499999926
 20
455.23232999999999
 11
68.927780499999926
 21
455.23232999999999
  0
LINE
  8
_0-0_0
  6
CONTINUOUS
 62
    7
 10
59.177780499999926
 20
455.00195300000001
 11
59.427780499999926
 21
455.16976899999997
  0
LINE
  8
_0-0_0
  6
CONTINUOUS
 62
    7
 10
59.177780499999926
 20
455.456299
 11
59.427780499999926
 21
455.42251599999997
  0
LINE
  8
_0-0_0
  6
CONTINUOUS
 62
    7
 10
59.427780499999926
 20
455.42251599999997
 11
68.677780499999926
 21
455.42251599999997
  0
LINE
  8
_0-0_0
  6
CONTINUOUS
 62
    7
 10
59.177780499999926
 20
455.456299
 11
68.927780499999926
 21
455.456299
  0
LINE
  8
_0-0_0
  6
CONTINUOUS
 62
    7
 10
59.177780499999926
 20
455.23232999999999
 11
59.427780499999926
 21
455.42251599999997
  0
LINE
  8
_0-0_0
  6
CONTINUOUS
 62
    7
 10
59.177780499999926
 20
455.671448
 11
59.427780499999926
 21
455.666809
  0
LINE
  8
_0-0_0
  6
CONTINUOUS
 62
    7
 10
59.427780499999926
 20
455.666809
 11
68.677780499999926
 21
455.666809
  0
LINE
  8
_0-0_0
  6
CONTINUOUS
 62
    7
 10
59.177780499999926
 20
455.671448
 11
68.927780499999926
 21
455.671448
  0
LINE
  8
_0-0_0
  6
CONTINUOUS
 62
    7
 10
59.177780499999926
 20
455.456299
 11
59.427780499999926
 21
455.666809
  0
LINE
  8
_0-0_0
  6
CONTINUOUS
 62
    7
 10
59.177780499999926
 20
455.875427
 11
59.427780499999926
 21
455.89999399999999
  0
LINE
  8
_0-0_0
  6
CONTINUOUS
 62
    7
 10
59.427780499999926
 20
455.89999399999999
 11
68.677780499999926
 21
455.89999399999999
  0
LINE
  8
_0-0_0
  6
CONTINUOUS
 62
    7
 10
59.177780499999926
 20
455.671448
 11
59.427780499999926
 21
455.89999399999999
  0
LINE
  8
_0-0_0
  6
CONTINUOUS
 62
    7
 10
68.927780499999926
 20
456.06594799999999
 11
68.677780499999926
 21
456.11944599999998
  0
LINE
  8
_0-0_0
  6
CONTINUOUS
 62
    7
 10
68.927780499999926
 20
455.875427
 11
68.677780499999926
 21
456.11944599999998
  0
LINE
  8
_0-0_0
  6
CONTINUOUS
 62
    7
 10
68.927780499999926
 20
456.24096700000001
 11
68.677780499999926
 21
456.32281499999999
  0
LINE
  8
_0-0_0
  6
CONTINUOUS
 62
    7
 10
68.927780499999926
 20
456.06594799999999
 11
68.677780499999926
 21
456.32281499999999
  0
LINE
  8
_0-0_0
  6
CONTINUOUS
 62
    7
 10
68.927780499999926
 20
456.39855999999997
 11
68.677780499999926
 21
456.50784299999998
  0
LINE
  8
_0-0_0
  6
CONTINUOUS
 62
    7
 10
68.927780499999926
 20
456.24096700000001
 11
68.677780499999926
 21
456.50784299999998
  0
LINE
  8
_0-0_0
  6
CONTINUOUS
 62
    7
 10
68.927780499999926
 20
456.53698700000001
 11
68.677780499999926
 21
456.67251599999997
  0
LINE
  8
_0-0_0
  6
CONTINUOUS
 62
    7
 10
68.927780499999926
 20
456.39855999999997
 11
68.677780499999926
 21
456.67251599999997
  0
LINE
  8
_0-0_0
  6
CONTINUOUS
 62
    7
 10
68.927780499999926
 20
456.65475500000002
 11
68.677780499999926
 21
456.81506300000001
  0
LINE
  8
_0-0_0
  6
CONTINUOUS
 62
    7
 10
68.927780499999926
 20
456.53698700000001
 11
68.677780499999926
 21
456.81506300000001
  0
LINE
  8
_0-0_0
  6
CONTINUOUS
 62
    7
 10
68.927780499999926
 20
456.75054899999998
 11
68.677780499999926
 21
456.93383799999998
  0
LINE
  8
_0-0_0
  6
CONTINUOUS
 62
    7
 10
68.927780499999926
 20
456.65475500000002
 11
68.677780499999926
 21
456.93383799999998
  0
LINE
  8
_0-0_0
  6
CONTINUOUS
 62
    7
 10
68.927780499999926
 20
456.82330300000001
 11
68.677780499999926
 21
457.02761800000002
  0
LINE
  8
_0-0_0
  6
CONTINUOUS
 62
    7
 10
68.927780499999926
 20
456.75054899999998
 11
68.677780499999926
 21
457.02761800000002
  0
LINE
  8
_0-0_0
  6
CONTINUOUS
 62
    7
 10
68.927780499999926
 20
456.87228399999998
 11
68.677780499999926
 21
457.09533699999997
  0
LINE
  8
_0-0_0
  6
CONTINUOUS
 62
    7
 10
68.927780499999926
 20
456.82330300000001
 11
68.677780499999926
 21
457.09533699999997
  0
LINE
  8
_0-0_0
  6
CONTINUOUS
 62
    7
 10
68.927780499999926
 20
456.89691199999999
 11
68.677780499999926
 21
457.13629200000003
  0
LINE
  8
_0-0_0
  6
CONTINUOUS
 62
    7
 10
68.927780499999926
 20
456.87228399999998
 11
68.677780499999926
 21
457.13629200000003
  0
LINE
  8
_0-0_0
  6
CONTINUOUS
 62
    7
 10
68.927780499999926
 20
456.89691199999999
 11
68.677780499999926
 21
457.14999399999999
  0
LINE
  8
_0-0_0
  6
CONTINUOUS
 62
    7
 10
58.927780499999926
 20
452.894836
 11
58.927780499999926
 21
452.64999399999999
  0
LINE
  8
_0-0_0
  6
CONTINUOUS
 62
    7
 10
59.177780499999926
 20
455.875427
 11
59.427780499999926
 21
456.11944599999998
  0
LINE
  8
_0-0_0
  6
CONTINUOUS
 62
    7
 10
59.177780499999926
 20
456.06594799999999
 11
59.427780499999926
 21
456.11944599999998
  0
LINE
  8
_0-0_0
  6
CONTINUOUS
 62
    7
 10
59.177780499999926
 20
456.06594799999999
 11
59.427780499999926
 21
456.32281499999999
  0
LINE
  8
_0-0_0
  6
CONTINUOUS
 62
    7
 10
59.177780499999926
 20
456.24096700000001
 11
59.427780499999926
 21
456.32281499999999
  0
LINE
  8
_0-0_0
  6
CONTINUOUS
 62
    7
 10
59.177780499999926
 20
456.24096700000001
 11
59.427780499999926
 21
456.50784299999998
  0
LINE
  8
_0-0_0
  6
CONTINUOUS
 62
    7
 10
59.177780499999926
 20
456.39855999999997
 11
59.427780499999926
 21
456.50784299999998
  0
LINE
  8
_0-0_0
  6
CONTINUOUS
 62
    7
 10
59.177780499999926
 20
456.39855999999997
 11
59.427780499999926
 21
456.67251599999997
  0
LINE
  8
_0-0_0
  6
CONTINUOUS
 62
    7
 10
59.177780499999926
 20
456.53698700000001
 11
59.427780499999926
 21
456.67251599999997
  0
LINE
  8
_0-0_0
  6
CONTINUOUS
 62
    7
 10
59.177780499999926
 20
456.53698700000001
 11
59.427780499999926
 21
456.81506300000001
  0
LINE
  8
_0-0_0
  6
CONTINUOUS
 62
    7
 10
59.177780499999926
 20
456.65475500000002
 11
59.427780499999926
 21
456.81506300000001
  0
LINE
  8
_0-0_0
  6
CONTINUOUS
 62
    7
 10
59.177780499999926
 20
456.65475500000002
 11
59.427780499999926
 21
456.93383799999998
  0
LINE
  8
_0-0_0
  6
CONTINUOUS
 62
    7
 10
59.177780499999926
 20
456.75054899999998
 11
59.427780499999926
 21
456.93383799999998
  0
LINE
  8
_0-0_0
  6
CONTINUOUS
 62
    7
 10
59.177780499999926
 20
456.75054899999998
 11
59.427780499999926
 21
457.02761800000002
  0
LINE
  8
_0-0_0
  6
CONTINUOUS
 62
    7
 10
59.177780499999926
 20
456.82330300000001
 11
59.427780499999926
 21
457.02761800000002
  0
LINE
  8
_0-0_0
  6
CONTINUOUS
 62
    7
 10
59.177780499999926
 20
456.82330300000001
 11
59.427780499999926
 21
457.09533699999997
  0
LINE
  8
_0-0_0
  6
CONTINUOUS
 62
    7
 10
59.177780499999926
 20
456.87228399999998
 11
59.427780499999926
 21
457.09533699999997
  0
LINE
  8
_0-0_0
  6
CONTINUOUS
 62
    7
 10
59.177780499999926
 20
456.87228399999998
 11
59.427780499999926
 21
457.13629200000003
  0
LINE
  8
_0-0_0
  6
CONTINUOUS
 62
    7
 10
59.177780499999926
 20
456.89691199999999
 11
59.427780499999926
 21
457.13629200000003
  0
LINE
  8
_0-0_0
  6
CONTINUOUS
 62
    7
 10
59.177780499999926
 20
456.89691199999999
 11
59.427780499999926
 21
457.14999399999999
  0
LINE
  8
_0-0_0
  6
CONTINUOUS
 62
    7
 10
58.927780499999926
 20
456.64999399999999
 11
58.927780499999926
 21
452.894836
  0
LINE
  8
_0-0_0
  6
CONTINUOUS
 62
    7
 10
59.427780499999926
 20
456.11944599999998
 11
68.677780499999926
 21
456.11944599999998
  0
LINE
  8
_0-0_0
  6
CONTINUOUS
 62
    7
 10
59.427780499999926
 20
456.32281499999999
 11
68.677780499999926
 21
456.32281499999999
  0
LINE
  8
_0-0_0
  6
CONTINUOUS
 62
    7
 10
59.427780499999926
 20
456.50784299999998
 11
68.677780499999926
 21
456.50784299999998
  0
LINE
  8
_0-0_0
  6
CONTINUOUS
 62
    7
 10
59.427780499999926
 20
456.67251599999997
 11
68.677780499999926
 21
456.67251599999997
  0
LINE
  8
_0-0_0
  6
CONTINUOUS
 62
    7
 10
59.427780499999926
 20
456.81506300000001
 11
68.677780499999926
 21
456.81506300000001
  0
LINE
  8
_0-0_0
  6
CONTINUOUS
 62
    7
 10
59.427780499999926
 20
456.93383799999998
 11
68.677780499999926
 21
456.93383799999998
  0
LINE
  8
_0-0_0
  6
CONTINUOUS
 62
    7
 10
59.427780499999926
 20
457.02761800000002
 11
68.677780499999926
 21
457.02761800000002
  0
LINE
  8
_0-0_0
  6
CONTINUOUS
 62
    7
 10
59.427780499999926
 20
457.09533699999997
 11
68.677780499999926
 21
457.09533699999997
  0
LINE
  8
_0-0_0
  6
CONTINUOUS
 62
    7
 10
59.427780499999926
 20
457.13629200000003
 11
68.677780499999926
 21
457.13629200000003
  0
LINE
  8
_0-0_0
  6
CONTINUOUS
 62
    7
 10
59.427780499999926
 20
457.14999399999999
 11
68.677780499999926
 21
457.14999399999999
  0
LINE
  8
_0-0_0
  6
CONTINUOUS
 62
    7
 10
94.927780499999926
 20
473.5
 11
68.927780499999926
 21
473.5
  0
LINE
  8
_0-0_0
  6
CONTINUOUS
 62
    7
 10
94.927780499999926
 20
469
 11
68.927780499999926
 21
469
  0
LINE
  8
_0-0_0
  6
CONTINUOUS
 62
    7
 10
195.92779549999995
 20
456.89999399999999
 11
198.38345349999997
 21
456.89999399999999
  0
LINE
  8
_0-0_0
  6
CONTINUOUS
 62
    7
 10
197.88238549999994
 20
452.39999399999999
 11
198.38345349999997
 21
452.39999399999999
  0
LINE
  8
_0-0_0
  6
CONTINUOUS
 62
    7
 10
68.927780499999926
 20
473.5
 11
68.677780499999926
 21
473.75
  0
LINE
  8
_0-0_0
  6
CONTINUOUS
 62
    7
 10
68.927780499999926
 20
469
 11
68.677780499999926
 21
468.75
  0
LINE
  8
_0-0_0
  6
CONTINUOUS
 62
    7
 10
198.52780149999995
 20
456.64999399999999
 11
198.38345349999997
 21
456.89999399999999
  0
LINE
  8
_0-0_0
  6
CONTINUOUS
 62
    7
 10
198.52780149999995
 20
452.64999399999999
 11
198.38345349999997
 21
452.39999399999999
  0
LINE
  8
_0-0_0
  6
CONTINUOUS
 62
    7
 10
72.927780499999926
 20
457.69998199999998
 11
74.177780499999926
 21
456.44998199999998
  0
LINE
  8
_0-0_0
  6
CONTINUOUS
 62
    7
 10
72.927780499999926
 20
468.19998199999998
 11
73.72776749999997
 21
468.99996900000002
  0
LINE
  8
_0-0_0
  6
CONTINUOUS
 62
    7
 10
58.927780499999926
 20
473.25
 11
59.427627499999971
 21
473.74981700000001
  0
LINE
  8
_0-0_0
  6
CONTINUOUS
 62
    7
 10
58.927780499999926
 20
469.25
 11
59.427627499999971
 21
468.75015300000001
  0
LINE
  8
_0-0_0
  6
CONTINUOUS
 62
    7
 10
72.927780499999926
 20
467.94998199999998
 11
72.527770499999974
 21
467.94998199999998
  0
LINE
  8
_0-0_0
  6
CONTINUOUS
 62
    7
 10
72.927780499999926
 20
457.94998199999998
 11
72.527770499999974
 21
457.94998199999998
  0
LINE
  8
_0-0_0
  6
CONTINUOUS
 62
    7
 10
71.72776749999997
 20
467.48809799999998
 11
72.527770499999974
 21
467.94998199999998
  0
LINE
  8
_0-0_0
  6
CONTINUOUS
 62
    7
 10
71.72776749999997
 20
458.41186499999998
 11
72.527770499999974
 21
457.94998199999998
  0
LINE
  8
_0-0_0
  6
CONTINUOUS
 62
    7
 10
71.72776749999997
 20
466.94998199999998
 11
13.72776749999997
 21
466.94998199999998
  0
LINE
  8
_0-0_0
  6
CONTINUOUS
 62
    7
 10
71.72776749999997
 20
458.94998199999998
 11
13.72776749999997
 21
458.94998199999998
  0
LINE
  8
_0-0_0
  6
CONTINUOUS
 62
    7
 10
89.177749499999948
 20
452.39999399999999
 11
68.927780499999926
 21
452.39999399999999
  0
LINE
  8
_0-0_0
  6
CONTINUOUS
 62
    7
 10
68.927780499999926
 20
452.39999399999999
 11
68.677780499999926
 21
452.14999399999999
  0
LINE
  8
_0-0_0
  6
CONTINUOUS
 62
    7
 10
73.72776749999997
 20
456.89999399999999
 11
68.927780499999926
 21
456.89999399999999
  0
LINE
  8
_0-0_0
  6
CONTINUOUS
 62
    7
 10
68.927780499999926
 20
456.89999399999999
 11
68.677780499999926
 21
457.14999399999999
  0
LINE
  8
_0-0_0
  6
CONTINUOUS
 62
    7
 10
58.927780499999926
 20
452.64999399999999
 11
59.427627499999971
 21
452.15014600000001
  0
LINE
  8
_0-0_0
  6
CONTINUOUS
 62
    7
 10
58.927780499999926
 20
456.64999399999999
 11
59.427627499999971
 21
457.14984099999998
  0
LINE
  8
_0-0_0
  6
CONTINUOUS
 62
    7
 10
-14.583221500000036
 20
505.14999399999999
 11
-14.583221500000036
 21
492.14999399999999
  0
LINE
  8
_0-0_0
  6
CONTINUOUS
 62
    7
 10
-14.38322450000004
 20
505.14999399999999
 11
-14.583221500000036
 21
505.14999399999999
  0
LINE
  8
_0-0_0
  6
CONTINUOUS
 62
    7
 10
-14.38322450000004
 20
492.14999399999999
 11
-14.583221500000036
 21
492.14999399999999
  0
LINE
  8
_0-0_0
  6
CONTINUOUS
 62
    7
 10
-14.38322450000004
 20
505.14999399999999
 11
-14.38322450000004
 21
523.75
  0
LINE
  8
_0-0_0
  6
CONTINUOUS
 62
    7
 10
-14.283218500000032
 20
523.75
 11
-14.38322450000004
 21
523.75
  0
LINE
  8
_0-0_0
  6
CONTINUOUS
 62
    7
 10
-14.283218500000032
 20
526.25
 11
-14.283218500000032
 21
523.75
  0
ARC
  8
_0-0_0
  6
CONTINUOUS
 62
    7
 10
-14.783218500000032
 20
526.25
 40
0.5
 50
0
 51
90.000003000000007
  0
LINE
  8
_0-0_0
  6
CONTINUOUS
 62
    7
 10
-14.783218500000032
 20
526.75
 11
-17.783218500000032
 21
526.75
  0
ARC
  8
_0-0_0
  6
CONTINUOUS
 62
    7
 10
-17.783218500000032
 20
526.25
 40
0.5
 50
90.000003000000007
 51
179.99999099999999
  0
ARC
  8
_0-0_0
  6
CONTINUOUS
 62
    7
 10
-22.283218500000032
 20
478.75
 40
0.5
 50
179.99999099999999
 51
269.99999700000001
  0
LINE
  8
_0-0_0
  6
CONTINUOUS
 62
    7
 10
-19.783218500000032
 20
478.25
 11
-22.283218500000032
 21
478.25
  0
ARC
  8
_0-0_0
  6
CONTINUOUS
 62
    7
 10
-19.783218500000032
 20
478.75
 40
0.5
 50
269.99999700000001
 51
0
  0
LINE
  8
_0-0_0
  6
CONTINUOUS
 62
    7
 10
-19.283218500000032
 20
483.75
 11
-19.283218500000032
 21
478.75
  0
ARC
  8
_0-0_0
  6
CONTINUOUS
 62
    7
 10
-18.783218500000032
 20
483.75
 40
0.5
 50
90.000003000000007
 51
179.99999099999999
  0
LINE
  8
_0-0_0
  6
CONTINUOUS
 62
    7
 10
-14.783218500000032
 20
484.25
 11
-18.783218500000032
 21
484.25
  0
ARC
  8
_0-0_0
  6
CONTINUOUS
 62
    7
 10
-14.783218500000032
 20
484.75
 40
0.5
 50
269.99999700000001
 51
0
  0
LINE
  8
_0-0_0
  6
CONTINUOUS
 62
    7
 10
-14.283218500000032
 20
487.94998199999998
 11
-14.283218500000032
 21
484.75
  0
LINE
  8
_0-0_0
  6
CONTINUOUS
 62
    7
 10
-14.38322450000004
 20
487.94998199999998
 11
-14.283218500000032
 21
487.94998199999998
  0
LINE
  8
_0-0_0
  6
CONTINUOUS
 62
    7
 10
-14.38322450000004
 20
487.94998199999998
 11
-14.38322450000004
 21
492.14999399999999
  0
LINE
  8
_0-0_0
  6
CONTINUOUS
 62
    7
 10
-15.283218500000032
 20
526.25
 11
-33.083221500000036
 21
526.25
  0
ARC
  8
_0-0_0
  6
CONTINUOUS
 62
    7
 10
-15.283218500000032
 20
525.75
 40
0.5
 50
0
 51
90.000003000000007
  0
LINE
  8
_0-0_0
  6
CONTINUOUS
 62
    7
 10
-14.783218500000032
 20
525.75
 11
-14.783218500000032
 21
485.25
  0
ARC
  8
_0-0_0
  6
CONTINUOUS
 62
    7
 10
-15.283218500000032
 20
485.25
 40
0.5
 50
269.99999700000001
 51
0
  0
LINE
  8
_0-0_0
  6
CONTINUOUS
 62
    7
 10
-18.783218500000032
 20
484.75
 11
-15.283218500000032
 21
484.75
  0
ARC
  8
_0-0_0
  6
CONTINUOUS
 62
    7
 10
-18.783218500000032
 20
483.75
 40
1
 50
90.000003000000007
 51
179.99999099999999
  0
LINE
  8
_0-0_0
  6
CONTINUOUS
 62
    7
 10
-19.783218500000032
 20
483.75
 11
-19.783218500000032
 21
479.25
  0
ARC
  8
_0-0_0
  6
CONTINUOUS
 62
    7
 10
-20.283218500000032
 20
479.25
 40
0.5
 50
269.99999700000001
 51
0
  0
LINE
  8
_0-0_0
  6
CONTINUOUS
 62
    7
 10
-37.283218500000032
 20
478.75
 11
-20.283218500000032
 21
478.75
  0
LINE
  8
_0-0_0
  6
CONTINUOUS
 62
    7
 10
-18.783218500000032
 20
526.44998199999998
 11
-18.783218500000032
 21
526.25
  0
ARC
  8
_0-0_0
  6
CONTINUOUS
 62
    7
 10
-19.083221500000036
 20
526.44998199999998
 40
0.2999999999999999
 50
0
 51
90.000003000000007
  0
LINE
  8
_0-0_0
  6
CONTINUOUS
 62
    7
 10
-19.083221500000036
 20
526.75
 11
-33.783218500000032
 21
526.75
  0
ARC
  8
_0-0_0
  6
CONTINUOUS
 62
    7
 10
-33.783218500000032
 20
526.44998199999998
 40
0.2999999999999999
 50
90.000003000000007
 51
179.99999099999999
  0
LINE
  8
_0-0_0
  6
CONTINUOUS
 62
    7
 10
-34.083221500000036
 20
526.44998199999998
 11
-34.083221500000036
 21
523.25
  0
LINE
  8
_0-0_0
  6
CONTINUOUS
 62
    7
 10
-34.083221500000036
 20
523.25
 11
-39.783218500000032
 21
523.25
  0
LINE
  8
_0-0_0
  6
CONTINUOUS
 62
    7
 10
-39.783218500000032
 20
523.25
 11
-40.583221500000036
 21
522.44998199999998
  0
ARC
  8
_0-0_0
  6
CONTINUOUS
 62
    7
 10
-33.083221500000036
 20
525.75
 40
0.5
 50
90.000003000000007
 51
179.99999099999999
  0
LINE
  8
_0-0_0
  6
CONTINUOUS
 62
    7
 10
-33.583221500000036
 20
525.75
 11
-33.583221500000036
 21
522.94998199999998
  0
ARC
  8
_0-0_0
  6
CONTINUOUS
 62
    7
 10
-34.083221500000036
 20
522.94998199999998
 40
0.5
 50
269.99999700000001
 51
0
  0
LINE
  8
_0-0_0
  6
CONTINUOUS
 62
    7
 10
-34.083221500000036
 20
522.44998199999998
 11
-42.283218500000032
 21
522.44998199999998
  0
ARC
  8
_0-0_0
  6
CONTINUOUS
 62
    7
 10
-42.283218500000032
 20
521.94998199999998
 40
0.5
 50
90.000003000000007
 51
179.99999099999999
  0
LINE
  8
_0-0_0
  6
CONTINUOUS
 62
    7
 10
-42.783218500000032
 20
485.25
 11
-42.783218500000032
 21
521.94998199999998
  0
ARC
  8
_0-0_0
  6
CONTINUOUS
 62
    7
 10
-42.283218500000032
 20
485.25
 40
0.5
 50
179.99999099999999
 51
269.99999700000001
  0
LINE
  8
_0-0_0
  6
CONTINUOUS
 62
    7
 10
-42.283218500000032
 20
484.75
 11
-38.783218500000032
 21
484.75
  0
ARC
  8
_0-0_0
  6
CONTINUOUS
 62
    7
 10
-38.783218500000032
 20
483.75
 40
1
 50
0
 51
90.000003000000007
  0
LINE
  8
_0-0_0
  6
CONTINUOUS
 62
    7
 10
-37.783218500000032
 20
479.25
 11
-37.783218500000032
 21
483.75
  0
ARC
  8
_0-0_0
  6
CONTINUOUS
 62
    7
 10
-37.283218500000032
 20
479.25
 40
0.5
 50
179.99999099999999
 51
269.99999700000001
  0
CIRCLE
  8
_0-0_0
  6
CONTINUOUS
 62
    7
 10
-28.783218500000032
 20
487.75
 40
2.0670000000000002
  0
LINE
  8
_0-0_0
  6
CONTINUOUS
 62
    7
 10
-40.783218500000032
 20
522.75
 11
-40.783218500000032
 21
522.44998199999998
  0
LINE
  8
_0-0_0
  6
CONTINUOUS
 62
    7
 10
-40.783218500000032
 20
522.75
 11
-42.783218500000032
 21
522.75
  0
ARC
  8
_0-0_0
  6
CONTINUOUS
 62
    7
 10
-42.783218500000032
 20
522.25
 40
0.5
 50
90.000003000000007
 51
179.99999099999999
  0
LINE
  8
_0-0_0
  6
CONTINUOUS
 62
    7
 10
-43.283218500000032
 20
522.25
 11
-43.283218500000032
 21
484.75
  0
ARC
  8
_0-0_0
  6
CONTINUOUS
 62
    7
 10
-42.783218500000032
 20
484.75
 40
0.5
 50
179.99999099999999
 51
269.99999700000001
  0
LINE
  8
_0-0_0
  6
CONTINUOUS
 62
    7
 10
-38.783218500000032
 20
484.25
 11
-42.783218500000032
 21
484.25
  0
ARC
  8
_0-0_0
  6
CONTINUOUS
 62
    7
 10
-38.783218500000032
 20
483.75
 40
0.5
 50
0
 51
90.000003000000007
  0
LINE
  8
_0-0_0
  6
CONTINUOUS
 62
    7
 10
-38.283218500000032
 20
478.75
 11
-38.283218500000032
 21
483.75
  0
ARC
  8
_0-0_0
  6
CONTINUOUS
 62
    7
 10
-37.783218500000032
 20
478.75
 40
0.5
 50
179.99999099999999
 51
269.99999700000001
  0
LINE
  8
_0-0_0
  6
CONTINUOUS
 62
    7
 10
-37.783218500000032
 20
478.25
 11
-35.283218500000032
 21
478.25
  0
ARC
  8
_0-0_0
  6
CONTINUOUS
 62
    7
 10
-35.283218500000032
 20
478.75
 40
0.5
 50
269.99999700000001
 51
0
  0
LINE
  8
_0-0_0
  6
CONTINUOUS
 62
    7
 10
-19.283218500000032
 20
478.75
 11
-19.183227500000044
 21
478.75
  0
LINE
  8
_0-0_0
  6
CONTINUOUS
 62
    7
 10
-19.183227500000044
 20
478.75
 11
-19.183227500000044
 21
479.25
  0
LINE
  8
_0-0_0
  6
CONTINUOUS
 62
    7
 10
-19.183227500000044
 20
483.25
 11
-19.183227500000044
 21
479.25
  0
LINE
  8
_0-0_0
  6
CONTINUOUS
 62
    7
 10
-19.283218500000032
 20
483.75
 11
-19.183227500000044
 21
483.75
  0
LINE
  8
_0-0_0
  6
CONTINUOUS
 62
    7
 10
-19.183227500000044
 20
483.25
 11
-19.183227500000044
 21
483.75
  0
LINE
  8
_0-0_0
  6
CONTINUOUS
 62
    7
 10
-19.083221500000036
 20
479.25
 11
-19.083221500000036
 21
479.38034099999999
  0
LINE
  8
_0-0_0
  6
CONTINUOUS
 62
    7
 10
-19.083221500000036
 20
482.88034099999999
 11
-19.083221500000036
 21
479.38034099999999
  0
LINE
  8
_0-0_0
  6
CONTINUOUS
 62
    7
 10
-19.183227500000044
 20
483.14999399999999
 11
-19.083221500000036
 21
483.14999399999999
  0
LINE
  8
_0-0_0
  6
CONTINUOUS
 62
    7
 10
-19.083221500000036
 20
482.88034099999999
 11
-19.083221500000036
 21
483.14999399999999
  0
LINE
  8
_0-0_0
  6
CONTINUOUS
 62
    7
 10
-19.183227500000044
 20
479.25
 11
-19.083221500000036
 21
479.25
  0
LINE
  8
_0-0_0
  6
CONTINUOUS
 62
    7
 10
-19.183227500000044
 20
479.25
 11
-19.083221500000036
 21
479.25
  0
LINE
  8
_0-0_0
  6
CONTINUOUS
 62
    7
 10
-37.583221500000036
 20
476.25
 11
-33.38322450000004
 21
476.25
  0
LINE
  8
_0-0_0
  6
CONTINUOUS
 62
    7
 10
-21.783218500000032
 20
476.25
 11
-24.183227500000044
 21
476.25
  0
LINE
  8
_0-0_0
  6
CONTINUOUS
 62
    7
 10
-21.783218500000032
 20
476.25
 11
-20.583221500000036
 21
476.25
  0
ARC
  8
_0-0_0
  6
CONTINUOUS
 62
    7
 10
-20.583221500000036
 20
475.75
 40
0.5
 50
0
 51
90.000003000000007
  0
ARC
  8
_0-0_0
  6
CONTINUOUS
 62
    7
 10
-21.783218500000032
 20
475.75
 40
0.5
 50
90.000003000000007
 51
179.99999099999999
  0
ARC
  8
_0-0_0
  6
CONTINUOUS
 62
    7
 10
-24.183227500000044
 20
476.75
 40
0.5
 50
179.99999099999999
 51
269.99999700000001
  0
ARC
  8
_0-0_0
  6
CONTINUOUS
 62
    7
 10
-33.38322450000004
 20
476.75
 40
0.5
 50
269.99999700000001
 51
0
  0
ARC
  8
_0-0_0
  6
CONTINUOUS
 62
    7
 10
-37.583221500000036
 20
475.75
 40
0.5
 50
90.000003000000007
 51
179.99999099999999
  0
LINE
  8
_0-0_0
  6
CONTINUOUS
 62
    7
 10
-36.583221500000036
 20
476.75
 11
-36.583221500000036
 21
476.25
  0
ARC
  8
_0-0_0
  6
CONTINUOUS
 62
    7
 10
-36.083221500000036
 20
476.75
 40
0.5
 50
90.000003000000007
 51
179.99999099999999
  0
LINE
  8
_0-0_0
  6
CONTINUOUS
 62
    7
 10
-34.583221500000036
 20
477.25
 11
-36.083221500000036
 21
477.25
  0
ARC
  8
_0-0_0
  6
CONTINUOUS
 62
    7
 10
-34.583221500000036
 20
478.25
 40
1
 50
269.99999700000001
 51
0
  0
LINE
  8
_0-0_0
  6
CONTINUOUS
 62
    7
 10
-33.583221500000036
 20
478.75
 11
-33.583221500000036
 21
478.25
  0
LINE
  8
_0-0_0
  6
CONTINUOUS
 62
    7
 10
-33.083221500000036
 20
478.75
 11
-33.083221500000036
 21
477.75
  0
ARC
  8
_0-0_0
  6
CONTINUOUS
 62
    7
 10
-34.583221500000036
 20
477.75
 40
1.5
 50
269.99999700000001
 51
0
  0
ARC
  8
_0-0_0
  6
CONTINUOUS
 62
    7
 10
-22.983230500000047
 20
477.75
 40
1.5
 50
179.99999099999999
 51
269.99999700000001
  0
LINE
  8
_0-0_0
  6
CONTINUOUS
 62
    7
 10
-20.983230500000047
 20
476.75
 11
-20.983230500000047
 21
476.25
  0
ARC
  8
_0-0_0
  6
CONTINUOUS
 62
    7
 10
-21.483230500000047
 20
476.75
 40
0.5
 50
0
 51
90.000003000000007
  0
LINE
  8
_0-0_0
  6
CONTINUOUS
 62
    7
 10
-22.983230500000047
 20
477.25
 11
-21.483230500000047
 21
477.25
  0
ARC
  8
_0-0_0
  6
CONTINUOUS
 62
    7
 10
-22.983230500000047
 20
478.25
 40
1
 50
179.99999099999999
 51
269.99999700000001
  0
LINE
  8
_0-0_0
  6
CONTINUOUS
 62
    7
 10
-23.983230500000047
 20
478.75
 11
-23.983230500000047
 21
478.25
  0
LINE
  8
_0-0_0
  6
CONTINUOUS
 62
    7
 10
-24.483230500000047
 20
478.75
 11
-24.483230500000047
 21
477.75
  0
LINE
  8
_0-0_0
  6
CONTINUOUS
 62
    7
 10
-20.083221500000036
 20
449.25
 11
-20.083221500000036
 21
450.14999399999999
  0
LINE
  8
_0-0_0
  6
CONTINUOUS
 62
    7
 10
-20.083221500000036
 20
450.14999399999999
 11
-20.083221500000036
 21
452.64999399999999
  0
LINE
  8
_0-0_0
  6
CONTINUOUS
 62
    7
 10
-20.083221500000036
 20
452.64999399999999
 11
-20.083221500000036
 21
473.25
  0
LINE
  8
_0-0_0
  6
CONTINUOUS
 62
    7
 10
-20.083221500000036
 20
473.25
 11
-20.083221500000036
 21
475.75
  0
LINE
  8
_0-0_0
  6
CONTINUOUS
 62
    7
 10
-22.283218500000032
 20
475.75
 11
-22.283218500000032
 21
474.504974
  0
LINE
  8
_0-0_0
  6
CONTINUOUS
 62
    7
 10
-24.683227500000044
 20
476.75
 11
-24.683227500000044
 21
478.54998799999998
  0
ARC
  8
_0-0_0
  6
CONTINUOUS
 62
    7
 10
-25.183227500000044
 20
478.54998799999998
 40
0.5
 50
0
 51
23.579369
  0
LINE
  8
_0-0_0
  6
CONTINUOUS
 62
    7
 10
-32.88322450000004
 20
476.75
 11
-32.88322450000004
 21
478.54998799999998
  0
ARC
  8
_0-0_0
  6
CONTINUOUS
 62
    7
 10
-32.38322450000004
 20
478.54998799999998
 40
0.5
 50
156.420635
 51
179.99999099999999
  0
LINE
  8
_0-0_0
  6
CONTINUOUS
 62
    7
 10
-38.083221500000036
 20
449.25
 11
-38.083221500000036
 21
459.44998199999998
  0
LINE
  8
_0-0_0
  6
CONTINUOUS
 62
    7
 10
-38.083221500000036
 20
459.44998199999998
 11
-38.083221500000036
 21
460.44998199999998
  0
LINE
  8
_0-0_0
  6
CONTINUOUS
 62
    7
 10
-38.083221500000036
 20
460.44998199999998
 11
-38.083221500000036
 21
465.44998199999998
  0
LINE
  8
_0-0_0
  6
CONTINUOUS
 62
    7
 10
-38.083221500000036
 20
465.44998199999998
 11
-38.083221500000036
 21
466.44998199999998
  0
LINE
  8
_0-0_0
  6
CONTINUOUS
 62
    7
 10
-38.083221500000036
 20
475.75
 11
-38.083221500000036
 21
466.44998199999998
  0
LINE
  8
_0-0_0
  6
CONTINUOUS
 62
    7
 10
-19.283218500000032
 20
474.75
 11
-20.083221500000036
 21
474.75
  0
LINE
  8
_0-0_0
  6
CONTINUOUS
 62
    7
 10
-19.283218500000032
 20
475.54998799999998
 11
-20.083221500000036
 21
475.54998799999998
  0
LINE
  8
_0-0_0
  6
CONTINUOUS
 62
    7
 10
-19.283218500000032
 20
474.54998799999998
 11
-19.283218500000032
 21
475.54998799999998
  0
LINE
  8
_0-0_0
  6
CONTINUOUS
 62
    7
 10
-19.283218500000032
 20
455.94998199999998
 11
-20.083221500000036
 21
455.94998199999998
  0
LINE
  8
_0-0_0
  6
CONTINUOUS
 62
    7
 10
-19.283218500000032
 20
455.94998199999998
 11
-19.283218500000032
 21
458.94998199999998
  0
LINE
  8
_0-0_0
  6
CONTINUOUS
 62
    7
 10
-19.283218500000032
 20
471.18768299999999
 11
-19.283218500000032
 21
458.94998199999998
  0
LINE
  8
_0-0_0
  6
CONTINUOUS
 62
    7
 10
-19.283218500000032
 20
471.18768299999999
 11
-19.283218500000032
 21
472.15045199999997
  0
LINE
  8
_0-0_0
  6
CONTINUOUS
 62
    7
 10
-20.083221500000036
 20
472.15045199999997
 11
-20.083221500000036
 21
474.75
  0
ARC
  8
_0-0_0
  6
CONTINUOUS
 62
    7
 10
-25.698150500000054
 20
471.43203699999998
 40
5.7120379999999997
 50
18.558475999999999
 51
26.433648000000002
  0
ARC
  8
_0-0_0
  6
CONTINUOUS
 62
    7
 10
-20.283218500000032
 20
473.25
 40
0.2
 50
269.99999700000001
 51
0
  0
ARC
  8
_0-0_0
  6
CONTINUOUS
 62
    7
 10
-20.283218500000032
 20
452.64999399999999
 40
0.2
 50
0
 51
90.000003000000007
  0
ARC
  8
_0-0_0
  6
CONTINUOUS
 62
    7
 10
-25.698028500000078
 20
454.46801799999997
 40
5.711964
 50
333.565022
 51
341.44031000000001
  0
ARC
  8
_0-0_0
  6
CONTINUOUS
 62
    7
 10
-20.583221500000036
 20
450.14999399999999
 40
0.5
 50
269.99999700000001
 51
0
  0
LINE
  8
_0-0_0
  6
CONTINUOUS
 62
    7
 10
-20.583221500000036
 20
449.25
 11
-20.083221500000036
 21
449.25
  0
LINE
  8
_0-0_0
  6
CONTINUOUS
 62
    7
 10
-20.083221500000036
 20
449.25
 11
-20.583221500000036
 21
448.75
  0
ARC
  8
_0-0_0
  6
CONTINUOUS
 62
    7
 10
-22.283218500000032
 20
471.75
 40
2.2999999999999998
 50
34.417387999999995
 51
79.713437000000013
  0
LINE
  8
_0-0_0
  6
CONTINUOUS
 62
    7
 10
-20.344543500000043
 20
473.04998799999998
 11
-20.385849500000063
 21
473.04998799999998
  0
LINE
  8
_0-0_0
  6
CONTINUOUS
 62
    7
 10
-20.344543500000043
 20
473.04998799999998
 11
-20.334976500000039
 21
473.05102499999998
  0
LINE
  8
_0-0_0
  6
CONTINUOUS
 62
    7
 10
-20.334976500000039
 20
473.05102499999998
 11
-20.325485500000013
 21
473.05419899999998
  0
LINE
  8
_0-0_0
  6
CONTINUOUS
 62
    7
 10
-20.325485500000013
 20
473.05419899999998
 11
-20.316238500000054
 21
473.05960099999999
  0
LINE
  8
_0-0_0
  6
CONTINUOUS
 62
    7
 10
-20.316238500000054
 20
473.05960099999999
 11
-20.307434500000056
 21
473.06710800000002
  0
LINE
  8
_0-0_0
  6
CONTINUOUS
 62
    7
 10
-20.307434500000056
 20
473.06710800000002
 11
-20.292038500000046
 21
473.08776899999998
  0
LINE
  8
_0-0_0
  6
CONTINUOUS
 62
    7
 10
-20.292038500000046
 20
473.08776899999998
 11
-20.280258500000059
 21
473.11502100000001
  0
LINE
  8
_0-0_0
  6
CONTINUOUS
 62
    7
 10
-20.280258500000059
 20
473.11502100000001
 11
-20.273086500000034
 21
473.147156
  0
LINE
  8
_0-0_0
  6
CONTINUOUS
 62
    7
 10
-20.273086500000034
 20
473.147156
 11
-20.271194500000036
 21
473.18221999999997
  0
LINE
  8
_0-0_0
  6
CONTINUOUS
 62
    7
 10
-20.271194500000036
 20
473.18221999999997
 11
-20.275039500000048
 21
473.21838400000001
  0
LINE
  8
_0-0_0
  6
CONTINUOUS
 62
    7
 10
-20.275039500000048
 20
473.21838400000001
 11
-20.283218500000032
 21
473.25
  0
ARC
  8
_0-0_0
  6
CONTINUOUS
 62
    7
 10
-21.783218500000032
 20
474.504974
 40
0.5
 50
179.99999099999999
 51
259.71343899999994
  0
LINE
  8
_0-0_0
  6
CONTINUOUS
 62
    7
 10
-37.283218500000032
 20
471.75
 11
-37.283218500000032
 21
458.14999399999999
  0
LINE
  8
_0-0_0
  6
CONTINUOUS
 62
    7
 10
-37.283218500000032
 20
457.64999399999999
 11
-37.283218500000032
 21
458.14999399999999
  0
LINE
  8
_0-0_0
  6
CONTINUOUS
 62
    7
 10
-37.283218500000032
 20
454.64999399999999
 11
-37.283218500000032
 21
457.64999399999999
  0
LINE
  8
_0-0_0
  6
CONTINUOUS
 62
    7
 10
-37.283218500000032
 20
454.14999399999999
 11
-37.283218500000032
 21
454.64999399999999
  0
ARC
  8
_0-0_0
  6
CONTINUOUS
 62
    7
 10
-35.283218500000032
 20
471.75
 40
2
 50
93.840255999999997
 51
179.99999099999999
  0
LINE
  8
_0-0_0
  6
CONTINUOUS
 62
    7
 10
-35.283218500000032
 20
473.75
 11
-26.283218500000032
 21
473.75
  0
LINE
  8
_0-0_0
  6
CONTINUOUS
 62
    7
 10
-22.283218500000032
 20
473.75
 11
-22.783218500000032
 21
473.75
  0
LINE
  8
_0-0_0
  6
CONTINUOUS
 62
    7
 10
-22.783218500000032
 20
473.75
 11
-25.783218500000032
 21
473.75
  0
LINE
  8
_0-0_0
  6
CONTINUOUS
 62
    7
 10
-26.283218500000032
 20
473.75
 11
-25.783218500000032
 21
473.75
  0
ARC
  8
_0-0_0
  6
CONTINUOUS
 62
    7
 10
-22.283218500000032
 20
471.75
 40
2
 50
0
 51
90.000003000000007
  0
LINE
  8
_0-0_0
  6
CONTINUOUS
 62
    7
 10
-38.283218500000032
 20
474.75
 11
-38.083221500000036
 21
474.75
  0
LINE
  8
_0-0_0
  6
CONTINUOUS
 62
    7
 10
-38.283218500000032
 20
475.54998799999998
 11
-38.083221500000036
 21
475.54998799999998
  0
LINE
  8
_0-0_0
  6
CONTINUOUS
 62
    7
 10
-38.283218500000032
 20
475.54998799999998
 11
-38.283218500000032
 21
474.75012199999998
  0
LINE
  8
_0-0_0
  6
CONTINUOUS
 62
    7
 10
-38.283218500000032
 20
455.94998199999998
 11
-38.083221500000036
 21
455.94998199999998
  0
LINE
  8
_0-0_0
  6
CONTINUOUS
 62
    7
 10
-38.283218500000032
 20
458.94998199999998
 11
-38.283218500000032
 21
455.94998199999998
  0
LINE
  8
_0-0_0
  6
CONTINUOUS
 62
    7
 10
-38.283218500000032
 20
471.18768299999999
 11
-38.283218500000032
 21
458.94998199999998
  0
LINE
  8
_0-0_0
  6
CONTINUOUS
 62
    7
 10
-38.283218500000032
 20
472.15045199999997
 11
-38.283218500000032
 21
471.18768299999999
  0
ARC
  8
_0-0_0
  6
CONTINUOUS
 62
    7
 10
-37.583221500000036
 20
465.44998199999998
 40
0.5
 50
90.000003000000007
 51
179.99999099999999
  0
ARC
  8
_0-0_0
  6
CONTINUOUS
 62
    7
 10
-37.583221500000036
 20
460.44998199999998
 40
0.5
 50
179.99999099999999
 51
269.99999700000001
  0
LINE
  8
_0-0_0
  6
CONTINUOUS
 62
    7
 10
-38.083221500000036
 20
449.25
 11
-37.583221500000036
 21
449.25
  0
LINE
  8
_0-0_0
  6
CONTINUOUS
 62
    7
 10
-38.083221500000036
 20
449.25
 11
-37.583221500000036
 21
448.75
  0
LINE
  8
_0-0_0
  6
CONTINUOUS
 62
    7
 10
-20.083221500000036
 20
455.95001200000002
 11
-20.083221500000036
 21
454.79998799999998
  0
ARC
  8
_0-0_0
  6
CONTINUOUS
 62
    7
 10
-22.483230500000047
 20
454.79998799999998
 40
2.3999999999999999
 50
359.58604600000001
 51
0.0000099999999787
  0
LINE
  8
_0-0_0
  6
CONTINUOUS
 62
    7
 10
-19.283218500000032
 20
472.15045199999997
 11
-19.283218500000032
 21
474.75
  0
LINE
  8
_0-0_0
  6
CONTINUOUS
 62
    7
 10
-20.283218500000032
 20
473.04998799999998
 11
-20.344543500000043
 21
473.04998799999998
  0
LINE
  8
_0-0_0
  6
CONTINUOUS
 62
    7
 10
-20.385849500000063
 20
473.04998799999998
 11
-20.388076500000011
 21
473.04998799999998
  0
LINE
  8
_0-0_0
  6
CONTINUOUS
 62
    7
 10
-20.583221500000036
 20
449.25
 11
-37.583221500000036
 21
449.25
  0
LINE
  8
_0-0_0
  6
CONTINUOUS
 62
    7
 10
-20.519760500000075
 20
453.04998799999998
 11
-20.482833500000027
 21
452.97976699999998
  0
LINE
  8
_0-0_0
  6
CONTINUOUS
 62
    7
 10
-20.482833500000027
 20
452.97976699999998
 11
-20.463226500000019
 21
452.94528200000002
  0
LINE
  8
_0-0_0
  6
CONTINUOUS
 62
    7
 10
-20.463226500000019
 20
452.94528200000002
 11
-20.437149500000032
 21
452.90344199999998
  0
LINE
  8
_0-0_0
  6
CONTINUOUS
 62
    7
 10
-20.437149500000032
 20
452.90344199999998
 11
-20.423828500000013
 21
452.88439899999997
  0
LINE
  8
_0-0_0
  6
CONTINUOUS
 62
    7
 10
-20.423828500000013
 20
452.88439899999997
 11
-20.405471500000033
 21
452.86200000000002
  0
LINE
  8
_0-0_0
  6
CONTINUOUS
 62
    7
 10
-20.405471500000033
 20
452.86200000000002
 11
-20.392685500000027
 21
452.85137900000001
  0
LINE
  8
_0-0_0
  6
CONTINUOUS
 62
    7
 10
-20.392685500000027
 20
452.85137900000001
 11
-20.388076500000011
 21
452.84997600000003
  0
LINE
  8
_0-0_0
  6
CONTINUOUS
 62
    7
 10
-20.385849500000063
 20
452.84997600000003
 11
-20.388076500000011
 21
452.84997600000003
  0
LINE
  8
_0-0_0
  6
CONTINUOUS
 62
    7
 10
-20.519760500000075
 20
472.84997600000003
 11
-20.482833500000027
 21
472.92022700000001
  0
LINE
  8
_0-0_0
  6
CONTINUOUS
 62
    7
 10
-20.482833500000027
 20
472.92022700000001
 11
-20.463226500000019
 21
472.95468099999999
  0
LINE
  8
_0-0_0
  6
CONTINUOUS
 62
    7
 10
-20.463226500000019
 20
472.95468099999999
 11
-20.437149500000032
 21
472.99652099999997
  0
LINE
  8
_0-0_0
  6
CONTINUOUS
 62
    7
 10
-20.437149500000032
 20
472.99652099999997
 11
-20.423828500000013
 21
473.01556399999998
  0
LINE
  8
_0-0_0
  6
CONTINUOUS
 62
    7
 10
-20.423828500000013
 20
473.01556399999998
 11
-20.405471500000033
 21
473.03796399999999
  0
LINE
  8
_0-0_0
  6
CONTINUOUS
 62
    7
 10
-20.405471500000033
 20
473.03796399999999
 11
-20.392685500000027
 21
473.04858400000001
  0
LINE
  8
_0-0_0
  6
CONTINUOUS
 62
    7
 10
-20.392685500000027
 20
473.04858400000001
 11
-20.388076500000011
 21
473.04998799999998
  0
LINE
  8
_0-0_0
  6
CONTINUOUS
 62
    7
 10
-20.385849500000063
 20
452.84997600000003
 11
-20.344543500000043
 21
452.84997600000003
  0
LINE
  8
_0-0_0
  6
CONTINUOUS
 62
    7
 10
-20.283218500000032
 20
452.84997600000003
 11
-20.344543500000043
 21
452.84997600000003
  0
LINE
  8
_0-0_0
  6
CONTINUOUS
 62
    7
 10
-20.344543500000043
 20
452.84997600000003
 11
-20.334976500000039
 21
452.84893799999998
  0
LINE
  8
_0-0_0
  6
CONTINUOUS
 62
    7
 10
-20.334976500000039
 20
452.84893799999998
 11
-20.325485500000013
 21
452.84576399999997
  0
LINE
  8
_0-0_0
  6
CONTINUOUS
 62
    7
 10
-20.325485500000013
 20
452.84576399999997
 11
-20.316238500000054
 21
452.84036300000002
  0
LINE
  8
_0-0_0
  6
CONTINUOUS
 62
    7
 10
-20.316238500000054
 20
452.84036300000002
 11
-20.307434500000056
 21
452.832855
  0
LINE
  8
_0-0_0
  6
CONTINUOUS
 62
    7
 10
-20.307434500000056
 20
452.832855
 11
-20.292038500000046
 21
452.81222500000001
  0
LINE
  8
_0-0_0
  6
CONTINUOUS
 62
    7
 10
-20.292038500000046
 20
452.81222500000001
 11
-20.280258500000059
 21
452.784943
  0
LINE
  8
_0-0_0
  6
CONTINUOUS
 62
    7
 10
-20.280258500000059
 20
452.784943
 11
-20.273086500000034
 21
452.75280800000002
  0
LINE
  8
_0-0_0
  6
CONTINUOUS
 62
    7
 10
-20.273086500000034
 20
452.75280800000002
 11
-20.271194500000036
 21
452.71774299999998
  0
LINE
  8
_0-0_0
  6
CONTINUOUS
 62
    7
 10
-20.271194500000036
 20
452.71774299999998
 11
-20.275039500000048
 21
452.68158
  0
LINE
  8
_0-0_0
  6
CONTINUOUS
 62
    7
 10
-20.275039500000048
 20
452.68158
 11
-20.283218500000032
 21
452.64999399999999
  0
ARC
  8
_0-0_0
  6
CONTINUOUS
 62
    7
 10
-22.283218500000032
 20
454.14999399999999
 40
2.2999999999999998
 50
280.28656300000006
 51
325.58260500000006
  0
LINE
  8
_0-0_0
  6
CONTINUOUS
 62
    7
 10
-20.583221500000036
 20
449.64999399999999
 11
-21.783218500000032
 21
449.64999399999999
  0
LINE
  8
_0-0_0
  6
CONTINUOUS
 62
    7
 10
-20.583221500000036
 20
448.75
 11
-37.583221500000036
 21
448.75
  0
LINE
  8
_0-0_0
  6
CONTINUOUS
 62
    7
 10
-37.283233500000051
 20
465.94998199999998
 11
-37.583221500000036
 21
465.94998199999998
  0
ARC
  8
_0-0_0
  6
CONTINUOUS
 62
    7
 10
-36.783218500000032
 20
458.14999399999999
 40
0.5
 50
179.99999099999999
 51
269.99999700000001
  0
CIRCLE
  8
_0-0_0
  6
CONTINUOUS
 62
    7
 10
-34.783218500000032
 20
454.64999399999999
 40
2.5
  0
LINE
  8
_0-0_0
  6
CONTINUOUS
 62
    7
 10
-31.783218500000032
 20
452.14999399999999
 11
-34.783218500000032
 21
452.14999399999999
  0
LINE
  8
_0-0_0
  6
CONTINUOUS
 62
    7
 10
-31.283218500000032
 20
452.14999399999999
 11
-31.783218500000032
 21
452.14999399999999
  0
ARC
  8
_0-0_0
  6
CONTINUOUS
 62
    7
 10
-35.283218500000032
 20
454.14999399999999
 40
2
 50
179.99999099999999
 51
269.99999700000001
  0
LINE
  8
_0-0_0
  6
CONTINUOUS
 62
    7
 10
-34.783218500000032
 20
452.14999399999999
 11
-35.283218500000032
 21
452.14999399999999
  0
LINE
  8
_0-0_0
  6
CONTINUOUS
 62
    7
 10
-35.283218500000032
 20
473.64733899999999
 11
-35.29910250000006
 21
473.67459100000002
  0
LINE
  8
_0-0_0
  6
CONTINUOUS
 62
    7
 10
-35.29910250000006
 20
473.67459100000002
 11
-35.314956500000051
 21
473.69757099999998
  0
LINE
  8
_0-0_0
  6
CONTINUOUS
 62
    7
 10
-35.314956500000051
 20
473.69757099999998
 11
-35.328933500000062
 21
473.71432499999997
  0
LINE
  8
_0-0_0
  6
CONTINUOUS
 62
    7
 10
-35.328933500000062
 20
473.71432499999997
 11
-35.342834500000038
 21
473.72766100000001
  0
LINE
  8
_0-0_0
  6
CONTINUOUS
 62
    7
 10
-35.342834500000038
 20
473.72766100000001
 11
-35.355041500000027
 21
473.736603
  0
LINE
  8
_0-0_0
  6
CONTINUOUS
 62
    7
 10
-35.355041500000027
 20
473.736603
 11
-35.367157500000076
 21
473.74279799999999
  0
LINE
  8
_0-0_0
  6
CONTINUOUS
 62
    7
 10
-35.367157500000076
 20
473.74279799999999
 11
-35.378036500000007
 21
473.74609400000003
  0
LINE
  8
_0-0_0
  6
CONTINUOUS
 62
    7
 10
-35.378036500000007
 20
473.74609400000003
 11
-35.388794500000017
 21
473.74713100000002
  0
LINE
  8
_0-0_0
  6
CONTINUOUS
 62
    7
 10
-35.388794500000017
 20
473.74713100000002
 11
-35.391250500000069
 21
473.74707000000001
  0
LINE
  8
_0-0_0
  6
CONTINUOUS
 62
    7
 10
-20.283218500000032
 20
471.25
 11
-20.283218500000032
 21
471.75
  0
CIRCLE
  8
_0-0_0
  6
CONTINUOUS
 62
    7
 10
-22.783218500000032
 20
471.25
 40
2.5
  0
LINE
  8
_0-0_0
  6
CONTINUOUS
 62
    7
 10
-20.283218500000032
 20
468.25
 11
-20.283218500000032
 21
467.75
  0
LINE
  8
_0-0_0
  6
CONTINUOUS
 62
    7
 10
-20.283218500000032
 20
468.25
 11
-20.283218500000032
 21
471.25
  0
ARC
  8
_0-0_0
  6
CONTINUOUS
 62
    7
 10
-26.283218500000032
 20
473.25
 40
0.5
 50
0
 51
90.000003000000007
  0
LINE
  8
_0-0_0
  6
CONTINUOUS
 62
    7
 10
-20.283218500000032
 20
454.14999399999999
 11
-20.283218500000032
 21
467.75
  0
LINE
  8
_0-0_0
  6
CONTINUOUS
 62
    7
 10
-38.283218500000032
 20
474.75
 11
-38.283218500000032
 21
472.15045199999997
  0
LINE
  8
_0-0_0
  6
CONTINUOUS
 62
    7
 10
-37.583221500000036
 20
459.94998199999998
 11
-37.283233500000051
 21
459.94998199999998
  0
LINE
  8
_0-0_0
  6
CONTINUOUS
 62
    7
 10
-20.083221500000036
 20
475.550049
 11
-20.083221500000036
 21
475.75
  0
ARC
  8
_0-0_0
  6
CONTINUOUS
 62
    7
 10
-22.283218500000032
 20
454.14999399999999
 40
2
 50
273.84026500000004
 51
0.000010000000014
  0
LINE
  8
_0-0_0
  6
CONTINUOUS
 62
    7
 10
-22.283218500000032
 20
452.14999399999999
 11
-31.283218500000032
 21
452.14999399999999
  0
ARC
  8
_0-0_0
  6
CONTINUOUS
 62
    7
 10
-21.783218500000032
 20
451.39498900000001
 40
0.5
 50
100.28656100000001
 51
179.99999099999999
  0
LINE
  8
_0-0_0
  6
CONTINUOUS
 62
    7
 10
-22.283218500000032
 20
450.14999399999999
 11
-22.283218500000032
 21
451.39498900000001
  0
ARC
  8
_0-0_0
  6
CONTINUOUS
 62
    7
 10
-21.783218500000032
 20
450.14999399999999
 40
0.5
 50
179.99999099999999
 51
269.99999700000001
  0
LINE
  8
_0-0_0
  6
CONTINUOUS
 62
    7
 10
-36.706253500000059
 20
457.64999399999999
 11
-36.783218500000032
 21
457.64999399999999
  0
LINE
  8
_0-0_0
  6
CONTINUOUS
 62
    7
 10
-34.783218500000032
 20
457.64999399999999
 11
-35.264724500000057
 21
457.64999399999999
  0
LINE
  8
_0-0_0
  6
CONTINUOUS
 62
    7
 10
-35.264724500000057
 20
457.64999399999999
 11
-36.706253500000059
 21
457.64999399999999
  0
LINE
  8
_0-0_0
  6
CONTINUOUS
 62
    7
 10
-31.783218500000032
 20
452.64999399999999
 11
-31.783218500000032
 21
452.72695900000002
  0
LINE
  8
_0-0_0
  6
CONTINUOUS
 62
    7
 10
-31.783218500000032
 20
454.16848800000002
 11
-31.783218500000032
 21
452.72695900000002
  0
LINE
  8
_0-0_0
  6
CONTINUOUS
 62
    7
 10
-31.783218500000032
 20
454.16848800000002
 11
-31.783218500000032
 21
454.64999399999999
  0
ARC
  8
_0-0_0
  6
CONTINUOUS
 62
    7
 10
-34.783218500000032
 20
454.64999399999999
 40
3
 50
0
 51
89.999995999999996
  0
ARC
  8
_0-0_0
  6
CONTINUOUS
 62
    7
 10
-31.283218500000032
 20
452.64999399999999
 40
0.5
 50
179.99999099999999
 51
269.99999700000001
  0
LINE
  8
_0-0_0
  6
CONTINUOUS
 62
    7
 10
-25.783218500000032
 20
473.17300399999999
 11
-25.783218500000032
 21
473.25
  0
LINE
  8
_0-0_0
  6
CONTINUOUS
 62
    7
 10
-25.783218500000032
 20
471.73147599999999
 11
-25.783218500000032
 21
473.17300399999999
  0
LINE
  8
_0-0_0
  6
CONTINUOUS
 62
    7
 10
-25.783218500000032
 20
471.25
 11
-25.783218500000032
 21
471.73147599999999
  0
ARC
  8
_0-0_0
  6
CONTINUOUS
 62
    7
 10
-22.783218500000032
 20
471.25
 40
3
 50
179.99999099999999
 51
269.99999700000001
  0
LINE
  8
_0-0_0
  6
CONTINUOUS
 62
    7
 10
-22.301727500000027
 20
468.25
 11
-22.783218500000032
 21
468.25
  0
LINE
  8
_0-0_0
  6
CONTINUOUS
 62
    7
 10
-22.301727500000027
 20
468.25
 11
-20.860199500000022
 21
468.25
  0
LINE
  8
_0-0_0
  6
CONTINUOUS
 62
    7
 10
-20.783218500000032
 20
468.25
 11
-20.860199500000022
 21
468.25
  0
ARC
  8
_0-0_0
  6
CONTINUOUS
 62
    7
 10
-20.783218500000032
 20
467.75
 40
0.5
 50
0
 51
90.000003000000007
  0
LINE
  8
_0-0_0
  6
CONTINUOUS
 62
    7
 10
-22.283218500000032
 20
452.25262500000002
 11
-22.267349500000023
 21
452.22537199999999
  0
LINE
  8
_0-0_0
  6
CONTINUOUS
 62
    7
 10
-22.267349500000023
 20
452.22537199999999
 11
-22.251495500000033
 21
452.20239299999997
  0
LINE
  8
_0-0_0
  6
CONTINUOUS
 62
    7
 10
-22.251495500000033
 20
452.20239299999997
 11
-22.237518500000022
 21
452.18563799999998
  0
LINE
  8
_0-0_0
  6
CONTINUOUS
 62
    7
 10
-22.237518500000022
 20
452.18563799999998
 11
-22.223617500000046
 21
452.172302
  0
LINE
  8
_0-0_0
  6
CONTINUOUS
 62
    7
 10
-22.223617500000046
 20
452.172302
 11
-22.211395500000037
 21
452.16339099999999
  0
LINE
  8
_0-0_0
  6
CONTINUOUS
 62
    7
 10
-22.211395500000037
 20
452.16339099999999
 11
-22.199279500000046
 21
452.15716600000002
  0
LINE
  8
_0-0_0
  6
CONTINUOUS
 62
    7
 10
-22.199279500000046
 20
452.15716600000002
 11
-22.188415500000019
 21
452.15390000000002
  0
LINE
  8
_0-0_0
  6
CONTINUOUS
 62
    7
 10
-22.188415500000019
 20
452.15390000000002
 11
-22.177658500000007
 21
452.15283199999999
  0
LINE
  8
_0-0_0
  6
CONTINUOUS
 62
    7
 10
-22.177658500000007
 20
452.15283199999999
 11
-22.175201500000071
 21
452.15289300000001
  0
ARC
  8
_0-0_0
  6
CONTINUOUS
 62
    7
 10
-32.013336500000037
 20
461.77673299999998
 40
3.063399
 50
199.82113599999997
 51
205.28948099999999
  0
ARC
  8
_0-0_0
  6
CONTINUOUS
 62
    7
 10
-32.013656500000025
 20
464.12335200000001
 40
3.0630549999999999
 50
154.710137
 51
160.17869999999999
  0
ARC
  8
_0-0_0
  6
CONTINUOUS
 62
    7
 10
-28.783218500000032
 20
462.94998199999998
 40
6.5
 50
160.10415599999999
 51
199.895612
  0
ARC
  8
_0-0_0
  6
CONTINUOUS
 62
    7
 10
-25.553100500000028
 20
464.12322999999998
 40
3.0633949999999999
 50
19.82113
 51
25.289566000000001
  0
ARC
  8
_0-0_0
  6
CONTINUOUS
 62
    7
 10
-25.55278050000004
 20
461.776611
 40
3.0630519999999999
 50
334.71006
 51
340.17869200000001
  0
LINE
  8
_0-0_0
  6
CONTINUOUS
 62
    7
 10
-28.041549500000031
 20
456.44998199999998
 11
-23.524887500000034
 21
459.05767800000001
  0
LINE
  8
_0-0_0
  6
CONTINUOUS
 62
    7
 10
-29.524887500000034
 20
456.44998199999998
 11
-28.041549500000031
 21
456.44998199999998
  0
LINE
  8
_0-0_0
  6
CONTINUOUS
 62
    7
 10
-34.041549500000031
 20
459.05767800000001
 11
-29.524887500000034
 21
456.44998199999998
  0
LINE
  8
_0-0_0
  6
CONTINUOUS
 62
    7
 10
-34.783218500000032
 20
465.55767800000001
 11
-34.783218500000032
 21
460.342285
  0
LINE
  8
_0-0_0
  6
CONTINUOUS
 62
    7
 10
-34.041549500000031
 20
459.05767800000001
 11
-34.783218500000032
 21
460.342285
  0
LINE
  8
_0-0_0
  6
CONTINUOUS
 62
    7
 10
-29.524887500000034
 20
469.44998199999998
 11
-34.041549500000031
 21
466.842285
  0
LINE
  8
_0-0_0
  6
CONTINUOUS
 62
    7
 10
-34.335678500000029
 20
466.332855
 11
-34.783218500000032
 21
465.55767800000001
  0
LINE
  8
_0-0_0
  6
CONTINUOUS
 62
    7
 10
-34.335678500000029
 20
466.332855
 11
-34.041549500000031
 21
466.842285
  0
LINE
  8
_0-0_0
  6
CONTINUOUS
 62
    7
 10
-28.041549500000031
 20
469.44998199999998
 11
-29.524887500000034
 21
469.44998199999998
  0
LINE
  8
_0-0_0
  6
CONTINUOUS
 62
    7
 10
-23.524887500000034
 20
466.842285
 11
-28.041549500000031
 21
469.44998199999998
  0
ARC
  8
_0-0_0
  6
CONTINUOUS
 62
    7
 10
-28.783218500000032
 20
462.94998199999998
 40
6.5
 50
340.10416099999998
 51
19.895609999999952
  0
LINE
  8
_0-0_0
  6
CONTINUOUS
 62
    7
 10
-23.230774500000052
 20
459.56710800000002
 11
-22.783218500000032
 21
460.342285
  0
LINE
  8
_0-0_0
  6
CONTINUOUS
 62
    7
 10
-23.230774500000052
 20
459.56710800000002
 11
-23.524887500000034
 21
459.05767800000001
  0
CIRCLE
  8
_0-0_0
  6
CONTINUOUS
 62
    7
 10
-28.783218500000032
 20
462.94998199999998
 40
5.25
  0
LINE
  8
_0-0_0
  6
CONTINUOUS
 62
    7
 10
-22.783218500000032
 20
465.55767800000001
 11
-22.783218500000032
 21
460.342285
  0
LINE
  8
_0-0_0
  6
CONTINUOUS
 62
    7
 10
-23.524887500000034
 20
466.842285
 11
-22.783218500000032
 21
465.55767800000001
  0
LINE
  8
_0-0_0
  6
CONTINUOUS
 62
    7
 10
-20.896209500000055
 20
472.47543300000001
 11
-20.618164500000034
 21
472.5
  0
LINE
  8
_0-0_0
  6
CONTINUOUS
 62
    7
 10
-20.778457500000059
 20
472.27145400000001
 11
-20.618164500000034
 21
472.5
  0
LINE
  8
_0-0_0
  6
CONTINUOUS
 62
    7
 10
-21.034637500000031
 20
472.665955
 11
-20.760681500000032
 21
472.71945199999999
  0
LINE
  8
_0-0_0
  6
CONTINUOUS
 62
    7
 10
-20.896209500000055
 20
472.47543300000001
 11
-20.760681500000032
 21
472.71945199999999
  0
LINE
  8
_0-0_0
  6
CONTINUOUS
 62
    7
 10
-21.192230500000051
 20
472.84097300000002
 11
-20.925354500000026
 21
472.922821
  0
LINE
  8
_0-0_0
  6
CONTINUOUS
 62
    7
 10
-21.034637500000031
 20
472.665955
 11
-20.925354500000026
 21
472.922821
  0
LINE
  8
_0-0_0
  6
CONTINUOUS
 62
    7
 10
-21.367248500000073
 20
472.99856599999998
 11
-21.110397500000033
 21
473.10784899999999
  0
LINE
  8
_0-0_0
  6
CONTINUOUS
 62
    7
 10
-21.192230500000051
 20
472.84097300000002
 11
-21.110397500000033
 21
473.10784899999999
  0
LINE
  8
_0-0_0
  6
CONTINUOUS
 62
    7
 10
-21.557785500000023
 20
473.13699300000002
 11
-21.313766500000042
 21
473.27252199999998
  0
LINE
  8
_0-0_0
  6
CONTINUOUS
 62
    7
 10
-21.367248500000073
 20
472.99856599999998
 11
-21.313766500000042
 21
473.27252199999998
  0
LINE
  8
_0-0_0
  6
CONTINUOUS
 62
    7
 10
-21.761749500000064
 20
473.25476099999997
 11
-21.533218500000032
 21
473.41503899999998
  0
LINE
  8
_0-0_0
  6
CONTINUOUS
 62
    7
 10
-21.557785500000023
 20
473.13699300000002
 11
-21.533218500000032
 21
473.41503899999998
  0
LINE
  8
_0-0_0
  6
CONTINUOUS
 62
    7
 10
-21.976898500000061
 20
473.350525
 11
-21.766388500000062
 21
473.53384399999999
  0
LINE
  8
_0-0_0
  6
CONTINUOUS
 62
    7
 10
-21.761749500000064
 20
473.25476099999997
 11
-21.766388500000062
 21
473.53384399999999
  0
LINE
  8
_0-0_0
  6
CONTINUOUS
 62
    7
 10
-22.200882500000034
 20
473.42330900000002
 11
-22.010681500000032
 21
473.62762500000002
  0
LINE
  8
_0-0_0
  6
CONTINUOUS
 62
    7
 10
-21.976898500000061
 20
473.350525
 11
-22.010681500000032
 21
473.62762500000002
  0
LINE
  8
_0-0_0
  6
CONTINUOUS
 62
    7
 10
-22.431244500000048
 20
473.47228999999999
 11
-22.263443500000051
 21
473.69534299999998
  0
LINE
  8
_0-0_0
  6
CONTINUOUS
 62
    7
 10
-22.200882500000034
 20
473.42330900000002
 11
-22.263443500000051
 21
473.69534299999998
  0
LINE
  8
_0-0_0
  6
CONTINUOUS
 62
    7
 10
-22.665466500000036
 20
473.49688700000002
 11
-22.521896500000025
 21
473.73629799999998
  0
LINE
  8
_0-0_0
  6
CONTINUOUS
 62
    7
 10
-22.431244500000048
 20
473.47228999999999
 11
-22.521896500000025
 21
473.73629799999998
  0
LINE
  8
_0-0_0
  6
CONTINUOUS
 62
    7
 10
-22.900985500000047
 20
473.49688700000002
 11
-22.783218500000032
 21
473.75
  0
LINE
  8
_0-0_0
  6
CONTINUOUS
 62
    7
 10
-22.665466500000036
 20
473.49688700000002
 11
-22.783218500000032
 21
473.75
  0
LINE
  8
_0-0_0
  6
CONTINUOUS
 62
    7
 10
-23.135208500000033
 20
473.47228999999999
 11
-23.044540500000039
 21
473.73629799999998
  0
LINE
  8
_0-0_0
  6
CONTINUOUS
 62
    7
 10
-22.900985500000047
 20
473.49688700000002
 11
-23.044540500000039
 21
473.73629799999998
  0
LINE
  8
_0-0_0
  6
CONTINUOUS
 62
    7
 10
-23.365570500000047
 20
473.42330900000002
 11
-23.30300950000003
 21
473.69534299999998
  0
LINE
  8
_0-0_0
  6
CONTINUOUS
 62
    7
 10
-23.135208500000033
 20
473.47228999999999
 11
-23.30300950000003
 21
473.69534299999998
  0
LINE
  8
_0-0_0
  6
CONTINUOUS
 62
    7
 10
-23.589553500000022
 20
473.350525
 11
-23.555770500000051
 21
473.62762500000002
  0
LINE
  8
_0-0_0
  6
CONTINUOUS
 62
    7
 10
-23.365570500000047
 20
473.42330900000002
 11
-23.555770500000051
 21
473.62762500000002
  0
LINE
  8
_0-0_0
  6
CONTINUOUS
 62
    7
 10
-23.804702500000076
 20
473.25476099999997
 11
-23.800064500000076
 21
473.53384399999999
  0
LINE
  8
_0-0_0
  6
CONTINUOUS
 62
    7
 10
-23.589553500000022
 20
473.350525
 11
-23.800064500000076
 21
473.53384399999999
  0
LINE
  8
_0-0_0
  6
CONTINUOUS
 62
    7
 10
-23.924240500000053
 20
473.338593
 11
-24.033218500000032
 21
473.41503899999998
  0
LINE
  8
_0-0_0
  6
CONTINUOUS
 62
    7
 10
-23.804702500000076
 20
473.25476099999997
 11
-23.924240500000053
 21
473.338593
  0
LINE
  8
_0-0_0
  6
CONTINUOUS
 62
    7
 10
-24.008667500000058
 20
473.13699300000002
 11
-24.033218500000032
 21
473.41503899999998
  0
LINE
  8
_0-0_0
  6
CONTINUOUS
 62
    7
 10
-24.199188500000048
 20
472.99856599999998
 11
-24.252685500000041
 21
473.27252199999998
  0
LINE
  8
_0-0_0
  6
CONTINUOUS
 62
    7
 10
-24.008667500000058
 20
473.13699300000002
 11
-24.252685500000041
 21
473.27252199999998
  0
LINE
  8
_0-0_0
  6
CONTINUOUS
 62
    7
 10
-24.374206500000014
 20
472.84097300000002
 11
-24.45605450000005
 21
473.10784899999999
  0
LINE
  8
_0-0_0
  6
CONTINUOUS
 62
    7
 10
-24.199188500000048
 20
472.99856599999998
 11
-24.45605450000005
 21
473.10784899999999
  0
LINE
  8
_0-0_0
  6
CONTINUOUS
 62
    7
 10
-24.531799500000034
 20
472.665955
 11
-24.641082500000039
 21
472.922821
  0
LINE
  8
_0-0_0
  6
CONTINUOUS
 62
    7
 10
-24.374206500000014
 20
472.84097300000002
 11
-24.641082500000039
 21
472.922821
  0
LINE
  8
_0-0_0
  6
CONTINUOUS
 62
    7
 10
-24.67022750000001
 20
472.47543300000001
 11
-24.805770500000051
 21
472.71945199999999
  0
LINE
  8
_0-0_0
  6
CONTINUOUS
 62
    7
 10
-24.531799500000034
 20
472.665955
 11
-24.805770500000051
 21
472.71945199999999
  0
LINE
  8
_0-0_0
  6
CONTINUOUS
 62
    7
 10
-24.787994500000025
 20
472.27145400000001
 11
-24.948288500000046
 21
472.5
  0
LINE
  8
_0-0_0
  6
CONTINUOUS
 62
    7
 10
-24.67022750000001
 20
472.47543300000001
 11
-24.948288500000046
 21
472.5
  0
LINE
  8
_0-0_0
  6
CONTINUOUS
 62
    7
 10
-24.883773500000075
 20
472.05630500000001
 11
-25.067093500000055
 21
472.26681500000001
  0
LINE
  8
_0-0_0
  6
CONTINUOUS
 62
    7
 10
-24.787994500000025
 20
472.27145400000001
 11
-25.067093500000055
 21
472.26681500000001
  0
LINE
  8
_0-0_0
  6
CONTINUOUS
 62
    7
 10
-24.956558500000028
 20
471.832336
 11
-25.160858500000018
 21
472.02252199999998
  0
LINE
  8
_0-0_0
  6
CONTINUOUS
 62
    7
 10
-24.883773500000075
 20
472.05630500000001
 11
-25.160858500000018
 21
472.02252199999998
  0
LINE
  8
_0-0_0
  6
CONTINUOUS
 62
    7
 10
-25.005523500000038
 20
471.60195900000002
 11
-25.228592500000047
 21
471.76977499999998
  0
LINE
  8
_0-0_0
  6
CONTINUOUS
 62
    7
 10
-24.956558500000028
 20
471.832336
 11
-25.228592500000047
 21
471.76977499999998
  0
LINE
  8
_0-0_0
  6
CONTINUOUS
 62
    7
 10
-25.005523500000038
 20
471.60195900000002
 11
-25.269531500000028
 21
471.51129200000003
  0
LINE
  8
_0-0_0
  6
CONTINUOUS
 62
    7
 10
-25.030136500000026
 20
471.36773699999998
 11
-25.269531500000028
 21
471.51129200000003
  0
LINE
  8
_0-0_0
  6
CONTINUOUS
 62
    7
 10
-25.030136500000026
 20
471.13223299999999
 11
-25.283218500000032
 21
471.25
  0
LINE
  8
_0-0_0
  6
CONTINUOUS
 62
    7
 10
-25.030136500000026
 20
471.36773699999998
 11
-25.283218500000032
 21
471.25
  0
LINE
  8
_0-0_0
  6
CONTINUOUS
 62
    7
 10
-25.005523500000038
 20
470.89801
 11
-25.269531500000028
 21
470.98864700000001
  0
LINE
  8
_0-0_0
  6
CONTINUOUS
 62
    7
 10
-25.030136500000026
 20
471.13223299999999
 11
-25.269531500000028
 21
470.98864700000001
  0
LINE
  8
_0-0_0
  6
CONTINUOUS
 62
    7
 10
-24.956558500000028
 20
470.66763300000002
 11
-25.228592500000047
 21
470.73019399999998
  0
LINE
  8
_0-0_0
  6
CONTINUOUS
 62
    7
 10
-25.005523500000038
 20
470.89801
 11
-25.228592500000047
 21
470.73019399999998
  0
LINE
  8
_0-0_0
  6
CONTINUOUS
 62
    7
 10
-24.883773500000075
 20
470.44366500000001
 11
-25.160858500000018
 21
470.47744799999998
  0
LINE
  8
_0-0_0
  6
CONTINUOUS
 62
    7
 10
-24.956558500000028
 20
470.66763300000002
 11
-25.160858500000018
 21
470.47744799999998
  0
LINE
  8
_0-0_0
  6
CONTINUOUS
 62
    7
 10
-24.787994500000025
 20
470.22851600000001
 11
-25.067093500000055
 21
470.23315400000001
  0
LINE
  8
_0-0_0
  6
CONTINUOUS
 62
    7
 10
-24.883773500000075
 20
470.44366500000001
 11
-25.067093500000055
 21
470.23315400000001
  0
LINE
  8
_0-0_0
  6
CONTINUOUS
 62
    7
 10
-24.67022750000001
 20
470.02453600000001
 11
-24.948288500000046
 21
470
  0
LINE
  8
_0-0_0
  6
CONTINUOUS
 62
    7
 10
-24.787994500000025
 20
470.22851600000001
 11
-24.948288500000046
 21
470
  0
LINE
  8
_0-0_0
  6
CONTINUOUS
 62
    7
 10
-24.531799500000034
 20
469.83401500000002
 11
-24.805770500000051
 21
469.78051799999997
  0
LINE
  8
_0-0_0
  6
CONTINUOUS
 62
    7
 10
-24.67022750000001
 20
470.02453600000001
 11
-24.805770500000051
 21
469.78051799999997
  0
LINE
  8
_0-0_0
  6
CONTINUOUS
 62
    7
 10
-24.374206500000014
 20
469.658997
 11
-24.641082500000039
 21
469.57714800000002
  0
LINE
  8
_0-0_0
  6
CONTINUOUS
 62
    7
 10
-24.531799500000034
 20
469.83401500000002
 11
-24.641082500000039
 21
469.57714800000002
  0
LINE
  8
_0-0_0
  6
CONTINUOUS
 62
    7
 10
-24.199188500000048
 20
469.50140399999998
 11
-24.45605450000005
 21
469.39211999999998
  0
LINE
  8
_0-0_0
  6
CONTINUOUS
 62
    7
 10
-24.374206500000014
 20
469.658997
 11
-24.45605450000005
 21
469.39211999999998
  0
LINE
  8
_0-0_0
  6
CONTINUOUS
 62
    7
 10
-24.008667500000058
 20
469.362976
 11
-24.252685500000041
 21
469.22744799999998
  0
LINE
  8
_0-0_0
  6
CONTINUOUS
 62
    7
 10
-24.199188500000048
 20
469.50140399999998
 11
-24.252685500000041
 21
469.22744799999998
  0
LINE
  8
_0-0_0
  6
CONTINUOUS
 62
    7
 10
-23.804702500000076
 20
469.24520899999999
 11
-24.033218500000032
 21
469.08492999999999
  0
LINE
  8
_0-0_0
  6
CONTINUOUS
 62
    7
 10
-24.008667500000058
 20
469.362976
 11
-24.033218500000032
 21
469.08492999999999
  0
LINE
  8
_0-0_0
  6
CONTINUOUS
 62
    7
 10
-23.589553500000022
 20
469.14941399999998
 11
-23.800064500000076
 21
468.96612499999998
  0
LINE
  8
_0-0_0
  6
CONTINUOUS
 62
    7
 10
-23.804702500000076
 20
469.24520899999999
 11
-23.800064500000076
 21
468.96612499999998
  0
LINE
  8
_0-0_0
  6
CONTINUOUS
 62
    7
 10
-23.365570500000047
 20
469.07666
 11
-23.555770500000051
 21
468.872345
  0
LINE
  8
_0-0_0
  6
CONTINUOUS
 62
    7
 10
-23.589553500000022
 20
469.14941399999998
 11
-23.555770500000051
 21
468.872345
  0
LINE
  8
_0-0_0
  6
CONTINUOUS
 62
    7
 10
-23.135208500000033
 20
469.02767899999998
 11
-23.30300950000003
 21
468.80462599999998
  0
LINE
  8
_0-0_0
  6
CONTINUOUS
 62
    7
 10
-23.365570500000047
 20
469.07666
 11
-23.30300950000003
 21
468.80462599999998
  0
LINE
  8
_0-0_0
  6
CONTINUOUS
 62
    7
 10
-22.900985500000047
 20
469.00305200000003
 11
-23.044540500000039
 21
468.76367199999999
  0
LINE
  8
_0-0_0
  6
CONTINUOUS
 62
    7
 10
-23.135208500000033
 20
469.02767899999998
 11
-23.044540500000039
 21
468.76367199999999
  0
LINE
  8
_0-0_0
  6
CONTINUOUS
 62
    7
 10
-22.665466500000036
 20
469.00305200000003
 11
-22.783218500000032
 21
468.75
  0
LINE
  8
_0-0_0
  6
CONTINUOUS
 62
    7
 10
-22.900985500000047
 20
469.00305200000003
 11
-22.783218500000032
 21
468.75
  0
LINE
  8
_0-0_0
  6
CONTINUOUS
 62
    7
 10
-22.431244500000048
 20
469.02767899999998
 11
-22.521896500000025
 21
468.76367199999999
  0
LINE
  8
_0-0_0
  6
CONTINUOUS
 62
    7
 10
-22.665466500000036
 20
469.00305200000003
 11
-22.521896500000025
 21
468.76367199999999
  0
LINE
  8
_0-0_0
  6
CONTINUOUS
 62
    7
 10
-22.200882500000034
 20
469.07666
 11
-22.263443500000051
 21
468.80462599999998
  0
LINE
  8
_0-0_0
  6
CONTINUOUS
 62
    7
 10
-22.431244500000048
 20
469.02767899999998
 11
-22.263443500000051
 21
468.80462599999998
  0
LINE
  8
_0-0_0
  6
CONTINUOUS
 62
    7
 10
-21.976898500000061
 20
469.14941399999998
 11
-22.010681500000032
 21
468.872345
  0
LINE
  8
_0-0_0
  6
CONTINUOUS
 62
    7
 10
-22.200882500000034
 20
469.07666
 11
-22.010681500000032
 21
468.872345
  0
LINE
  8
_0-0_0
  6
CONTINUOUS
 62
    7
 10
-21.761749500000064
 20
469.24520899999999
 11
-21.766388500000062
 21
468.96612499999998
  0
LINE
  8
_0-0_0
  6
CONTINUOUS
 62
    7
 10
-21.976898500000061
 20
469.14941399999998
 11
-21.766388500000062
 21
468.96612499999998
  0
LINE
  8
_0-0_0
  6
CONTINUOUS
 62
    7
 10
-21.642212500000028
 20
469.16137700000002
 11
-21.533218500000032
 21
469.08492999999999
  0
LINE
  8
_0-0_0
  6
CONTINUOUS
 62
    7
 10
-21.761749500000064
 20
469.24520899999999
 11
-21.642212500000028
 21
469.16137700000002
  0
LINE
  8
_0-0_0
  6
CONTINUOUS
 62
    7
 10
-21.557785500000023
 20
469.362976
 11
-21.533218500000032
 21
469.08492999999999
  0
LINE
  8
_0-0_0
  6
CONTINUOUS
 62
    7
 10
-21.367248500000073
 20
469.50140399999998
 11
-21.313766500000042
 21
469.22744799999998
  0
LINE
  8
_0-0_0
  6
CONTINUOUS
 62
    7
 10
-21.557785500000023
 20
469.362976
 11
-21.313766500000042
 21
469.22744799999998
  0
LINE
  8
_0-0_0
  6
CONTINUOUS
 62
    7
 10
-21.192230500000051
 20
469.658997
 11
-21.110397500000033
 21
469.39211999999998
  0
LINE
  8
_0-0_0
  6
CONTINUOUS
 62
    7
 10
-21.367248500000073
 20
469.50140399999998
 11
-21.110397500000033
 21
469.39211999999998
  0
LINE
  8
_0-0_0
  6
CONTINUOUS
 62
    7
 10
-21.034637500000031
 20
469.83401500000002
 11
-20.925354500000026
 21
469.57714800000002
  0
LINE
  8
_0-0_0
  6
CONTINUOUS
 62
    7
 10
-21.192230500000051
 20
469.658997
 11
-20.925354500000026
 21
469.57714800000002
  0
LINE
  8
_0-0_0
  6
CONTINUOUS
 62
    7
 10
-20.896209500000055
 20
470.02453600000001
 11
-20.760681500000032
 21
469.78051799999997
  0
LINE
  8
_0-0_0
  6
CONTINUOUS
 62
    7
 10
-21.034637500000031
 20
469.83401500000002
 11
-20.760681500000032
 21
469.78051799999997
  0
LINE
  8
_0-0_0
  6
CONTINUOUS
 62
    7
 10
-20.778457500000059
 20
470.22851600000001
 11
-20.618164500000034
 21
470
  0
LINE
  8
_0-0_0
  6
CONTINUOUS
 62
    7
 10
-20.896209500000055
 20
470.02453600000001
 11
-20.618164500000034
 21
470
  0
LINE
  8
_0-0_0
  6
CONTINUOUS
 62
    7
 10
-20.682663500000046
 20
470.44366500000001
 11
-20.499359500000025
 21
470.23315400000001
  0
LINE
  8
_0-0_0
  6
CONTINUOUS
 62
    7
 10
-20.778457500000059
 20
470.22851600000001
 11
-20.499359500000025
 21
470.23315400000001
  0
LINE
  8
_0-0_0
  6
CONTINUOUS
 62
    7
 10
-20.609893500000055
 20
470.66763300000002
 11
-20.405578500000047
 21
470.47744799999998
  0
LINE
  8
_0-0_0
  6
CONTINUOUS
 62
    7
 10
-20.682663500000046
 20
470.44366500000001
 11
-20.405578500000047
 21
470.47744799999998
  0
LINE
  8
_0-0_0
  6
CONTINUOUS
 62
    7
 10
-20.560928500000045
 20
470.89801
 11
-20.337860500000033
 21
470.73019399999998
  0
LINE
  8
_0-0_0
  6
CONTINUOUS
 62
    7
 10
-20.609893500000055
 20
470.66763300000002
 11
-20.337860500000033
 21
470.73019399999998
  0
LINE
  8
_0-0_0
  6
CONTINUOUS
 62
    7
 10
-20.536300500000038
 20
471.13223299999999
 11
-20.296920500000056
 21
470.98864700000001
  0
LINE
  8
_0-0_0
  6
CONTINUOUS
 62
    7
 10
-20.560928500000045
 20
470.89801
 11
-20.296920500000056
 21
470.98864700000001
  0
LINE
  8
_0-0_0
  6
CONTINUOUS
 62
    7
 10
-20.536300500000038
 20
471.36773699999998
 11
-20.283218500000032
 21
471.25
  0
LINE
  8
_0-0_0
  6
CONTINUOUS
 62
    7
 10
-20.536300500000038
 20
471.13223299999999
 11
-20.283218500000032
 21
471.25
  0
LINE
  8
_0-0_0
  6
CONTINUOUS
 62
    7
 10
-20.560928500000045
 20
471.60195900000002
 11
-20.296920500000056
 21
471.51129200000003
  0
LINE
  8
_0-0_0
  6
CONTINUOUS
 62
    7
 10
-20.536300500000038
 20
471.36773699999998
 11
-20.296920500000056
 21
471.51129200000003
  0
LINE
  8
_0-0_0
  6
CONTINUOUS
 62
    7
 10
-20.609893500000055
 20
471.832336
 11
-20.337860500000033
 21
471.76977499999998
  0
LINE
  8
_0-0_0
  6
CONTINUOUS
 62
    7
 10
-20.560928500000045
 20
471.60195900000002
 11
-20.337860500000033
 21
471.76977499999998
  0
LINE
  8
_0-0_0
  6
CONTINUOUS
 62
    7
 10
-20.682663500000046
 20
472.05630500000001
 11
-20.405578500000047
 21
472.02252199999998
  0
LINE
  8
_0-0_0
  6
CONTINUOUS
 62
    7
 10
-20.609893500000055
 20
471.832336
 11
-20.405578500000047
 21
472.02252199999998
  0
LINE
  8
_0-0_0
  6
CONTINUOUS
 62
    7
 10
-20.778457500000059
 20
472.27145400000001
 11
-20.499359500000025
 21
472.26681500000001
  0
LINE
  8
_0-0_0
  6
CONTINUOUS
 62
    7
 10
-20.682663500000046
 20
472.05630500000001
 11
-20.499359500000025
 21
472.26681500000001
  0
CIRCLE
  8
_0-0_0
  6
CONTINUOUS
 62
    7
 10
-22.783218500000032
 20
471.25
 40
2
  0
CIRCLE
  8
_0-0_0
  6
CONTINUOUS
 62
    7
 10
-28.783218500000032
 20
462.94998199999998
 40
5
  0
LINE
  8
_0-0_0
  6
CONTINUOUS
 62
    7
 10
-22.201110500000027
 20
470.25
 11
-23.365326500000037
 21
470.25
  0
LINE
  8
_0-0_0
  6
CONTINUOUS
 62
    7
 10
-23.365326500000037
 20
470.25
 11
-23.933227500000044
 21
471.25
  0
LINE
  8
_0-0_0
  6
CONTINUOUS
 62
    7
 10
-23.933227500000044
 20
471.25
 11
-23.365326500000037
 21
472.25
  0
LINE
  8
_0-0_0
  6
CONTINUOUS
 62
    7
 10
-23.365326500000037
 20
472.25
 11
-22.201110500000027
 21
472.25
  0
LINE
  8
_0-0_0
  6
CONTINUOUS
 62
    7
 10
-22.201110500000027
 20
472.25
 11
-21.63322450000004
 21
471.25
  0
LINE
  8
_0-0_0
  6
CONTINUOUS
 62
    7
 10
-21.63322450000004
 20
471.25
 11
-22.201110500000027
 21
470.25
  0
CIRCLE
  8
_0-0_0
  6
CONTINUOUS
 62
    7
 10
-28.783218500000032
 20
462.94998199999998
 40
4.5381200000000002
  0
CIRCLE
  8
_0-0_0
  6
CONTINUOUS
 62
    7
 10
-28.783218500000032
 20
462.94998199999998
 40
4
  0
LINE
  8
_0-0_0
  6
CONTINUOUS
 62
    7
 10
-36.67022750000001
 20
453.42453
 11
-36.948288500000046
 21
453.39999399999999
  0
LINE
  8
_0-0_0
  6
CONTINUOUS
 62
    7
 10
-36.787994500000025
 20
453.62851000000001
 11
-36.948288500000046
 21
453.39999399999999
  0
LINE
  8
_0-0_0
  6
CONTINUOUS
 62
    7
 10
-36.531799500000034
 20
453.23400900000001
 11
-36.805770500000051
 21
453.18051100000002
  0
LINE
  8
_0-0_0
  6
CONTINUOUS
 62
    7
 10
-36.67022750000001
 20
453.42453
 11
-36.805770500000051
 21
453.18051100000002
  0
LINE
  8
_0-0_0
  6
CONTINUOUS
 62
    7
 10
-36.374206500000014
 20
453.05898999999999
 11
-36.641082500000039
 21
452.97717299999999
  0
LINE
  8
_0-0_0
  6
CONTINUOUS
 62
    7
 10
-36.531799500000034
 20
453.23400900000001
 11
-36.641082500000039
 21
452.97717299999999
  0
LINE
  8
_0-0_0
  6
CONTINUOUS
 62
    7
 10
-36.199188500000048
 20
452.90139799999997
 11
-36.45605450000005
 21
452.79211400000003
  0
LINE
  8
_0-0_0
  6
CONTINUOUS
 62
    7
 10
-36.374206500000014
 20
453.05898999999999
 11
-36.45605450000005
 21
452.79211400000003
  0
LINE
  8
_0-0_0
  6
CONTINUOUS
 62
    7
 10
-36.008667500000058
 20
452.76297
 11
-36.252685500000041
 21
452.62744099999998
  0
LINE
  8
_0-0_0
  6
CONTINUOUS
 62
    7
 10
-36.199188500000048
 20
452.90139799999997
 11
-36.252685500000041
 21
452.62744099999998
  0
LINE
  8
_0-0_0
  6
CONTINUOUS
 62
    7
 10
-35.804702500000076
 20
452.64520299999998
 11
-36.033218500000032
 21
452.48492399999998
  0
LINE
  8
_0-0_0
  6
CONTINUOUS
 62
    7
 10
-36.008667500000058
 20
452.76297
 11
-36.033218500000032
 21
452.48492399999998
  0
LINE
  8
_0-0_0
  6
CONTINUOUS
 62
    7
 10
-35.589553500000022
 20
452.54943800000001
 11
-35.800064500000076
 21
452.36611900000003
  0
LINE
  8
_0-0_0
  6
CONTINUOUS
 62
    7
 10
-35.804702500000076
 20
452.64520299999998
 11
-35.800064500000076
 21
452.36611900000003
  0
LINE
  8
_0-0_0
  6
CONTINUOUS
 62
    7
 10
-35.365570500000047
 20
452.476654
 11
-35.555770500000051
 21
452.27233899999999
  0
LINE
  8
_0-0_0
  6
CONTINUOUS
 62
    7
 10
-35.589553500000022
 20
452.54943800000001
 11
-35.555770500000051
 21
452.27233899999999
  0
LINE
  8
_0-0_0
  6
CONTINUOUS
 62
    7
 10
-35.135192500000016
 20
452.42770400000001
 11
-35.30300950000003
 21
452.20461999999998
  0
LINE
  8
_0-0_0
  6
CONTINUOUS
 62
    7
 10
-35.365570500000047
 20
452.476654
 11
-35.30300950000003
 21
452.20461999999998
  0
LINE
  8
_0-0_0
  6
CONTINUOUS
 62
    7
 10
-34.900985500000047
 20
452.403076
 11
-35.044540500000039
 21
452.16369600000002
  0
LINE
  8
_0-0_0
  6
CONTINUOUS
 62
    7
 10
-35.135192500000016
 20
452.42770400000001
 11
-35.044540500000039
 21
452.16369600000002
  0
LINE
  8
_0-0_0
  6
CONTINUOUS
 62
    7
 10
-34.665466500000036
 20
452.403076
 11
-34.783218500000032
 21
452.14999399999999
  0
LINE
  8
_0-0_0
  6
CONTINUOUS
 62
    7
 10
-34.900985500000047
 20
452.403076
 11
-34.783218500000032
 21
452.14999399999999
  0
LINE
  8
_0-0_0
  6
CONTINUOUS
 62
    7
 10
-34.431244500000048
 20
452.42770400000001
 11
-34.521896500000025
 21
452.16369600000002
  0
LINE
  8
_0-0_0
  6
CONTINUOUS
 62
    7
 10
-34.665466500000036
 20
452.403076
 11
-34.521896500000025
 21
452.16369600000002
  0
LINE
  8
_0-0_0
  6
CONTINUOUS
 62
    7
 10
-34.200882500000034
 20
452.476654
 11
-34.263443500000051
 21
452.20461999999998
  0
LINE
  8
_0-0_0
  6
CONTINUOUS
 62
    7
 10
-34.431244500000048
 20
452.42770400000001
 11
-34.263443500000051
 21
452.20461999999998
  0
LINE
  8
_0-0_0
  6
CONTINUOUS
 62
    7
 10
-33.976898500000061
 20
452.54943800000001
 11
-34.010681500000032
 21
452.27233899999999
  0
LINE
  8
_0-0_0
  6
CONTINUOUS
 62
    7
 10
-34.200882500000034
 20
452.476654
 11
-34.010681500000032
 21
452.27233899999999
  0
LINE
  8
_0-0_0
  6
CONTINUOUS
 62
    7
 10
-33.761749500000064
 20
452.64520299999998
 11
-33.766388500000062
 21
452.36611900000003
  0
LINE
  8
_0-0_0
  6
CONTINUOUS
 62
    7
 10
-33.976898500000061
 20
452.54943800000001
 11
-33.766388500000062
 21
452.36611900000003
  0
LINE
  8
_0-0_0
  6
CONTINUOUS
 62
    7
 10
-33.642212500000028
 20
452.56137100000001
 11
-33.533218500000032
 21
452.48492399999998
  0
LINE
  8
_0-0_0
  6
CONTINUOUS
 62
    7
 10
-33.761749500000064
 20
452.64520299999998
 11
-33.642212500000028
 21
452.56137100000001
  0
LINE
  8
_0-0_0
  6
CONTINUOUS
 62
    7
 10
-33.557785500000023
 20
452.76297
 11
-33.533218500000032
 21
452.48492399999998
  0
LINE
  8
_0-0_0
  6
CONTINUOUS
 62
    7
 10
-33.367248500000073
 20
452.90139799999997
 11
-33.313766500000042
 21
452.62744099999998
  0
LINE
  8
_0-0_0
  6
CONTINUOUS
 62
    7
 10
-33.557785500000023
 20
452.76297
 11
-33.313766500000042
 21
452.62744099999998
  0
LINE
  8
_0-0_0
  6
CONTINUOUS
 62
    7
 10
-33.192230500000051
 20
453.05898999999999
 11
-33.110397500000033
 21
452.79211400000003
  0
LINE
  8
_0-0_0
  6
CONTINUOUS
 62
    7
 10
-33.367248500000073
 20
452.90139799999997
 11
-33.110397500000033
 21
452.79211400000003
  0
LINE
  8
_0-0_0
  6
CONTINUOUS
 62
    7
 10
-33.034637500000031
 20
453.23400900000001
 11
-32.925354500000026
 21
452.97717299999999
  0
LINE
  8
_0-0_0
  6
CONTINUOUS
 62
    7
 10
-33.192230500000051
 20
453.05898999999999
 11
-32.925354500000026
 21
452.97717299999999
  0
LINE
  8
_0-0_0
  6
CONTINUOUS
 62
    7
 10
-32.896209500000055
 20
453.42453
 11
-32.760681500000032
 21
453.18051100000002
  0
LINE
  8
_0-0_0
  6
CONTINUOUS
 62
    7
 10
-33.034637500000031
 20
453.23400900000001
 11
-32.760681500000032
 21
453.18051100000002
  0
LINE
  8
_0-0_0
  6
CONTINUOUS
 62
    7
 10
-32.778457500000059
 20
453.62851000000001
 11
-32.618164500000034
 21
453.39999399999999
  0
LINE
  8
_0-0_0
  6
CONTINUOUS
 62
    7
 10
-32.896209500000055
 20
453.42453
 11
-32.618164500000034
 21
453.39999399999999
  0
LINE
  8
_0-0_0
  6
CONTINUOUS
 62
    7
 10
-32.682663500000046
 20
453.843658
 11
-32.499359500000025
 21
453.63314800000001
  0
LINE
  8
_0-0_0
  6
CONTINUOUS
 62
    7
 10
-32.778457500000059
 20
453.62851000000001
 11
-32.499359500000025
 21
453.63314800000001
  0
LINE
  8
_0-0_0
  6
CONTINUOUS
 62
    7
 10
-32.609893500000055
 20
454.06762700000002
 11
-32.405578500000047
 21
453.87744099999998
  0
LINE
  8
_0-0_0
  6
CONTINUOUS
 62
    7
 10
-32.682663500000046
 20
453.843658
 11
-32.405578500000047
 21
453.87744099999998
  0
LINE
  8
_0-0_0
  6
CONTINUOUS
 62
    7
 10
-32.560928500000045
 20
454.29800399999999
 11
-32.337860500000033
 21
454.13018799999998
  0
LINE
  8
_0-0_0
  6
CONTINUOUS
 62
    7
 10
-32.609893500000055
 20
454.06762700000002
 11
-32.337860500000033
 21
454.13018799999998
  0
LINE
  8
_0-0_0
  6
CONTINUOUS
 62
    7
 10
-32.536300500000038
 20
454.53222699999998
 11
-32.296920500000056
 21
454.38867199999999
  0
LINE
  8
_0-0_0
  6
CONTINUOUS
 62
    7
 10
-32.560928500000045
 20
454.29800399999999
 11
-32.296920500000056
 21
454.38867199999999
  0
LINE
  8
_0-0_0
  6
CONTINUOUS
 62
    7
 10
-32.536300500000038
 20
454.76773100000003
 11
-32.283218500000032
 21
454.64999399999999
  0
LINE
  8
_0-0_0
  6
CONTINUOUS
 62
    7
 10
-32.536300500000038
 20
454.53222699999998
 11
-32.283218500000032
 21
454.64999399999999
  0
LINE
  8
_0-0_0
  6
CONTINUOUS
 62
    7
 10
-32.560928500000045
 20
455.00195300000001
 11
-32.296920500000056
 21
454.911316
  0
LINE
  8
_0-0_0
  6
CONTINUOUS
 62
    7
 10
-32.536300500000038
 20
454.76773100000003
 11
-32.296920500000056
 21
454.911316
  0
LINE
  8
_0-0_0
  6
CONTINUOUS
 62
    7
 10
-32.609893500000055
 20
455.23232999999999
 11
-32.337860500000033
 21
455.16976899999997
  0
LINE
  8
_0-0_0
  6
CONTINUOUS
 62
    7
 10
-32.560928500000045
 20
455.00195300000001
 11
-32.337860500000033
 21
455.16976899999997
  0
LINE
  8
_0-0_0
  6
CONTINUOUS
 62
    7
 10
-32.682663500000046
 20
455.456299
 11
-32.405578500000047
 21
455.42251599999997
  0
LINE
  8
_0-0_0
  6
CONTINUOUS
 62
    7
 10
-32.609893500000055
 20
455.23232999999999
 11
-32.405578500000047
 21
455.42251599999997
  0
LINE
  8
_0-0_0
  6
CONTINUOUS
 62
    7
 10
-32.778457500000059
 20
455.671448
 11
-32.499359500000025
 21
455.666809
  0
LINE
  8
_0-0_0
  6
CONTINUOUS
 62
    7
 10
-32.682663500000046
 20
455.456299
 11
-32.499359500000025
 21
455.666809
  0
LINE
  8
_0-0_0
  6
CONTINUOUS
 62
    7
 10
-32.896209500000055
 20
455.875427
 11
-32.618164500000034
 21
455.89999399999999
  0
LINE
  8
_0-0_0
  6
CONTINUOUS
 62
    7
 10
-32.778457500000059
 20
455.671448
 11
-32.618164500000034
 21
455.89999399999999
  0
LINE
  8
_0-0_0
  6
CONTINUOUS
 62
    7
 10
-36.199188500000048
 20
456.39855999999997
 11
-36.252685500000041
 21
456.67251599999997
  0
LINE
  8
_0-0_0
  6
CONTINUOUS
 62
    7
 10
-36.199188500000048
 20
456.39855999999997
 11
-36.45605450000005
 21
456.50784299999998
  0
LINE
  8
_0-0_0
  6
CONTINUOUS
 62
    7
 10
-36.374206500000014
 20
456.24096700000001
 11
-36.45605450000005
 21
456.50784299999998
  0
LINE
  8
_0-0_0
  6
CONTINUOUS
 62
    7
 10
-36.374206500000014
 20
456.24096700000001
 11
-36.641082500000039
 21
456.32281499999999
  0
LINE
  8
_0-0_0
  6
CONTINUOUS
 62
    7
 10
-36.531799500000034
 20
456.06594799999999
 11
-36.641082500000039
 21
456.32281499999999
  0
LINE
  8
_0-0_0
  6
CONTINUOUS
 62
    7
 10
-36.531799500000034
 20
456.06594799999999
 11
-36.805770500000051
 21
456.11944599999998
  0
LINE
  8
_0-0_0
  6
CONTINUOUS
 62
    7
 10
-36.67022750000001
 20
455.875427
 11
-36.805770500000051
 21
456.11944599999998
  0
LINE
  8
_0-0_0
  6
CONTINUOUS
 62
    7
 10
-36.67022750000001
 20
455.875427
 11
-36.948288500000046
 21
455.89999399999999
  0
LINE
  8
_0-0_0
  6
CONTINUOUS
 62
    7
 10
-36.787994500000025
 20
455.671448
 11
-36.948288500000046
 21
455.89999399999999
  0
LINE
  8
_0-0_0
  6
CONTINUOUS
 62
    7
 10
-36.787994500000025
 20
455.671448
 11
-37.067093500000055
 21
455.666809
  0
LINE
  8
_0-0_0
  6
CONTINUOUS
 62
    7
 10
-36.883773500000075
 20
455.456299
 11
-37.067093500000055
 21
455.666809
  0
LINE
  8
_0-0_0
  6
CONTINUOUS
 62
    7
 10
-36.883773500000075
 20
455.456299
 11
-37.160858500000018
 21
455.42251599999997
  0
LINE
  8
_0-0_0
  6
CONTINUOUS
 62
    7
 10
-36.956558500000028
 20
455.23232999999999
 11
-37.160858500000018
 21
455.42251599999997
  0
LINE
  8
_0-0_0
  6
CONTINUOUS
 62
    7
 10
-36.956558500000028
 20
455.23232999999999
 11
-37.228592500000047
 21
455.16976899999997
  0
LINE
  8
_0-0_0
  6
CONTINUOUS
 62
    7
 10
-37.005523500000038
 20
455.00195300000001
 11
-37.228592500000047
 21
455.16976899999997
  0
LINE
  8
_0-0_0
  6
CONTINUOUS
 62
    7
 10
-37.005523500000038
 20
455.00195300000001
 11
-37.269531500000028
 21
454.911316
  0
LINE
  8
_0-0_0
  6
CONTINUOUS
 62
    7
 10
-37.030136500000026
 20
454.76773100000003
 11
-37.269531500000028
 21
454.911316
  0
LINE
  8
_0-0_0
  6
CONTINUOUS
 62
    7
 10
-37.030136500000026
 20
454.76773100000003
 11
-37.283218500000032
 21
454.64999399999999
  0
LINE
  8
_0-0_0
  6
CONTINUOUS
 62
    7
 10
-37.030136500000026
 20
454.53222699999998
 11
-37.283218500000032
 21
454.64999399999999
  0
LINE
  8
_0-0_0
  6
CONTINUOUS
 62
    7
 10
-37.030136500000026
 20
454.53222699999998
 11
-37.269531500000028
 21
454.38867199999999
  0
LINE
  8
_0-0_0
  6
CONTINUOUS
 62
    7
 10
-37.005523500000038
 20
454.29800399999999
 11
-37.269531500000028
 21
454.38867199999999
  0
LINE
  8
_0-0_0
  6
CONTINUOUS
 62
    7
 10
-37.005523500000038
 20
454.29800399999999
 11
-37.228592500000047
 21
454.13018799999998
  0
LINE
  8
_0-0_0
  6
CONTINUOUS
 62
    7
 10
-36.956558500000028
 20
454.06762700000002
 11
-37.228592500000047
 21
454.13018799999998
  0
LINE
  8
_0-0_0
  6
CONTINUOUS
 62
    7
 10
-36.956558500000028
 20
454.06762700000002
 11
-37.160858500000018
 21
453.87744099999998
  0
LINE
  8
_0-0_0
  6
CONTINUOUS
 62
    7
 10
-36.883773500000075
 20
453.843658
 11
-37.160858500000018
 21
453.87744099999998
  0
LINE
  8
_0-0_0
  6
CONTINUOUS
 62
    7
 10
-36.883773500000075
 20
453.843658
 11
-37.067093500000055
 21
453.63314800000001
  0
LINE
  8
_0-0_0
  6
CONTINUOUS
 62
    7
 10
-36.787994500000025
 20
453.62851000000001
 11
-37.067093500000055
 21
453.63314800000001
  0
CIRCLE
  8
_0-0_0
  6
CONTINUOUS
 62
    7
 10
-34.783218500000032
 20
454.64999399999999
 40
2
  0
LINE
  8
_0-0_0
  6
CONTINUOUS
 62
    7
 10
-35.924240500000053
 20
456.738586
 11
-36.033218500000032
 21
456.81506300000001
  0
LINE
  8
_0-0_0
  6
CONTINUOUS
 62
    7
 10
-36.008667500000058
 20
456.53698700000001
 11
-36.033218500000032
 21
456.81506300000001
  0
LINE
  8
_0-0_0
  6
CONTINUOUS
 62
    7
 10
-36.008667500000058
 20
456.53698700000001
 11
-36.252685500000041
 21
456.67251599999997
  0
LINE
  8
_0-0_0
  6
CONTINUOUS
 62
    7
 10
-32.896209500000055
 20
455.875427
 11
-32.760681500000032
 21
456.11944599999998
  0
LINE
  8
_0-0_0
  6
CONTINUOUS
 62
    7
 10
-33.034637500000031
 20
456.06594799999999
 11
-32.760681500000032
 21
456.11944599999998
  0
LINE
  8
_0-0_0
  6
CONTINUOUS
 62
    7
 10
-33.034637500000031
 20
456.06594799999999
 11
-32.925354500000026
 21
456.32281499999999
  0
LINE
  8
_0-0_0
  6
CONTINUOUS
 62
    7
 10
-33.192230500000051
 20
456.24096700000001
 11
-32.925354500000026
 21
456.32281499999999
  0
LINE
  8
_0-0_0
  6
CONTINUOUS
 62
    7
 10
-33.192230500000051
 20
456.24096700000001
 11
-33.110397500000033
 21
456.50784299999998
  0
LINE
  8
_0-0_0
  6
CONTINUOUS
 62
    7
 10
-33.367248500000073
 20
456.39855999999997
 11
-33.110397500000033
 21
456.50784299999998
  0
LINE
  8
_0-0_0
  6
CONTINUOUS
 62
    7
 10
-33.367248500000073
 20
456.39855999999997
 11
-33.313766500000042
 21
456.67251599999997
  0
LINE
  8
_0-0_0
  6
CONTINUOUS
 62
    7
 10
-33.557785500000023
 20
456.53698700000001
 11
-33.313766500000042
 21
456.67251599999997
  0
LINE
  8
_0-0_0
  6
CONTINUOUS
 62
    7
 10
-33.557785500000023
 20
456.53698700000001
 11
-33.533218500000032
 21
456.81506300000001
  0
LINE
  8
_0-0_0
  6
CONTINUOUS
 62
    7
 10
-33.761749500000064
 20
456.65475500000002
 11
-33.533218500000032
 21
456.81506300000001
  0
LINE
  8
_0-0_0
  6
CONTINUOUS
 62
    7
 10
-33.761749500000064
 20
456.65475500000002
 11
-33.766388500000062
 21
456.93383799999998
  0
LINE
  8
_0-0_0
  6
CONTINUOUS
 62
    7
 10
-33.976898500000061
 20
456.75054899999998
 11
-33.766388500000062
 21
456.93383799999998
  0
LINE
  8
_0-0_0
  6
CONTINUOUS
 62
    7
 10
-33.976898500000061
 20
456.75054899999998
 11
-34.010681500000032
 21
457.02761800000002
  0
LINE
  8
_0-0_0
  6
CONTINUOUS
 62
    7
 10
-34.200882500000034
 20
456.82330300000001
 11
-34.010681500000032
 21
457.02761800000002
  0
LINE
  8
_0-0_0
  6
CONTINUOUS
 62
    7
 10
-34.200882500000034
 20
456.82330300000001
 11
-34.263443500000051
 21
457.09533699999997
  0
LINE
  8
_0-0_0
  6
CONTINUOUS
 62
    7
 10
-34.431244500000048
 20
456.87228399999998
 11
-34.263443500000051
 21
457.09533699999997
  0
LINE
  8
_0-0_0
  6
CONTINUOUS
 62
    7
 10
-34.431244500000048
 20
456.87228399999998
 11
-34.521896500000025
 21
457.13629200000003
  0
LINE
  8
_0-0_0
  6
CONTINUOUS
 62
    7
 10
-34.665466500000036
 20
456.89691199999999
 11
-34.521896500000025
 21
457.13629200000003
  0
LINE
  8
_0-0_0
  6
CONTINUOUS
 62
    7
 10
-34.665466500000036
 20
456.89691199999999
 11
-34.783218500000032
 21
457.14999399999999
  0
LINE
  8
_0-0_0
  6
CONTINUOUS
 62
    7
 10
-34.900985500000047
 20
456.89691199999999
 11
-34.783218500000032
 21
457.14999399999999
  0
LINE
  8
_0-0_0
  6
CONTINUOUS
 62
    7
 10
-34.900985500000047
 20
456.89691199999999
 11
-35.044540500000039
 21
457.13629200000003
  0
LINE
  8
_0-0_0
  6
CONTINUOUS
 62
    7
 10
-35.135192500000016
 20
456.87228399999998
 11
-35.044540500000039
 21
457.13629200000003
  0
LINE
  8
_0-0_0
  6
CONTINUOUS
 62
    7
 10
-35.135192500000016
 20
456.87228399999998
 11
-35.30300950000003
 21
457.09533699999997
  0
LINE
  8
_0-0_0
  6
CONTINUOUS
 62
    7
 10
-35.365570500000047
 20
456.82330300000001
 11
-35.30300950000003
 21
457.09533699999997
  0
LINE
  8
_0-0_0
  6
CONTINUOUS
 62
    7
 10
-35.365570500000047
 20
456.82330300000001
 11
-35.555770500000051
 21
457.02761800000002
  0
LINE
  8
_0-0_0
  6
CONTINUOUS
 62
    7
 10
-35.589553500000022
 20
456.75054899999998
 11
-35.555770500000051
 21
457.02761800000002
  0
LINE
  8
_0-0_0
  6
CONTINUOUS
 62
    7
 10
-35.589553500000022
 20
456.75054899999998
 11
-35.800064500000076
 21
456.93383799999998
  0
LINE
  8
_0-0_0
  6
CONTINUOUS
 62
    7
 10
-35.804702500000076
 20
456.65475500000002
 11
-35.800064500000076
 21
456.93383799999998
  0
LINE
  8
_0-0_0
  6
CONTINUOUS
 62
    7
 10
-35.804702500000076
 20
456.65475500000002
 11
-35.924240500000053
 21
456.738586
  0
LINE
  8
_0-0_0
  6
CONTINUOUS
 62
    7
 10
-34.201110500000027
 20
453.64999399999999
 11
-35.365326500000037
 21
453.64999399999999
  0
LINE
  8
_0-0_0
  6
CONTINUOUS
 62
    7
 10
-35.365326500000037
 20
453.64999399999999
 11
-35.933227500000044
 21
454.64999399999999
  0
LINE
  8
_0-0_0
  6
CONTINUOUS
 62
    7
 10
-35.933227500000044
 20
454.64999399999999
 11
-35.365326500000037
 21
455.64999399999999
  0
LINE
  8
_0-0_0
  6
CONTINUOUS
 62
    7
 10
-35.365326500000037
 20
455.64999399999999
 11
-34.201110500000027
 21
455.64999399999999
  0
LINE
  8
_0-0_0
  6
CONTINUOUS
 62
    7
 10
-34.201110500000027
 20
455.64999399999999
 11
-33.63322450000004
 21
454.64999399999999
  0
LINE
  8
_0-0_0
  6
CONTINUOUS
 62
    7
 10
-33.63322450000004
 20
454.64999399999999
 11
-34.201110500000027
 21
453.64999399999999
  0
LINE
  8
_0-0_0
  6
CONTINUOUS
 62
    7
 10
-20.083221500000036
 20
472.05029300000001
 11
-20.083221500000036
 21
472.05627399999997
  0
LINE
  8
_0-0_0
  6
CONTINUOUS
 62
    7
 10
-20.083221500000036
 20
473.25
 11
-20.083587500000021
 21
473.23788500000001
  0
LINE
  8
_0-0_0
  6
CONTINUOUS
 62
    7
 10
-20.083587500000021
 20
452.66210899999999
 11
-20.083221500000036
 21
452.64999399999999
  0
ARC
  8
_0-0_0
  6
CONTINUOUS
 62
    7
 10
-35.283218500000032
 20
471.75
 40
2
 50
90.000003000000007
 51
93.840255999999997
  0
ARC
  8
_0-0_0
  6
CONTINUOUS
 62
    7
 10
-22.283218500000032
 20
454.14999399999999
 40
2
 50
269.99999700000001
 51
273.84026499999999
  0
ENDSEC
  0
EOF
