  0
SECTION
  2
HEADER
  9
$ACADVER
  1
AC1009
  9
$INSBASE
 10
0
 20
0
 30
0
  9
$EXTMIN
 10
0
 20
0
  9
$EXTMAX
 10
841
 20
594
  9
$LIMMIN
 10
0
 20
0
  9
$LIMMAX
 10
841
 20
594
  9
$LTSCALE
 40
1
  0
ENDSEC
  0
SECTION
  2
TABLES
  0
TABLE
  2
LTYPE
 70
     9
  0
LTYPE
  2
CONTINUOUS
 70
    64
  3
実線
 72
    65
 73
     0
 40
0.0
  0
LTYPE
  2
DASHED1
 70
    64
  3
--  --  --  --  --  --  --  --  
 72
    65
 73
     2
 40
2.5
 49
1.25
 49
-1.25
  0
LTYPE
  2
DASHED2
 70
    64
  3
----    ----    ----    ----    
 72
    65
 73
     2
 40
5.0
 49
2.5
 49
-2.5
  0
LTYPE
  2
DASHED3
 70
    64
  3
------  ------  ------  ------  
 72
    65
 73
     2
 40
5.0
 49
3.75
 49
-1.25
  0
LTYPE
  2
CENTER1
 70
    64
  3
----- - ----- - ----- - ----- - 
 72
    65
 73
     4
 40
10.0
 49
6.25
 49
-1.25
 49
1.25
 49
-1.25
  0
LTYPE
  2
CENTER2
 70
    64
  3
----------  --  ----------  --  
 72
    65
 73
     4
 40
20.0
 49
12.5
 49
-2.5
 49
2.5
 49
-2.5
  0
LTYPE
  2
PHANTOM1
 70
    64
  3
--- - - --- - - --- - - --- - - 
 72
    65
 73
     6
 40
10.0
 49
3.25
 49
-1.25
 49
1.25
 49
-1.25
 49
1.25
 49
-1.25
  0
LTYPE
  2
PHANTOM2
 70
    64
  3
--------  -  -  --------  -  -  
 72
    65
 73
     6
 40
20.0
 49
10.0
 49
-2.5
 49
1.25
 49
-2.5
 49
1.25
 49
-2.5
  0
LTYPE
  2
DOT
 70
    64
  3
-   -   -   -   -   -   -   -   
 72
    65
 73
     2
 40
2.5
 49
0.625
 49
-1.875
  0
LTYPE
  2
DUMMY
 70
    64
  3
ダミー
 72
    65
 73
     0
 40
0.0
  0
LTYPE
  2
RAND1
 70
    64
  3
ランダム線1
 72
    65
 73
     4
 40
10.0
 49
1.0
 49
-2.0
 49
3.0
 49
-4.0
  0
LTYPE
  2
RAND2
 70
    64
  3
ランダム線2
 72
    65
 73
     4
 40
14.0
 49
2.0
 49
-3.0
 49
4.0
 49
-5.0
  0
LTYPE
  2
RAND3
 70
    64
  3
ランダム線3
 72
    65
 73
     4
 40
18.0
 49
3.0
 49
-4.0
 49
5.0
 49
-6.0
  0
LTYPE
  2
RAND4
 70
    64
  3
ランダム線4
 72
    65
 73
     4
 40
22.0
 49
4.0
 49
-5.0
 49
6.0
 49
-7.0
  0
LTYPE
  2
RAND5
 70
    64
  3
ランダム線5
 72
    65
 73
     4
 40
26.0
 49
5.0
 49
-6.0
 49
7.0
 49
-8.0
  0
LTYPE
  2
LONG1
 70
    64
  3
----------  --  ----------  --  
 72
    65
 73
     4
 40
40.0
 49
32.5
 49
-2.5
 49
2.5
 49
-2.5
  0
LTYPE
  2
LONG2
 70
    64
  3
--------  -  -  --------  -  -  
 72
    65
 73
     6
 40
40.0
 49
30.0
 49
-2.5
 49
1.25
 49
-2.5
 49
1.25
 49
-2.5
  0
LTYPE
  2
LONG3
 70
    64
  3
+++++++++++++++..+++++++++++++++
 72
    65
 73
     2
 40
40.0
 49
37.5
 49
-2.5
  0
LTYPE
  2
LONG4
 70
    64
  3
+++++++++++++++..+++++++++++++++
 72
    65
 73
     2
 40
80.0
 49
75.0
 49
-5.0
  0
LTYPE
  2
LONG5
 70
    64
  3
----------  --  ----------  --  
 72
    65
 73
     4
 40
60.0
 49
37.5
 49
-7.5
 49
7.5
 49
-7.5
  0
LTYPE
  2
dashed
 70
   64
  3
-------   -------------   ------
 72
   65
 73
    2
 40
7.5
 49
6
 49
-1.5
  0
LTYPE
  2
dashed_spaced
 70
   64
  3
----        --------        ----
 72
   65
 73
    2
 40
12
 49
6
 49
-6
  0
LTYPE
  2
long_dashed_dotted
 70
   64
  3
------------- --- --------------
 72
   65
 73
    4
 40
15.25
 49
12
 49
-1.5
 49
0.25
 49
-1.5
  0
LTYPE
  2
long_dashed_double-dotted
 70
   64
  3
----------- --- --- ------------
 72
   65
 73
    6
 40
17
 49
12
 49
-1.5
 49
0.25
 49
-1.5
 49
0.25
 49
-1.5
  0
LTYPE
  2
long_dashed_triplicate-dotted
 70
   64
  3
--------- --- --- --- ----------
 72
   65
 73
    8
 40
18.75
 49
12
 49
-1.5
 49
0.25
 49
-1.5
 49
0.25
 49
-1.5
 49
0.25
 49
-1.5
  0
LTYPE
  2
dotted
 70
   64
  3
   -       -       -       -    
 72
   65
 73
    2
 40
1.75
 49
0.25
 49
-1.5
  0
LTYPE
  2
chain
 70
   64
  3
-------------- -- --------------
 72
   65
 73
    4
 40
18.5
 49
12
 49
-1.5
 49
3.5
 49
-1.5
  0
LTYPE
  2
chain_double_dash
 70
   64
  3
------------ -- -- -------------
 72
   65
 73
    6
 40
23.5
 49
12
 49
-1.5
 49
3.5
 49
-1.5
 49
3.5
 49
-1.5
  0
LTYPE
  2
dashed_dotted
 70
   64
  3
-----------     -     ----------
 72
   65
 73
    4
 40
9.25
 49
6
 49
-1.5
 49
0.25
 49
-1.5
  0
LTYPE
  2
double-dashed_dotted
 70
   64
  3
------   -----------   -   -----
 72
   65
 73
    6
 40
16.75
 49
6
 49
-1.5
 49
6
 49
-1.5
 49
0.25
 49
-1.5
  0
LTYPE
  2
dashed_double-dotted
 70
   64
  3
---------    -    -    ---------
 72
   65
 73
    6
 40
11
 49
6
 49
-1.5
 49
0.25
 49
-1.5
 49
0.25
 49
-1.5
  0
LTYPE
  2
double-dashed_double-dotted
 70
   64
  3
-----   ---------   -   -   ----
 72
   65
 73
    8
 40
18.5
 49
6
 49
-1.5
 49
6
 49
-1.5
 49
0.25
 49
-1.5
 49
0.25
 49
-1.5
  0
LTYPE
  2
dashed_triplicate-dotted
 70
   64
  3
-------    -    -    -    ------
 72
   65
 73
    8
 40
12.75
 49
6
 49
-1.5
 49
0.25
 49
-1.5
 49
0.25
 49
-1.5
 49
0.25
 49
-1.5
  0
LTYPE
  2
double-dashed_triplicate-dotted
 70
   64
  3
-----  ---------  -  -  -  -----
 72
   65
 73
   10
 40
20.25
 49
6
 49
-1.5
 49
6
 49
-1.5
 49
0.25
 49
-1.5
 49
0.25
 49
-1.5
 49
0.25
 49
-1.5
  0
LTYPE
  2
undefined
 70
   64
  3
--------------------------------
 72
   65
 73
    0
 40
0
  0
ENDTAB
  0
TABLE
  2
STYLE
  5
3
100
AcDbSymbolTable
 70
     1
  0
STYLE
  5
10
100
AcDbSymbolTableRecord
100
AcDbTextStyleTableRecord
  2
STANDARD
 70
     0
 40
0.0
 41
1.0
 50
0.0
 71
     0
 42
0.2
  3
txt
  4
bigfont.shx
  0
STYLE
  5
26
100
AcDbSymbolTableRecord
100
AcDbTextStyleTableRecord
  2
TATEGAKI
 70
    68
 40
0.0
 41
1.0
 50
0.0
 71
     0
 42
1.0
  3
txt
  4
bigfont.shx
  0
ENDTAB
  0
TABLE
  2
LAYER
 70
    2
  0
LAYER
  2
_0-0_0
 70
   64
 62
    7
  6
CONTINUOUS
  0
LAYER
  2
ADD_LINE
 70
   64
 62
    7
  6
CONTINUOUS
  0
ENDTAB
  0
ENDSEC
  0
SECTION
  2
BLOCKS
  0
ENDSEC
  0
SECTION
  2
ENTITIES
  0
ARC
  8
_0-0_0
  6
CONTINUOUS
 62
    7
 10
289.22772199999997
 20
406.59997600000003
 40
0.2
 50
269.99999700000001
 51
20.376440000000013
  0
LINE
  8
_0-0_0
  6
CONTINUOUS
 62
    7
 10
289.41522199999997
 20
406.66961700000002
 11
288.11520400000001
 21
410.16961700000002
  0
ARC
  8
_0-0_0
  6
CONTINUOUS
 62
    7
 10
287.92773399999999
 20
410.09997600000003
 40
0.2
 50
20.376439999999999
 51
159.62355600000001
  0
LINE
  8
_0-0_0
  6
CONTINUOUS
 62
    7
 10
286.44023099999998
 20
406.66961700000002
 11
287.74023399999999
 21
410.16961700000002
  0
ARC
  8
_0-0_0
  6
CONTINUOUS
 62
    7
 10
286.627701
 20
406.59997600000003
 40
0.2
 50
159.62355600000001
 51
269.99999700000001
  0
LINE
  8
_0-0_0
  6
CONTINUOUS
 62
    7
 10
286.627701
 20
406.39999399999999
 11
289.22772199999997
 21
406.39999399999999
  0
LINE
  8
_0-0_0
  6
CONTINUOUS
 62
    7
 10
123.99490299999997
 20
455.00271600000002
 11
123.99490299999997
 21
455.00170900000001
  0
LINE
  8
_0-0_0
  6
CONTINUOUS
 62
    7
 10
806.92776500000002
 20
443.39999399999999
 11
806.92776500000002
 21
430.39999399999999
  0
LINE
  8
_0-0_0
  6
CONTINUOUS
 62
    7
 10
233.92771899999997
 20
443.39999399999999
 11
233.92771899999997
 21
430.39999399999999
  0
LINE
  8
_0-0_0
  6
CONTINUOUS
 62
    7
 10
233.92771899999997
 20
443.39999399999999
 11
806.92776500000002
 21
443.39999399999999
  0
LINE
  8
_0-0_0
  6
CONTINUOUS
 62
    7
 10
233.92771899999997
 20
443.39999399999999
 11
233.92771899999997
 21
462
  0
LINE
  8
_0-0_0
  6
CONTINUOUS
 62
    7
 10
233.92771899999997
 20
464.5
 11
233.92771899999997
 21
462
  0
LINE
  8
_0-0_0
  6
CONTINUOUS
 62
    7
 10
233.92771899999997
 20
465
 11
233.92771899999997
 21
464.5
  0
LINE
  8
_0-0_0
  6
CONTINUOUS
 62
    7
 10
233.92771899999997
 20
417
 11
233.92771899999997
 21
416.5
  0
LINE
  8
_0-0_0
  6
CONTINUOUS
 62
    7
 10
233.92771899999997
 20
422
 11
233.92771899999997
 21
417
  0
LINE
  8
_0-0_0
  6
CONTINUOUS
 62
    7
 10
233.92771899999997
 20
422.5
 11
233.92771899999997
 21
422
  0
LINE
  8
_0-0_0
  6
CONTINUOUS
 62
    7
 10
233.92771899999997
 20
423
 11
233.92771899999997
 21
422.5
  0
LINE
  8
_0-0_0
  6
CONTINUOUS
 62
    7
 10
233.92771899999997
 20
426.19998199999998
 11
233.92771899999997
 21
423
  0
LINE
  8
_0-0_0
  6
CONTINUOUS
 62
    7
 10
233.92771899999997
 20
426.19998199999998
 11
233.92771899999997
 21
430.39999399999999
  0
LINE
  8
_0-0_0
  6
CONTINUOUS
 62
    7
 10
233.92771899999997
 20
430.39999399999999
 11
806.92776500000002
 21
430.39999399999999
  0
LINE
  8
_0-0_0
  6
CONTINUOUS
 62
    7
 10
806.92776500000002
 20
426.19998199999998
 11
806.92776500000002
 21
430.39999399999999
  0
LINE
  8
_0-0_0
  6
CONTINUOUS
 62
    7
 10
806.92776500000002
 20
423
 11
806.92776500000002
 21
426.19998199999998
  0
LINE
  8
_0-0_0
  6
CONTINUOUS
 62
    7
 10
806.92776500000002
 20
423
 11
806.92776500000002
 21
422.5
  0
LINE
  8
_0-0_0
  6
CONTINUOUS
 62
    7
 10
806.92776500000002
 20
422.5
 11
806.92776500000002
 21
422
  0
LINE
  8
_0-0_0
  6
CONTINUOUS
 62
    7
 10
806.92776500000002
 20
422
 11
806.92776500000002
 21
417
  0
LINE
  8
_0-0_0
  6
CONTINUOUS
 62
    7
 10
806.92776500000002
 20
417
 11
806.92776500000002
 21
416.5
  0
LINE
  8
_0-0_0
  6
CONTINUOUS
 62
    7
 10
806.92776500000002
 20
465
 11
806.92776500000002
 21
464.5
  0
LINE
  8
_0-0_0
  6
CONTINUOUS
 62
    7
 10
806.92776500000002
 20
462
 11
806.92776500000002
 21
464.5
  0
LINE
  8
_0-0_0
  6
CONTINUOUS
 62
    7
 10
806.92776500000002
 20
443.39999399999999
 11
806.92776500000002
 21
462
  0
CIRCLE
  8
_0-0_0
  6
CONTINUOUS
 62
    7
 10
770.42776500000002
 20
452.5
 40
6
  0
CIRCLE
  8
_0-0_0
  6
CONTINUOUS
 62
    7
 10
670.42776500000002
 20
452.5
 40
6
  0
CIRCLE
  8
_0-0_0
  6
CONTINUOUS
 62
    7
 10
570.42776500000002
 20
452.5
 40
6
  0
CIRCLE
  8
_0-0_0
  6
CONTINUOUS
 62
    7
 10
470.42773399999999
 20
452.5
 40
6
  0
CIRCLE
  8
_0-0_0
  6
CONTINUOUS
 62
    7
 10
370.42773399999999
 20
452.5
 40
6
  0
CIRCLE
  8
_0-0_0
  6
CONTINUOUS
 62
    7
 10
270.42771899999997
 20
452.5
 40
6
  0
LINE
  8
_0-0_0
  6
CONTINUOUS
 62
    7
 10
233.92771899999997
 20
462
 11
806.92776500000002
 21
462
  0
LINE
  8
_0-0_0
  6
CONTINUOUS
 62
    7
 10
233.92771899999997
 20
465
 11
806.92776500000002
 21
465
  0
LINE
  8
_0-0_0
  6
CONTINUOUS
 62
    7
 10
233.92771899999997
 20
464.5
 11
231.42771899999997
 21
464.5
  0
LINE
  8
_0-0_0
  6
CONTINUOUS
 62
    7
 10
231.42771899999997
 20
464.5
 11
231.42771899999997
 21
464
  0
LINE
  8
_0-0_0
  6
CONTINUOUS
 62
    7
 10
231.42771899999997
 20
464
 11
231.42771899999997
 21
423.5
  0
LINE
  8
_0-0_0
  6
CONTINUOUS
 62
    7
 10
233.92771899999997
 20
423
 11
231.42771899999997
 21
423
  0
LINE
  8
_0-0_0
  6
CONTINUOUS
 62
    7
 10
231.42771899999997
 20
423.5
 11
231.42771899999997
 21
423
  0
LINE
  8
_0-0_0
  6
CONTINUOUS
 62
    7
 10
231.42771899999997
 20
423
 11
231.42771899999997
 21
422
  0
LINE
  8
_0-0_0
  6
CONTINUOUS
 62
    7
 10
231.42771899999997
 20
422
 11
231.42771899999997
 21
417.5
  0
LINE
  8
_0-0_0
  6
CONTINUOUS
 62
    7
 10
233.92771899999997
 20
417
 11
231.42771899999997
 21
417
  0
LINE
  8
_0-0_0
  6
CONTINUOUS
 62
    7
 10
231.42771899999997
 20
417.5
 11
231.42771899999997
 21
417
  0
LINE
  8
_0-0_0
  6
CONTINUOUS
 62
    7
 10
233.92771899999997
 20
416.5
 11
806.92776500000002
 21
416.5
  0
LINE
  8
_0-0_0
  6
CONTINUOUS
 62
    7
 10
233.92771899999997
 20
422.5
 11
806.92776500000002
 21
422.5
  0
LINE
  8
_0-0_0
  6
CONTINUOUS
 62
    7
 10
233.92771899999997
 20
426.19998199999998
 11
806.92776500000002
 21
426.19998199999998
  0
LINE
  8
_0-0_0
  6
CONTINUOUS
 62
    7
 10
806.92776500000002
 20
464.5
 11
809.42776500000002
 21
464.5
  0
LINE
  8
_0-0_0
  6
CONTINUOUS
 62
    7
 10
809.42776500000002
 20
464.5
 11
809.42776500000002
 21
464
  0
LINE
  8
_0-0_0
  6
CONTINUOUS
 62
    7
 10
809.42776500000002
 20
464
 11
809.42776500000002
 21
423.5
  0
LINE
  8
_0-0_0
  6
CONTINUOUS
 62
    7
 10
806.92776500000002
 20
423
 11
809.42776500000002
 21
423
  0
LINE
  8
_0-0_0
  6
CONTINUOUS
 62
    7
 10
809.42776500000002
 20
423.5
 11
809.42776500000002
 21
423
  0
LINE
  8
_0-0_0
  6
CONTINUOUS
 62
    7
 10
809.42776500000002
 20
423
 11
809.42776500000002
 21
422
  0
LINE
  8
_0-0_0
  6
CONTINUOUS
 62
    7
 10
809.42776500000002
 20
422
 11
809.42776500000002
 21
417.5
  0
LINE
  8
_0-0_0
  6
CONTINUOUS
 62
    7
 10
806.92776500000002
 20
417
 11
809.42776500000002
 21
417
  0
LINE
  8
_0-0_0
  6
CONTINUOUS
 62
    7
 10
809.42776500000002
 20
417.5
 11
809.42776500000002
 21
417
  0
ARC
  8
_0-0_0
  6
CONTINUOUS
 62
    7
 10
291.42773399999999
 20
417.5
 40
0.5
 50
269.99999700000001
 51
0
  0
LINE
  8
_0-0_0
  6
CONTINUOUS
 62
    7
 10
291.42773399999999
 20
417
 11
284.42771899999997
 21
417
  0
ARC
  8
_0-0_0
  6
CONTINUOUS
 62
    7
 10
284.42771899999997
 20
417.5
 40
0.5
 50
179.99999099999999
 51
269.99999700000001
  0
LINE
  8
_0-0_0
  6
CONTINUOUS
 62
    7
 10
283.92771899999997
 20
421.5
 11
283.92771899999997
 21
417.5
  0
ARC
  8
_0-0_0
  6
CONTINUOUS
 62
    7
 10
284.42771899999997
 20
421.5
 40
0.5
 50
90.000003000000007
 51
179.99999099999999
  0
ARC
  8
_0-0_0
  6
CONTINUOUS
 62
    7
 10
291.42773399999999
 20
421.5
 40
0.5
 50
0
 51
90.000003000000007
  0
LINE
  8
_0-0_0
  6
CONTINUOUS
 62
    7
 10
284.42771899999997
 20
422
 11
291.42773399999999
 21
422
  0
LINE
  8
_0-0_0
  6
CONTINUOUS
 62
    7
 10
806.92776500000002
 20
465
 11
806.92776500000002
 21
464.69998199999998
  0
LINE
  8
_0-0_0
  6
CONTINUOUS
 62
    7
 10
806.92776500000002
 20
464.69998199999998
 11
806.92776500000002
 21
464.5
  0
CIRCLE
  8
_0-0_0
  6
CONTINUOUS
 62
    7
 10
770.42776500000002
 20
452.5
 40
5.5
  0
CIRCLE
  8
_0-0_0
  6
CONTINUOUS
 62
    7
 10
670.42776500000002
 20
452.5
 40
5.5
  0
CIRCLE
  8
_0-0_0
  6
CONTINUOUS
 62
    7
 10
570.42776500000002
 20
452.5
 40
5.5
  0
CIRCLE
  8
_0-0_0
  6
CONTINUOUS
 62
    7
 10
470.42773399999999
 20
452.5
 40
5.5
  0
CIRCLE
  8
_0-0_0
  6
CONTINUOUS
 62
    7
 10
370.42773399999999
 20
452.5
 40
5.5
  0
CIRCLE
  8
_0-0_0
  6
CONTINUOUS
 62
    7
 10
270.42771899999997
 20
452.5
 40
5.5
  0
LINE
  8
_0-0_0
  6
CONTINUOUS
 62
    7
 10
291.92773399999999
 20
417.5
 11
291.92773399999999
 21
421.5
  0
CIRCLE
  8
_0-0_0
  6
CONTINUOUS
 62
    7
 10
770.42776500000002
 20
452.5
 40
3.5
  0
CIRCLE
  8
_0-0_0
  6
CONTINUOUS
 62
    7
 10
670.42776500000002
 20
452.5
 40
3.5
  0
CIRCLE
  8
_0-0_0
  6
CONTINUOUS
 62
    7
 10
570.42776500000002
 20
452.5
 40
3.5
  0
CIRCLE
  8
_0-0_0
  6
CONTINUOUS
 62
    7
 10
470.42773399999999
 20
452.5
 40
3.5
  0
CIRCLE
  8
_0-0_0
  6
CONTINUOUS
 62
    7
 10
370.42773399999999
 20
452.5
 40
3.5
  0
CIRCLE
  8
_0-0_0
  6
CONTINUOUS
 62
    7
 10
270.42771899999997
 20
452.5
 40
3.5
  0
ARC
  8
_0-0_0
  6
CONTINUOUS
 62
    7
 10
289.22772199999997
 20
421.19998199999998
 40
0.2
 50
339.62356199999999
 51
90.000002999999978
  0
LINE
  8
_0-0_0
  6
CONTINUOUS
 62
    7
 10
289.41522199999997
 20
421.13034099999999
 11
288.11520400000001
 21
417.63034099999999
  0
ARC
  8
_0-0_0
  6
CONTINUOUS
 62
    7
 10
287.92773399999999
 20
417.69998199999998
 40
0.2
 50
200.37643
 51
339.62356199999999
  0
LINE
  8
_0-0_0
  6
CONTINUOUS
 62
    7
 10
286.44023099999998
 20
421.13034099999999
 11
287.74023399999999
 21
417.63034099999999
  0
ARC
  8
_0-0_0
  6
CONTINUOUS
 62
    7
 10
286.627701
 20
421.19998199999998
 40
0.2
 50
90.000003000000007
 51
200.37643
  0
LINE
  8
_0-0_0
  6
CONTINUOUS
 62
    7
 10
286.627701
 20
421.39999399999999
 11
289.22772199999997
 21
421.39999399999999
  0
ARC
  8
_0-0_0
  6
CONTINUOUS
 62
    7
 10
726.62777699999992
 20
421.19998199999998
 40
0.2
 50
90.000003000000007
 51
200.37643
  0
LINE
  8
_0-0_0
  6
CONTINUOUS
 62
    7
 10
726.62777699999992
 20
421.39999399999999
 11
729.22775300000001
 21
421.39999399999999
  0
ARC
  8
_0-0_0
  6
CONTINUOUS
 62
    7
 10
724.42776500000002
 20
421.5
 40
0.5
 50
90.000003000000007
 51
179.99999099999999
  0
LINE
  8
_0-0_0
  6
CONTINUOUS
 62
    7
 10
723.92776500000002
 20
421.5
 11
723.92776500000002
 21
417.5
  0
ARC
  8
_0-0_0
  6
CONTINUOUS
 62
    7
 10
724.42776500000002
 20
417.5
 40
0.5
 50
179.99999099999999
 51
269.99999700000001
  0
LINE
  8
_0-0_0
  6
CONTINUOUS
 62
    7
 10
731.42776500000002
 20
417
 11
724.42776500000002
 21
417
  0
ARC
  8
_0-0_0
  6
CONTINUOUS
 62
    7
 10
731.42776500000002
 20
417.5
 40
0.5
 50
269.99999700000001
 51
0
  0
LINE
  8
_0-0_0
  6
CONTINUOUS
 62
    7
 10
731.92776500000002
 20
417.5
 11
731.92776500000002
 21
421.5
  0
ARC
  8
_0-0_0
  6
CONTINUOUS
 62
    7
 10
731.42776500000002
 20
421.5
 40
0.5
 50
0
 51
90.000003000000007
  0
LINE
  8
_0-0_0
  6
CONTINUOUS
 62
    7
 10
724.42776500000002
 20
422
 11
731.42776500000002
 21
422
  0
LINE
  8
_0-0_0
  6
CONTINUOUS
 62
    7
 10
726.44027699999992
 20
421.13034099999999
 11
727.74026500000002
 21
417.63034099999999
  0
ARC
  8
_0-0_0
  6
CONTINUOUS
 62
    7
 10
727.92776500000002
 20
417.69998199999998
 40
0.2
 50
200.37643
 51
339.62356199999999
  0
LINE
  8
_0-0_0
  6
CONTINUOUS
 62
    7
 10
729.41525300000001
 20
421.13034099999999
 11
728.11526500000002
 21
417.63034099999999
  0
ARC
  8
_0-0_0
  6
CONTINUOUS
 62
    7
 10
729.22775300000001
 20
421.19998199999998
 40
0.2
 50
339.62356199999999
 51
90.000002999999978
  0
LINE
  8
_0-0_0
  6
CONTINUOUS
 62
    7
 10
240.42771899999997
 20
414.5
 11
245.42771899999997
 21
414.5
  0
LINE
  8
_0-0_0
  6
CONTINUOUS
 62
    7
 10
245.42771899999997
 20
414.5
 11
247.22770699999998
 21
414.5
  0
LINE
  8
_0-0_0
  6
CONTINUOUS
 62
    7
 10
247.22770699999998
 20
414.5
 11
247.92771899999997
 21
414.5
  0
ARC
  8
_0-0_0
  6
CONTINUOUS
 62
    7
 10
247.22770699999998
 20
414
 40
0.5
 50
0
 51
90.000003000000007
  0
ARC
  8
_0-0_0
  6
CONTINUOUS
 62
    7
 10
240.42771899999997
 20
414
 40
0.5
 50
90.000003000000007
 51
179.99999099999999
  0
ARC
  8
_0-0_0
  6
CONTINUOUS
 62
    7
 10
343.92773399999999
 20
414
 40
0.5
 50
0
 51
90.000003000000007
  0
LINE
  8
_0-0_0
  6
CONTINUOUS
 62
    7
 10
247.92771899999997
 20
414.5
 11
247.92771899999997
 21
413
  0
LINE
  8
_0-0_0
  6
CONTINUOUS
 62
    7
 10
247.92771899999997
 20
415
 11
247.92771899999997
 21
414.5
  0
LINE
  8
_0-0_0
  6
CONTINUOUS
 62
    7
 10
247.92771899999997
 20
415.5
 11
247.92771899999997
 21
415
  0
LINE
  8
_0-0_0
  6
CONTINUOUS
 62
    7
 10
247.92771899999997
 20
416.5
 11
247.92771899999997
 21
415.5
  0
LINE
  8
_0-0_0
  6
CONTINUOUS
 62
    7
 10
251.92771899999997
 20
414.5
 11
252.62770099999997
 21
414.5
  0
LINE
  8
_0-0_0
  6
CONTINUOUS
 62
    7
 10
247.72770699999998
 20
414
 11
247.72770699999998
 21
413
  0
LINE
  8
_0-0_0
  6
CONTINUOUS
 62
    7
 10
250.92771899999997
 20
387.5
 11
250.92771899999997
 21
389.09997600000003
  0
LINE
  8
_0-0_0
  6
CONTINUOUS
 62
    7
 10
250.92771899999997
 20
387.5
 11
245.42771899999997
 21
387.5
  0
LINE
  8
_0-0_0
  6
CONTINUOUS
 62
    7
 10
266.92771899999997
 20
394.19998199999998
 11
308.92773399999999
 21
394.19998199999998
  0
LINE
  8
_0-0_0
  6
CONTINUOUS
 62
    7
 10
266.92771899999997
 20
413.79998799999998
 11
308.92773399999999
 21
413.79998799999998
  0
LINE
  8
_0-0_0
  6
CONTINUOUS
 62
    7
 10
330.42773399999999
 20
387.5
 11
320.92773399999999
 21
387.5
  0
LINE
  8
_0-0_0
  6
CONTINUOUS
 62
    7
 10
320.92773399999999
 20
387.5
 11
320.92773399999999
 21
389.09997600000003
  0
ARC
  8
_0-0_0
  6
CONTINUOUS
 62
    7
 10
320.62771599999996
 20
389.09997600000003
 40
0.2999999999999999
 50
0
 51
90.000003000000007
  0
LINE
  8
_0-0_0
  6
CONTINUOUS
 62
    7
 10
319.92773399999999
 20
389.39999399999999
 11
320.62771599999996
 21
389.39999399999999
  0
LINE
  8
_0-0_0
  6
CONTINUOUS
 62
    7
 10
319.42773399999999
 20
389.79998799999998
 11
319.92773399999999
 21
389.79998799999998
  0
LINE
  8
_0-0_0
  6
CONTINUOUS
 62
    7
 10
305.92773399999999
 20
389.79998799999998
 11
319.42773399999999
 21
389.79998799999998
  0
ARC
  8
_0-0_0
  6
CONTINUOUS
 62
    7
 10
303.42773399999999
 20
389.79998799999998
 40
2.5
 50
0
 51
90.000003000000007
  0
LINE
  8
_0-0_0
  6
CONTINUOUS
 62
    7
 10
272.42771899999997
 20
392.29998799999998
 11
303.42773399999999
 21
392.29998799999998
  0
ARC
  8
_0-0_0
  6
CONTINUOUS
 62
    7
 10
272.42771899999997
 20
389.79998799999998
 40
2.5
 50
90.000003000000007
 51
179.99999099999999
  0
LINE
  8
_0-0_0
  6
CONTINUOUS
 62
    7
 10
252.42771899999997
 20
389.79998799999998
 11
269.92771899999997
 21
389.79998799999998
  0
LINE
  8
_0-0_0
  6
CONTINUOUS
 62
    7
 10
251.92771899999997
 20
389.79998799999998
 11
252.42771899999997
 21
389.79998799999998
  0
LINE
  8
_0-0_0
  6
CONTINUOUS
 62
    7
 10
251.22770699999998
 20
389.39999399999999
 11
251.92771899999997
 21
389.39999399999999
  0
ARC
  8
_0-0_0
  6
CONTINUOUS
 62
    7
 10
251.22770699999998
 20
389.09997600000003
 40
0.2999999999999999
 50
90.000003000000007
 51
179.99999099999999
  0
LINE
  8
_0-0_0
  6
CONTINUOUS
 62
    7
 10
239.92771899999997
 20
412.22485399999999
 11
239.92771899999997
 21
414
  0
LINE
  8
_0-0_0
  6
CONTINUOUS
 62
    7
 10
244.92771899999997
 20
415
 11
244.92771899999997
 21
414.5
  0
LINE
  8
_0-0_0
  6
CONTINUOUS
 62
    7
 10
244.92771899999997
 20
411.05355800000001
 11
244.92771899999997
 21
411.15853900000002
  0
LINE
  8
_0-0_0
  6
CONTINUOUS
 62
    7
 10
244.92771899999997
 20
415
 11
244.92771899999997
 21
416.49996900000002
  0
LINE
  8
_0-0_0
  6
CONTINUOUS
 62
    7
 10
344.42773399999999
 20
416.49996900000002
 11
344.42773399999999
 21
415
  0
LINE
  8
_0-0_0
  6
CONTINUOUS
 62
    7
 10
344.42773399999999
 20
415
 11
344.42773399999999
 21
414
  0
LINE
  8
_0-0_0
  6
CONTINUOUS
 62
    7
 10
344.42773399999999
 20
413.19998199999998
 11
344.42773399999999
 21
414
  0
LINE
  8
_0-0_0
  6
CONTINUOUS
 62
    7
 10
343.92773399999999
 20
414.5
 11
344.42773399999999
 21
414.5
  0
LINE
  8
_0-0_0
  6
CONTINUOUS
 62
    7
 10
331.42773399999999
 20
414.5
 11
343.92773399999999
 21
414.5
  0
LINE
  8
_0-0_0
  6
CONTINUOUS
 62
    7
 10
344.42773399999999
 20
416.5
 11
344.42773399999999
 21
415.5
  0
LINE
  8
_0-0_0
  6
CONTINUOUS
 62
    7
 10
344.42773399999999
 20
415
 11
344.42773399999999
 21
414.5
  0
LINE
  8
_0-0_0
  6
CONTINUOUS
 62
    7
 10
344.42773399999999
 20
415.5
 11
344.42773399999999
 21
415
  0
ARC
  8
_0-0_0
  6
CONTINUOUS
 62
    7
 10
249.92771899999997
 20
413
 40
2
 50
179.99999099999999
 51
0
  0
LINE
  8
_0-0_0
  6
CONTINUOUS
 62
    7
 10
330.92773399999999
 20
414.5
 11
331.42773399999999
 21
414.5
  0
LINE
  8
_0-0_0
  6
CONTINUOUS
 62
    7
 10
330.92773399999999
 20
414
 11
330.92773399999999
 21
414.5
  0
LINE
  8
_0-0_0
  6
CONTINUOUS
 62
    7
 10
330.92773399999999
 20
413
 11
330.92773399999999
 21
413.19998199999998
  0
ARC
  8
_0-0_0
  6
CONTINUOUS
 62
    7
 10
328.92773399999999
 20
413
 40
2
 50
179.99999099999999
 51
0
  0
LINE
  8
_0-0_0
  6
CONTINUOUS
 62
    7
 10
326.92773399999999
 20
414.5
 11
326.92773399999999
 21
413
  0
LINE
  8
_0-0_0
  6
CONTINUOUS
 62
    7
 10
326.22772199999997
 20
414.5
 11
326.92773399999999
 21
414.5
  0
LINE
  8
_0-0_0
  6
CONTINUOUS
 62
    7
 10
251.92771899999997
 20
413
 11
251.92771899999997
 21
414.5
  0
LINE
  8
_0-0_0
  6
CONTINUOUS
 62
    7
 10
247.92771899999997
 20
415.5
 11
344.42773399999999
 21
415.5
  0
ARC
  8
_0-0_0
  6
CONTINUOUS
 62
    7
 10
252.62770099999997
 20
414
 40
0.5
 50
90.000003000000007
 51
179.99999099999999
  0
ARC
  8
_0-0_0
  6
CONTINUOUS
 62
    7
 10
249.92771899999997
 20
413
 40
2.2000000000000002
 50
179.99999099999999
 51
0
  0
LINE
  8
_0-0_0
  6
CONTINUOUS
 62
    7
 10
251.92771899999997
 20
389.39999399999999
 11
252.42771899999997
 21
389.39999399999999
  0
LINE
  8
_0-0_0
  6
CONTINUOUS
 62
    7
 10
252.42771899999997
 20
389.79998799999998
 11
252.42771899999997
 21
389.39999399999999
  0
LINE
  8
_0-0_0
  6
CONTINUOUS
 62
    7
 10
269.92771899999997
 20
389.79998799999998
 11
305.92773399999999
 21
389.79998799999998
  0
LINE
  8
_0-0_0
  6
CONTINUOUS
 62
    7
 10
319.42773399999999
 20
389.39999399999999
 11
319.92773399999999
 21
389.39999399999999
  0
LINE
  8
_0-0_0
  6
CONTINUOUS
 62
    7
 10
319.42773399999999
 20
389.79998799999998
 11
319.42773399999999
 21
389.39999399999999
  0
LINE
  8
_0-0_0
  6
CONTINUOUS
 62
    7
 10
330.42773399999999
 20
387
 11
321.42773399999999
 21
387
  0
ARC
  8
_0-0_0
  6
CONTINUOUS
 62
    7
 10
321.42773399999999
 20
387.5
 40
0.5
 50
179.99999099999999
 51
269.99999700000001
  0
LINE
  8
_0-0_0
  6
CONTINUOUS
 62
    7
 10
330.42773399999999
 20
387.5
 11
330.92773399999999
 21
387.5
  0
LINE
  8
_0-0_0
  6
CONTINUOUS
 62
    7
 10
330.92773399999999
 20
387.5
 11
330.92773399999999
 21
387.69998199999998
  0
LINE
  8
_0-0_0
  6
CONTINUOUS
 62
    7
 10
335.42773399999999
 20
387.89999399999999
 11
331.12771599999996
 21
387.89999399999999
  0
LINE
  8
_0-0_0
  6
CONTINUOUS
 62
    7
 10
335.92773399999999
 20
388.39999399999999
 11
335.92773399999999
 21
390.17511000000002
  0
ARC
  8
_0-0_0
  6
CONTINUOUS
 62
    7
 10
332.87976099999997
 20
390.118988
 40
3.0490550000000001
 50
1.0548960000000001
 51
14.838094000000002
  0
LINE
  8
_0-0_0
  6
CONTINUOUS
 62
    7
 10
335.42773399999999
 20
391.09997600000003
 11
331.060181
 21
391.09997600000003
  0
LINE
  8
_0-0_0
  6
CONTINUOUS
 62
    7
 10
330.92773399999999
 20
391.24142499999999
 11
330.92773399999999
 21
391.58367900000002
  0
ARC
  8
_0-0_0
  6
CONTINUOUS
 62
    7
 10
328.92773399999999
 20
413
 40
2.2000000000000002
 50
179.99999099999999
 51
303.74900400000001
  0
LINE
  8
_0-0_0
  6
CONTINUOUS
 62
    7
 10
326.72772199999997
 20
414
 11
326.72772199999997
 21
413
  0
LINE
  8
_0-0_0
  6
CONTINUOUS
 62
    7
 10
326.22772199999997
 20
414.5
 11
252.62770099999997
 21
414.5
  0
LINE
  8
_0-0_0
  6
CONTINUOUS
 62
    7
 10
252.12770099999997
 20
413
 11
252.12770099999997
 21
414
  0
LINE
  8
_0-0_0
  6
CONTINUOUS
 62
    7
 10
252.62770099999997
 20
412.79998799999998
 11
252.62770099999997
 21
413
  0
ARC
  8
_0-0_0
  6
CONTINUOUS
 62
    7
 10
253.62770099999997
 20
412.79998799999998
 40
1
 50
90.000003000000007
 51
179.99999099999999
  0
LINE
  8
_0-0_0
  6
CONTINUOUS
 62
    7
 10
253.62770099999997
 20
413.79998799999998
 11
266.92771899999997
 21
413.79998799999998
  0
LINE
  8
_0-0_0
  6
CONTINUOUS
 62
    7
 10
308.92773399999999
 20
413.79998799999998
 11
322.92773399999999
 21
413.79998799999998
  0
ARC
  8
_0-0_0
  6
CONTINUOUS
 62
    7
 10
322.92773399999999
 20
410.79998799999998
 40
3
 50
0
 51
90.000003000000007
  0
LINE
  8
_0-0_0
  6
CONTINUOUS
 62
    7
 10
325.92773399999999
 20
397.19998199999998
 11
325.92773399999999
 21
410.79998799999998
  0
ARC
  8
_0-0_0
  6
CONTINUOUS
 62
    7
 10
322.92773399999999
 20
397.19998199999998
 40
3
 50
269.99999700000001
 51
0
  0
LINE
  8
_0-0_0
  6
CONTINUOUS
 62
    7
 10
322.92773399999999
 20
394.19998199999998
 11
308.92773399999999
 21
394.19998199999998
  0
LINE
  8
_0-0_0
  6
CONTINUOUS
 62
    7
 10
266.92771899999997
 20
394.19998199999998
 11
252.92771899999997
 21
394.19998199999998
  0
ARC
  8
_0-0_0
  6
CONTINUOUS
 62
    7
 10
252.92771899999997
 20
397.19998199999998
 40
3
 50
179.99999099999999
 51
269.99999700000001
  0
LINE
  8
_0-0_0
  6
CONTINUOUS
 62
    7
 10
249.92771899999997
 20
409.43768299999999
 11
249.92771899999997
 21
397.19998199999998
  0
ARC
  8
_0-0_0
  6
CONTINUOUS
 62
    7
 10
250.92771899999997
 20
409.43768299999999
 40
1
 50
105.68034800000001
 51
179.99999100000002
  0
ARC
  8
_0-0_0
  6
CONTINUOUS
 62
    7
 10
242.97569299999998
 20
412.28097500000001
 40
3.0490550000000001
 50
181.05489
 51
194.838089
  0
LINE
  8
_0-0_0
  6
CONTINUOUS
 62
    7
 10
244.79524199999997
 20
411.29998799999998
 11
240.42771899999997
 21
411.29998799999998
  0
LINE
  8
_0-0_0
  6
CONTINUOUS
 62
    7
 10
244.92771899999997
 20
391.24142499999999
 11
244.92771899999997
 21
391.346405
  0
LINE
  8
_0-0_0
  6
CONTINUOUS
 62
    7
 10
244.79524199999997
 20
391.09997600000003
 11
240.42771899999997
 21
391.09997600000003
  0
ARC
  8
_0-0_0
  6
CONTINUOUS
 62
    7
 10
242.97685199999998
 20
390.11834700000003
 40
3.050319
 50
165.15540799999999
 51
178.932897
  0
LINE
  8
_0-0_0
  6
CONTINUOUS
 62
    7
 10
239.92771899999997
 20
388.39999399999999
 11
239.92771899999997
 21
390.17511000000002
  0
LINE
  8
_0-0_0
  6
CONTINUOUS
 62
    7
 10
244.72770699999998
 20
387.89999399999999
 11
240.42771899999997
 21
387.89999399999999
  0
LINE
  8
_0-0_0
  6
CONTINUOUS
 62
    7
 10
244.92771899999997
 20
387.5
 11
244.92771899999997
 21
387.69998199999998
  0
LINE
  8
_0-0_0
  6
CONTINUOUS
 62
    7
 10
244.92771899999997
 20
387.5
 11
245.42771899999997
 21
387.5
  0
LINE
  8
_0-0_0
  6
CONTINUOUS
 62
    7
 10
250.42771899999997
 20
387
 11
245.42771899999997
 21
387
  0
ARC
  8
_0-0_0
  6
CONTINUOUS
 62
    7
 10
250.42771899999997
 20
387.5
 40
0.5
 50
269.99999700000001
 51
0
  0
LINE
  8
_0-0_0
  6
CONTINUOUS
 62
    7
 10
240.24595599999998
 20
411.29998799999998
 11
240.22563199999999
 21
411.300995
  0
LINE
  8
_0-0_0
  6
CONTINUOUS
 62
    7
 10
240.22563199999999
 20
411.300995
 11
240.20521499999998
 21
411.30413800000002
  0
LINE
  8
_0-0_0
  6
CONTINUOUS
 62
    7
 10
240.20521499999998
 20
411.30413800000002
 11
240.17838999999998
 21
411.31173699999999
  0
LINE
  8
_0-0_0
  6
CONTINUOUS
 62
    7
 10
240.17838999999998
 20
411.31173699999999
 11
240.15275599999998
 21
411.32312000000002
  0
LINE
  8
_0-0_0
  6
CONTINUOUS
 62
    7
 10
240.15275599999998
 20
411.32312000000002
 11
240.12895199999997
 21
411.33798200000001
  0
LINE
  8
_0-0_0
  6
CONTINUOUS
 62
    7
 10
240.12895199999997
 20
411.33798200000001
 11
240.11219799999998
 21
411.35150099999998
  0
LINE
  8
_0-0_0
  6
CONTINUOUS
 62
    7
 10
240.11219799999998
 20
411.35150099999998
 11
240.09669499999998
 21
411.36673000000002
  0
LINE
  8
_0-0_0
  6
CONTINUOUS
 62
    7
 10
240.09669499999998
 20
411.36673000000002
 11
240.06977799999999
 21
411.40136699999999
  0
LINE
  8
_0-0_0
  6
CONTINUOUS
 62
    7
 10
240.06977799999999
 20
411.40136699999999
 11
240.04875199999998
 21
411.43969700000002
  0
LINE
  8
_0-0_0
  6
CONTINUOUS
 62
    7
 10
240.04875199999998
 20
411.43969700000002
 11
240.03675799999999
 21
411.46963499999998
  0
LINE
  8
_0-0_0
  6
CONTINUOUS
 62
    7
 10
240.03675799999999
 20
411.46963499999998
 11
240.02772499999998
 21
411.5
  0
LINE
  8
_0-0_0
  6
CONTINUOUS
 62
    7
 10
239.93891899999997
 20
412
 11
232.92771899999997
 21
412
  0
LINE
  8
_0-0_0
  6
CONTINUOUS
 62
    7
 10
232.92771899999997
 20
412
 11
228.25227299999997
 21
412
  0
LINE
  8
_0-0_0
  6
CONTINUOUS
 62
    7
 10
232.92771899999997
 20
412
 11
232.92771899999997
 21
410
  0
LINE
  8
_0-0_0
  6
CONTINUOUS
 62
    7
 10
244.92771899999997
 20
410
 11
244.92771899999997
 21
411.05355800000001
  0
ARC
  8
_0-0_0
  6
CONTINUOUS
 62
    7
 10
343.92773399999999
 20
413.19998199999998
 40
0.5
 50
269.99999700000001
 51
0
  0
ARC
  8
_0-0_0
  6
CONTINUOUS
 62
    7
 10
331.42773399999999
 20
414
 40
0.5
 50
90.000003000000007
 51
179.99999099999999
  0
LINE
  8
_0-0_0
  6
CONTINUOUS
 62
    7
 10
330.92773399999999
 20
413.19998199999998
 11
330.92773399999999
 21
414
  0
LINE
  8
_0-0_0
  6
CONTINUOUS
 62
    7
 10
251.12770099999997
 20
389.38284299999998
 11
251.12770099999997
 21
387.39999399999999
  0
LINE
  8
_0-0_0
  6
CONTINUOUS
 62
    7
 10
251.12770099999997
 20
387.39999399999999
 11
252.12770099999997
 21
387.39999399999999
  0
LINE
  8
_0-0_0
  6
CONTINUOUS
 62
    7
 10
252.42771899999997
 20
389.39999399999999
 11
319.42773399999999
 21
389.39999399999999
  0
LINE
  8
_0-0_0
  6
CONTINUOUS
 62
    7
 10
252.12770099999997
 20
387.39999399999999
 11
319.72772199999997
 21
387.39999399999999
  0
LINE
  8
_0-0_0
  6
CONTINUOUS
 62
    7
 10
319.72772199999997
 20
387.39999399999999
 11
320.72772199999997
 21
387.39999399999999
  0
LINE
  8
_0-0_0
  6
CONTINUOUS
 62
    7
 10
320.72772199999997
 20
389.38284299999998
 11
320.72772199999997
 21
387.39999399999999
  0
LINE
  8
_0-0_0
  6
CONTINUOUS
 62
    7
 10
330.92773399999999
 20
387.5
 11
330.42773399999999
 21
387
  0
ARC
  8
_0-0_0
  6
CONTINUOUS
 62
    7
 10
331.12771599999996
 20
387.69998199999998
 40
0.2
 50
90.000003000000007
 51
179.99999099999999
  0
ARC
  8
_0-0_0
  6
CONTINUOUS
 62
    7
 10
335.42773399999999
 20
388.39999399999999
 40
0.5
 50
269.99999700000001
 51
0
  0
LINE
  8
_0-0_0
  6
CONTINUOUS
 62
    7
 10
335.609466
 20
391.09997600000003
 11
335.62982199999999
 21
391.09896900000001
  0
LINE
  8
_0-0_0
  6
CONTINUOUS
 62
    7
 10
335.62982199999999
 20
391.09896900000001
 11
335.650238
 21
391.09582499999999
  0
LINE
  8
_0-0_0
  6
CONTINUOUS
 62
    7
 10
335.650238
 20
391.09582499999999
 11
335.67706299999998
 21
391.08822600000002
  0
LINE
  8
_0-0_0
  6
CONTINUOUS
 62
    7
 10
335.67706299999998
 20
391.08822600000002
 11
335.702698
 21
391.07687399999998
  0
LINE
  8
_0-0_0
  6
CONTINUOUS
 62
    7
 10
335.702698
 20
391.07687399999998
 11
335.72650099999998
 21
391.061981
  0
LINE
  8
_0-0_0
  6
CONTINUOUS
 62
    7
 10
335.72650099999998
 20
391.061981
 11
335.74325599999997
 21
391.04846199999997
  0
LINE
  8
_0-0_0
  6
CONTINUOUS
 62
    7
 10
335.74325599999997
 20
391.04846199999997
 11
335.758758
 21
391.03326399999997
  0
LINE
  8
_0-0_0
  6
CONTINUOUS
 62
    7
 10
335.758758
 20
391.03326399999997
 11
335.78564399999999
 21
390.99859600000002
  0
LINE
  8
_0-0_0
  6
CONTINUOUS
 62
    7
 10
335.78564399999999
 20
390.99859600000002
 11
335.80670199999997
 21
390.96026599999999
  0
LINE
  8
_0-0_0
  6
CONTINUOUS
 62
    7
 10
335.80670199999997
 20
390.96026599999999
 11
335.81869499999999
 21
390.93035900000001
  0
LINE
  8
_0-0_0
  6
CONTINUOUS
 62
    7
 10
335.81869499999999
 20
390.93035900000001
 11
335.82772799999998
 21
390.89999399999999
  0
LINE
  8
_0-0_0
  6
CONTINUOUS
 62
    7
 10
335.609466
 20
391.09997600000003
 11
335.42773399999999
 21
391.09997600000003
  0
LINE
  8
_0-0_0
  6
CONTINUOUS
 62
    7
 10
330.92773399999999
 20
409.54998799999998
 11
330.92773399999999
 21
412.04998799999998
  0
LINE
  8
_0-0_0
  6
CONTINUOUS
 62
    7
 10
330.92773399999999
 20
409.54998799999998
 11
330.92773399999999
 21
393.04998799999998
  0
LINE
  8
_0-0_0
  6
CONTINUOUS
 62
    7
 10
330.92773399999999
 20
391.58367900000002
 11
330.92773399999999
 21
393.04998799999998
  0
ARC
  8
_0-0_0
  6
CONTINUOUS
 62
    7
 10
330.42773399999999
 20
410.75500499999998
 40
0.5
 50
0
 51
123.74898500000002
  0
ARC
  8
_0-0_0
  6
CONTINUOUS
 62
    7
 10
331.09802199999996
 20
391.27328499999999
 40
0.1734229999999999
 50
181.12417600000003
 51
270.64883800000007
  0
LINE
  8
_0-0_0
  6
CONTINUOUS
 62
    7
 10
330.923675
 20
391.29998799999998
 11
330.923767
 21
391.26986699999998
  0
ARC
  8
_0-0_0
  6
CONTINUOUS
 62
    7
 10
326.22772199999997
 20
414
 40
0.5
 50
0
 51
90.000003000000007
  0
ARC
  8
_0-0_0
  6
CONTINUOUS
 62
    7
 10
249.92771899999997
 20
413
 40
2.7000000000000002
 50
285.68033600000007
 51
0.0000000000000381
  0
ARC
  8
_0-0_0
  6
CONTINUOUS
 62
    7
 10
266.92771899999997
 20
397.19998199999998
 40
3
 50
269.99999700000001
 51
0
  0
LINE
  8
_0-0_0
  6
CONTINUOUS
 62
    7
 10
269.92771899999997
 20
397.19998199999998
 11
269.92771899999997
 21
410.79998799999998
  0
ARC
  8
_0-0_0
  6
CONTINUOUS
 62
    7
 10
266.92771899999997
 20
410.79998799999998
 40
3
 50
0
 51
90.000003000000007
  0
ARC
  8
_0-0_0
  6
CONTINUOUS
 62
    7
 10
262.42771899999997
 20
406.5
 40
4.5
 50
269.99999700000001
 51
90.000002999999992
  0
LINE
  8
_0-0_0
  6
CONTINUOUS
 62
    7
 10
262.42771899999997
 20
402
 11
257.42771899999997
 21
402
  0
ARC
  8
_0-0_0
  6
CONTINUOUS
 62
    7
 10
257.42771899999997
 20
406.5
 40
4.5
 50
90.000003000000007
 51
269.99999700000006
  0
LINE
  8
_0-0_0
  6
CONTINUOUS
 62
    7
 10
257.42771899999997
 20
411
 11
262.42771899999997
 21
411
  0
ARC
  8
_0-0_0
  6
CONTINUOUS
 62
    7
 10
308.92773399999999
 20
397.19998199999998
 40
3
 50
179.99999099999999
 51
269.99999700000001
  0
LINE
  8
_0-0_0
  6
CONTINUOUS
 62
    7
 10
305.92773399999999
 20
410.79998799999998
 11
305.92773399999999
 21
397.19998199999998
  0
ARC
  8
_0-0_0
  6
CONTINUOUS
 62
    7
 10
308.92773399999999
 20
410.79998799999998
 40
3
 50
90.000003000000007
 51
179.99999099999999
  0
ARC
  8
_0-0_0
  6
CONTINUOUS
 62
    7
 10
318.42773399999999
 20
406.5
 40
4.5
 50
269.99999700000001
 51
90.000002999999992
  0
LINE
  8
_0-0_0
  6
CONTINUOUS
 62
    7
 10
318.42773399999999
 20
402
 11
313.42773399999999
 21
402
  0
ARC
  8
_0-0_0
  6
CONTINUOUS
 62
    7
 10
313.42773399999999
 20
406.5
 40
4.5
 50
90.000003000000007
 51
269.99999700000006
  0
LINE
  8
_0-0_0
  6
CONTINUOUS
 62
    7
 10
313.42773399999999
 20
411
 11
318.42773399999999
 21
411
  0
LINE
  8
_0-0_0
  6
CONTINUOUS
 62
    7
 10
240.42771899999997
 20
411.29998799999998
 11
240.24595599999998
 21
411.29998799999998
  0
LINE
  8
_0-0_0
  6
CONTINUOUS
 62
    7
 10
244.92771899999997
 20
410
 11
244.92771899999997
 21
392.39999399999999
  0
LINE
  8
_0-0_0
  6
CONTINUOUS
 62
    7
 10
244.92771899999997
 20
391.346405
 11
244.92771899999997
 21
392.39999399999999
  0
ARC
  8
_0-0_0
  6
CONTINUOUS
 62
    7
 10
244.75743099999997
 20
391.27328499999999
 40
0.1734209999999999
 50
269.35085600000002
 51
358.87625300000002
  0
LINE
  8
_0-0_0
  6
CONTINUOUS
 62
    7
 10
244.93174699999997
 20
391.29998799999998
 11
244.93168599999998
 21
391.26986699999998
  0
LINE
  8
_0-0_0
  6
CONTINUOUS
 62
    7
 10
244.93174699999997
 20
411.09997600000003
 11
244.93168599999998
 21
411.13012700000002
  0
ARC
  8
_0-0_0
  6
CONTINUOUS
 62
    7
 10
244.75743099999997
 20
411.12670900000001
 40
0.1734219999999999
 50
1.1236539999999999
 51
90.649110000000007
  0
LINE
  8
_0-0_0
  6
CONTINUOUS
 62
    7
 10
240.42771899999997
 20
391.09997600000003
 11
240.24595599999998
 21
391.09997600000003
  0
LINE
  8
_0-0_0
  6
CONTINUOUS
 62
    7
 10
240.24595599999998
 20
391.09997600000003
 11
240.22563199999999
 21
391.09896900000001
  0
LINE
  8
_0-0_0
  6
CONTINUOUS
 62
    7
 10
240.22563199999999
 20
391.09896900000001
 11
240.20521499999998
 21
391.09582499999999
  0
LINE
  8
_0-0_0
  6
CONTINUOUS
 62
    7
 10
240.20521499999998
 20
391.09582499999999
 11
240.17838999999998
 21
391.08822600000002
  0
LINE
  8
_0-0_0
  6
CONTINUOUS
 62
    7
 10
240.17838999999998
 20
391.08822600000002
 11
240.15275599999998
 21
391.07687399999998
  0
LINE
  8
_0-0_0
  6
CONTINUOUS
 62
    7
 10
240.15275599999998
 20
391.07687399999998
 11
240.12895199999997
 21
391.061981
  0
LINE
  8
_0-0_0
  6
CONTINUOUS
 62
    7
 10
240.12895199999997
 20
391.061981
 11
240.11219799999998
 21
391.04846199999997
  0
LINE
  8
_0-0_0
  6
CONTINUOUS
 62
    7
 10
240.11219799999998
 20
391.04846199999997
 11
240.09669499999998
 21
391.03326399999997
  0
LINE
  8
_0-0_0
  6
CONTINUOUS
 62
    7
 10
240.09669499999998
 20
391.03326399999997
 11
240.06977799999999
 21
390.99859600000002
  0
LINE
  8
_0-0_0
  6
CONTINUOUS
 62
    7
 10
240.06977799999999
 20
390.99859600000002
 11
240.04875199999998
 21
390.96026599999999
  0
LINE
  8
_0-0_0
  6
CONTINUOUS
 62
    7
 10
240.04875199999998
 20
390.96026599999999
 11
240.03675799999999
 21
390.93035900000001
  0
LINE
  8
_0-0_0
  6
CONTINUOUS
 62
    7
 10
240.03675799999999
 20
390.93035900000001
 11
240.02772499999998
 21
390.89999399999999
  0
ARC
  8
_0-0_0
  6
CONTINUOUS
 62
    7
 10
240.42771899999997
 20
388.39999399999999
 40
0.5
 50
179.99999099999999
 51
269.99999700000001
  0
ARC
  8
_0-0_0
  6
CONTINUOUS
 62
    7
 10
244.72770699999998
 20
387.69998199999998
 40
0.2
 50
0
 51
90.000003000000007
  0
LINE
  8
_0-0_0
  6
CONTINUOUS
 62
    7
 10
244.92771899999997
 20
387.5
 11
245.42771899999997
 21
387
  0
ARC
  8
_0-0_0
  6
CONTINUOUS
 62
    7
 10
228.25227299999997
 20
410
 40
2
 50
90.000003000000007
 51
108.434997
  0
LINE
  8
_0-0_0
  6
CONTINUOUS
 62
    7
 10
232.92771899999997
 20
409.5
 11
232.92771899999997
 21
410
  0
LINE
  8
_0-0_0
  6
CONTINUOUS
 62
    7
 10
232.92771899999997
 20
406.5
 11
232.92771899999997
 21
406
  0
LINE
  8
_0-0_0
  6
CONTINUOUS
 62
    7
 10
232.92771899999997
 20
406.5
 11
232.92771899999997
 21
409.5
  0
ARC
  8
_0-0_0
  6
CONTINUOUS
 62
    7
 10
238.92771899999997
 20
406.69998199999998
 40
0.500016
 50
0.001164
 51
179.99560600000004
  0
LINE
  8
_0-0_0
  6
CONTINUOUS
 62
    7
 10
238.42771899999997
 20
406.69998199999998
 11
238.42771899999997
 21
394.69998199999998
  0
ARC
  8
_0-0_0
  6
CONTINUOUS
 62
    7
 10
238.92771899999997
 20
394.70001200000002
 40
0.500016
 50
180.00117
 51
359.995611
  0
LINE
  8
_0-0_0
  6
CONTINUOUS
 62
    7
 10
239.42771899999997
 20
406.69998199999998
 11
239.42771899999997
 21
394.69998199999998
  0
ARC
  8
_0-0_0
  6
CONTINUOUS
 62
    7
 10
237.42771899999997
 20
406.69998199999998
 40
0.500016
 50
0.001164
 51
179.99560600000004
  0
LINE
  8
_0-0_0
  6
CONTINUOUS
 62
    7
 10
236.92771899999997
 20
406.69998199999998
 11
236.92771899999997
 21
394.69998199999998
  0
ARC
  8
_0-0_0
  6
CONTINUOUS
 62
    7
 10
237.42771899999997
 20
394.70001200000002
 40
0.500016
 50
180.00117
 51
359.995611
  0
LINE
  8
_0-0_0
  6
CONTINUOUS
 62
    7
 10
237.92771899999997
 20
406.69998199999998
 11
237.92771899999997
 21
394.69998199999998
  0
ARC
  8
_0-0_0
  6
CONTINUOUS
 62
    7
 10
235.92771899999997
 20
406.69998199999998
 40
0.500016
 50
0.001164
 51
179.99560600000004
  0
LINE
  8
_0-0_0
  6
CONTINUOUS
 62
    7
 10
235.42771899999997
 20
406.69998199999998
 11
235.42771899999997
 21
394.69998199999998
  0
ARC
  8
_0-0_0
  6
CONTINUOUS
 62
    7
 10
235.92771899999997
 20
394.70001200000002
 40
0.500016
 50
180.00117
 51
359.995611
  0
LINE
  8
_0-0_0
  6
CONTINUOUS
 62
    7
 10
236.42771899999997
 20
406.69998199999998
 11
236.42771899999997
 21
394.69998199999998
  0
ARC
  8
_0-0_0
  6
CONTINUOUS
 62
    7
 10
234.42771899999997
 20
406.69998199999998
 40
0.500016
 50
0.001164
 51
179.99560600000004
  0
LINE
  8
_0-0_0
  6
CONTINUOUS
 62
    7
 10
233.92771899999997
 20
406.69998199999998
 11
233.92771899999997
 21
394.69998199999998
  0
ARC
  8
_0-0_0
  6
CONTINUOUS
 62
    7
 10
234.42771899999997
 20
394.70001200000002
 40
0.500016
 50
180.00117
 51
359.995611
  0
LINE
  8
_0-0_0
  6
CONTINUOUS
 62
    7
 10
234.92771899999997
 20
406.69998199999998
 11
234.92771899999997
 21
394.69998199999998
  0
LINE
  8
_0-0_0
  6
CONTINUOUS
 62
    7
 10
330.92773399999999
 20
412.69998199999998
 11
331.42773399999999
 21
412.69998199999998
  0
LINE
  8
_0-0_0
  6
CONTINUOUS
 62
    7
 10
331.42773399999999
 20
412.69998199999998
 11
343.92773399999999
 21
412.69998199999998
  0
ARC
  8
_0-0_0
  6
CONTINUOUS
 62
    7
 10
331.42773399999999
 20
413.19998199999998
 40
0.5
 50
179.99999099999999
 51
269.99999700000001
  0
LINE
  8
_0-0_0
  6
CONTINUOUS
 62
    7
 10
330.92773399999999
 20
412.33395400000001
 11
330.92773399999999
 21
412.69998199999998
  0
LINE
  8
_0-0_0
  6
CONTINUOUS
 62
    7
 10
330.92773399999999
 20
412.08346599999999
 11
330.92773399999999
 21
412.04998799999998
  0
LINE
  8
_0-0_0
  6
CONTINUOUS
 62
    7
 10
330.92773399999999
 20
412.33395400000001
 11
330.92773399999999
 21
412.08346599999999
  0
CIRCLE
  8
_0-0_0
  6
CONTINUOUS
 62
    7
 10
249.92771899999997
 20
413
 40
1.4750000000000001
  0
CIRCLE
  8
_0-0_0
  6
CONTINUOUS
 62
    7
 10
328.92773399999999
 20
413
 40
1.4750000000000001
  0
LINE
  8
_0-0_0
  6
CONTINUOUS
 62
    7
 10
330.92773399999999
 20
387.34997600000003
 11
330.92773399999999
 21
387.5
  0
LINE
  8
_0-0_0
  6
CONTINUOUS
 62
    7
 10
336.42773399999999
 20
387.34997600000003
 11
330.92773399999999
 21
387.34997600000003
  0
LINE
  8
_0-0_0
  6
CONTINUOUS
 62
    7
 10
336.42773399999999
 20
389.89999399999999
 11
335.92773399999999
 21
389.89999399999999
  0
LINE
  8
_0-0_0
  6
CONTINUOUS
 62
    7
 10
331.42773399999999
 20
412.54998799999998
 11
330.92773399999999
 21
412.04998799999998
  0
LINE
  8
_0-0_0
  6
CONTINUOUS
 62
    7
 10
331.42773399999999
 20
412.54998799999998
 11
336.42773399999999
 21
412.54998799999998
  0
LINE
  8
_0-0_0
  6
CONTINUOUS
 62
    7
 10
239.93891899999997
 20
390.39999399999999
 11
228.25227299999997
 21
390.39999399999999
  0
LINE
  8
_0-0_0
  6
CONTINUOUS
 62
    7
 10
227.17771899999997
 20
411.74996900000002
 11
227.61979699999998
 21
411.89733899999999
  0
LINE
  8
_0-0_0
  6
CONTINUOUS
 62
    7
 10
223.45335399999999
 20
406.5
 11
222.75999399999998
 21
406.5
  0
LINE
  8
_0-0_0
  6
CONTINUOUS
 62
    7
 10
223.45335399999999
 20
406.5
 11
227.77793899999998
 21
406.5
  0
LINE
  8
_0-0_0
  6
CONTINUOUS
 62
    7
 10
228.25227299999997
 20
406.5
 11
227.77793899999998
 21
406.5
  0
LINE
  8
_0-0_0
  6
CONTINUOUS
 62
    7
 10
232.92771899999997
 20
406.5
 11
228.25227299999997
 21
406.5
  0
LINE
  8
_0-0_0
  6
CONTINUOUS
 62
    7
 10
330.92773399999999
 20
387.203552
 11
330.92773399999999
 21
387.34997600000003
  0
LINE
  8
_0-0_0
  6
CONTINUOUS
 62
    7
 10
330.92773399999999
 20
387.14642300000003
 11
330.92773399999999
 21
387.203552
  0
LINE
  8
_0-0_0
  6
CONTINUOUS
 62
    7
 10
330.92773399999999
 20
387
 11
330.92773399999999
 21
387.14642300000003
  0
ARC
  8
_0-0_0
  6
CONTINUOUS
 62
    7
 10
336.42773399999999
 20
387.84997600000003
 40
0.5
 50
269.99999700000001
 51
0
  0
LINE
  8
_0-0_0
  6
CONTINUOUS
 62
    7
 10
336.92773399999999
 20
389.40570100000002
 11
336.92773399999999
 21
387.84997600000003
  0
ARC
  8
_0-0_0
  6
CONTINUOUS
 62
    7
 10
336.44082599999996
 20
389.40234400000003
 40
0.4869939999999999
 50
0.394923
 51
23.93947
  0
ARC
  8
_0-0_0
  6
CONTINUOUS
 62
    7
 10
336.42773399999999
 20
389.39999399999999
 40
0.5
 50
23.578231000000002
 51
90.000002999999992
  0
LINE
  8
_0-0_0
  6
CONTINUOUS
 62
    7
 10
336.92773399999999
 20
409.54998799999998
 11
336.92773399999999
 21
412.04998799999998
  0
ARC
  8
_0-0_0
  6
CONTINUOUS
 62
    7
 10
336.42773399999999
 20
412.04998799999998
 40
0.5
 50
0
 51
90.000003000000007
  0
LINE
  8
_0-0_0
  6
CONTINUOUS
 62
    7
 10
336.42773399999999
 20
396.25
 11
334.22772199999997
 21
396.25
  0
LINE
  8
_0-0_0
  6
CONTINUOUS
 62
    7
 10
336.92773399999999
 20
409.54998799999998
 11
336.92773399999999
 21
396.75
  0
LINE
  8
_0-0_0
  6
CONTINUOUS
 62
    7
 10
333.92773399999999
 20
395.94998199999998
 11
333.92773399999999
 21
393.37167399999998
  0
LINE
  8
_0-0_0
  6
CONTINUOUS
 62
    7
 10
263.89924599999995
 20
402.39999399999999
 11
255.95616099999998
 21
402.39999399999999
  0
ARC
  8
_0-0_0
  6
CONTINUOUS
 62
    7
 10
255.95616099999998
 20
402.89999399999999
 40
0.5
 50
210.00000299999999
 51
269.99999700000001
  0
LINE
  8
_0-0_0
  6
CONTINUOUS
 62
    7
 10
255.52314699999997
 20
402.64999399999999
 11
253.44468699999999
 21
406.25
  0
ARC
  8
_0-0_0
  6
CONTINUOUS
 62
    7
 10
253.87770099999997
 20
406.5
 40
0.5
 50
149.99999700000001
 51
210.00000299999996
  0
LINE
  8
_0-0_0
  6
CONTINUOUS
 62
    7
 10
253.44468699999999
 20
406.75
 11
255.52314699999997
 21
410.34997600000003
  0
ARC
  8
_0-0_0
  6
CONTINUOUS
 62
    7
 10
255.95616099999998
 20
410.09997600000003
 40
0.5
 50
90.000003000000007
 51
149.99999700000001
  0
LINE
  8
_0-0_0
  6
CONTINUOUS
 62
    7
 10
255.95616099999998
 20
410.59997600000003
 11
263.89924599999995
 21
410.59997600000003
  0
ARC
  8
_0-0_0
  6
CONTINUOUS
 62
    7
 10
263.89924599999995
 20
410.09997600000003
 40
0.5
 50
30.000001000000001
 51
90.000003000000007
  0
LINE
  8
_0-0_0
  6
CONTINUOUS
 62
    7
 10
264.33226000000002
 20
410.34997600000003
 11
266.41072099999997
 21
406.75
  0
ARC
  8
_0-0_0
  6
CONTINUOUS
 62
    7
 10
265.97770700000001
 20
406.5
 40
0.5
 50
329.99998900000003
 51
30.000000999999983
  0
LINE
  8
_0-0_0
  6
CONTINUOUS
 62
    7
 10
266.41072099999997
 20
406.25
 11
264.33226000000002
 21
402.64999399999999
  0
ARC
  8
_0-0_0
  6
CONTINUOUS
 62
    7
 10
263.89924599999995
 20
402.89999399999999
 40
0.5
 50
269.99999700000001
 51
329.99998900000003
  0
ARC
  8
_0-0_0
  6
CONTINUOUS
 62
    7
 10
311.89846799999998
 20
403
 40
0.5
 50
210.00000299999999
 51
269.99999700000001
  0
LINE
  8
_0-0_0
  6
CONTINUOUS
 62
    7
 10
311.46545399999997
 20
402.75
 11
309.44473299999999
 21
406.25
  0
ARC
  8
_0-0_0
  6
CONTINUOUS
 62
    7
 10
309.87771599999996
 20
406.5
 40
0.5
 50
149.99999700000001
 51
210.00000299999996
  0
LINE
  8
_0-0_0
  6
CONTINUOUS
 62
    7
 10
309.44473299999999
 20
406.75
 11
311.46545399999997
 21
410.25
  0
ARC
  8
_0-0_0
  6
CONTINUOUS
 62
    7
 10
311.89846799999998
 20
410
 40
0.5
 50
90.000003000000007
 51
149.99999700000001
  0
LINE
  8
_0-0_0
  6
CONTINUOUS
 62
    7
 10
311.89846799999998
 20
410.5
 11
319.95700099999999
 21
410.5
  0
ARC
  8
_0-0_0
  6
CONTINUOUS
 62
    7
 10
319.95700099999999
 20
410
 40
0.5
 50
30.000001000000001
 51
90.000003000000007
  0
LINE
  8
_0-0_0
  6
CONTINUOUS
 62
    7
 10
320.39001500000001
 20
410.25
 11
322.41073599999999
 21
406.75
  0
ARC
  8
_0-0_0
  6
CONTINUOUS
 62
    7
 10
321.97772199999997
 20
406.5
 40
0.5
 50
329.99998900000003
 51
30.000000999999983
  0
LINE
  8
_0-0_0
  6
CONTINUOUS
 62
    7
 10
322.41073599999999
 20
406.25
 11
320.39001500000001
 21
402.75
  0
ARC
  8
_0-0_0
  6
CONTINUOUS
 62
    7
 10
319.95700099999999
 20
403
 40
0.5
 50
269.99999700000001
 51
329.99998900000003
  0
LINE
  8
_0-0_0
  6
CONTINUOUS
 62
    7
 10
319.95700099999999
 20
402.5
 11
311.89846799999998
 21
402.5
  0
LINE
  8
_0-0_0
  6
CONTINUOUS
 62
    7
 10
227.61979699999998
 20
390.50262500000002
 11
227.73930299999998
 21
390.46701000000002
  0
LINE
  8
_0-0_0
  6
CONTINUOUS
 62
    7
 10
227.73930299999998
 20
390.46701000000002
 11
227.86085499999999
 21
390.43911700000001
  0
LINE
  8
_0-0_0
  6
CONTINUOUS
 62
    7
 10
227.86085499999999
 20
390.43911700000001
 11
227.98399299999997
 21
390.41906699999998
  0
LINE
  8
_0-0_0
  6
CONTINUOUS
 62
    7
 10
227.98399299999997
 20
390.41906699999998
 11
228.10819999999998
 21
390.40695199999999
  0
LINE
  8
_0-0_0
  6
CONTINUOUS
 62
    7
 10
228.10819999999998
 20
390.40695199999999
 11
228.23304699999997
 21
390.40283199999999
  0
LINE
  8
_0-0_0
  6
CONTINUOUS
 62
    7
 10
228.23304699999997
 20
390.40283199999999
 11
228.25227299999997
 21
390.40289300000001
  0
ARC
  8
_0-0_0
  6
CONTINUOUS
 62
    7
 10
228.25227299999997
 20
392.39999399999999
 40
2
 50
251.56498899999997
 51
269.99999700000001
  0
LINE
  8
_0-0_0
  6
CONTINUOUS
 62
    7
 10
221.92771899999997
 20
407.25003099999998
 11
221.92771899999997
 21
406.12899800000002
  0
LINE
  8
_0-0_0
  6
CONTINUOUS
 62
    7
 10
250.12770099999997
 20
411.89999399999999
 11
249.72770699999998
 21
411.89999399999999
  0
LINE
  8
_0-0_0
  6
CONTINUOUS
 62
    7
 10
250.12770099999997
 20
411.89999399999999
 11
250.12770099999997
 21
412.54998799999998
  0
ARC
  8
_0-0_0
  6
CONTINUOUS
 62
    7
 10
250.37770099999997
 20
412.54998799999998
 40
0.25
 50
90.000003000000007
 51
179.99999099999999
  0
LINE
  8
_0-0_0
  6
CONTINUOUS
 62
    7
 10
250.37770099999997
 20
412.79998799999998
 11
251.02772499999998
 21
412.79998799999998
  0
LINE
  8
_0-0_0
  6
CONTINUOUS
 62
    7
 10
251.02772499999998
 20
412.79998799999998
 11
251.02772499999998
 21
413.19998199999998
  0
LINE
  8
_0-0_0
  6
CONTINUOUS
 62
    7
 10
250.37770099999997
 20
413.19998199999998
 11
251.02772499999998
 21
413.19998199999998
  0
ARC
  8
_0-0_0
  6
CONTINUOUS
 62
    7
 10
250.37770099999997
 20
413.44998199999998
 40
0.25
 50
179.99999099999999
 51
269.99999700000001
  0
LINE
  8
_0-0_0
  6
CONTINUOUS
 62
    7
 10
250.12770099999997
 20
414.09997600000003
 11
250.12770099999997
 21
413.44998199999998
  0
LINE
  8
_0-0_0
  6
CONTINUOUS
 62
    7
 10
250.12770099999997
 20
414.09997600000003
 11
249.72770699999998
 21
414.09997600000003
  0
LINE
  8
_0-0_0
  6
CONTINUOUS
 62
    7
 10
249.72770699999998
 20
414.09997600000003
 11
249.72770699999998
 21
413.44998199999998
  0
ARC
  8
_0-0_0
  6
CONTINUOUS
 62
    7
 10
249.47770699999998
 20
413.44998199999998
 40
0.25
 50
269.99999700000001
 51
0
  0
LINE
  8
_0-0_0
  6
CONTINUOUS
 62
    7
 10
249.47770699999998
 20
413.19998199999998
 11
248.82771299999999
 21
413.19998199999998
  0
LINE
  8
_0-0_0
  6
CONTINUOUS
 62
    7
 10
248.82771299999999
 20
412.79998799999998
 11
248.82771299999999
 21
413.19998199999998
  0
LINE
  8
_0-0_0
  6
CONTINUOUS
 62
    7
 10
249.47770699999998
 20
412.79998799999998
 11
248.82771299999999
 21
412.79998799999998
  0
ARC
  8
_0-0_0
  6
CONTINUOUS
 62
    7
 10
249.47770699999998
 20
412.54998799999998
 40
0.25
 50
0
 51
90.000003000000007
  0
LINE
  8
_0-0_0
  6
CONTINUOUS
 62
    7
 10
249.72770699999998
 20
411.89999399999999
 11
249.72770699999998
 21
412.54998799999998
  0
LINE
  8
_0-0_0
  6
CONTINUOUS
 62
    7
 10
329.12771599999996
 20
411.89999399999999
 11
328.72772199999997
 21
411.89999399999999
  0
LINE
  8
_0-0_0
  6
CONTINUOUS
 62
    7
 10
329.12771599999996
 20
411.89999399999999
 11
329.12771599999996
 21
412.54998799999998
  0
ARC
  8
_0-0_0
  6
CONTINUOUS
 62
    7
 10
329.37771599999996
 20
412.54998799999998
 40
0.25
 50
90.000003000000007
 51
179.99999099999999
  0
LINE
  8
_0-0_0
  6
CONTINUOUS
 62
    7
 10
329.37771599999996
 20
412.79998799999998
 11
330.02773999999999
 21
412.79998799999998
  0
LINE
  8
_0-0_0
  6
CONTINUOUS
 62
    7
 10
330.02773999999999
 20
412.79998799999998
 11
330.02773999999999
 21
413.19998199999998
  0
LINE
  8
_0-0_0
  6
CONTINUOUS
 62
    7
 10
329.37771599999996
 20
413.19998199999998
 11
330.02773999999999
 21
413.19998199999998
  0
ARC
  8
_0-0_0
  6
CONTINUOUS
 62
    7
 10
329.37771599999996
 20
413.44998199999998
 40
0.25
 50
179.99999099999999
 51
269.99999700000001
  0
LINE
  8
_0-0_0
  6
CONTINUOUS
 62
    7
 10
329.12771599999996
 20
414.09997600000003
 11
329.12771599999996
 21
413.44998199999998
  0
LINE
  8
_0-0_0
  6
CONTINUOUS
 62
    7
 10
329.12771599999996
 20
414.09997600000003
 11
328.72772199999997
 21
414.09997600000003
  0
LINE
  8
_0-0_0
  6
CONTINUOUS
 62
    7
 10
328.72772199999997
 20
414.09997600000003
 11
328.72772199999997
 21
413.44998199999998
  0
ARC
  8
_0-0_0
  6
CONTINUOUS
 62
    7
 10
328.47772199999997
 20
413.44998199999998
 40
0.25
 50
269.99999700000001
 51
0
  0
LINE
  8
_0-0_0
  6
CONTINUOUS
 62
    7
 10
328.47772199999997
 20
413.19998199999998
 11
327.82772799999998
 21
413.19998199999998
  0
LINE
  8
_0-0_0
  6
CONTINUOUS
 62
    7
 10
327.82772799999998
 20
412.79998799999998
 11
327.82772799999998
 21
413.19998199999998
  0
LINE
  8
_0-0_0
  6
CONTINUOUS
 62
    7
 10
328.47772199999997
 20
412.79998799999998
 11
327.82772799999998
 21
412.79998799999998
  0
ARC
  8
_0-0_0
  6
CONTINUOUS
 62
    7
 10
328.47772199999997
 20
412.54998799999998
 40
0.25
 50
0
 51
90.000003000000007
  0
LINE
  8
_0-0_0
  6
CONTINUOUS
 62
    7
 10
328.72772199999997
 20
411.89999399999999
 11
328.72772199999997
 21
412.54998799999998
  0
LINE
  8
_0-0_0
  6
CONTINUOUS
 62
    7
 10
336.42773399999999
 20
387
 11
330.92773399999999
 21
387
  0
LINE
  8
_0-0_0
  6
CONTINUOUS
 62
    7
 10
336.92773399999999
 20
393.25
 11
336.92773399999999
 21
396.75
  0
LINE
  8
_0-0_0
  6
CONTINUOUS
 62
    7
 10
336.92773399999999
 20
393.25
 11
336.92773399999999
 21
392.89999399999999
  0
LINE
  8
_0-0_0
  6
CONTINUOUS
 62
    7
 10
336.92773399999999
 20
389.40570100000002
 11
336.92773399999999
 21
392.89999399999999
  0
LINE
  8
_0-0_0
  6
CONTINUOUS
 62
    7
 10
336.92773399999999
 20
387.557098
 11
336.92773399999999
 21
387.84997600000003
  0
LINE
  8
_0-0_0
  6
CONTINUOUS
 62
    7
 10
336.92773399999999
 20
387.557098
 11
336.92773399999999
 21
387.5
  0
LINE
  8
_0-0_0
  6
CONTINUOUS
 62
    7
 10
333.92773399999999
 20
391.82128899999998
 11
333.92773399999999
 21
393.37167399999998
  0
LINE
  8
_0-0_0
  6
CONTINUOUS
 62
    7
 10
333.92773399999999
 20
391.10012799999998
 11
333.92773399999999
 21
391.82128899999998
  0
ARC
  8
_0-0_0
  6
CONTINUOUS
 62
    7
 10
336.42773399999999
 20
396.75
 40
0.5
 50
269.99999700000001
 51
0
  0
ARC
  8
_0-0_0
  6
CONTINUOUS
 62
    7
 10
334.22772199999997
 20
395.94998199999998
 40
0.2999999999999999
 50
90.000003000000007
 51
179.99999099999999
  0
LINE
  8
_0-0_0
  6
CONTINUOUS
 62
    7
 10
223.29524199999997
 20
391.94415299999997
 11
227.61979699999998
 21
390.50262500000002
  0
LINE
  8
_0-0_0
  6
CONTINUOUS
 62
    7
 10
221.92771899999997
 20
393.84149200000002
 11
221.92771899999997
 21
397.19229100000001
  0
LINE
  8
_0-0_0
  6
CONTINUOUS
 62
    7
 10
221.92771899999997
 20
405.207672
 11
221.92771899999997
 21
406.12899800000002
  0
ARC
  8
_0-0_0
  6
CONTINUOUS
 62
    7
 10
223.92771899999997
 20
393.84149200000002
 40
2
 50
179.99999099999999
 51
251.56498899999997
  0
LINE
  8
_0-0_0
  6
CONTINUOUS
 62
    7
 10
206.92771899999997
 20
410.72543300000001
 11
206.92771899999997
 21
410.57870500000001
  0
LINE
  8
_0-0_0
  6
CONTINUOUS
 62
    7
 10
206.92771899999997
 20
410.915955
 11
206.92771899999997
 21
410.72543300000001
  0
LINE
  8
_0-0_0
  6
CONTINUOUS
 62
    7
 10
206.92771899999997
 20
411.09097300000002
 11
206.92771899999997
 21
410.915955
  0
LINE
  8
_0-0_0
  6
CONTINUOUS
 62
    7
 10
206.92771899999997
 20
411.24856599999998
 11
206.92771899999997
 21
411.09097300000002
  0
LINE
  8
_0-0_0
  6
CONTINUOUS
 62
    7
 10
206.92771899999997
 20
411.38699300000002
 11
206.92771899999997
 21
411.24856599999998
  0
LINE
  8
_0-0_0
  6
CONTINUOUS
 62
    7
 10
206.92771899999997
 20
411.50476099999997
 11
206.92771899999997
 21
411.38699300000002
  0
LINE
  8
_0-0_0
  6
CONTINUOUS
 62
    7
 10
206.92771899999997
 20
411.600525
 11
206.92771899999997
 21
411.50476099999997
  0
LINE
  8
_0-0_0
  6
CONTINUOUS
 62
    7
 10
206.92771899999997
 20
411.67330900000002
 11
206.92771899999997
 21
411.600525
  0
LINE
  8
_0-0_0
  6
CONTINUOUS
 62
    7
 10
206.92771899999997
 20
411.72228999999999
 11
206.92771899999997
 21
411.67330900000002
  0
LINE
  8
_0-0_0
  6
CONTINUOUS
 62
    7
 10
206.92771899999997
 20
411.75
 11
206.92771899999997
 21
411.72228999999999
  0
LINE
  8
_0-0_0
  6
CONTINUOUS
 62
    7
 10
206.92771899999997
 20
411.75
 11
206.92771899999997
 21
411.74688700000002
  0
LINE
  8
_0-0_0
  6
CONTINUOUS
 62
    7
 10
206.92771899999997
 20
407.25305200000003
 11
206.92771899999997
 21
407.25
  0
LINE
  8
_0-0_0
  6
CONTINUOUS
 62
    7
 10
206.92771899999997
 20
407.27767899999998
 11
206.92771899999997
 21
407.25305200000003
  0
LINE
  8
_0-0_0
  6
CONTINUOUS
 62
    7
 10
206.92771899999997
 20
407.32666
 11
206.92771899999997
 21
407.27767899999998
  0
LINE
  8
_0-0_0
  6
CONTINUOUS
 62
    7
 10
206.92771899999997
 20
407.39941399999998
 11
206.92771899999997
 21
407.32666
  0
LINE
  8
_0-0_0
  6
CONTINUOUS
 62
    7
 10
206.92771899999997
 20
407.49520899999999
 11
206.92771899999997
 21
407.39941399999998
  0
LINE
  8
_0-0_0
  6
CONTINUOUS
 62
    7
 10
206.92771899999997
 20
407.52542099999999
 11
206.92771899999997
 21
407.49520899999999
  0
LINE
  8
_0-0_0
  6
CONTINUOUS
 62
    7
 10
206.92771899999997
 20
407.612976
 11
206.92771899999997
 21
407.52542099999999
  0
LINE
  8
_0-0_0
  6
CONTINUOUS
 62
    7
 10
206.92771899999997
 20
407.75140399999998
 11
206.92771899999997
 21
407.612976
  0
LINE
  8
_0-0_0
  6
CONTINUOUS
 62
    7
 10
206.92771899999997
 20
407.908997
 11
206.92771899999997
 21
407.75140399999998
  0
LINE
  8
_0-0_0
  6
CONTINUOUS
 62
    7
 10
206.92771899999997
 20
408.08401500000002
 11
206.92771899999997
 21
407.908997
  0
LINE
  8
_0-0_0
  6
CONTINUOUS
 62
    7
 10
206.92771899999997
 20
408.27453600000001
 11
206.92771899999997
 21
408.08401500000002
  0
LINE
  8
_0-0_0
  6
CONTINUOUS
 62
    7
 10
206.92771899999997
 20
408.47851600000001
 11
206.92771899999997
 21
408.27453600000001
  0
LINE
  8
_0-0_0
  6
CONTINUOUS
 62
    7
 10
206.92771899999997
 20
408.69366500000001
 11
206.92771899999997
 21
408.47851600000001
  0
LINE
  8
_0-0_0
  6
CONTINUOUS
 62
    7
 10
206.92771899999997
 20
408.91763300000002
 11
206.92771899999997
 21
408.69366500000001
  0
LINE
  8
_0-0_0
  6
CONTINUOUS
 62
    7
 10
206.92771899999997
 20
409.14801
 11
206.92771899999997
 21
408.91763300000002
  0
LINE
  8
_0-0_0
  6
CONTINUOUS
 62
    7
 10
206.92771899999997
 20
409.38223299999999
 11
206.92771899999997
 21
409.14801
  0
LINE
  8
_0-0_0
  6
CONTINUOUS
 62
    7
 10
206.92771899999997
 20
409.61773699999998
 11
206.92771899999997
 21
409.38223299999999
  0
LINE
  8
_0-0_0
  6
CONTINUOUS
 62
    7
 10
206.92771899999997
 20
409.85195900000002
 11
206.92771899999997
 21
409.61773699999998
  0
LINE
  8
_0-0_0
  6
CONTINUOUS
 62
    7
 10
206.92771899999997
 20
410.082336
 11
206.92771899999997
 21
409.85195900000002
  0
LINE
  8
_0-0_0
  6
CONTINUOUS
 62
    7
 10
206.92771899999997
 20
410.30630500000001
 11
206.92771899999997
 21
410.082336
  0
LINE
  8
_0-0_0
  6
CONTINUOUS
 62
    7
 10
206.92771899999997
 20
410.52145400000001
 11
206.92771899999997
 21
410.30630500000001
  0
LINE
  8
_0-0_0
  6
CONTINUOUS
 62
    7
 10
206.92771899999997
 20
410.57870500000001
 11
206.92771899999997
 21
410.52145400000001
  0
LINE
  8
_0-0_0
  6
CONTINUOUS
 62
    7
 10
222.22770699999998
 20
403.41198700000001
 11
222.16892999999999
 21
403.65881300000001
  0
LINE
  8
_0-0_0
  6
CONTINUOUS
 62
    7
 10
222.16892999999999
 20
403.65881300000001
 11
222.11915599999998
 21
403.851135
  0
LINE
  8
_0-0_0
  6
CONTINUOUS
 62
    7
 10
222.11915599999998
 20
403.851135
 11
222.04801899999998
 21
404.11694299999999
  0
LINE
  8
_0-0_0
  6
CONTINUOUS
 62
    7
 10
222.04801899999998
 20
404.11694299999999
 11
222.01505999999998
 21
404.243652
  0
LINE
  8
_0-0_0
  6
CONTINUOUS
 62
    7
 10
222.01505999999998
 20
404.243652
 11
221.98979199999997
 21
404.34707600000002
  0
LINE
  8
_0-0_0
  6
CONTINUOUS
 62
    7
 10
221.98979199999997
 20
404.34707600000002
 11
221.96775799999998
 21
404.44702100000001
  0
LINE
  8
_0-0_0
  6
CONTINUOUS
 62
    7
 10
221.96775799999998
 20
404.44702100000001
 11
221.94639599999996
 21
404.564728
  0
LINE
  8
_0-0_0
  6
CONTINUOUS
 62
    7
 10
221.94639599999996
 20
404.564728
 11
221.93781999999999
 21
404.62686200000002
  0
LINE
  8
_0-0_0
  6
CONTINUOUS
 62
    7
 10
221.93781999999999
 20
404.62686200000002
 11
221.93174699999997
 21
404.68746900000002
  0
LINE
  8
_0-0_0
  6
CONTINUOUS
 62
    7
 10
221.93174699999997
 20
404.68746900000002
 11
221.92872599999998
 21
404.736694
  0
LINE
  8
_0-0_0
  6
CONTINUOUS
 62
    7
 10
221.92872599999998
 20
404.736694
 11
221.92771899999997
 21
404.78491200000002
  0
LINE
  8
_0-0_0
  6
CONTINUOUS
 62
    7
 10
222.22770699999998
 20
398.987976
 11
222.31117199999997
 21
399.36663800000002
  0
LINE
  8
_0-0_0
  6
CONTINUOUS
 62
    7
 10
222.31117199999997
 20
399.36663800000002
 11
222.35127199999997
 21
399.55816700000003
  0
LINE
  8
_0-0_0
  6
CONTINUOUS
 62
    7
 10
222.35127199999997
 20
399.55816700000003
 11
222.40733299999997
 21
399.848206
  0
LINE
  8
_0-0_0
  6
CONTINUOUS
 62
    7
 10
222.40733299999997
 20
399.848206
 11
222.44493099999997
 21
400.06778000000003
  0
LINE
  8
_0-0_0
  6
CONTINUOUS
 62
    7
 10
222.44493099999997
 20
400.06778000000003
 11
222.47758499999998
 21
400.28903200000002
  0
LINE
  8
_0-0_0
  6
CONTINUOUS
 62
    7
 10
222.47758499999998
 20
400.28903200000002
 11
222.50474499999999
 21
400.51583900000003
  0
LINE
  8
_0-0_0
  6
CONTINUOUS
 62
    7
 10
222.50474499999999
 20
400.51583900000003
 11
222.52482599999999
 21
400.743225
  0
LINE
  8
_0-0_0
  6
CONTINUOUS
 62
    7
 10
222.52482599999999
 20
400.743225
 11
222.53196699999998
 21
400.856964
  0
LINE
  8
_0-0_0
  6
CONTINUOUS
 62
    7
 10
222.53196699999998
 20
400.856964
 11
222.53712499999997
 21
400.970642
  0
LINE
  8
_0-0_0
  6
CONTINUOUS
 62
    7
 10
222.53712499999997
 20
400.970642
 11
222.54084799999998
 21
401.12207000000001
  0
LINE
  8
_0-0_0
  6
CONTINUOUS
 62
    7
 10
222.54084799999998
 20
401.12207000000001
 11
222.54090899999997
 21
401.27331500000003
  0
LINE
  8
_0-0_0
  6
CONTINUOUS
 62
    7
 10
222.54090899999997
 20
401.27331500000003
 11
222.53733799999998
 21
401.42437699999999
  0
LINE
  8
_0-0_0
  6
CONTINUOUS
 62
    7
 10
222.53733799999998
 20
401.42437699999999
 11
222.52781699999997
 21
401.61291499999999
  0
LINE
  8
_0-0_0
  6
CONTINUOUS
 62
    7
 10
222.52781699999997
 20
401.61291499999999
 11
222.51295499999998
 21
401.80117799999999
  0
LINE
  8
_0-0_0
  6
CONTINUOUS
 62
    7
 10
222.51295499999998
 20
401.80117799999999
 11
222.49302699999998
 21
401.989105
  0
LINE
  8
_0-0_0
  6
CONTINUOUS
 62
    7
 10
222.49302699999998
 20
401.989105
 11
222.47663899999998
 21
402.11798099999999
  0
LINE
  8
_0-0_0
  6
CONTINUOUS
 62
    7
 10
222.47663899999998
 20
402.11798099999999
 11
222.45823699999997
 21
402.24664300000001
  0
LINE
  8
_0-0_0
  6
CONTINUOUS
 62
    7
 10
222.45823699999997
 20
402.24664300000001
 11
222.43406699999997
 21
402.39855999999997
  0
LINE
  8
_0-0_0
  6
CONTINUOUS
 62
    7
 10
222.43406699999997
 20
402.39855999999997
 11
222.40766899999997
 21
402.54992700000003
  0
LINE
  8
_0-0_0
  6
CONTINUOUS
 62
    7
 10
222.40766899999997
 20
402.54992700000003
 11
222.35151699999997
 21
402.84054600000002
  0
LINE
  8
_0-0_0
  6
CONTINUOUS
 62
    7
 10
222.35151699999997
 20
402.84054600000002
 11
222.31135499999999
 21
403.03250100000002
  0
LINE
  8
_0-0_0
  6
CONTINUOUS
 62
    7
 10
222.31135499999999
 20
403.03250100000002
 11
222.22770699999998
 21
403.41198700000001
  0
LINE
  8
_0-0_0
  6
CONTINUOUS
 62
    7
 10
222.22770699999998
 20
398.987976
 11
222.16889899999998
 21
398.74111900000003
  0
LINE
  8
_0-0_0
  6
CONTINUOUS
 62
    7
 10
222.16889899999998
 20
398.74111900000003
 11
222.11915599999998
 21
398.54879799999998
  0
LINE
  8
_0-0_0
  6
CONTINUOUS
 62
    7
 10
222.11915599999998
 20
398.54879799999998
 11
222.04801899999998
 21
398.283051
  0
LINE
  8
_0-0_0
  6
CONTINUOUS
 62
    7
 10
222.04801899999998
 20
398.283051
 11
222.01505999999998
 21
398.156342
  0
LINE
  8
_0-0_0
  6
CONTINUOUS
 62
    7
 10
222.01505999999998
 20
398.156342
 11
221.98979199999997
 21
398.05291699999998
  0
LINE
  8
_0-0_0
  6
CONTINUOUS
 62
    7
 10
221.98979199999997
 20
398.05291699999998
 11
221.96775799999998
 21
397.95294200000001
  0
LINE
  8
_0-0_0
  6
CONTINUOUS
 62
    7
 10
221.96775799999998
 20
397.95294200000001
 11
221.94639599999996
 21
397.83523600000001
  0
LINE
  8
_0-0_0
  6
CONTINUOUS
 62
    7
 10
221.94639599999996
 20
397.83523600000001
 11
221.93781999999999
 21
397.77310199999999
  0
LINE
  8
_0-0_0
  6
CONTINUOUS
 62
    7
 10
221.93781999999999
 20
397.77310199999999
 11
221.93174699999997
 21
397.71249399999999
  0
LINE
  8
_0-0_0
  6
CONTINUOUS
 62
    7
 10
221.93174699999997
 20
397.71249399999999
 11
221.92872599999998
 21
397.66326900000001
  0
LINE
  8
_0-0_0
  6
CONTINUOUS
 62
    7
 10
221.92872599999998
 20
397.66326900000001
 11
221.92771899999997
 21
397.61505099999999
  0
ARC
  8
_0-0_0
  6
CONTINUOUS
 62
    7
 10
336.42773399999999
 20
387.5
 40
0.5
 50
269.99999700000001
 51
0
  0
LINE
  8
_0-0_0
  6
CONTINUOUS
 62
    7
 10
336.38339199999996
 20
391.82128899999998
 11
336.38339199999996
 21
395.14999399999999
  0
LINE
  8
_0-0_0
  6
CONTINUOUS
 62
    7
 10
336.38339199999996
 20
390.64999399999999
 11
336.38339199999996
 21
391.82128899999998
  0
CIRCLE
  8
_0-0_0
  6
CONTINUOUS
 62
    7
 10
259.92771899999997
 20
406.5
 40
2.5
  0
CIRCLE
  8
_0-0_0
  6
CONTINUOUS
 62
    7
 10
315.92773399999999
 20
406.5
 40
2.5
  0
LINE
  8
_0-0_0
  6
CONTINUOUS
 62
    7
 10
221.92771899999997
 20
397.30767800000001
 11
212.21989399999998
 21
397.30767800000001
  0
LINE
  8
_0-0_0
  6
CONTINUOUS
 62
    7
 10
212.21989399999998
 20
394.69998199999998
 11
212.16540499999996
 21
394.76992799999999
  0
LINE
  8
_0-0_0
  6
CONTINUOUS
 62
    7
 10
212.16540499999996
 20
394.76992799999999
 11
212.11430299999998
 21
394.83874500000002
  0
LINE
  8
_0-0_0
  6
CONTINUOUS
 62
    7
 10
212.11430299999998
 20
394.83874500000002
 11
212.06666599999997
 21
394.90625
  0
LINE
  8
_0-0_0
  6
CONTINUOUS
 62
    7
 10
212.06666599999997
 20
394.90625
 11
212.02217099999999
 21
394.97280899999998
  0
LINE
  8
_0-0_0
  6
CONTINUOUS
 62
    7
 10
212.02217099999999
 20
394.97280899999998
 11
211.96745299999998
 21
395.06033300000001
  0
LINE
  8
_0-0_0
  6
CONTINUOUS
 62
    7
 10
211.96745299999998
 20
395.06033300000001
 11
211.91793799999996
 21
395.14645400000001
  0
LINE
  8
_0-0_0
  6
CONTINUOUS
 62
    7
 10
211.91793799999996
 20
395.14645400000001
 11
211.87345899999997
 21
395.23126200000002
  0
LINE
  8
_0-0_0
  6
CONTINUOUS
 62
    7
 10
211.87345899999997
 20
395.23126200000002
 11
211.82649199999997
 21
395.33160400000003
  0
LINE
  8
_0-0_0
  6
CONTINUOUS
 62
    7
 10
211.82649199999997
 20
395.33160400000003
 11
211.78630099999998
 21
395.43051100000002
  0
LINE
  8
_0-0_0
  6
CONTINUOUS
 62
    7
 10
211.78630099999998
 20
395.43051100000002
 11
211.75263999999999
 21
395.52825899999999
  0
LINE
  8
_0-0_0
  6
CONTINUOUS
 62
    7
 10
211.75263999999999
 20
395.52825899999999
 11
211.72534199999998
 21
395.625092
  0
LINE
  8
_0-0_0
  6
CONTINUOUS
 62
    7
 10
211.72534199999998
 20
395.625092
 11
211.70429999999999
 21
395.72113000000002
  0
LINE
  8
_0-0_0
  6
CONTINUOUS
 62
    7
 10
211.70429999999999
 20
395.72113000000002
 11
211.68836999999999
 21
395.82498199999998
  0
LINE
  8
_0-0_0
  6
CONTINUOUS
 62
    7
 10
211.68836999999999
 20
395.82498199999998
 11
211.67961099999997
 21
395.928406
  0
LINE
  8
_0-0_0
  6
CONTINUOUS
 62
    7
 10
211.67961099999997
 20
395.928406
 11
211.67796299999998
 21
396.03164700000002
  0
LINE
  8
_0-0_0
  6
CONTINUOUS
 62
    7
 10
211.67796299999998
 20
396.03164700000002
 11
211.68344099999999
 21
396.13494900000001
  0
LINE
  8
_0-0_0
  6
CONTINUOUS
 62
    7
 10
211.68344099999999
 20
396.13494900000001
 11
211.69604499999997
 21
396.23852499999998
  0
LINE
  8
_0-0_0
  6
CONTINUOUS
 62
    7
 10
211.69604499999997
 20
396.23852499999998
 11
211.71586599999998
 21
396.34268200000002
  0
LINE
  8
_0-0_0
  6
CONTINUOUS
 62
    7
 10
211.71586599999998
 20
396.34268200000002
 11
211.74301099999997
 21
396.447632
  0
LINE
  8
_0-0_0
  6
CONTINUOUS
 62
    7
 10
211.74301099999997
 20
396.447632
 11
211.77766399999999
 21
396.55367999999999
  0
LINE
  8
_0-0_0
  6
CONTINUOUS
 62
    7
 10
211.77766399999999
 20
396.55367999999999
 11
211.82000699999998
 21
396.66104100000001
  0
LINE
  8
_0-0_0
  6
CONTINUOUS
 62
    7
 10
211.82000699999998
 20
396.66104100000001
 11
211.87031499999998
 21
396.77005000000003
  0
LINE
  8
_0-0_0
  6
CONTINUOUS
 62
    7
 10
211.87031499999998
 20
396.77005000000003
 11
211.92457599999997
 21
396.873199
  0
LINE
  8
_0-0_0
  6
CONTINUOUS
 62
    7
 10
211.92457599999997
 20
396.873199
 11
211.98628199999999
 21
396.97824100000003
  0
LINE
  8
_0-0_0
  6
CONTINUOUS
 62
    7
 10
211.98628199999999
 20
396.97824100000003
 11
212.05580099999997
 21
397.08548000000002
  0
LINE
  8
_0-0_0
  6
CONTINUOUS
 62
    7
 10
212.05580099999997
 20
397.08548000000002
 11
212.13351399999999
 21
397.19519000000003
  0
LINE
  8
_0-0_0
  6
CONTINUOUS
 62
    7
 10
212.13351399999999
 20
397.19519000000003
 11
212.21989399999998
 21
397.30767800000001
  0
LINE
  8
_0-0_0
  6
CONTINUOUS
 62
    7
 10
221.92771899999997
 20
394.69998199999998
 11
212.21989399999998
 21
394.69998199999998
  0
LINE
  8
_0-0_0
  6
CONTINUOUS
 62
    7
 10
221.92771899999997
 20
397.19229100000001
 11
221.92771899999997
 21
397.30767800000001
  0
LINE
  8
_0-0_0
  6
CONTINUOUS
 62
    7
 10
212.17771899999997
 20
394.69998199999998
 11
212.21989399999998
 21
394.69998199999998
  0
LINE
  8
_0-0_0
  6
CONTINUOUS
 62
    7
 10
221.92771899999997
 20
405.092285
 11
212.21989399999998
 21
405.092285
  0
LINE
  8
_0-0_0
  6
CONTINUOUS
 62
    7
 10
221.92771899999997
 20
405.207672
 11
221.92771899999997
 21
405.092285
  0
LINE
  8
_0-0_0
  6
CONTINUOUS
 62
    7
 10
212.21989399999998
 20
405.092285
 11
212.16540499999996
 21
405.16223100000002
  0
LINE
  8
_0-0_0
  6
CONTINUOUS
 62
    7
 10
212.16540499999996
 20
405.16223100000002
 11
212.11430299999998
 21
405.23104899999998
  0
LINE
  8
_0-0_0
  6
CONTINUOUS
 62
    7
 10
212.11430299999998
 20
405.23104899999998
 11
212.06666599999997
 21
405.29855300000003
  0
LINE
  8
_0-0_0
  6
CONTINUOUS
 62
    7
 10
212.06666599999997
 20
405.29855300000003
 11
212.02217099999999
 21
405.36511200000001
  0
LINE
  8
_0-0_0
  6
CONTINUOUS
 62
    7
 10
212.02217099999999
 20
405.36511200000001
 11
211.96745299999998
 21
405.45263699999998
  0
LINE
  8
_0-0_0
  6
CONTINUOUS
 62
    7
 10
211.96745299999998
 20
405.45263699999998
 11
211.91793799999996
 21
405.53875699999998
  0
LINE
  8
_0-0_0
  6
CONTINUOUS
 62
    7
 10
211.91793799999996
 20
405.53875699999998
 11
211.87345899999997
 21
405.62359600000002
  0
LINE
  8
_0-0_0
  6
CONTINUOUS
 62
    7
 10
211.87345899999997
 20
405.62359600000002
 11
211.82649199999997
 21
405.723907
  0
LINE
  8
_0-0_0
  6
CONTINUOUS
 62
    7
 10
211.82649199999997
 20
405.723907
 11
211.78630099999998
 21
405.82281499999999
  0
LINE
  8
_0-0_0
  6
CONTINUOUS
 62
    7
 10
211.78630099999998
 20
405.82281499999999
 11
211.75263999999999
 21
405.920593
  0
LINE
  8
_0-0_0
  6
CONTINUOUS
 62
    7
 10
211.75263999999999
 20
405.920593
 11
211.72534199999998
 21
406.01739500000002
  0
LINE
  8
_0-0_0
  6
CONTINUOUS
 62
    7
 10
211.72534199999998
 20
406.01739500000002
 11
211.70429999999999
 21
406.11343399999998
  0
LINE
  8
_0-0_0
  6
CONTINUOUS
 62
    7
 10
211.70429999999999
 20
406.11343399999998
 11
211.68836999999999
 21
406.217285
  0
LINE
  8
_0-0_0
  6
CONTINUOUS
 62
    7
 10
211.68836999999999
 20
406.217285
 11
211.67961099999997
 21
406.32070900000002
  0
LINE
  8
_0-0_0
  6
CONTINUOUS
 62
    7
 10
211.67961099999997
 20
406.32070900000002
 11
211.67796299999998
 21
406.42394999999999
  0
LINE
  8
_0-0_0
  6
CONTINUOUS
 62
    7
 10
211.67796299999998
 20
406.42394999999999
 11
211.68344099999999
 21
406.52725199999998
  0
LINE
  8
_0-0_0
  6
CONTINUOUS
 62
    7
 10
211.68344099999999
 20
406.52725199999998
 11
211.69604499999997
 21
406.63082900000001
  0
LINE
  8
_0-0_0
  6
CONTINUOUS
 62
    7
 10
211.69604499999997
 20
406.63082900000001
 11
211.71586599999998
 21
406.73498499999999
  0
LINE
  8
_0-0_0
  6
CONTINUOUS
 62
    7
 10
211.71586599999998
 20
406.73498499999999
 11
211.74301099999997
 21
406.83993500000003
  0
LINE
  8
_0-0_0
  6
CONTINUOUS
 62
    7
 10
211.74301099999997
 20
406.83993500000003
 11
211.77766399999999
 21
406.94598400000001
  0
LINE
  8
_0-0_0
  6
CONTINUOUS
 62
    7
 10
211.77766399999999
 20
406.94598400000001
 11
211.82000699999998
 21
407.05334499999998
  0
LINE
  8
_0-0_0
  6
CONTINUOUS
 62
    7
 10
211.82000699999998
 20
407.05334499999998
 11
211.87031499999998
 21
407.16235399999999
  0
LINE
  8
_0-0_0
  6
CONTINUOUS
 62
    7
 10
211.87031499999998
 20
407.16235399999999
 11
211.91601599999998
 21
407.25
  0
LINE
  8
_0-0_0
  6
CONTINUOUS
 62
    7
 10
206.92771899999997
 20
410.72543300000001
 11
206.67771899999997
 21
410.75
  0
LINE
  8
_0-0_0
  6
CONTINUOUS
 62
    7
 10
206.92771899999997
 20
410.52145400000001
 11
206.67771899999997
 21
410.75
  0
LINE
  8
_0-0_0
  6
CONTINUOUS
 62
    7
 10
206.92771899999997
 20
410.915955
 11
206.67771899999997
 21
410.96945199999999
  0
LINE
  8
_0-0_0
  6
CONTINUOUS
 62
    7
 10
206.92771899999997
 20
410.72543300000001
 11
206.67771899999997
 21
410.96945199999999
  0
LINE
  8
_0-0_0
  6
CONTINUOUS
 62
    7
 10
206.92771899999997
 20
411.09097300000002
 11
206.67771899999997
 21
411.172821
  0
LINE
  8
_0-0_0
  6
CONTINUOUS
 62
    7
 10
206.92771899999997
 20
410.915955
 11
206.67771899999997
 21
411.172821
  0
LINE
  8
_0-0_0
  6
CONTINUOUS
 62
    7
 10
206.92771899999997
 20
411.24856599999998
 11
206.67771899999997
 21
411.35784899999999
  0
LINE
  8
_0-0_0
  6
CONTINUOUS
 62
    7
 10
206.92771899999997
 20
411.09097300000002
 11
206.67771899999997
 21
411.35784899999999
  0
LINE
  8
_0-0_0
  6
CONTINUOUS
 62
    7
 10
206.92771899999997
 20
411.38699300000002
 11
206.67771899999997
 21
411.52252199999998
  0
LINE
  8
_0-0_0
  6
CONTINUOUS
 62
    7
 10
206.92771899999997
 20
411.24856599999998
 11
206.67771899999997
 21
411.52252199999998
  0
LINE
  8
_0-0_0
  6
CONTINUOUS
 62
    7
 10
206.92771899999997
 20
411.50476099999997
 11
206.67771899999997
 21
411.66503899999998
  0
LINE
  8
_0-0_0
  6
CONTINUOUS
 62
    7
 10
206.92771899999997
 20
411.38699300000002
 11
206.67771899999997
 21
411.66503899999998
  0
LINE
  8
_0-0_0
  6
CONTINUOUS
 62
    7
 10
206.92771899999997
 20
411.600525
 11
206.67771899999997
 21
411.78384399999999
  0
LINE
  8
_0-0_0
  6
CONTINUOUS
 62
    7
 10
206.92771899999997
 20
411.50476099999997
 11
206.67771899999997
 21
411.78384399999999
  0
LINE
  8
_0-0_0
  6
CONTINUOUS
 62
    7
 10
206.92771899999997
 20
411.67330900000002
 11
206.67771899999997
 21
411.87762500000002
  0
LINE
  8
_0-0_0
  6
CONTINUOUS
 62
    7
 10
206.92771899999997
 20
411.600525
 11
206.67771899999997
 21
411.87762500000002
  0
LINE
  8
_0-0_0
  6
CONTINUOUS
 62
    7
 10
206.92771899999997
 20
411.72228999999999
 11
206.67771899999997
 21
411.94534299999998
  0
LINE
  8
_0-0_0
  6
CONTINUOUS
 62
    7
 10
206.92771899999997
 20
411.67330900000002
 11
206.67771899999997
 21
411.94534299999998
  0
LINE
  8
_0-0_0
  6
CONTINUOUS
 62
    7
 10
206.92771899999997
 20
411.74688700000002
 11
206.67771899999997
 21
411.98629799999998
  0
LINE
  8
_0-0_0
  6
CONTINUOUS
 62
    7
 10
206.92771899999997
 20
411.72228999999999
 11
206.67771899999997
 21
411.98629799999998
  0
LINE
  8
_0-0_0
  6
CONTINUOUS
 62
    7
 10
206.92771899999997
 20
411.74688700000002
 11
206.67771899999997
 21
412
  0
LINE
  8
_0-0_0
  6
CONTINUOUS
 62
    7
 10
206.92771899999997
 20
407.25305200000003
 11
206.67771899999997
 21
407
  0
LINE
  8
_0-0_0
  6
CONTINUOUS
 62
    7
 10
206.92771899999997
 20
407.27767899999998
 11
206.67771899999997
 21
407.01367199999999
  0
LINE
  8
_0-0_0
  6
CONTINUOUS
 62
    7
 10
206.92771899999997
 20
407.25305200000003
 11
206.67771899999997
 21
407.01367199999999
  0
LINE
  8
_0-0_0
  6
CONTINUOUS
 62
    7
 10
206.92771899999997
 20
407.32666
 11
206.67771899999997
 21
407.05462599999998
  0
LINE
  8
_0-0_0
  6
CONTINUOUS
 62
    7
 10
206.92771899999997
 20
407.27767899999998
 11
206.67771899999997
 21
407.05462599999998
  0
LINE
  8
_0-0_0
  6
CONTINUOUS
 62
    7
 10
206.92771899999997
 20
407.39941399999998
 11
206.67771899999997
 21
407.122345
  0
LINE
  8
_0-0_0
  6
CONTINUOUS
 62
    7
 10
206.92771899999997
 20
407.32666
 11
206.67771899999997
 21
407.122345
  0
LINE
  8
_0-0_0
  6
CONTINUOUS
 62
    7
 10
206.92771899999997
 20
407.49520899999999
 11
206.67771899999997
 21
407.21612499999998
  0
LINE
  8
_0-0_0
  6
CONTINUOUS
 62
    7
 10
206.92771899999997
 20
407.39941399999998
 11
206.67771899999997
 21
407.21612499999998
  0
LINE
  8
_0-0_0
  6
CONTINUOUS
 62
    7
 10
206.92771899999997
 20
407.49520899999999
 11
206.79774499999999
 21
407.41137700000002
  0
LINE
  8
_0-0_0
  6
CONTINUOUS
 62
    7
 10
206.92771899999997
 20
407.612976
 11
206.67771899999997
 21
407.33492999999999
  0
LINE
  8
_0-0_0
  6
CONTINUOUS
 62
    7
 10
206.79774499999999
 20
407.41137700000002
 11
206.67771899999997
 21
407.33492999999999
  0
LINE
  8
_0-0_0
  6
CONTINUOUS
 62
    7
 10
206.92771899999997
 20
407.75140399999998
 11
206.67771899999997
 21
407.47744799999998
  0
LINE
  8
_0-0_0
  6
CONTINUOUS
 62
    7
 10
206.92771899999997
 20
407.612976
 11
206.67771899999997
 21
407.47744799999998
  0
LINE
  8
_0-0_0
  6
CONTINUOUS
 62
    7
 10
206.92771899999997
 20
407.908997
 11
206.67771899999997
 21
407.64211999999998
  0
LINE
  8
_0-0_0
  6
CONTINUOUS
 62
    7
 10
206.92771899999997
 20
407.75140399999998
 11
206.67771899999997
 21
407.64211999999998
  0
LINE
  8
_0-0_0
  6
CONTINUOUS
 62
    7
 10
206.92771899999997
 20
408.08401500000002
 11
206.67771899999997
 21
407.82714800000002
  0
LINE
  8
_0-0_0
  6
CONTINUOUS
 62
    7
 10
206.92771899999997
 20
407.908997
 11
206.67771899999997
 21
407.82714800000002
  0
LINE
  8
_0-0_0
  6
CONTINUOUS
 62
    7
 10
206.92771899999997
 20
408.27453600000001
 11
206.67771899999997
 21
408.03051799999997
  0
LINE
  8
_0-0_0
  6
CONTINUOUS
 62
    7
 10
206.92771899999997
 20
408.08401500000002
 11
206.67771899999997
 21
408.03051799999997
  0
LINE
  8
_0-0_0
  6
CONTINUOUS
 62
    7
 10
206.92771899999997
 20
408.47851600000001
 11
206.67771899999997
 21
408.25
  0
LINE
  8
_0-0_0
  6
CONTINUOUS
 62
    7
 10
206.92771899999997
 20
408.27453600000001
 11
206.67771899999997
 21
408.25
  0
LINE
  8
_0-0_0
  6
CONTINUOUS
 62
    7
 10
206.92771899999997
 20
408.69366500000001
 11
206.67771899999997
 21
408.48315400000001
  0
LINE
  8
_0-0_0
  6
CONTINUOUS
 62
    7
 10
206.92771899999997
 20
408.47851600000001
 11
206.67771899999997
 21
408.48315400000001
  0
LINE
  8
_0-0_0
  6
CONTINUOUS
 62
    7
 10
206.92771899999997
 20
408.91763300000002
 11
206.67771899999997
 21
408.72744799999998
  0
LINE
  8
_0-0_0
  6
CONTINUOUS
 62
    7
 10
206.92771899999997
 20
408.69366500000001
 11
206.67771899999997
 21
408.72744799999998
  0
LINE
  8
_0-0_0
  6
CONTINUOUS
 62
    7
 10
206.92771899999997
 20
409.14801
 11
206.67771899999997
 21
408.98019399999998
  0
LINE
  8
_0-0_0
  6
CONTINUOUS
 62
    7
 10
206.92771899999997
 20
408.91763300000002
 11
206.67771899999997
 21
408.98019399999998
  0
LINE
  8
_0-0_0
  6
CONTINUOUS
 62
    7
 10
206.92771899999997
 20
409.38223299999999
 11
206.67771899999997
 21
409.23864700000001
  0
LINE
  8
_0-0_0
  6
CONTINUOUS
 62
    7
 10
206.92771899999997
 20
409.14801
 11
206.67771899999997
 21
409.23864700000001
  0
LINE
  8
_0-0_0
  6
CONTINUOUS
 62
    7
 10
206.92771899999997
 20
409.61773699999998
 11
206.67771899999997
 21
409.5
  0
LINE
  8
_0-0_0
  6
CONTINUOUS
 62
    7
 10
206.92771899999997
 20
409.38223299999999
 11
206.67771899999997
 21
409.5
  0
LINE
  8
_0-0_0
  6
CONTINUOUS
 62
    7
 10
206.92771899999997
 20
409.85195900000002
 11
206.67771899999997
 21
409.76129200000003
  0
LINE
  8
_0-0_0
  6
CONTINUOUS
 62
    7
 10
206.92771899999997
 20
409.61773699999998
 11
206.67771899999997
 21
409.76129200000003
  0
LINE
  8
_0-0_0
  6
CONTINUOUS
 62
    7
 10
206.92771899999997
 20
410.082336
 11
206.67771899999997
 21
410.01977499999998
  0
LINE
  8
_0-0_0
  6
CONTINUOUS
 62
    7
 10
206.92771899999997
 20
409.85195900000002
 11
206.67771899999997
 21
410.01977499999998
  0
LINE
  8
_0-0_0
  6
CONTINUOUS
 62
    7
 10
206.92771899999997
 20
410.30630500000001
 11
206.67771899999997
 21
410.27252199999998
  0
LINE
  8
_0-0_0
  6
CONTINUOUS
 62
    7
 10
206.92771899999997
 20
410.082336
 11
206.67771899999997
 21
410.27252199999998
  0
LINE
  8
_0-0_0
  6
CONTINUOUS
 62
    7
 10
206.92771899999997
 20
410.52145400000001
 11
206.67771899999997
 21
410.51681500000001
  0
LINE
  8
_0-0_0
  6
CONTINUOUS
 62
    7
 10
206.92771899999997
 20
410.30630500000001
 11
206.67771899999997
 21
410.51681500000001
  0
LINE
  8
_0-0_0
  6
CONTINUOUS
 62
    7
 10
221.92771899999997
 20
402.762024
 11
221.92771899999997
 21
403.80767800000001
  0
LINE
  8
_0-0_0
  6
CONTINUOUS
 62
    7
 10
221.92771899999997
 20
405.092285
 11
221.92771899999997
 21
403.80767800000001
  0
LINE
  8
_0-0_0
  6
CONTINUOUS
 62
    7
 10
221.92771899999997
 20
402.762024
 11
221.92771899999997
 21
399.63793900000002
  0
LINE
  8
_0-0_0
  6
CONTINUOUS
 62
    7
 10
221.92771899999997
 20
398.592285
 11
221.92771899999997
 21
397.30767800000001
  0
LINE
  8
_0-0_0
  6
CONTINUOUS
 62
    7
 10
221.92771899999997
 20
398.592285
 11
221.92771899999997
 21
399.63793900000002
  0
LINE
  8
_0-0_0
  6
CONTINUOUS
 62
    7
 10
336.52773999999999
 20
391.94113199999998
 11
336.52773999999999
 21
394.89999399999999
  0
LINE
  8
_0-0_0
  6
CONTINUOUS
 62
    7
 10
336.52773999999999
 20
390.89999399999999
 11
336.52773999999999
 21
391.94113199999998
  0
LINE
  8
_0-0_0
  6
CONTINUOUS
 62
    7
 10
221.92771899999997
 20
398.592285
 11
212.21989399999998
 21
398.592285
  0
ARC
  8
_0-0_0
  6
CONTINUOUS
 62
    7
 10
217.10160799999997
 20
397.94909699999999
 40
4.9238749999999998
 50
172.49424200000001
 51
181.535968
  0
ARC
  8
_0-0_0
  6
CONTINUOUS
 62
    7
 10
217.13963299999998
 20
397.95404100000002
 40
4.9620009999999999
 50
181.58130700000004
 51
187.48478900000003
  0
LINE
  8
_0-0_0
  6
CONTINUOUS
 62
    7
 10
210.92771899999997
 20
398.46844499999997
 11
210.92771899999997
 21
395.94998199999998
  0
LINE
  8
_0-0_0
  6
CONTINUOUS
 62
    7
 10
210.92771899999997
 20
406.44998199999998
 11
210.92771899999997
 21
398.46844499999997
  0
LINE
  8
_0-0_0
  6
CONTINUOUS
 62
    7
 10
212.21989399999998
 20
403.80767800000001
 11
212.12554899999998
 21
403.56106599999998
  0
LINE
  8
_0-0_0
  6
CONTINUOUS
 62
    7
 10
212.12554899999998
 20
403.56106599999998
 11
212.04161099999999
 21
403.32110599999999
  0
LINE
  8
_0-0_0
  6
CONTINUOUS
 62
    7
 10
212.04161099999999
 20
403.32110599999999
 11
211.96745299999998
 21
403.086975
  0
LINE
  8
_0-0_0
  6
CONTINUOUS
 62
    7
 10
211.96745299999998
 20
403.086975
 11
211.90257299999999
 21
402.85794099999998
  0
LINE
  8
_0-0_0
  6
CONTINUOUS
 62
    7
 10
211.90257299999999
 20
402.85794099999998
 11
211.84652699999998
 21
402.63326999999998
  0
LINE
  8
_0-0_0
  6
CONTINUOUS
 62
    7
 10
211.84652699999998
 20
402.63326999999998
 11
211.79896499999998
 21
402.41229199999998
  0
LINE
  8
_0-0_0
  6
CONTINUOUS
 62
    7
 10
211.79896499999998
 20
402.41229199999998
 11
211.75955199999999
 21
402.194366
  0
LINE
  8
_0-0_0
  6
CONTINUOUS
 62
    7
 10
211.75955199999999
 20
402.194366
 11
211.72807299999997
 21
401.97891199999998
  0
LINE
  8
_0-0_0
  6
CONTINUOUS
 62
    7
 10
211.72807299999997
 20
401.97891199999998
 11
211.70429999999999
 21
401.76538099999999
  0
LINE
  8
_0-0_0
  6
CONTINUOUS
 62
    7
 10
211.70429999999999
 20
401.76538099999999
 11
211.68836999999999
 21
401.55767800000001
  0
LINE
  8
_0-0_0
  6
CONTINUOUS
 62
    7
 10
211.68836999999999
 20
401.55767800000001
 11
211.67961099999997
 21
401.35082999999997
  0
LINE
  8
_0-0_0
  6
CONTINUOUS
 62
    7
 10
211.67961099999997
 20
401.35082999999997
 11
211.67796299999998
 21
401.14434799999998
  0
LINE
  8
_0-0_0
  6
CONTINUOUS
 62
    7
 10
211.67796299999998
 20
401.14434799999998
 11
211.68344099999999
 21
400.93777499999999
  0
LINE
  8
_0-0_0
  6
CONTINUOUS
 62
    7
 10
211.68344099999999
 20
400.93777499999999
 11
211.69604499999997
 21
400.730591
  0
LINE
  8
_0-0_0
  6
CONTINUOUS
 62
    7
 10
211.69604499999997
 20
400.730591
 11
211.71586599999998
 21
400.52227799999997
  0
LINE
  8
_0-0_0
  6
CONTINUOUS
 62
    7
 10
211.71586599999998
 20
400.52227799999997
 11
211.74301099999997
 21
400.31237800000002
  0
LINE
  8
_0-0_0
  6
CONTINUOUS
 62
    7
 10
211.74301099999997
 20
400.31237800000002
 11
211.77766399999999
 21
400.10031099999998
  0
LINE
  8
_0-0_0
  6
CONTINUOUS
 62
    7
 10
211.77766399999999
 20
400.10031099999998
 11
211.82000699999998
 21
399.885559
  0
LINE
  8
_0-0_0
  6
CONTINUOUS
 62
    7
 10
211.82000699999998
 20
399.885559
 11
211.87031499999998
 21
399.66754200000003
  0
LINE
  8
_0-0_0
  6
CONTINUOUS
 62
    7
 10
211.87031499999998
 20
399.66754200000003
 11
211.92457599999997
 21
399.46124300000002
  0
LINE
  8
_0-0_0
  6
CONTINUOUS
 62
    7
 10
211.92457599999997
 20
399.46124300000002
 11
211.98628199999999
 21
399.25116000000003
  0
LINE
  8
_0-0_0
  6
CONTINUOUS
 62
    7
 10
211.98628199999999
 20
399.25116000000003
 11
212.05580099999997
 21
399.03668199999998
  0
LINE
  8
_0-0_0
  6
CONTINUOUS
 62
    7
 10
212.05580099999997
 20
399.03668199999998
 11
212.13351399999999
 21
398.81726099999997
  0
LINE
  8
_0-0_0
  6
CONTINUOUS
 62
    7
 10
212.13351399999999
 20
398.81726099999997
 11
212.21989399999998
 21
398.592285
  0
ARC
  8
_0-0_0
  6
CONTINUOUS
 62
    7
 10
217.09144599999999
 20
404.44998199999998
 40
4.9136889999999998
 50
172.48898299999999
 51
187.51101699999998
  0
LINE
  8
_0-0_0
  6
CONTINUOUS
 62
    7
 10
221.92771899999997
 20
403.80767800000001
 11
212.21989399999998
 21
403.80767800000001
  0
LINE
  8
_0-0_0
  6
CONTINUOUS
 62
    7
 10
197.17771899999997
 20
410.72543300000001
 11
197.42771899999997
 21
410.75
  0
LINE
  8
_0-0_0
  6
CONTINUOUS
 62
    7
 10
197.42771899999997
 20
410.75
 11
206.67771899999997
 21
410.75
  0
LINE
  8
_0-0_0
  6
CONTINUOUS
 62
    7
 10
197.17771899999997
 20
410.52145400000001
 11
197.42771899999997
 21
410.75
  0
LINE
  8
_0-0_0
  6
CONTINUOUS
 62
    7
 10
197.17771899999997
 20
410.52145400000001
 11
206.92771899999997
 21
410.52145400000001
  0
LINE
  8
_0-0_0
  6
CONTINUOUS
 62
    7
 10
197.17771899999997
 20
410.915955
 11
197.42771899999997
 21
410.96945199999999
  0
LINE
  8
_0-0_0
  6
CONTINUOUS
 62
    7
 10
197.42771899999997
 20
410.96945199999999
 11
206.67771899999997
 21
410.96945199999999
  0
LINE
  8
_0-0_0
  6
CONTINUOUS
 62
    7
 10
197.17771899999997
 20
410.72543300000001
 11
197.42771899999997
 21
410.96945199999999
  0
LINE
  8
_0-0_0
  6
CONTINUOUS
 62
    7
 10
197.17771899999997
 20
411.09097300000002
 11
197.42771899999997
 21
411.172821
  0
LINE
  8
_0-0_0
  6
CONTINUOUS
 62
    7
 10
197.42771899999997
 20
411.172821
 11
206.67771899999997
 21
411.172821
  0
LINE
  8
_0-0_0
  6
CONTINUOUS
 62
    7
 10
197.17771899999997
 20
410.915955
 11
197.42771899999997
 21
411.172821
  0
LINE
  8
_0-0_0
  6
CONTINUOUS
 62
    7
 10
197.17771899999997
 20
411.24856599999998
 11
197.42771899999997
 21
411.35784899999999
  0
LINE
  8
_0-0_0
  6
CONTINUOUS
 62
    7
 10
197.42771899999997
 20
411.35784899999999
 11
206.67771899999997
 21
411.35784899999999
  0
LINE
  8
_0-0_0
  6
CONTINUOUS
 62
    7
 10
197.17771899999997
 20
411.09097300000002
 11
197.42771899999997
 21
411.35784899999999
  0
LINE
  8
_0-0_0
  6
CONTINUOUS
 62
    7
 10
197.17771899999997
 20
411.38699300000002
 11
197.42771899999997
 21
411.52252199999998
  0
LINE
  8
_0-0_0
  6
CONTINUOUS
 62
    7
 10
197.42771899999997
 20
411.52252199999998
 11
206.67771899999997
 21
411.52252199999998
  0
LINE
  8
_0-0_0
  6
CONTINUOUS
 62
    7
 10
197.17771899999997
 20
411.24856599999998
 11
197.42771899999997
 21
411.52252199999998
  0
LINE
  8
_0-0_0
  6
CONTINUOUS
 62
    7
 10
197.17771899999997
 20
411.50476099999997
 11
197.42771899999997
 21
411.66503899999998
  0
LINE
  8
_0-0_0
  6
CONTINUOUS
 62
    7
 10
197.42771899999997
 20
411.66503899999998
 11
206.67771899999997
 21
411.66503899999998
  0
LINE
  8
_0-0_0
  6
CONTINUOUS
 62
    7
 10
197.17771899999997
 20
411.38699300000002
 11
197.42771899999997
 21
411.66503899999998
  0
LINE
  8
_0-0_0
  6
CONTINUOUS
 62
    7
 10
197.17771899999997
 20
411.600525
 11
197.42771899999997
 21
411.78384399999999
  0
LINE
  8
_0-0_0
  6
CONTINUOUS
 62
    7
 10
197.42771899999997
 20
411.78384399999999
 11
206.67771899999997
 21
411.78384399999999
  0
LINE
  8
_0-0_0
  6
CONTINUOUS
 62
    7
 10
197.17771899999997
 20
411.50476099999997
 11
197.42771899999997
 21
411.78384399999999
  0
LINE
  8
_0-0_0
  6
CONTINUOUS
 62
    7
 10
197.17771899999997
 20
411.67330900000002
 11
197.42771899999997
 21
411.87762500000002
  0
LINE
  8
_0-0_0
  6
CONTINUOUS
 62
    7
 10
197.42771899999997
 20
411.87762500000002
 11
206.67771899999997
 21
411.87762500000002
  0
LINE
  8
_0-0_0
  6
CONTINUOUS
 62
    7
 10
197.17771899999997
 20
411.600525
 11
197.42771899999997
 21
411.87762500000002
  0
LINE
  8
_0-0_0
  6
CONTINUOUS
 62
    7
 10
197.17771899999997
 20
411.72228999999999
 11
197.42771899999997
 21
411.94534299999998
  0
LINE
  8
_0-0_0
  6
CONTINUOUS
 62
    7
 10
197.42771899999997
 20
411.94534299999998
 11
206.67771899999997
 21
411.94534299999998
  0
LINE
  8
_0-0_0
  6
CONTINUOUS
 62
    7
 10
197.17771899999997
 20
411.67330900000002
 11
197.42771899999997
 21
411.94534299999998
  0
LINE
  8
_0-0_0
  6
CONTINUOUS
 62
    7
 10
197.17771899999997
 20
411.74688700000002
 11
197.42771899999997
 21
411.98629799999998
  0
LINE
  8
_0-0_0
  6
CONTINUOUS
 62
    7
 10
197.42771899999997
 20
411.98629799999998
 11
206.67771899999997
 21
411.98629799999998
  0
LINE
  8
_0-0_0
  6
CONTINUOUS
 62
    7
 10
197.17771899999997
 20
411.72228999999999
 11
197.42771899999997
 21
411.98629799999998
  0
LINE
  8
_0-0_0
  6
CONTINUOUS
 62
    7
 10
197.42771899999997
 20
412
 11
206.67771899999997
 21
412
  0
LINE
  8
_0-0_0
  6
CONTINUOUS
 62
    7
 10
197.17771899999997
 20
411.74688700000002
 11
197.42771899999997
 21
412
  0
LINE
  8
_0-0_0
  6
CONTINUOUS
 62
    7
 10
197.17771899999997
 20
407.25305200000003
 11
197.42771899999997
 21
407
  0
LINE
  8
_0-0_0
  6
CONTINUOUS
 62
    7
 10
197.42771899999997
 20
407
 11
206.67771899999997
 21
407
  0
LINE
  8
_0-0_0
  6
CONTINUOUS
 62
    7
 10
197.17771899999997
 20
407.27767899999998
 11
197.42771899999997
 21
407.01367199999999
  0
LINE
  8
_0-0_0
  6
CONTINUOUS
 62
    7
 10
197.42771899999997
 20
407.01367199999999
 11
206.67771899999997
 21
407.01367199999999
  0
LINE
  8
_0-0_0
  6
CONTINUOUS
 62
    7
 10
197.17771899999997
 20
407.25305200000003
 11
197.42771899999997
 21
407.01367199999999
  0
LINE
  8
_0-0_0
  6
CONTINUOUS
 62
    7
 10
197.17771899999997
 20
407.32666
 11
197.42771899999997
 21
407.05462599999998
  0
LINE
  8
_0-0_0
  6
CONTINUOUS
 62
    7
 10
197.42771899999997
 20
407.05462599999998
 11
206.67771899999997
 21
407.05462599999998
  0
LINE
  8
_0-0_0
  6
CONTINUOUS
 62
    7
 10
197.17771899999997
 20
407.27767899999998
 11
197.42771899999997
 21
407.05462599999998
  0
LINE
  8
_0-0_0
  6
CONTINUOUS
 62
    7
 10
197.17771899999997
 20
407.39941399999998
 11
197.42771899999997
 21
407.122345
  0
LINE
  8
_0-0_0
  6
CONTINUOUS
 62
    7
 10
197.42771899999997
 20
407.122345
 11
206.67771899999997
 21
407.122345
  0
LINE
  8
_0-0_0
  6
CONTINUOUS
 62
    7
 10
197.17771899999997
 20
407.32666
 11
197.42771899999997
 21
407.122345
  0
LINE
  8
_0-0_0
  6
CONTINUOUS
 62
    7
 10
197.17771899999997
 20
407.49520899999999
 11
197.42771899999997
 21
407.21612499999998
  0
LINE
  8
_0-0_0
  6
CONTINUOUS
 62
    7
 10
197.42771899999997
 20
407.21612499999998
 11
206.67771899999997
 21
407.21612499999998
  0
LINE
  8
_0-0_0
  6
CONTINUOUS
 62
    7
 10
197.17771899999997
 20
407.39941399999998
 11
197.42771899999997
 21
407.21612499999998
  0
LINE
  8
_0-0_0
  6
CONTINUOUS
 62
    7
 10
197.42771899999997
 20
407.33492999999999
 11
206.67771899999997
 21
407.33492999999999
  0
LINE
  8
_0-0_0
  6
CONTINUOUS
 62
    7
 10
197.30767799999998
 20
407.41137700000002
 11
197.42771899999997
 21
407.33492999999999
  0
LINE
  8
_0-0_0
  6
CONTINUOUS
 62
    7
 10
197.17771899999997
 20
407.49520899999999
 11
197.30767799999998
 21
407.41137700000002
  0
LINE
  8
_0-0_0
  6
CONTINUOUS
 62
    7
 10
197.17771899999997
 20
407.612976
 11
197.42771899999997
 21
407.33492999999999
  0
LINE
  8
_0-0_0
  6
CONTINUOUS
 62
    7
 10
197.17771899999997
 20
407.75140399999998
 11
197.42771899999997
 21
407.47744799999998
  0
LINE
  8
_0-0_0
  6
CONTINUOUS
 62
    7
 10
197.42771899999997
 20
407.47744799999998
 11
206.67771899999997
 21
407.47744799999998
  0
LINE
  8
_0-0_0
  6
CONTINUOUS
 62
    7
 10
197.17771899999997
 20
407.612976
 11
197.42771899999997
 21
407.47744799999998
  0
LINE
  8
_0-0_0
  6
CONTINUOUS
 62
    7
 10
197.17771899999997
 20
407.908997
 11
197.42771899999997
 21
407.64211999999998
  0
LINE
  8
_0-0_0
  6
CONTINUOUS
 62
    7
 10
197.42771899999997
 20
407.64211999999998
 11
206.67771899999997
 21
407.64211999999998
  0
LINE
  8
_0-0_0
  6
CONTINUOUS
 62
    7
 10
197.17771899999997
 20
407.75140399999998
 11
197.42771899999997
 21
407.64211999999998
  0
LINE
  8
_0-0_0
  6
CONTINUOUS
 62
    7
 10
197.17771899999997
 20
408.08401500000002
 11
197.42771899999997
 21
407.82714800000002
  0
LINE
  8
_0-0_0
  6
CONTINUOUS
 62
    7
 10
197.42771899999997
 20
407.82714800000002
 11
206.67771899999997
 21
407.82714800000002
  0
LINE
  8
_0-0_0
  6
CONTINUOUS
 62
    7
 10
197.17771899999997
 20
407.908997
 11
197.42771899999997
 21
407.82714800000002
  0
LINE
  8
_0-0_0
  6
CONTINUOUS
 62
    7
 10
197.17771899999997
 20
408.27453600000001
 11
197.42771899999997
 21
408.03051799999997
  0
LINE
  8
_0-0_0
  6
CONTINUOUS
 62
    7
 10
197.42771899999997
 20
408.03051799999997
 11
206.67771899999997
 21
408.03051799999997
  0
LINE
  8
_0-0_0
  6
CONTINUOUS
 62
    7
 10
197.17771899999997
 20
408.08401500000002
 11
197.42771899999997
 21
408.03051799999997
  0
LINE
  8
_0-0_0
  6
CONTINUOUS
 62
    7
 10
197.17771899999997
 20
408.47851600000001
 11
197.42771899999997
 21
408.25
  0
LINE
  8
_0-0_0
  6
CONTINUOUS
 62
    7
 10
197.42771899999997
 20
408.25
 11
206.67771899999997
 21
408.25
  0
LINE
  8
_0-0_0
  6
CONTINUOUS
 62
    7
 10
197.17771899999997
 20
408.47851600000001
 11
206.92771899999997
 21
408.47851600000001
  0
LINE
  8
_0-0_0
  6
CONTINUOUS
 62
    7
 10
197.17771899999997
 20
408.27453600000001
 11
197.42771899999997
 21
408.25
  0
LINE
  8
_0-0_0
  6
CONTINUOUS
 62
    7
 10
197.17771899999997
 20
408.69366500000001
 11
197.42771899999997
 21
408.48315400000001
  0
LINE
  8
_0-0_0
  6
CONTINUOUS
 62
    7
 10
197.42771899999997
 20
408.48315400000001
 11
206.67771899999997
 21
408.48315400000001
  0
LINE
  8
_0-0_0
  6
CONTINUOUS
 62
    7
 10
197.17771899999997
 20
408.69366500000001
 11
206.92771899999997
 21
408.69366500000001
  0
LINE
  8
_0-0_0
  6
CONTINUOUS
 62
    7
 10
197.17771899999997
 20
408.47851600000001
 11
197.42771899999997
 21
408.48315400000001
  0
LINE
  8
_0-0_0
  6
CONTINUOUS
 62
    7
 10
197.17771899999997
 20
408.91763300000002
 11
197.42771899999997
 21
408.72744799999998
  0
LINE
  8
_0-0_0
  6
CONTINUOUS
 62
    7
 10
197.42771899999997
 20
408.72744799999998
 11
206.67771899999997
 21
408.72744799999998
  0
LINE
  8
_0-0_0
  6
CONTINUOUS
 62
    7
 10
197.17771899999997
 20
408.91763300000002
 11
206.92771899999997
 21
408.91763300000002
  0
LINE
  8
_0-0_0
  6
CONTINUOUS
 62
    7
 10
197.17771899999997
 20
408.69366500000001
 11
197.42771899999997
 21
408.72744799999998
  0
LINE
  8
_0-0_0
  6
CONTINUOUS
 62
    7
 10
197.17771899999997
 20
409.14801
 11
197.42771899999997
 21
408.98019399999998
  0
LINE
  8
_0-0_0
  6
CONTINUOUS
 62
    7
 10
197.42771899999997
 20
408.98019399999998
 11
206.67771899999997
 21
408.98019399999998
  0
LINE
  8
_0-0_0
  6
CONTINUOUS
 62
    7
 10
197.17771899999997
 20
409.14801
 11
206.92771899999997
 21
409.14801
  0
LINE
  8
_0-0_0
  6
CONTINUOUS
 62
    7
 10
197.17771899999997
 20
408.91763300000002
 11
197.42771899999997
 21
408.98019399999998
  0
LINE
  8
_0-0_0
  6
CONTINUOUS
 62
    7
 10
197.17771899999997
 20
409.38223299999999
 11
197.42771899999997
 21
409.23864700000001
  0
LINE
  8
_0-0_0
  6
CONTINUOUS
 62
    7
 10
197.42771899999997
 20
409.23864700000001
 11
206.67771899999997
 21
409.23864700000001
  0
LINE
  8
_0-0_0
  6
CONTINUOUS
 62
    7
 10
197.17771899999997
 20
409.38223299999999
 11
206.92771899999997
 21
409.38223299999999
  0
LINE
  8
_0-0_0
  6
CONTINUOUS
 62
    7
 10
197.17771899999997
 20
409.14801
 11
197.42771899999997
 21
409.23864700000001
  0
LINE
  8
_0-0_0
  6
CONTINUOUS
 62
    7
 10
197.17771899999997
 20
409.61773699999998
 11
197.42771899999997
 21
409.5
  0
LINE
  8
_0-0_0
  6
CONTINUOUS
 62
    7
 10
197.42771899999997
 20
409.5
 11
206.67771899999997
 21
409.5
  0
LINE
  8
_0-0_0
  6
CONTINUOUS
 62
    7
 10
197.17771899999997
 20
409.61773699999998
 11
206.92771899999997
 21
409.61773699999998
  0
LINE
  8
_0-0_0
  6
CONTINUOUS
 62
    7
 10
197.17771899999997
 20
409.38223299999999
 11
197.42771899999997
 21
409.5
  0
LINE
  8
_0-0_0
  6
CONTINUOUS
 62
    7
 10
197.17771899999997
 20
409.85195900000002
 11
197.42771899999997
 21
409.76129200000003
  0
LINE
  8
_0-0_0
  6
CONTINUOUS
 62
    7
 10
197.42771899999997
 20
409.76129200000003
 11
206.67771899999997
 21
409.76129200000003
  0
LINE
  8
_0-0_0
  6
CONTINUOUS
 62
    7
 10
197.17771899999997
 20
409.85195900000002
 11
206.92771899999997
 21
409.85195900000002
  0
LINE
  8
_0-0_0
  6
CONTINUOUS
 62
    7
 10
197.17771899999997
 20
409.61773699999998
 11
197.42771899999997
 21
409.76129200000003
  0
LINE
  8
_0-0_0
  6
CONTINUOUS
 62
    7
 10
197.17771899999997
 20
410.082336
 11
197.42771899999997
 21
410.01977499999998
  0
LINE
  8
_0-0_0
  6
CONTINUOUS
 62
    7
 10
197.42771899999997
 20
410.01977499999998
 11
206.67771899999997
 21
410.01977499999998
  0
LINE
  8
_0-0_0
  6
CONTINUOUS
 62
    7
 10
197.17771899999997
 20
410.082336
 11
206.92771899999997
 21
410.082336
  0
LINE
  8
_0-0_0
  6
CONTINUOUS
 62
    7
 10
197.17771899999997
 20
409.85195900000002
 11
197.42771899999997
 21
410.01977499999998
  0
LINE
  8
_0-0_0
  6
CONTINUOUS
 62
    7
 10
197.17771899999997
 20
410.30630500000001
 11
197.42771899999997
 21
410.27252199999998
  0
LINE
  8
_0-0_0
  6
CONTINUOUS
 62
    7
 10
197.42771899999997
 20
410.27252199999998
 11
206.67771899999997
 21
410.27252199999998
  0
LINE
  8
_0-0_0
  6
CONTINUOUS
 62
    7
 10
197.17771899999997
 20
410.30630500000001
 11
206.92771899999997
 21
410.30630500000001
  0
LINE
  8
_0-0_0
  6
CONTINUOUS
 62
    7
 10
197.17771899999997
 20
410.082336
 11
197.42771899999997
 21
410.27252199999998
  0
LINE
  8
_0-0_0
  6
CONTINUOUS
 62
    7
 10
197.17771899999997
 20
410.52145400000001
 11
197.42771899999997
 21
410.51681500000001
  0
LINE
  8
_0-0_0
  6
CONTINUOUS
 62
    7
 10
197.42771899999997
 20
410.51681500000001
 11
206.67771899999997
 21
410.51681500000001
  0
LINE
  8
_0-0_0
  6
CONTINUOUS
 62
    7
 10
197.17771899999997
 20
410.30630500000001
 11
197.42771899999997
 21
410.51681500000001
  0
LINE
  8
_0-0_0
  6
CONTINUOUS
 62
    7
 10
196.92771899999997
 20
411.5
 11
196.92771899999997
 21
407.74481200000002
  0
LINE
  8
_0-0_0
  6
CONTINUOUS
 62
    7
 10
196.92771899999997
 20
407.74481200000002
 11
196.92771899999997
 21
407.5
  0
LINE
  8
_0-0_0
  6
CONTINUOUS
 62
    7
 10
210.52770999999998
 20
406.19998199999998
 11
210.52770999999998
 21
403.69998199999998
  0
LINE
  8
_0-0_0
  6
CONTINUOUS
 62
    7
 10
210.52770999999998
 20
403.69998199999998
 11
210.52770999999998
 21
396.19998199999998
  0
LINE
  8
_0-0_0
  6
CONTINUOUS
 62
    7
 10
209.72770699999998
 20
405.73809799999998
 11
209.72770699999998
 21
403.46905500000003
  0
LINE
  8
_0-0_0
  6
CONTINUOUS
 62
    7
 10
209.72770699999998
 20
403.46905500000003
 11
209.72770699999998
 21
396.66186499999998
  0
LINE
  8
_0-0_0
  6
CONTINUOUS
 62
    7
 10
151.72772199999997
 20
405.19998199999998
 11
151.72772199999997
 21
405.19863900000001
  0
LINE
  8
_0-0_0
  6
CONTINUOUS
 62
    7
 10
151.72772199999997
 20
405.19863900000001
 11
151.72772199999997
 21
397.19998199999998
  0
LINE
  8
_0-0_0
  6
CONTINUOUS
 62
    7
 10
206.92771899999997
 20
390.653076
 11
206.92771899999997
 21
390.64999399999999
  0
LINE
  8
_0-0_0
  6
CONTINUOUS
 62
    7
 10
206.92771899999997
 20
390.67770400000001
 11
206.92771899999997
 21
390.653076
  0
LINE
  8
_0-0_0
  6
CONTINUOUS
 62
    7
 10
206.92771899999997
 20
390.726654
 11
206.92771899999997
 21
390.67770400000001
  0
LINE
  8
_0-0_0
  6
CONTINUOUS
 62
    7
 10
206.92771899999997
 20
390.79943800000001
 11
206.92771899999997
 21
390.726654
  0
LINE
  8
_0-0_0
  6
CONTINUOUS
 62
    7
 10
206.92771899999997
 20
390.89520299999998
 11
206.92771899999997
 21
390.64999399999999
  0
LINE
  8
_0-0_0
  6
CONTINUOUS
 62
    7
 10
206.92771899999997
 20
390.92541499999999
 11
206.92771899999997
 21
390.89520299999998
  0
LINE
  8
_0-0_0
  6
CONTINUOUS
 62
    7
 10
206.92771899999997
 20
391.01297
 11
206.92771899999997
 21
390.92541499999999
  0
LINE
  8
_0-0_0
  6
CONTINUOUS
 62
    7
 10
206.92771899999997
 20
391.15139799999997
 11
206.92771899999997
 21
391.01297
  0
LINE
  8
_0-0_0
  6
CONTINUOUS
 62
    7
 10
206.92771899999997
 20
391.30898999999999
 11
206.92771899999997
 21
391.15139799999997
  0
LINE
  8
_0-0_0
  6
CONTINUOUS
 62
    7
 10
206.92771899999997
 20
391.48400900000001
 11
206.92771899999997
 21
391.30898999999999
  0
LINE
  8
_0-0_0
  6
CONTINUOUS
 62
    7
 10
206.92771899999997
 20
391.67453
 11
206.92771899999997
 21
391.48400900000001
  0
LINE
  8
_0-0_0
  6
CONTINUOUS
 62
    7
 10
206.92771899999997
 20
391.87851000000001
 11
206.92771899999997
 21
391.67453
  0
LINE
  8
_0-0_0
  6
CONTINUOUS
 62
    7
 10
206.92771899999997
 20
392.093658
 11
206.92771899999997
 21
391.87851000000001
  0
LINE
  8
_0-0_0
  6
CONTINUOUS
 62
    7
 10
206.92771899999997
 20
392.31762700000002
 11
206.92771899999997
 21
392.093658
  0
LINE
  8
_0-0_0
  6
CONTINUOUS
 62
    7
 10
206.92771899999997
 20
392.54800399999999
 11
206.92771899999997
 21
392.31762700000002
  0
LINE
  8
_0-0_0
  6
CONTINUOUS
 62
    7
 10
206.92771899999997
 20
392.78222699999998
 11
206.92771899999997
 21
392.54800399999999
  0
LINE
  8
_0-0_0
  6
CONTINUOUS
 62
    7
 10
206.92771899999997
 20
393.01773100000003
 11
206.92771899999997
 21
392.78222699999998
  0
LINE
  8
_0-0_0
  6
CONTINUOUS
 62
    7
 10
206.92771899999997
 20
393.25195300000001
 11
206.92771899999997
 21
393.01773100000003
  0
LINE
  8
_0-0_0
  6
CONTINUOUS
 62
    7
 10
206.92771899999997
 20
393.48232999999999
 11
206.92771899999997
 21
393.25195300000001
  0
LINE
  8
_0-0_0
  6
CONTINUOUS
 62
    7
 10
206.92771899999997
 20
393.706299
 11
206.92771899999997
 21
393.48232999999999
  0
LINE
  8
_0-0_0
  6
CONTINUOUS
 62
    7
 10
206.92771899999997
 20
393.921448
 11
206.92771899999997
 21
393.706299
  0
LINE
  8
_0-0_0
  6
CONTINUOUS
 62
    7
 10
206.92771899999997
 20
393.97869900000001
 11
206.92771899999997
 21
393.921448
  0
LINE
  8
_0-0_0
  6
CONTINUOUS
 62
    7
 10
206.92771899999997
 20
390.653076
 11
206.67771899999997
 21
390.39999399999999
  0
LINE
  8
_0-0_0
  6
CONTINUOUS
 62
    7
 10
206.92771899999997
 20
390.67770400000001
 11
206.67771899999997
 21
390.41369600000002
  0
LINE
  8
_0-0_0
  6
CONTINUOUS
 62
    7
 10
206.92771899999997
 20
390.653076
 11
206.67771899999997
 21
390.41369600000002
  0
LINE
  8
_0-0_0
  6
CONTINUOUS
 62
    7
 10
206.92771899999997
 20
390.726654
 11
206.67771899999997
 21
390.45461999999998
  0
LINE
  8
_0-0_0
  6
CONTINUOUS
 62
    7
 10
206.92771899999997
 20
390.67770400000001
 11
206.67771899999997
 21
390.45461999999998
  0
LINE
  8
_0-0_0
  6
CONTINUOUS
 62
    7
 10
206.92771899999997
 20
390.79943800000001
 11
206.67771899999997
 21
390.52233899999999
  0
LINE
  8
_0-0_0
  6
CONTINUOUS
 62
    7
 10
206.92771899999997
 20
390.726654
 11
206.67771899999997
 21
390.52233899999999
  0
LINE
  8
_0-0_0
  6
CONTINUOUS
 62
    7
 10
206.92771899999997
 20
390.89520299999998
 11
206.67771899999997
 21
390.61611900000003
  0
LINE
  8
_0-0_0
  6
CONTINUOUS
 62
    7
 10
206.92771899999997
 20
390.79943800000001
 11
206.67771899999997
 21
390.61611900000003
  0
LINE
  8
_0-0_0
  6
CONTINUOUS
 62
    7
 10
206.92771899999997
 20
390.89520299999998
 11
206.79774499999999
 21
390.81137100000001
  0
LINE
  8
_0-0_0
  6
CONTINUOUS
 62
    7
 10
206.92771899999997
 20
391.01297
 11
206.67771899999997
 21
390.73492399999998
  0
LINE
  8
_0-0_0
  6
CONTINUOUS
 62
    7
 10
206.79774499999999
 20
390.81137100000001
 11
206.67771899999997
 21
390.73492399999998
  0
LINE
  8
_0-0_0
  6
CONTINUOUS
 62
    7
 10
206.92771899999997
 20
391.15139799999997
 11
206.67771899999997
 21
390.87744099999998
  0
LINE
  8
_0-0_0
  6
CONTINUOUS
 62
    7
 10
206.92771899999997
 20
391.01297
 11
206.67771899999997
 21
390.87744099999998
  0
LINE
  8
_0-0_0
  6
CONTINUOUS
 62
    7
 10
206.92771899999997
 20
391.30898999999999
 11
206.67771899999997
 21
391.04211400000003
  0
LINE
  8
_0-0_0
  6
CONTINUOUS
 62
    7
 10
206.92771899999997
 20
391.15139799999997
 11
206.67771899999997
 21
391.04211400000003
  0
LINE
  8
_0-0_0
  6
CONTINUOUS
 62
    7
 10
206.92771899999997
 20
391.48400900000001
 11
206.67771899999997
 21
391.22717299999999
  0
LINE
  8
_0-0_0
  6
CONTINUOUS
 62
    7
 10
206.92771899999997
 20
391.30898999999999
 11
206.67771899999997
 21
391.22717299999999
  0
LINE
  8
_0-0_0
  6
CONTINUOUS
 62
    7
 10
206.92771899999997
 20
391.67453
 11
206.67771899999997
 21
391.43051100000002
  0
LINE
  8
_0-0_0
  6
CONTINUOUS
 62
    7
 10
206.92771899999997
 20
391.48400900000001
 11
206.67771899999997
 21
391.43051100000002
  0
LINE
  8
_0-0_0
  6
CONTINUOUS
 62
    7
 10
206.92771899999997
 20
391.87851000000001
 11
206.67771899999997
 21
391.64999399999999
  0
LINE
  8
_0-0_0
  6
CONTINUOUS
 62
    7
 10
206.92771899999997
 20
391.67453
 11
206.67771899999997
 21
391.64999399999999
  0
LINE
  8
_0-0_0
  6
CONTINUOUS
 62
    7
 10
206.92771899999997
 20
392.093658
 11
206.67771899999997
 21
391.88314800000001
  0
LINE
  8
_0-0_0
  6
CONTINUOUS
 62
    7
 10
206.92771899999997
 20
391.87851000000001
 11
206.67771899999997
 21
391.88314800000001
  0
LINE
  8
_0-0_0
  6
CONTINUOUS
 62
    7
 10
206.92771899999997
 20
392.31762700000002
 11
206.67771899999997
 21
392.12744099999998
  0
LINE
  8
_0-0_0
  6
CONTINUOUS
 62
    7
 10
206.92771899999997
 20
392.093658
 11
206.67771899999997
 21
392.12744099999998
  0
LINE
  8
_0-0_0
  6
CONTINUOUS
 62
    7
 10
206.92771899999997
 20
392.54800399999999
 11
206.67771899999997
 21
392.38018799999998
  0
LINE
  8
_0-0_0
  6
CONTINUOUS
 62
    7
 10
206.92771899999997
 20
392.31762700000002
 11
206.67771899999997
 21
392.38018799999998
  0
LINE
  8
_0-0_0
  6
CONTINUOUS
 62
    7
 10
206.92771899999997
 20
392.78222699999998
 11
206.67771899999997
 21
392.63867199999999
  0
LINE
  8
_0-0_0
  6
CONTINUOUS
 62
    7
 10
206.92771899999997
 20
392.54800399999999
 11
206.67771899999997
 21
392.63867199999999
  0
LINE
  8
_0-0_0
  6
CONTINUOUS
 62
    7
 10
206.92771899999997
 20
393.01773100000003
 11
206.67771899999997
 21
392.89999399999999
  0
LINE
  8
_0-0_0
  6
CONTINUOUS
 62
    7
 10
206.92771899999997
 20
392.78222699999998
 11
206.67771899999997
 21
392.89999399999999
  0
LINE
  8
_0-0_0
  6
CONTINUOUS
 62
    7
 10
206.92771899999997
 20
393.25195300000001
 11
206.67771899999997
 21
393.161316
  0
LINE
  8
_0-0_0
  6
CONTINUOUS
 62
    7
 10
206.92771899999997
 20
393.01773100000003
 11
206.67771899999997
 21
393.161316
  0
LINE
  8
_0-0_0
  6
CONTINUOUS
 62
    7
 10
206.92771899999997
 20
393.48232999999999
 11
206.67771899999997
 21
393.41976899999997
  0
LINE
  8
_0-0_0
  6
CONTINUOUS
 62
    7
 10
206.92771899999997
 20
393.25195300000001
 11
206.67771899999997
 21
393.41976899999997
  0
LINE
  8
_0-0_0
  6
CONTINUOUS
 62
    7
 10
206.92771899999997
 20
393.706299
 11
206.67771899999997
 21
393.67251599999997
  0
LINE
  8
_0-0_0
  6
CONTINUOUS
 62
    7
 10
206.92771899999997
 20
393.48232999999999
 11
206.67771899999997
 21
393.67251599999997
  0
LINE
  8
_0-0_0
  6
CONTINUOUS
 62
    7
 10
206.92771899999997
 20
393.921448
 11
206.67771899999997
 21
393.916809
  0
LINE
  8
_0-0_0
  6
CONTINUOUS
 62
    7
 10
206.92771899999997
 20
393.706299
 11
206.67771899999997
 21
393.916809
  0
LINE
  8
_0-0_0
  6
CONTINUOUS
 62
    7
 10
206.92771899999997
 20
394.125427
 11
206.92771899999997
 21
393.97869900000001
  0
LINE
  8
_0-0_0
  6
CONTINUOUS
 62
    7
 10
206.92771899999997
 20
394.125427
 11
206.67771899999997
 21
394.14999399999999
  0
LINE
  8
_0-0_0
  6
CONTINUOUS
 62
    7
 10
206.92771899999997
 20
393.921448
 11
206.67771899999997
 21
394.14999399999999
  0
LINE
  8
_0-0_0
  6
CONTINUOUS
 62
    7
 10
206.92771899999997
 20
394.31594799999999
 11
206.92771899999997
 21
394.125427
  0
LINE
  8
_0-0_0
  6
CONTINUOUS
 62
    7
 10
206.92771899999997
 20
394.49096700000001
 11
206.92771899999997
 21
394.31594799999999
  0
LINE
  8
_0-0_0
  6
CONTINUOUS
 62
    7
 10
206.92771899999997
 20
394.64855999999997
 11
206.92771899999997
 21
394.49096700000001
  0
LINE
  8
_0-0_0
  6
CONTINUOUS
 62
    7
 10
206.92771899999997
 20
394.78698700000001
 11
206.92771899999997
 21
394.64855999999997
  0
LINE
  8
_0-0_0
  6
CONTINUOUS
 62
    7
 10
206.92771899999997
 20
394.90475500000002
 11
206.92771899999997
 21
394.78698700000001
  0
LINE
  8
_0-0_0
  6
CONTINUOUS
 62
    7
 10
206.92771899999997
 20
395.00054899999998
 11
206.92771899999997
 21
394.90475500000002
  0
LINE
  8
_0-0_0
  6
CONTINUOUS
 62
    7
 10
206.92771899999997
 20
395.07330300000001
 11
206.92771899999997
 21
395.00054899999998
  0
LINE
  8
_0-0_0
  6
CONTINUOUS
 62
    7
 10
206.92771899999997
 20
395.12228399999998
 11
206.92771899999997
 21
395.07330300000001
  0
LINE
  8
_0-0_0
  6
CONTINUOUS
 62
    7
 10
206.92771899999997
 20
395.14999399999999
 11
206.92771899999997
 21
395.12228399999998
  0
LINE
  8
_0-0_0
  6
CONTINUOUS
 62
    7
 10
206.92771899999997
 20
395.14999399999999
 11
206.92771899999997
 21
395.14691199999999
  0
LINE
  8
_0-0_0
  6
CONTINUOUS
 62
    7
 10
197.17771899999997
 20
390.653076
 11
197.42771899999997
 21
390.39999399999999
  0
LINE
  8
_0-0_0
  6
CONTINUOUS
 62
    7
 10
197.42771899999997
 20
390.39999399999999
 11
206.67771899999997
 21
390.39999399999999
  0
LINE
  8
_0-0_0
  6
CONTINUOUS
 62
    7
 10
197.17771899999997
 20
390.67770400000001
 11
197.42771899999997
 21
390.41369600000002
  0
LINE
  8
_0-0_0
  6
CONTINUOUS
 62
    7
 10
197.42771899999997
 20
390.41369600000002
 11
206.67771899999997
 21
390.41369600000002
  0
LINE
  8
_0-0_0
  6
CONTINUOUS
 62
    7
 10
197.17771899999997
 20
390.653076
 11
197.42771899999997
 21
390.41369600000002
  0
LINE
  8
_0-0_0
  6
CONTINUOUS
 62
    7
 10
197.17771899999997
 20
390.726654
 11
197.42771899999997
 21
390.45461999999998
  0
LINE
  8
_0-0_0
  6
CONTINUOUS
 62
    7
 10
197.42771899999997
 20
390.45461999999998
 11
206.67771899999997
 21
390.45461999999998
  0
LINE
  8
_0-0_0
  6
CONTINUOUS
 62
    7
 10
197.17771899999997
 20
390.67770400000001
 11
197.42771899999997
 21
390.45461999999998
  0
LINE
  8
_0-0_0
  6
CONTINUOUS
 62
    7
 10
197.17771899999997
 20
390.79943800000001
 11
197.42771899999997
 21
390.52233899999999
  0
LINE
  8
_0-0_0
  6
CONTINUOUS
 62
    7
 10
197.42771899999997
 20
390.52233899999999
 11
206.67771899999997
 21
390.52233899999999
  0
LINE
  8
_0-0_0
  6
CONTINUOUS
 62
    7
 10
197.17771899999997
 20
390.726654
 11
197.42771899999997
 21
390.52233899999999
  0
LINE
  8
_0-0_0
  6
CONTINUOUS
 62
    7
 10
197.17771899999997
 20
390.89520299999998
 11
197.42771899999997
 21
390.61611900000003
  0
LINE
  8
_0-0_0
  6
CONTINUOUS
 62
    7
 10
197.42771899999997
 20
390.61611900000003
 11
206.67771899999997
 21
390.61611900000003
  0
LINE
  8
_0-0_0
  6
CONTINUOUS
 62
    7
 10
197.17771899999997
 20
390.79943800000001
 11
197.42771899999997
 21
390.61611900000003
  0
LINE
  8
_0-0_0
  6
CONTINUOUS
 62
    7
 10
197.42771899999997
 20
390.73492399999998
 11
206.67771899999997
 21
390.73492399999998
  0
LINE
  8
_0-0_0
  6
CONTINUOUS
 62
    7
 10
197.30767799999998
 20
390.81137100000001
 11
197.42771899999997
 21
390.73492399999998
  0
LINE
  8
_0-0_0
  6
CONTINUOUS
 62
    7
 10
197.17771899999997
 20
390.89520299999998
 11
197.30767799999998
 21
390.81137100000001
  0
LINE
  8
_0-0_0
  6
CONTINUOUS
 62
    7
 10
197.17771899999997
 20
391.01297
 11
197.42771899999997
 21
390.73492399999998
  0
LINE
  8
_0-0_0
  6
CONTINUOUS
 62
    7
 10
197.17771899999997
 20
391.15139799999997
 11
197.42771899999997
 21
390.87744099999998
  0
LINE
  8
_0-0_0
  6
CONTINUOUS
 62
    7
 10
197.42771899999997
 20
390.87744099999998
 11
206.67771899999997
 21
390.87744099999998
  0
LINE
  8
_0-0_0
  6
CONTINUOUS
 62
    7
 10
197.17771899999997
 20
391.01297
 11
197.42771899999997
 21
390.87744099999998
  0
LINE
  8
_0-0_0
  6
CONTINUOUS
 62
    7
 10
197.17771899999997
 20
391.30898999999999
 11
197.42771899999997
 21
391.04211400000003
  0
LINE
  8
_0-0_0
  6
CONTINUOUS
 62
    7
 10
197.42771899999997
 20
391.04211400000003
 11
206.67771899999997
 21
391.04211400000003
  0
LINE
  8
_0-0_0
  6
CONTINUOUS
 62
    7
 10
197.17771899999997
 20
391.15139799999997
 11
197.42771899999997
 21
391.04211400000003
  0
LINE
  8
_0-0_0
  6
CONTINUOUS
 62
    7
 10
197.17771899999997
 20
391.48400900000001
 11
197.42771899999997
 21
391.22717299999999
  0
LINE
  8
_0-0_0
  6
CONTINUOUS
 62
    7
 10
197.42771899999997
 20
391.22717299999999
 11
206.67771899999997
 21
391.22717299999999
  0
LINE
  8
_0-0_0
  6
CONTINUOUS
 62
    7
 10
197.17771899999997
 20
391.30898999999999
 11
197.42771899999997
 21
391.22717299999999
  0
LINE
  8
_0-0_0
  6
CONTINUOUS
 62
    7
 10
197.17771899999997
 20
391.67453
 11
197.42771899999997
 21
391.43051100000002
  0
LINE
  8
_0-0_0
  6
CONTINUOUS
 62
    7
 10
197.42771899999997
 20
391.43051100000002
 11
206.67771899999997
 21
391.43051100000002
  0
LINE
  8
_0-0_0
  6
CONTINUOUS
 62
    7
 10
197.17771899999997
 20
391.48400900000001
 11
197.42771899999997
 21
391.43051100000002
  0
LINE
  8
_0-0_0
  6
CONTINUOUS
 62
    7
 10
197.17771899999997
 20
391.87851000000001
 11
197.42771899999997
 21
391.64999399999999
  0
LINE
  8
_0-0_0
  6
CONTINUOUS
 62
    7
 10
197.42771899999997
 20
391.64999399999999
 11
206.67771899999997
 21
391.64999399999999
  0
LINE
  8
_0-0_0
  6
CONTINUOUS
 62
    7
 10
197.17771899999997
 20
391.87851000000001
 11
206.92771899999997
 21
391.87851000000001
  0
LINE
  8
_0-0_0
  6
CONTINUOUS
 62
    7
 10
197.17771899999997
 20
391.67453
 11
197.42771899999997
 21
391.64999399999999
  0
LINE
  8
_0-0_0
  6
CONTINUOUS
 62
    7
 10
197.17771899999997
 20
392.093658
 11
197.42771899999997
 21
391.88314800000001
  0
LINE
  8
_0-0_0
  6
CONTINUOUS
 62
    7
 10
197.42771899999997
 20
391.88314800000001
 11
206.67771899999997
 21
391.88314800000001
  0
LINE
  8
_0-0_0
  6
CONTINUOUS
 62
    7
 10
197.17771899999997
 20
392.093658
 11
206.92771899999997
 21
392.093658
  0
LINE
  8
_0-0_0
  6
CONTINUOUS
 62
    7
 10
197.17771899999997
 20
391.87851000000001
 11
197.42771899999997
 21
391.88314800000001
  0
LINE
  8
_0-0_0
  6
CONTINUOUS
 62
    7
 10
197.17771899999997
 20
392.31762700000002
 11
197.42771899999997
 21
392.12744099999998
  0
LINE
  8
_0-0_0
  6
CONTINUOUS
 62
    7
 10
197.42771899999997
 20
392.12744099999998
 11
206.67771899999997
 21
392.12744099999998
  0
LINE
  8
_0-0_0
  6
CONTINUOUS
 62
    7
 10
197.17771899999997
 20
392.31762700000002
 11
206.92771899999997
 21
392.31762700000002
  0
LINE
  8
_0-0_0
  6
CONTINUOUS
 62
    7
 10
197.17771899999997
 20
392.093658
 11
197.42771899999997
 21
392.12744099999998
  0
LINE
  8
_0-0_0
  6
CONTINUOUS
 62
    7
 10
197.17771899999997
 20
392.54800399999999
 11
197.42771899999997
 21
392.38018799999998
  0
LINE
  8
_0-0_0
  6
CONTINUOUS
 62
    7
 10
197.42771899999997
 20
392.38018799999998
 11
206.67771899999997
 21
392.38018799999998
  0
LINE
  8
_0-0_0
  6
CONTINUOUS
 62
    7
 10
197.17771899999997
 20
392.54800399999999
 11
206.92771899999997
 21
392.54800399999999
  0
LINE
  8
_0-0_0
  6
CONTINUOUS
 62
    7
 10
197.17771899999997
 20
392.31762700000002
 11
197.42771899999997
 21
392.38018799999998
  0
LINE
  8
_0-0_0
  6
CONTINUOUS
 62
    7
 10
197.17771899999997
 20
392.78222699999998
 11
197.42771899999997
 21
392.63867199999999
  0
LINE
  8
_0-0_0
  6
CONTINUOUS
 62
    7
 10
197.42771899999997
 20
392.63867199999999
 11
206.67771899999997
 21
392.63867199999999
  0
LINE
  8
_0-0_0
  6
CONTINUOUS
 62
    7
 10
197.17771899999997
 20
392.78222699999998
 11
206.92771899999997
 21
392.78222699999998
  0
LINE
  8
_0-0_0
  6
CONTINUOUS
 62
    7
 10
197.17771899999997
 20
392.54800399999999
 11
197.42771899999997
 21
392.63867199999999
  0
LINE
  8
_0-0_0
  6
CONTINUOUS
 62
    7
 10
197.17771899999997
 20
393.01773100000003
 11
197.42771899999997
 21
392.89999399999999
  0
LINE
  8
_0-0_0
  6
CONTINUOUS
 62
    7
 10
197.42771899999997
 20
392.89999399999999
 11
206.67771899999997
 21
392.89999399999999
  0
LINE
  8
_0-0_0
  6
CONTINUOUS
 62
    7
 10
197.17771899999997
 20
393.01773100000003
 11
206.92771899999997
 21
393.01773100000003
  0
LINE
  8
_0-0_0
  6
CONTINUOUS
 62
    7
 10
197.17771899999997
 20
392.78222699999998
 11
197.42771899999997
 21
392.89999399999999
  0
LINE
  8
_0-0_0
  6
CONTINUOUS
 62
    7
 10
197.17771899999997
 20
393.25195300000001
 11
197.42771899999997
 21
393.161316
  0
LINE
  8
_0-0_0
  6
CONTINUOUS
 62
    7
 10
197.42771899999997
 20
393.161316
 11
206.67771899999997
 21
393.161316
  0
LINE
  8
_0-0_0
  6
CONTINUOUS
 62
    7
 10
197.17771899999997
 20
393.25195300000001
 11
206.92771899999997
 21
393.25195300000001
  0
LINE
  8
_0-0_0
  6
CONTINUOUS
 62
    7
 10
197.17771899999997
 20
393.01773100000003
 11
197.42771899999997
 21
393.161316
  0
LINE
  8
_0-0_0
  6
CONTINUOUS
 62
    7
 10
197.17771899999997
 20
393.48232999999999
 11
197.42771899999997
 21
393.41976899999997
  0
LINE
  8
_0-0_0
  6
CONTINUOUS
 62
    7
 10
197.42771899999997
 20
393.41976899999997
 11
206.67771899999997
 21
393.41976899999997
  0
LINE
  8
_0-0_0
  6
CONTINUOUS
 62
    7
 10
197.17771899999997
 20
393.48232999999999
 11
206.92771899999997
 21
393.48232999999999
  0
LINE
  8
_0-0_0
  6
CONTINUOUS
 62
    7
 10
197.17771899999997
 20
393.25195300000001
 11
197.42771899999997
 21
393.41976899999997
  0
LINE
  8
_0-0_0
  6
CONTINUOUS
 62
    7
 10
197.17771899999997
 20
393.706299
 11
197.42771899999997
 21
393.67251599999997
  0
LINE
  8
_0-0_0
  6
CONTINUOUS
 62
    7
 10
197.42771899999997
 20
393.67251599999997
 11
206.67771899999997
 21
393.67251599999997
  0
LINE
  8
_0-0_0
  6
CONTINUOUS
 62
    7
 10
197.17771899999997
 20
393.706299
 11
206.92771899999997
 21
393.706299
  0
LINE
  8
_0-0_0
  6
CONTINUOUS
 62
    7
 10
197.17771899999997
 20
393.48232999999999
 11
197.42771899999997
 21
393.67251599999997
  0
LINE
  8
_0-0_0
  6
CONTINUOUS
 62
    7
 10
197.17771899999997
 20
393.921448
 11
197.42771899999997
 21
393.916809
  0
LINE
  8
_0-0_0
  6
CONTINUOUS
 62
    7
 10
197.42771899999997
 20
393.916809
 11
206.67771899999997
 21
393.916809
  0
LINE
  8
_0-0_0
  6
CONTINUOUS
 62
    7
 10
197.17771899999997
 20
393.921448
 11
206.92771899999997
 21
393.921448
  0
LINE
  8
_0-0_0
  6
CONTINUOUS
 62
    7
 10
197.17771899999997
 20
393.706299
 11
197.42771899999997
 21
393.916809
  0
LINE
  8
_0-0_0
  6
CONTINUOUS
 62
    7
 10
197.17771899999997
 20
394.125427
 11
197.42771899999997
 21
394.14999399999999
  0
LINE
  8
_0-0_0
  6
CONTINUOUS
 62
    7
 10
197.42771899999997
 20
394.14999399999999
 11
206.67771899999997
 21
394.14999399999999
  0
LINE
  8
_0-0_0
  6
CONTINUOUS
 62
    7
 10
197.17771899999997
 20
393.921448
 11
197.42771899999997
 21
394.14999399999999
  0
LINE
  8
_0-0_0
  6
CONTINUOUS
 62
    7
 10
206.92771899999997
 20
394.31594799999999
 11
206.67771899999997
 21
394.36944599999998
  0
LINE
  8
_0-0_0
  6
CONTINUOUS
 62
    7
 10
206.92771899999997
 20
394.125427
 11
206.67771899999997
 21
394.36944599999998
  0
LINE
  8
_0-0_0
  6
CONTINUOUS
 62
    7
 10
206.92771899999997
 20
394.49096700000001
 11
206.67771899999997
 21
394.57281499999999
  0
LINE
  8
_0-0_0
  6
CONTINUOUS
 62
    7
 10
206.92771899999997
 20
394.31594799999999
 11
206.67771899999997
 21
394.57281499999999
  0
LINE
  8
_0-0_0
  6
CONTINUOUS
 62
    7
 10
206.92771899999997
 20
394.64855999999997
 11
206.67771899999997
 21
394.75784299999998
  0
LINE
  8
_0-0_0
  6
CONTINUOUS
 62
    7
 10
206.92771899999997
 20
394.49096700000001
 11
206.67771899999997
 21
394.75784299999998
  0
LINE
  8
_0-0_0
  6
CONTINUOUS
 62
    7
 10
206.92771899999997
 20
394.78698700000001
 11
206.67771899999997
 21
394.92251599999997
  0
LINE
  8
_0-0_0
  6
CONTINUOUS
 62
    7
 10
206.92771899999997
 20
394.64855999999997
 11
206.67771899999997
 21
394.92251599999997
  0
LINE
  8
_0-0_0
  6
CONTINUOUS
 62
    7
 10
206.92771899999997
 20
394.90475500000002
 11
206.67771899999997
 21
395.06506300000001
  0
LINE
  8
_0-0_0
  6
CONTINUOUS
 62
    7
 10
206.92771899999997
 20
394.78698700000001
 11
206.67771899999997
 21
395.06506300000001
  0
LINE
  8
_0-0_0
  6
CONTINUOUS
 62
    7
 10
206.92771899999997
 20
395.00054899999998
 11
206.67771899999997
 21
395.18383799999998
  0
LINE
  8
_0-0_0
  6
CONTINUOUS
 62
    7
 10
206.92771899999997
 20
394.90475500000002
 11
206.67771899999997
 21
395.18383799999998
  0
LINE
  8
_0-0_0
  6
CONTINUOUS
 62
    7
 10
206.92771899999997
 20
395.07330300000001
 11
206.67771899999997
 21
395.27761800000002
  0
LINE
  8
_0-0_0
  6
CONTINUOUS
 62
    7
 10
206.92771899999997
 20
395.00054899999998
 11
206.67771899999997
 21
395.27761800000002
  0
LINE
  8
_0-0_0
  6
CONTINUOUS
 62
    7
 10
206.92771899999997
 20
395.12228399999998
 11
206.67771899999997
 21
395.34533699999997
  0
LINE
  8
_0-0_0
  6
CONTINUOUS
 62
    7
 10
206.92771899999997
 20
395.07330300000001
 11
206.67771899999997
 21
395.34533699999997
  0
LINE
  8
_0-0_0
  6
CONTINUOUS
 62
    7
 10
206.92771899999997
 20
395.14691199999999
 11
206.67771899999997
 21
395.38629200000003
  0
LINE
  8
_0-0_0
  6
CONTINUOUS
 62
    7
 10
206.92771899999997
 20
395.12228399999998
 11
206.67771899999997
 21
395.38629200000003
  0
LINE
  8
_0-0_0
  6
CONTINUOUS
 62
    7
 10
206.92771899999997
 20
395.14691199999999
 11
206.67771899999997
 21
395.39999399999999
  0
LINE
  8
_0-0_0
  6
CONTINUOUS
 62
    7
 10
196.92771899999997
 20
391.144836
 11
196.92771899999997
 21
390.89999399999999
  0
LINE
  8
_0-0_0
  6
CONTINUOUS
 62
    7
 10
197.17771899999997
 20
394.125427
 11
197.42771899999997
 21
394.36944599999998
  0
LINE
  8
_0-0_0
  6
CONTINUOUS
 62
    7
 10
197.17771899999997
 20
394.31594799999999
 11
197.42771899999997
 21
394.36944599999998
  0
LINE
  8
_0-0_0
  6
CONTINUOUS
 62
    7
 10
197.17771899999997
 20
394.31594799999999
 11
197.42771899999997
 21
394.57281499999999
  0
LINE
  8
_0-0_0
  6
CONTINUOUS
 62
    7
 10
197.17771899999997
 20
394.49096700000001
 11
197.42771899999997
 21
394.57281499999999
  0
LINE
  8
_0-0_0
  6
CONTINUOUS
 62
    7
 10
197.17771899999997
 20
394.49096700000001
 11
197.42771899999997
 21
394.75784299999998
  0
LINE
  8
_0-0_0
  6
CONTINUOUS
 62
    7
 10
197.17771899999997
 20
394.64855999999997
 11
197.42771899999997
 21
394.75784299999998
  0
LINE
  8
_0-0_0
  6
CONTINUOUS
 62
    7
 10
197.17771899999997
 20
394.64855999999997
 11
197.42771899999997
 21
394.92251599999997
  0
LINE
  8
_0-0_0
  6
CONTINUOUS
 62
    7
 10
197.17771899999997
 20
394.78698700000001
 11
197.42771899999997
 21
394.92251599999997
  0
LINE
  8
_0-0_0
  6
CONTINUOUS
 62
    7
 10
197.17771899999997
 20
394.78698700000001
 11
197.42771899999997
 21
395.06506300000001
  0
LINE
  8
_0-0_0
  6
CONTINUOUS
 62
    7
 10
197.17771899999997
 20
394.90475500000002
 11
197.42771899999997
 21
395.06506300000001
  0
LINE
  8
_0-0_0
  6
CONTINUOUS
 62
    7
 10
197.17771899999997
 20
394.90475500000002
 11
197.42771899999997
 21
395.18383799999998
  0
LINE
  8
_0-0_0
  6
CONTINUOUS
 62
    7
 10
197.17771899999997
 20
395.00054899999998
 11
197.42771899999997
 21
395.18383799999998
  0
LINE
  8
_0-0_0
  6
CONTINUOUS
 62
    7
 10
197.17771899999997
 20
395.00054899999998
 11
197.42771899999997
 21
395.27761800000002
  0
LINE
  8
_0-0_0
  6
CONTINUOUS
 62
    7
 10
197.17771899999997
 20
395.07330300000001
 11
197.42771899999997
 21
395.27761800000002
  0
LINE
  8
_0-0_0
  6
CONTINUOUS
 62
    7
 10
197.17771899999997
 20
395.07330300000001
 11
197.42771899999997
 21
395.34533699999997
  0
LINE
  8
_0-0_0
  6
CONTINUOUS
 62
    7
 10
197.17771899999997
 20
395.12228399999998
 11
197.42771899999997
 21
395.34533699999997
  0
LINE
  8
_0-0_0
  6
CONTINUOUS
 62
    7
 10
197.17771899999997
 20
395.12228399999998
 11
197.42771899999997
 21
395.38629200000003
  0
LINE
  8
_0-0_0
  6
CONTINUOUS
 62
    7
 10
197.17771899999997
 20
395.14691199999999
 11
197.42771899999997
 21
395.38629200000003
  0
LINE
  8
_0-0_0
  6
CONTINUOUS
 62
    7
 10
197.17771899999997
 20
395.14691199999999
 11
197.42771899999997
 21
395.39999399999999
  0
LINE
  8
_0-0_0
  6
CONTINUOUS
 62
    7
 10
196.92771899999997
 20
394.89999399999999
 11
196.92771899999997
 21
391.144836
  0
LINE
  8
_0-0_0
  6
CONTINUOUS
 62
    7
 10
197.42771899999997
 20
394.36944599999998
 11
206.67771899999997
 21
394.36944599999998
  0
LINE
  8
_0-0_0
  6
CONTINUOUS
 62
    7
 10
197.42771899999997
 20
394.57281499999999
 11
206.67771899999997
 21
394.57281499999999
  0
LINE
  8
_0-0_0
  6
CONTINUOUS
 62
    7
 10
197.42771899999997
 20
394.75784299999998
 11
206.67771899999997
 21
394.75784299999998
  0
LINE
  8
_0-0_0
  6
CONTINUOUS
 62
    7
 10
197.42771899999997
 20
394.92251599999997
 11
206.67771899999997
 21
394.92251599999997
  0
LINE
  8
_0-0_0
  6
CONTINUOUS
 62
    7
 10
197.42771899999997
 20
395.06506300000001
 11
206.67771899999997
 21
395.06506300000001
  0
LINE
  8
_0-0_0
  6
CONTINUOUS
 62
    7
 10
197.42771899999997
 20
395.18383799999998
 11
206.67771899999997
 21
395.18383799999998
  0
LINE
  8
_0-0_0
  6
CONTINUOUS
 62
    7
 10
197.42771899999997
 20
395.27761800000002
 11
206.67771899999997
 21
395.27761800000002
  0
LINE
  8
_0-0_0
  6
CONTINUOUS
 62
    7
 10
197.42771899999997
 20
395.34533699999997
 11
206.67771899999997
 21
395.34533699999997
  0
LINE
  8
_0-0_0
  6
CONTINUOUS
 62
    7
 10
197.42771899999997
 20
395.38629200000003
 11
206.67771899999997
 21
395.38629200000003
  0
LINE
  8
_0-0_0
  6
CONTINUOUS
 62
    7
 10
197.42771899999997
 20
395.39999399999999
 11
206.67771899999997
 21
395.39999399999999
  0
LINE
  8
_0-0_0
  6
CONTINUOUS
 62
    7
 10
232.92771899999997
 20
411.75
 11
206.92771899999997
 21
411.75
  0
LINE
  8
_0-0_0
  6
CONTINUOUS
 62
    7
 10
232.92771899999997
 20
407.25
 11
206.92771899999997
 21
407.25
  0
LINE
  8
_0-0_0
  6
CONTINUOUS
 62
    7
 10
333.92773399999999
 20
395.14999399999999
 11
336.38339199999996
 21
395.14999399999999
  0
LINE
  8
_0-0_0
  6
CONTINUOUS
 62
    7
 10
335.88232399999998
 20
390.64999399999999
 11
336.38339199999996
 21
390.64999399999999
  0
LINE
  8
_0-0_0
  6
CONTINUOUS
 62
    7
 10
206.92771899999997
 20
411.75
 11
206.67771899999997
 21
412
  0
LINE
  8
_0-0_0
  6
CONTINUOUS
 62
    7
 10
206.92771899999997
 20
407.25
 11
206.67771899999997
 21
407
  0
LINE
  8
_0-0_0
  6
CONTINUOUS
 62
    7
 10
336.52773999999999
 20
394.89999399999999
 11
336.38339199999996
 21
395.14999399999999
  0
LINE
  8
_0-0_0
  6
CONTINUOUS
 62
    7
 10
336.52773999999999
 20
390.89999399999999
 11
336.38339199999996
 21
390.64999399999999
  0
LINE
  8
_0-0_0
  6
CONTINUOUS
 62
    7
 10
210.92771899999997
 20
395.94998199999998
 11
212.17771899999997
 21
394.69998199999998
  0
LINE
  8
_0-0_0
  6
CONTINUOUS
 62
    7
 10
210.92771899999997
 20
406.44998199999998
 11
211.72770699999998
 21
407.24996900000002
  0
LINE
  8
_0-0_0
  6
CONTINUOUS
 62
    7
 10
196.92771899999997
 20
411.5
 11
197.42756599999998
 21
411.99981700000001
  0
LINE
  8
_0-0_0
  6
CONTINUOUS
 62
    7
 10
196.92771899999997
 20
407.5
 11
197.42756599999998
 21
407.00015300000001
  0
LINE
  8
_0-0_0
  6
CONTINUOUS
 62
    7
 10
210.92771899999997
 20
406.19998199999998
 11
210.52770999999998
 21
406.19998199999998
  0
LINE
  8
_0-0_0
  6
CONTINUOUS
 62
    7
 10
210.92771899999997
 20
396.19998199999998
 11
210.52770999999998
 21
396.19998199999998
  0
LINE
  8
_0-0_0
  6
CONTINUOUS
 62
    7
 10
209.72770699999998
 20
405.73809799999998
 11
210.52770999999998
 21
406.19998199999998
  0
LINE
  8
_0-0_0
  6
CONTINUOUS
 62
    7
 10
209.72770699999998
 20
396.66186499999998
 11
210.52770999999998
 21
396.19998199999998
  0
LINE
  8
_0-0_0
  6
CONTINUOUS
 62
    7
 10
209.72770699999998
 20
405.19998199999998
 11
151.72772199999997
 21
405.19998199999998
  0
LINE
  8
_0-0_0
  6
CONTINUOUS
 62
    7
 10
209.72770699999998
 20
397.19998199999998
 11
151.72772199999997
 21
397.19998199999998
  0
LINE
  8
_0-0_0
  6
CONTINUOUS
 62
    7
 10
227.17768799999999
 20
390.64999399999999
 11
206.92771899999997
 21
390.64999399999999
  0
LINE
  8
_0-0_0
  6
CONTINUOUS
 62
    7
 10
206.92771899999997
 20
390.64999399999999
 11
206.67771899999997
 21
390.39999399999999
  0
LINE
  8
_0-0_0
  6
CONTINUOUS
 62
    7
 10
211.72770699999998
 20
395.14999399999999
 11
206.92771899999997
 21
395.14999399999999
  0
LINE
  8
_0-0_0
  6
CONTINUOUS
 62
    7
 10
206.92771899999997
 20
395.14999399999999
 11
206.67771899999997
 21
395.39999399999999
  0
LINE
  8
_0-0_0
  6
CONTINUOUS
 62
    7
 10
196.92771899999997
 20
390.89999399999999
 11
197.42756599999998
 21
390.40014600000001
  0
LINE
  8
_0-0_0
  6
CONTINUOUS
 62
    7
 10
196.92771899999997
 20
394.89999399999999
 11
197.42756599999998
 21
395.39984099999998
  0
LINE
  8
_0-0_0
  6
CONTINUOUS
 62
    7
 10
123.41671699999995
 20
443.39999399999999
 11
123.41671699999995
 21
430.39999399999999
  0
LINE
  8
_0-0_0
  6
CONTINUOUS
 62
    7
 10
123.616714
 20
443.39999399999999
 11
123.41671699999995
 21
443.39999399999999
  0
LINE
  8
_0-0_0
  6
CONTINUOUS
 62
    7
 10
123.616714
 20
430.39999399999999
 11
123.41671699999995
 21
430.39999399999999
  0
LINE
  8
_0-0_0
  6
CONTINUOUS
 62
    7
 10
123.616714
 20
443.39999399999999
 11
123.616714
 21
462
  0
LINE
  8
_0-0_0
  6
CONTINUOUS
 62
    7
 10
123.71672000000001
 20
462
 11
123.616714
 21
462
  0
LINE
  8
_0-0_0
  6
CONTINUOUS
 62
    7
 10
123.71672000000001
 20
464.5
 11
123.71672000000001
 21
462
  0
ARC
  8
_0-0_0
  6
CONTINUOUS
 62
    7
 10
123.21672000000001
 20
464.5
 40
0.5
 50
0
 51
90.000003000000007
  0
LINE
  8
_0-0_0
  6
CONTINUOUS
 62
    7
 10
123.21672000000001
 20
465
 11
120.21672000000001
 21
465
  0
ARC
  8
_0-0_0
  6
CONTINUOUS
 62
    7
 10
120.21672000000001
 20
464.5
 40
0.5
 50
90.000003000000007
 51
179.99999099999999
  0
ARC
  8
_0-0_0
  6
CONTINUOUS
 62
    7
 10
115.71672000000001
 20
417
 40
0.5
 50
179.99999099999999
 51
269.99999700000001
  0
LINE
  8
_0-0_0
  6
CONTINUOUS
 62
    7
 10
118.21672000000001
 20
416.5
 11
115.71672000000001
 21
416.5
  0
ARC
  8
_0-0_0
  6
CONTINUOUS
 62
    7
 10
118.21672000000001
 20
417
 40
0.5
 50
269.99999700000001
 51
0
  0
LINE
  8
_0-0_0
  6
CONTINUOUS
 62
    7
 10
118.71672000000001
 20
422
 11
118.71672000000001
 21
417
  0
ARC
  8
_0-0_0
  6
CONTINUOUS
 62
    7
 10
119.21672000000001
 20
422
 40
0.5
 50
90.000003000000007
 51
179.99999099999999
  0
LINE
  8
_0-0_0
  6
CONTINUOUS
 62
    7
 10
123.21672000000001
 20
422.5
 11
119.21672000000001
 21
422.5
  0
ARC
  8
_0-0_0
  6
CONTINUOUS
 62
    7
 10
123.21672000000001
 20
423
 40
0.5
 50
269.99999700000001
 51
0
  0
LINE
  8
_0-0_0
  6
CONTINUOUS
 62
    7
 10
123.71672000000001
 20
426.19998199999998
 11
123.71672000000001
 21
423
  0
LINE
  8
_0-0_0
  6
CONTINUOUS
 62
    7
 10
123.616714
 20
426.19998199999998
 11
123.71672000000001
 21
426.19998199999998
  0
LINE
  8
_0-0_0
  6
CONTINUOUS
 62
    7
 10
123.616714
 20
426.19998199999998
 11
123.616714
 21
430.39999399999999
  0
LINE
  8
_0-0_0
  6
CONTINUOUS
 62
    7
 10
122.71672000000001
 20
464.5
 11
104.91671699999995
 21
464.5
  0
ARC
  8
_0-0_0
  6
CONTINUOUS
 62
    7
 10
122.71672000000001
 20
464
 40
0.5
 50
0
 51
90.000003000000007
  0
LINE
  8
_0-0_0
  6
CONTINUOUS
 62
    7
 10
123.21672000000001
 20
464
 11
123.21672000000001
 21
423.5
  0
ARC
  8
_0-0_0
  6
CONTINUOUS
 62
    7
 10
122.71672000000001
 20
423.5
 40
0.5
 50
269.99999700000001
 51
0
  0
LINE
  8
_0-0_0
  6
CONTINUOUS
 62
    7
 10
119.21672000000001
 20
423
 11
122.71672000000001
 21
423
  0
ARC
  8
_0-0_0
  6
CONTINUOUS
 62
    7
 10
119.21672000000001
 20
422
 40
1
 50
90.000003000000007
 51
179.99999099999999
  0
LINE
  8
_0-0_0
  6
CONTINUOUS
 62
    7
 10
118.21672000000001
 20
422
 11
118.21672000000001
 21
417.5
  0
ARC
  8
_0-0_0
  6
CONTINUOUS
 62
    7
 10
117.71672000000001
 20
417.5
 40
0.5
 50
269.99999700000001
 51
0
  0
LINE
  8
_0-0_0
  6
CONTINUOUS
 62
    7
 10
100.71672000000001
 20
417
 11
117.71672000000001
 21
417
  0
LINE
  8
_0-0_0
  6
CONTINUOUS
 62
    7
 10
119.21672000000001
 20
464.69998199999998
 11
119.21672000000001
 21
464.5
  0
ARC
  8
_0-0_0
  6
CONTINUOUS
 62
    7
 10
118.91671699999995
 20
464.69998199999998
 40
0.2999999999999999
 50
0
 51
90.000003000000007
  0
LINE
  8
_0-0_0
  6
CONTINUOUS
 62
    7
 10
118.91671699999995
 20
465
 11
104.21672000000001
 21
465
  0
ARC
  8
_0-0_0
  6
CONTINUOUS
 62
    7
 10
104.21672000000001
 20
464.69998199999998
 40
0.2999999999999999
 50
90.000003000000007
 51
179.99999099999999
  0
LINE
  8
_0-0_0
  6
CONTINUOUS
 62
    7
 10
103.91671699999995
 20
464.69998199999998
 11
103.91671699999995
 21
461.5
  0
LINE
  8
_0-0_0
  6
CONTINUOUS
 62
    7
 10
103.91671699999995
 20
461.5
 11
98.216720000000009
 21
461.5
  0
LINE
  8
_0-0_0
  6
CONTINUOUS
 62
    7
 10
98.216720000000009
 20
461.5
 11
97.416716999999949
 21
460.69998199999998
  0
ARC
  8
_0-0_0
  6
CONTINUOUS
 62
    7
 10
104.91671699999995
 20
464
 40
0.5
 50
90.000003000000007
 51
179.99999099999999
  0
LINE
  8
_0-0_0
  6
CONTINUOUS
 62
    7
 10
104.41671699999995
 20
464
 11
104.41671699999995
 21
461.19998199999998
  0
ARC
  8
_0-0_0
  6
CONTINUOUS
 62
    7
 10
103.91671699999995
 20
461.19998199999998
 40
0.5
 50
269.99999700000001
 51
0
  0
LINE
  8
_0-0_0
  6
CONTINUOUS
 62
    7
 10
103.91671699999995
 20
460.69998199999998
 11
95.716720000000009
 21
460.69998199999998
  0
ARC
  8
_0-0_0
  6
CONTINUOUS
 62
    7
 10
95.716720000000009
 20
460.19998199999998
 40
0.5
 50
90.000003000000007
 51
179.99999099999999
  0
LINE
  8
_0-0_0
  6
CONTINUOUS
 62
    7
 10
95.21671699999996
 20
423.5
 11
95.21671699999996
 21
460.19998199999998
  0
ARC
  8
_0-0_0
  6
CONTINUOUS
 62
    7
 10
95.716720000000009
 20
423.5
 40
0.5
 50
179.99999099999999
 51
269.99999700000001
  0
LINE
  8
_0-0_0
  6
CONTINUOUS
 62
    7
 10
95.716720000000009
 20
423
 11
99.216720000000009
 21
423
  0
ARC
  8
_0-0_0
  6
CONTINUOUS
 62
    7
 10
99.216720000000009
 20
422
 40
1
 50
0
 51
90.000003000000007
  0
LINE
  8
_0-0_0
  6
CONTINUOUS
 62
    7
 10
100.21672000000001
 20
417.5
 11
100.21672000000001
 21
422
  0
ARC
  8
_0-0_0
  6
CONTINUOUS
 62
    7
 10
100.71672000000001
 20
417.5
 40
0.5
 50
179.99999099999999
 51
269.99999700000001
  0
CIRCLE
  8
_0-0_0
  6
CONTINUOUS
 62
    7
 10
109.21672000000001
 20
426
 40
2.0670000000000002
  0
LINE
  8
_0-0_0
  6
CONTINUOUS
 62
    7
 10
97.216720000000009
 20
461
 11
97.216720000000009
 21
460.69998199999998
  0
LINE
  8
_0-0_0
  6
CONTINUOUS
 62
    7
 10
97.216720000000009
 20
461
 11
95.21671699999996
 21
461
  0
ARC
  8
_0-0_0
  6
CONTINUOUS
 62
    7
 10
95.21671699999996
 20
460.5
 40
0.5
 50
90.000003000000007
 51
179.99999099999999
  0
LINE
  8
_0-0_0
  6
CONTINUOUS
 62
    7
 10
94.71671699999996
 20
460.5
 11
94.71671699999996
 21
423
  0
ARC
  8
_0-0_0
  6
CONTINUOUS
 62
    7
 10
95.21671699999996
 20
423
 40
0.5
 50
179.99999099999999
 51
269.99999700000001
  0
LINE
  8
_0-0_0
  6
CONTINUOUS
 62
    7
 10
99.216720000000009
 20
422.5
 11
95.21671699999996
 21
422.5
  0
ARC
  8
_0-0_0
  6
CONTINUOUS
 62
    7
 10
99.216720000000009
 20
422
 40
0.5
 50
0
 51
90.000003000000007
  0
LINE
  8
_0-0_0
  6
CONTINUOUS
 62
    7
 10
99.716720000000009
 20
417
 11
99.716720000000009
 21
422
  0
ARC
  8
_0-0_0
  6
CONTINUOUS
 62
    7
 10
100.21672000000001
 20
417
 40
0.5
 50
179.99999099999999
 51
269.99999700000001
  0
LINE
  8
_0-0_0
  6
CONTINUOUS
 62
    7
 10
100.21672000000001
 20
416.5
 11
102.71672000000001
 21
416.5
  0
ARC
  8
_0-0_0
  6
CONTINUOUS
 62
    7
 10
102.71672000000001
 20
417
 40
0.5
 50
269.99999700000001
 51
0
  0
LINE
  8
_0-0_0
  6
CONTINUOUS
 62
    7
 10
118.71672000000001
 20
417
 11
118.816711
 21
417
  0
LINE
  8
_0-0_0
  6
CONTINUOUS
 62
    7
 10
118.816711
 20
417
 11
118.816711
 21
417.5
  0
LINE
  8
_0-0_0
  6
CONTINUOUS
 62
    7
 10
118.816711
 20
421.5
 11
118.816711
 21
417.5
  0
LINE
  8
_0-0_0
  6
CONTINUOUS
 62
    7
 10
118.71672000000001
 20
422
 11
118.816711
 21
422
  0
LINE
  8
_0-0_0
  6
CONTINUOUS
 62
    7
 10
118.816711
 20
421.5
 11
118.816711
 21
422
  0
LINE
  8
_0-0_0
  6
CONTINUOUS
 62
    7
 10
118.91671699999995
 20
417.5
 11
118.91671699999995
 21
417.63034099999999
  0
LINE
  8
_0-0_0
  6
CONTINUOUS
 62
    7
 10
118.91671699999995
 20
421.13034099999999
 11
118.91671699999995
 21
417.63034099999999
  0
LINE
  8
_0-0_0
  6
CONTINUOUS
 62
    7
 10
118.816711
 20
421.39999399999999
 11
118.91671699999995
 21
421.39999399999999
  0
LINE
  8
_0-0_0
  6
CONTINUOUS
 62
    7
 10
118.91671699999995
 20
421.13034099999999
 11
118.91671699999995
 21
421.39999399999999
  0
LINE
  8
_0-0_0
  6
CONTINUOUS
 62
    7
 10
118.816711
 20
417.5
 11
118.91671699999995
 21
417.5
  0
LINE
  8
_0-0_0
  6
CONTINUOUS
 62
    7
 10
118.816711
 20
417.5
 11
118.91671699999995
 21
417.5
  0
LINE
  8
_0-0_0
  6
CONTINUOUS
 62
    7
 10
100.41671699999995
 20
414.5
 11
104.616714
 21
414.5
  0
LINE
  8
_0-0_0
  6
CONTINUOUS
 62
    7
 10
116.21672000000001
 20
414.5
 11
113.816711
 21
414.5
  0
LINE
  8
_0-0_0
  6
CONTINUOUS
 62
    7
 10
116.21672000000001
 20
414.5
 11
117.41671699999995
 21
414.5
  0
ARC
  8
_0-0_0
  6
CONTINUOUS
 62
    7
 10
117.41671699999995
 20
414
 40
0.5
 50
0
 51
90.000003000000007
  0
ARC
  8
_0-0_0
  6
CONTINUOUS
 62
    7
 10
116.21672000000001
 20
414
 40
0.5
 50
90.000003000000007
 51
179.99999099999999
  0
ARC
  8
_0-0_0
  6
CONTINUOUS
 62
    7
 10
113.816711
 20
415
 40
0.5
 50
179.99999099999999
 51
269.99999700000001
  0
ARC
  8
_0-0_0
  6
CONTINUOUS
 62
    7
 10
104.616714
 20
415
 40
0.5
 50
269.99999700000001
 51
0
  0
ARC
  8
_0-0_0
  6
CONTINUOUS
 62
    7
 10
100.41671699999995
 20
414
 40
0.5
 50
90.000003000000007
 51
179.99999099999999
  0
LINE
  8
_0-0_0
  6
CONTINUOUS
 62
    7
 10
101.41671699999995
 20
415
 11
101.41671699999995
 21
414.5
  0
ARC
  8
_0-0_0
  6
CONTINUOUS
 62
    7
 10
101.91671699999995
 20
415
 40
0.5
 50
90.000003000000007
 51
179.99999099999999
  0
LINE
  8
_0-0_0
  6
CONTINUOUS
 62
    7
 10
103.41671699999995
 20
415.5
 11
101.91671699999995
 21
415.5
  0
ARC
  8
_0-0_0
  6
CONTINUOUS
 62
    7
 10
103.41671699999995
 20
416.5
 40
1
 50
269.99999700000001
 51
0
  0
LINE
  8
_0-0_0
  6
CONTINUOUS
 62
    7
 10
104.41671699999995
 20
417
 11
104.41671699999995
 21
416.5
  0
LINE
  8
_0-0_0
  6
CONTINUOUS
 62
    7
 10
104.91671699999995
 20
417
 11
104.91671699999995
 21
416
  0
ARC
  8
_0-0_0
  6
CONTINUOUS
 62
    7
 10
103.41671699999995
 20
416
 40
1.5
 50
269.99999700000001
 51
0
  0
ARC
  8
_0-0_0
  6
CONTINUOUS
 62
    7
 10
115.01670799999999
 20
416
 40
1.5
 50
179.99999099999999
 51
269.99999700000001
  0
LINE
  8
_0-0_0
  6
CONTINUOUS
 62
    7
 10
117.01670799999999
 20
415
 11
117.01670799999999
 21
414.5
  0
ARC
  8
_0-0_0
  6
CONTINUOUS
 62
    7
 10
116.51670799999999
 20
415
 40
0.5
 50
0
 51
90.000003000000007
  0
LINE
  8
_0-0_0
  6
CONTINUOUS
 62
    7
 10
115.01670799999999
 20
415.5
 11
116.51670799999999
 21
415.5
  0
ARC
  8
_0-0_0
  6
CONTINUOUS
 62
    7
 10
115.01670799999999
 20
416.5
 40
1
 50
179.99999099999999
 51
269.99999700000001
  0
LINE
  8
_0-0_0
  6
CONTINUOUS
 62
    7
 10
114.01670799999999
 20
417
 11
114.01670799999999
 21
416.5
  0
LINE
  8
_0-0_0
  6
CONTINUOUS
 62
    7
 10
113.51670799999999
 20
417
 11
113.51670799999999
 21
416
  0
LINE
  8
_0-0_0
  6
CONTINUOUS
 62
    7
 10
117.91671699999995
 20
387.5
 11
117.91671699999995
 21
388.39999399999999
  0
LINE
  8
_0-0_0
  6
CONTINUOUS
 62
    7
 10
117.91671699999995
 20
388.39999399999999
 11
117.91671699999995
 21
390.89999399999999
  0
LINE
  8
_0-0_0
  6
CONTINUOUS
 62
    7
 10
117.91671699999995
 20
390.89999399999999
 11
117.91671699999995
 21
411.5
  0
LINE
  8
_0-0_0
  6
CONTINUOUS
 62
    7
 10
117.91671699999995
 20
411.5
 11
117.91671699999995
 21
414
  0
LINE
  8
_0-0_0
  6
CONTINUOUS
 62
    7
 10
115.71672000000001
 20
414
 11
115.71672000000001
 21
412.754974
  0
LINE
  8
_0-0_0
  6
CONTINUOUS
 62
    7
 10
113.316711
 20
415
 11
113.316711
 21
416.79998799999998
  0
ARC
  8
_0-0_0
  6
CONTINUOUS
 62
    7
 10
112.816711
 20
416.79998799999998
 40
0.5
 50
0
 51
23.579369
  0
LINE
  8
_0-0_0
  6
CONTINUOUS
 62
    7
 10
105.116714
 20
415
 11
105.116714
 21
416.79998799999998
  0
ARC
  8
_0-0_0
  6
CONTINUOUS
 62
    7
 10
105.616714
 20
416.79998799999998
 40
0.5
 50
156.420635
 51
179.99999099999999
  0
LINE
  8
_0-0_0
  6
CONTINUOUS
 62
    7
 10
99.916716999999949
 20
387.5
 11
99.916716999999949
 21
397.69998199999998
  0
LINE
  8
_0-0_0
  6
CONTINUOUS
 62
    7
 10
99.916716999999949
 20
397.69998199999998
 11
99.916716999999949
 21
398.69998199999998
  0
LINE
  8
_0-0_0
  6
CONTINUOUS
 62
    7
 10
99.916716999999949
 20
398.69998199999998
 11
99.916716999999949
 21
403.69998199999998
  0
LINE
  8
_0-0_0
  6
CONTINUOUS
 62
    7
 10
99.916716999999949
 20
403.69998199999998
 11
99.916716999999949
 21
404.69998199999998
  0
LINE
  8
_0-0_0
  6
CONTINUOUS
 62
    7
 10
99.916716999999949
 20
414
 11
99.916716999999949
 21
404.69998199999998
  0
LINE
  8
_0-0_0
  6
CONTINUOUS
 62
    7
 10
118.71672000000001
 20
413
 11
117.91671699999995
 21
413
  0
LINE
  8
_0-0_0
  6
CONTINUOUS
 62
    7
 10
118.71672000000001
 20
413.79998799999998
 11
117.91671699999995
 21
413.79998799999998
  0
LINE
  8
_0-0_0
  6
CONTINUOUS
 62
    7
 10
118.71672000000001
 20
412.79998799999998
 11
118.71672000000001
 21
413.79998799999998
  0
LINE
  8
_0-0_0
  6
CONTINUOUS
 62
    7
 10
118.71672000000001
 20
394.19998199999998
 11
117.91671699999995
 21
394.19998199999998
  0
LINE
  8
_0-0_0
  6
CONTINUOUS
 62
    7
 10
118.71672000000001
 20
394.19998199999998
 11
118.71672000000001
 21
397.19998199999998
  0
LINE
  8
_0-0_0
  6
CONTINUOUS
 62
    7
 10
118.71672000000001
 20
409.43768299999999
 11
118.71672000000001
 21
397.19998199999998
  0
LINE
  8
_0-0_0
  6
CONTINUOUS
 62
    7
 10
118.71672000000001
 20
409.43768299999999
 11
118.71672000000001
 21
410.40045199999997
  0
LINE
  8
_0-0_0
  6
CONTINUOUS
 62
    7
 10
117.91671699999995
 20
410.40045199999997
 11
117.91671699999995
 21
413
  0
ARC
  8
_0-0_0
  6
CONTINUOUS
 62
    7
 10
112.30178799999999
 20
409.68203699999998
 40
5.7120379999999997
 50
18.558475999999999
 51
26.433648000000002
  0
ARC
  8
_0-0_0
  6
CONTINUOUS
 62
    7
 10
117.71672000000001
 20
411.5
 40
0.2
 50
269.99999700000001
 51
0
  0
ARC
  8
_0-0_0
  6
CONTINUOUS
 62
    7
 10
117.71672000000001
 20
390.89999399999999
 40
0.2
 50
0
 51
90.000003000000007
  0
ARC
  8
_0-0_0
  6
CONTINUOUS
 62
    7
 10
112.30190999999996
 20
392.71801799999997
 40
5.711964
 50
333.565022
 51
341.44031000000001
  0
ARC
  8
_0-0_0
  6
CONTINUOUS
 62
    7
 10
117.41671699999995
 20
388.39999399999999
 40
0.5
 50
269.99999700000001
 51
0
  0
LINE
  8
_0-0_0
  6
CONTINUOUS
 62
    7
 10
117.41671699999995
 20
387.5
 11
117.91671699999995
 21
387.5
  0
LINE
  8
_0-0_0
  6
CONTINUOUS
 62
    7
 10
117.91671699999995
 20
387.5
 11
117.41671699999995
 21
387
  0
ARC
  8
_0-0_0
  6
CONTINUOUS
 62
    7
 10
115.71672000000001
 20
410
 40
2.2999999999999998
 50
34.417387999999995
 51
79.713437000000013
  0
LINE
  8
_0-0_0
  6
CONTINUOUS
 62
    7
 10
117.655395
 20
411.29998799999998
 11
117.61408999999998
 21
411.29998799999998
  0
LINE
  8
_0-0_0
  6
CONTINUOUS
 62
    7
 10
117.655395
 20
411.29998799999998
 11
117.66496299999994
 21
411.30102499999998
  0
LINE
  8
_0-0_0
  6
CONTINUOUS
 62
    7
 10
117.66496299999994
 20
411.30102499999998
 11
117.67445399999997
 21
411.30419899999998
  0
LINE
  8
_0-0_0
  6
CONTINUOUS
 62
    7
 10
117.67445399999997
 20
411.30419899999998
 11
117.68369999999999
 21
411.30960099999999
  0
LINE
  8
_0-0_0
  6
CONTINUOUS
 62
    7
 10
117.68369999999999
 20
411.30960099999999
 11
117.69250499999998
 21
411.31710800000002
  0
LINE
  8
_0-0_0
  6
CONTINUOUS
 62
    7
 10
117.69250499999998
 20
411.31710800000002
 11
117.70790099999999
 21
411.33776899999998
  0
LINE
  8
_0-0_0
  6
CONTINUOUS
 62
    7
 10
117.70790099999999
 20
411.33776899999998
 11
117.71968099999998
 21
411.36502100000001
  0
LINE
  8
_0-0_0
  6
CONTINUOUS
 62
    7
 10
117.71968099999998
 20
411.36502100000001
 11
117.72685200000001
 21
411.397156
  0
LINE
  8
_0-0_0
  6
CONTINUOUS
 62
    7
 10
117.72685200000001
 20
411.397156
 11
117.72874400000001
 21
411.43221999999997
  0
LINE
  8
_0-0_0
  6
CONTINUOUS
 62
    7
 10
117.72874400000001
 20
411.43221999999997
 11
117.72489899999999
 21
411.46838400000001
  0
LINE
  8
_0-0_0
  6
CONTINUOUS
 62
    7
 10
117.72489899999999
 20
411.46838400000001
 11
117.71672000000001
 21
411.5
  0
ARC
  8
_0-0_0
  6
CONTINUOUS
 62
    7
 10
116.21672000000001
 20
412.754974
 40
0.5
 50
179.99999099999999
 51
259.71343899999994
  0
LINE
  8
_0-0_0
  6
CONTINUOUS
 62
    7
 10
100.71672000000001
 20
410
 11
100.71672000000001
 21
396.39999399999999
  0
LINE
  8
_0-0_0
  6
CONTINUOUS
 62
    7
 10
100.71672000000001
 20
395.89999399999999
 11
100.71672000000001
 21
396.39999399999999
  0
LINE
  8
_0-0_0
  6
CONTINUOUS
 62
    7
 10
100.71672000000001
 20
392.89999399999999
 11
100.71672000000001
 21
395.89999399999999
  0
LINE
  8
_0-0_0
  6
CONTINUOUS
 62
    7
 10
100.71672000000001
 20
392.39999399999999
 11
100.71672000000001
 21
392.89999399999999
  0
ARC
  8
_0-0_0
  6
CONTINUOUS
 62
    7
 10
102.71672000000001
 20
410
 40
2
 50
93.840255999999997
 51
179.99999099999999
  0
LINE
  8
_0-0_0
  6
CONTINUOUS
 62
    7
 10
102.71672000000001
 20
412
 11
111.71672000000001
 21
412
  0
LINE
  8
_0-0_0
  6
CONTINUOUS
 62
    7
 10
115.71672000000001
 20
412
 11
115.21672000000001
 21
412
  0
LINE
  8
_0-0_0
  6
CONTINUOUS
 62
    7
 10
115.21672000000001
 20
412
 11
112.21672000000001
 21
412
  0
LINE
  8
_0-0_0
  6
CONTINUOUS
 62
    7
 10
111.71672000000001
 20
412
 11
112.21672000000001
 21
412
  0
ARC
  8
_0-0_0
  6
CONTINUOUS
 62
    7
 10
115.71672000000001
 20
410
 40
2
 50
0
 51
90.000003000000007
  0
LINE
  8
_0-0_0
  6
CONTINUOUS
 62
    7
 10
99.716720000000009
 20
413
 11
99.916716999999949
 21
413
  0
LINE
  8
_0-0_0
  6
CONTINUOUS
 62
    7
 10
99.716720000000009
 20
413.79998799999998
 11
99.916716999999949
 21
413.79998799999998
  0
LINE
  8
_0-0_0
  6
CONTINUOUS
 62
    7
 10
99.716720000000009
 20
413.79998799999998
 11
99.716720000000009
 21
413.00012199999998
  0
LINE
  8
_0-0_0
  6
CONTINUOUS
 62
    7
 10
99.716720000000009
 20
394.19998199999998
 11
99.916716999999949
 21
394.19998199999998
  0
LINE
  8
_0-0_0
  6
CONTINUOUS
 62
    7
 10
99.716720000000009
 20
397.19998199999998
 11
99.716720000000009
 21
394.19998199999998
  0
LINE
  8
_0-0_0
  6
CONTINUOUS
 62
    7
 10
99.716720000000009
 20
409.43768299999999
 11
99.716720000000009
 21
397.19998199999998
  0
LINE
  8
_0-0_0
  6
CONTINUOUS
 62
    7
 10
99.716720000000009
 20
410.40045199999997
 11
99.716720000000009
 21
409.43768299999999
  0
ARC
  8
_0-0_0
  6
CONTINUOUS
 62
    7
 10
100.41671699999995
 20
403.69998199999998
 40
0.5
 50
90.000003000000007
 51
179.99999099999999
  0
ARC
  8
_0-0_0
  6
CONTINUOUS
 62
    7
 10
100.41671699999995
 20
398.69998199999998
 40
0.5
 50
179.99999099999999
 51
269.99999700000001
  0
LINE
  8
_0-0_0
  6
CONTINUOUS
 62
    7
 10
99.916716999999949
 20
387.5
 11
100.41671699999995
 21
387.5
  0
LINE
  8
_0-0_0
  6
CONTINUOUS
 62
    7
 10
99.916716999999949
 20
387.5
 11
100.41671699999995
 21
387
  0
LINE
  8
_0-0_0
  6
CONTINUOUS
 62
    7
 10
117.91671699999995
 20
394.20001200000002
 11
117.91671699999995
 21
393.04998799999998
  0
ARC
  8
_0-0_0
  6
CONTINUOUS
 62
    7
 10
115.51670799999999
 20
393.04998799999998
 40
2.3999999999999999
 50
359.58604600000001
 51
0.0000099999999787
  0
LINE
  8
_0-0_0
  6
CONTINUOUS
 62
    7
 10
118.71672000000001
 20
410.40045199999997
 11
118.71672000000001
 21
413
  0
LINE
  8
_0-0_0
  6
CONTINUOUS
 62
    7
 10
117.71672000000001
 20
411.29998799999998
 11
117.655395
 21
411.29998799999998
  0
LINE
  8
_0-0_0
  6
CONTINUOUS
 62
    7
 10
117.61408999999998
 20
411.29998799999998
 11
117.61186199999997
 21
411.29998799999998
  0
LINE
  8
_0-0_0
  6
CONTINUOUS
 62
    7
 10
117.41671699999995
 20
387.5
 11
100.41671699999995
 21
387.5
  0
LINE
  8
_0-0_0
  6
CONTINUOUS
 62
    7
 10
117.48017899999996
 20
391.29998799999998
 11
117.51710499999996
 21
391.22976699999998
  0
LINE
  8
_0-0_0
  6
CONTINUOUS
 62
    7
 10
117.51710499999996
 20
391.22976699999998
 11
117.53671299999996
 21
391.19528200000002
  0
LINE
  8
_0-0_0
  6
CONTINUOUS
 62
    7
 10
117.53671299999996
 20
391.19528200000002
 11
117.56278999999995
 21
391.15344199999998
  0
LINE
  8
_0-0_0
  6
CONTINUOUS
 62
    7
 10
117.56278999999995
 20
391.15344199999998
 11
117.57611099999997
 21
391.13439899999997
  0
LINE
  8
_0-0_0
  6
CONTINUOUS
 62
    7
 10
117.57611099999997
 20
391.13439899999997
 11
117.59446700000001
 21
391.11200000000002
  0
LINE
  8
_0-0_0
  6
CONTINUOUS
 62
    7
 10
117.59446700000001
 20
391.11200000000002
 11
117.60725400000001
 21
391.10137900000001
  0
LINE
  8
_0-0_0
  6
CONTINUOUS
 62
    7
 10
117.60725400000001
 20
391.10137900000001
 11
117.61186199999997
 21
391.09997600000003
  0
LINE
  8
_0-0_0
  6
CONTINUOUS
 62
    7
 10
117.61408999999998
 20
391.09997600000003
 11
117.61186199999997
 21
391.09997600000003
  0
LINE
  8
_0-0_0
  6
CONTINUOUS
 62
    7
 10
117.48017899999996
 20
411.09997600000003
 11
117.51710499999996
 21
411.17022700000001
  0
LINE
  8
_0-0_0
  6
CONTINUOUS
 62
    7
 10
117.51710499999996
 20
411.17022700000001
 11
117.53671299999996
 21
411.20468099999999
  0
LINE
  8
_0-0_0
  6
CONTINUOUS
 62
    7
 10
117.53671299999996
 20
411.20468099999999
 11
117.56278999999995
 21
411.24652099999997
  0
LINE
  8
_0-0_0
  6
CONTINUOUS
 62
    7
 10
117.56278999999995
 20
411.24652099999997
 11
117.57611099999997
 21
411.26556399999998
  0
LINE
  8
_0-0_0
  6
CONTINUOUS
 62
    7
 10
117.57611099999997
 20
411.26556399999998
 11
117.59446700000001
 21
411.28796399999999
  0
LINE
  8
_0-0_0
  6
CONTINUOUS
 62
    7
 10
117.59446700000001
 20
411.28796399999999
 11
117.60725400000001
 21
411.29858400000001
  0
LINE
  8
_0-0_0
  6
CONTINUOUS
 62
    7
 10
117.60725400000001
 20
411.29858400000001
 11
117.61186199999997
 21
411.29998799999998
  0
LINE
  8
_0-0_0
  6
CONTINUOUS
 62
    7
 10
117.61408999999998
 20
391.09997600000003
 11
117.655395
 21
391.09997600000003
  0
LINE
  8
_0-0_0
  6
CONTINUOUS
 62
    7
 10
117.71672000000001
 20
391.09997600000003
 11
117.655395
 21
391.09997600000003
  0
LINE
  8
_0-0_0
  6
CONTINUOUS
 62
    7
 10
117.655395
 20
391.09997600000003
 11
117.66496299999994
 21
391.09893799999998
  0
LINE
  8
_0-0_0
  6
CONTINUOUS
 62
    7
 10
117.66496299999994
 20
391.09893799999998
 11
117.67445399999997
 21
391.09576399999997
  0
LINE
  8
_0-0_0
  6
CONTINUOUS
 62
    7
 10
117.67445399999997
 20
391.09576399999997
 11
117.68369999999999
 21
391.09036300000002
  0
LINE
  8
_0-0_0
  6
CONTINUOUS
 62
    7
 10
117.68369999999999
 20
391.09036300000002
 11
117.69250499999998
 21
391.082855
  0
LINE
  8
_0-0_0
  6
CONTINUOUS
 62
    7
 10
117.69250499999998
 20
391.082855
 11
117.70790099999999
 21
391.06222500000001
  0
LINE
  8
_0-0_0
  6
CONTINUOUS
 62
    7
 10
117.70790099999999
 20
391.06222500000001
 11
117.71968099999998
 21
391.034943
  0
LINE
  8
_0-0_0
  6
CONTINUOUS
 62
    7
 10
117.71968099999998
 20
391.034943
 11
117.72685200000001
 21
391.00280800000002
  0
LINE
  8
_0-0_0
  6
CONTINUOUS
 62
    7
 10
117.72685200000001
 20
391.00280800000002
 11
117.72874400000001
 21
390.96774299999998
  0
LINE
  8
_0-0_0
  6
CONTINUOUS
 62
    7
 10
117.72874400000001
 20
390.96774299999998
 11
117.72489899999999
 21
390.93158
  0
LINE
  8
_0-0_0
  6
CONTINUOUS
 62
    7
 10
117.72489899999999
 20
390.93158
 11
117.71672000000001
 21
390.89999399999999
  0
ARC
  8
_0-0_0
  6
CONTINUOUS
 62
    7
 10
115.71672000000001
 20
392.39999399999999
 40
2.2999999999999998
 50
280.28656300000006
 51
325.58260500000006
  0
LINE
  8
_0-0_0
  6
CONTINUOUS
 62
    7
 10
117.41671699999995
 20
387.89999399999999
 11
116.21672000000001
 21
387.89999399999999
  0
LINE
  8
_0-0_0
  6
CONTINUOUS
 62
    7
 10
117.41671699999995
 20
387
 11
100.41671699999995
 21
387
  0
LINE
  8
_0-0_0
  6
CONTINUOUS
 62
    7
 10
100.71670499999999
 20
404.19998199999998
 11
100.41671699999995
 21
404.19998199999998
  0
ARC
  8
_0-0_0
  6
CONTINUOUS
 62
    7
 10
101.21672000000001
 20
396.39999399999999
 40
0.5
 50
179.99999099999999
 51
269.99999700000001
  0
CIRCLE
  8
_0-0_0
  6
CONTINUOUS
 62
    7
 10
103.21672000000001
 20
392.89999399999999
 40
2.5
  0
LINE
  8
_0-0_0
  6
CONTINUOUS
 62
    7
 10
106.21672000000001
 20
390.39999399999999
 11
103.21672000000001
 21
390.39999399999999
  0
LINE
  8
_0-0_0
  6
CONTINUOUS
 62
    7
 10
106.71672000000001
 20
390.39999399999999
 11
106.21672000000001
 21
390.39999399999999
  0
ARC
  8
_0-0_0
  6
CONTINUOUS
 62
    7
 10
102.71672000000001
 20
392.39999399999999
 40
2
 50
179.99999099999999
 51
269.99999700000001
  0
LINE
  8
_0-0_0
  6
CONTINUOUS
 62
    7
 10
103.21672000000001
 20
390.39999399999999
 11
102.71672000000001
 21
390.39999399999999
  0
LINE
  8
_0-0_0
  6
CONTINUOUS
 62
    7
 10
102.71672000000001
 20
411.89733899999999
 11
102.70083599999998
 21
411.92459100000002
  0
LINE
  8
_0-0_0
  6
CONTINUOUS
 62
    7
 10
102.70083599999998
 20
411.92459100000002
 11
102.68498199999999
 21
411.94757099999998
  0
LINE
  8
_0-0_0
  6
CONTINUOUS
 62
    7
 10
102.68498199999999
 20
411.94757099999998
 11
102.67100499999998
 21
411.96432499999997
  0
LINE
  8
_0-0_0
  6
CONTINUOUS
 62
    7
 10
102.67100499999998
 20
411.96432499999997
 11
102.657104
 21
411.97766100000001
  0
LINE
  8
_0-0_0
  6
CONTINUOUS
 62
    7
 10
102.657104
 20
411.97766100000001
 11
102.64489699999996
 21
411.986603
  0
LINE
  8
_0-0_0
  6
CONTINUOUS
 62
    7
 10
102.64489699999996
 20
411.986603
 11
102.63278199999996
 21
411.99279799999999
  0
LINE
  8
_0-0_0
  6
CONTINUOUS
 62
    7
 10
102.63278199999996
 20
411.99279799999999
 11
102.62190199999998
 21
411.99609400000003
  0
LINE
  8
_0-0_0
  6
CONTINUOUS
 62
    7
 10
102.62190199999998
 20
411.99609400000003
 11
102.61114499999996
 21
411.99713100000002
  0
LINE
  8
_0-0_0
  6
CONTINUOUS
 62
    7
 10
102.61114499999996
 20
411.99713100000002
 11
102.60868799999997
 21
411.99707000000001
  0
LINE
  8
_0-0_0
  6
CONTINUOUS
 62
    7
 10
117.71672000000001
 20
409.5
 11
117.71672000000001
 21
410
  0
CIRCLE
  8
_0-0_0
  6
CONTINUOUS
 62
    7
 10
115.21672000000001
 20
409.5
 40
2.5
  0
LINE
  8
_0-0_0
  6
CONTINUOUS
 62
    7
 10
117.71672000000001
 20
406.5
 11
117.71672000000001
 21
406
  0
LINE
  8
_0-0_0
  6
CONTINUOUS
 62
    7
 10
117.71672000000001
 20
406.5
 11
117.71672000000001
 21
409.5
  0
ARC
  8
_0-0_0
  6
CONTINUOUS
 62
    7
 10
111.71672000000001
 20
411.5
 40
0.5
 50
0
 51
90.000003000000007
  0
LINE
  8
_0-0_0
  6
CONTINUOUS
 62
    7
 10
117.71672000000001
 20
392.39999399999999
 11
117.71672000000001
 21
406
  0
LINE
  8
_0-0_0
  6
CONTINUOUS
 62
    7
 10
99.716720000000009
 20
413
 11
99.716720000000009
 21
410.40045199999997
  0
LINE
  8
_0-0_0
  6
CONTINUOUS
 62
    7
 10
100.41671699999995
 20
398.19998199999998
 11
100.71670499999999
 21
398.19998199999998
  0
LINE
  8
_0-0_0
  6
CONTINUOUS
 62
    7
 10
117.91671699999995
 20
413.800049
 11
117.91671699999995
 21
414
  0
ARC
  8
_0-0_0
  6
CONTINUOUS
 62
    7
 10
115.71672000000001
 20
392.39999399999999
 40
2
 50
273.84026500000004
 51
0.000010000000014
  0
LINE
  8
_0-0_0
  6
CONTINUOUS
 62
    7
 10
115.71672000000001
 20
390.39999399999999
 11
106.71672000000001
 21
390.39999399999999
  0
ARC
  8
_0-0_0
  6
CONTINUOUS
 62
    7
 10
116.21672000000001
 20
389.64498900000001
 40
0.5
 50
100.28656100000001
 51
179.99999099999999
  0
LINE
  8
_0-0_0
  6
CONTINUOUS
 62
    7
 10
115.71672000000001
 20
388.39999399999999
 11
115.71672000000001
 21
389.64498900000001
  0
ARC
  8
_0-0_0
  6
CONTINUOUS
 62
    7
 10
116.21672000000001
 20
388.39999399999999
 40
0.5
 50
179.99999099999999
 51
269.99999700000001
  0
LINE
  8
_0-0_0
  6
CONTINUOUS
 62
    7
 10
101.29368599999998
 20
395.89999399999999
 11
101.21672000000001
 21
395.89999399999999
  0
LINE
  8
_0-0_0
  6
CONTINUOUS
 62
    7
 10
103.21672000000001
 20
395.89999399999999
 11
102.73521399999998
 21
395.89999399999999
  0
LINE
  8
_0-0_0
  6
CONTINUOUS
 62
    7
 10
102.73521399999998
 20
395.89999399999999
 11
101.29368599999998
 21
395.89999399999999
  0
LINE
  8
_0-0_0
  6
CONTINUOUS
 62
    7
 10
106.21672000000001
 20
390.89999399999999
 11
106.21672000000001
 21
390.97695900000002
  0
LINE
  8
_0-0_0
  6
CONTINUOUS
 62
    7
 10
106.21672000000001
 20
392.41848800000002
 11
106.21672000000001
 21
390.97695900000002
  0
LINE
  8
_0-0_0
  6
CONTINUOUS
 62
    7
 10
106.21672000000001
 20
392.41848800000002
 11
106.21672000000001
 21
392.89999399999999
  0
ARC
  8
_0-0_0
  6
CONTINUOUS
 62
    7
 10
103.21672000000001
 20
392.89999399999999
 40
3
 50
0
 51
89.999995999999996
  0
ARC
  8
_0-0_0
  6
CONTINUOUS
 62
    7
 10
106.71672000000001
 20
390.89999399999999
 40
0.5
 50
179.99999099999999
 51
269.99999700000001
  0
LINE
  8
_0-0_0
  6
CONTINUOUS
 62
    7
 10
112.21672000000001
 20
411.42300399999999
 11
112.21672000000001
 21
411.5
  0
LINE
  8
_0-0_0
  6
CONTINUOUS
 62
    7
 10
112.21672000000001
 20
409.98147599999999
 11
112.21672000000001
 21
411.42300399999999
  0
LINE
  8
_0-0_0
  6
CONTINUOUS
 62
    7
 10
112.21672000000001
 20
409.5
 11
112.21672000000001
 21
409.98147599999999
  0
ARC
  8
_0-0_0
  6
CONTINUOUS
 62
    7
 10
115.21672000000001
 20
409.5
 40
3
 50
179.99999099999999
 51
269.99999700000001
  0
LINE
  8
_0-0_0
  6
CONTINUOUS
 62
    7
 10
115.69821200000001
 20
406.5
 11
115.21672000000001
 21
406.5
  0
LINE
  8
_0-0_0
  6
CONTINUOUS
 62
    7
 10
115.69821200000001
 20
406.5
 11
117.13973999999996
 21
406.5
  0
LINE
  8
_0-0_0
  6
CONTINUOUS
 62
    7
 10
117.21672000000001
 20
406.5
 11
117.13973999999996
 21
406.5
  0
ARC
  8
_0-0_0
  6
CONTINUOUS
 62
    7
 10
117.21672000000001
 20
406
 40
0.5
 50
0
 51
90.000003000000007
  0
LINE
  8
_0-0_0
  6
CONTINUOUS
 62
    7
 10
115.71672000000001
 20
390.50262500000002
 11
115.73258999999996
 21
390.47537199999999
  0
LINE
  8
_0-0_0
  6
CONTINUOUS
 62
    7
 10
115.73258999999996
 20
390.47537199999999
 11
115.74844299999995
 21
390.45239299999997
  0
LINE
  8
_0-0_0
  6
CONTINUOUS
 62
    7
 10
115.74844299999995
 20
390.45239299999997
 11
115.76242099999996
 21
390.43563799999998
  0
LINE
  8
_0-0_0
  6
CONTINUOUS
 62
    7
 10
115.76242099999996
 20
390.43563799999998
 11
115.776321
 21
390.422302
  0
LINE
  8
_0-0_0
  6
CONTINUOUS
 62
    7
 10
115.776321
 20
390.422302
 11
115.788544
 21
390.41339099999999
  0
LINE
  8
_0-0_0
  6
CONTINUOUS
 62
    7
 10
115.788544
 20
390.41339099999999
 11
115.800659
 21
390.40716600000002
  0
LINE
  8
_0-0_0
  6
CONTINUOUS
 62
    7
 10
115.800659
 20
390.40716600000002
 11
115.81152299999997
 21
390.40390000000002
  0
LINE
  8
_0-0_0
  6
CONTINUOUS
 62
    7
 10
115.81152299999997
 20
390.40390000000002
 11
115.82228099999998
 21
390.40283199999999
  0
LINE
  8
_0-0_0
  6
CONTINUOUS
 62
    7
 10
115.82228099999998
 20
390.40283199999999
 11
115.82473699999997
 21
390.40289300000001
  0
ARC
  8
_0-0_0
  6
CONTINUOUS
 62
    7
 10
105.98660299999995
 20
400.02673299999998
 40
3.063399
 50
199.82113599999997
 51
205.28948099999999
  0
ARC
  8
_0-0_0
  6
CONTINUOUS
 62
    7
 10
105.98628199999996
 20
402.37335200000001
 40
3.0630549999999999
 50
154.710137
 51
160.17869999999999
  0
ARC
  8
_0-0_0
  6
CONTINUOUS
 62
    7
 10
109.21672000000001
 20
401.19998199999998
 40
6.5
 50
160.10415599999999
 51
199.895612
  0
ARC
  8
_0-0_0
  6
CONTINUOUS
 62
    7
 10
112.44683799999996
 20
402.37322999999998
 40
3.0633949999999999
 50
19.82113
 51
25.289566000000001
  0
ARC
  8
_0-0_0
  6
CONTINUOUS
 62
    7
 10
112.44715899999994
 20
400.026611
 40
3.0630519999999999
 50
334.71006
 51
340.17869200000001
  0
LINE
  8
_0-0_0
  6
CONTINUOUS
 62
    7
 10
109.95838900000001
 20
394.69998199999998
 11
114.47505200000001
 21
397.30767800000001
  0
LINE
  8
_0-0_0
  6
CONTINUOUS
 62
    7
 10
108.47505200000001
 20
394.69998199999998
 11
109.95838900000001
 21
394.69998199999998
  0
LINE
  8
_0-0_0
  6
CONTINUOUS
 62
    7
 10
103.95838900000001
 20
397.30767800000001
 11
108.47505200000001
 21
394.69998199999998
  0
LINE
  8
_0-0_0
  6
CONTINUOUS
 62
    7
 10
103.21672000000001
 20
403.80767800000001
 11
103.21672000000001
 21
398.592285
  0
LINE
  8
_0-0_0
  6
CONTINUOUS
 62
    7
 10
103.95838900000001
 20
397.30767800000001
 11
103.21672000000001
 21
398.592285
  0
LINE
  8
_0-0_0
  6
CONTINUOUS
 62
    7
 10
108.47505200000001
 20
407.69998199999998
 11
103.95838900000001
 21
405.092285
  0
LINE
  8
_0-0_0
  6
CONTINUOUS
 62
    7
 10
103.66426100000001
 20
404.582855
 11
103.21672000000001
 21
403.80767800000001
  0
LINE
  8
_0-0_0
  6
CONTINUOUS
 62
    7
 10
103.66426100000001
 20
404.582855
 11
103.95838900000001
 21
405.092285
  0
LINE
  8
_0-0_0
  6
CONTINUOUS
 62
    7
 10
109.95838900000001
 20
407.69998199999998
 11
108.47505200000001
 21
407.69998199999998
  0
LINE
  8
_0-0_0
  6
CONTINUOUS
 62
    7
 10
114.47505200000001
 20
405.092285
 11
109.95838900000001
 21
407.69998199999998
  0
ARC
  8
_0-0_0
  6
CONTINUOUS
 62
    7
 10
109.21672000000001
 20
401.19998199999998
 40
6.5
 50
340.10416099999998
 51
19.895609999999952
  0
LINE
  8
_0-0_0
  6
CONTINUOUS
 62
    7
 10
114.76916499999999
 20
397.81710800000002
 11
115.21672000000001
 21
398.592285
  0
LINE
  8
_0-0_0
  6
CONTINUOUS
 62
    7
 10
114.76916499999999
 20
397.81710800000002
 11
114.47505200000001
 21
397.30767800000001
  0
CIRCLE
  8
_0-0_0
  6
CONTINUOUS
 62
    7
 10
109.21672000000001
 20
401.19998199999998
 40
5.25
  0
LINE
  8
_0-0_0
  6
CONTINUOUS
 62
    7
 10
115.21672000000001
 20
403.80767800000001
 11
115.21672000000001
 21
398.592285
  0
LINE
  8
_0-0_0
  6
CONTINUOUS
 62
    7
 10
114.47505200000001
 20
405.092285
 11
115.21672000000001
 21
403.80767800000001
  0
LINE
  8
_0-0_0
  6
CONTINUOUS
 62
    7
 10
117.10372899999999
 20
410.72543300000001
 11
117.38177499999995
 21
410.75
  0
LINE
  8
_0-0_0
  6
CONTINUOUS
 62
    7
 10
117.22148099999998
 20
410.52145400000001
 11
117.38177499999995
 21
410.75
  0
LINE
  8
_0-0_0
  6
CONTINUOUS
 62
    7
 10
116.96530099999995
 20
410.915955
 11
117.23925799999995
 21
410.96945199999999
  0
LINE
  8
_0-0_0
  6
CONTINUOUS
 62
    7
 10
117.10372899999999
 20
410.72543300000001
 11
117.23925799999995
 21
410.96945199999999
  0
LINE
  8
_0-0_0
  6
CONTINUOUS
 62
    7
 10
116.80770899999999
 20
411.09097300000002
 11
117.07458499999996
 21
411.172821
  0
LINE
  8
_0-0_0
  6
CONTINUOUS
 62
    7
 10
116.96530099999995
 20
410.915955
 11
117.07458499999996
 21
411.172821
  0
LINE
  8
_0-0_0
  6
CONTINUOUS
 62
    7
 10
116.63268999999997
 20
411.24856599999998
 11
116.88954200000001
 21
411.35784899999999
  0
LINE
  8
_0-0_0
  6
CONTINUOUS
 62
    7
 10
116.80770899999999
 20
411.09097300000002
 11
116.88954200000001
 21
411.35784899999999
  0
LINE
  8
_0-0_0
  6
CONTINUOUS
 62
    7
 10
116.44215399999996
 20
411.38699300000002
 11
116.686172
 21
411.52252199999998
  0
LINE
  8
_0-0_0
  6
CONTINUOUS
 62
    7
 10
116.63268999999997
 20
411.24856599999998
 11
116.686172
 21
411.52252199999998
  0
LINE
  8
_0-0_0
  6
CONTINUOUS
 62
    7
 10
116.23818999999997
 20
411.50476099999997
 11
116.46672000000001
 21
411.66503899999998
  0
LINE
  8
_0-0_0
  6
CONTINUOUS
 62
    7
 10
116.44215399999996
 20
411.38699300000002
 11
116.46672000000001
 21
411.66503899999998
  0
LINE
  8
_0-0_0
  6
CONTINUOUS
 62
    7
 10
116.02304099999998
 20
411.600525
 11
116.23355099999998
 21
411.78384399999999
  0
LINE
  8
_0-0_0
  6
CONTINUOUS
 62
    7
 10
116.23818999999997
 20
411.50476099999997
 11
116.23355099999998
 21
411.78384399999999
  0
LINE
  8
_0-0_0
  6
CONTINUOUS
 62
    7
 10
115.79905699999995
 20
411.67330900000002
 11
115.98925799999995
 21
411.87762500000002
  0
LINE
  8
_0-0_0
  6
CONTINUOUS
 62
    7
 10
116.02304099999998
 20
411.600525
 11
115.98925799999995
 21
411.87762500000002
  0
LINE
  8
_0-0_0
  6
CONTINUOUS
 62
    7
 10
115.56869499999999
 20
411.72228999999999
 11
115.73649599999999
 21
411.94534299999998
  0
LINE
  8
_0-0_0
  6
CONTINUOUS
 62
    7
 10
115.79905699999995
 20
411.67330900000002
 11
115.73649599999999
 21
411.94534299999998
  0
LINE
  8
_0-0_0
  6
CONTINUOUS
 62
    7
 10
115.334473
 20
411.74688700000002
 11
115.47804199999996
 21
411.98629799999998
  0
LINE
  8
_0-0_0
  6
CONTINUOUS
 62
    7
 10
115.56869499999999
 20
411.72228999999999
 11
115.47804199999996
 21
411.98629799999998
  0
LINE
  8
_0-0_0
  6
CONTINUOUS
 62
    7
 10
115.09895299999999
 20
411.74688700000002
 11
115.21672000000001
 21
412
  0
LINE
  8
_0-0_0
  6
CONTINUOUS
 62
    7
 10
115.334473
 20
411.74688700000002
 11
115.21672000000001
 21
412
  0
LINE
  8
_0-0_0
  6
CONTINUOUS
 62
    7
 10
114.86473100000001
 20
411.72228999999999
 11
114.95539799999995
 21
411.98629799999998
  0
LINE
  8
_0-0_0
  6
CONTINUOUS
 62
    7
 10
115.09895299999999
 20
411.74688700000002
 11
114.95539799999995
 21
411.98629799999998
  0
LINE
  8
_0-0_0
  6
CONTINUOUS
 62
    7
 10
114.63436899999999
 20
411.67330900000002
 11
114.69692999999995
 21
411.94534299999998
  0
LINE
  8
_0-0_0
  6
CONTINUOUS
 62
    7
 10
114.86473100000001
 20
411.72228999999999
 11
114.69692999999995
 21
411.94534299999998
  0
LINE
  8
_0-0_0
  6
CONTINUOUS
 62
    7
 10
114.41038499999996
 20
411.600525
 11
114.44416799999999
 21
411.87762500000002
  0
LINE
  8
_0-0_0
  6
CONTINUOUS
 62
    7
 10
114.63436899999999
 20
411.67330900000002
 11
114.44416799999999
 21
411.87762500000002
  0
LINE
  8
_0-0_0
  6
CONTINUOUS
 62
    7
 10
114.19523599999997
 20
411.50476099999997
 11
114.19987499999996
 21
411.78384399999999
  0
LINE
  8
_0-0_0
  6
CONTINUOUS
 62
    7
 10
114.41038499999996
 20
411.600525
 11
114.19987499999996
 21
411.78384399999999
  0
LINE
  8
_0-0_0
  6
CONTINUOUS
 62
    7
 10
114.07569899999999
 20
411.588593
 11
113.96672000000001
 21
411.66503899999998
  0
LINE
  8
_0-0_0
  6
CONTINUOUS
 62
    7
 10
114.19523599999997
 20
411.50476099999997
 11
114.07569899999999
 21
411.588593
  0
LINE
  8
_0-0_0
  6
CONTINUOUS
 62
    7
 10
113.99127199999998
 20
411.38699300000002
 11
113.96672000000001
 21
411.66503899999998
  0
LINE
  8
_0-0_0
  6
CONTINUOUS
 62
    7
 10
113.80075099999999
 20
411.24856599999998
 11
113.747253
 21
411.52252199999998
  0
LINE
  8
_0-0_0
  6
CONTINUOUS
 62
    7
 10
113.99127199999998
 20
411.38699300000002
 11
113.747253
 21
411.52252199999998
  0
LINE
  8
_0-0_0
  6
CONTINUOUS
 62
    7
 10
113.62573199999997
 20
411.09097300000002
 11
113.54388399999999
 21
411.35784899999999
  0
LINE
  8
_0-0_0
  6
CONTINUOUS
 62
    7
 10
113.80075099999999
 20
411.24856599999998
 11
113.54388399999999
 21
411.35784899999999
  0
LINE
  8
_0-0_0
  6
CONTINUOUS
 62
    7
 10
113.46813999999995
 20
410.915955
 11
113.35885599999995
 21
411.172821
  0
LINE
  8
_0-0_0
  6
CONTINUOUS
 62
    7
 10
113.62573199999997
 20
411.09097300000002
 11
113.35885599999995
 21
411.172821
  0
LINE
  8
_0-0_0
  6
CONTINUOUS
 62
    7
 10
113.32971199999997
 20
410.72543300000001
 11
113.19416799999999
 21
410.96945199999999
  0
LINE
  8
_0-0_0
  6
CONTINUOUS
 62
    7
 10
113.46813999999995
 20
410.915955
 11
113.19416799999999
 21
410.96945199999999
  0
LINE
  8
_0-0_0
  6
CONTINUOUS
 62
    7
 10
113.21194399999996
 20
410.52145400000001
 11
113.05165099999999
 21
410.75
  0
LINE
  8
_0-0_0
  6
CONTINUOUS
 62
    7
 10
113.32971199999997
 20
410.72543300000001
 11
113.05165099999999
 21
410.75
  0
LINE
  8
_0-0_0
  6
CONTINUOUS
 62
    7
 10
113.11616499999997
 20
410.30630500000001
 11
112.93284599999998
 21
410.51681500000001
  0
LINE
  8
_0-0_0
  6
CONTINUOUS
 62
    7
 10
113.21194399999996
 20
410.52145400000001
 11
112.93284599999998
 21
410.51681500000001
  0
LINE
  8
_0-0_0
  6
CONTINUOUS
 62
    7
 10
113.04338099999995
 20
410.082336
 11
112.83908099999996
 21
410.27252199999998
  0
LINE
  8
_0-0_0
  6
CONTINUOUS
 62
    7
 10
113.11616499999997
 20
410.30630500000001
 11
112.83908099999996
 21
410.27252199999998
  0
LINE
  8
_0-0_0
  6
CONTINUOUS
 62
    7
 10
112.994415
 20
409.85195900000002
 11
112.77134699999999
 21
410.01977499999998
  0
LINE
  8
_0-0_0
  6
CONTINUOUS
 62
    7
 10
113.04338099999995
 20
410.082336
 11
112.77134699999999
 21
410.01977499999998
  0
LINE
  8
_0-0_0
  6
CONTINUOUS
 62
    7
 10
112.994415
 20
409.85195900000002
 11
112.73040800000001
 21
409.76129200000003
  0
LINE
  8
_0-0_0
  6
CONTINUOUS
 62
    7
 10
112.96980299999996
 20
409.61773699999998
 11
112.73040800000001
 21
409.76129200000003
  0
LINE
  8
_0-0_0
  6
CONTINUOUS
 62
    7
 10
112.96980299999996
 20
409.38223299999999
 11
112.71672000000001
 21
409.5
  0
LINE
  8
_0-0_0
  6
CONTINUOUS
 62
    7
 10
112.96980299999996
 20
409.61773699999998
 11
112.71672000000001
 21
409.5
  0
LINE
  8
_0-0_0
  6
CONTINUOUS
 62
    7
 10
112.994415
 20
409.14801
 11
112.73040800000001
 21
409.23864700000001
  0
LINE
  8
_0-0_0
  6
CONTINUOUS
 62
    7
 10
112.96980299999996
 20
409.38223299999999
 11
112.73040800000001
 21
409.23864700000001
  0
LINE
  8
_0-0_0
  6
CONTINUOUS
 62
    7
 10
113.04338099999995
 20
408.91763300000002
 11
112.77134699999999
 21
408.98019399999998
  0
LINE
  8
_0-0_0
  6
CONTINUOUS
 62
    7
 10
112.994415
 20
409.14801
 11
112.77134699999999
 21
408.98019399999998
  0
LINE
  8
_0-0_0
  6
CONTINUOUS
 62
    7
 10
113.11616499999997
 20
408.69366500000001
 11
112.83908099999996
 21
408.72744799999998
  0
LINE
  8
_0-0_0
  6
CONTINUOUS
 62
    7
 10
113.04338099999995
 20
408.91763300000002
 11
112.83908099999996
 21
408.72744799999998
  0
LINE
  8
_0-0_0
  6
CONTINUOUS
 62
    7
 10
113.21194399999996
 20
408.47851600000001
 11
112.93284599999998
 21
408.48315400000001
  0
LINE
  8
_0-0_0
  6
CONTINUOUS
 62
    7
 10
113.11616499999997
 20
408.69366500000001
 11
112.93284599999998
 21
408.48315400000001
  0
LINE
  8
_0-0_0
  6
CONTINUOUS
 62
    7
 10
113.32971199999997
 20
408.27453600000001
 11
113.05165099999999
 21
408.25
  0
LINE
  8
_0-0_0
  6
CONTINUOUS
 62
    7
 10
113.21194399999996
 20
408.47851600000001
 11
113.05165099999999
 21
408.25
  0
LINE
  8
_0-0_0
  6
CONTINUOUS
 62
    7
 10
113.46813999999995
 20
408.08401500000002
 11
113.19416799999999
 21
408.03051799999997
  0
LINE
  8
_0-0_0
  6
CONTINUOUS
 62
    7
 10
113.32971199999997
 20
408.27453600000001
 11
113.19416799999999
 21
408.03051799999997
  0
LINE
  8
_0-0_0
  6
CONTINUOUS
 62
    7
 10
113.62573199999997
 20
407.908997
 11
113.35885599999995
 21
407.82714800000002
  0
LINE
  8
_0-0_0
  6
CONTINUOUS
 62
    7
 10
113.46813999999995
 20
408.08401500000002
 11
113.35885599999995
 21
407.82714800000002
  0
LINE
  8
_0-0_0
  6
CONTINUOUS
 62
    7
 10
113.80075099999999
 20
407.75140399999998
 11
113.54388399999999
 21
407.64211999999998
  0
LINE
  8
_0-0_0
  6
CONTINUOUS
 62
    7
 10
113.62573199999997
 20
407.908997
 11
113.54388399999999
 21
407.64211999999998
  0
LINE
  8
_0-0_0
  6
CONTINUOUS
 62
    7
 10
113.99127199999998
 20
407.612976
 11
113.747253
 21
407.47744799999998
  0
LINE
  8
_0-0_0
  6
CONTINUOUS
 62
    7
 10
113.80075099999999
 20
407.75140399999998
 11
113.747253
 21
407.47744799999998
  0
LINE
  8
_0-0_0
  6
CONTINUOUS
 62
    7
 10
114.19523599999997
 20
407.49520899999999
 11
113.96672000000001
 21
407.33492999999999
  0
LINE
  8
_0-0_0
  6
CONTINUOUS
 62
    7
 10
113.99127199999998
 20
407.612976
 11
113.96672000000001
 21
407.33492999999999
  0
LINE
  8
_0-0_0
  6
CONTINUOUS
 62
    7
 10
114.41038499999996
 20
407.39941399999998
 11
114.19987499999996
 21
407.21612499999998
  0
LINE
  8
_0-0_0
  6
CONTINUOUS
 62
    7
 10
114.19523599999997
 20
407.49520899999999
 11
114.19987499999996
 21
407.21612499999998
  0
LINE
  8
_0-0_0
  6
CONTINUOUS
 62
    7
 10
114.63436899999999
 20
407.32666
 11
114.44416799999999
 21
407.122345
  0
LINE
  8
_0-0_0
  6
CONTINUOUS
 62
    7
 10
114.41038499999996
 20
407.39941399999998
 11
114.44416799999999
 21
407.122345
  0
LINE
  8
_0-0_0
  6
CONTINUOUS
 62
    7
 10
114.86473100000001
 20
407.27767899999998
 11
114.69692999999995
 21
407.05462599999998
  0
LINE
  8
_0-0_0
  6
CONTINUOUS
 62
    7
 10
114.63436899999999
 20
407.32666
 11
114.69692999999995
 21
407.05462599999998
  0
LINE
  8
_0-0_0
  6
CONTINUOUS
 62
    7
 10
115.09895299999999
 20
407.25305200000003
 11
114.95539799999995
 21
407.01367199999999
  0
LINE
  8
_0-0_0
  6
CONTINUOUS
 62
    7
 10
114.86473100000001
 20
407.27767899999998
 11
114.95539799999995
 21
407.01367199999999
  0
LINE
  8
_0-0_0
  6
CONTINUOUS
 62
    7
 10
115.334473
 20
407.25305200000003
 11
115.21672000000001
 21
407
  0
LINE
  8
_0-0_0
  6
CONTINUOUS
 62
    7
 10
115.09895299999999
 20
407.25305200000003
 11
115.21672000000001
 21
407
  0
LINE
  8
_0-0_0
  6
CONTINUOUS
 62
    7
 10
115.56869499999999
 20
407.27767899999998
 11
115.47804199999996
 21
407.01367199999999
  0
LINE
  8
_0-0_0
  6
CONTINUOUS
 62
    7
 10
115.334473
 20
407.25305200000003
 11
115.47804199999996
 21
407.01367199999999
  0
LINE
  8
_0-0_0
  6
CONTINUOUS
 62
    7
 10
115.79905699999995
 20
407.32666
 11
115.73649599999999
 21
407.05462599999998
  0
LINE
  8
_0-0_0
  6
CONTINUOUS
 62
    7
 10
115.56869499999999
 20
407.27767899999998
 11
115.73649599999999
 21
407.05462599999998
  0
LINE
  8
_0-0_0
  6
CONTINUOUS
 62
    7
 10
116.02304099999998
 20
407.39941399999998
 11
115.98925799999995
 21
407.122345
  0
LINE
  8
_0-0_0
  6
CONTINUOUS
 62
    7
 10
115.79905699999995
 20
407.32666
 11
115.98925799999995
 21
407.122345
  0
LINE
  8
_0-0_0
  6
CONTINUOUS
 62
    7
 10
116.23818999999997
 20
407.49520899999999
 11
116.23355099999998
 21
407.21612499999998
  0
LINE
  8
_0-0_0
  6
CONTINUOUS
 62
    7
 10
116.02304099999998
 20
407.39941399999998
 11
116.23355099999998
 21
407.21612499999998
  0
LINE
  8
_0-0_0
  6
CONTINUOUS
 62
    7
 10
116.35772699999995
 20
407.41137700000002
 11
116.46672000000001
 21
407.33492999999999
  0
LINE
  8
_0-0_0
  6
CONTINUOUS
 62
    7
 10
116.23818999999997
 20
407.49520899999999
 11
116.35772699999995
 21
407.41137700000002
  0
LINE
  8
_0-0_0
  6
CONTINUOUS
 62
    7
 10
116.44215399999996
 20
407.612976
 11
116.46672000000001
 21
407.33492999999999
  0
LINE
  8
_0-0_0
  6
CONTINUOUS
 62
    7
 10
116.63268999999997
 20
407.75140399999998
 11
116.686172
 21
407.47744799999998
  0
LINE
  8
_0-0_0
  6
CONTINUOUS
 62
    7
 10
116.44215399999996
 20
407.612976
 11
116.686172
 21
407.47744799999998
  0
LINE
  8
_0-0_0
  6
CONTINUOUS
 62
    7
 10
116.80770899999999
 20
407.908997
 11
116.88954200000001
 21
407.64211999999998
  0
LINE
  8
_0-0_0
  6
CONTINUOUS
 62
    7
 10
116.63268999999997
 20
407.75140399999998
 11
116.88954200000001
 21
407.64211999999998
  0
LINE
  8
_0-0_0
  6
CONTINUOUS
 62
    7
 10
116.96530099999995
 20
408.08401500000002
 11
117.07458499999996
 21
407.82714800000002
  0
LINE
  8
_0-0_0
  6
CONTINUOUS
 62
    7
 10
116.80770899999999
 20
407.908997
 11
117.07458499999996
 21
407.82714800000002
  0
LINE
  8
_0-0_0
  6
CONTINUOUS
 62
    7
 10
117.10372899999999
 20
408.27453600000001
 11
117.23925799999995
 21
408.03051799999997
  0
LINE
  8
_0-0_0
  6
CONTINUOUS
 62
    7
 10
116.96530099999995
 20
408.08401500000002
 11
117.23925799999995
 21
408.03051799999997
  0
LINE
  8
_0-0_0
  6
CONTINUOUS
 62
    7
 10
117.22148099999998
 20
408.47851600000001
 11
117.38177499999995
 21
408.25
  0
LINE
  8
_0-0_0
  6
CONTINUOUS
 62
    7
 10
117.10372899999999
 20
408.27453600000001
 11
117.38177499999995
 21
408.25
  0
LINE
  8
_0-0_0
  6
CONTINUOUS
 62
    7
 10
117.31727599999999
 20
408.69366500000001
 11
117.50057999999996
 21
408.48315400000001
  0
LINE
  8
_0-0_0
  6
CONTINUOUS
 62
    7
 10
117.22148099999998
 20
408.47851600000001
 11
117.50057999999996
 21
408.48315400000001
  0
LINE
  8
_0-0_0
  6
CONTINUOUS
 62
    7
 10
117.39004499999999
 20
408.91763300000002
 11
117.59435999999999
 21
408.72744799999998
  0
LINE
  8
_0-0_0
  6
CONTINUOUS
 62
    7
 10
117.31727599999999
 20
408.69366500000001
 11
117.59435999999999
 21
408.72744799999998
  0
LINE
  8
_0-0_0
  6
CONTINUOUS
 62
    7
 10
117.43901099999999
 20
409.14801
 11
117.66207899999995
 21
408.98019399999998
  0
LINE
  8
_0-0_0
  6
CONTINUOUS
 62
    7
 10
117.39004499999999
 20
408.91763300000002
 11
117.66207899999995
 21
408.98019399999998
  0
LINE
  8
_0-0_0
  6
CONTINUOUS
 62
    7
 10
117.46363799999995
 20
409.38223299999999
 11
117.70301799999999
 21
409.23864700000001
  0
LINE
  8
_0-0_0
  6
CONTINUOUS
 62
    7
 10
117.43901099999999
 20
409.14801
 11
117.70301799999999
 21
409.23864700000001
  0
LINE
  8
_0-0_0
  6
CONTINUOUS
 62
    7
 10
117.46363799999995
 20
409.61773699999998
 11
117.71672000000001
 21
409.5
  0
LINE
  8
_0-0_0
  6
CONTINUOUS
 62
    7
 10
117.46363799999995
 20
409.38223299999999
 11
117.71672000000001
 21
409.5
  0
LINE
  8
_0-0_0
  6
CONTINUOUS
 62
    7
 10
117.43901099999999
 20
409.85195900000002
 11
117.70301799999999
 21
409.76129200000003
  0
LINE
  8
_0-0_0
  6
CONTINUOUS
 62
    7
 10
117.46363799999995
 20
409.61773699999998
 11
117.70301799999999
 21
409.76129200000003
  0
LINE
  8
_0-0_0
  6
CONTINUOUS
 62
    7
 10
117.39004499999999
 20
410.082336
 11
117.66207899999995
 21
410.01977499999998
  0
LINE
  8
_0-0_0
  6
CONTINUOUS
 62
    7
 10
117.43901099999999
 20
409.85195900000002
 11
117.66207899999995
 21
410.01977499999998
  0
LINE
  8
_0-0_0
  6
CONTINUOUS
 62
    7
 10
117.31727599999999
 20
410.30630500000001
 11
117.59435999999999
 21
410.27252199999998
  0
LINE
  8
_0-0_0
  6
CONTINUOUS
 62
    7
 10
117.39004499999999
 20
410.082336
 11
117.59435999999999
 21
410.27252199999998
  0
LINE
  8
_0-0_0
  6
CONTINUOUS
 62
    7
 10
117.22148099999998
 20
410.52145400000001
 11
117.50057999999996
 21
410.51681500000001
  0
LINE
  8
_0-0_0
  6
CONTINUOUS
 62
    7
 10
117.31727599999999
 20
410.30630500000001
 11
117.50057999999996
 21
410.51681500000001
  0
CIRCLE
  8
_0-0_0
  6
CONTINUOUS
 62
    7
 10
115.21672000000001
 20
409.5
 40
2
  0
CIRCLE
  8
_0-0_0
  6
CONTINUOUS
 62
    7
 10
109.21672000000001
 20
401.19998199999998
 40
5
  0
LINE
  8
_0-0_0
  6
CONTINUOUS
 62
    7
 10
115.79882799999996
 20
408.5
 11
114.63461299999994
 21
408.5
  0
LINE
  8
_0-0_0
  6
CONTINUOUS
 62
    7
 10
114.63461299999994
 20
408.5
 11
114.066711
 21
409.5
  0
LINE
  8
_0-0_0
  6
CONTINUOUS
 62
    7
 10
114.066711
 20
409.5
 11
114.63461299999994
 21
410.5
  0
LINE
  8
_0-0_0
  6
CONTINUOUS
 62
    7
 10
114.63461299999994
 20
410.5
 11
115.79882799999996
 21
410.5
  0
LINE
  8
_0-0_0
  6
CONTINUOUS
 62
    7
 10
115.79882799999996
 20
410.5
 11
116.366714
 21
409.5
  0
LINE
  8
_0-0_0
  6
CONTINUOUS
 62
    7
 10
116.366714
 20
409.5
 11
115.79882799999996
 21
408.5
  0
CIRCLE
  8
_0-0_0
  6
CONTINUOUS
 62
    7
 10
109.21672000000001
 20
401.19998199999998
 40
4.5381200000000002
  0
CIRCLE
  8
_0-0_0
  6
CONTINUOUS
 62
    7
 10
109.21672000000001
 20
401.19998199999998
 40
4
  0
LINE
  8
_0-0_0
  6
CONTINUOUS
 62
    7
 10
101.32971199999997
 20
391.67453
 11
101.05165099999999
 21
391.64999399999999
  0
LINE
  8
_0-0_0
  6
CONTINUOUS
 62
    7
 10
101.21194399999996
 20
391.87851000000001
 11
101.05165099999999
 21
391.64999399999999
  0
LINE
  8
_0-0_0
  6
CONTINUOUS
 62
    7
 10
101.46813999999995
 20
391.48400900000001
 11
101.19416799999999
 21
391.43051100000002
  0
LINE
  8
_0-0_0
  6
CONTINUOUS
 62
    7
 10
101.32971199999997
 20
391.67453
 11
101.19416799999999
 21
391.43051100000002
  0
LINE
  8
_0-0_0
  6
CONTINUOUS
 62
    7
 10
101.62573199999997
 20
391.30898999999999
 11
101.35885599999995
 21
391.22717299999999
  0
LINE
  8
_0-0_0
  6
CONTINUOUS
 62
    7
 10
101.46813999999995
 20
391.48400900000001
 11
101.35885599999995
 21
391.22717299999999
  0
LINE
  8
_0-0_0
  6
CONTINUOUS
 62
    7
 10
101.80075099999999
 20
391.15139799999997
 11
101.54388399999999
 21
391.04211400000003
  0
LINE
  8
_0-0_0
  6
CONTINUOUS
 62
    7
 10
101.62573199999997
 20
391.30898999999999
 11
101.54388399999999
 21
391.04211400000003
  0
LINE
  8
_0-0_0
  6
CONTINUOUS
 62
    7
 10
101.99127199999998
 20
391.01297
 11
101.747253
 21
390.87744099999998
  0
LINE
  8
_0-0_0
  6
CONTINUOUS
 62
    7
 10
101.80075099999999
 20
391.15139799999997
 11
101.747253
 21
390.87744099999998
  0
LINE
  8
_0-0_0
  6
CONTINUOUS
 62
    7
 10
102.19523599999997
 20
390.89520299999998
 11
101.96672000000001
 21
390.73492399999998
  0
LINE
  8
_0-0_0
  6
CONTINUOUS
 62
    7
 10
101.99127199999998
 20
391.01297
 11
101.96672000000001
 21
390.73492399999998
  0
LINE
  8
_0-0_0
  6
CONTINUOUS
 62
    7
 10
102.41038499999996
 20
390.79943800000001
 11
102.19987499999996
 21
390.61611900000003
  0
LINE
  8
_0-0_0
  6
CONTINUOUS
 62
    7
 10
102.19523599999997
 20
390.89520299999998
 11
102.19987499999996
 21
390.61611900000003
  0
LINE
  8
_0-0_0
  6
CONTINUOUS
 62
    7
 10
102.63436899999999
 20
390.726654
 11
102.44416799999999
 21
390.52233899999999
  0
LINE
  8
_0-0_0
  6
CONTINUOUS
 62
    7
 10
102.41038499999996
 20
390.79943800000001
 11
102.44416799999999
 21
390.52233899999999
  0
LINE
  8
_0-0_0
  6
CONTINUOUS
 62
    7
 10
102.86474599999997
 20
390.67770400000001
 11
102.69692999999995
 21
390.45461999999998
  0
LINE
  8
_0-0_0
  6
CONTINUOUS
 62
    7
 10
102.63436899999999
 20
390.726654
 11
102.69692999999995
 21
390.45461999999998
  0
LINE
  8
_0-0_0
  6
CONTINUOUS
 62
    7
 10
103.09895299999999
 20
390.653076
 11
102.95539799999995
 21
390.41369600000002
  0
LINE
  8
_0-0_0
  6
CONTINUOUS
 62
    7
 10
102.86474599999997
 20
390.67770400000001
 11
102.95539799999995
 21
390.41369600000002
  0
LINE
  8
_0-0_0
  6
CONTINUOUS
 62
    7
 10
103.334473
 20
390.653076
 11
103.21672000000001
 21
390.39999399999999
  0
LINE
  8
_0-0_0
  6
CONTINUOUS
 62
    7
 10
103.09895299999999
 20
390.653076
 11
103.21672000000001
 21
390.39999399999999
  0
LINE
  8
_0-0_0
  6
CONTINUOUS
 62
    7
 10
103.56869499999999
 20
390.67770400000001
 11
103.47804199999996
 21
390.41369600000002
  0
LINE
  8
_0-0_0
  6
CONTINUOUS
 62
    7
 10
103.334473
 20
390.653076
 11
103.47804199999996
 21
390.41369600000002
  0
LINE
  8
_0-0_0
  6
CONTINUOUS
 62
    7
 10
103.79905699999995
 20
390.726654
 11
103.73649599999999
 21
390.45461999999998
  0
LINE
  8
_0-0_0
  6
CONTINUOUS
 62
    7
 10
103.56869499999999
 20
390.67770400000001
 11
103.73649599999999
 21
390.45461999999998
  0
LINE
  8
_0-0_0
  6
CONTINUOUS
 62
    7
 10
104.02304099999998
 20
390.79943800000001
 11
103.98925799999995
 21
390.52233899999999
  0
LINE
  8
_0-0_0
  6
CONTINUOUS
 62
    7
 10
103.79905699999995
 20
390.726654
 11
103.98925799999995
 21
390.52233899999999
  0
LINE
  8
_0-0_0
  6
CONTINUOUS
 62
    7
 10
104.23818999999997
 20
390.89520299999998
 11
104.23355099999998
 21
390.61611900000003
  0
LINE
  8
_0-0_0
  6
CONTINUOUS
 62
    7
 10
104.02304099999998
 20
390.79943800000001
 11
104.23355099999998
 21
390.61611900000003
  0
LINE
  8
_0-0_0
  6
CONTINUOUS
 62
    7
 10
104.35772699999995
 20
390.81137100000001
 11
104.46672000000001
 21
390.73492399999998
  0
LINE
  8
_0-0_0
  6
CONTINUOUS
 62
    7
 10
104.23818999999997
 20
390.89520299999998
 11
104.35772699999995
 21
390.81137100000001
  0
LINE
  8
_0-0_0
  6
CONTINUOUS
 62
    7
 10
104.44215399999996
 20
391.01297
 11
104.46672000000001
 21
390.73492399999998
  0
LINE
  8
_0-0_0
  6
CONTINUOUS
 62
    7
 10
104.63268999999997
 20
391.15139799999997
 11
104.686172
 21
390.87744099999998
  0
LINE
  8
_0-0_0
  6
CONTINUOUS
 62
    7
 10
104.44215399999996
 20
391.01297
 11
104.686172
 21
390.87744099999998
  0
LINE
  8
_0-0_0
  6
CONTINUOUS
 62
    7
 10
104.80770899999999
 20
391.30898999999999
 11
104.88954200000001
 21
391.04211400000003
  0
LINE
  8
_0-0_0
  6
CONTINUOUS
 62
    7
 10
104.63268999999997
 20
391.15139799999997
 11
104.88954200000001
 21
391.04211400000003
  0
LINE
  8
_0-0_0
  6
CONTINUOUS
 62
    7
 10
104.96530099999995
 20
391.48400900000001
 11
105.07458499999996
 21
391.22717299999999
  0
LINE
  8
_0-0_0
  6
CONTINUOUS
 62
    7
 10
104.80770899999999
 20
391.30898999999999
 11
105.07458499999996
 21
391.22717299999999
  0
LINE
  8
_0-0_0
  6
CONTINUOUS
 62
    7
 10
105.10372899999999
 20
391.67453
 11
105.23925799999995
 21
391.43051100000002
  0
LINE
  8
_0-0_0
  6
CONTINUOUS
 62
    7
 10
104.96530099999995
 20
391.48400900000001
 11
105.23925799999995
 21
391.43051100000002
  0
LINE
  8
_0-0_0
  6
CONTINUOUS
 62
    7
 10
105.22148099999998
 20
391.87851000000001
 11
105.38177499999995
 21
391.64999399999999
  0
LINE
  8
_0-0_0
  6
CONTINUOUS
 62
    7
 10
105.10372899999999
 20
391.67453
 11
105.38177499999995
 21
391.64999399999999
  0
LINE
  8
_0-0_0
  6
CONTINUOUS
 62
    7
 10
105.31727599999999
 20
392.093658
 11
105.50057999999996
 21
391.88314800000001
  0
LINE
  8
_0-0_0
  6
CONTINUOUS
 62
    7
 10
105.22148099999998
 20
391.87851000000001
 11
105.50057999999996
 21
391.88314800000001
  0
LINE
  8
_0-0_0
  6
CONTINUOUS
 62
    7
 10
105.39004499999999
 20
392.31762700000002
 11
105.59435999999999
 21
392.12744099999998
  0
LINE
  8
_0-0_0
  6
CONTINUOUS
 62
    7
 10
105.31727599999999
 20
392.093658
 11
105.59435999999999
 21
392.12744099999998
  0
LINE
  8
_0-0_0
  6
CONTINUOUS
 62
    7
 10
105.43901099999999
 20
392.54800399999999
 11
105.66207899999995
 21
392.38018799999998
  0
LINE
  8
_0-0_0
  6
CONTINUOUS
 62
    7
 10
105.39004499999999
 20
392.31762700000002
 11
105.66207899999995
 21
392.38018799999998
  0
LINE
  8
_0-0_0
  6
CONTINUOUS
 62
    7
 10
105.46363799999995
 20
392.78222699999998
 11
105.70301799999999
 21
392.63867199999999
  0
LINE
  8
_0-0_0
  6
CONTINUOUS
 62
    7
 10
105.43901099999999
 20
392.54800399999999
 11
105.70301799999999
 21
392.63867199999999
  0
LINE
  8
_0-0_0
  6
CONTINUOUS
 62
    7
 10
105.46363799999995
 20
393.01773100000003
 11
105.71672000000001
 21
392.89999399999999
  0
LINE
  8
_0-0_0
  6
CONTINUOUS
 62
    7
 10
105.46363799999995
 20
392.78222699999998
 11
105.71672000000001
 21
392.89999399999999
  0
LINE
  8
_0-0_0
  6
CONTINUOUS
 62
    7
 10
105.43901099999999
 20
393.25195300000001
 11
105.70301799999999
 21
393.161316
  0
LINE
  8
_0-0_0
  6
CONTINUOUS
 62
    7
 10
105.46363799999995
 20
393.01773100000003
 11
105.70301799999999
 21
393.161316
  0
LINE
  8
_0-0_0
  6
CONTINUOUS
 62
    7
 10
105.39004499999999
 20
393.48232999999999
 11
105.66207899999995
 21
393.41976899999997
  0
LINE
  8
_0-0_0
  6
CONTINUOUS
 62
    7
 10
105.43901099999999
 20
393.25195300000001
 11
105.66207899999995
 21
393.41976899999997
  0
LINE
  8
_0-0_0
  6
CONTINUOUS
 62
    7
 10
105.31727599999999
 20
393.706299
 11
105.59435999999999
 21
393.67251599999997
  0
LINE
  8
_0-0_0
  6
CONTINUOUS
 62
    7
 10
105.39004499999999
 20
393.48232999999999
 11
105.59435999999999
 21
393.67251599999997
  0
LINE
  8
_0-0_0
  6
CONTINUOUS
 62
    7
 10
105.22148099999998
 20
393.921448
 11
105.50057999999996
 21
393.916809
  0
LINE
  8
_0-0_0
  6
CONTINUOUS
 62
    7
 10
105.31727599999999
 20
393.706299
 11
105.50057999999996
 21
393.916809
  0
LINE
  8
_0-0_0
  6
CONTINUOUS
 62
    7
 10
105.10372899999999
 20
394.125427
 11
105.38177499999995
 21
394.14999399999999
  0
LINE
  8
_0-0_0
  6
CONTINUOUS
 62
    7
 10
105.22148099999998
 20
393.921448
 11
105.38177499999995
 21
394.14999399999999
  0
LINE
  8
_0-0_0
  6
CONTINUOUS
 62
    7
 10
101.80075099999999
 20
394.64855999999997
 11
101.747253
 21
394.92251599999997
  0
LINE
  8
_0-0_0
  6
CONTINUOUS
 62
    7
 10
101.80075099999999
 20
394.64855999999997
 11
101.54388399999999
 21
394.75784299999998
  0
LINE
  8
_0-0_0
  6
CONTINUOUS
 62
    7
 10
101.62573199999997
 20
394.49096700000001
 11
101.54388399999999
 21
394.75784299999998
  0
LINE
  8
_0-0_0
  6
CONTINUOUS
 62
    7
 10
101.62573199999997
 20
394.49096700000001
 11
101.35885599999995
 21
394.57281499999999
  0
LINE
  8
_0-0_0
  6
CONTINUOUS
 62
    7
 10
101.46813999999995
 20
394.31594799999999
 11
101.35885599999995
 21
394.57281499999999
  0
LINE
  8
_0-0_0
  6
CONTINUOUS
 62
    7
 10
101.46813999999995
 20
394.31594799999999
 11
101.19416799999999
 21
394.36944599999998
  0
LINE
  8
_0-0_0
  6
CONTINUOUS
 62
    7
 10
101.32971199999997
 20
394.125427
 11
101.19416799999999
 21
394.36944599999998
  0
LINE
  8
_0-0_0
  6
CONTINUOUS
 62
    7
 10
101.32971199999997
 20
394.125427
 11
101.05165099999999
 21
394.14999399999999
  0
LINE
  8
_0-0_0
  6
CONTINUOUS
 62
    7
 10
101.21194399999996
 20
393.921448
 11
101.05165099999999
 21
394.14999399999999
  0
LINE
  8
_0-0_0
  6
CONTINUOUS
 62
    7
 10
101.21194399999996
 20
393.921448
 11
100.93284599999998
 21
393.916809
  0
LINE
  8
_0-0_0
  6
CONTINUOUS
 62
    7
 10
101.11616499999997
 20
393.706299
 11
100.93284599999998
 21
393.916809
  0
LINE
  8
_0-0_0
  6
CONTINUOUS
 62
    7
 10
101.11616499999997
 20
393.706299
 11
100.83908099999996
 21
393.67251599999997
  0
LINE
  8
_0-0_0
  6
CONTINUOUS
 62
    7
 10
101.04338099999995
 20
393.48232999999999
 11
100.83908099999996
 21
393.67251599999997
  0
LINE
  8
_0-0_0
  6
CONTINUOUS
 62
    7
 10
101.04338099999995
 20
393.48232999999999
 11
100.77134699999999
 21
393.41976899999997
  0
LINE
  8
_0-0_0
  6
CONTINUOUS
 62
    7
 10
100.994415
 20
393.25195300000001
 11
100.77134699999999
 21
393.41976899999997
  0
LINE
  8
_0-0_0
  6
CONTINUOUS
 62
    7
 10
100.994415
 20
393.25195300000001
 11
100.73040800000001
 21
393.161316
  0
LINE
  8
_0-0_0
  6
CONTINUOUS
 62
    7
 10
100.96980299999996
 20
393.01773100000003
 11
100.73040800000001
 21
393.161316
  0
LINE
  8
_0-0_0
  6
CONTINUOUS
 62
    7
 10
100.96980299999996
 20
393.01773100000003
 11
100.71672000000001
 21
392.89999399999999
  0
LINE
  8
_0-0_0
  6
CONTINUOUS
 62
    7
 10
100.96980299999996
 20
392.78222699999998
 11
100.71672000000001
 21
392.89999399999999
  0
LINE
  8
_0-0_0
  6
CONTINUOUS
 62
    7
 10
100.96980299999996
 20
392.78222699999998
 11
100.73040800000001
 21
392.63867199999999
  0
LINE
  8
_0-0_0
  6
CONTINUOUS
 62
    7
 10
100.994415
 20
392.54800399999999
 11
100.73040800000001
 21
392.63867199999999
  0
LINE
  8
_0-0_0
  6
CONTINUOUS
 62
    7
 10
100.994415
 20
392.54800399999999
 11
100.77134699999999
 21
392.38018799999998
  0
LINE
  8
_0-0_0
  6
CONTINUOUS
 62
    7
 10
101.04338099999995
 20
392.31762700000002
 11
100.77134699999999
 21
392.38018799999998
  0
LINE
  8
_0-0_0
  6
CONTINUOUS
 62
    7
 10
101.04338099999995
 20
392.31762700000002
 11
100.83908099999996
 21
392.12744099999998
  0
LINE
  8
_0-0_0
  6
CONTINUOUS
 62
    7
 10
101.11616499999997
 20
392.093658
 11
100.83908099999996
 21
392.12744099999998
  0
LINE
  8
_0-0_0
  6
CONTINUOUS
 62
    7
 10
101.11616499999997
 20
392.093658
 11
100.93284599999998
 21
391.88314800000001
  0
LINE
  8
_0-0_0
  6
CONTINUOUS
 62
    7
 10
101.21194399999996
 20
391.87851000000001
 11
100.93284599999998
 21
391.88314800000001
  0
CIRCLE
  8
_0-0_0
  6
CONTINUOUS
 62
    7
 10
103.21672000000001
 20
392.89999399999999
 40
2
  0
LINE
  8
_0-0_0
  6
CONTINUOUS
 62
    7
 10
102.07569899999999
 20
394.988586
 11
101.96672000000001
 21
395.06506300000001
  0
LINE
  8
_0-0_0
  6
CONTINUOUS
 62
    7
 10
101.99127199999998
 20
394.78698700000001
 11
101.96672000000001
 21
395.06506300000001
  0
LINE
  8
_0-0_0
  6
CONTINUOUS
 62
    7
 10
101.99127199999998
 20
394.78698700000001
 11
101.747253
 21
394.92251599999997
  0
LINE
  8
_0-0_0
  6
CONTINUOUS
 62
    7
 10
105.10372899999999
 20
394.125427
 11
105.23925799999995
 21
394.36944599999998
  0
LINE
  8
_0-0_0
  6
CONTINUOUS
 62
    7
 10
104.96530099999995
 20
394.31594799999999
 11
105.23925799999995
 21
394.36944599999998
  0
LINE
  8
_0-0_0
  6
CONTINUOUS
 62
    7
 10
104.96530099999995
 20
394.31594799999999
 11
105.07458499999996
 21
394.57281499999999
  0
LINE
  8
_0-0_0
  6
CONTINUOUS
 62
    7
 10
104.80770899999999
 20
394.49096700000001
 11
105.07458499999996
 21
394.57281499999999
  0
LINE
  8
_0-0_0
  6
CONTINUOUS
 62
    7
 10
104.80770899999999
 20
394.49096700000001
 11
104.88954200000001
 21
394.75784299999998
  0
LINE
  8
_0-0_0
  6
CONTINUOUS
 62
    7
 10
104.63268999999997
 20
394.64855999999997
 11
104.88954200000001
 21
394.75784299999998
  0
LINE
  8
_0-0_0
  6
CONTINUOUS
 62
    7
 10
104.63268999999997
 20
394.64855999999997
 11
104.686172
 21
394.92251599999997
  0
LINE
  8
_0-0_0
  6
CONTINUOUS
 62
    7
 10
104.44215399999996
 20
394.78698700000001
 11
104.686172
 21
394.92251599999997
  0
LINE
  8
_0-0_0
  6
CONTINUOUS
 62
    7
 10
104.44215399999996
 20
394.78698700000001
 11
104.46672000000001
 21
395.06506300000001
  0
LINE
  8
_0-0_0
  6
CONTINUOUS
 62
    7
 10
104.23818999999997
 20
394.90475500000002
 11
104.46672000000001
 21
395.06506300000001
  0
LINE
  8
_0-0_0
  6
CONTINUOUS
 62
    7
 10
104.23818999999997
 20
394.90475500000002
 11
104.23355099999998
 21
395.18383799999998
  0
LINE
  8
_0-0_0
  6
CONTINUOUS
 62
    7
 10
104.02304099999998
 20
395.00054899999998
 11
104.23355099999998
 21
395.18383799999998
  0
LINE
  8
_0-0_0
  6
CONTINUOUS
 62
    7
 10
104.02304099999998
 20
395.00054899999998
 11
103.98925799999995
 21
395.27761800000002
  0
LINE
  8
_0-0_0
  6
CONTINUOUS
 62
    7
 10
103.79905699999995
 20
395.07330300000001
 11
103.98925799999995
 21
395.27761800000002
  0
LINE
  8
_0-0_0
  6
CONTINUOUS
 62
    7
 10
103.79905699999995
 20
395.07330300000001
 11
103.73649599999999
 21
395.34533699999997
  0
LINE
  8
_0-0_0
  6
CONTINUOUS
 62
    7
 10
103.56869499999999
 20
395.12228399999998
 11
103.73649599999999
 21
395.34533699999997
  0
LINE
  8
_0-0_0
  6
CONTINUOUS
 62
    7
 10
103.56869499999999
 20
395.12228399999998
 11
103.47804199999996
 21
395.38629200000003
  0
LINE
  8
_0-0_0
  6
CONTINUOUS
 62
    7
 10
103.334473
 20
395.14691199999999
 11
103.47804199999996
 21
395.38629200000003
  0
LINE
  8
_0-0_0
  6
CONTINUOUS
 62
    7
 10
103.334473
 20
395.14691199999999
 11
103.21672000000001
 21
395.39999399999999
  0
LINE
  8
_0-0_0
  6
CONTINUOUS
 62
    7
 10
103.09895299999999
 20
395.14691199999999
 11
103.21672000000001
 21
395.39999399999999
  0
LINE
  8
_0-0_0
  6
CONTINUOUS
 62
    7
 10
103.09895299999999
 20
395.14691199999999
 11
102.95539799999995
 21
395.38629200000003
  0
LINE
  8
_0-0_0
  6
CONTINUOUS
 62
    7
 10
102.86474599999997
 20
395.12228399999998
 11
102.95539799999995
 21
395.38629200000003
  0
LINE
  8
_0-0_0
  6
CONTINUOUS
 62
    7
 10
102.86474599999997
 20
395.12228399999998
 11
102.69692999999995
 21
395.34533699999997
  0
LINE
  8
_0-0_0
  6
CONTINUOUS
 62
    7
 10
102.63436899999999
 20
395.07330300000001
 11
102.69692999999995
 21
395.34533699999997
  0
LINE
  8
_0-0_0
  6
CONTINUOUS
 62
    7
 10
102.63436899999999
 20
395.07330300000001
 11
102.44416799999999
 21
395.27761800000002
  0
LINE
  8
_0-0_0
  6
CONTINUOUS
 62
    7
 10
102.41038499999996
 20
395.00054899999998
 11
102.44416799999999
 21
395.27761800000002
  0
LINE
  8
_0-0_0
  6
CONTINUOUS
 62
    7
 10
102.41038499999996
 20
395.00054899999998
 11
102.19987499999996
 21
395.18383799999998
  0
LINE
  8
_0-0_0
  6
CONTINUOUS
 62
    7
 10
102.19523599999997
 20
394.90475500000002
 11
102.19987499999996
 21
395.18383799999998
  0
LINE
  8
_0-0_0
  6
CONTINUOUS
 62
    7
 10
102.19523599999997
 20
394.90475500000002
 11
102.07569899999999
 21
394.988586
  0
LINE
  8
_0-0_0
  6
CONTINUOUS
 62
    7
 10
103.79882799999996
 20
391.89999399999999
 11
102.63461299999994
 21
391.89999399999999
  0
LINE
  8
_0-0_0
  6
CONTINUOUS
 62
    7
 10
102.63461299999994
 20
391.89999399999999
 11
102.066711
 21
392.89999399999999
  0
LINE
  8
_0-0_0
  6
CONTINUOUS
 62
    7
 10
102.066711
 20
392.89999399999999
 11
102.63461299999994
 21
393.89999399999999
  0
LINE
  8
_0-0_0
  6
CONTINUOUS
 62
    7
 10
102.63461299999994
 20
393.89999399999999
 11
103.79882799999996
 21
393.89999399999999
  0
LINE
  8
_0-0_0
  6
CONTINUOUS
 62
    7
 10
103.79882799999996
 20
393.89999399999999
 11
104.366714
 21
392.89999399999999
  0
LINE
  8
_0-0_0
  6
CONTINUOUS
 62
    7
 10
104.366714
 20
392.89999399999999
 11
103.79882799999996
 21
391.89999399999999
  0
LINE
  8
_0-0_0
  6
CONTINUOUS
 62
    7
 10
117.91671699999995
 20
410.30029300000001
 11
117.91671699999995
 21
410.30627399999997
  0
LINE
  8
_0-0_0
  6
CONTINUOUS
 62
    7
 10
117.91671699999995
 20
411.5
 11
117.91635099999996
 21
411.48788500000001
  0
LINE
  8
_0-0_0
  6
CONTINUOUS
 62
    7
 10
117.91635099999996
 20
390.91210899999999
 11
117.91671699999995
 21
390.89999399999999
  0
ARC
  8
_0-0_0
  6
CONTINUOUS
 62
    7
 10
102.71672000000001
 20
410
 40
2
 50
90.000003000000007
 51
93.840255999999997
  0
ARC
  8
_0-0_0
  6
CONTINUOUS
 62
    7
 10
115.71672000000001
 20
392.39999399999999
 40
2
 50
269.99999700000001
 51
273.84026499999999
  0
ENDSEC
  0
EOF
