  0
SECTION
  2
HEADER
  9
$ACADVER
  1
AC1015
  9
$ACADMAINTVER
 70
     6
  9
$DWGCODEPAGE
  3
ANSI_1252
  9
$INSBASE
 10
0.0
 20
0.0
 30
0.0
  9
$EXTMIN
 10
0.0
 20
0.0
 30
0.0
  9
$EXTMAX
 10
1301.855469
 20
459.5
 30
2.0
  9
$LIMMIN
 10
0.0
 20
0.0
  9
$LIMMAX
 10
420.0
 20
297.0
  9
$ORTHOMODE
 70
     0
  9
$REGENMODE
 70
     1
  9
$FILLMODE
 70
     1
  9
$QTEXTMODE
 70
     0
  9
$MIRRTEXT
 70
     1
  9
$LTSCALE
 40
1.0
  9
$ATTMODE
 70
     1
  9
$TEXTSIZE
 40
2.5
  9
$TRACEWID
 40
1.0
  9
$TEXTSTYLE
  7
Standard
  9
$CLAYER
  8
0
  9
$CELTYPE
  6
ByLayer
  9
$CECOLOR
 62
   256
  9
$CELTSCALE
 40
1.0
  9
$DISPSILH
 70
     0
  9
$DIMSCALE
 40
1.0
  9
$DIMASZ
 40
2.5
  9
$DIMEXO
 40
0.625
  9
$DIMDLI
 40
3.75
  9
$DIMRND
 40
0.0
  9
$DIMDLE
 40
0.0
  9
$DIMEXE
 40
1.25
  9
$DIMTP
 40
0.0
  9
$DIMTM
 40
0.0
  9
$DIMTXT
 40
2.5
  9
$DIMCEN
 40
2.5
  9
$DIMTSZ
 40
0.0
  9
$DIMTOL
 70
     0
  9
$DIMLIM
 70
     0
  9
$DIMTIH
 70
     0
  9
$DIMTOH
 70
     0
  9
$DIMSE1
 70
     0
  9
$DIMSE2
 70
     0
  9
$DIMTAD
 70
     1
  9
$DIMZIN
 70
     8
  9
$DIMBLK
  1

  9
$DIMASO
 70
     1
  9
$DIMSHO
 70
     1
  9
$DIMPOST
  1

  9
$DIMAPOST
  1

  9
$DIMALT
 70
     0
  9
$DIMALTD
 70
     3
  9
$DIMALTF
 40
0.03937
  9
$DIMLFAC
 40
1.0
  9
$DIMTOFL
 70
     1
  9
$DIMTVP
 40
0.0
  9
$DIMTIX
 70
     0
  9
$DIMSOXD
 70
     0
  9
$DIMSAH
 70
     0
  9
$DIMBLK1
  1

  9
$DIMBLK2
  1

  9
$DIMSTYLE
  2

  9
$DIMCLRD
 70
     0
  9
$DIMCLRE
 70
     0
  9
$DIMCLRT
 70
     0
  9
$DIMTFAC
 40
1.0
  9
$DIMGAP
 40
0.625
  9
$DIMJUST
 70
     0
  9
$DIMSD1
 70
     0
  9
$DIMSD2
 70
     0
  9
$DIMTOLJ
 70
     0
  9
$DIMTZIN
 70
     8
  9
$DIMALTZ
 70
     0
  9
$DIMALTTZ
 70
     0
  9
$DIMUPT
 70
     0
  9
$DIMDEC
 70
     2
  9
$DIMTDEC
 70
     2
  9
$DIMALTU
 70
     2
  9
$DIMALTTD
 70
     3
  9
$DIMTXSTY
  7
Standard
  9
$DIMAUNIT
 70
     0
  9
$DIMADEC
 70
     0
  9
$DIMALTRND
 40
0.0
  9
$DIMAZIN
 70
     0
  9
$DIMDSEP
 70
    44
  9
$DIMATFIT
 70
     0
  9
$DIMFRAC
 70
     0
  9
$DIMLDRBLK
  1

  9
$DIMLUNIT
 70
     2
  9
$DIMLWD
 70
    -2
  9
$DIMLWE
 70
    -2
  9
$DIMTMOVE
 70
     0
  9
$LUNITS
 70
     2
  9
$LUPREC
 70
     4
  9
$SKETCHINC
 40
1.0
  9
$FILLETRAD
 40
2.5
  9
$AUNITS
 70
     0
  9
$AUPREC
 70
     0
  9
$MENU
  1
.
  9
$ELEVATION
 40
0.0
  9
$PELEVATION
 40
0.0
  9
$THICKNESS
 40
0.0
  9
$LIMCHECK
 70
     0
  9
$CHAMFERA
 40
2.5
  9
$CHAMFERB
 40
2.5
  9
$CHAMFERC
 40
0.0
  9
$CHAMFERD
 40
0.0
  9
$SKPOLY
 70
     0
  9
$TDCREATE
 40
0.000000000
  9
$TDUCREATE
 40
0.000000000
  9
$TDUPDATE
 40
0.000000000
  9
$TDUUPDATE
 40
0.000000000
  9
$TDINDWG
 40
0.0000000000
  9
$TDUSRTIMER
 40
0.0000000000
  9
$USRTIMER
 70
     1
  9
$ANGBASE
 50
0.0
  9
$ANGDIR
 70
     0
  9
$PDMODE
 70
     0
  9
$PDSIZE
 40
0.0
  9
$PLINEWID
 40
0.0
  9
$SPLFRAME
 70
     0
  9
$SPLINETYPE
 70
     6
  9
$SPLINESEGS
 70
     8
  9
$HANDSEED
  5
621
  9
$SURFTAB1
 70
     6
  9
$SURFTAB2
 70
     6
  9
$SURFTYPE
 70
     6
  9
$SURFU
 70
     6
  9
$SURFV
 70
     6
  9
$UCSBASE
  2

  9
$UCSNAME
  2

  9
$UCSORG
 10
0.0
 20
0.0
 30
0.0
  9
$UCSXDIR
 10
1.0
 20
0.0
 30
0.0
  9
$UCSYDIR
 10
0.0
 20
1.0
 30
0.0
  9
$UCSORTHOREF
  2

  9
$UCSORTHOVIEW
 70
     1
  9
$UCSORGTOP
 10
0.0
 20
0.0
 30
0.0
  9
$UCSORGBOTTOM
 10
0.0
 20
0.0
 30
0.0
  9
$UCSORGLEFT
 10
0.0
 20
0.0
 30
0.0
  9
$UCSORGRIGHT
 10
0.0
 20
0.0
 30
0.0
  9
$UCSORGFRONT
 10
0.0
 20
0.0
 30
0.0
  9
$UCSORGBACK
 10
0.0
 20
0.0
 30
0.0
  9
$PUCSBASE
  2

  9
$PUCSNAME
  2

  9
$PUCSORG
 10
0.0
 20
0.0
 30
0.0
  9
$PUCSXDIR
 10
1.0
 20
0.0
 30
0.0
  9
$PUCSYDIR
 10
0.0
 20
1.0
 30
0.0
  9
$PUCSORTHOREF
  2

  9
$PUCSORTHOVIEW
 70
     0
  9
$PUCSORGTOP
 10
0.0
 20
0.0
 30
0.0
  9
$PUCSORGBOTTOM
 10
0.0
 20
0.0
 30
0.0
  9
$PUCSORGLEFT
 10
0.0
 20
0.0
 30
0.0
  9
$PUCSORGRIGHT
 10
0.0
 20
0.0
 30
0.0
  9
$PUCSORGFRONT
 10
0.0
 20
0.0
 30
0.0
  9
$PUCSORGBACK
 10
0.0
 20
0.0
 30
0.0
  9
$USERI1
 70
     0
  9
$USERI2
 70
     0
  9
$USERI3
 70
     0
  9
$USERI4
 70
     0
  9
$USERI5
 70
     0
  9
$USERR1
 40
0.0
  9
$USERR2
 40
0.0
  9
$USERR3
 40
0.0
  9
$USERR4
 40
0.0
  9
$USERR5
 40
0.0
  9
$WORLDVIEW
 70
     1
  9
$SHADEDGE
 70
     3
  9
$SHADEDIF
 70
    70
  9
$TILEMODE
 70
     1
  9
$MAXACTVP
 70
    48
  9
$PINSBASE
 10
0.0
 20
0.0
 30
0.0
  9
$PLIMCHECK
 70
     0
  9
$PEXTMIN
 10
0.0
 20
0.0
 30
0.0
  9
$PEXTMAX
 10
1301.855469
 20
459.5
 30
2.0
  9
$PLIMMIN
 10
0.0
 20
0.0
  9
$PLIMMAX
 10
420.0
 20
297.0
  9
$UNITMODE
 70
     0
  9
$VISRETAIN
 70
     0
  9
$PLINEGEN
 70
     0
  9
$PSLTSCALE
 70
     1
  9
$TREEDEPTH
 70
  3020
  9
$CMLSTYLE
  2
Standard
  9
$CMLJUST
 70
     0
  9
$CMLSCALE
 40
20.0
  9
$PROXYGRAPHICS
 70
     1
  9
$MEASUREMENT
 70
     1
  9
$CELWEIGHT
370
    -1
  9
$ENDCAPS
280
     0
  9
$JOINSTYLE
280
     0
  9
$LWDISPLAY
290
     0
  9
$INSUNITS
 70
     0
  9
$HYPERLINKBASE
  1

  9
$STYLESHEET
  1

  9
$XEDIT
290
     1
  9
$CEPSNTYPE
380
     0
  9
$PSTYLEMODE
290
     0
  9
$FINGERPRINTGUID
  2

  9
$VERSIONGUID
  2

  9
$EXTNAMES
290
     0
  9
$PSVPSCALE
 40
0.0
  0
ENDSEC
  0
SECTION
  2
CLASSES
  0
CLASS
  1
LWPOLYLINE
  2
AcDbPolyline
  3
AutoCAD 2000
 90
        0
280
     0
281
     1
  0
CLASS
  1
IMAGE
  2
AcDbRasterImage
  3
ISM
 90
      127
280
     0
281
     1
  0
CLASS
  1
OLE2FRAME
  2
AcDbOle2Frame
  3
AutoCAD 2000
 90
        0
280
     0
281
     1
  0
CLASS
  1
HATCH
  2
AcDbHatch
  3
AutoCAD 2000
 90
        0
280
     0
281
     1
  0
CLASS
  1
DICTIONARYVAR
  2
AcDbDictionaryVar
  3
AutoCAD 2000
 90
        0
280
     0
281
     0
  0
CLASS
  1
RASTERVARIABLES
  2
AcDbRasterVariables
  3
ISM
 90
        0
280
     0
281
     0
  0
CLASS
  1
IMAGEDEF
  2
AcDbRasterImageDef
  3
ISM
 90
        0
280
     0
281
     0
  0
CLASS
  1
IMAGEDEF_REACTOR
  2
AcDbRasterImageDefReactor
  3
ISM
 90
        1
280
     0
281
     0
  0
CLASS
  1
IDBUFFER
  2
AcDbIdBuffer
  3
AutoCAD 2000
 90
        0
280
     0
281
     0
  0
CLASS
  1
SPATIAL_FILTER
  2
AcDbSpatialFilter
  3
AutoCAD 2000
 90
        0
280
     0
281
     0
  0
CLASS
  1
XRECORD
  2
AcDbXrecord
  3
AutoCAD 2000
 90
        0
280
     0
281
     0
  0
CLASS
  1
SORTENTSTABLE
  2
AcDbSortentsTable
  3
AutoCAD 2000
 90
        0
280
     0
281
     0
  0
CLASS
  1
LAYER_INDEX
  2
AcDbLayerIndex
  3
AutoCAD 2000
 90
        0
280
     0
281
     0
  0
CLASS
  1
SPATIAL_INDEX
  2
AcDbSpatialIndex
  3
AutoCAD 2000
 90
        0
280
     0
281
     0
  0
CLASS
  1
OBJECT_PTR
  2
CAseDLPNTableRecord
  3
"ASE-LPNTableRecord"
 90
        1
280
     0
281
     0
  0
CLASS
  1
LAYOUT
  2
AcDbLayout
  3
AutoCAD 2000
 90
        0
280
     0
281
     0
  0
CLASS
  1
PLOTSETTINGS
  2
AcDbPlotSettings
  3
AutoCAD 2000
 90
        0
280
     0
281
     0
  0
CLASS
  1
ACDBDICTIONARYWDFLT
  2
AcDbDictionaryWithDefault
  3
AutoCAD 2000
 90
        0
280
     0
281
     0
  0
CLASS
  1
ACDBPLACEHOLDER
  2
AcDbPlaceHolder
  3
AutoCAD 2000
 90
        0
280
     0
281
     0
  0
CLASS
  1
VBA_PROJECT
  2
AcDbVbaProject
  3
acadvba
 90
        0
280
     0
281
     0
  0
CLASS
  1
WIPEOUT
  2
AcDbWipeout
  3
WipeOut|AutoCAD Express Tool|expresstools@autodesk.com
 90
      127
280
     0
281
     1
  0
CLASS
  1
WIPEOUTVARIABLES
  2
AcDbWipeoutVariables
  3
WipeOut|AutoCAD Express Tool|expresstools@autodesk.com
 90
        0
280
     0
281
     0
  0
CLASS
  1
RTEXT
  2
RText
  3
RText|AutoCAD Express Tool|expresstools@autodesk.com
 90
        0
280
     0
281
     1
  0
CLASS
  1
ARCALIGNEDTEXT
  2
AcDbArcAlignedText
  3
ATEXT|AutoCAD Express Tool|expresstools@autodesk.com
 90
        0
280
     0
281
     1
  0
ENDSEC
  0
SECTION
  2
TABLES
  0
TABLE
  2
VPORT
  5
7
100
AcDbSymbolTable
 70
     1
  0
VPORT
  5
15
100
AcDbSymbolTableRecord
100
AcDbViewportTableRecord
  2
*ACTIVE
 70
     0
 10
0.0
 20
0.0
 11
1.0
 21
1.0
 12
6.591288
 22
4.579184
 13
0.0
 23
0.0
 14
1.0
 24
1.0
 15
0.0
 25
0.0
 16
0.0
 26
0.0
 36
1.0
 17
0.0
 27
0.0
 37
0.0
 40
9.158369
 41
0.688564
 42
50.0
 43
0.0
 44
0.0
 50
0.0
 51
0.0
 71
     0
 72
   100
 73
     1
 74
     1
 75
     0
 76
     0
 77
     0
 78
     0
281
     0
 65
     0
110
0.0
120
0.0
130
0.0
111
1.0
121
0.0
131
0.0
112
0.0
122
1.0
132
0.0
345
0
346
0
 79
     0
146
0.0
  0
ENDTAB
  0
TABLE
  2
LTYPE
  5
4
100
AcDbSymbolTable
 70
     3
  0
LTYPE
  5
11
100
AcDbSymbolTableRecord
100
AcDbLinetypeTableRecord
  2
ByBlock
 70
    64
  3

 72
    65
 73
     0
 40
0.0
  0
LTYPE
  5
12
100
AcDbSymbolTableRecord
100
AcDbLinetypeTableRecord
  2
ByLayer
 70
    64
  3

 72
    65
 73
     0
 40
0.0
  0
LTYPE
  5
13
100
AcDbSymbolTableRecord
100
AcDbLinetypeTableRecord
  2
Continuous
 70
    64
  3
Solid line
 72
    65
 73
     0
 40
0.0
  0
ENDTAB
  0
TABLE
  2
LAYER
  5
2
100
AcDbSymbolTable
 70
     1
  0
LAYER
  5
14
100
AcDbSymbolTableRecord
100
AcDbLayerTableRecord
  2
0
 70
     0
 62
     7
  6
Continuous
290
     1
370
    -3
390
1D
  0
ENDTAB
  0
TABLE
  2
STYLE
  5
3
100
AcDbSymbolTable
 70
     1
  0
STYLE
  5
17
100
AcDbSymbolTableRecord
100
AcDbTextStyleTableRecord
  2
Standard
 70
     0
 40
0.0
 41
1.0
 50
0.0
 71
     0
 42
0.0
  3
txt
  4

  0
ENDTAB
  0
TABLE
  2
VIEW
  5
5
100
AcDbSymbolTable
 70
     0
  0
ENDTAB
  0
TABLE
  2
UCS
  5
6
100
AcDbSymbolTable
 70
     0
  0
ENDTAB
  0
TABLE
  2
APPID
  5
8
100
AcDbSymbolTable
 70
     1
  0
APPID
  5
16
100
AcDbSymbolTableRecord
100
AcDbRegAppTableRecord
  2
ACAD
 70
     0
  0
ENDTAB
  0
TABLE
  2
DIMSTYLE
  5
9
100
AcDbSymbolTable
 70
     1
100
AcDbDimStyleTable
 71
     0
  0
DIMSTYLE
105
18
100
AcDbSymbolTableRecord
100
AcDbDimStyleTableRecord
  2
Standard
 70
     0
  3

  4

 40
1.0
 41
0.18
 42
0.0625
 43
0.38
 44
0.18
 45
0.0
 46
0.0
 47
0.0
 48
0.0
 71
     0
 72
     0
 73
     1
 74
     1
 75
     0
 76
     0
 77
     0
 78
     0
 79
     0
140
0.18
141
0.09
142
0.0
143
25.4
144
1.0
145
0.0
146
1.0
147
0.09
148
0.0
170
     0
171
     2
172
     0
173
     0
174
     0
175
     0
176
     0
177
     0
178
     0
179
     0
271
     4
272
     4
273
     2
274
     2
275
     0
276
     0
277
     2
278
    46
279
     0
280
     0
281
     0
282
     0
283
     1
284
     0
285
     0
286
     0
288
     0
289
     3
340
17
341
0
342
0
343
0
344
0
371
    -2
372
    -2
  0
ENDTAB
  0
TABLE
  2
BLOCK_RECORD
  5
1
100
AcDbSymbolTable
 70
     0
  0
BLOCK_RECORD
  5
A
100
AcDbSymbolTableRecord
100
AcDbBlockTableRecord
  2
*MODEL_SPACE
340
20
  0
BLOCK_RECORD
  5
B
100
AcDbSymbolTableRecord
100
AcDbBlockTableRecord
  2
*PAPER_SPACE
340
21
  0
ENDTAB
  0
ENDSEC
  0
SECTION
  2
BLOCKS
  0
BLOCK
  5
D
100
AcDbEntity
  8
0
390
0
100
AcDbBlockBegin
  2
*MODEL_SPACE
 70
     0
 10
0.0
 20
0.0
 30
0.0
  3
*MODEL_SPACE
  1

  0
ENDBLK
  5
E
100
AcDbEntity
  8
0
390
0
100
AcDbBlockEnd
  0
BLOCK
  5
F
100
AcDbEntity
 67
     1
  8
0
390
0
100
AcDbBlockBegin
  2
*PAPER_SPACE
 70
     0
 10
0.0
 20
0.0
 30
0.0
  3
*PAPER_SPACE
  1

  0
ENDBLK
  5
10
100
AcDbEntity
 67
     1
  8
0
390
0
100
AcDbBlockEnd
  0
ENDSEC
  0
SECTION
  2
ENTITIES
  0
VIEWPORT
  5
620
100
AcDbEntity
 67
     1
  8
0
370
     0
390
0
 62
     0
 48
0.0
100
AcDbViewport
 10
0.0
 20
0.0
 30
0.0
 40
1000.0
 41
1000.0
 68
     1
 69
     1
 12
0.0
 22
0.0
 13
0.0
 23
0.0
 14
1.0
 24
1.0
 15
1.0
 25
1.0
 16
0.0
 26
0.0
 36
1.0
 17
0.0
 27
0.0
 37
0.0
 42
50.0
 43
0.0
 44
0.0
 45
1000.0
 50
0.0
 51
0.0
 72
   100
 90
        0
340
0
  1

281
     0
 71
     0
 74
     1
110
0.0
120
0.0
130
0.0
111
1.0
121
0.0
131
0.0
112
0.0
122
1.0
132
0.0
345
0
346
0
 79
     0
146
0.0
  0
ARC
  5
24
100
AcDbEntity
  8
0
370
    35
390
0
 62
     7
100
AcDbCircle
 10
81.655533
 20
401.099976
 30
0.0
 40
0.2
210
0.0
220
0.0
230
1.0
100
AcDbArc
 50
269.999997
 51
20.37644
  0
LINE
  5
25
100
AcDbEntity
  8
0
370
    35
390
0
 62
     7
 48
0.093341
100
AcDbLine
 10
81.843002
 20
401.169617
 30
0.0
 11
80.543015
 21
404.669617
 31
0.0
210
0.0
220
0.0
230
1.0
  0
ARC
  5
26
100
AcDbEntity
  8
0
370
    35
390
0
 62
     7
100
AcDbCircle
 10
80.355545
 20
404.599976
 30
0.0
 40
0.2
210
0.0
220
0.0
230
1.0
100
AcDbArc
 50
20.37644
 51
159.623556
  0
LINE
  5
27
100
AcDbEntity
  8
0
370
    35
390
0
 62
     7
 48
0.093341
100
AcDbLine
 10
78.868057
 20
401.169617
 30
0.0
 11
80.168045
 21
404.669617
 31
0.0
210
0.0
220
0.0
230
1.0
  0
ARC
  5
28
100
AcDbEntity
  8
0
370
    35
390
0
 62
     7
100
AcDbCircle
 10
79.055527
 20
401.099976
 30
0.0
 40
0.2
210
0.0
220
0.0
230
1.0
100
AcDbArc
 50
159.623556
 51
269.999997
  0
LINE
  5
29
100
AcDbEntity
  8
0
370
    35
390
0
 62
     7
 48
0.065
100
AcDbLine
 10
79.055527
 20
400.900024
 30
0.0
 11
81.655533
 21
400.900024
 31
0.0
210
0.0
220
0.0
230
1.0
  0
LINE
  5
2A
100
AcDbEntity
  8
0
370
    35
390
0
 62
     7
 48
0.000024
100
AcDbLine
 10
-83.577286
 20
449.502686
 30
0.0
 11
-83.577286
 21
449.501709
 31
0.0
210
0.0
220
0.0
230
1.0
  0
LINE
  5
2B
100
AcDbEntity
  8
0
370
    35
390
0
 62
     7
 48
0.325
100
AcDbLine
 10
1299.355469
 20
437.900024
 30
0.0
 11
1299.355469
 21
424.900024
 31
0.0
210
0.0
220
0.0
230
1.0
  0
LINE
  5
2C
100
AcDbEntity
  8
0
370
    35
390
0
 62
     7
 48
0.325
100
AcDbLine
 10
26.35553
 20
437.900024
 30
0.0
 11
26.35553
 21
424.900024
 31
0.0
210
0.0
220
0.0
230
1.0
  0
LINE
  5
2D
100
AcDbEntity
  8
0
370
    35
390
0
 62
     7
100
AcDbLine
 10
26.35553
 20
437.900024
 30
0.0
 11
1299.355469
 21
437.900024
 31
0.0
210
0.0
220
0.0
230
1.0
  0
LINE
  5
2E
100
AcDbEntity
  8
0
370
    35
390
0
 62
     7
 48
0.464999
100
AcDbLine
 10
26.35553
 20
437.900024
 30
0.0
 11
26.35553
 21
456.5
 31
0.0
210
0.0
220
0.0
230
1.0
  0
LINE
  5
2F
100
AcDbEntity
  8
0
370
    35
390
0
 62
     7
 48
0.0625
100
AcDbLine
 10
26.35553
 20
459.0
 30
0.0
 11
26.35553
 21
456.5
 31
0.0
210
0.0
220
0.0
230
1.0
  0
LINE
  5
30
100
AcDbEntity
  8
0
370
    35
390
0
 62
     7
 48
0.0125
100
AcDbLine
 10
26.35553
 20
459.5
 30
0.0
 11
26.35553
 21
459.0
 31
0.0
210
0.0
220
0.0
230
1.0
  0
LINE
  5
31
100
AcDbEntity
  8
0
370
    35
390
0
 62
     7
 48
0.0125
100
AcDbLine
 10
26.35553
 20
411.5
 30
0.0
 11
26.35553
 21
411.0
 31
0.0
210
0.0
220
0.0
230
1.0
  0
LINE
  5
32
100
AcDbEntity
  8
0
370
    35
390
0
 62
     7
 48
0.125
100
AcDbLine
 10
26.35553
 20
416.5
 30
0.0
 11
26.35553
 21
411.5
 31
0.0
210
0.0
220
0.0
230
1.0
  0
LINE
  5
33
100
AcDbEntity
  8
0
370
    35
390
0
 62
     7
 48
0.0125
100
AcDbLine
 10
26.35553
 20
417.0
 30
0.0
 11
26.35553
 21
416.5
 31
0.0
210
0.0
220
0.0
230
1.0
  0
LINE
  5
34
100
AcDbEntity
  8
0
370
    35
390
0
 62
     7
 48
0.0125
100
AcDbLine
 10
26.35553
 20
417.5
 30
0.0
 11
26.35553
 21
417.0
 31
0.0
210
0.0
220
0.0
230
1.0
  0
LINE
  5
35
100
AcDbEntity
  8
0
370
    35
390
0
 62
     7
 48
0.08
100
AcDbLine
 10
26.35553
 20
420.700012
 30
0.0
 11
26.35553
 21
417.5
 31
0.0
210
0.0
220
0.0
230
1.0
  0
LINE
  5
36
100
AcDbEntity
  8
0
370
    35
390
0
 62
     7
 48
0.105
100
AcDbLine
 10
26.35553
 20
420.700012
 30
0.0
 11
26.35553
 21
424.900024
 31
0.0
210
0.0
220
0.0
230
1.0
  0
LINE
  5
37
100
AcDbEntity
  8
0
370
    35
390
0
 62
     7
100
AcDbLine
 10
26.35553
 20
424.900024
 30
0.0
 11
1299.355469
 21
424.900024
 31
0.0
210
0.0
220
0.0
230
1.0
  0
LINE
  5
38
100
AcDbEntity
  8
0
370
    35
390
0
 62
     7
 48
0.105
100
AcDbLine
 10
1299.355469
 20
420.700012
 30
0.0
 11
1299.355469
 21
424.900024
 31
0.0
210
0.0
220
0.0
230
1.0
  0
LINE
  5
39
100
AcDbEntity
  8
0
370
    35
390
0
 62
     7
 48
0.08
100
AcDbLine
 10
1299.355469
 20
417.5
 30
0.0
 11
1299.355469
 21
420.700012
 31
0.0
210
0.0
220
0.0
230
1.0
  0
LINE
  5
3A
100
AcDbEntity
  8
0
370
    35
390
0
 62
     7
 48
0.0125
100
AcDbLine
 10
1299.355469
 20
417.5
 30
0.0
 11
1299.355469
 21
417.0
 31
0.0
210
0.0
220
0.0
230
1.0
  0
LINE
  5
3B
100
AcDbEntity
  8
0
370
    35
390
0
 62
     7
 48
0.0125
100
AcDbLine
 10
1299.355469
 20
417.0
 30
0.0
 11
1299.355469
 21
416.5
 31
0.0
210
0.0
220
0.0
230
1.0
  0
LINE
  5
3C
100
AcDbEntity
  8
0
370
    35
390
0
 62
     7
 48
0.125
100
AcDbLine
 10
1299.355469
 20
416.5
 30
0.0
 11
1299.355469
 21
411.5
 31
0.0
210
0.0
220
0.0
230
1.0
  0
LINE
  5
3D
100
AcDbEntity
  8
0
370
    35
390
0
 62
     7
 48
0.0125
100
AcDbLine
 10
1299.355469
 20
411.5
 30
0.0
 11
1299.355469
 21
411.0
 31
0.0
210
0.0
220
0.0
230
1.0
  0
LINE
  5
3E
100
AcDbEntity
  8
0
370
    35
390
0
 62
     7
 48
0.0125
100
AcDbLine
 10
1299.355469
 20
459.5
 30
0.0
 11
1299.355469
 21
459.0
 31
0.0
210
0.0
220
0.0
230
1.0
  0
LINE
  5
3F
100
AcDbEntity
  8
0
370
    35
390
0
 62
     7
 48
0.0625
100
AcDbLine
 10
1299.355469
 20
456.5
 30
0.0
 11
1299.355469
 21
459.0
 31
0.0
210
0.0
220
0.0
230
1.0
  0
LINE
  5
40
100
AcDbEntity
  8
0
370
    35
390
0
 62
     7
 48
0.464999
100
AcDbLine
 10
1299.355469
 20
437.900024
 30
0.0
 11
1299.355469
 21
456.5
 31
0.0
210
0.0
220
0.0
230
1.0
  0
CIRCLE
  5
41
100
AcDbEntity
  8
0
370
    35
390
0
 62
     7
100
AcDbCircle
 10
1262.855469
 20
447.0
 30
0.0
 40
6.0
210
0.0
220
0.0
230
1.0
  0
CIRCLE
  5
42
100
AcDbEntity
  8
0
370
    35
390
0
 62
     7
100
AcDbCircle
 10
1162.855469
 20
447.0
 30
0.0
 40
6.0
210
0.0
220
0.0
230
1.0
  0
CIRCLE
  5
43
100
AcDbEntity
  8
0
370
    35
390
0
 62
     7
100
AcDbCircle
 10
1062.855469
 20
447.0
 30
0.0
 40
6.0
210
0.0
220
0.0
230
1.0
  0
CIRCLE
  5
44
100
AcDbEntity
  8
0
370
    35
390
0
 62
     7
100
AcDbCircle
 10
962.855591
 20
447.0
 30
0.0
 40
6.0
210
0.0
220
0.0
230
1.0
  0
CIRCLE
  5
45
100
AcDbEntity
  8
0
370
    35
390
0
 62
     7
100
AcDbCircle
 10
862.855591
 20
447.0
 30
0.0
 40
6.0
210
0.0
220
0.0
230
1.0
  0
CIRCLE
  5
46
100
AcDbEntity
  8
0
370
    35
390
0
 62
     7
100
AcDbCircle
 10
762.85553
 20
447.0
 30
0.0
 40
6.0
210
0.0
220
0.0
230
1.0
  0
CIRCLE
  5
47
100
AcDbEntity
  8
0
370
    35
390
0
 62
     7
100
AcDbCircle
 10
662.85553
 20
447.0
 30
0.0
 40
6.0
210
0.0
220
0.0
230
1.0
  0
CIRCLE
  5
48
100
AcDbEntity
  8
0
370
    35
390
0
 62
     7
100
AcDbCircle
 10
562.85553
 20
447.0
 30
0.0
 40
6.0
210
0.0
220
0.0
230
1.0
  0
CIRCLE
  5
49
100
AcDbEntity
  8
0
370
    35
390
0
 62
     7
100
AcDbCircle
 10
462.85553
 20
447.0
 30
0.0
 40
6.0
210
0.0
220
0.0
230
1.0
  0
CIRCLE
  5
4A
100
AcDbEntity
  8
0
370
    35
390
0
 62
     7
100
AcDbCircle
 10
362.85553
 20
447.0
 30
0.0
 40
6.0
210
0.0
220
0.0
230
1.0
  0
CIRCLE
  5
4B
100
AcDbEntity
  8
0
370
    35
390
0
 62
     7
100
AcDbCircle
 10
262.85553
 20
447.0
 30
0.0
 40
6.0
210
0.0
220
0.0
230
1.0
  0
CIRCLE
  5
4C
100
AcDbEntity
  8
0
370
    35
390
0
 62
     7
100
AcDbCircle
 10
162.855545
 20
447.0
 30
0.0
 40
6.0
210
0.0
220
0.0
230
1.0
  0
CIRCLE
  5
4D
100
AcDbEntity
  8
0
370
    35
390
0
 62
     7
100
AcDbCircle
 10
62.85553
 20
447.0
 30
0.0
 40
6.0
210
0.0
220
0.0
230
1.0
  0
LINE
  5
4E
100
AcDbEntity
  8
0
370
    35
390
0
 62
     7
100
AcDbLine
 10
26.35553
 20
456.5
 30
0.0
 11
1299.355469
 21
456.5
 31
0.0
210
0.0
220
0.0
230
1.0
  0
LINE
  5
4F
100
AcDbEntity
  8
0
370
    35
390
0
 62
     7
100
AcDbLine
 10
26.35553
 20
459.5
 30
0.0
 11
1299.355469
 21
459.5
 31
0.0
210
0.0
220
0.0
230
1.0
  0
LINE
  5
50
100
AcDbEntity
  8
0
370
    35
390
0
 62
     7
 48
0.0625
100
AcDbLine
 10
26.35553
 20
459.0
 30
0.0
 11
23.85553
 21
459.0
 31
0.0
210
0.0
220
0.0
230
1.0
  0
LINE
  5
51
100
AcDbEntity
  8
0
370
    35
390
0
 62
     7
 48
0.0125
100
AcDbLine
 10
23.85553
 20
459.0
 30
0.0
 11
23.85553
 21
458.5
 31
0.0
210
0.0
220
0.0
230
1.0
  0
LINE
  5
52
100
AcDbEntity
  8
0
370
    35
390
0
 62
     7
100
AcDbLine
 10
23.85553
 20
458.5
 30
0.0
 11
23.85553
 21
418.0
 31
0.0
210
0.0
220
0.0
230
1.0
  0
LINE
  5
53
100
AcDbEntity
  8
0
370
    35
390
0
 62
     7
 48
0.0625
100
AcDbLine
 10
26.35553
 20
417.5
 30
0.0
 11
23.85553
 21
417.5
 31
0.0
210
0.0
220
0.0
230
1.0
  0
LINE
  5
54
100
AcDbEntity
  8
0
370
    35
390
0
 62
     7
 48
0.0125
100
AcDbLine
 10
23.85553
 20
418.0
 30
0.0
 11
23.85553
 21
417.5
 31
0.0
210
0.0
220
0.0
230
1.0
  0
LINE
  5
55
100
AcDbEntity
  8
0
370
    35
390
0
 62
     7
 48
0.025
100
AcDbLine
 10
23.85553
 20
417.5
 30
0.0
 11
23.85553
 21
416.5
 31
0.0
210
0.0
220
0.0
230
1.0
  0
LINE
  5
56
100
AcDbEntity
  8
0
370
    35
390
0
 62
     7
 48
0.1125
100
AcDbLine
 10
23.85553
 20
416.5
 30
0.0
 11
23.85553
 21
412.0
 31
0.0
210
0.0
220
0.0
230
1.0
  0
LINE
  5
57
100
AcDbEntity
  8
0
370
    35
390
0
 62
     7
 48
0.0625
100
AcDbLine
 10
26.35553
 20
411.5
 30
0.0
 11
23.85553
 21
411.5
 31
0.0
210
0.0
220
0.0
230
1.0
  0
LINE
  5
58
100
AcDbEntity
  8
0
370
    35
390
0
 62
     7
 48
0.0125
100
AcDbLine
 10
23.85553
 20
412.0
 30
0.0
 11
23.85553
 21
411.5
 31
0.0
210
0.0
220
0.0
230
1.0
  0
LINE
  5
59
100
AcDbEntity
  8
0
370
    35
390
0
 62
     7
100
AcDbLine
 10
26.35553
 20
411.0
 30
0.0
 11
1299.355469
 21
411.0
 31
0.0
210
0.0
220
0.0
230
1.0
  0
LINE
  5
5A
100
AcDbEntity
  8
0
370
    35
390
0
 62
     7
100
AcDbLine
 10
26.35553
 20
417.0
 30
0.0
 11
1299.355469
 21
417.0
 31
0.0
210
0.0
220
0.0
230
1.0
  0
LINE
  5
5B
100
AcDbEntity
  8
0
370
    35
390
0
 62
     7
100
AcDbLine
 10
26.35553
 20
420.700012
 30
0.0
 11
1299.355469
 21
420.700012
 31
0.0
210
0.0
220
0.0
230
1.0
  0
LINE
  5
5C
100
AcDbEntity
  8
0
370
    35
390
0
 62
     7
 48
0.0625
100
AcDbLine
 10
1299.355469
 20
459.0
 30
0.0
 11
1301.855469
 21
459.0
 31
0.0
210
0.0
220
0.0
230
1.0
  0
LINE
  5
5D
100
AcDbEntity
  8
0
370
    35
390
0
 62
     7
 48
0.0125
100
AcDbLine
 10
1301.855469
 20
459.0
 30
0.0
 11
1301.855469
 21
458.5
 31
0.0
210
0.0
220
0.0
230
1.0
  0
LINE
  5
5E
100
AcDbEntity
  8
0
370
    35
390
0
 62
     7
100
AcDbLine
 10
1301.855469
 20
458.5
 30
0.0
 11
1301.855469
 21
418.0
 31
0.0
210
0.0
220
0.0
230
1.0
  0
LINE
  5
5F
100
AcDbEntity
  8
0
370
    35
390
0
 62
     7
 48
0.0625
100
AcDbLine
 10
1299.355469
 20
417.5
 30
0.0
 11
1301.855469
 21
417.5
 31
0.0
210
0.0
220
0.0
230
1.0
  0
LINE
  5
60
100
AcDbEntity
  8
0
370
    35
390
0
 62
     7
 48
0.0125
100
AcDbLine
 10
1301.855469
 20
418.0
 30
0.0
 11
1301.855469
 21
417.5
 31
0.0
210
0.0
220
0.0
230
1.0
  0
LINE
  5
61
100
AcDbEntity
  8
0
370
    35
390
0
 62
     7
 48
0.025
100
AcDbLine
 10
1301.855469
 20
417.5
 30
0.0
 11
1301.855469
 21
416.5
 31
0.0
210
0.0
220
0.0
230
1.0
  0
LINE
  5
62
100
AcDbEntity
  8
0
370
    35
390
0
 62
     7
 48
0.1125
100
AcDbLine
 10
1301.855469
 20
416.5
 30
0.0
 11
1301.855469
 21
412.0
 31
0.0
210
0.0
220
0.0
230
1.0
  0
LINE
  5
63
100
AcDbEntity
  8
0
370
    35
390
0
 62
     7
 48
0.0625
100
AcDbLine
 10
1299.355469
 20
411.5
 30
0.0
 11
1301.855469
 21
411.5
 31
0.0
210
0.0
220
0.0
230
1.0
  0
LINE
  5
64
100
AcDbEntity
  8
0
370
    35
390
0
 62
     7
 48
0.0125
100
AcDbLine
 10
1301.855469
 20
412.0
 30
0.0
 11
1301.855469
 21
411.5
 31
0.0
210
0.0
220
0.0
230
1.0
  0
ARC
  5
65
100
AcDbEntity
  8
0
370
    35
390
0
 62
     7
100
AcDbCircle
 10
83.855545
 20
412.0
 30
0.0
 40
0.5
210
0.0
220
0.0
230
1.0
100
AcDbArc
 50
269.999997
 51
360.0
  0
LINE
  5
66
100
AcDbEntity
  8
0
370
    35
390
0
 62
     7
 48
0.175
100
AcDbLine
 10
83.855545
 20
411.5
 30
0.0
 11
76.855545
 21
411.5
 31
0.0
210
0.0
220
0.0
230
1.0
  0
ARC
  5
67
100
AcDbEntity
  8
0
370
    35
390
0
 62
     7
100
AcDbCircle
 10
76.855545
 20
412.0
 30
0.0
 40
0.5
210
0.0
220
0.0
230
1.0
100
AcDbArc
 50
179.999991
 51
269.999997
  0
LINE
  5
68
100
AcDbEntity
  8
0
370
    35
390
0
 62
     7
 48
0.1
100
AcDbLine
 10
76.355545
 20
416.0
 30
0.0
 11
76.355545
 21
412.0
 31
0.0
210
0.0
220
0.0
230
1.0
  0
ARC
  5
69
100
AcDbEntity
  8
0
370
    35
390
0
 62
     7
100
AcDbCircle
 10
76.855545
 20
416.0
 30
0.0
 40
0.5
210
0.0
220
0.0
230
1.0
100
AcDbArc
 50
90.000003
 51
179.999991
  0
ARC
  5
6A
100
AcDbEntity
  8
0
370
    35
390
0
 62
     7
100
AcDbCircle
 10
83.855545
 20
416.0
 30
0.0
 40
0.5
210
0.0
220
0.0
230
1.0
100
AcDbArc
 50
0.0
 51
90.000003
  0
LINE
  5
6B
100
AcDbEntity
  8
0
370
    35
390
0
 62
     7
 48
0.175
100
AcDbLine
 10
76.855545
 20
416.5
 30
0.0
 11
83.855545
 21
416.5
 31
0.0
210
0.0
220
0.0
230
1.0
  0
LINE
  5
6C
100
AcDbEntity
  8
0
370
    35
390
0
 62
     7
 48
0.0075
100
AcDbLine
 10
1299.355469
 20
459.5
 30
0.0
 11
1299.355469
 21
459.200012
 31
0.0
210
0.0
220
0.0
230
1.0
  0
LINE
  5
6D
100
AcDbEntity
  8
0
370
    35
390
0
 62
     7
 48
0.005
100
AcDbLine
 10
1299.355469
 20
459.200012
 30
0.0
 11
1299.355469
 21
459.0
 31
0.0
210
0.0
220
0.0
230
1.0
  0
CIRCLE
  5
6E
100
AcDbEntity
  8
0
370
    35
390
0
 62
     7
100
AcDbCircle
 10
1262.855469
 20
447.0
 30
0.0
 40
5.5
210
0.0
220
0.0
230
1.0
  0
CIRCLE
  5
6F
100
AcDbEntity
  8
0
370
    35
390
0
 62
     7
100
AcDbCircle
 10
1162.855469
 20
447.0
 30
0.0
 40
5.5
210
0.0
220
0.0
230
1.0
  0
CIRCLE
  5
70
100
AcDbEntity
  8
0
370
    35
390
0
 62
     7
100
AcDbCircle
 10
1062.855469
 20
447.0
 30
0.0
 40
5.5
210
0.0
220
0.0
230
1.0
  0
CIRCLE
  5
71
100
AcDbEntity
  8
0
370
    35
390
0
 62
     7
100
AcDbCircle
 10
962.855591
 20
447.0
 30
0.0
 40
5.5
210
0.0
220
0.0
230
1.0
  0
CIRCLE
  5
72
100
AcDbEntity
  8
0
370
    35
390
0
 62
     7
100
AcDbCircle
 10
862.855591
 20
447.0
 30
0.0
 40
5.5
210
0.0
220
0.0
230
1.0
  0
CIRCLE
  5
73
100
AcDbEntity
  8
0
370
    35
390
0
 62
     7
100
AcDbCircle
 10
762.85553
 20
447.0
 30
0.0
 40
5.5
210
0.0
220
0.0
230
1.0
  0
CIRCLE
  5
74
100
AcDbEntity
  8
0
370
    35
390
0
 62
     7
100
AcDbCircle
 10
662.85553
 20
447.0
 30
0.0
 40
5.5
210
0.0
220
0.0
230
1.0
  0
CIRCLE
  5
75
100
AcDbEntity
  8
0
370
    35
390
0
 62
     7
100
AcDbCircle
 10
562.85553
 20
447.0
 30
0.0
 40
5.5
210
0.0
220
0.0
230
1.0
  0
CIRCLE
  5
76
100
AcDbEntity
  8
0
370
    35
390
0
 62
     7
100
AcDbCircle
 10
462.85553
 20
447.0
 30
0.0
 40
5.5
210
0.0
220
0.0
230
1.0
  0
CIRCLE
  5
77
100
AcDbEntity
  8
0
370
    35
390
0
 62
     7
100
AcDbCircle
 10
362.85553
 20
447.0
 30
0.0
 40
5.5
210
0.0
220
0.0
230
1.0
  0
CIRCLE
  5
78
100
AcDbEntity
  8
0
370
    35
390
0
 62
     7
100
AcDbCircle
 10
262.85553
 20
447.0
 30
0.0
 40
5.5
210
0.0
220
0.0
230
1.0
  0
CIRCLE
  5
79
100
AcDbEntity
  8
0
370
    35
390
0
 62
     7
100
AcDbCircle
 10
162.855545
 20
447.0
 30
0.0
 40
5.5
210
0.0
220
0.0
230
1.0
  0
CIRCLE
  5
7A
100
AcDbEntity
  8
0
370
    35
390
0
 62
     7
100
AcDbCircle
 10
62.85553
 20
447.0
 30
0.0
 40
5.5
210
0.0
220
0.0
230
1.0
  0
LINE
  5
7B
100
AcDbEntity
  8
0
370
    35
390
0
 62
     7
 48
0.1
100
AcDbLine
 10
84.355545
 20
412.0
 30
0.0
 11
84.355545
 21
416.0
 31
0.0
210
0.0
220
0.0
230
1.0
  0
CIRCLE
  5
7C
100
AcDbEntity
  8
0
370
    35
390
0
 62
     7
100
AcDbCircle
 10
1262.855469
 20
447.0
 30
0.0
 40
3.5
210
0.0
220
0.0
230
1.0
  0
CIRCLE
  5
7D
100
AcDbEntity
  8
0
370
    35
390
0
 62
     7
100
AcDbCircle
 10
1162.855469
 20
447.0
 30
0.0
 40
3.5
210
0.0
220
0.0
230
1.0
  0
CIRCLE
  5
7E
100
AcDbEntity
  8
0
370
    35
390
0
 62
     7
100
AcDbCircle
 10
1062.855469
 20
447.0
 30
0.0
 40
3.5
210
0.0
220
0.0
230
1.0
  0
CIRCLE
  5
7F
100
AcDbEntity
  8
0
370
    35
390
0
 62
     7
100
AcDbCircle
 10
962.855591
 20
447.0
 30
0.0
 40
3.5
210
0.0
220
0.0
230
1.0
  0
CIRCLE
  5
80
100
AcDbEntity
  8
0
370
    35
390
0
 62
     7
100
AcDbCircle
 10
862.855591
 20
447.0
 30
0.0
 40
3.5
210
0.0
220
0.0
230
1.0
  0
CIRCLE
  5
81
100
AcDbEntity
  8
0
370
    35
390
0
 62
     7
100
AcDbCircle
 10
762.85553
 20
447.0
 30
0.0
 40
3.5
210
0.0
220
0.0
230
1.0
  0
CIRCLE
  5
82
100
AcDbEntity
  8
0
370
    35
390
0
 62
     7
100
AcDbCircle
 10
662.85553
 20
447.0
 30
0.0
 40
3.5
210
0.0
220
0.0
230
1.0
  0
CIRCLE
  5
83
100
AcDbEntity
  8
0
370
    35
390
0
 62
     7
100
AcDbCircle
 10
562.85553
 20
447.0
 30
0.0
 40
3.5
210
0.0
220
0.0
230
1.0
  0
CIRCLE
  5
84
100
AcDbEntity
  8
0
370
    35
390
0
 62
     7
100
AcDbCircle
 10
462.85553
 20
447.0
 30
0.0
 40
3.5
210
0.0
220
0.0
230
1.0
  0
CIRCLE
  5
85
100
AcDbEntity
  8
0
370
    35
390
0
 62
     7
100
AcDbCircle
 10
362.85553
 20
447.0
 30
0.0
 40
3.5
210
0.0
220
0.0
230
1.0
  0
CIRCLE
  5
86
100
AcDbEntity
  8
0
370
    35
390
0
 62
     7
100
AcDbCircle
 10
262.85553
 20
447.0
 30
0.0
 40
3.5
210
0.0
220
0.0
230
1.0
  0
CIRCLE
  5
87
100
AcDbEntity
  8
0
370
    35
390
0
 62
     7
100
AcDbCircle
 10
162.855545
 20
447.0
 30
0.0
 40
3.5
210
0.0
220
0.0
230
1.0
  0
CIRCLE
  5
88
100
AcDbEntity
  8
0
370
    35
390
0
 62
     7
100
AcDbCircle
 10
62.85553
 20
447.0
 30
0.0
 40
3.5
210
0.0
220
0.0
230
1.0
  0
ARC
  5
89
100
AcDbEntity
  8
0
370
    35
390
0
 62
     7
100
AcDbCircle
 10
81.655533
 20
415.700012
 30
0.0
 40
0.2
210
0.0
220
0.0
230
1.0
100
AcDbArc
 50
339.623562
 51
90.000003
  0
LINE
  5
8A
100
AcDbEntity
  8
0
370
    35
390
0
 62
     7
 48
0.093341
100
AcDbLine
 10
81.843002
 20
415.630371
 30
0.0
 11
80.543015
 21
412.130371
 31
0.0
210
0.0
220
0.0
230
1.0
  0
ARC
  5
8B
100
AcDbEntity
  8
0
370
    35
390
0
 62
     7
100
AcDbCircle
 10
80.355545
 20
412.200012
 30
0.0
 40
0.2
210
0.0
220
0.0
230
1.0
100
AcDbArc
 50
200.37643
 51
339.623562
  0
LINE
  5
8C
100
AcDbEntity
  8
0
370
    35
390
0
 62
     7
 48
0.093341
100
AcDbLine
 10
78.868057
 20
415.630371
 30
0.0
 11
80.168045
 21
412.130371
 31
0.0
210
0.0
220
0.0
230
1.0
  0
ARC
  5
8D
100
AcDbEntity
  8
0
370
    35
390
0
 62
     7
100
AcDbCircle
 10
79.055527
 20
415.700012
 30
0.0
 40
0.2
210
0.0
220
0.0
230
1.0
100
AcDbArc
 50
90.000003
 51
200.37643
  0
LINE
  5
8E
100
AcDbEntity
  8
0
370
    35
390
0
 62
     7
 48
0.065
100
AcDbLine
 10
79.055527
 20
415.900024
 30
0.0
 11
81.655533
 21
415.900024
 31
0.0
210
0.0
220
0.0
230
1.0
  0
ARC
  5
8F
100
AcDbEntity
  8
0
370
    35
390
0
 62
     7
100
AcDbCircle
 10
1219.05542
 20
415.700012
 30
0.0
 40
0.2
210
0.0
220
0.0
230
1.0
100
AcDbArc
 50
90.000003
 51
200.37643
  0
LINE
  5
90
100
AcDbEntity
  8
0
370
    35
390
0
 62
     7
 48
0.065002
100
AcDbLine
 10
1219.05542
 20
415.900024
 30
0.0
 11
1221.655518
 21
415.900024
 31
0.0
210
0.0
220
0.0
230
1.0
  0
ARC
  5
91
100
AcDbEntity
  8
0
370
    35
390
0
 62
     7
100
AcDbCircle
 10
1216.855469
 20
416.0
 30
0.0
 40
0.5
210
0.0
220
0.0
230
1.0
100
AcDbArc
 50
90.000003
 51
179.999991
  0
LINE
  5
92
100
AcDbEntity
  8
0
370
    35
390
0
 62
     7
 48
0.1
100
AcDbLine
 10
1216.355469
 20
416.0
 30
0.0
 11
1216.355469
 21
412.0
 31
0.0
210
0.0
220
0.0
230
1.0
  0
ARC
  5
93
100
AcDbEntity
  8
0
370
    35
390
0
 62
     7
100
AcDbCircle
 10
1216.855469
 20
412.0
 30
0.0
 40
0.5
210
0.0
220
0.0
230
1.0
100
AcDbArc
 50
179.999991
 51
269.999997
  0
LINE
  5
94
100
AcDbEntity
  8
0
370
    35
390
0
 62
     7
 48
0.175
100
AcDbLine
 10
1223.855469
 20
411.5
 30
0.0
 11
1216.855469
 21
411.5
 31
0.0
210
0.0
220
0.0
230
1.0
  0
ARC
  5
95
100
AcDbEntity
  8
0
370
    35
390
0
 62
     7
100
AcDbCircle
 10
1223.855469
 20
412.0
 30
0.0
 40
0.5
210
0.0
220
0.0
230
1.0
100
AcDbArc
 50
269.999997
 51
360.0
  0
LINE
  5
96
100
AcDbEntity
  8
0
370
    35
390
0
 62
     7
 48
0.1
100
AcDbLine
 10
1224.355469
 20
412.0
 30
0.0
 11
1224.355469
 21
416.0
 31
0.0
210
0.0
220
0.0
230
1.0
  0
ARC
  5
97
100
AcDbEntity
  8
0
370
    35
390
0
 62
     7
100
AcDbCircle
 10
1223.855469
 20
416.0
 30
0.0
 40
0.5
210
0.0
220
0.0
230
1.0
100
AcDbArc
 50
0.0
 51
90.000003
  0
LINE
  5
98
100
AcDbEntity
  8
0
370
    35
390
0
 62
     7
 48
0.175
100
AcDbLine
 10
1216.855469
 20
416.5
 30
0.0
 11
1223.855469
 21
416.5
 31
0.0
210
0.0
220
0.0
230
1.0
  0
LINE
  5
99
100
AcDbEntity
  8
0
370
    35
390
0
 62
     7
 48
0.09334
100
AcDbLine
 10
1218.868042
 20
415.630371
 30
0.0
 11
1220.167969
 21
412.130371
 31
0.0
210
0.0
220
0.0
230
1.0
  0
ARC
  5
9A
100
AcDbEntity
  8
0
370
    35
390
0
 62
     7
100
AcDbCircle
 10
1220.355469
 20
412.200012
 30
0.0
 40
0.2
210
0.0
220
0.0
230
1.0
100
AcDbArc
 50
200.37643
 51
339.623562
  0
LINE
  5
9B
100
AcDbEntity
  8
0
370
    35
390
0
 62
     7
 48
0.09334
100
AcDbLine
 10
1221.842896
 20
415.630371
 30
0.0
 11
1220.542969
 21
412.130371
 31
0.0
210
0.0
220
0.0
230
1.0
  0
ARC
  5
9C
100
AcDbEntity
  8
0
370
    35
390
0
 62
     7
100
AcDbCircle
 10
1221.655518
 20
415.700012
 30
0.0
 40
0.2
210
0.0
220
0.0
230
1.0
100
AcDbArc
 50
339.623562
 51
90.000003
  0
LINE
  5
9D
100
AcDbEntity
  8
0
370
    35
390
0
 62
     7
 48
0.125
100
AcDbLine
 10
32.85553
 20
409.0
 30
0.0
 11
37.85553
 21
409.0
 31
0.0
210
0.0
220
0.0
230
1.0
  0
LINE
  5
9E
100
AcDbEntity
  8
0
370
    35
390
0
 62
     7
 48
0.045
100
AcDbLine
 10
37.85553
 20
409.0
 30
0.0
 11
39.655533
 21
409.0
 31
0.0
210
0.0
220
0.0
230
1.0
  0
LINE
  5
9F
100
AcDbEntity
  8
0
370
    35
390
0
 62
     7
 48
0.0175
100
AcDbLine
 10
39.655533
 20
409.0
 30
0.0
 11
40.35553
 21
409.0
 31
0.0
210
0.0
220
0.0
230
1.0
  0
ARC
  5
A0
100
AcDbEntity
  8
0
370
    35
390
0
 62
     7
100
AcDbCircle
 10
39.655533
 20
408.5
 30
0.0
 40
0.5
210
0.0
220
0.0
230
1.0
100
AcDbArc
 50
0.0
 51
90.000003
  0
ARC
  5
A1
100
AcDbEntity
  8
0
370
    35
390
0
 62
     7
100
AcDbCircle
 10
32.85553
 20
408.5
 30
0.0
 40
0.5
210
0.0
220
0.0
230
1.0
100
AcDbArc
 50
90.000003
 51
179.999991
  0
ARC
  5
A2
100
AcDbEntity
  8
0
370
    35
390
0
 62
     7
100
AcDbCircle
 10
136.355545
 20
408.5
 30
0.0
 40
0.5
210
0.0
220
0.0
230
1.0
100
AcDbArc
 50
0.0
 51
90.000003
  0
LINE
  5
A3
100
AcDbEntity
  8
0
370
    35
390
0
 62
     7
 48
0.0375
100
AcDbLine
 10
40.35553
 20
409.0
 30
0.0
 11
40.35553
 21
407.5
 31
0.0
210
0.0
220
0.0
230
1.0
  0
LINE
  5
A4
100
AcDbEntity
  8
0
370
    35
390
0
 62
     7
 48
0.0125
100
AcDbLine
 10
40.35553
 20
409.5
 30
0.0
 11
40.35553
 21
409.0
 31
0.0
210
0.0
220
0.0
230
1.0
  0
LINE
  5
A5
100
AcDbEntity
  8
0
370
    35
390
0
 62
     7
 48
0.0125
100
AcDbLine
 10
40.35553
 20
410.0
 30
0.0
 11
40.35553
 21
409.5
 31
0.0
210
0.0
220
0.0
230
1.0
  0
LINE
  5
A6
100
AcDbEntity
  8
0
370
    35
390
0
 62
     7
 48
0.025
100
AcDbLine
 10
40.35553
 20
411.0
 30
0.0
 11
40.35553
 21
410.0
 31
0.0
210
0.0
220
0.0
230
1.0
  0
LINE
  5
A7
100
AcDbEntity
  8
0
370
    35
390
0
 62
     7
 48
0.0175
100
AcDbLine
 10
44.35553
 20
409.0
 30
0.0
 11
45.055527
 21
409.0
 31
0.0
210
0.0
220
0.0
230
1.0
  0
LINE
  5
A8
100
AcDbEntity
  8
0
370
    35
390
0
 62
     7
 48
0.025
100
AcDbLine
 10
40.155533
 20
408.5
 30
0.0
 11
40.155533
 21
407.5
 31
0.0
210
0.0
220
0.0
230
1.0
  0
LINE
  5
A9
100
AcDbEntity
  8
0
370
    35
390
0
 62
     7
 48
0.039999
100
AcDbLine
 10
43.35553
 20
382.0
 30
0.0
 11
43.35553
 21
383.599976
 31
0.0
210
0.0
220
0.0
230
1.0
  0
LINE
  5
AA
100
AcDbEntity
  8
0
370
    35
390
0
 62
     7
 48
0.1375
100
AcDbLine
 10
43.35553
 20
382.0
 30
0.0
 11
37.85553
 21
382.0
 31
0.0
210
0.0
220
0.0
230
1.0
  0
LINE
  5
AB
100
AcDbEntity
  8
0
370
    35
390
0
 62
     7
100
AcDbLine
 10
59.35553
 20
388.700012
 30
0.0
 11
101.355545
 21
388.700012
 31
0.0
210
0.0
220
0.0
230
1.0
  0
LINE
  5
AC
100
AcDbEntity
  8
0
370
    35
390
0
 62
     7
100
AcDbLine
 10
59.35553
 20
408.299988
 30
0.0
 11
101.355545
 21
408.299988
 31
0.0
210
0.0
220
0.0
230
1.0
  0
LINE
  5
AD
100
AcDbEntity
  8
0
370
    35
390
0
 62
     7
 48
0.2375
100
AcDbLine
 10
122.855545
 20
382.0
 30
0.0
 11
113.355545
 21
382.0
 31
0.0
210
0.0
220
0.0
230
1.0
  0
LINE
  5
AE
100
AcDbEntity
  8
0
370
    35
390
0
 62
     7
 48
0.039999
100
AcDbLine
 10
113.355545
 20
382.0
 30
0.0
 11
113.355545
 21
383.599976
 31
0.0
210
0.0
220
0.0
230
1.0
  0
ARC
  5
AF
100
AcDbEntity
  8
0
370
    35
390
0
 62
     7
100
AcDbCircle
 10
113.055527
 20
383.599976
 30
0.0
 40
0.3
210
0.0
220
0.0
230
1.0
100
AcDbArc
 50
0.0
 51
90.000003
  0
LINE
  5
B0
100
AcDbEntity
  8
0
370
    35
390
0
 62
     7
 48
0.0175
100
AcDbLine
 10
112.355545
 20
383.900024
 30
0.0
 11
113.055527
 21
383.900024
 31
0.0
210
0.0
220
0.0
230
1.0
  0
LINE
  5
B1
100
AcDbEntity
  8
0
370
    35
390
0
 62
     7
 48
0.0125
100
AcDbLine
 10
111.855545
 20
384.299988
 30
0.0
 11
112.355545
 21
384.299988
 31
0.0
210
0.0
220
0.0
230
1.0
  0
LINE
  5
B2
100
AcDbEntity
  8
0
370
    35
390
0
 62
     7
 48
0.3375
100
AcDbLine
 10
98.355545
 20
384.299988
 30
0.0
 11
111.855545
 21
384.299988
 31
0.0
210
0.0
220
0.0
230
1.0
  0
ARC
  5
B3
100
AcDbEntity
  8
0
370
    35
390
0
 62
     7
100
AcDbCircle
 10
95.855545
 20
384.299988
 30
0.0
 40
2.5
210
0.0
220
0.0
230
1.0
100
AcDbArc
 50
0.0
 51
90.000003
  0
LINE
  5
B4
100
AcDbEntity
  8
0
370
    35
390
0
 62
     7
100
AcDbLine
 10
64.85553
 20
386.799988
 30
0.0
 11
95.855545
 21
386.799988
 31
0.0
210
0.0
220
0.0
230
1.0
  0
ARC
  5
B5
100
AcDbEntity
  8
0
370
    35
390
0
 62
     7
100
AcDbCircle
 10
64.85553
 20
384.299988
 30
0.0
 40
2.5
210
0.0
220
0.0
230
1.0
100
AcDbArc
 50
90.000003
 51
179.999991
  0
LINE
  5
B6
100
AcDbEntity
  8
0
370
    35
390
0
 62
     7
 48
0.4375
100
AcDbLine
 10
44.85553
 20
384.299988
 30
0.0
 11
62.35553
 21
384.299988
 31
0.0
210
0.0
220
0.0
230
1.0
  0
LINE
  5
B7
100
AcDbEntity
  8
0
370
    35
390
0
 62
     7
 48
0.0125
100
AcDbLine
 10
44.35553
 20
384.299988
 30
0.0
 11
44.85553
 21
384.299988
 31
0.0
210
0.0
220
0.0
230
1.0
  0
LINE
  5
B8
100
AcDbEntity
  8
0
370
    35
390
0
 62
     7
 48
0.0175
100
AcDbLine
 10
43.655533
 20
383.900024
 30
0.0
 11
44.35553
 21
383.900024
 31
0.0
210
0.0
220
0.0
230
1.0
  0
ARC
  5
B9
100
AcDbEntity
  8
0
370
    35
390
0
 62
     7
100
AcDbCircle
 10
43.655533
 20
383.599976
 30
0.0
 40
0.3
210
0.0
220
0.0
230
1.0
100
AcDbArc
 50
90.000003
 51
179.999991
  0
LINE
  5
BA
100
AcDbEntity
  8
0
370
    35
390
0
 62
     7
 48
0.044379
100
AcDbLine
 10
32.35553
 20
406.724854
 30
0.0
 11
32.35553
 21
408.5
 31
0.0
210
0.0
220
0.0
230
1.0
  0
LINE
  5
BB
100
AcDbEntity
  8
0
370
    35
390
0
 62
     7
 48
0.0125
100
AcDbLine
 10
37.35553
 20
409.5
 30
0.0
 11
37.35553
 21
409.0
 31
0.0
210
0.0
220
0.0
230
1.0
  0
LINE
  5
BC
100
AcDbEntity
  8
0
370
    35
390
0
 62
     7
 48
0.002626
100
AcDbLine
 10
37.35553
 20
405.553528
 30
0.0
 11
37.35553
 21
405.658569
 31
0.0
210
0.0
220
0.0
230
1.0
  0
LINE
  5
BD
100
AcDbEntity
  8
0
370
    35
390
0
 62
     7
 48
0.037498
100
AcDbLine
 10
37.35553
 20
409.5
 30
0.0
 11
37.35553
 21
410.999939
 31
0.0
210
0.0
220
0.0
230
1.0
  0
LINE
  5
BE
100
AcDbEntity
  8
0
370
    35
390
0
 62
     7
 48
0.037498
100
AcDbLine
 10
136.855545
 20
410.999939
 30
0.0
 11
136.855545
 21
409.5
 31
0.0
210
0.0
220
0.0
230
1.0
  0
LINE
  5
BF
100
AcDbEntity
  8
0
370
    35
390
0
 62
     7
 48
0.025
100
AcDbLine
 10
136.855545
 20
409.5
 30
0.0
 11
136.855545
 21
408.5
 31
0.0
210
0.0
220
0.0
230
1.0
  0
LINE
  5
C0
100
AcDbEntity
  8
0
370
    35
390
0
 62
     7
 48
0.02
100
AcDbLine
 10
136.855545
 20
407.700012
 30
0.0
 11
136.855545
 21
408.5
 31
0.0
210
0.0
220
0.0
230
1.0
  0
LINE
  5
C1
100
AcDbEntity
  8
0
370
    35
390
0
 62
     7
 48
0.0125
100
AcDbLine
 10
136.355545
 20
409.0
 30
0.0
 11
136.855545
 21
409.0
 31
0.0
210
0.0
220
0.0
230
1.0
  0
LINE
  5
C2
100
AcDbEntity
  8
0
370
    35
390
0
 62
     7
 48
0.3125
100
AcDbLine
 10
123.855545
 20
409.0
 30
0.0
 11
136.355545
 21
409.0
 31
0.0
210
0.0
220
0.0
230
1.0
  0
LINE
  5
C3
100
AcDbEntity
  8
0
370
    35
390
0
 62
     7
 48
0.025
100
AcDbLine
 10
136.855545
 20
411.0
 30
0.0
 11
136.855545
 21
410.0
 31
0.0
210
0.0
220
0.0
230
1.0
  0
LINE
  5
C4
100
AcDbEntity
  8
0
370
    35
390
0
 62
     7
 48
0.0125
100
AcDbLine
 10
136.855545
 20
409.5
 30
0.0
 11
136.855545
 21
409.0
 31
0.0
210
0.0
220
0.0
230
1.0
  0
LINE
  5
C5
100
AcDbEntity
  8
0
370
    35
390
0
 62
     7
 48
0.0125
100
AcDbLine
 10
136.855545
 20
410.0
 30
0.0
 11
136.855545
 21
409.5
 31
0.0
210
0.0
220
0.0
230
1.0
  0
ARC
  5
C6
100
AcDbEntity
  8
0
370
    35
390
0
 62
     7
100
AcDbCircle
 10
42.35553
 20
407.5
 30
0.0
 40
2.0
210
0.0
220
0.0
230
1.0
100
AcDbArc
 50
179.999991
 51
360.0
  0
LINE
  5
C7
100
AcDbEntity
  8
0
370
    35
390
0
 62
     7
 48
0.0125
100
AcDbLine
 10
123.355545
 20
409.0
 30
0.0
 11
123.855545
 21
409.0
 31
0.0
210
0.0
220
0.0
230
1.0
  0
LINE
  5
C8
100
AcDbEntity
  8
0
370
    35
390
0
 62
     7
 48
0.0125
100
AcDbLine
 10
123.355545
 20
408.5
 30
0.0
 11
123.355545
 21
409.0
 31
0.0
210
0.0
220
0.0
230
1.0
  0
LINE
  5
C9
100
AcDbEntity
  8
0
370
    35
390
0
 62
     7
 48
0.005
100
AcDbLine
 10
123.355545
 20
407.5
 30
0.0
 11
123.355545
 21
407.700012
 31
0.0
210
0.0
220
0.0
230
1.0
  0
ARC
  5
CA
100
AcDbEntity
  8
0
370
    35
390
0
 62
     7
100
AcDbCircle
 10
121.355545
 20
407.5
 30
0.0
 40
2.0
210
0.0
220
0.0
230
1.0
100
AcDbArc
 50
179.999991
 51
360.0
  0
LINE
  5
CB
100
AcDbEntity
  8
0
370
    35
390
0
 62
     7
 48
0.0375
100
AcDbLine
 10
119.355545
 20
409.0
 30
0.0
 11
119.355545
 21
407.5
 31
0.0
210
0.0
220
0.0
230
1.0
  0
LINE
  5
CC
100
AcDbEntity
  8
0
370
    35
390
0
 62
     7
 48
0.0175
100
AcDbLine
 10
118.655533
 20
409.0
 30
0.0
 11
119.355545
 21
409.0
 31
0.0
210
0.0
220
0.0
230
1.0
  0
LINE
  5
CD
100
AcDbEntity
  8
0
370
    35
390
0
 62
     7
 48
0.0375
100
AcDbLine
 10
44.35553
 20
407.5
 30
0.0
 11
44.35553
 21
409.0
 31
0.0
210
0.0
220
0.0
230
1.0
  0
LINE
  5
CE
100
AcDbEntity
  8
0
370
    35
390
0
 62
     7
100
AcDbLine
 10
40.35553
 20
410.0
 30
0.0
 11
136.855545
 21
410.0
 31
0.0
210
0.0
220
0.0
230
1.0
  0
ARC
  5
CF
100
AcDbEntity
  8
0
370
    35
390
0
 62
     7
100
AcDbCircle
 10
45.055527
 20
408.5
 30
0.0
 40
0.5
210
0.0
220
0.0
230
1.0
100
AcDbArc
 50
90.000003
 51
179.999991
  0
ARC
  5
D0
100
AcDbEntity
  8
0
370
    35
390
0
 62
     7
100
AcDbCircle
 10
42.35553
 20
407.5
 30
0.0
 40
2.2
210
0.0
220
0.0
230
1.0
100
AcDbArc
 50
179.999991
 51
360.0
  0
LINE
  5
D1
100
AcDbEntity
  8
0
370
    35
390
0
 62
     7
 48
0.0125
100
AcDbLine
 10
44.35553
 20
383.900024
 30
0.0
 11
44.85553
 21
383.900024
 31
0.0
210
0.0
220
0.0
230
1.0
  0
LINE
  5
D2
100
AcDbEntity
  8
0
370
    35
390
0
 62
     7
 48
0.009999
100
AcDbLine
 10
44.85553
 20
384.299988
 30
0.0
 11
44.85553
 21
383.900024
 31
0.0
210
0.0
220
0.0
230
1.0
  0
LINE
  5
D3
100
AcDbEntity
  8
0
370
    35
390
0
 62
     7
100
AcDbLine
 10
62.35553
 20
384.299988
 30
0.0
 11
98.355545
 21
384.299988
 31
0.0
210
0.0
220
0.0
230
1.0
  0
LINE
  5
D4
100
AcDbEntity
  8
0
370
    35
390
0
 62
     7
 48
0.0125
100
AcDbLine
 10
111.855545
 20
383.900024
 30
0.0
 11
112.355545
 21
383.900024
 31
0.0
210
0.0
220
0.0
230
1.0
  0
LINE
  5
D5
100
AcDbEntity
  8
0
370
    35
390
0
 62
     7
 48
0.009999
100
AcDbLine
 10
111.855545
 20
384.299988
 30
0.0
 11
111.855545
 21
383.900024
 31
0.0
210
0.0
220
0.0
230
1.0
  0
LINE
  5
D6
100
AcDbEntity
  8
0
370
    35
390
0
 62
     7
 48
0.225
100
AcDbLine
 10
122.855545
 20
381.5
 30
0.0
 11
113.855545
 21
381.5
 31
0.0
210
0.0
220
0.0
230
1.0
  0
ARC
  5
D7
100
AcDbEntity
  8
0
370
    35
390
0
 62
     7
100
AcDbCircle
 10
113.855545
 20
382.0
 30
0.0
 40
0.5
210
0.0
220
0.0
230
1.0
100
AcDbArc
 50
179.999991
 51
269.999997
  0
LINE
  5
D8
100
AcDbEntity
  8
0
370
    35
390
0
 62
     7
 48
0.0125
100
AcDbLine
 10
122.855545
 20
382.0
 30
0.0
 11
123.355545
 21
382.0
 31
0.0
210
0.0
220
0.0
230
1.0
  0
LINE
  5
D9
100
AcDbEntity
  8
0
370
    35
390
0
 62
     7
 48
0.005
100
AcDbLine
 10
123.355545
 20
382.0
 30
0.0
 11
123.355545
 21
382.200012
 31
0.0
210
0.0
220
0.0
230
1.0
  0
LINE
  5
DA
100
AcDbEntity
  8
0
370
    35
390
0
 62
     7
 48
0.1075
100
AcDbLine
 10
127.855545
 20
382.400024
 30
0.0
 11
123.555527
 21
382.400024
 31
0.0
210
0.0
220
0.0
230
1.0
  0
LINE
  5
DB
100
AcDbEntity
  8
0
370
    35
390
0
 62
     7
 48
0.044377
100
AcDbLine
 10
128.355545
 20
382.900024
 30
0.0
 11
128.355545
 21
384.67511
 31
0.0
210
0.0
220
0.0
230
1.0
  0
ARC
  5
DC
100
AcDbEntity
  8
0
370
    35
390
0
 62
     7
100
AcDbCircle
 10
125.307571
 20
384.618958
 30
0.0
 40
3.049055
210
0.0
220
0.0
230
1.0
100
AcDbArc
 50
1.054896
 51
14.838094
  0
LINE
  5
DD
100
AcDbEntity
  8
0
370
    35
390
0
 62
     7
 48
0.109189
100
AcDbLine
 10
127.855545
 20
385.599976
 30
0.0
 11
123.487991
 21
385.599976
 31
0.0
210
0.0
220
0.0
230
1.0
  0
LINE
  5
DE
100
AcDbEntity
  8
0
370
    35
390
0
 62
     7
 48
0.008556
100
AcDbLine
 10
123.355545
 20
385.741455
 30
0.0
 11
123.355545
 21
386.083679
 31
0.0
210
0.0
220
0.0
230
1.0
  0
ARC
  5
DF
100
AcDbEntity
  8
0
370
    35
390
0
 62
     7
100
AcDbCircle
 10
121.355545
 20
407.5
 30
0.0
 40
2.2
210
0.0
220
0.0
230
1.0
100
AcDbArc
 50
179.999991
 51
303.749004
  0
LINE
  5
E0
100
AcDbEntity
  8
0
370
    35
390
0
 62
     7
 48
0.025
100
AcDbLine
 10
119.155533
 20
408.5
 30
0.0
 11
119.155533
 21
407.5
 31
0.0
210
0.0
220
0.0
230
1.0
  0
LINE
  5
E1
100
AcDbEntity
  8
0
370
    35
390
0
 62
     7
100
AcDbLine
 10
118.655533
 20
409.0
 30
0.0
 11
45.055527
 21
409.0
 31
0.0
210
0.0
220
0.0
230
1.0
  0
LINE
  5
E2
100
AcDbEntity
  8
0
370
    35
390
0
 62
     7
 48
0.025
100
AcDbLine
 10
44.555527
 20
407.5
 30
0.0
 11
44.555527
 21
408.5
 31
0.0
210
0.0
220
0.0
230
1.0
  0
LINE
  5
E3
100
AcDbEntity
  8
0
370
    35
390
0
 62
     7
 48
0.005
100
AcDbLine
 10
45.055527
 20
407.299988
 30
0.0
 11
45.055527
 21
407.5
 31
0.0
210
0.0
220
0.0
230
1.0
  0
ARC
  5
E4
100
AcDbEntity
  8
0
370
    35
390
0
 62
     7
100
AcDbCircle
 10
46.055527
 20
407.299988
 30
0.0
 40
1.0
210
0.0
220
0.0
230
1.0
100
AcDbArc
 50
90.000003
 51
179.999991
  0
LINE
  5
E5
100
AcDbEntity
  8
0
370
    35
390
0
 62
     7
 48
0.3325
100
AcDbLine
 10
46.055527
 20
408.299988
 30
0.0
 11
59.35553
 21
408.299988
 31
0.0
210
0.0
220
0.0
230
1.0
  0
LINE
  5
E6
100
AcDbEntity
  8
0
370
    35
390
0
 62
     7
 48
0.35
100
AcDbLine
 10
101.355545
 20
408.299988
 30
0.0
 11
115.355545
 21
408.299988
 31
0.0
210
0.0
220
0.0
230
1.0
  0
ARC
  5
E7
100
AcDbEntity
  8
0
370
    35
390
0
 62
     7
100
AcDbCircle
 10
115.355545
 20
405.299988
 30
0.0
 40
3.0
210
0.0
220
0.0
230
1.0
100
AcDbArc
 50
0.0
 51
90.000003
  0
LINE
  5
E8
100
AcDbEntity
  8
0
370
    35
390
0
 62
     7
 48
0.339999
100
AcDbLine
 10
118.355545
 20
391.700012
 30
0.0
 11
118.355545
 21
405.299988
 31
0.0
210
0.0
220
0.0
230
1.0
  0
ARC
  5
E9
100
AcDbEntity
  8
0
370
    35
390
0
 62
     7
100
AcDbCircle
 10
115.355545
 20
391.700012
 30
0.0
 40
3.0
210
0.0
220
0.0
230
1.0
100
AcDbArc
 50
269.999997
 51
360.0
  0
LINE
  5
EA
100
AcDbEntity
  8
0
370
    35
390
0
 62
     7
 48
0.35
100
AcDbLine
 10
115.355545
 20
388.700012
 30
0.0
 11
101.355545
 21
388.700012
 31
0.0
210
0.0
220
0.0
230
1.0
  0
LINE
  5
EB
100
AcDbEntity
  8
0
370
    35
390
0
 62
     7
 48
0.35
100
AcDbLine
 10
59.35553
 20
388.700012
 30
0.0
 11
45.35553
 21
388.700012
 31
0.0
210
0.0
220
0.0
230
1.0
  0
ARC
  5
EC
100
AcDbEntity
  8
0
370
    35
390
0
 62
     7
100
AcDbCircle
 10
45.35553
 20
391.700012
 30
0.0
 40
3.0
210
0.0
220
0.0
230
1.0
100
AcDbArc
 50
179.999991
 51
269.999997
  0
LINE
  5
ED
100
AcDbEntity
  8
0
370
    35
390
0
 62
     7
 48
0.305942
100
AcDbLine
 10
42.35553
 20
403.937683
 30
0.0
 11
42.35553
 21
391.700012
 31
0.0
210
0.0
220
0.0
230
1.0
  0
ARC
  5
EE
100
AcDbEntity
  8
0
370
    35
390
0
 62
     7
100
AcDbCircle
 10
43.35553
 20
403.937683
 30
0.0
 40
1.0
210
0.0
220
0.0
230
1.0
100
AcDbArc
 50
105.680348
 51
179.999991
  0
ARC
  5
EF
100
AcDbEntity
  8
0
370
    35
390
0
 62
     7
100
AcDbCircle
 10
35.403503
 20
406.780945
 30
0.0
 40
3.049055
210
0.0
220
0.0
230
1.0
100
AcDbArc
 50
181.05489
 51
194.838089
  0
LINE
  5
F0
100
AcDbEntity
  8
0
370
    35
390
0
 62
     7
 48
0.109188
100
AcDbLine
 10
37.223068
 20
405.799988
 30
0.0
 11
32.85553
 21
405.799988
 31
0.0
210
0.0
220
0.0
230
1.0
  0
LINE
  5
F1
100
AcDbEntity
  8
0
370
    35
390
0
 62
     7
 48
0.002623
100
AcDbLine
 10
37.35553
 20
385.741455
 30
0.0
 11
37.35553
 21
385.846375
 31
0.0
210
0.0
220
0.0
230
1.0
  0
LINE
  5
F2
100
AcDbEntity
  8
0
370
    35
390
0
 62
     7
 48
0.109188
100
AcDbLine
 10
37.223068
 20
385.599976
 30
0.0
 11
32.85553
 21
385.599976
 31
0.0
210
0.0
220
0.0
230
1.0
  0
ARC
  5
F3
100
AcDbEntity
  8
0
370
    35
390
0
 62
     7
100
AcDbCircle
 10
35.404678
 20
384.618347
 30
0.0
 40
3.050319
210
0.0
220
0.0
230
1.0
100
AcDbArc
 50
165.155408
 51
178.932897
  0
LINE
  5
F4
100
AcDbEntity
  8
0
370
    35
390
0
 62
     7
 48
0.044377
100
AcDbLine
 10
32.35553
 20
382.900024
 30
0.0
 11
32.35553
 21
384.67511
 31
0.0
210
0.0
220
0.0
230
1.0
  0
LINE
  5
F5
100
AcDbEntity
  8
0
370
    35
390
0
 62
     7
 48
0.1075
100
AcDbLine
 10
37.155533
 20
382.400024
 30
0.0
 11
32.85553
 21
382.400024
 31
0.0
210
0.0
220
0.0
230
1.0
  0
LINE
  5
F6
100
AcDbEntity
  8
0
370
    35
390
0
 62
     7
 48
0.005
100
AcDbLine
 10
37.35553
 20
382.0
 30
0.0
 11
37.35553
 21
382.200012
 31
0.0
210
0.0
220
0.0
230
1.0
  0
LINE
  5
F7
100
AcDbEntity
  8
0
370
    35
390
0
 62
     7
 48
0.0125
100
AcDbLine
 10
37.35553
 20
382.0
 30
0.0
 11
37.85553
 21
382.0
 31
0.0
210
0.0
220
0.0
230
1.0
  0
LINE
  5
F8
100
AcDbEntity
  8
0
370
    35
390
0
 62
     7
 48
0.125
100
AcDbLine
 10
42.85553
 20
381.5
 30
0.0
 11
37.85553
 21
381.5
 31
0.0
210
0.0
220
0.0
230
1.0
  0
ARC
  5
F9
100
AcDbEntity
  8
0
370
    35
390
0
 62
     7
100
AcDbCircle
 10
42.85553
 20
382.0
 30
0.0
 40
0.5
210
0.0
220
0.0
230
1.0
100
AcDbArc
 50
269.999997
 51
360.0
  0
LINE
  5
FA
100
AcDbEntity
  8
0
370
    35
390
0
 62
     7
 48
0.000509
100
AcDbLine
 10
32.673782
 20
405.799988
 30
0.0
 11
32.653442
 21
405.801025
 31
0.0
210
0.0
220
0.0
230
1.0
  0
LINE
  5
FB
100
AcDbEntity
  8
0
370
    35
390
0
 62
     7
 48
0.000516
100
AcDbLine
 10
32.653442
 20
405.801025
 30
0.0
 11
32.633026
 21
405.804138
 31
0.0
210
0.0
220
0.0
230
1.0
  0
LINE
  5
FC
100
AcDbEntity
  8
0
370
    35
390
0
 62
     7
 48
0.000696
100
AcDbLine
 10
32.633026
 20
405.804138
 30
0.0
 11
32.606216
 21
405.811707
 31
0.0
210
0.0
220
0.0
230
1.0
  0
LINE
  5
FD
100
AcDbEntity
  8
0
370
    35
390
0
 62
     7
 48
0.000702
100
AcDbLine
 10
32.606216
 20
405.811707
 30
0.0
 11
32.580566
 21
405.82312
 31
0.0
210
0.0
220
0.0
230
1.0
  0
LINE
  5
FE
100
AcDbEntity
  8
0
370
    35
390
0
 62
     7
 48
0.000701
100
AcDbLine
 10
32.580566
 20
405.82312
 30
0.0
 11
32.556763
 21
405.837952
 31
0.0
210
0.0
220
0.0
230
1.0
  0
LINE
  5
FF
100
AcDbEntity
  8
0
370
    35
390
0
 62
     7
 48
0.000539
100
AcDbLine
 10
32.556763
 20
405.837952
 30
0.0
 11
32.540009
 21
405.851501
 31
0.0
210
0.0
220
0.0
230
1.0
  0
LINE
  5
100
100
AcDbEntity
  8
0
370
    35
390
0
 62
     7
 48
0.000544
100
AcDbLine
 10
32.540009
 20
405.851501
 30
0.0
 11
32.524506
 21
405.86676
 31
0.0
210
0.0
220
0.0
230
1.0
  0
LINE
  5
101
100
AcDbEntity
  8
0
370
    35
390
0
 62
     7
 48
0.001096
100
AcDbLine
 10
32.524506
 20
405.86676
 30
0.0
 11
32.497604
 21
405.901367
 31
0.0
210
0.0
220
0.0
230
1.0
  0
LINE
  5
102
100
AcDbEntity
  8
0
370
    35
390
0
 62
     7
 48
0.001093
100
AcDbLine
 10
32.497604
 20
405.901367
 30
0.0
 11
32.476563
 21
405.939697
 31
0.0
210
0.0
220
0.0
230
1.0
  0
LINE
  5
103
100
AcDbEntity
  8
0
370
    35
390
0
 62
     7
 48
0.000806
100
AcDbLine
 10
32.476563
 20
405.939697
 30
0.0
 11
32.464569
 21
405.969604
 31
0.0
210
0.0
220
0.0
230
1.0
  0
LINE
  5
104
100
AcDbEntity
  8
0
370
    35
390
0
 62
     7
 48
0.000793
100
AcDbLine
 10
32.464569
 20
405.969604
 30
0.0
 11
32.455536
 21
406.0
 31
0.0
210
0.0
220
0.0
230
1.0
  0
LINE
  5
105
100
AcDbEntity
  8
0
370
    35
390
0
 62
     7
 48
0.17528
100
AcDbLine
 10
32.36673
 20
406.5
 30
0.0
 11
25.35553
 21
406.5
 31
0.0
210
0.0
220
0.0
230
1.0
  0
LINE
  5
106
100
AcDbEntity
  8
0
370
    35
390
0
 62
     7
 48
0.116886
100
AcDbLine
 10
25.35553
 20
406.5
 30
0.0
 11
20.680084
 21
406.5
 31
0.0
210
0.0
220
0.0
230
1.0
  0
LINE
  5
107
100
AcDbEntity
  8
0
370
    35
390
0
 62
     7
 48
0.05
100
AcDbLine
 10
25.35553
 20
406.5
 30
0.0
 11
25.35553
 21
404.5
 31
0.0
210
0.0
220
0.0
230
1.0
  0
LINE
  5
108
100
AcDbEntity
  8
0
370
    35
390
0
 62
     7
 48
0.026338
100
AcDbLine
 10
37.35553
 20
404.5
 30
0.0
 11
37.35553
 21
405.553528
 31
0.0
210
0.0
220
0.0
230
1.0
  0
ARC
  5
109
100
AcDbEntity
  8
0
370
    35
390
0
 62
     7
100
AcDbCircle
 10
136.355545
 20
407.700012
 30
0.0
 40
0.5
210
0.0
220
0.0
230
1.0
100
AcDbArc
 50
269.999997
 51
360.0
  0
ARC
  5
10A
100
AcDbEntity
  8
0
370
    35
390
0
 62
     7
100
AcDbCircle
 10
123.855545
 20
408.5
 30
0.0
 40
0.5
210
0.0
220
0.0
230
1.0
100
AcDbArc
 50
90.000003
 51
179.999991
  0
LINE
  5
10B
100
AcDbEntity
  8
0
370
    35
390
0
 62
     7
 48
0.02
100
AcDbLine
 10
123.355545
 20
407.700012
 30
0.0
 11
123.355545
 21
408.5
 31
0.0
210
0.0
220
0.0
230
1.0
  0
LINE
  5
10C
100
AcDbEntity
  8
0
370
    35
390
0
 62
     7
 48
0.04957
100
AcDbLine
 10
43.555527
 20
383.882813
 30
0.0
 11
43.555527
 21
381.900024
 31
0.0
210
0.0
220
0.0
230
1.0
  0
LINE
  5
10D
100
AcDbEntity
  8
0
370
    35
390
0
 62
     7
 48
0.025
100
AcDbLine
 10
43.555527
 20
381.900024
 30
0.0
 11
44.555527
 21
381.900024
 31
0.0
210
0.0
220
0.0
230
1.0
  0
LINE
  5
10E
100
AcDbEntity
  8
0
370
    35
390
0
 62
     7
100
AcDbLine
 10
44.85553
 20
383.900024
 30
0.0
 11
111.855545
 21
383.900024
 31
0.0
210
0.0
220
0.0
230
1.0
  0
LINE
  5
10F
100
AcDbEntity
  8
0
370
    35
390
0
 62
     7
100
AcDbLine
 10
44.555527
 20
381.900024
 30
0.0
 11
112.155533
 21
381.900024
 31
0.0
210
0.0
220
0.0
230
1.0
  0
LINE
  5
110
100
AcDbEntity
  8
0
370
    35
390
0
 62
     7
 48
0.025
100
AcDbLine
 10
112.155533
 20
381.900024
 30
0.0
 11
113.155533
 21
381.900024
 31
0.0
210
0.0
220
0.0
230
1.0
  0
LINE
  5
111
100
AcDbEntity
  8
0
370
    35
390
0
 62
     7
 48
0.04957
100
AcDbLine
 10
113.155533
 20
383.882813
 30
0.0
 11
113.155533
 21
381.900024
 31
0.0
210
0.0
220
0.0
230
1.0
  0
LINE
  5
112
100
AcDbEntity
  8
0
370
    35
390
0
 62
     7
 48
0.017678
100
AcDbLine
 10
123.355545
 20
382.0
 30
0.0
 11
122.855545
 21
381.5
 31
0.0
210
0.0
220
0.0
230
1.0
  0
ARC
  5
113
100
AcDbEntity
  8
0
370
    35
390
0
 62
     7
100
AcDbCircle
 10
123.555527
 20
382.200012
 30
0.0
 40
0.2
210
0.0
220
0.0
230
1.0
100
AcDbArc
 50
90.000003
 51
179.999991
  0
ARC
  5
114
100
AcDbEntity
  8
0
370
    35
390
0
 62
     7
100
AcDbCircle
 10
127.855545
 20
382.900024
 30
0.0
 40
0.5
210
0.0
220
0.0
230
1.0
100
AcDbArc
 50
269.999997
 51
360.0
  0
LINE
  5
115
100
AcDbEntity
  8
0
370
    35
390
0
 62
     7
 48
0.000509
100
AcDbLine
 10
128.037277
 20
385.599976
 30
0.0
 11
128.057602
 21
385.598999
 31
0.0
210
0.0
220
0.0
230
1.0
  0
LINE
  5
116
100
AcDbEntity
  8
0
370
    35
390
0
 62
     7
 48
0.000517
100
AcDbLine
 10
128.057602
 20
385.598999
 30
0.0
 11
128.078018
 21
385.595825
 31
0.0
210
0.0
220
0.0
230
1.0
  0
LINE
  5
117
100
AcDbEntity
  8
0
370
    35
390
0
 62
     7
 48
0.000697
100
AcDbLine
 10
128.078018
 20
385.595825
 30
0.0
 11
128.104843
 21
385.588196
 31
0.0
210
0.0
220
0.0
230
1.0
  0
LINE
  5
118
100
AcDbEntity
  8
0
370
    35
390
0
 62
     7
 48
0.0007
100
AcDbLine
 10
128.104843
 20
385.588196
 30
0.0
 11
128.130478
 21
385.576904
 31
0.0
210
0.0
220
0.0
230
1.0
  0
LINE
  5
119
100
AcDbEntity
  8
0
370
    35
390
0
 62
     7
 48
0.000703
100
AcDbLine
 10
128.130478
 20
385.576904
 30
0.0
 11
128.154312
 21
385.561951
 31
0.0
210
0.0
220
0.0
230
1.0
  0
LINE
  5
11A
100
AcDbEntity
  8
0
370
    35
390
0
 62
     7
 48
0.000538
100
AcDbLine
 10
128.154312
 20
385.561951
 30
0.0
 11
128.171066
 21
385.548462
 31
0.0
210
0.0
220
0.0
230
1.0
  0
LINE
  5
11B
100
AcDbEntity
  8
0
370
    35
390
0
 62
     7
 48
0.000543
100
AcDbLine
 10
128.171066
 20
385.548462
 30
0.0
 11
128.186569
 21
385.533264
 31
0.0
210
0.0
220
0.0
230
1.0
  0
LINE
  5
11C
100
AcDbEntity
  8
0
370
    35
390
0
 62
     7
 48
0.001097
100
AcDbLine
 10
128.186569
 20
385.533264
 30
0.0
 11
128.213455
 21
385.498596
 31
0.0
210
0.0
220
0.0
230
1.0
  0
LINE
  5
11D
100
AcDbEntity
  8
0
370
    35
390
0
 62
     7
 48
0.001093
100
AcDbLine
 10
128.213455
 20
385.498596
 30
0.0
 11
128.234512
 21
385.460266
 31
0.0
210
0.0
220
0.0
230
1.0
  0
LINE
  5
11E
100
AcDbEntity
  8
0
370
    35
390
0
 62
     7
 48
0.000805
100
AcDbLine
 10
128.234512
 20
385.460266
 30
0.0
 11
128.246475
 21
385.430359
 31
0.0
210
0.0
220
0.0
230
1.0
  0
LINE
  5
11F
100
AcDbEntity
  8
0
370
    35
390
0
 62
     7
 48
0.000791
100
AcDbLine
 10
128.246475
 20
385.430359
 30
0.0
 11
128.255508
 21
385.400024
 31
0.0
210
0.0
220
0.0
230
1.0
  0
LINE
  5
120
100
AcDbEntity
  8
0
370
    35
390
0
 62
     7
 48
0.004543
100
AcDbLine
 10
128.037277
 20
385.599976
 30
0.0
 11
127.855545
 21
385.599976
 31
0.0
210
0.0
220
0.0
230
1.0
  0
LINE
  5
121
100
AcDbEntity
  8
0
370
    35
390
0
 62
     7
 48
0.0625
100
AcDbLine
 10
123.355545
 20
404.049988
 30
0.0
 11
123.355545
 21
406.549988
 31
0.0
210
0.0
220
0.0
230
1.0
  0
LINE
  5
122
100
AcDbEntity
  8
0
370
    35
390
0
 62
     7
 48
0.4125
100
AcDbLine
 10
123.355545
 20
404.049988
 30
0.0
 11
123.355545
 21
387.549988
 31
0.0
210
0.0
220
0.0
230
1.0
  0
LINE
  5
123
100
AcDbEntity
  8
0
370
    35
390
0
 62
     7
 48
0.036658
100
AcDbLine
 10
123.355545
 20
386.083679
 30
0.0
 11
123.355545
 21
387.549988
 31
0.0
210
0.0
220
0.0
230
1.0
  0
ARC
  5
124
100
AcDbEntity
  8
0
370
    35
390
0
 62
     7
100
AcDbCircle
 10
122.855545
 20
405.255005
 30
0.0
 40
0.5
210
0.0
220
0.0
230
1.0
100
AcDbArc
 50
0.0
 51
123.748985
  0
ARC
  5
125
100
AcDbEntity
  8
0
370
    35
390
0
 62
     7
100
AcDbCircle
 10
123.525833
 20
385.773315
 30
0.0
 40
0.173423
210
0.0
220
0.0
230
1.0
100
AcDbArc
 50
181.124176
 51
270.648838
  0
LINE
  5
126
100
AcDbEntity
  8
0
370
    35
390
0
 62
     7
 48
0.000752
100
AcDbLine
 10
123.351486
 20
385.799988
 30
0.0
 11
123.351578
 21
385.769897
 31
0.0
210
0.0
220
0.0
230
1.0
  0
ARC
  5
127
100
AcDbEntity
  8
0
370
    35
390
0
 62
     7
100
AcDbCircle
 10
118.655533
 20
408.5
 30
0.0
 40
0.5
210
0.0
220
0.0
230
1.0
100
AcDbArc
 50
0.0
 51
90.000003
  0
ARC
  5
128
100
AcDbEntity
  8
0
370
    35
390
0
 62
     7
100
AcDbCircle
 10
42.35553
 20
407.5
 30
0.0
 40
2.7
210
0.0
220
0.0
230
1.0
100
AcDbArc
 50
285.680336
 51
360.0
  0
ARC
  5
129
100
AcDbEntity
  8
0
370
    35
390
0
 62
     7
100
AcDbCircle
 10
59.35553
 20
391.700012
 30
0.0
 40
3.0
210
0.0
220
0.0
230
1.0
100
AcDbArc
 50
269.999997
 51
360.0
  0
LINE
  5
12A
100
AcDbEntity
  8
0
370
    35
390
0
 62
     7
 48
0.339999
100
AcDbLine
 10
62.35553
 20
391.700012
 30
0.0
 11
62.35553
 21
405.299988
 31
0.0
210
0.0
220
0.0
230
1.0
  0
ARC
  5
12B
100
AcDbEntity
  8
0
370
    35
390
0
 62
     7
100
AcDbCircle
 10
59.35553
 20
405.299988
 30
0.0
 40
3.0
210
0.0
220
0.0
230
1.0
100
AcDbArc
 50
0.0
 51
90.000003
  0
ARC
  5
12C
100
AcDbEntity
  8
0
370
    35
390
0
 62
     7
100
AcDbCircle
 10
54.85553
 20
401.0
 30
0.0
 40
4.5
210
0.0
220
0.0
230
1.0
100
AcDbArc
 50
269.999997
 51
90.000003
  0
LINE
  5
12D
100
AcDbEntity
  8
0
370
    35
390
0
 62
     7
 48
0.125
100
AcDbLine
 10
54.85553
 20
396.5
 30
0.0
 11
49.85553
 21
396.5
 31
0.0
210
0.0
220
0.0
230
1.0
  0
ARC
  5
12E
100
AcDbEntity
  8
0
370
    35
390
0
 62
     7
100
AcDbCircle
 10
49.85553
 20
401.0
 30
0.0
 40
4.5
210
0.0
220
0.0
230
1.0
100
AcDbArc
 50
90.000003
 51
269.999997
  0
LINE
  5
12F
100
AcDbEntity
  8
0
370
    35
390
0
 62
     7
 48
0.125
100
AcDbLine
 10
49.85553
 20
405.5
 30
0.0
 11
54.85553
 21
405.5
 31
0.0
210
0.0
220
0.0
230
1.0
  0
ARC
  5
130
100
AcDbEntity
  8
0
370
    35
390
0
 62
     7
100
AcDbCircle
 10
101.355545
 20
391.700012
 30
0.0
 40
3.0
210
0.0
220
0.0
230
1.0
100
AcDbArc
 50
179.999991
 51
269.999997
  0
LINE
  5
131
100
AcDbEntity
  8
0
370
    35
390
0
 62
     7
 48
0.339999
100
AcDbLine
 10
98.355545
 20
405.299988
 30
0.0
 11
98.355545
 21
391.700012
 31
0.0
210
0.0
220
0.0
230
1.0
  0
ARC
  5
132
100
AcDbEntity
  8
0
370
    35
390
0
 62
     7
100
AcDbCircle
 10
101.355545
 20
405.299988
 30
0.0
 40
3.0
210
0.0
220
0.0
230
1.0
100
AcDbArc
 50
90.000003
 51
179.999991
  0
ARC
  5
133
100
AcDbEntity
  8
0
370
    35
390
0
 62
     7
100
AcDbCircle
 10
110.855545
 20
401.0
 30
0.0
 40
4.5
210
0.0
220
0.0
230
1.0
100
AcDbArc
 50
269.999997
 51
90.000003
  0
LINE
  5
134
100
AcDbEntity
  8
0
370
    35
390
0
 62
     7
 48
0.125
100
AcDbLine
 10
110.855545
 20
396.5
 30
0.0
 11
105.855545
 21
396.5
 31
0.0
210
0.0
220
0.0
230
1.0
  0
ARC
  5
135
100
AcDbEntity
  8
0
370
    35
390
0
 62
     7
100
AcDbCircle
 10
105.855545
 20
401.0
 30
0.0
 40
4.5
210
0.0
220
0.0
230
1.0
100
AcDbArc
 50
90.000003
 51
269.999997
  0
LINE
  5
136
100
AcDbEntity
  8
0
370
    35
390
0
 62
     7
 48
0.125
100
AcDbLine
 10
105.855545
 20
405.5
 30
0.0
 11
110.855545
 21
405.5
 31
0.0
210
0.0
220
0.0
230
1.0
  0
LINE
  5
137
100
AcDbEntity
  8
0
370
    35
390
0
 62
     7
 48
0.004544
100
AcDbLine
 10
32.85553
 20
405.799988
 30
0.0
 11
32.673782
 21
405.799988
 31
0.0
210
0.0
220
0.0
230
1.0
  0
LINE
  5
138
100
AcDbEntity
  8
0
370
    35
390
0
 62
     7
 48
0.439999
100
AcDbLine
 10
37.35553
 20
404.5
 30
0.0
 11
37.35553
 21
386.900024
 31
0.0
210
0.0
220
0.0
230
1.0
  0
LINE
  5
139
100
AcDbEntity
  8
0
370
    35
390
0
 62
     7
 48
0.026341
100
AcDbLine
 10
37.35553
 20
385.846375
 30
0.0
 11
37.35553
 21
386.900024
 31
0.0
210
0.0
220
0.0
230
1.0
  0
ARC
  5
13A
100
AcDbEntity
  8
0
370
    35
390
0
 62
     7
100
AcDbCircle
 10
37.185242
 20
385.773315
 30
0.0
 40
0.173421
210
0.0
220
0.0
230
1.0
100
AcDbArc
 50
269.350856
 51
358.876253
  0
LINE
  5
13B
100
AcDbEntity
  8
0
370
    35
390
0
 62
     7
 48
0.000752
100
AcDbLine
 10
37.359573
 20
385.799988
 30
0.0
 11
37.359497
 21
385.769897
 31
0.0
210
0.0
220
0.0
230
1.0
  0
LINE
  5
13C
100
AcDbEntity
  8
0
370
    35
390
0
 62
     7
 48
0.000754
100
AcDbLine
 10
37.359573
 20
405.599976
 30
0.0
 11
37.359497
 21
405.630127
 31
0.0
210
0.0
220
0.0
230
1.0
  0
ARC
  5
13D
100
AcDbEntity
  8
0
370
    35
390
0
 62
     7
100
AcDbCircle
 10
37.185242
 20
405.626709
 30
0.0
 40
0.173422
210
0.0
220
0.0
230
1.0
100
AcDbArc
 50
1.123654
 51
90.64911
  0
LINE
  5
13E
100
AcDbEntity
  8
0
370
    35
390
0
 62
     7
 48
0.004544
100
AcDbLine
 10
32.85553
 20
385.599976
 30
0.0
 11
32.673782
 21
385.599976
 31
0.0
210
0.0
220
0.0
230
1.0
  0
LINE
  5
13F
100
AcDbEntity
  8
0
370
    35
390
0
 62
     7
 48
0.000509
100
AcDbLine
 10
32.673782
 20
385.599976
 30
0.0
 11
32.653442
 21
385.598999
 31
0.0
210
0.0
220
0.0
230
1.0
  0
LINE
  5
140
100
AcDbEntity
  8
0
370
    35
390
0
 62
     7
 48
0.000517
100
AcDbLine
 10
32.653442
 20
385.598999
 30
0.0
 11
32.633026
 21
385.595825
 31
0.0
210
0.0
220
0.0
230
1.0
  0
LINE
  5
141
100
AcDbEntity
  8
0
370
    35
390
0
 62
     7
 48
0.000697
100
AcDbLine
 10
32.633026
 20
385.595825
 30
0.0
 11
32.606216
 21
385.588196
 31
0.0
210
0.0
220
0.0
230
1.0
  0
LINE
  5
142
100
AcDbEntity
  8
0
370
    35
390
0
 62
     7
 48
0.000701
100
AcDbLine
 10
32.606216
 20
385.588196
 30
0.0
 11
32.580566
 21
385.576904
 31
0.0
210
0.0
220
0.0
230
1.0
  0
LINE
  5
143
100
AcDbEntity
  8
0
370
    35
390
0
 62
     7
 48
0.000703
100
AcDbLine
 10
32.580566
 20
385.576904
 30
0.0
 11
32.556763
 21
385.561951
 31
0.0
210
0.0
220
0.0
230
1.0
  0
LINE
  5
144
100
AcDbEntity
  8
0
370
    35
390
0
 62
     7
 48
0.000538
100
AcDbLine
 10
32.556763
 20
385.561951
 30
0.0
 11
32.540009
 21
385.548462
 31
0.0
210
0.0
220
0.0
230
1.0
  0
LINE
  5
145
100
AcDbEntity
  8
0
370
    35
390
0
 62
     7
 48
0.000543
100
AcDbLine
 10
32.540009
 20
385.548462
 30
0.0
 11
32.524506
 21
385.533264
 31
0.0
210
0.0
220
0.0
230
1.0
  0
LINE
  5
146
100
AcDbEntity
  8
0
370
    35
390
0
 62
     7
 48
0.001097
100
AcDbLine
 10
32.524506
 20
385.533264
 30
0.0
 11
32.497604
 21
385.498596
 31
0.0
210
0.0
220
0.0
230
1.0
  0
LINE
  5
147
100
AcDbEntity
  8
0
370
    35
390
0
 62
     7
 48
0.001093
100
AcDbLine
 10
32.497604
 20
385.498596
 30
0.0
 11
32.476563
 21
385.460266
 31
0.0
210
0.0
220
0.0
230
1.0
  0
LINE
  5
148
100
AcDbEntity
  8
0
370
    35
390
0
 62
     7
 48
0.000806
100
AcDbLine
 10
32.476563
 20
385.460266
 30
0.0
 11
32.464569
 21
385.430359
 31
0.0
210
0.0
220
0.0
230
1.0
  0
LINE
  5
149
100
AcDbEntity
  8
0
370
    35
390
0
 62
     7
 48
0.000791
100
AcDbLine
 10
32.464569
 20
385.430359
 30
0.0
 11
32.455536
 21
385.400024
 31
0.0
210
0.0
220
0.0
230
1.0
  0
ARC
  5
14A
100
AcDbEntity
  8
0
370
    35
390
0
 62
     7
100
AcDbCircle
 10
32.85553
 20
382.900024
 30
0.0
 40
0.5
210
0.0
220
0.0
230
1.0
100
AcDbArc
 50
179.999991
 51
269.999997
  0
ARC
  5
14B
100
AcDbEntity
  8
0
370
    35
390
0
 62
     7
100
AcDbCircle
 10
37.155533
 20
382.200012
 30
0.0
 40
0.2
210
0.0
220
0.0
230
1.0
100
AcDbArc
 50
0.0
 51
90.000003
  0
LINE
  5
14C
100
AcDbEntity
  8
0
370
    35
390
0
 62
     7
 48
0.017678
100
AcDbLine
 10
37.35553
 20
382.0
 30
0.0
 11
37.85553
 21
381.5
 31
0.0
210
0.0
220
0.0
230
1.0
  0
ARC
  5
14D
100
AcDbEntity
  8
0
370
    35
390
0
 62
     7
100
AcDbCircle
 10
20.680084
 20
404.5
 30
0.0
 40
2.0
210
0.0
220
0.0
230
1.0
100
AcDbArc
 50
90.000003
 51
108.434997
  0
LINE
  5
14E
100
AcDbEntity
  8
0
370
    35
390
0
 62
     7
 48
0.0125
100
AcDbLine
 10
25.35553
 20
404.0
 30
0.0
 11
25.35553
 21
404.5
 31
0.0
210
0.0
220
0.0
230
1.0
  0
LINE
  5
14F
100
AcDbEntity
  8
0
370
    35
390
0
 62
     7
 48
0.0125
100
AcDbLine
 10
25.35553
 20
401.0
 30
0.0
 11
25.35553
 21
400.5
 31
0.0
210
0.0
220
0.0
230
1.0
  0
LINE
  5
150
100
AcDbEntity
  8
0
370
    35
390
0
 62
     7
 48
0.075
100
AcDbLine
 10
25.35553
 20
401.0
 30
0.0
 11
25.35553
 21
404.0
 31
0.0
210
0.0
220
0.0
230
1.0
  0
ARC
  5
151
100
AcDbEntity
  8
0
370
    35
390
0
 62
     7
100
AcDbCircle
 10
31.355545
 20
401.200012
 30
0.0
 40
0.500016
210
0.0
220
0.0
230
1.0
100
AcDbArc
 50
0.001164
 51
179.995606
  0
LINE
  5
152
100
AcDbEntity
  8
0
370
    35
390
0
 62
     7
 48
0.3
100
AcDbLine
 10
30.85553
 20
401.200012
 30
0.0
 11
30.85553
 21
389.200012
 31
0.0
210
0.0
220
0.0
230
1.0
  0
ARC
  5
153
100
AcDbEntity
  8
0
370
    35
390
0
 62
     7
100
AcDbCircle
 10
31.355545
 20
389.200012
 30
0.0
 40
0.500016
210
0.0
220
0.0
230
1.0
100
AcDbArc
 50
180.00117
 51
359.995611
  0
LINE
  5
154
100
AcDbEntity
  8
0
370
    35
390
0
 62
     7
 48
0.3
100
AcDbLine
 10
31.85553
 20
401.200012
 30
0.0
 11
31.85553
 21
389.200012
 31
0.0
210
0.0
220
0.0
230
1.0
  0
ARC
  5
155
100
AcDbEntity
  8
0
370
    35
390
0
 62
     7
100
AcDbCircle
 10
29.855545
 20
401.200012
 30
0.0
 40
0.500016
210
0.0
220
0.0
230
1.0
100
AcDbArc
 50
0.001164
 51
179.995606
  0
LINE
  5
156
100
AcDbEntity
  8
0
370
    35
390
0
 62
     7
 48
0.3
100
AcDbLine
 10
29.35553
 20
401.200012
 30
0.0
 11
29.35553
 21
389.200012
 31
0.0
210
0.0
220
0.0
230
1.0
  0
ARC
  5
157
100
AcDbEntity
  8
0
370
    35
390
0
 62
     7
100
AcDbCircle
 10
29.855545
 20
389.200012
 30
0.0
 40
0.500016
210
0.0
220
0.0
230
1.0
100
AcDbArc
 50
180.00117
 51
359.995611
  0
LINE
  5
158
100
AcDbEntity
  8
0
370
    35
390
0
 62
     7
 48
0.3
100
AcDbLine
 10
30.35553
 20
401.200012
 30
0.0
 11
30.35553
 21
389.200012
 31
0.0
210
0.0
220
0.0
230
1.0
  0
ARC
  5
159
100
AcDbEntity
  8
0
370
    35
390
0
 62
     7
100
AcDbCircle
 10
28.355545
 20
401.200012
 30
0.0
 40
0.500016
210
0.0
220
0.0
230
1.0
100
AcDbArc
 50
0.001164
 51
179.995606
  0
LINE
  5
15A
100
AcDbEntity
  8
0
370
    35
390
0
 62
     7
 48
0.3
100
AcDbLine
 10
27.85553
 20
401.200012
 30
0.0
 11
27.85553
 21
389.200012
 31
0.0
210
0.0
220
0.0
230
1.0
  0
ARC
  5
15B
100
AcDbEntity
  8
0
370
    35
390
0
 62
     7
100
AcDbCircle
 10
28.355545
 20
389.200012
 30
0.0
 40
0.500016
210
0.0
220
0.0
230
1.0
100
AcDbArc
 50
180.00117
 51
359.995611
  0
LINE
  5
15C
100
AcDbEntity
  8
0
370
    35
390
0
 62
     7
 48
0.3
100
AcDbLine
 10
28.85553
 20
401.200012
 30
0.0
 11
28.85553
 21
389.200012
 31
0.0
210
0.0
220
0.0
230
1.0
  0
ARC
  5
15D
100
AcDbEntity
  8
0
370
    35
390
0
 62
     7
100
AcDbCircle
 10
26.855545
 20
401.200012
 30
0.0
 40
0.500016
210
0.0
220
0.0
230
1.0
100
AcDbArc
 50
0.001164
 51
179.995606
  0
LINE
  5
15E
100
AcDbEntity
  8
0
370
    35
390
0
 62
     7
 48
0.3
100
AcDbLine
 10
26.35553
 20
401.200012
 30
0.0
 11
26.35553
 21
389.200012
 31
0.0
210
0.0
220
0.0
230
1.0
  0
ARC
  5
15F
100
AcDbEntity
  8
0
370
    35
390
0
 62
     7
100
AcDbCircle
 10
26.855545
 20
389.200012
 30
0.0
 40
0.500016
210
0.0
220
0.0
230
1.0
100
AcDbArc
 50
180.00117
 51
359.995611
  0
LINE
  5
160
100
AcDbEntity
  8
0
370
    35
390
0
 62
     7
 48
0.3
100
AcDbLine
 10
27.35553
 20
401.200012
 30
0.0
 11
27.35553
 21
389.200012
 31
0.0
210
0.0
220
0.0
230
1.0
  0
LINE
  5
161
100
AcDbEntity
  8
0
370
    35
390
0
 62
     7
 48
0.0125
100
AcDbLine
 10
123.355545
 20
407.200012
 30
0.0
 11
123.855545
 21
407.200012
 31
0.0
210
0.0
220
0.0
230
1.0
  0
LINE
  5
162
100
AcDbEntity
  8
0
370
    35
390
0
 62
     7
 48
0.3125
100
AcDbLine
 10
123.855545
 20
407.200012
 30
0.0
 11
136.355545
 21
407.200012
 31
0.0
210
0.0
220
0.0
230
1.0
  0
ARC
  5
163
100
AcDbEntity
  8
0
370
    35
390
0
 62
     7
100
AcDbCircle
 10
123.855545
 20
407.700012
 30
0.0
 40
0.5
210
0.0
220
0.0
230
1.0
100
AcDbArc
 50
179.999991
 51
269.999997
  0
LINE
  5
164
100
AcDbEntity
  8
0
370
    35
390
0
 62
     7
 48
0.009151
100
AcDbLine
 10
123.355545
 20
406.833984
 30
0.0
 11
123.355545
 21
407.200012
 31
0.0
210
0.0
220
0.0
230
1.0
  0
LINE
  5
165
100
AcDbEntity
  8
0
370
    35
390
0
 62
     7
 48
0.000838
100
AcDbLine
 10
123.355545
 20
406.583496
 30
0.0
 11
123.355545
 21
406.549988
 31
0.0
210
0.0
220
0.0
230
1.0
  0
LINE
  5
166
100
AcDbEntity
  8
0
370
    35
390
0
 62
     7
 48
0.006262
100
AcDbLine
 10
123.355545
 20
406.833984
 30
0.0
 11
123.355545
 21
406.583496
 31
0.0
210
0.0
220
0.0
230
1.0
  0
CIRCLE
  5
167
100
AcDbEntity
  8
0
370
    35
390
0
 62
     7
100
AcDbCircle
 10
42.35553
 20
407.5
 30
0.0
 40
1.475
210
0.0
220
0.0
230
1.0
  0
CIRCLE
  5
168
100
AcDbEntity
  8
0
370
    35
390
0
 62
     7
100
AcDbCircle
 10
121.355545
 20
407.5
 30
0.0
 40
1.475
210
0.0
220
0.0
230
1.0
  0
LINE
  5
169
100
AcDbEntity
  8
0
370
    35
390
0
 62
     7
 48
0.003751
100
AcDbLine
 10
123.355545
 20
381.849976
 30
0.0
 11
123.355545
 21
382.0
 31
0.0
210
0.0
220
0.0
230
1.0
  0
LINE
  5
16A
100
AcDbEntity
  8
0
370
    35
390
0
 62
     7
 48
0.1375
100
AcDbLine
 10
128.855545
 20
381.849976
 30
0.0
 11
123.355545
 21
381.849976
 31
0.0
210
0.0
220
0.0
230
1.0
  0
LINE
  5
16B
100
AcDbEntity
  8
0
370
    35
390
0
 62
     7
 48
0.0125
100
AcDbLine
 10
128.855545
 20
384.400024
 30
0.0
 11
128.355545
 21
384.400024
 31
0.0
210
0.0
220
0.0
230
1.0
  0
LINE
  5
16C
100
AcDbEntity
  8
0
370
    35
390
0
 62
     7
 48
0.017678
100
AcDbLine
 10
123.855545
 20
407.049988
 30
0.0
 11
123.355545
 21
406.549988
 31
0.0
210
0.0
220
0.0
230
1.0
  0
LINE
  5
16D
100
AcDbEntity
  8
0
370
    35
390
0
 62
     7
 48
0.125
100
AcDbLine
 10
123.855545
 20
407.049988
 30
0.0
 11
128.855545
 21
407.049988
 31
0.0
210
0.0
220
0.0
230
1.0
  0
LINE
  5
16E
100
AcDbEntity
  8
0
370
    35
390
0
 62
     7
 48
0.292166
100
AcDbLine
 10
32.36673
 20
384.900024
 30
0.0
 11
20.680084
 21
384.900024
 31
0.0
210
0.0
220
0.0
230
1.0
  0
LINE
  5
16F
100
AcDbEntity
  8
0
370
    35
390
0
 62
     7
 48
0.01165
100
AcDbLine
 10
19.60553
 20
406.249939
 30
0.0
 11
20.047623
 21
406.397339
 31
0.0
210
0.0
220
0.0
230
1.0
  0
LINE
  5
170
100
AcDbEntity
  8
0
370
    35
390
0
 62
     7
 48
0.017334
100
AcDbLine
 10
15.88118
 20
401.0
 30
0.0
 11
15.18782
 21
401.0
 31
0.0
210
0.0
220
0.0
230
1.0
  0
LINE
  5
171
100
AcDbEntity
  8
0
370
    35
390
0
 62
     7
 48
0.108114
100
AcDbLine
 10
15.88118
 20
401.0
 30
0.0
 11
20.20575
 21
401.0
 31
0.0
210
0.0
220
0.0
230
1.0
  0
LINE
  5
172
100
AcDbEntity
  8
0
370
    35
390
0
 62
     7
 48
0.011858
100
AcDbLine
 10
20.680084
 20
401.0
 30
0.0
 11
20.20575
 21
401.0
 31
0.0
210
0.0
220
0.0
230
1.0
  0
LINE
  5
173
100
AcDbEntity
  8
0
370
    35
390
0
 62
     7
 48
0.116886
100
AcDbLine
 10
25.35553
 20
401.0
 30
0.0
 11
20.680084
 21
401.0
 31
0.0
210
0.0
220
0.0
230
1.0
  0
LINE
  5
174
100
AcDbEntity
  8
0
370
    35
390
0
 62
     7
 48
0.003661
100
AcDbLine
 10
123.355545
 20
381.703552
 30
0.0
 11
123.355545
 21
381.849976
 31
0.0
210
0.0
220
0.0
230
1.0
  0
LINE
  5
175
100
AcDbEntity
  8
0
370
    35
390
0
 62
     7
 48
0.001428
100
AcDbLine
 10
123.355545
 20
381.646423
 30
0.0
 11
123.355545
 21
381.703552
 31
0.0
210
0.0
220
0.0
230
1.0
  0
LINE
  5
176
100
AcDbEntity
  8
0
370
    35
390
0
 62
     7
 48
0.003661
100
AcDbLine
 10
123.355545
 20
381.5
 30
0.0
 11
123.355545
 21
381.646423
 31
0.0
210
0.0
220
0.0
230
1.0
  0
ARC
  5
177
100
AcDbEntity
  8
0
370
    35
390
0
 62
     7
100
AcDbCircle
 10
128.855545
 20
382.349976
 30
0.0
 40
0.5
210
0.0
220
0.0
230
1.0
100
AcDbArc
 50
269.999997
 51
360.0
  0
LINE
  5
178
100
AcDbEntity
  8
0
370
    35
390
0
 62
     7
 48
0.038893
100
AcDbLine
 10
129.355545
 20
383.905701
 30
0.0
 11
129.355545
 21
382.349976
 31
0.0
210
0.0
220
0.0
230
1.0
  0
ARC
  5
179
100
AcDbEntity
  8
0
370
    35
390
0
 62
     7
100
AcDbCircle
 10
128.868637
 20
383.902344
 30
0.0
 40
0.486994
210
0.0
220
0.0
230
1.0
100
AcDbArc
 50
0.394923
 51
23.93947
  0
ARC
  5
17A
100
AcDbEntity
  8
0
370
    35
390
0
 62
     7
100
AcDbCircle
 10
128.855545
 20
383.900024
 30
0.0
 40
0.5
210
0.0
220
0.0
230
1.0
100
AcDbArc
 50
23.578231
 51
90.000003
  0
LINE
  5
17B
100
AcDbEntity
  8
0
370
    35
390
0
 62
     7
 48
0.0625
100
AcDbLine
 10
129.355545
 20
404.049988
 30
0.0
 11
129.355545
 21
406.549988
 31
0.0
210
0.0
220
0.0
230
1.0
  0
ARC
  5
17C
100
AcDbEntity
  8
0
370
    35
390
0
 62
     7
100
AcDbCircle
 10
128.855545
 20
406.549988
 30
0.0
 40
0.5
210
0.0
220
0.0
230
1.0
100
AcDbArc
 50
0.0
 51
90.000003
  0
LINE
  5
17D
100
AcDbEntity
  8
0
370
    35
390
0
 62
     7
 48
0.055
100
AcDbLine
 10
128.855545
 20
390.75
 30
0.0
 11
126.655533
 21
390.75
 31
0.0
210
0.0
220
0.0
230
1.0
  0
LINE
  5
17E
100
AcDbEntity
  8
0
370
    35
390
0
 62
     7
 48
0.32
100
AcDbLine
 10
129.355545
 20
404.049988
 30
0.0
 11
129.355545
 21
391.25
 31
0.0
210
0.0
220
0.0
230
1.0
  0
LINE
  5
17F
100
AcDbEntity
  8
0
370
    35
390
0
 62
     7
 48
0.064458
100
AcDbLine
 10
126.355545
 20
390.450012
 30
0.0
 11
126.355545
 21
387.871704
 31
0.0
210
0.0
220
0.0
230
1.0
  0
LINE
  5
180
100
AcDbEntity
  8
0
370
    35
390
0
 62
     7
 48
0.198577
100
AcDbLine
 10
56.327072
 20
396.900024
 30
0.0
 11
48.383987
 21
396.900024
 31
0.0
210
0.0
220
0.0
230
1.0
  0
ARC
  5
181
100
AcDbEntity
  8
0
370
    35
390
0
 62
     7
100
AcDbCircle
 10
48.383987
 20
397.400024
 30
0.0
 40
0.5
210
0.0
220
0.0
230
1.0
100
AcDbArc
 50
210.000003
 51
269.999997
  0
LINE
  5
182
100
AcDbEntity
  8
0
370
    35
390
0
 62
     7
 48
0.103923
100
AcDbLine
 10
47.950974
 20
397.150024
 30
0.0
 11
45.872513
 21
400.75
 31
0.0
210
0.0
220
0.0
230
1.0
  0
ARC
  5
183
100
AcDbEntity
  8
0
370
    35
390
0
 62
     7
100
AcDbCircle
 10
46.305527
 20
401.0
 30
0.0
 40
0.5
210
0.0
220
0.0
230
1.0
100
AcDbArc
 50
149.999997
 51
210.000003
  0
LINE
  5
184
100
AcDbEntity
  8
0
370
    35
390
0
 62
     7
 48
0.103923
100
AcDbLine
 10
45.872513
 20
401.25
 30
0.0
 11
47.950974
 21
404.849976
 31
0.0
210
0.0
220
0.0
230
1.0
  0
ARC
  5
185
100
AcDbEntity
  8
0
370
    35
390
0
 62
     7
100
AcDbCircle
 10
48.383987
 20
404.599976
 30
0.0
 40
0.5
210
0.0
220
0.0
230
1.0
100
AcDbArc
 50
90.000003
 51
149.999997
  0
LINE
  5
186
100
AcDbEntity
  8
0
370
    35
390
0
 62
     7
 48
0.198577
100
AcDbLine
 10
48.383987
 20
405.099976
 30
0.0
 11
56.327072
 21
405.099976
 31
0.0
210
0.0
220
0.0
230
1.0
  0
ARC
  5
187
100
AcDbEntity
  8
0
370
    35
390
0
 62
     7
100
AcDbCircle
 10
56.327072
 20
404.599976
 30
0.0
 40
0.5
210
0.0
220
0.0
230
1.0
100
AcDbArc
 50
30.000001
 51
90.000003
  0
LINE
  5
188
100
AcDbEntity
  8
0
370
    35
390
0
 62
     7
 48
0.103923
100
AcDbLine
 10
56.760086
 20
404.849976
 30
0.0
 11
58.838547
 21
401.25
 31
0.0
210
0.0
220
0.0
230
1.0
  0
ARC
  5
189
100
AcDbEntity
  8
0
370
    35
390
0
 62
     7
100
AcDbCircle
 10
58.405533
 20
401.0
 30
0.0
 40
0.5
210
0.0
220
0.0
230
1.0
100
AcDbArc
 50
329.999989
 51
30.000001
  0
LINE
  5
18A
100
AcDbEntity
  8
0
370
    35
390
0
 62
     7
 48
0.103923
100
AcDbLine
 10
58.838547
 20
400.75
 30
0.0
 11
56.760086
 21
397.150024
 31
0.0
210
0.0
220
0.0
230
1.0
  0
ARC
  5
18B
100
AcDbEntity
  8
0
370
    35
390
0
 62
     7
100
AcDbCircle
 10
56.327072
 20
397.400024
 30
0.0
 40
0.5
210
0.0
220
0.0
230
1.0
100
AcDbArc
 50
269.999997
 51
329.999989
  0
ARC
  5
18C
100
AcDbEntity
  8
0
370
    35
390
0
 62
     7
100
AcDbCircle
 10
104.326248
 20
397.5
 30
0.0
 40
0.5
210
0.0
220
0.0
230
1.0
100
AcDbArc
 50
210.000003
 51
269.999997
  0
LINE
  5
18D
100
AcDbEntity
  8
0
370
    35
390
0
 62
     7
 48
0.101036
100
AcDbLine
 10
103.893234
 20
397.25
 30
0.0
 11
101.872543
 21
400.75
 31
0.0
210
0.0
220
0.0
230
1.0
  0
ARC
  5
18E
100
AcDbEntity
  8
0
370
    35
390
0
 62
     7
100
AcDbCircle
 10
102.305527
 20
401.0
 30
0.0
 40
0.5
210
0.0
220
0.0
230
1.0
100
AcDbArc
 50
149.999997
 51
210.000003
  0
LINE
  5
18F
100
AcDbEntity
  8
0
370
    35
390
0
 62
     7
 48
0.101036
100
AcDbLine
 10
101.872543
 20
401.25
 30
0.0
 11
103.893234
 21
404.75
 31
0.0
210
0.0
220
0.0
230
1.0
  0
ARC
  5
190
100
AcDbEntity
  8
0
370
    35
390
0
 62
     7
100
AcDbCircle
 10
104.326248
 20
404.5
 30
0.0
 40
0.5
210
0.0
220
0.0
230
1.0
100
AcDbArc
 50
90.000003
 51
149.999997
  0
LINE
  5
191
100
AcDbEntity
  8
0
370
    35
390
0
 62
     7
 48
0.201464
100
AcDbLine
 10
104.326248
 20
405.0
 30
0.0
 11
112.384811
 21
405.0
 31
0.0
210
0.0
220
0.0
230
1.0
  0
ARC
  5
192
100
AcDbEntity
  8
0
370
    35
390
0
 62
     7
100
AcDbCircle
 10
112.384811
 20
404.5
 30
0.0
 40
0.5
210
0.0
220
0.0
230
1.0
100
AcDbArc
 50
30.000001
 51
90.000003
  0
LINE
  5
193
100
AcDbEntity
  8
0
370
    35
390
0
 62
     7
 48
0.101036
100
AcDbLine
 10
112.817825
 20
404.75
 30
0.0
 11
114.838547
 21
401.25
 31
0.0
210
0.0
220
0.0
230
1.0
  0
ARC
  5
194
100
AcDbEntity
  8
0
370
    35
390
0
 62
     7
100
AcDbCircle
 10
114.405533
 20
401.0
 30
0.0
 40
0.5
210
0.0
220
0.0
230
1.0
100
AcDbArc
 50
329.999989
 51
30.000001
  0
LINE
  5
195
100
AcDbEntity
  8
0
370
    35
390
0
 62
     7
 48
0.101036
100
AcDbLine
 10
114.838547
 20
400.75
 30
0.0
 11
112.817825
 21
397.25
 31
0.0
210
0.0
220
0.0
230
1.0
  0
ARC
  5
196
100
AcDbEntity
  8
0
370
    35
390
0
 62
     7
100
AcDbCircle
 10
112.384811
 20
397.5
 30
0.0
 40
0.5
210
0.0
220
0.0
230
1.0
100
AcDbArc
 50
269.999997
 51
329.999989
  0
LINE
  5
197
100
AcDbEntity
  8
0
370
    35
390
0
 62
     7
 48
0.201464
100
AcDbLine
 10
112.384811
 20
397.0
 30
0.0
 11
104.326248
 21
397.0
 31
0.0
210
0.0
220
0.0
230
1.0
  0
LINE
  5
198
100
AcDbEntity
  8
0
370
    35
390
0
 62
     7
 48
0.003117
100
AcDbLine
 10
20.047623
 20
385.002625
 30
0.0
 11
20.167114
 21
384.96698
 31
0.0
210
0.0
220
0.0
230
1.0
  0
LINE
  5
199
100
AcDbEntity
  8
0
370
    35
390
0
 62
     7
 48
0.003118
100
AcDbLine
 10
20.167114
 20
384.96698
 30
0.0
 11
20.288681
 21
384.939087
 31
0.0
210
0.0
220
0.0
230
1.0
  0
LINE
  5
19A
100
AcDbEntity
  8
0
370
    35
390
0
 62
     7
 48
0.003119
100
AcDbLine
 10
20.288681
 20
384.939087
 30
0.0
 11
20.411804
 21
384.919067
 31
0.0
210
0.0
220
0.0
230
1.0
  0
LINE
  5
19B
100
AcDbEntity
  8
0
370
    35
390
0
 62
     7
 48
0.00312
100
AcDbLine
 10
20.411804
 20
384.919067
 30
0.0
 11
20.536026
 21
384.906982
 31
0.0
210
0.0
220
0.0
230
1.0
  0
LINE
  5
19C
100
AcDbEntity
  8
0
370
    35
390
0
 62
     7
 48
0.003123
100
AcDbLine
 10
20.536026
 20
384.906982
 30
0.0
 11
20.660858
 21
384.902832
 31
0.0
210
0.0
220
0.0
230
1.0
  0
LINE
  5
19D
100
AcDbEntity
  8
0
370
    35
390
0
 62
     7
 48
0.000481
100
AcDbLine
 10
20.660858
 20
384.902832
 30
0.0
 11
20.680084
 21
384.902893
 31
0.0
210
0.0
220
0.0
230
1.0
  0
ARC
  5
19E
100
AcDbEntity
  8
0
370
    35
390
0
 62
     7
100
AcDbCircle
 10
20.680084
 20
386.900024
 30
0.0
 40
2.0
210
0.0
220
0.0
230
1.0
100
AcDbArc
 50
251.564989
 51
269.999997
  0
LINE
  5
19F
100
AcDbEntity
  8
0
370
    35
390
0
 62
     7
 48
0.028026
100
AcDbLine
 10
14.35553
 20
401.750061
 30
0.0
 11
14.35553
 21
400.629028
 31
0.0
210
0.0
220
0.0
230
1.0
  0
LINE
  5
1A0
100
AcDbEntity
  8
0
370
    35
390
0
 62
     7
 48
0.01
100
AcDbLine
 10
42.555527
 20
406.400024
 30
0.0
 11
42.155533
 21
406.400024
 31
0.0
210
0.0
220
0.0
230
1.0
  0
LINE
  5
1A1
100
AcDbEntity
  8
0
370
    35
390
0
 62
     7
 48
0.016249
100
AcDbLine
 10
42.555527
 20
406.400024
 30
0.0
 11
42.555527
 21
407.049988
 31
0.0
210
0.0
220
0.0
230
1.0
  0
ARC
  5
1A2
100
AcDbEntity
  8
0
370
    35
390
0
 62
     7
100
AcDbCircle
 10
42.805527
 20
407.049988
 30
0.0
 40
0.25
210
0.0
220
0.0
230
1.0
100
AcDbArc
 50
90.000003
 51
179.999991
  0
LINE
  5
1A3
100
AcDbEntity
  8
0
370
    35
390
0
 62
     7
 48
0.01625
100
AcDbLine
 10
42.805527
 20
407.299988
 30
0.0
 11
43.455536
 21
407.299988
 31
0.0
210
0.0
220
0.0
230
1.0
  0
LINE
  5
1A4
100
AcDbEntity
  8
0
370
    35
390
0
 62
     7
 48
0.010001
100
AcDbLine
 10
43.455536
 20
407.299988
 30
0.0
 11
43.455536
 21
407.700012
 31
0.0
210
0.0
220
0.0
230
1.0
  0
LINE
  5
1A5
100
AcDbEntity
  8
0
370
    35
390
0
 62
     7
 48
0.01625
100
AcDbLine
 10
42.805527
 20
407.700012
 30
0.0
 11
43.455536
 21
407.700012
 31
0.0
210
0.0
220
0.0
230
1.0
  0
ARC
  5
1A6
100
AcDbEntity
  8
0
370
    35
390
0
 62
     7
100
AcDbCircle
 10
42.805527
 20
407.950012
 30
0.0
 40
0.25
210
0.0
220
0.0
230
1.0
100
AcDbArc
 50
179.999991
 51
269.999997
  0
LINE
  5
1A7
100
AcDbEntity
  8
0
370
    35
390
0
 62
     7
 48
0.016249
100
AcDbLine
 10
42.555527
 20
408.599976
 30
0.0
 11
42.555527
 21
407.950012
 31
0.0
210
0.0
220
0.0
230
1.0
  0
LINE
  5
1A8
100
AcDbEntity
  8
0
370
    35
390
0
 62
     7
 48
0.01
100
AcDbLine
 10
42.555527
 20
408.599976
 30
0.0
 11
42.155533
 21
408.599976
 31
0.0
210
0.0
220
0.0
230
1.0
  0
LINE
  5
1A9
100
AcDbEntity
  8
0
370
    35
390
0
 62
     7
 48
0.016249
100
AcDbLine
 10
42.155533
 20
408.599976
 30
0.0
 11
42.155533
 21
407.950012
 31
0.0
210
0.0
220
0.0
230
1.0
  0
ARC
  5
1AA
100
AcDbEntity
  8
0
370
    35
390
0
 62
     7
100
AcDbCircle
 10
41.905533
 20
407.950012
 30
0.0
 40
0.25
210
0.0
220
0.0
230
1.0
100
AcDbArc
 50
269.999997
 51
360.0
  0
LINE
  5
1AB
100
AcDbEntity
  8
0
370
    35
390
0
 62
     7
 48
0.01625
100
AcDbLine
 10
41.905533
 20
407.700012
 30
0.0
 11
41.255524
 21
407.700012
 31
0.0
210
0.0
220
0.0
230
1.0
  0
LINE
  5
1AC
100
AcDbEntity
  8
0
370
    35
390
0
 62
     7
 48
0.010001
100
AcDbLine
 10
41.255524
 20
407.299988
 30
0.0
 11
41.255524
 21
407.700012
 31
0.0
210
0.0
220
0.0
230
1.0
  0
LINE
  5
1AD
100
AcDbEntity
  8
0
370
    35
390
0
 62
     7
 48
0.01625
100
AcDbLine
 10
41.905533
 20
407.299988
 30
0.0
 11
41.255524
 21
407.299988
 31
0.0
210
0.0
220
0.0
230
1.0
  0
ARC
  5
1AE
100
AcDbEntity
  8
0
370
    35
390
0
 62
     7
100
AcDbCircle
 10
41.905533
 20
407.049988
 30
0.0
 40
0.25
210
0.0
220
0.0
230
1.0
100
AcDbArc
 50
0.0
 51
90.000003
  0
LINE
  5
1AF
100
AcDbEntity
  8
0
370
    35
390
0
 62
     7
 48
0.016249
100
AcDbLine
 10
42.155533
 20
406.400024
 30
0.0
 11
42.155533
 21
407.049988
 31
0.0
210
0.0
220
0.0
230
1.0
  0
LINE
  5
1B0
100
AcDbEntity
  8
0
370
    35
390
0
 62
     7
 48
0.01
100
AcDbLine
 10
121.555527
 20
406.400024
 30
0.0
 11
121.155533
 21
406.400024
 31
0.0
210
0.0
220
0.0
230
1.0
  0
LINE
  5
1B1
100
AcDbEntity
  8
0
370
    35
390
0
 62
     7
 48
0.016249
100
AcDbLine
 10
121.555527
 20
406.400024
 30
0.0
 11
121.555527
 21
407.049988
 31
0.0
210
0.0
220
0.0
230
1.0
  0
ARC
  5
1B2
100
AcDbEntity
  8
0
370
    35
390
0
 62
     7
100
AcDbCircle
 10
121.805527
 20
407.049988
 30
0.0
 40
0.25
210
0.0
220
0.0
230
1.0
100
AcDbArc
 50
90.000003
 51
179.999991
  0
LINE
  5
1B3
100
AcDbEntity
  8
0
370
    35
390
0
 62
     7
 48
0.016251
100
AcDbLine
 10
121.805527
 20
407.299988
 30
0.0
 11
122.455551
 21
407.299988
 31
0.0
210
0.0
220
0.0
230
1.0
  0
LINE
  5
1B4
100
AcDbEntity
  8
0
370
    35
390
0
 62
     7
 48
0.010001
100
AcDbLine
 10
122.455551
 20
407.299988
 30
0.0
 11
122.455551
 21
407.700012
 31
0.0
210
0.0
220
0.0
230
1.0
  0
LINE
  5
1B5
100
AcDbEntity
  8
0
370
    35
390
0
 62
     7
 48
0.016251
100
AcDbLine
 10
121.805527
 20
407.700012
 30
0.0
 11
122.455551
 21
407.700012
 31
0.0
210
0.0
220
0.0
230
1.0
  0
ARC
  5
1B6
100
AcDbEntity
  8
0
370
    35
390
0
 62
     7
100
AcDbCircle
 10
121.805527
 20
407.950012
 30
0.0
 40
0.25
210
0.0
220
0.0
230
1.0
100
AcDbArc
 50
179.999991
 51
269.999997
  0
LINE
  5
1B7
100
AcDbEntity
  8
0
370
    35
390
0
 62
     7
 48
0.016249
100
AcDbLine
 10
121.555527
 20
408.599976
 30
0.0
 11
121.555527
 21
407.950012
 31
0.0
210
0.0
220
0.0
230
1.0
  0
LINE
  5
1B8
100
AcDbEntity
  8
0
370
    35
390
0
 62
     7
 48
0.01
100
AcDbLine
 10
121.555527
 20
408.599976
 30
0.0
 11
121.155533
 21
408.599976
 31
0.0
210
0.0
220
0.0
230
1.0
  0
LINE
  5
1B9
100
AcDbEntity
  8
0
370
    35
390
0
 62
     7
 48
0.016249
100
AcDbLine
 10
121.155533
 20
408.599976
 30
0.0
 11
121.155533
 21
407.950012
 31
0.0
210
0.0
220
0.0
230
1.0
  0
ARC
  5
1BA
100
AcDbEntity
  8
0
370
    35
390
0
 62
     7
100
AcDbCircle
 10
120.905533
 20
407.950012
 30
0.0
 40
0.25
210
0.0
220
0.0
230
1.0
100
AcDbArc
 50
269.999997
 51
360.0
  0
LINE
  5
1BB
100
AcDbEntity
  8
0
370
    35
390
0
 62
     7
 48
0.01625
100
AcDbLine
 10
120.905533
 20
407.700012
 30
0.0
 11
120.255539
 21
407.700012
 31
0.0
210
0.0
220
0.0
230
1.0
  0
LINE
  5
1BC
100
AcDbEntity
  8
0
370
    35
390
0
 62
     7
 48
0.010001
100
AcDbLine
 10
120.255539
 20
407.299988
 30
0.0
 11
120.255539
 21
407.700012
 31
0.0
210
0.0
220
0.0
230
1.0
  0
LINE
  5
1BD
100
AcDbEntity
  8
0
370
    35
390
0
 62
     7
 48
0.01625
100
AcDbLine
 10
120.905533
 20
407.299988
 30
0.0
 11
120.255539
 21
407.299988
 31
0.0
210
0.0
220
0.0
230
1.0
  0
ARC
  5
1BE
100
AcDbEntity
  8
0
370
    35
390
0
 62
     7
100
AcDbCircle
 10
120.905533
 20
407.049988
 30
0.0
 40
0.25
210
0.0
220
0.0
230
1.0
100
AcDbArc
 50
0.0
 51
90.000003
  0
LINE
  5
1BF
100
AcDbEntity
  8
0
370
    35
390
0
 62
     7
 48
0.016249
100
AcDbLine
 10
121.155533
 20
406.400024
 30
0.0
 11
121.155533
 21
407.049988
 31
0.0
210
0.0
220
0.0
230
1.0
  0
LINE
  5
1C0
100
AcDbEntity
  8
0
370
    35
390
0
 62
     7
 48
0.1375
100
AcDbLine
 10
128.855545
 20
381.5
 30
0.0
 11
123.355545
 21
381.5
 31
0.0
210
0.0
220
0.0
230
1.0
  0
LINE
  5
1C1
100
AcDbEntity
  8
0
370
    35
390
0
 62
     7
 48
0.0875
100
AcDbLine
 10
129.355545
 20
387.75
 30
0.0
 11
129.355545
 21
391.25
 31
0.0
210
0.0
220
0.0
230
1.0
  0
LINE
  5
1C2
100
AcDbEntity
  8
0
370
    35
390
0
 62
     7
 48
0.008749
100
AcDbLine
 10
129.355545
 20
387.75
 30
0.0
 11
129.355545
 21
387.400024
 31
0.0
210
0.0
220
0.0
230
1.0
  0
LINE
  5
1C3
100
AcDbEntity
  8
0
370
    35
390
0
 62
     7
 48
0.087358
100
AcDbLine
 10
129.355545
 20
383.905701
 30
0.0
 11
129.355545
 21
387.400024
 31
0.0
210
0.0
220
0.0
230
1.0
  0
LINE
  5
1C4
100
AcDbEntity
  8
0
370
    35
390
0
 62
     7
 48
0.007323
100
AcDbLine
 10
129.355545
 20
382.057068
 30
0.0
 11
129.355545
 21
382.349976
 31
0.0
210
0.0
220
0.0
230
1.0
  0
LINE
  5
1C5
100
AcDbEntity
  8
0
370
    35
390
0
 62
     7
 48
0.001427
100
AcDbLine
 10
129.355545
 20
382.057068
 30
0.0
 11
129.355545
 21
382.0
 31
0.0
210
0.0
220
0.0
230
1.0
  0
LINE
  5
1C6
100
AcDbEntity
  8
0
370
    35
390
0
 62
     7
 48
0.03876
100
AcDbLine
 10
126.355545
 20
386.321289
 30
0.0
 11
126.355545
 21
387.871704
 31
0.0
210
0.0
220
0.0
230
1.0
  0
LINE
  5
1C7
100
AcDbEntity
  8
0
370
    35
390
0
 62
     7
 48
0.01803
100
AcDbLine
 10
126.355545
 20
385.600098
 30
0.0
 11
126.355545
 21
386.321289
 31
0.0
210
0.0
220
0.0
230
1.0
  0
ARC
  5
1C8
100
AcDbEntity
  8
0
370
    35
390
0
 62
     7
100
AcDbCircle
 10
128.855545
 20
391.25
 30
0.0
 40
0.5
210
0.0
220
0.0
230
1.0
100
AcDbArc
 50
269.999997
 51
360.0
  0
ARC
  5
1C9
100
AcDbEntity
  8
0
370
    35
390
0
 62
     7
100
AcDbCircle
 10
126.655533
 20
390.450012
 30
0.0
 40
0.3
210
0.0
220
0.0
230
1.0
100
AcDbArc
 50
90.000003
 51
179.999991
  0
LINE
  5
1CA
100
AcDbEntity
  8
0
370
    35
390
0
 62
     7
 48
0.113962
100
AcDbLine
 10
15.723068
 20
386.444153
 30
0.0
 11
20.047623
 21
385.002625
 31
0.0
210
0.0
220
0.0
230
1.0
  0
LINE
  5
1CB
100
AcDbEntity
  8
0
370
    35
390
0
 62
     7
 48
0.083769
100
AcDbLine
 10
14.35553
 20
388.341492
 30
0.0
 11
14.35553
 21
391.692261
 31
0.0
210
0.0
220
0.0
230
1.0
  0
LINE
  5
1CC
100
AcDbEntity
  8
0
370
    35
390
0
 62
     7
 48
0.023035
100
AcDbLine
 10
14.35553
 20
399.707642
 30
0.0
 11
14.35553
 21
400.629028
 31
0.0
210
0.0
220
0.0
230
1.0
  0
ARC
  5
1CD
100
AcDbEntity
  8
0
370
    35
390
0
 62
     7
100
AcDbCircle
 10
16.35553
 20
388.341492
 30
0.0
 40
2.0
210
0.0
220
0.0
230
1.0
100
AcDbArc
 50
179.999991
 51
251.564989
  0
LINE
  5
1CE
100
AcDbEntity
  8
0
370
    35
390
0
 62
     7
 48
0.003667
100
AcDbLine
 10
-0.64447
 20
405.225403
 30
0.0
 11
-0.64447
 21
405.078735
 31
0.0
210
0.0
220
0.0
230
1.0
  0
LINE
  5
1CF
100
AcDbEntity
  8
0
370
    35
390
0
 62
     7
 48
0.004764
100
AcDbLine
 10
-0.64447
 20
405.415955
 30
0.0
 11
-0.64447
 21
405.225403
 31
0.0
210
0.0
220
0.0
230
1.0
  0
LINE
  5
1D0
100
AcDbEntity
  8
0
370
    35
390
0
 62
     7
 48
0.004376
100
AcDbLine
 10
-0.64447
 20
405.591003
 30
0.0
 11
-0.64447
 21
405.415955
 31
0.0
210
0.0
220
0.0
230
1.0
  0
LINE
  5
1D1
100
AcDbEntity
  8
0
370
    35
390
0
 62
     7
 48
0.00394
100
AcDbLine
 10
-0.64447
 20
405.748596
 30
0.0
 11
-0.64447
 21
405.591003
 31
0.0
210
0.0
220
0.0
230
1.0
  0
LINE
  5
1D2
100
AcDbEntity
  8
0
370
    35
390
0
 62
     7
 48
0.003459
100
AcDbLine
 10
-0.64447
 20
405.886963
 30
0.0
 11
-0.64447
 21
405.748596
 31
0.0
210
0.0
220
0.0
230
1.0
  0
LINE
  5
1D3
100
AcDbEntity
  8
0
370
    35
390
0
 62
     7
 48
0.002945
100
AcDbLine
 10
-0.64447
 20
406.004761
 30
0.0
 11
-0.64447
 21
405.886963
 31
0.0
210
0.0
220
0.0
230
1.0
  0
LINE
  5
1D4
100
AcDbEntity
  8
0
370
    35
390
0
 62
     7
 48
0.002394
100
AcDbLine
 10
-0.64447
 20
406.100525
 30
0.0
 11
-0.64447
 21
406.004761
 31
0.0
210
0.0
220
0.0
230
1.0
  0
LINE
  5
1D5
100
AcDbEntity
  8
0
370
    35
390
0
 62
     7
 48
0.001819
100
AcDbLine
 10
-0.64447
 20
406.173279
 30
0.0
 11
-0.64447
 21
406.100525
 31
0.0
210
0.0
220
0.0
230
1.0
  0
LINE
  5
1D6
100
AcDbEntity
  8
0
370
    35
390
0
 62
     7
 48
0.001225
100
AcDbLine
 10
-0.64447
 20
406.22229
 30
0.0
 11
-0.64447
 21
406.173279
 31
0.0
210
0.0
220
0.0
230
1.0
  0
LINE
  5
1D7
100
AcDbEntity
  8
0
370
    35
390
0
 62
     7
 48
0.000693
100
AcDbLine
 10
-0.64447
 20
406.25
 30
0.0
 11
-0.64447
 21
406.22229
 31
0.0
210
0.0
220
0.0
230
1.0
  0
LINE
  5
1D8
100
AcDbEntity
  8
0
370
    35
390
0
 62
     7
 48
0.000078
100
AcDbLine
 10
-0.64447
 20
406.25
 30
0.0
 11
-0.64447
 21
406.246887
 31
0.0
210
0.0
220
0.0
230
1.0
  0
LINE
  5
1D9
100
AcDbEntity
  8
0
370
    35
390
0
 62
     7
 48
0.000076
100
AcDbLine
 10
-0.64447
 20
401.753052
 30
0.0
 11
-0.64447
 21
401.75
 31
0.0
210
0.0
220
0.0
230
1.0
  0
LINE
  5
1DA
100
AcDbEntity
  8
0
370
    35
390
0
 62
     7
 48
0.000691
100
AcDbLine
 10
-0.64447
 20
401.777649
 30
0.0
 11
-0.64447
 21
401.75
 31
0.0
210
0.0
220
0.0
230
1.0
  0
LINE
  5
1DB
100
AcDbEntity
  8
0
370
    35
390
0
 62
     7
 48
0.001225
100
AcDbLine
 10
-0.64447
 20
401.82666
 30
0.0
 11
-0.64447
 21
401.777649
 31
0.0
210
0.0
220
0.0
230
1.0
  0
LINE
  5
1DC
100
AcDbEntity
  8
0
370
    35
390
0
 62
     7
 48
0.001819
100
AcDbLine
 10
-0.64447
 20
401.899414
 30
0.0
 11
-0.64447
 21
401.82666
 31
0.0
210
0.0
220
0.0
230
1.0
  0
LINE
  5
1DD
100
AcDbEntity
  8
0
370
    35
390
0
 62
     7
 48
0.002396
100
AcDbLine
 10
-0.64447
 20
401.995239
 30
0.0
 11
-0.64447
 21
401.899414
 31
0.0
210
0.0
220
0.0
230
1.0
  0
LINE
  5
1DE
100
AcDbEntity
  8
0
370
    35
390
0
 62
     7
 48
0.000754
100
AcDbLine
 10
-0.64447
 20
402.025391
 30
0.0
 11
-0.64447
 21
401.995239
 31
0.0
210
0.0
220
0.0
230
1.0
  0
LINE
  5
1DF
100
AcDbEntity
  8
0
370
    35
390
0
 62
     7
 48
0.00219
100
AcDbLine
 10
-0.64447
 20
402.112976
 30
0.0
 11
-0.64447
 21
402.025391
 31
0.0
210
0.0
220
0.0
230
1.0
  0
LINE
  5
1E0
100
AcDbEntity
  8
0
370
    35
390
0
 62
     7
 48
0.003461
100
AcDbLine
 10
-0.64447
 20
402.251404
 30
0.0
 11
-0.64447
 21
402.112976
 31
0.0
210
0.0
220
0.0
230
1.0
  0
LINE
  5
1E1
100
AcDbEntity
  8
0
370
    35
390
0
 62
     7
 48
0.00394
100
AcDbLine
 10
-0.64447
 20
402.408997
 30
0.0
 11
-0.64447
 21
402.251404
 31
0.0
210
0.0
220
0.0
230
1.0
  0
LINE
  5
1E2
100
AcDbEntity
  8
0
370
    35
390
0
 62
     7
 48
0.004376
100
AcDbLine
 10
-0.64447
 20
402.584045
 30
0.0
 11
-0.64447
 21
402.408997
 31
0.0
210
0.0
220
0.0
230
1.0
  0
LINE
  5
1E3
100
AcDbEntity
  8
0
370
    35
390
0
 62
     7
 48
0.004762
100
AcDbLine
 10
-0.64447
 20
402.774536
 30
0.0
 11
-0.64447
 21
402.584045
 31
0.0
210
0.0
220
0.0
230
1.0
  0
LINE
  5
1E4
100
AcDbEntity
  8
0
370
    35
390
0
 62
     7
 48
0.005099
100
AcDbLine
 10
-0.64447
 20
402.978516
 30
0.0
 11
-0.64447
 21
402.774536
 31
0.0
210
0.0
220
0.0
230
1.0
  0
LINE
  5
1E5
100
AcDbEntity
  8
0
370
    35
390
0
 62
     7
 48
0.005379
100
AcDbLine
 10
-0.64447
 20
403.193665
 30
0.0
 11
-0.64447
 21
402.978516
 31
0.0
210
0.0
220
0.0
230
1.0
  0
LINE
  5
1E6
100
AcDbEntity
  8
0
370
    35
390
0
 62
     7
 48
0.005598
100
AcDbLine
 10
-0.64447
 20
403.417603
 30
0.0
 11
-0.64447
 21
403.193665
 31
0.0
210
0.0
220
0.0
230
1.0
  0
LINE
  5
1E7
100
AcDbEntity
  8
0
370
    35
390
0
 62
     7
 48
0.00576
100
AcDbLine
 10
-0.64447
 20
403.64801
 30
0.0
 11
-0.64447
 21
403.417603
 31
0.0
210
0.0
220
0.0
230
1.0
  0
LINE
  5
1E8
100
AcDbEntity
  8
0
370
    35
390
0
 62
     7
 48
0.005856
100
AcDbLine
 10
-0.64447
 20
403.882263
 30
0.0
 11
-0.64447
 21
403.64801
 31
0.0
210
0.0
220
0.0
230
1.0
  0
LINE
  5
1E9
100
AcDbEntity
  8
0
370
    35
390
0
 62
     7
 48
0.005887
100
AcDbLine
 10
-0.64447
 20
404.117737
 30
0.0
 11
-0.64447
 21
403.882263
 31
0.0
210
0.0
220
0.0
230
1.0
  0
LINE
  5
1EA
100
AcDbEntity
  8
0
370
    35
390
0
 62
     7
 48
0.005855
100
AcDbLine
 10
-0.64447
 20
404.351929
 30
0.0
 11
-0.64447
 21
404.117737
 31
0.0
210
0.0
220
0.0
230
1.0
  0
LINE
  5
1EB
100
AcDbEntity
  8
0
370
    35
390
0
 62
     7
 48
0.00576
100
AcDbLine
 10
-0.64447
 20
404.582336
 30
0.0
 11
-0.64447
 21
404.351929
 31
0.0
210
0.0
220
0.0
230
1.0
  0
LINE
  5
1EC
100
AcDbEntity
  8
0
370
    35
390
0
 62
     7
 48
0.0056
100
AcDbLine
 10
-0.64447
 20
404.806335
 30
0.0
 11
-0.64447
 21
404.582336
 31
0.0
210
0.0
220
0.0
230
1.0
  0
LINE
  5
1ED
100
AcDbEntity
  8
0
370
    35
390
0
 62
     7
 48
0.005379
100
AcDbLine
 10
-0.64447
 20
405.021484
 30
0.0
 11
-0.64447
 21
404.806335
 31
0.0
210
0.0
220
0.0
230
1.0
  0
LINE
  5
1EE
100
AcDbEntity
  8
0
370
    35
390
0
 62
     7
 48
0.001431
100
AcDbLine
 10
-0.64447
 20
405.078735
 30
0.0
 11
-0.64447
 21
405.021484
 31
0.0
210
0.0
220
0.0
230
1.0
  0
LINE
  5
1EF
100
AcDbEntity
  8
0
370
    35
390
0
 62
     7
 48
0.006343
100
AcDbLine
 10
14.655533
 20
397.911987
 30
0.0
 11
14.596741
 21
398.158813
 31
0.0
210
0.0
220
0.0
230
1.0
  0
LINE
  5
1F0
100
AcDbEntity
  8
0
370
    35
390
0
 62
     7
 48
0.004966
100
AcDbLine
 10
14.596741
 20
398.158813
 30
0.0
 11
14.546967
 21
398.351135
 31
0.0
210
0.0
220
0.0
230
1.0
  0
LINE
  5
1F1
100
AcDbEntity
  8
0
370
    35
390
0
 62
     7
 48
0.006879
100
AcDbLine
 10
14.546967
 20
398.351135
 30
0.0
 11
14.47583
 21
398.616943
 31
0.0
210
0.0
220
0.0
230
1.0
  0
LINE
  5
1F2
100
AcDbEntity
  8
0
370
    35
390
0
 62
     7
 48
0.003273
100
AcDbLine
 10
14.47583
 20
398.616943
 30
0.0
 11
14.442871
 21
398.743652
 31
0.0
210
0.0
220
0.0
230
1.0
  0
LINE
  5
1F3
100
AcDbEntity
  8
0
370
    35
390
0
 62
     7
 48
0.002661
100
AcDbLine
 10
14.442871
 20
398.743652
 30
0.0
 11
14.417618
 21
398.847046
 31
0.0
210
0.0
220
0.0
230
1.0
  0
LINE
  5
1F4
100
AcDbEntity
  8
0
370
    35
390
0
 62
     7
 48
0.002559
100
AcDbLine
 10
14.417618
 20
398.847046
 30
0.0
 11
14.395584
 21
398.947021
 31
0.0
210
0.0
220
0.0
230
1.0
  0
LINE
  5
1F5
100
AcDbEntity
  8
0
370
    35
390
0
 62
     7
 48
0.002992
100
AcDbLine
 10
14.395584
 20
398.947021
 30
0.0
 11
14.374207
 21
399.064758
 31
0.0
210
0.0
220
0.0
230
1.0
  0
LINE
  5
1F6
100
AcDbEntity
  8
0
370
    35
390
0
 62
     7
 48
0.001568
100
AcDbLine
 10
14.374207
 20
399.064758
 30
0.0
 11
14.365631
 21
399.126892
 31
0.0
210
0.0
220
0.0
230
1.0
  0
LINE
  5
1F7
100
AcDbEntity
  8
0
370
    35
390
0
 62
     7
 48
0.001521
100
AcDbLine
 10
14.365631
 20
399.126892
 30
0.0
 11
14.359558
 21
399.187439
 31
0.0
210
0.0
220
0.0
230
1.0
  0
LINE
  5
1F8
100
AcDbEntity
  8
0
370
    35
390
0
 62
     7
 48
0.001234
100
AcDbLine
 10
14.359558
 20
399.187439
 30
0.0
 11
14.356552
 21
399.236694
 31
0.0
210
0.0
220
0.0
230
1.0
  0
LINE
  5
1F9
100
AcDbEntity
  8
0
370
    35
390
0
 62
     7
 48
0.001206
100
AcDbLine
 10
14.356552
 20
399.236694
 30
0.0
 11
14.35553
 21
399.284912
 31
0.0
210
0.0
220
0.0
230
1.0
  0
LINE
  5
1FA
100
AcDbEntity
  8
0
370
    35
390
0
 62
     7
 48
0.009694
100
AcDbLine
 10
14.655533
 20
393.487976
 30
0.0
 11
14.738998
 21
393.866638
 31
0.0
210
0.0
220
0.0
230
1.0
  0
LINE
  5
1FB
100
AcDbEntity
  8
0
370
    35
390
0
 62
     7
 48
0.004892
100
AcDbLine
 10
14.738998
 20
393.866638
 30
0.0
 11
14.779083
 21
394.058167
 31
0.0
210
0.0
220
0.0
230
1.0
  0
LINE
  5
1FC
100
AcDbEntity
  8
0
370
    35
390
0
 62
     7
 48
0.007385
100
AcDbLine
 10
14.779083
 20
394.058167
 30
0.0
 11
14.835159
 21
394.348206
 31
0.0
210
0.0
220
0.0
230
1.0
  0
LINE
  5
1FD
100
AcDbEntity
  8
0
370
    35
390
0
 62
     7
 48
0.00557
100
AcDbLine
 10
14.835159
 20
394.348206
 30
0.0
 11
14.872757
 21
394.56781
 31
0.0
210
0.0
220
0.0
230
1.0
  0
LINE
  5
1FE
100
AcDbEntity
  8
0
370
    35
390
0
 62
     7
 48
0.005591
100
AcDbLine
 10
14.872757
 20
394.56781
 30
0.0
 11
14.905411
 21
394.789063
 31
0.0
210
0.0
220
0.0
230
1.0
  0
LINE
  5
1FF
100
AcDbEntity
  8
0
370
    35
390
0
 62
     7
 48
0.005711
100
AcDbLine
 10
14.905411
 20
394.789063
 30
0.0
 11
14.932571
 21
395.015869
 31
0.0
210
0.0
220
0.0
230
1.0
  0
LINE
  5
200
100
AcDbEntity
  8
0
370
    35
390
0
 62
     7
 48
0.005706
100
AcDbLine
 10
14.932571
 20
395.015869
 30
0.0
 11
14.952637
 21
395.243225
 31
0.0
210
0.0
220
0.0
230
1.0
  0
LINE
  5
201
100
AcDbEntity
  8
0
370
    35
390
0
 62
     7
 48
0.002848
100
AcDbLine
 10
14.952637
 20
395.243225
 30
0.0
 11
14.959793
 21
395.356934
 31
0.0
210
0.0
220
0.0
230
1.0
  0
LINE
  5
202
100
AcDbEntity
  8
0
370
    35
390
0
 62
     7
 48
0.002846
100
AcDbLine
 10
14.959793
 20
395.356934
 30
0.0
 11
14.964951
 21
395.470642
 31
0.0
210
0.0
220
0.0
230
1.0
  0
LINE
  5
203
100
AcDbEntity
  8
0
370
    35
390
0
 62
     7
 48
0.003787
100
AcDbLine
 10
14.964951
 20
395.470642
 30
0.0
 11
14.968674
 21
395.62207
 31
0.0
210
0.0
220
0.0
230
1.0
  0
LINE
  5
204
100
AcDbEntity
  8
0
370
    35
390
0
 62
     7
 48
0.003781
100
AcDbLine
 10
14.968674
 20
395.62207
 30
0.0
 11
14.968719
 21
395.773315
 31
0.0
210
0.0
220
0.0
230
1.0
  0
LINE
  5
205
100
AcDbEntity
  8
0
370
    35
390
0
 62
     7
 48
0.003778
100
AcDbLine
 10
14.968719
 20
395.773315
 30
0.0
 11
14.965149
 21
395.924377
 31
0.0
210
0.0
220
0.0
230
1.0
  0
LINE
  5
206
100
AcDbEntity
  8
0
370
    35
390
0
 62
     7
 48
0.004719
100
AcDbLine
 10
14.965149
 20
395.924377
 30
0.0
 11
14.955643
 21
396.112915
 31
0.0
210
0.0
220
0.0
230
1.0
  0
LINE
  5
207
100
AcDbEntity
  8
0
370
    35
390
0
 62
     7
 48
0.004722
100
AcDbLine
 10
14.955643
 20
396.112915
 30
0.0
 11
14.940781
 21
396.301208
 31
0.0
210
0.0
220
0.0
230
1.0
  0
LINE
  5
208
100
AcDbEntity
  8
0
370
    35
390
0
 62
     7
 48
0.004723
100
AcDbLine
 10
14.940781
 20
396.301208
 30
0.0
 11
14.920853
 21
396.489075
 31
0.0
210
0.0
220
0.0
230
1.0
  0
LINE
  5
209
100
AcDbEntity
  8
0
370
    35
390
0
 62
     7
 48
0.003249
100
AcDbLine
 10
14.920853
 20
396.489075
 30
0.0
 11
14.904465
 21
396.617981
 31
0.0
210
0.0
220
0.0
230
1.0
  0
LINE
  5
20A
100
AcDbEntity
  8
0
370
    35
390
0
 62
     7
 48
0.003249
100
AcDbLine
 10
14.904465
 20
396.617981
 30
0.0
 11
14.886047
 21
396.746643
 31
0.0
210
0.0
220
0.0
230
1.0
  0
LINE
  5
20B
100
AcDbEntity
  8
0
370
    35
390
0
 62
     7
 48
0.003846
100
AcDbLine
 10
14.886047
 20
396.746643
 30
0.0
 11
14.861893
 21
396.89856
 31
0.0
210
0.0
220
0.0
230
1.0
  0
LINE
  5
20C
100
AcDbEntity
  8
0
370
    35
390
0
 62
     7
 48
0.003841
100
AcDbLine
 10
14.861893
 20
396.89856
 30
0.0
 11
14.835495
 21
397.049927
 31
0.0
210
0.0
220
0.0
230
1.0
  0
LINE
  5
20D
100
AcDbEntity
  8
0
370
    35
390
0
 62
     7
 48
0.007401
100
AcDbLine
 10
14.835495
 20
397.049927
 30
0.0
 11
14.779327
 21
397.340576
 31
0.0
210
0.0
220
0.0
230
1.0
  0
LINE
  5
20E
100
AcDbEntity
  8
0
370
    35
390
0
 62
     7
 48
0.004901
100
AcDbLine
 10
14.779327
 20
397.340576
 30
0.0
 11
14.739166
 21
397.532471
 31
0.0
210
0.0
220
0.0
230
1.0
  0
LINE
  5
20F
100
AcDbEntity
  8
0
370
    35
390
0
 62
     7
 48
0.009716
100
AcDbLine
 10
14.739166
 20
397.532471
 30
0.0
 11
14.655533
 21
397.911987
 31
0.0
210
0.0
220
0.0
230
1.0
  0
LINE
  5
210
100
AcDbEntity
  8
0
370
    35
390
0
 62
     7
 48
0.006345
100
AcDbLine
 10
14.655533
 20
393.487976
 30
0.0
 11
14.596725
 21
393.241089
 31
0.0
210
0.0
220
0.0
230
1.0
  0
LINE
  5
211
100
AcDbEntity
  8
0
370
    35
390
0
 62
     7
 48
0.004965
100
AcDbLine
 10
14.596725
 20
393.241089
 30
0.0
 11
14.546967
 21
393.048828
 31
0.0
210
0.0
220
0.0
230
1.0
  0
LINE
  5
212
100
AcDbEntity
  8
0
370
    35
390
0
 62
     7
 48
0.006877
100
AcDbLine
 10
14.546967
 20
393.048828
 30
0.0
 11
14.475845
 21
392.783081
 31
0.0
210
0.0
220
0.0
230
1.0
  0
LINE
  5
213
100
AcDbEntity
  8
0
370
    35
390
0
 62
     7
 48
0.003273
100
AcDbLine
 10
14.475845
 20
392.783081
 30
0.0
 11
14.442886
 21
392.656372
 31
0.0
210
0.0
220
0.0
230
1.0
  0
LINE
  5
214
100
AcDbEntity
  8
0
370
    35
390
0
 62
     7
 48
0.002662
100
AcDbLine
 10
14.442886
 20
392.656372
 30
0.0
 11
14.417618
 21
392.552917
 31
0.0
210
0.0
220
0.0
230
1.0
  0
LINE
  5
215
100
AcDbEntity
  8
0
370
    35
390
0
 62
     7
 48
0.002559
100
AcDbLine
 10
14.417618
 20
392.552917
 30
0.0
 11
14.395584
 21
392.452942
 31
0.0
210
0.0
220
0.0
230
1.0
  0
LINE
  5
216
100
AcDbEntity
  8
0
370
    35
390
0
 62
     7
 48
0.00299
100
AcDbLine
 10
14.395584
 20
392.452942
 30
0.0
 11
14.374207
 21
392.335266
 31
0.0
210
0.0
220
0.0
230
1.0
  0
LINE
  5
217
100
AcDbEntity
  8
0
370
    35
390
0
 62
     7
 48
0.001568
100
AcDbLine
 10
14.374207
 20
392.335266
 30
0.0
 11
14.365631
 21
392.273132
 31
0.0
210
0.0
220
0.0
230
1.0
  0
LINE
  5
218
100
AcDbEntity
  8
0
370
    35
390
0
 62
     7
 48
0.001523
100
AcDbLine
 10
14.365631
 20
392.273132
 30
0.0
 11
14.359558
 21
392.212524
 31
0.0
210
0.0
220
0.0
230
1.0
  0
LINE
  5
219
100
AcDbEntity
  8
0
370
    35
390
0
 62
     7
 48
0.001234
100
AcDbLine
 10
14.359558
 20
392.212524
 30
0.0
 11
14.356552
 21
392.163269
 31
0.0
210
0.0
220
0.0
230
1.0
  0
LINE
  5
21A
100
AcDbEntity
  8
0
370
    35
390
0
 62
     7
 48
0.001206
100
AcDbLine
 10
14.356552
 20
392.163269
 30
0.0
 11
14.35553
 21
392.115051
 31
0.0
210
0.0
220
0.0
230
1.0
  0
ARC
  5
21B
100
AcDbEntity
  8
0
370
    35
390
0
 62
     7
100
AcDbCircle
 10
128.855545
 20
382.0
 30
0.0
 40
0.5
210
0.0
220
0.0
230
1.0
100
AcDbArc
 50
269.999997
 51
360.0
  0
LINE
  5
21C
100
AcDbEntity
  8
0
370
    35
390
0
 62
     7
 48
0.083218
100
AcDbLine
 10
128.811172
 20
386.321289
 30
0.0
 11
128.811172
 21
389.650024
 31
0.0
210
0.0
220
0.0
230
1.0
  0
LINE
  5
21D
100
AcDbEntity
  8
0
370
    35
390
0
 62
     7
 48
0.029282
100
AcDbLine
 10
128.811172
 20
385.150024
 30
0.0
 11
128.811172
 21
386.321289
 31
0.0
210
0.0
220
0.0
230
1.0
  0
LINE
  5
21E
100
AcDbEntity
  8
0
370
    35
390
0
 62
     7
 48
0.242696
100
AcDbLine
 10
14.35553
 20
391.807678
 30
0.0
 11
4.647705
 21
391.807678
 31
0.0
210
0.0
220
0.0
230
1.0
  0
LINE
  5
21F
100
AcDbEntity
  8
0
370
    35
390
0
 62
     7
 48
0.002217
100
AcDbLine
 10
4.647705
 20
389.200012
 30
0.0
 11
4.593216
 21
389.269958
 31
0.0
210
0.0
220
0.0
230
1.0
  0
LINE
  5
220
100
AcDbEntity
  8
0
370
    35
390
0
 62
     7
 48
0.002142
100
AcDbLine
 10
4.593216
 20
389.269958
 30
0.0
 11
4.542114
 21
389.338745
 31
0.0
210
0.0
220
0.0
230
1.0
  0
LINE
  5
221
100
AcDbEntity
  8
0
370
    35
390
0
 62
     7
 48
0.002066
100
AcDbLine
 10
4.542114
 20
389.338745
 30
0.0
 11
4.494476
 21
389.40625
 31
0.0
210
0.0
220
0.0
230
1.0
  0
LINE
  5
222
100
AcDbEntity
  8
0
370
    35
390
0
 62
     7
 48
0.002002
100
AcDbLine
 10
4.494476
 20
389.40625
 30
0.0
 11
4.449982
 21
389.472839
 31
0.0
210
0.0
220
0.0
230
1.0
  0
LINE
  5
223
100
AcDbEntity
  8
0
370
    35
390
0
 62
     7
 48
0.002579
100
AcDbLine
 10
4.449982
 20
389.472839
 30
0.0
 11
4.395264
 21
389.560303
 31
0.0
210
0.0
220
0.0
230
1.0
  0
LINE
  5
224
100
AcDbEntity
  8
0
370
    35
390
0
 62
     7
 48
0.002485
100
AcDbLine
 10
4.395264
 20
389.560303
 30
0.0
 11
4.345749
 21
389.646484
 31
0.0
210
0.0
220
0.0
230
1.0
  0
LINE
  5
225
100
AcDbEntity
  8
0
370
    35
390
0
 62
     7
 48
0.002393
100
AcDbLine
 10
4.345749
 20
389.646484
 30
0.0
 11
4.301285
 21
389.731262
 31
0.0
210
0.0
220
0.0
230
1.0
  0
LINE
  5
226
100
AcDbEntity
  8
0
370
    35
390
0
 62
     7
 48
0.00277
100
AcDbLine
 10
4.301285
 20
389.731262
 30
0.0
 11
4.254318
 21
389.831604
 31
0.0
210
0.0
220
0.0
230
1.0
  0
LINE
  5
227
100
AcDbEntity
  8
0
370
    35
390
0
 62
     7
 48
0.002668
100
AcDbLine
 10
4.254318
 20
389.831604
 30
0.0
 11
4.214111
 21
389.930481
 31
0.0
210
0.0
220
0.0
230
1.0
  0
LINE
  5
228
100
AcDbEntity
  8
0
370
    35
390
0
 62
     7
 48
0.002585
100
AcDbLine
 10
4.214111
 20
389.930481
 30
0.0
 11
4.18045
 21
390.028259
 31
0.0
210
0.0
220
0.0
230
1.0
  0
LINE
  5
229
100
AcDbEntity
  8
0
370
    35
390
0
 62
     7
 48
0.002516
100
AcDbLine
 10
4.18045
 20
390.028259
 30
0.0
 11
4.153152
 21
390.125122
 31
0.0
210
0.0
220
0.0
230
1.0
  0
LINE
  5
22A
100
AcDbEntity
  8
0
370
    35
390
0
 62
     7
 48
0.002457
100
AcDbLine
 10
4.153152
 20
390.125122
 30
0.0
 11
4.132111
 21
390.22113
 31
0.0
210
0.0
220
0.0
230
1.0
  0
LINE
  5
22B
100
AcDbEntity
  8
0
370
    35
390
0
 62
     7
 48
0.002627
100
AcDbLine
 10
4.132111
 20
390.22113
 30
0.0
 11
4.11618
 21
390.325012
 31
0.0
210
0.0
220
0.0
230
1.0
  0
LINE
  5
22C
100
AcDbEntity
  8
0
370
    35
390
0
 62
     7
 48
0.002594
100
AcDbLine
 10
4.11618
 20
390.325012
 30
0.0
 11
4.107422
 21
390.428406
 31
0.0
210
0.0
220
0.0
230
1.0
  0
LINE
  5
22D
100
AcDbEntity
  8
0
370
    35
390
0
 62
     7
 48
0.002582
100
AcDbLine
 10
4.107422
 20
390.428406
 30
0.0
 11
4.105789
 21
390.531677
 31
0.0
210
0.0
220
0.0
230
1.0
  0
LINE
  5
22E
100
AcDbEntity
  8
0
370
    35
390
0
 62
     7
 48
0.002585
100
AcDbLine
 10
4.105789
 20
390.531677
 30
0.0
 11
4.111252
 21
390.634949
 31
0.0
210
0.0
220
0.0
230
1.0
  0
LINE
  5
22F
100
AcDbEntity
  8
0
370
    35
390
0
 62
     7
 48
0.002609
100
AcDbLine
 10
4.111252
 20
390.634949
 30
0.0
 11
4.123856
 21
390.738525
 31
0.0
210
0.0
220
0.0
230
1.0
  0
LINE
  5
230
100
AcDbEntity
  8
0
370
    35
390
0
 62
     7
 48
0.002651
100
AcDbLine
 10
4.123856
 20
390.738525
 30
0.0
 11
4.143677
 21
390.842712
 31
0.0
210
0.0
220
0.0
230
1.0
  0
LINE
  5
231
100
AcDbEntity
  8
0
370
    35
390
0
 62
     7
 48
0.002709
100
AcDbLine
 10
4.143677
 20
390.842712
 30
0.0
 11
4.170822
 21
390.947632
 31
0.0
210
0.0
220
0.0
230
1.0
  0
LINE
  5
232
100
AcDbEntity
  8
0
370
    35
390
0
 62
     7
 48
0.002788
100
AcDbLine
 10
4.170822
 20
390.947632
 30
0.0
 11
4.205475
 21
391.05365
 31
0.0
210
0.0
220
0.0
230
1.0
  0
LINE
  5
233
100
AcDbEntity
  8
0
370
    35
390
0
 62
     7
 48
0.002885
100
AcDbLine
 10
4.205475
 20
391.05365
 30
0.0
 11
4.247818
 21
391.161011
 31
0.0
210
0.0
220
0.0
230
1.0
  0
LINE
  5
234
100
AcDbEntity
  8
0
370
    35
390
0
 62
     7
 48
0.003002
100
AcDbLine
 10
4.247818
 20
391.161011
 30
0.0
 11
4.298141
 21
391.27002
 31
0.0
210
0.0
220
0.0
230
1.0
  0
LINE
  5
235
100
AcDbEntity
  8
0
370
    35
390
0
 62
     7
 48
0.002914
100
AcDbLine
 10
4.298141
 20
391.27002
 30
0.0
 11
4.352386
 21
391.373169
 31
0.0
210
0.0
220
0.0
230
1.0
  0
LINE
  5
236
100
AcDbEntity
  8
0
370
    35
390
0
 62
     7
 48
0.003047
100
AcDbLine
 10
4.352386
 20
391.373169
 30
0.0
 11
4.414093
 21
391.478271
 31
0.0
210
0.0
220
0.0
230
1.0
  0
LINE
  5
237
100
AcDbEntity
  8
0
370
    35
390
0
 62
     7
 48
0.003195
100
AcDbLine
 10
4.414093
 20
391.478271
 30
0.0
 11
4.483612
 21
391.58551
 31
0.0
210
0.0
220
0.0
230
1.0
  0
LINE
  5
238
100
AcDbEntity
  8
0
370
    35
390
0
 62
     7
 48
0.003361
100
AcDbLine
 10
4.483612
 20
391.58551
 30
0.0
 11
4.561325
 21
391.69519
 31
0.0
210
0.0
220
0.0
230
1.0
  0
LINE
  5
239
100
AcDbEntity
  8
0
370
    35
390
0
 62
     7
 48
0.003546
100
AcDbLine
 10
4.561325
 20
391.69519
 30
0.0
 11
4.647705
 21
391.807678
 31
0.0
210
0.0
220
0.0
230
1.0
  0
LINE
  5
23A
100
AcDbEntity
  8
0
370
    35
390
0
 62
     7
 48
0.242696
100
AcDbLine
 10
14.35553
 20
389.200012
 30
0.0
 11
4.647705
 21
389.200012
 31
0.0
210
0.0
220
0.0
230
1.0
  0
LINE
  5
23B
100
AcDbEntity
  8
0
370
    35
390
0
 62
     7
 48
0.002885
100
AcDbLine
 10
14.35553
 20
391.692261
 30
0.0
 11
14.35553
 21
391.807678
 31
0.0
210
0.0
220
0.0
230
1.0
  0
LINE
  5
23C
100
AcDbEntity
  8
0
370
    35
390
0
 62
     7
 48
0.001054
100
AcDbLine
 10
4.60553
 20
389.200012
 30
0.0
 11
4.647705
 21
389.200012
 31
0.0
210
0.0
220
0.0
230
1.0
  0
LINE
  5
23D
100
AcDbEntity
  8
0
370
    35
390
0
 62
     7
 48
0.242696
100
AcDbLine
 10
14.35553
 20
399.592285
 30
0.0
 11
4.647705
 21
399.592285
 31
0.0
210
0.0
220
0.0
230
1.0
  0
LINE
  5
23E
100
AcDbEntity
  8
0
370
    35
390
0
 62
     7
 48
0.002884
100
AcDbLine
 10
14.35553
 20
399.707642
 30
0.0
 11
14.35553
 21
399.592285
 31
0.0
210
0.0
220
0.0
230
1.0
  0
LINE
  5
23F
100
AcDbEntity
  8
0
370
    35
390
0
 62
     7
 48
0.002217
100
AcDbLine
 10
4.647705
 20
399.592285
 30
0.0
 11
4.593216
 21
399.662231
 31
0.0
210
0.0
220
0.0
230
1.0
  0
LINE
  5
240
100
AcDbEntity
  8
0
370
    35
390
0
 62
     7
 48
0.002144
100
AcDbLine
 10
4.593216
 20
399.662231
 30
0.0
 11
4.542114
 21
399.731079
 31
0.0
210
0.0
220
0.0
230
1.0
  0
LINE
  5
241
100
AcDbEntity
  8
0
370
    35
390
0
 62
     7
 48
0.002064
100
AcDbLine
 10
4.542114
 20
399.731079
 30
0.0
 11
4.494476
 21
399.798523
 31
0.0
210
0.0
220
0.0
230
1.0
  0
LINE
  5
242
100
AcDbEntity
  8
0
370
    35
390
0
 62
     7
 48
0.002002
100
AcDbLine
 10
4.494476
 20
399.798523
 30
0.0
 11
4.449982
 21
399.865112
 31
0.0
210
0.0
220
0.0
230
1.0
  0
LINE
  5
243
100
AcDbEntity
  8
0
370
    35
390
0
 62
     7
 48
0.002581
100
AcDbLine
 10
4.449982
 20
399.865112
 30
0.0
 11
4.395264
 21
399.952637
 31
0.0
210
0.0
220
0.0
230
1.0
  0
LINE
  5
244
100
AcDbEntity
  8
0
370
    35
390
0
 62
     7
 48
0.002484
100
AcDbLine
 10
4.395264
 20
399.952637
 30
0.0
 11
4.345749
 21
400.038757
 31
0.0
210
0.0
220
0.0
230
1.0
  0
LINE
  5
245
100
AcDbEntity
  8
0
370
    35
390
0
 62
     7
 48
0.002395
100
AcDbLine
 10
4.345749
 20
400.038757
 30
0.0
 11
4.301285
 21
400.123596
 31
0.0
210
0.0
220
0.0
230
1.0
  0
LINE
  5
246
100
AcDbEntity
  8
0
370
    35
390
0
 62
     7
 48
0.002768
100
AcDbLine
 10
4.301285
 20
400.123596
 30
0.0
 11
4.254318
 21
400.223877
 31
0.0
210
0.0
220
0.0
230
1.0
  0
LINE
  5
247
100
AcDbEntity
  8
0
370
    35
390
0
 62
     7
 48
0.00267
100
AcDbLine
 10
4.254318
 20
400.223877
 30
0.0
 11
4.214111
 21
400.322815
 31
0.0
210
0.0
220
0.0
230
1.0
  0
LINE
  5
248
100
AcDbEntity
  8
0
370
    35
390
0
 62
     7
 48
0.002585
100
AcDbLine
 10
4.214111
 20
400.322815
 30
0.0
 11
4.18045
 21
400.420593
 31
0.0
210
0.0
220
0.0
230
1.0
  0
LINE
  5
249
100
AcDbEntity
  8
0
370
    35
390
0
 62
     7
 48
0.002514
100
AcDbLine
 10
4.18045
 20
400.420593
 30
0.0
 11
4.153152
 21
400.517395
 31
0.0
210
0.0
220
0.0
230
1.0
  0
LINE
  5
24A
100
AcDbEntity
  8
0
370
    35
390
0
 62
     7
 48
0.002459
100
AcDbLine
 10
4.153152
 20
400.517395
 30
0.0
 11
4.132111
 21
400.613464
 31
0.0
210
0.0
220
0.0
230
1.0
  0
LINE
  5
24B
100
AcDbEntity
  8
0
370
    35
390
0
 62
     7
 48
0.002626
100
AcDbLine
 10
4.132111
 20
400.613464
 30
0.0
 11
4.11618
 21
400.717285
 31
0.0
210
0.0
220
0.0
230
1.0
  0
LINE
  5
24C
100
AcDbEntity
  8
0
370
    35
390
0
 62
     7
 48
0.002594
100
AcDbLine
 10
4.11618
 20
400.717285
 30
0.0
 11
4.107422
 21
400.820679
 31
0.0
210
0.0
220
0.0
230
1.0
  0
LINE
  5
24D
100
AcDbEntity
  8
0
370
    35
390
0
 62
     7
 48
0.002582
100
AcDbLine
 10
4.107422
 20
400.820679
 30
0.0
 11
4.105789
 21
400.92395
 31
0.0
210
0.0
220
0.0
230
1.0
  0
LINE
  5
24E
100
AcDbEntity
  8
0
370
    35
390
0
 62
     7
 48
0.002585
100
AcDbLine
 10
4.105789
 20
400.92395
 30
0.0
 11
4.111252
 21
401.027222
 31
0.0
210
0.0
220
0.0
230
1.0
  0
LINE
  5
24F
100
AcDbEntity
  8
0
370
    35
390
0
 62
     7
 48
0.00261
100
AcDbLine
 10
4.111252
 20
401.027222
 30
0.0
 11
4.123856
 21
401.130859
 31
0.0
210
0.0
220
0.0
230
1.0
  0
LINE
  5
250
100
AcDbEntity
  8
0
370
    35
390
0
 62
     7
 48
0.00265
100
AcDbLine
 10
4.123856
 20
401.130859
 30
0.0
 11
4.143677
 21
401.234985
 31
0.0
210
0.0
220
0.0
230
1.0
  0
LINE
  5
251
100
AcDbEntity
  8
0
370
    35
390
0
 62
     7
 48
0.002709
100
AcDbLine
 10
4.143677
 20
401.234985
 30
0.0
 11
4.170822
 21
401.339905
 31
0.0
210
0.0
220
0.0
230
1.0
  0
LINE
  5
252
100
AcDbEntity
  8
0
370
    35
390
0
 62
     7
 48
0.00279
100
AcDbLine
 10
4.170822
 20
401.339905
 30
0.0
 11
4.205475
 21
401.445984
 31
0.0
210
0.0
220
0.0
230
1.0
  0
LINE
  5
253
100
AcDbEntity
  8
0
370
    35
390
0
 62
     7
 48
0.002885
100
AcDbLine
 10
4.205475
 20
401.445984
 30
0.0
 11
4.247818
 21
401.553345
 31
0.0
210
0.0
220
0.0
230
1.0
  0
LINE
  5
254
100
AcDbEntity
  8
0
370
    35
390
0
 62
     7
 48
0.003002
100
AcDbLine
 10
4.247818
 20
401.553345
 30
0.0
 11
4.298141
 21
401.662354
 31
0.0
210
0.0
220
0.0
230
1.0
  0
LINE
  5
255
100
AcDbEntity
  8
0
370
    35
390
0
 62
     7
 48
0.002471
100
AcDbLine
 10
4.298141
 20
401.662354
 30
0.0
 11
4.343826
 21
401.75
 31
0.0
210
0.0
220
0.0
230
1.0
  0
LINE
  5
256
100
AcDbEntity
  8
0
370
    35
390
0
 62
     7
 48
0.00628
100
AcDbLine
 10
-0.64447
 20
405.225403
 30
0.0
 11
-0.89447
 21
405.25
 31
0.0
210
0.0
220
0.0
230
1.0
  0
LINE
  5
257
100
AcDbEntity
  8
0
370
    35
390
0
 62
     7
 48
0.008468
100
AcDbLine
 10
-0.64447
 20
405.021484
 30
0.0
 11
-0.89447
 21
405.25
 31
0.0
210
0.0
220
0.0
230
1.0
  0
LINE
  5
258
100
AcDbEntity
  8
0
370
    35
390
0
 62
     7
 48
0.006392
100
AcDbLine
 10
-0.64447
 20
405.415955
 30
0.0
 11
-0.89447
 21
405.469482
 31
0.0
210
0.0
220
0.0
230
1.0
  0
LINE
  5
259
100
AcDbEntity
  8
0
370
    35
390
0
 62
     7
 48
0.008735
100
AcDbLine
 10
-0.64447
 20
405.225403
 30
0.0
 11
-0.89447
 21
405.469482
 31
0.0
210
0.0
220
0.0
230
1.0
  0
LINE
  5
25A
100
AcDbEntity
  8
0
370
    35
390
0
 62
     7
 48
0.006576
100
AcDbLine
 10
-0.64447
 20
405.591003
 30
0.0
 11
-0.89447
 21
405.672791
 31
0.0
210
0.0
220
0.0
230
1.0
  0
LINE
  5
25B
100
AcDbEntity
  8
0
370
    35
390
0
 62
     7
 48
0.00896
100
AcDbLine
 10
-0.64447
 20
405.415955
 30
0.0
 11
-0.89447
 21
405.672791
 31
0.0
210
0.0
220
0.0
230
1.0
  0
LINE
  5
25C
100
AcDbEntity
  8
0
370
    35
390
0
 62
     7
 48
0.006821
100
AcDbLine
 10
-0.64447
 20
405.748596
 30
0.0
 11
-0.89447
 21
405.857849
 31
0.0
210
0.0
220
0.0
230
1.0
  0
LINE
  5
25D
100
AcDbEntity
  8
0
370
    35
390
0
 62
     7
 48
0.009141
100
AcDbLine
 10
-0.64447
 20
405.591003
 30
0.0
 11
-0.89447
 21
405.857849
 31
0.0
210
0.0
220
0.0
230
1.0
  0
LINE
  5
25E
100
AcDbEntity
  8
0
370
    35
390
0
 62
     7
 48
0.00711
100
AcDbLine
 10
-0.64447
 20
405.886963
 30
0.0
 11
-0.89447
 21
406.022522
 31
0.0
210
0.0
220
0.0
230
1.0
  0
LINE
  5
25F
100
AcDbEntity
  8
0
370
    35
390
0
 62
     7
 48
0.009271
100
AcDbLine
 10
-0.64447
 20
405.748596
 30
0.0
 11
-0.89447
 21
406.022522
 31
0.0
210
0.0
220
0.0
230
1.0
  0
LINE
  5
260
100
AcDbEntity
  8
0
370
    35
390
0
 62
     7
 48
0.007424
100
AcDbLine
 10
-0.64447
 20
406.004761
 30
0.0
 11
-0.89447
 21
406.165039
 31
0.0
210
0.0
220
0.0
230
1.0
  0
LINE
  5
261
100
AcDbEntity
  8
0
370
    35
390
0
 62
     7
 48
0.009348
100
AcDbLine
 10
-0.64447
 20
405.886963
 30
0.0
 11
-0.89447
 21
406.165039
 31
0.0
210
0.0
220
0.0
230
1.0
  0
LINE
  5
262
100
AcDbEntity
  8
0
370
    35
390
0
 62
     7
 48
0.007751
100
AcDbLine
 10
-0.64447
 20
406.100525
 30
0.0
 11
-0.89447
 21
406.283875
 31
0.0
210
0.0
220
0.0
230
1.0
  0
LINE
  5
263
100
AcDbEntity
  8
0
370
    35
390
0
 62
     7
 48
0.009368
100
AcDbLine
 10
-0.64447
 20
406.004761
 30
0.0
 11
-0.89447
 21
406.283875
 31
0.0
210
0.0
220
0.0
230
1.0
  0
LINE
  5
264
100
AcDbEntity
  8
0
370
    35
390
0
 62
     7
 48
0.008072
100
AcDbLine
 10
-0.64447
 20
406.173279
 30
0.0
 11
-0.89447
 21
406.377625
 31
0.0
210
0.0
220
0.0
230
1.0
  0
LINE
  5
265
100
AcDbEntity
  8
0
370
    35
390
0
 62
     7
 48
0.00933
100
AcDbLine
 10
-0.64447
 20
406.100525
 30
0.0
 11
-0.89447
 21
406.377625
 31
0.0
210
0.0
220
0.0
230
1.0
  0
LINE
  5
266
100
AcDbEntity
  8
0
370
    35
390
0
 62
     7
 48
0.008376
100
AcDbLine
 10
-0.64447
 20
406.22229
 30
0.0
 11
-0.89447
 21
406.445313
 31
0.0
210
0.0
220
0.0
230
1.0
  0
LINE
  5
267
100
AcDbEntity
  8
0
370
    35
390
0
 62
     7
 48
0.009237
100
AcDbLine
 10
-0.64447
 20
406.173279
 30
0.0
 11
-0.89447
 21
406.445313
 31
0.0
210
0.0
220
0.0
230
1.0
  0
LINE
  5
268
100
AcDbEntity
  8
0
370
    35
390
0
 62
     7
 48
0.008654
100
AcDbLine
 10
-0.64447
 20
406.246887
 30
0.0
 11
-0.89447
 21
406.486328
 31
0.0
210
0.0
220
0.0
230
1.0
  0
LINE
  5
269
100
AcDbEntity
  8
0
370
    35
390
0
 62
     7
 48
0.00909
100
AcDbLine
 10
-0.64447
 20
406.22229
 30
0.0
 11
-0.89447
 21
406.486328
 31
0.0
210
0.0
220
0.0
230
1.0
  0
LINE
  5
26A
100
AcDbEntity
  8
0
370
    35
390
0
 62
     7
 48
0.008894
100
AcDbLine
 10
-0.64447
 20
406.246887
 30
0.0
 11
-0.89447
 21
406.5
 31
0.0
210
0.0
220
0.0
230
1.0
  0
LINE
  5
26B
100
AcDbEntity
  8
0
370
    35
390
0
 62
     7
 48
0.008893
100
AcDbLine
 10
-0.64447
 20
401.753052
 30
0.0
 11
-0.89447
 21
401.5
 31
0.0
210
0.0
220
0.0
230
1.0
  0
LINE
  5
26C
100
AcDbEntity
  8
0
370
    35
390
0
 62
     7
 48
0.009089
100
AcDbLine
 10
-0.64447
 20
401.777649
 30
0.0
 11
-0.89447
 21
401.513672
 31
0.0
210
0.0
220
0.0
230
1.0
  0
LINE
  5
26D
100
AcDbEntity
  8
0
370
    35
390
0
 62
     7
 48
0.008653
100
AcDbLine
 10
-0.64447
 20
401.753052
 30
0.0
 11
-0.89447
 21
401.513672
 31
0.0
210
0.0
220
0.0
230
1.0
  0
LINE
  5
26E
100
AcDbEntity
  8
0
370
    35
390
0
 62
     7
 48
0.009237
100
AcDbLine
 10
-0.64447
 20
401.82666
 30
0.0
 11
-0.89447
 21
401.554626
 31
0.0
210
0.0
220
0.0
230
1.0
  0
LINE
  5
26F
100
AcDbEntity
  8
0
370
    35
390
0
 62
     7
 48
0.008376
100
AcDbLine
 10
-0.64447
 20
401.777649
 30
0.0
 11
-0.89447
 21
401.554626
 31
0.0
210
0.0
220
0.0
230
1.0
  0
LINE
  5
270
100
AcDbEntity
  8
0
370
    35
390
0
 62
     7
 48
0.009329
100
AcDbLine
 10
-0.64447
 20
401.899414
 30
0.0
 11
-0.89447
 21
401.622375
 31
0.0
210
0.0
220
0.0
230
1.0
  0
LINE
  5
271
100
AcDbEntity
  8
0
370
    35
390
0
 62
     7
 48
0.008071
100
AcDbLine
 10
-0.64447
 20
401.82666
 30
0.0
 11
-0.89447
 21
401.622375
 31
0.0
210
0.0
220
0.0
230
1.0
  0
LINE
  5
272
100
AcDbEntity
  8
0
370
    35
390
0
 62
     7
 48
0.009368
100
AcDbLine
 10
-0.64447
 20
401.995239
 30
0.0
 11
-0.89447
 21
401.716125
 31
0.0
210
0.0
220
0.0
230
1.0
  0
LINE
  5
273
100
AcDbEntity
  8
0
370
    35
390
0
 62
     7
 48
0.00775
100
AcDbLine
 10
-0.64447
 20
401.899414
 30
0.0
 11
-0.89447
 21
401.716125
 31
0.0
210
0.0
220
0.0
230
1.0
  0
LINE
  5
274
100
AcDbEntity
  8
0
370
    35
390
0
 62
     7
 48
0.003867
100
AcDbLine
 10
-0.64447
 20
401.995239
 30
0.0
 11
-0.774429
 21
401.911377
 31
0.0
210
0.0
220
0.0
230
1.0
  0
LINE
  5
275
100
AcDbEntity
  8
0
370
    35
390
0
 62
     7
 48
0.009348
100
AcDbLine
 10
-0.64447
 20
402.112976
 30
0.0
 11
-0.89447
 21
401.8349
 31
0.0
210
0.0
220
0.0
230
1.0
  0
LINE
  5
276
100
AcDbEntity
  8
0
370
    35
390
0
 62
     7
 48
0.003558
100
AcDbLine
 10
-0.774429
 20
401.911377
 30
0.0
 11
-0.89447
 21
401.8349
 31
0.0
210
0.0
220
0.0
230
1.0
  0
LINE
  5
277
100
AcDbEntity
  8
0
370
    35
390
0
 62
     7
 48
0.009271
100
AcDbLine
 10
-0.64447
 20
402.251404
 30
0.0
 11
-0.89447
 21
401.977478
 31
0.0
210
0.0
220
0.0
230
1.0
  0
LINE
  5
278
100
AcDbEntity
  8
0
370
    35
390
0
 62
     7
 48
0.007109
100
AcDbLine
 10
-0.64447
 20
402.112976
 30
0.0
 11
-0.89447
 21
401.977478
 31
0.0
210
0.0
220
0.0
230
1.0
  0
LINE
  5
279
100
AcDbEntity
  8
0
370
    35
390
0
 62
     7
 48
0.009143
100
AcDbLine
 10
-0.64447
 20
402.408997
 30
0.0
 11
-0.89447
 21
402.14209
 31
0.0
210
0.0
220
0.0
230
1.0
  0
LINE
  5
27A
100
AcDbEntity
  8
0
370
    35
390
0
 62
     7
 48
0.006821
100
AcDbLine
 10
-0.64447
 20
402.251404
 30
0.0
 11
-0.89447
 21
402.14209
 31
0.0
210
0.0
220
0.0
230
1.0
  0
LINE
  5
27B
100
AcDbEntity
  8
0
370
    35
390
0
 62
     7
 48
0.008962
100
AcDbLine
 10
-0.64447
 20
402.584045
 30
0.0
 11
-0.89447
 21
402.327148
 31
0.0
210
0.0
220
0.0
230
1.0
  0
LINE
  5
27C
100
AcDbEntity
  8
0
370
    35
390
0
 62
     7
 48
0.006576
100
AcDbLine
 10
-0.64447
 20
402.408997
 30
0.0
 11
-0.89447
 21
402.327148
 31
0.0
210
0.0
220
0.0
230
1.0
  0
LINE
  5
27D
100
AcDbEntity
  8
0
370
    35
390
0
 62
     7
 48
0.008734
100
AcDbLine
 10
-0.64447
 20
402.774536
 30
0.0
 11
-0.89447
 21
402.530518
 31
0.0
210
0.0
220
0.0
230
1.0
  0
LINE
  5
27E
100
AcDbEntity
  8
0
370
    35
390
0
 62
     7
 48
0.006392
100
AcDbLine
 10
-0.64447
 20
402.584045
 30
0.0
 11
-0.89447
 21
402.530518
 31
0.0
210
0.0
220
0.0
230
1.0
  0
LINE
  5
27F
100
AcDbEntity
  8
0
370
    35
390
0
 62
     7
 48
0.008468
100
AcDbLine
 10
-0.64447
 20
402.978516
 30
0.0
 11
-0.89447
 21
402.75
 31
0.0
210
0.0
220
0.0
230
1.0
  0
LINE
  5
280
100
AcDbEntity
  8
0
370
    35
390
0
 62
     7
 48
0.00628
100
AcDbLine
 10
-0.64447
 20
402.774536
 30
0.0
 11
-0.89447
 21
402.75
 31
0.0
210
0.0
220
0.0
230
1.0
  0
LINE
  5
281
100
AcDbEntity
  8
0
370
    35
390
0
 62
     7
 48
0.008171
100
AcDbLine
 10
-0.64447
 20
403.193665
 30
0.0
 11
-0.89447
 21
402.983154
 31
0.0
210
0.0
220
0.0
230
1.0
  0
LINE
  5
282
100
AcDbEntity
  8
0
370
    35
390
0
 62
     7
 48
0.006251
100
AcDbLine
 10
-0.64447
 20
402.978516
 30
0.0
 11
-0.89447
 21
402.983154
 31
0.0
210
0.0
220
0.0
230
1.0
  0
LINE
  5
283
100
AcDbEntity
  8
0
370
    35
390
0
 62
     7
 48
0.007852
100
AcDbLine
 10
-0.64447
 20
403.417603
 30
0.0
 11
-0.89447
 21
403.227478
 31
0.0
210
0.0
220
0.0
230
1.0
  0
LINE
  5
284
100
AcDbEntity
  8
0
370
    35
390
0
 62
     7
 48
0.006307
100
AcDbLine
 10
-0.64447
 20
403.193665
 30
0.0
 11
-0.89447
 21
403.227478
 31
0.0
210
0.0
220
0.0
230
1.0
  0
LINE
  5
285
100
AcDbEntity
  8
0
370
    35
390
0
 62
     7
 48
0.007528
100
AcDbLine
 10
-0.64447
 20
403.64801
 30
0.0
 11
-0.89447
 21
403.480164
 31
0.0
210
0.0
220
0.0
230
1.0
  0
LINE
  5
286
100
AcDbEntity
  8
0
370
    35
390
0
 62
     7
 48
0.006443
100
AcDbLine
 10
-0.64447
 20
403.417603
 30
0.0
 11
-0.89447
 21
403.480164
 31
0.0
210
0.0
220
0.0
230
1.0
  0
LINE
  5
287
100
AcDbEntity
  8
0
370
    35
390
0
 62
     7
 48
0.007208
100
AcDbLine
 10
-0.64447
 20
403.882263
 30
0.0
 11
-0.89447
 21
403.738647
 31
0.0
210
0.0
220
0.0
230
1.0
  0
LINE
  5
288
100
AcDbEntity
  8
0
370
    35
390
0
 62
     7
 48
0.006648
100
AcDbLine
 10
-0.64447
 20
403.64801
 30
0.0
 11
-0.89447
 21
403.738647
 31
0.0
210
0.0
220
0.0
230
1.0
  0
LINE
  5
289
100
AcDbEntity
  8
0
370
    35
390
0
 62
     7
 48
0.006908
100
AcDbLine
 10
-0.64447
 20
404.117737
 30
0.0
 11
-0.89447
 21
404.0
 31
0.0
210
0.0
220
0.0
230
1.0
  0
LINE
  5
28A
100
AcDbEntity
  8
0
370
    35
390
0
 62
     7
 48
0.006908
100
AcDbLine
 10
-0.64447
 20
403.882263
 30
0.0
 11
-0.89447
 21
404.0
 31
0.0
210
0.0
220
0.0
230
1.0
  0
LINE
  5
28B
100
AcDbEntity
  8
0
370
    35
390
0
 62
     7
 48
0.006648
100
AcDbLine
 10
-0.64447
 20
404.351929
 30
0.0
 11
-0.89447
 21
404.261292
 31
0.0
210
0.0
220
0.0
230
1.0
  0
LINE
  5
28C
100
AcDbEntity
  8
0
370
    35
390
0
 62
     7
 48
0.007207
100
AcDbLine
 10
-0.64447
 20
404.117737
 30
0.0
 11
-0.89447
 21
404.261292
 31
0.0
210
0.0
220
0.0
230
1.0
  0
LINE
  5
28D
100
AcDbEntity
  8
0
370
    35
390
0
 62
     7
 48
0.006443
100
AcDbLine
 10
-0.64447
 20
404.582336
 30
0.0
 11
-0.89447
 21
404.519775
 31
0.0
210
0.0
220
0.0
230
1.0
  0
LINE
  5
28E
100
AcDbEntity
  8
0
370
    35
390
0
 62
     7
 48
0.007528
100
AcDbLine
 10
-0.64447
 20
404.351929
 30
0.0
 11
-0.89447
 21
404.519775
 31
0.0
210
0.0
220
0.0
230
1.0
  0
LINE
  5
28F
100
AcDbEntity
  8
0
370
    35
390
0
 62
     7
 48
0.006307
100
AcDbLine
 10
-0.64447
 20
404.806335
 30
0.0
 11
-0.89447
 21
404.772522
 31
0.0
210
0.0
220
0.0
230
1.0
  0
LINE
  5
290
100
AcDbEntity
  8
0
370
    35
390
0
 62
     7
 48
0.007853
100
AcDbLine
 10
-0.64447
 20
404.582336
 30
0.0
 11
-0.89447
 21
404.772522
 31
0.0
210
0.0
220
0.0
230
1.0
  0
LINE
  5
291
100
AcDbEntity
  8
0
370
    35
390
0
 62
     7
 48
0.006251
100
AcDbLine
 10
-0.64447
 20
405.021484
 30
0.0
 11
-0.89447
 21
405.016785
 31
0.0
210
0.0
220
0.0
230
1.0
  0
LINE
  5
292
100
AcDbEntity
  8
0
370
    35
390
0
 62
     7
 48
0.00817
100
AcDbLine
 10
-0.64447
 20
404.806335
 30
0.0
 11
-0.89447
 21
405.016785
 31
0.0
210
0.0
220
0.0
230
1.0
  0
LINE
  5
293
100
AcDbEntity
  8
0
370
    35
390
0
 62
     7
 48
0.026141
100
AcDbLine
 10
14.35553
 20
397.262024
 30
0.0
 11
14.35553
 21
398.307678
 31
0.0
210
0.0
220
0.0
230
1.0
  0
LINE
  5
294
100
AcDbEntity
  8
0
370
    35
390
0
 62
     7
 48
0.032115
100
AcDbLine
 10
14.35553
 20
399.592285
 30
0.0
 11
14.35553
 21
398.307678
 31
0.0
210
0.0
220
0.0
230
1.0
  0
LINE
  5
295
100
AcDbEntity
  8
0
370
    35
390
0
 62
     7
 48
0.078102
100
AcDbLine
 10
14.35553
 20
397.262024
 30
0.0
 11
14.35553
 21
394.137939
 31
0.0
210
0.0
220
0.0
230
1.0
  0
LINE
  5
296
100
AcDbEntity
  8
0
370
    35
390
0
 62
     7
 48
0.032115
100
AcDbLine
 10
14.35553
 20
393.092285
 30
0.0
 11
14.35553
 21
391.807678
 31
0.0
210
0.0
220
0.0
230
1.0
  0
LINE
  5
297
100
AcDbEntity
  8
0
370
    35
390
0
 62
     7
 48
0.026141
100
AcDbLine
 10
14.35553
 20
393.092285
 30
0.0
 11
14.35553
 21
394.137939
 31
0.0
210
0.0
220
0.0
230
1.0
  0
LINE
  5
298
100
AcDbEntity
  8
0
370
    35
390
0
 62
     7
 48
0.073972
100
AcDbLine
 10
128.955551
 20
386.441162
 30
0.0
 11
128.955551
 21
389.400024
 31
0.0
210
0.0
220
0.0
230
1.0
  0
LINE
  5
299
100
AcDbEntity
  8
0
370
    35
390
0
 62
     7
 48
0.026028
100
AcDbLine
 10
128.955551
 20
385.400024
 30
0.0
 11
128.955551
 21
386.441162
 31
0.0
210
0.0
220
0.0
230
1.0
  0
LINE
  5
29A
100
AcDbEntity
  8
0
370
    35
390
0
 62
     7
 48
0.242696
100
AcDbLine
 10
14.35553
 20
393.092285
 30
0.0
 11
4.647705
 21
393.092285
 31
0.0
210
0.0
220
0.0
230
1.0
  0
ARC
  5
29B
100
AcDbEntity
  8
0
370
    35
390
0
 62
     7
100
AcDbCircle
 10
9.529419
 20
392.449097
 30
0.0
 40
4.923875
210
0.0
220
0.0
230
1.0
100
AcDbArc
 50
172.494242
 51
181.535968
  0
ARC
  5
29C
100
AcDbEntity
  8
0
370
    35
390
0
 62
     7
100
AcDbCircle
 10
9.567444
 20
392.454041
 30
0.0
 40
4.962001
210
0.0
220
0.0
230
1.0
100
AcDbArc
 50
181.581307
 51
187.484789
  0
LINE
  5
29D
100
AcDbEntity
  8
0
370
    35
390
0
 62
     7
 48
0.062961
100
AcDbLine
 10
3.35553
 20
392.968445
 30
0.0
 11
3.35553
 21
390.450012
 31
0.0
210
0.0
220
0.0
230
1.0
  0
LINE
  5
29E
100
AcDbEntity
  8
0
370
    35
390
0
 62
     7
 48
0.199539
100
AcDbLine
 10
3.35553
 20
400.950012
 30
0.0
 11
3.35553
 21
392.968445
 31
0.0
210
0.0
220
0.0
230
1.0
  0
LINE
  5
29F
100
AcDbEntity
  8
0
370
    35
390
0
 62
     7
 48
0.0066
100
AcDbLine
 10
4.647705
 20
398.307678
 30
0.0
 11
4.55336
 21
398.061096
 31
0.0
210
0.0
220
0.0
230
1.0
  0
LINE
  5
2A0
100
AcDbEntity
  8
0
370
    35
390
0
 62
     7
 48
0.006356
100
AcDbLine
 10
4.55336
 20
398.061096
 30
0.0
 11
4.469421
 21
397.821106
 31
0.0
210
0.0
220
0.0
230
1.0
  0
LINE
  5
2A1
100
AcDbEntity
  8
0
370
    35
390
0
 62
     7
 48
0.00614
100
AcDbLine
 10
4.469421
 20
397.821106
 30
0.0
 11
4.395264
 21
397.586975
 31
0.0
210
0.0
220
0.0
230
1.0
  0
LINE
  5
2A2
100
AcDbEntity
  8
0
370
    35
390
0
 62
     7
 48
0.00595
100
AcDbLine
 10
4.395264
 20
397.586975
 30
0.0
 11
4.330383
 21
397.357971
 31
0.0
210
0.0
220
0.0
230
1.0
  0
LINE
  5
2A3
100
AcDbEntity
  8
0
370
    35
390
0
 62
     7
 48
0.00579
100
AcDbLine
 10
4.330383
 20
397.357971
 30
0.0
 11
4.274338
 21
397.13324
 31
0.0
210
0.0
220
0.0
230
1.0
  0
LINE
  5
2A4
100
AcDbEntity
  8
0
370
    35
390
0
 62
     7
 48
0.00565
100
AcDbLine
 10
4.274338
 20
397.13324
 30
0.0
 11
4.226776
 21
396.912292
 31
0.0
210
0.0
220
0.0
230
1.0
  0
LINE
  5
2A5
100
AcDbEntity
  8
0
370
    35
390
0
 62
     7
 48
0.005537
100
AcDbLine
 10
4.226776
 20
396.912292
 30
0.0
 11
4.187363
 21
396.694336
 31
0.0
210
0.0
220
0.0
230
1.0
  0
LINE
  5
2A6
100
AcDbEntity
  8
0
370
    35
390
0
 62
     7
 48
0.005444
100
AcDbLine
 10
4.187363
 20
396.694336
 30
0.0
 11
4.155884
 21
396.478882
 31
0.0
210
0.0
220
0.0
230
1.0
  0
LINE
  5
2A7
100
AcDbEntity
  8
0
370
    35
390
0
 62
     7
 48
0.005371
100
AcDbLine
 10
4.155884
 20
396.478882
 30
0.0
 11
4.132111
 21
396.265381
 31
0.0
210
0.0
220
0.0
230
1.0
  0
LINE
  5
2A8
100
AcDbEntity
  8
0
370
    35
390
0
 62
     7
 48
0.005208
100
AcDbLine
 10
4.132111
 20
396.265381
 30
0.0
 11
4.11618
 21
396.057678
 31
0.0
210
0.0
220
0.0
230
1.0
  0
LINE
  5
2A9
100
AcDbEntity
  8
0
370
    35
390
0
 62
     7
 48
0.005176
100
AcDbLine
 10
4.11618
 20
396.057678
 30
0.0
 11
4.107422
 21
395.85083
 31
0.0
210
0.0
220
0.0
230
1.0
  0
LINE
  5
2AA
100
AcDbEntity
  8
0
370
    35
390
0
 62
     7
 48
0.005162
100
AcDbLine
 10
4.107422
 20
395.85083
 30
0.0
 11
4.105789
 21
395.644348
 31
0.0
210
0.0
220
0.0
230
1.0
  0
LINE
  5
2AB
100
AcDbEntity
  8
0
370
    35
390
0
 62
     7
 48
0.005165
100
AcDbLine
 10
4.105789
 20
395.644348
 30
0.0
 11
4.111252
 21
395.437805
 31
0.0
210
0.0
220
0.0
230
1.0
  0
LINE
  5
2AC
100
AcDbEntity
  8
0
370
    35
390
0
 62
     7
 48
0.00519
100
AcDbLine
 10
4.111252
 20
395.437805
 30
0.0
 11
4.123856
 21
395.230591
 31
0.0
210
0.0
220
0.0
230
1.0
  0
LINE
  5
2AD
100
AcDbEntity
  8
0
370
    35
390
0
 62
     7
 48
0.005231
100
AcDbLine
 10
4.123856
 20
395.230591
 30
0.0
 11
4.143677
 21
395.022278
 31
0.0
210
0.0
220
0.0
230
1.0
  0
LINE
  5
2AE
100
AcDbEntity
  8
0
370
    35
390
0
 62
     7
 48
0.005291
100
AcDbLine
 10
4.143677
 20
395.022278
 30
0.0
 11
4.170822
 21
394.812378
 31
0.0
210
0.0
220
0.0
230
1.0
  0
LINE
  5
2AF
100
AcDbEntity
  8
0
370
    35
390
0
 62
     7
 48
0.005373
100
AcDbLine
 10
4.170822
 20
394.812378
 30
0.0
 11
4.205475
 21
394.600281
 31
0.0
210
0.0
220
0.0
230
1.0
  0
LINE
  5
2B0
100
AcDbEntity
  8
0
370
    35
390
0
 62
     7
 48
0.005471
100
AcDbLine
 10
4.205475
 20
394.600281
 30
0.0
 11
4.247818
 21
394.385559
 31
0.0
210
0.0
220
0.0
230
1.0
  0
LINE
  5
2B1
100
AcDbEntity
  8
0
370
    35
390
0
 62
     7
 48
0.005594
100
AcDbLine
 10
4.247818
 20
394.385559
 30
0.0
 11
4.298141
 21
394.167542
 31
0.0
210
0.0
220
0.0
230
1.0
  0
LINE
  5
2B2
100
AcDbEntity
  8
0
370
    35
390
0
 62
     7
 48
0.005333
100
AcDbLine
 10
4.298141
 20
394.167542
 30
0.0
 11
4.352386
 21
393.961243
 31
0.0
210
0.0
220
0.0
230
1.0
  0
LINE
  5
2B3
100
AcDbEntity
  8
0
370
    35
390
0
 62
     7
 48
0.005474
100
AcDbLine
 10
4.352386
 20
393.961243
 30
0.0
 11
4.414093
 21
393.75116
 31
0.0
210
0.0
220
0.0
230
1.0
  0
LINE
  5
2B4
100
AcDbEntity
  8
0
370
    35
390
0
 62
     7
 48
0.005637
100
AcDbLine
 10
4.414093
 20
393.75116
 30
0.0
 11
4.483612
 21
393.536682
 31
0.0
210
0.0
220
0.0
230
1.0
  0
LINE
  5
2B5
100
AcDbEntity
  8
0
370
    35
390
0
 62
     7
 48
0.005819
100
AcDbLine
 10
4.483612
 20
393.536682
 30
0.0
 11
4.561325
 21
393.317261
 31
0.0
210
0.0
220
0.0
230
1.0
  0
LINE
  5
2B6
100
AcDbEntity
  8
0
370
    35
390
0
 62
     7
 48
0.006025
100
AcDbLine
 10
4.561325
 20
393.317261
 30
0.0
 11
4.647705
 21
393.092285
 31
0.0
210
0.0
220
0.0
230
1.0
  0
ARC
  5
2B7
100
AcDbEntity
  8
0
370
    35
390
0
 62
     7
100
AcDbCircle
 10
9.519257
 20
398.950012
 30
0.0
 40
4.913689
210
0.0
220
0.0
230
1.0
100
AcDbArc
 50
172.488983
 51
187.511017
  0
LINE
  5
2B8
100
AcDbEntity
  8
0
370
    35
390
0
 62
     7
 48
0.242696
100
AcDbLine
 10
14.35553
 20
398.307678
 30
0.0
 11
4.647705
 21
398.307678
 31
0.0
210
0.0
220
0.0
230
1.0
  0
LINE
  5
2B9
100
AcDbEntity
  8
0
370
    35
390
0
 62
     7
 48
0.00628
100
AcDbLine
 10
-10.39447
 20
405.225403
 30
0.0
 11
-10.14447
 21
405.25
 31
0.0
210
0.0
220
0.0
230
1.0
  0
LINE
  5
2BA
100
AcDbEntity
  8
0
370
    35
390
0
 62
     7
 48
0.23125
100
AcDbLine
 10
-10.14447
 20
405.25
 30
0.0
 11
-0.89447
 21
405.25
 31
0.0
210
0.0
220
0.0
230
1.0
  0
LINE
  5
2BB
100
AcDbEntity
  8
0
370
    35
390
0
 62
     7
 48
0.008468
100
AcDbLine
 10
-10.39447
 20
405.021484
 30
0.0
 11
-10.14447
 21
405.25
 31
0.0
210
0.0
220
0.0
230
1.0
  0
LINE
  5
2BC
100
AcDbEntity
  8
0
370
    35
390
0
 62
     7
 48
0.24375
100
AcDbLine
 10
-10.39447
 20
405.021484
 30
0.0
 11
-0.64447
 21
405.021484
 31
0.0
210
0.0
220
0.0
230
1.0
  0
LINE
  5
2BD
100
AcDbEntity
  8
0
370
    35
390
0
 62
     7
 48
0.006392
100
AcDbLine
 10
-10.39447
 20
405.415955
 30
0.0
 11
-10.14447
 21
405.469482
 31
0.0
210
0.0
220
0.0
230
1.0
  0
LINE
  5
2BE
100
AcDbEntity
  8
0
370
    35
390
0
 62
     7
 48
0.23125
100
AcDbLine
 10
-10.14447
 20
405.469482
 30
0.0
 11
-0.89447
 21
405.469482
 31
0.0
210
0.0
220
0.0
230
1.0
  0
LINE
  5
2BF
100
AcDbEntity
  8
0
370
    35
390
0
 62
     7
 48
0.008735
100
AcDbLine
 10
-10.39447
 20
405.225403
 30
0.0
 11
-10.14447
 21
405.469482
 31
0.0
210
0.0
220
0.0
230
1.0
  0
LINE
  5
2C0
100
AcDbEntity
  8
0
370
    35
390
0
 62
     7
 48
0.006576
100
AcDbLine
 10
-10.39447
 20
405.591003
 30
0.0
 11
-10.14447
 21
405.672791
 31
0.0
210
0.0
220
0.0
230
1.0
  0
LINE
  5
2C1
100
AcDbEntity
  8
0
370
    35
390
0
 62
     7
 48
0.23125
100
AcDbLine
 10
-10.14447
 20
405.672791
 30
0.0
 11
-0.89447
 21
405.672791
 31
0.0
210
0.0
220
0.0
230
1.0
  0
LINE
  5
2C2
100
AcDbEntity
  8
0
370
    35
390
0
 62
     7
 48
0.00896
100
AcDbLine
 10
-10.39447
 20
405.415955
 30
0.0
 11
-10.14447
 21
405.672791
 31
0.0
210
0.0
220
0.0
230
1.0
  0
LINE
  5
2C3
100
AcDbEntity
  8
0
370
    35
390
0
 62
     7
 48
0.006821
100
AcDbLine
 10
-10.39447
 20
405.748596
 30
0.0
 11
-10.14447
 21
405.857849
 31
0.0
210
0.0
220
0.0
230
1.0
  0
LINE
  5
2C4
100
AcDbEntity
  8
0
370
    35
390
0
 62
     7
 48
0.23125
100
AcDbLine
 10
-10.14447
 20
405.857849
 30
0.0
 11
-0.89447
 21
405.857849
 31
0.0
210
0.0
220
0.0
230
1.0
  0
LINE
  5
2C5
100
AcDbEntity
  8
0
370
    35
390
0
 62
     7
 48
0.009141
100
AcDbLine
 10
-10.39447
 20
405.591003
 30
0.0
 11
-10.14447
 21
405.857849
 31
0.0
210
0.0
220
0.0
230
1.0
  0
LINE
  5
2C6
100
AcDbEntity
  8
0
370
    35
390
0
 62
     7
 48
0.00711
100
AcDbLine
 10
-10.39447
 20
405.886963
 30
0.0
 11
-10.14447
 21
406.022522
 31
0.0
210
0.0
220
0.0
230
1.0
  0
LINE
  5
2C7
100
AcDbEntity
  8
0
370
    35
390
0
 62
     7
 48
0.23125
100
AcDbLine
 10
-10.14447
 20
406.022522
 30
0.0
 11
-0.89447
 21
406.022522
 31
0.0
210
0.0
220
0.0
230
1.0
  0
LINE
  5
2C8
100
AcDbEntity
  8
0
370
    35
390
0
 62
     7
 48
0.009271
100
AcDbLine
 10
-10.39447
 20
405.748596
 30
0.0
 11
-10.14447
 21
406.022522
 31
0.0
210
0.0
220
0.0
230
1.0
  0
LINE
  5
2C9
100
AcDbEntity
  8
0
370
    35
390
0
 62
     7
 48
0.007424
100
AcDbLine
 10
-10.39447
 20
406.004761
 30
0.0
 11
-10.14447
 21
406.165039
 31
0.0
210
0.0
220
0.0
230
1.0
  0
LINE
  5
2CA
100
AcDbEntity
  8
0
370
    35
390
0
 62
     7
 48
0.23125
100
AcDbLine
 10
-10.14447
 20
406.165039
 30
0.0
 11
-0.89447
 21
406.165039
 31
0.0
210
0.0
220
0.0
230
1.0
  0
LINE
  5
2CB
100
AcDbEntity
  8
0
370
    35
390
0
 62
     7
 48
0.009348
100
AcDbLine
 10
-10.39447
 20
405.886963
 30
0.0
 11
-10.14447
 21
406.165039
 31
0.0
210
0.0
220
0.0
230
1.0
  0
LINE
  5
2CC
100
AcDbEntity
  8
0
370
    35
390
0
 62
     7
 48
0.007751
100
AcDbLine
 10
-10.39447
 20
406.100525
 30
0.0
 11
-10.14447
 21
406.283875
 31
0.0
210
0.0
220
0.0
230
1.0
  0
LINE
  5
2CD
100
AcDbEntity
  8
0
370
    35
390
0
 62
     7
 48
0.23125
100
AcDbLine
 10
-10.14447
 20
406.283875
 30
0.0
 11
-0.89447
 21
406.283875
 31
0.0
210
0.0
220
0.0
230
1.0
  0
LINE
  5
2CE
100
AcDbEntity
  8
0
370
    35
390
0
 62
     7
 48
0.009368
100
AcDbLine
 10
-10.39447
 20
406.004761
 30
0.0
 11
-10.14447
 21
406.283875
 31
0.0
210
0.0
220
0.0
230
1.0
  0
LINE
  5
2CF
100
AcDbEntity
  8
0
370
    35
390
0
 62
     7
 48
0.008072
100
AcDbLine
 10
-10.39447
 20
406.173279
 30
0.0
 11
-10.14447
 21
406.377625
 31
0.0
210
0.0
220
0.0
230
1.0
  0
LINE
  5
2D0
100
AcDbEntity
  8
0
370
    35
390
0
 62
     7
 48
0.23125
100
AcDbLine
 10
-10.14447
 20
406.377625
 30
0.0
 11
-0.89447
 21
406.377625
 31
0.0
210
0.0
220
0.0
230
1.0
  0
LINE
  5
2D1
100
AcDbEntity
  8
0
370
    35
390
0
 62
     7
 48
0.00933
100
AcDbLine
 10
-10.39447
 20
406.100525
 30
0.0
 11
-10.14447
 21
406.377625
 31
0.0
210
0.0
220
0.0
230
1.0
  0
LINE
  5
2D2
100
AcDbEntity
  8
0
370
    35
390
0
 62
     7
 48
0.008376
100
AcDbLine
 10
-10.39447
 20
406.22229
 30
0.0
 11
-10.14447
 21
406.445313
 31
0.0
210
0.0
220
0.0
230
1.0
  0
LINE
  5
2D3
100
AcDbEntity
  8
0
370
    35
390
0
 62
     7
 48
0.23125
100
AcDbLine
 10
-10.14447
 20
406.445313
 30
0.0
 11
-0.89447
 21
406.445313
 31
0.0
210
0.0
220
0.0
230
1.0
  0
LINE
  5
2D4
100
AcDbEntity
  8
0
370
    35
390
0
 62
     7
 48
0.009237
100
AcDbLine
 10
-10.39447
 20
406.173279
 30
0.0
 11
-10.14447
 21
406.445313
 31
0.0
210
0.0
220
0.0
230
1.0
  0
LINE
  5
2D5
100
AcDbEntity
  8
0
370
    35
390
0
 62
     7
 48
0.008654
100
AcDbLine
 10
-10.39447
 20
406.246887
 30
0.0
 11
-10.14447
 21
406.486328
 31
0.0
210
0.0
220
0.0
230
1.0
  0
LINE
  5
2D6
100
AcDbEntity
  8
0
370
    35
390
0
 62
     7
 48
0.23125
100
AcDbLine
 10
-10.14447
 20
406.486328
 30
0.0
 11
-0.89447
 21
406.486328
 31
0.0
210
0.0
220
0.0
230
1.0
  0
LINE
  5
2D7
100
AcDbEntity
  8
0
370
    35
390
0
 62
     7
 48
0.00909
100
AcDbLine
 10
-10.39447
 20
406.22229
 30
0.0
 11
-10.14447
 21
406.486328
 31
0.0
210
0.0
220
0.0
230
1.0
  0
LINE
  5
2D8
100
AcDbEntity
  8
0
370
    35
390
0
 62
     7
 48
0.23125
100
AcDbLine
 10
-10.14447
 20
406.5
 30
0.0
 11
-0.89447
 21
406.5
 31
0.0
210
0.0
220
0.0
230
1.0
  0
LINE
  5
2D9
100
AcDbEntity
  8
0
370
    35
390
0
 62
     7
 48
0.008894
100
AcDbLine
 10
-10.39447
 20
406.246887
 30
0.0
 11
-10.14447
 21
406.5
 31
0.0
210
0.0
220
0.0
230
1.0
  0
LINE
  5
2DA
100
AcDbEntity
  8
0
370
    35
390
0
 62
     7
 48
0.008893
100
AcDbLine
 10
-10.39447
 20
401.753052
 30
0.0
 11
-10.14447
 21
401.5
 31
0.0
210
0.0
220
0.0
230
1.0
  0
LINE
  5
2DB
100
AcDbEntity
  8
0
370
    35
390
0
 62
     7
 48
0.23125
100
AcDbLine
 10
-10.14447
 20
401.5
 30
0.0
 11
-0.89447
 21
401.5
 31
0.0
210
0.0
220
0.0
230
1.0
  0
LINE
  5
2DC
100
AcDbEntity
  8
0
370
    35
390
0
 62
     7
 48
0.009089
100
AcDbLine
 10
-10.39447
 20
401.777649
 30
0.0
 11
-10.14447
 21
401.513672
 31
0.0
210
0.0
220
0.0
230
1.0
  0
LINE
  5
2DD
100
AcDbEntity
  8
0
370
    35
390
0
 62
     7
 48
0.23125
100
AcDbLine
 10
-10.14447
 20
401.513672
 30
0.0
 11
-0.89447
 21
401.513672
 31
0.0
210
0.0
220
0.0
230
1.0
  0
LINE
  5
2DE
100
AcDbEntity
  8
0
370
    35
390
0
 62
     7
 48
0.008653
100
AcDbLine
 10
-10.39447
 20
401.753052
 30
0.0
 11
-10.14447
 21
401.513672
 31
0.0
210
0.0
220
0.0
230
1.0
  0
LINE
  5
2DF
100
AcDbEntity
  8
0
370
    35
390
0
 62
     7
 48
0.009237
100
AcDbLine
 10
-10.39447
 20
401.82666
 30
0.0
 11
-10.14447
 21
401.554626
 31
0.0
210
0.0
220
0.0
230
1.0
  0
LINE
  5
2E0
100
AcDbEntity
  8
0
370
    35
390
0
 62
     7
 48
0.23125
100
AcDbLine
 10
-10.14447
 20
401.554626
 30
0.0
 11
-0.89447
 21
401.554626
 31
0.0
210
0.0
220
0.0
230
1.0
  0
LINE
  5
2E1
100
AcDbEntity
  8
0
370
    35
390
0
 62
     7
 48
0.008376
100
AcDbLine
 10
-10.39447
 20
401.777649
 30
0.0
 11
-10.14447
 21
401.554626
 31
0.0
210
0.0
220
0.0
230
1.0
  0
LINE
  5
2E2
100
AcDbEntity
  8
0
370
    35
390
0
 62
     7
 48
0.009329
100
AcDbLine
 10
-10.39447
 20
401.899414
 30
0.0
 11
-10.14447
 21
401.622375
 31
0.0
210
0.0
220
0.0
230
1.0
  0
LINE
  5
2E3
100
AcDbEntity
  8
0
370
    35
390
0
 62
     7
 48
0.23125
100
AcDbLine
 10
-10.14447
 20
401.622375
 30
0.0
 11
-0.89447
 21
401.622375
 31
0.0
210
0.0
220
0.0
230
1.0
  0
LINE
  5
2E4
100
AcDbEntity
  8
0
370
    35
390
0
 62
     7
 48
0.008071
100
AcDbLine
 10
-10.39447
 20
401.82666
 30
0.0
 11
-10.14447
 21
401.622375
 31
0.0
210
0.0
220
0.0
230
1.0
  0
LINE
  5
2E5
100
AcDbEntity
  8
0
370
    35
390
0
 62
     7
 48
0.009368
100
AcDbLine
 10
-10.39447
 20
401.995239
 30
0.0
 11
-10.14447
 21
401.716125
 31
0.0
210
0.0
220
0.0
230
1.0
  0
LINE
  5
2E6
100
AcDbEntity
  8
0
370
    35
390
0
 62
     7
 48
0.23125
100
AcDbLine
 10
-10.14447
 20
401.716125
 30
0.0
 11
-0.89447
 21
401.716125
 31
0.0
210
0.0
220
0.0
230
1.0
  0
LINE
  5
2E7
100
AcDbEntity
  8
0
370
    35
390
0
 62
     7
 48
0.00775
100
AcDbLine
 10
-10.39447
 20
401.899414
 30
0.0
 11
-10.14447
 21
401.716125
 31
0.0
210
0.0
220
0.0
230
1.0
  0
LINE
  5
2E8
100
AcDbEntity
  8
0
370
    35
390
0
 62
     7
 48
0.23125
100
AcDbLine
 10
-10.14447
 20
401.8349
 30
0.0
 11
-0.89447
 21
401.8349
 31
0.0
210
0.0
220
0.0
230
1.0
  0
LINE
  5
2E9
100
AcDbEntity
  8
0
370
    35
390
0
 62
     7
 48
0.003558
100
AcDbLine
 10
-10.264511
 20
401.911377
 30
0.0
 11
-10.14447
 21
401.8349
 31
0.0
210
0.0
220
0.0
230
1.0
  0
LINE
  5
2EA
100
AcDbEntity
  8
0
370
    35
390
0
 62
     7
 48
0.003867
100
AcDbLine
 10
-10.39447
 20
401.995239
 30
0.0
 11
-10.264511
 21
401.911377
 31
0.0
210
0.0
220
0.0
230
1.0
  0
LINE
  5
2EB
100
AcDbEntity
  8
0
370
    35
390
0
 62
     7
 48
0.009348
100
AcDbLine
 10
-10.39447
 20
402.112976
 30
0.0
 11
-10.14447
 21
401.8349
 31
0.0
210
0.0
220
0.0
230
1.0
  0
LINE
  5
2EC
100
AcDbEntity
  8
0
370
    35
390
0
 62
     7
 48
0.009271
100
AcDbLine
 10
-10.39447
 20
402.251404
 30
0.0
 11
-10.14447
 21
401.977478
 31
0.0
210
0.0
220
0.0
230
1.0
  0
LINE
  5
2ED
100
AcDbEntity
  8
0
370
    35
390
0
 62
     7
 48
0.23125
100
AcDbLine
 10
-10.14447
 20
401.977478
 30
0.0
 11
-0.89447
 21
401.977478
 31
0.0
210
0.0
220
0.0
230
1.0
  0
LINE
  5
2EE
100
AcDbEntity
  8
0
370
    35
390
0
 62
     7
 48
0.007109
100
AcDbLine
 10
-10.39447
 20
402.112976
 30
0.0
 11
-10.14447
 21
401.977478
 31
0.0
210
0.0
220
0.0
230
1.0
  0
LINE
  5
2EF
100
AcDbEntity
  8
0
370
    35
390
0
 62
     7
 48
0.009143
100
AcDbLine
 10
-10.39447
 20
402.408997
 30
0.0
 11
-10.14447
 21
402.14209
 31
0.0
210
0.0
220
0.0
230
1.0
  0
LINE
  5
2F0
100
AcDbEntity
  8
0
370
    35
390
0
 62
     7
 48
0.23125
100
AcDbLine
 10
-10.14447
 20
402.14209
 30
0.0
 11
-0.89447
 21
402.14209
 31
0.0
210
0.0
220
0.0
230
1.0
  0
LINE
  5
2F1
100
AcDbEntity
  8
0
370
    35
390
0
 62
     7
 48
0.006821
100
AcDbLine
 10
-10.39447
 20
402.251404
 30
0.0
 11
-10.14447
 21
402.14209
 31
0.0
210
0.0
220
0.0
230
1.0
  0
LINE
  5
2F2
100
AcDbEntity
  8
0
370
    35
390
0
 62
     7
 48
0.008962
100
AcDbLine
 10
-10.39447
 20
402.584045
 30
0.0
 11
-10.14447
 21
402.327148
 31
0.0
210
0.0
220
0.0
230
1.0
  0
LINE
  5
2F3
100
AcDbEntity
  8
0
370
    35
390
0
 62
     7
 48
0.23125
100
AcDbLine
 10
-10.14447
 20
402.327148
 30
0.0
 11
-0.89447
 21
402.327148
 31
0.0
210
0.0
220
0.0
230
1.0
  0
LINE
  5
2F4
100
AcDbEntity
  8
0
370
    35
390
0
 62
     7
 48
0.006576
100
AcDbLine
 10
-10.39447
 20
402.408997
 30
0.0
 11
-10.14447
 21
402.327148
 31
0.0
210
0.0
220
0.0
230
1.0
  0
LINE
  5
2F5
100
AcDbEntity
  8
0
370
    35
390
0
 62
     7
 48
0.008734
100
AcDbLine
 10
-10.39447
 20
402.774536
 30
0.0
 11
-10.14447
 21
402.530518
 31
0.0
210
0.0
220
0.0
230
1.0
  0
LINE
  5
2F6
100
AcDbEntity
  8
0
370
    35
390
0
 62
     7
 48
0.23125
100
AcDbLine
 10
-10.14447
 20
402.530518
 30
0.0
 11
-0.89447
 21
402.530518
 31
0.0
210
0.0
220
0.0
230
1.0
  0
LINE
  5
2F7
100
AcDbEntity
  8
0
370
    35
390
0
 62
     7
 48
0.006392
100
AcDbLine
 10
-10.39447
 20
402.584045
 30
0.0
 11
-10.14447
 21
402.530518
 31
0.0
210
0.0
220
0.0
230
1.0
  0
LINE
  5
2F8
100
AcDbEntity
  8
0
370
    35
390
0
 62
     7
 48
0.008468
100
AcDbLine
 10
-10.39447
 20
402.978516
 30
0.0
 11
-10.14447
 21
402.75
 31
0.0
210
0.0
220
0.0
230
1.0
  0
LINE
  5
2F9
100
AcDbEntity
  8
0
370
    35
390
0
 62
     7
 48
0.23125
100
AcDbLine
 10
-10.14447
 20
402.75
 30
0.0
 11
-0.89447
 21
402.75
 31
0.0
210
0.0
220
0.0
230
1.0
  0
LINE
  5
2FA
100
AcDbEntity
  8
0
370
    35
390
0
 62
     7
 48
0.24375
100
AcDbLine
 10
-10.39447
 20
402.978516
 30
0.0
 11
-0.64447
 21
402.978516
 31
0.0
210
0.0
220
0.0
230
1.0
  0
LINE
  5
2FB
100
AcDbEntity
  8
0
370
    35
390
0
 62
     7
 48
0.00628
100
AcDbLine
 10
-10.39447
 20
402.774536
 30
0.0
 11
-10.14447
 21
402.75
 31
0.0
210
0.0
220
0.0
230
1.0
  0
LINE
  5
2FC
100
AcDbEntity
  8
0
370
    35
390
0
 62
     7
 48
0.008171
100
AcDbLine
 10
-10.39447
 20
403.193665
 30
0.0
 11
-10.14447
 21
402.983154
 31
0.0
210
0.0
220
0.0
230
1.0
  0
LINE
  5
2FD
100
AcDbEntity
  8
0
370
    35
390
0
 62
     7
 48
0.23125
100
AcDbLine
 10
-10.14447
 20
402.983154
 30
0.0
 11
-0.89447
 21
402.983154
 31
0.0
210
0.0
220
0.0
230
1.0
  0
LINE
  5
2FE
100
AcDbEntity
  8
0
370
    35
390
0
 62
     7
 48
0.24375
100
AcDbLine
 10
-10.39447
 20
403.193665
 30
0.0
 11
-0.64447
 21
403.193665
 31
0.0
210
0.0
220
0.0
230
1.0
  0
LINE
  5
2FF
100
AcDbEntity
  8
0
370
    35
390
0
 62
     7
 48
0.006251
100
AcDbLine
 10
-10.39447
 20
402.978516
 30
0.0
 11
-10.14447
 21
402.983154
 31
0.0
210
0.0
220
0.0
230
1.0
  0
LINE
  5
300
100
AcDbEntity
  8
0
370
    35
390
0
 62
     7
 48
0.007852
100
AcDbLine
 10
-10.39447
 20
403.417603
 30
0.0
 11
-10.14447
 21
403.227478
 31
0.0
210
0.0
220
0.0
230
1.0
  0
LINE
  5
301
100
AcDbEntity
  8
0
370
    35
390
0
 62
     7
 48
0.23125
100
AcDbLine
 10
-10.14447
 20
403.227478
 30
0.0
 11
-0.89447
 21
403.227478
 31
0.0
210
0.0
220
0.0
230
1.0
  0
LINE
  5
302
100
AcDbEntity
  8
0
370
    35
390
0
 62
     7
 48
0.24375
100
AcDbLine
 10
-10.39447
 20
403.417603
 30
0.0
 11
-0.64447
 21
403.417603
 31
0.0
210
0.0
220
0.0
230
1.0
  0
LINE
  5
303
100
AcDbEntity
  8
0
370
    35
390
0
 62
     7
 48
0.006307
100
AcDbLine
 10
-10.39447
 20
403.193665
 30
0.0
 11
-10.14447
 21
403.227478
 31
0.0
210
0.0
220
0.0
230
1.0
  0
LINE
  5
304
100
AcDbEntity
  8
0
370
    35
390
0
 62
     7
 48
0.007528
100
AcDbLine
 10
-10.39447
 20
403.64801
 30
0.0
 11
-10.14447
 21
403.480164
 31
0.0
210
0.0
220
0.0
230
1.0
  0
LINE
  5
305
100
AcDbEntity
  8
0
370
    35
390
0
 62
     7
 48
0.23125
100
AcDbLine
 10
-10.14447
 20
403.480164
 30
0.0
 11
-0.89447
 21
403.480164
 31
0.0
210
0.0
220
0.0
230
1.0
  0
LINE
  5
306
100
AcDbEntity
  8
0
370
    35
390
0
 62
     7
 48
0.24375
100
AcDbLine
 10
-10.39447
 20
403.64801
 30
0.0
 11
-0.64447
 21
403.64801
 31
0.0
210
0.0
220
0.0
230
1.0
  0
LINE
  5
307
100
AcDbEntity
  8
0
370
    35
390
0
 62
     7
 48
0.006443
100
AcDbLine
 10
-10.39447
 20
403.417603
 30
0.0
 11
-10.14447
 21
403.480164
 31
0.0
210
0.0
220
0.0
230
1.0
  0
LINE
  5
308
100
AcDbEntity
  8
0
370
    35
390
0
 62
     7
 48
0.007208
100
AcDbLine
 10
-10.39447
 20
403.882263
 30
0.0
 11
-10.14447
 21
403.738647
 31
0.0
210
0.0
220
0.0
230
1.0
  0
LINE
  5
309
100
AcDbEntity
  8
0
370
    35
390
0
 62
     7
 48
0.23125
100
AcDbLine
 10
-10.14447
 20
403.738647
 30
0.0
 11
-0.89447
 21
403.738647
 31
0.0
210
0.0
220
0.0
230
1.0
  0
LINE
  5
30A
100
AcDbEntity
  8
0
370
    35
390
0
 62
     7
 48
0.24375
100
AcDbLine
 10
-10.39447
 20
403.882263
 30
0.0
 11
-0.64447
 21
403.882263
 31
0.0
210
0.0
220
0.0
230
1.0
  0
LINE
  5
30B
100
AcDbEntity
  8
0
370
    35
390
0
 62
     7
 48
0.006648
100
AcDbLine
 10
-10.39447
 20
403.64801
 30
0.0
 11
-10.14447
 21
403.738647
 31
0.0
210
0.0
220
0.0
230
1.0
  0
LINE
  5
30C
100
AcDbEntity
  8
0
370
    35
390
0
 62
     7
 48
0.006908
100
AcDbLine
 10
-10.39447
 20
404.117737
 30
0.0
 11
-10.14447
 21
404.0
 31
0.0
210
0.0
220
0.0
230
1.0
  0
LINE
  5
30D
100
AcDbEntity
  8
0
370
    35
390
0
 62
     7
 48
0.23125
100
AcDbLine
 10
-10.14447
 20
404.0
 30
0.0
 11
-0.89447
 21
404.0
 31
0.0
210
0.0
220
0.0
230
1.0
  0
LINE
  5
30E
100
AcDbEntity
  8
0
370
    35
390
0
 62
     7
 48
0.24375
100
AcDbLine
 10
-10.39447
 20
404.117737
 30
0.0
 11
-0.64447
 21
404.117737
 31
0.0
210
0.0
220
0.0
230
1.0
  0
LINE
  5
30F
100
AcDbEntity
  8
0
370
    35
390
0
 62
     7
 48
0.006908
100
AcDbLine
 10
-10.39447
 20
403.882263
 30
0.0
 11
-10.14447
 21
404.0
 31
0.0
210
0.0
220
0.0
230
1.0
  0
LINE
  5
310
100
AcDbEntity
  8
0
370
    35
390
0
 62
     7
 48
0.006648
100
AcDbLine
 10
-10.39447
 20
404.351929
 30
0.0
 11
-10.14447
 21
404.261292
 31
0.0
210
0.0
220
0.0
230
1.0
  0
LINE
  5
311
100
AcDbEntity
  8
0
370
    35
390
0
 62
     7
 48
0.23125
100
AcDbLine
 10
-10.14447
 20
404.261292
 30
0.0
 11
-0.89447
 21
404.261292
 31
0.0
210
0.0
220
0.0
230
1.0
  0
LINE
  5
312
100
AcDbEntity
  8
0
370
    35
390
0
 62
     7
 48
0.24375
100
AcDbLine
 10
-10.39447
 20
404.351929
 30
0.0
 11
-0.64447
 21
404.351929
 31
0.0
210
0.0
220
0.0
230
1.0
  0
LINE
  5
313
100
AcDbEntity
  8
0
370
    35
390
0
 62
     7
 48
0.007207
100
AcDbLine
 10
-10.39447
 20
404.117737
 30
0.0
 11
-10.14447
 21
404.261292
 31
0.0
210
0.0
220
0.0
230
1.0
  0
LINE
  5
314
100
AcDbEntity
  8
0
370
    35
390
0
 62
     7
 48
0.006443
100
AcDbLine
 10
-10.39447
 20
404.582336
 30
0.0
 11
-10.14447
 21
404.519775
 31
0.0
210
0.0
220
0.0
230
1.0
  0
LINE
  5
315
100
AcDbEntity
  8
0
370
    35
390
0
 62
     7
 48
0.23125
100
AcDbLine
 10
-10.14447
 20
404.519775
 30
0.0
 11
-0.89447
 21
404.519775
 31
0.0
210
0.0
220
0.0
230
1.0
  0
LINE
  5
316
100
AcDbEntity
  8
0
370
    35
390
0
 62
     7
 48
0.24375
100
AcDbLine
 10
-10.39447
 20
404.582336
 30
0.0
 11
-0.64447
 21
404.582336
 31
0.0
210
0.0
220
0.0
230
1.0
  0
LINE
  5
317
100
AcDbEntity
  8
0
370
    35
390
0
 62
     7
 48
0.007528
100
AcDbLine
 10
-10.39447
 20
404.351929
 30
0.0
 11
-10.14447
 21
404.519775
 31
0.0
210
0.0
220
0.0
230
1.0
  0
LINE
  5
318
100
AcDbEntity
  8
0
370
    35
390
0
 62
     7
 48
0.006307
100
AcDbLine
 10
-10.39447
 20
404.806335
 30
0.0
 11
-10.14447
 21
404.772522
 31
0.0
210
0.0
220
0.0
230
1.0
  0
LINE
  5
319
100
AcDbEntity
  8
0
370
    35
390
0
 62
     7
 48
0.23125
100
AcDbLine
 10
-10.14447
 20
404.772522
 30
0.0
 11
-0.89447
 21
404.772522
 31
0.0
210
0.0
220
0.0
230
1.0
  0
LINE
  5
31A
100
AcDbEntity
  8
0
370
    35
390
0
 62
     7
 48
0.24375
100
AcDbLine
 10
-10.39447
 20
404.806335
 30
0.0
 11
-0.64447
 21
404.806335
 31
0.0
210
0.0
220
0.0
230
1.0
  0
LINE
  5
31B
100
AcDbEntity
  8
0
370
    35
390
0
 62
     7
 48
0.007853
100
AcDbLine
 10
-10.39447
 20
404.582336
 30
0.0
 11
-10.14447
 21
404.772522
 31
0.0
210
0.0
220
0.0
230
1.0
  0
LINE
  5
31C
100
AcDbEntity
  8
0
370
    35
390
0
 62
     7
 48
0.006251
100
AcDbLine
 10
-10.39447
 20
405.021484
 30
0.0
 11
-10.14447
 21
405.016785
 31
0.0
210
0.0
220
0.0
230
1.0
  0
LINE
  5
31D
100
AcDbEntity
  8
0
370
    35
390
0
 62
     7
 48
0.23125
100
AcDbLine
 10
-10.14447
 20
405.016785
 30
0.0
 11
-0.89447
 21
405.016785
 31
0.0
210
0.0
220
0.0
230
1.0
  0
LINE
  5
31E
100
AcDbEntity
  8
0
370
    35
390
0
 62
     7
 48
0.00817
100
AcDbLine
 10
-10.39447
 20
404.806335
 30
0.0
 11
-10.14447
 21
405.016785
 31
0.0
210
0.0
220
0.0
230
1.0
  0
LINE
  5
31F
100
AcDbEntity
  8
0
370
    35
390
0
 62
     7
 48
0.09388
100
AcDbLine
 10
-10.64447
 20
406.0
 30
0.0
 11
-10.64447
 21
402.244812
 31
0.0
210
0.0
220
0.0
230
1.0
  0
LINE
  5
320
100
AcDbEntity
  8
0
370
    35
390
0
 62
     7
 48
0.00612
100
AcDbLine
 10
-10.64447
 20
402.244812
 30
0.0
 11
-10.64447
 21
402.0
 31
0.0
210
0.0
220
0.0
230
1.0
  0
LINE
  5
321
100
AcDbEntity
  8
0
370
    35
390
0
 62
     7
 48
0.0625
100
AcDbLine
 10
2.955521
 20
400.700012
 30
0.0
 11
2.955521
 21
398.200012
 31
0.0
210
0.0
220
0.0
230
1.0
  0
LINE
  5
322
100
AcDbEntity
  8
0
370
    35
390
0
 62
     7
 48
0.1875
100
AcDbLine
 10
2.955521
 20
398.200012
 30
0.0
 11
2.955521
 21
390.700012
 31
0.0
210
0.0
220
0.0
230
1.0
  0
LINE
  5
323
100
AcDbEntity
  8
0
370
    35
390
0
 62
     7
 48
0.056726
100
AcDbLine
 10
2.155533
 20
400.238098
 30
0.0
 11
2.155533
 21
397.969055
 31
0.0
210
0.0
220
0.0
230
1.0
  0
LINE
  5
324
100
AcDbEntity
  8
0
370
    35
390
0
 62
     7
 48
0.17018
100
AcDbLine
 10
2.155533
 20
397.969055
 30
0.0
 11
2.155533
 21
391.161865
 31
0.0
210
0.0
220
0.0
230
1.0
  0
LINE
  5
325
100
AcDbEntity
  8
0
370
    35
390
0
 62
     7
 48
0.000034
100
AcDbLine
 10
-55.844467
 20
399.700012
 30
0.0
 11
-55.844467
 21
399.698669
 31
0.0
210
0.0
220
0.0
230
1.0
  0
LINE
  5
326
100
AcDbEntity
  8
0
370
    35
390
0
 62
     7
 48
0.199966
100
AcDbLine
 10
-55.844467
 20
399.698669
 30
0.0
 11
-55.844467
 21
391.700012
 31
0.0
210
0.0
220
0.0
230
1.0
  0
LINE
  5
327
100
AcDbEntity
  8
0
370
    35
390
0
 62
     7
 48
0.000076
100
AcDbLine
 10
-0.64447
 20
385.153076
 30
0.0
 11
-0.64447
 21
385.150024
 31
0.0
210
0.0
220
0.0
230
1.0
  0
LINE
  5
328
100
AcDbEntity
  8
0
370
    35
390
0
 62
     7
 48
0.000616
100
AcDbLine
 10
-0.64447
 20
385.177734
 30
0.0
 11
-0.64447
 21
385.153076
 31
0.0
210
0.0
220
0.0
230
1.0
  0
LINE
  5
329
100
AcDbEntity
  8
0
370
    35
390
0
 62
     7
 48
0.001222
100
AcDbLine
 10
-0.64447
 20
385.226624
 30
0.0
 11
-0.64447
 21
385.177734
 31
0.0
210
0.0
220
0.0
230
1.0
  0
LINE
  5
32A
100
AcDbEntity
  8
0
370
    35
390
0
 62
     7
 48
0.00182
100
AcDbLine
 10
-0.64447
 20
385.299438
 30
0.0
 11
-0.64447
 21
385.226624
 31
0.0
210
0.0
220
0.0
230
1.0
  0
LINE
  5
32B
100
AcDbEntity
  8
0
370
    35
390
0
 62
     7
 48
0.002394
100
AcDbLine
 10
-0.64447
 20
385.395203
 30
0.0
 11
-0.64447
 21
385.299438
 31
0.0
210
0.0
220
0.0
230
1.0
  0
LINE
  5
32C
100
AcDbEntity
  8
0
370
    35
390
0
 62
     7
 48
0.000755
100
AcDbLine
 10
-0.64447
 20
385.425415
 30
0.0
 11
-0.64447
 21
385.395203
 31
0.0
210
0.0
220
0.0
230
1.0
  0
LINE
  5
32D
100
AcDbEntity
  8
0
370
    35
390
0
 62
     7
 48
0.00219
100
AcDbLine
 10
-0.64447
 20
385.513
 30
0.0
 11
-0.64447
 21
385.425415
 31
0.0
210
0.0
220
0.0
230
1.0
  0
LINE
  5
32E
100
AcDbEntity
  8
0
370
    35
390
0
 62
     7
 48
0.003461
100
AcDbLine
 10
-0.64447
 20
385.651428
 30
0.0
 11
-0.64447
 21
385.513
 31
0.0
210
0.0
220
0.0
230
1.0
  0
LINE
  5
32F
100
AcDbEntity
  8
0
370
    35
390
0
 62
     7
 48
0.003938
100
AcDbLine
 10
-0.64447
 20
385.80896
 30
0.0
 11
-0.64447
 21
385.651428
 31
0.0
210
0.0
220
0.0
230
1.0
  0
LINE
  5
330
100
AcDbEntity
  8
0
370
    35
390
0
 62
     7
 48
0.004376
100
AcDbLine
 10
-0.64447
 20
385.984009
 30
0.0
 11
-0.64447
 21
385.80896
 31
0.0
210
0.0
220
0.0
230
1.0
  0
LINE
  5
331
100
AcDbEntity
  8
0
370
    35
390
0
 62
     7
 48
0.004762
100
AcDbLine
 10
-0.64447
 20
386.1745
 30
0.0
 11
-0.64447
 21
385.984009
 31
0.0
210
0.0
220
0.0
230
1.0
  0
LINE
  5
332
100
AcDbEntity
  8
0
370
    35
390
0
 62
     7
 48
0.005101
100
AcDbLine
 10
-0.64447
 20
386.37854
 30
0.0
 11
-0.64447
 21
386.1745
 31
0.0
210
0.0
220
0.0
230
1.0
  0
LINE
  5
333
100
AcDbEntity
  8
0
370
    35
390
0
 62
     7
 48
0.005377
100
AcDbLine
 10
-0.64447
 20
386.593628
 30
0.0
 11
-0.64447
 21
386.37854
 31
0.0
210
0.0
220
0.0
230
1.0
  0
LINE
  5
334
100
AcDbEntity
  8
0
370
    35
390
0
 62
     7
 48
0.0056
100
AcDbLine
 10
-0.64447
 20
386.817627
 30
0.0
 11
-0.64447
 21
386.593628
 31
0.0
210
0.0
220
0.0
230
1.0
  0
LINE
  5
335
100
AcDbEntity
  8
0
370
    35
390
0
 62
     7
 48
0.005759
100
AcDbLine
 10
-0.64447
 20
387.047974
 30
0.0
 11
-0.64447
 21
386.817627
 31
0.0
210
0.0
220
0.0
230
1.0
  0
LINE
  5
336
100
AcDbEntity
  8
0
370
    35
390
0
 62
     7
 48
0.005856
100
AcDbLine
 10
-0.64447
 20
387.282227
 30
0.0
 11
-0.64447
 21
387.047974
 31
0.0
210
0.0
220
0.0
230
1.0
  0
LINE
  5
337
100
AcDbEntity
  8
0
370
    35
390
0
 62
     7
 48
0.005888
100
AcDbLine
 10
-0.64447
 20
387.517761
 30
0.0
 11
-0.64447
 21
387.282227
 31
0.0
210
0.0
220
0.0
230
1.0
  0
LINE
  5
338
100
AcDbEntity
  8
0
370
    35
390
0
 62
     7
 48
0.005855
100
AcDbLine
 10
-0.64447
 20
387.751953
 30
0.0
 11
-0.64447
 21
387.517761
 31
0.0
210
0.0
220
0.0
230
1.0
  0
LINE
  5
339
100
AcDbEntity
  8
0
370
    35
390
0
 62
     7
 48
0.005759
100
AcDbLine
 10
-0.64447
 20
387.9823
 30
0.0
 11
-0.64447
 21
387.751953
 31
0.0
210
0.0
220
0.0
230
1.0
  0
LINE
  5
33A
100
AcDbEntity
  8
0
370
    35
390
0
 62
     7
 48
0.0056
100
AcDbLine
 10
-0.64447
 20
388.206299
 30
0.0
 11
-0.64447
 21
387.9823
 31
0.0
210
0.0
220
0.0
230
1.0
  0
LINE
  5
33B
100
AcDbEntity
  8
0
370
    35
390
0
 62
     7
 48
0.005379
100
AcDbLine
 10
-0.64447
 20
388.421448
 30
0.0
 11
-0.64447
 21
388.206299
 31
0.0
210
0.0
220
0.0
230
1.0
  0
LINE
  5
33C
100
AcDbEntity
  8
0
370
    35
390
0
 62
     7
 48
0.001431
100
AcDbLine
 10
-0.64447
 20
388.478699
 30
0.0
 11
-0.64447
 21
388.421448
 31
0.0
210
0.0
220
0.0
230
1.0
  0
LINE
  5
33D
100
AcDbEntity
  8
0
370
    35
390
0
 62
     7
 48
0.008893
100
AcDbLine
 10
-0.64447
 20
385.153076
 30
0.0
 11
-0.89447
 21
384.900024
 31
0.0
210
0.0
220
0.0
230
1.0
  0
LINE
  5
33E
100
AcDbEntity
  8
0
370
    35
390
0
 62
     7
 48
0.00909
100
AcDbLine
 10
-0.64447
 20
385.177734
 30
0.0
 11
-0.89447
 21
384.913696
 31
0.0
210
0.0
220
0.0
230
1.0
  0
LINE
  5
33F
100
AcDbEntity
  8
0
370
    35
390
0
 62
     7
 48
0.008653
100
AcDbLine
 10
-0.64447
 20
385.153076
 30
0.0
 11
-0.89447
 21
384.913696
 31
0.0
210
0.0
220
0.0
230
1.0
  0
LINE
  5
340
100
AcDbEntity
  8
0
370
    35
390
0
 62
     7
 48
0.009237
100
AcDbLine
 10
-0.64447
 20
385.226624
 30
0.0
 11
-0.89447
 21
384.95459
 31
0.0
210
0.0
220
0.0
230
1.0
  0
LINE
  5
341
100
AcDbEntity
  8
0
370
    35
390
0
 62
     7
 48
0.008378
100
AcDbLine
 10
-0.64447
 20
385.177734
 30
0.0
 11
-0.89447
 21
384.95459
 31
0.0
210
0.0
220
0.0
230
1.0
  0
LINE
  5
342
100
AcDbEntity
  8
0
370
    35
390
0
 62
     7
 48
0.00933
100
AcDbLine
 10
-0.64447
 20
385.299438
 30
0.0
 11
-0.89447
 21
385.022339
 31
0.0
210
0.0
220
0.0
230
1.0
  0
LINE
  5
343
100
AcDbEntity
  8
0
370
    35
390
0
 62
     7
 48
0.008071
100
AcDbLine
 10
-0.64447
 20
385.226624
 30
0.0
 11
-0.89447
 21
385.022339
 31
0.0
210
0.0
220
0.0
230
1.0
  0
LINE
  5
344
100
AcDbEntity
  8
0
370
    35
390
0
 62
     7
 48
0.009368
100
AcDbLine
 10
-0.64447
 20
385.395203
 30
0.0
 11
-0.89447
 21
385.116089
 31
0.0
210
0.0
220
0.0
230
1.0
  0
LINE
  5
345
100
AcDbEntity
  8
0
370
    35
390
0
 62
     7
 48
0.007751
100
AcDbLine
 10
-0.64447
 20
385.299438
 30
0.0
 11
-0.89447
 21
385.116089
 31
0.0
210
0.0
220
0.0
230
1.0
  0
LINE
  5
346
100
AcDbEntity
  8
0
370
    35
390
0
 62
     7
 48
0.003866
100
AcDbLine
 10
-0.64447
 20
385.395203
 30
0.0
 11
-0.774429
 21
385.311401
 31
0.0
210
0.0
220
0.0
230
1.0
  0
LINE
  5
347
100
AcDbEntity
  8
0
370
    35
390
0
 62
     7
 48
0.009348
100
AcDbLine
 10
-0.64447
 20
385.513
 30
0.0
 11
-0.89447
 21
385.234924
 31
0.0
210
0.0
220
0.0
230
1.0
  0
LINE
  5
348
100
AcDbEntity
  8
0
370
    35
390
0
 62
     7
 48
0.003558
100
AcDbLine
 10
-0.774429
 20
385.311401
 30
0.0
 11
-0.89447
 21
385.234924
 31
0.0
210
0.0
220
0.0
230
1.0
  0
LINE
  5
349
100
AcDbEntity
  8
0
370
    35
390
0
 62
     7
 48
0.009273
100
AcDbLine
 10
-0.64447
 20
385.651428
 30
0.0
 11
-0.89447
 21
385.377441
 31
0.0
210
0.0
220
0.0
230
1.0
  0
LINE
  5
34A
100
AcDbEntity
  8
0
370
    35
390
0
 62
     7
 48
0.00711
100
AcDbLine
 10
-0.64447
 20
385.513
 30
0.0
 11
-0.89447
 21
385.377441
 31
0.0
210
0.0
220
0.0
230
1.0
  0
LINE
  5
34B
100
AcDbEntity
  8
0
370
    35
390
0
 62
     7
 48
0.009141
100
AcDbLine
 10
-0.64447
 20
385.80896
 30
0.0
 11
-0.89447
 21
385.542114
 31
0.0
210
0.0
220
0.0
230
1.0
  0
LINE
  5
34C
100
AcDbEntity
  8
0
370
    35
390
0
 62
     7
 48
0.006821
100
AcDbLine
 10
-0.64447
 20
385.651428
 30
0.0
 11
-0.89447
 21
385.542114
 31
0.0
210
0.0
220
0.0
230
1.0
  0
LINE
  5
34D
100
AcDbEntity
  8
0
370
    35
390
0
 62
     7
 48
0.00896
100
AcDbLine
 10
-0.64447
 20
385.984009
 30
0.0
 11
-0.89447
 21
385.727173
 31
0.0
210
0.0
220
0.0
230
1.0
  0
LINE
  5
34E
100
AcDbEntity
  8
0
370
    35
390
0
 62
     7
 48
0.006576
100
AcDbLine
 10
-0.64447
 20
385.80896
 30
0.0
 11
-0.89447
 21
385.727173
 31
0.0
210
0.0
220
0.0
230
1.0
  0
LINE
  5
34F
100
AcDbEntity
  8
0
370
    35
390
0
 62
     7
 48
0.008734
100
AcDbLine
 10
-0.64447
 20
386.1745
 30
0.0
 11
-0.89447
 21
385.930481
 31
0.0
210
0.0
220
0.0
230
1.0
  0
LINE
  5
350
100
AcDbEntity
  8
0
370
    35
390
0
 62
     7
 48
0.006392
100
AcDbLine
 10
-0.64447
 20
385.984009
 30
0.0
 11
-0.89447
 21
385.930481
 31
0.0
210
0.0
220
0.0
230
1.0
  0
LINE
  5
351
100
AcDbEntity
  8
0
370
    35
390
0
 62
     7
 48
0.008468
100
AcDbLine
 10
-0.64447
 20
386.37854
 30
0.0
 11
-0.89447
 21
386.150024
 31
0.0
210
0.0
220
0.0
230
1.0
  0
LINE
  5
352
100
AcDbEntity
  8
0
370
    35
390
0
 62
     7
 48
0.00628
100
AcDbLine
 10
-0.64447
 20
386.1745
 30
0.0
 11
-0.89447
 21
386.150024
 31
0.0
210
0.0
220
0.0
230
1.0
  0
LINE
  5
353
100
AcDbEntity
  8
0
370
    35
390
0
 62
     7
 48
0.008171
100
AcDbLine
 10
-0.64447
 20
386.593628
 30
0.0
 11
-0.89447
 21
386.383118
 31
0.0
210
0.0
220
0.0
230
1.0
  0
LINE
  5
354
100
AcDbEntity
  8
0
370
    35
390
0
 62
     7
 48
0.006251
100
AcDbLine
 10
-0.64447
 20
386.37854
 30
0.0
 11
-0.89447
 21
386.383118
 31
0.0
210
0.0
220
0.0
230
1.0
  0
LINE
  5
355
100
AcDbEntity
  8
0
370
    35
390
0
 62
     7
 48
0.007853
100
AcDbLine
 10
-0.64447
 20
386.817627
 30
0.0
 11
-0.89447
 21
386.627441
 31
0.0
210
0.0
220
0.0
230
1.0
  0
LINE
  5
356
100
AcDbEntity
  8
0
370
    35
390
0
 62
     7
 48
0.006307
100
AcDbLine
 10
-0.64447
 20
386.593628
 30
0.0
 11
-0.89447
 21
386.627441
 31
0.0
210
0.0
220
0.0
230
1.0
  0
LINE
  5
357
100
AcDbEntity
  8
0
370
    35
390
0
 62
     7
 48
0.007527
100
AcDbLine
 10
-0.64447
 20
387.047974
 30
0.0
 11
-0.89447
 21
386.880188
 31
0.0
210
0.0
220
0.0
230
1.0
  0
LINE
  5
358
100
AcDbEntity
  8
0
370
    35
390
0
 62
     7
 48
0.006443
100
AcDbLine
 10
-0.64447
 20
386.817627
 30
0.0
 11
-0.89447
 21
386.880188
 31
0.0
210
0.0
220
0.0
230
1.0
  0
LINE
  5
359
100
AcDbEntity
  8
0
370
    35
390
0
 62
     7
 48
0.007207
100
AcDbLine
 10
-0.64447
 20
387.282227
 30
0.0
 11
-0.89447
 21
387.138672
 31
0.0
210
0.0
220
0.0
230
1.0
  0
LINE
  5
35A
100
AcDbEntity
  8
0
370
    35
390
0
 62
     7
 48
0.006649
100
AcDbLine
 10
-0.64447
 20
387.047974
 30
0.0
 11
-0.89447
 21
387.138672
 31
0.0
210
0.0
220
0.0
230
1.0
  0
LINE
  5
35B
100
AcDbEntity
  8
0
370
    35
390
0
 62
     7
 48
0.006908
100
AcDbLine
 10
-0.64447
 20
387.517761
 30
0.0
 11
-0.89447
 21
387.400024
 31
0.0
210
0.0
220
0.0
230
1.0
  0
LINE
  5
35C
100
AcDbEntity
  8
0
370
    35
390
0
 62
     7
 48
0.006909
100
AcDbLine
 10
-0.64447
 20
387.282227
 30
0.0
 11
-0.89447
 21
387.400024
 31
0.0
210
0.0
220
0.0
230
1.0
  0
LINE
  5
35D
100
AcDbEntity
  8
0
370
    35
390
0
 62
     7
 48
0.006648
100
AcDbLine
 10
-0.64447
 20
387.751953
 30
0.0
 11
-0.89447
 21
387.661316
 31
0.0
210
0.0
220
0.0
230
1.0
  0
LINE
  5
35E
100
AcDbEntity
  8
0
370
    35
390
0
 62
     7
 48
0.007207
100
AcDbLine
 10
-0.64447
 20
387.517761
 30
0.0
 11
-0.89447
 21
387.661316
 31
0.0
210
0.0
220
0.0
230
1.0
  0
LINE
  5
35F
100
AcDbEntity
  8
0
370
    35
390
0
 62
     7
 48
0.006443
100
AcDbLine
 10
-0.64447
 20
387.9823
 30
0.0
 11
-0.89447
 21
387.919739
 31
0.0
210
0.0
220
0.0
230
1.0
  0
LINE
  5
360
100
AcDbEntity
  8
0
370
    35
390
0
 62
     7
 48
0.007527
100
AcDbLine
 10
-0.64447
 20
387.751953
 30
0.0
 11
-0.89447
 21
387.919739
 31
0.0
210
0.0
220
0.0
230
1.0
  0
LINE
  5
361
100
AcDbEntity
  8
0
370
    35
390
0
 62
     7
 48
0.006307
100
AcDbLine
 10
-0.64447
 20
388.206299
 30
0.0
 11
-0.89447
 21
388.172546
 31
0.0
210
0.0
220
0.0
230
1.0
  0
LINE
  5
362
100
AcDbEntity
  8
0
370
    35
390
0
 62
     7
 48
0.007854
100
AcDbLine
 10
-0.64447
 20
387.9823
 30
0.0
 11
-0.89447
 21
388.172546
 31
0.0
210
0.0
220
0.0
230
1.0
  0
LINE
  5
363
100
AcDbEntity
  8
0
370
    35
390
0
 62
     7
 48
0.006251
100
AcDbLine
 10
-0.64447
 20
388.421448
 30
0.0
 11
-0.89447
 21
388.416809
 31
0.0
210
0.0
220
0.0
230
1.0
  0
LINE
  5
364
100
AcDbEntity
  8
0
370
    35
390
0
 62
     7
 48
0.008171
100
AcDbLine
 10
-0.64447
 20
388.206299
 30
0.0
 11
-0.89447
 21
388.416809
 31
0.0
210
0.0
220
0.0
230
1.0
  0
LINE
  5
365
100
AcDbEntity
  8
0
370
    35
390
0
 62
     7
 48
0.003668
100
AcDbLine
 10
-0.64447
 20
388.625427
 30
0.0
 11
-0.64447
 21
388.478699
 31
0.0
210
0.0
220
0.0
230
1.0
  0
LINE
  5
366
100
AcDbEntity
  8
0
370
    35
390
0
 62
     7
 48
0.00628
100
AcDbLine
 10
-0.64447
 20
388.625427
 30
0.0
 11
-0.89447
 21
388.650024
 31
0.0
210
0.0
220
0.0
230
1.0
  0
LINE
  5
367
100
AcDbEntity
  8
0
370
    35
390
0
 62
     7
 48
0.008469
100
AcDbLine
 10
-0.64447
 20
388.421448
 30
0.0
 11
-0.89447
 21
388.650024
 31
0.0
210
0.0
220
0.0
230
1.0
  0
LINE
  5
368
100
AcDbEntity
  8
0
370
    35
390
0
 62
     7
 48
0.004762
100
AcDbLine
 10
-0.64447
 20
388.815918
 30
0.0
 11
-0.64447
 21
388.625427
 31
0.0
210
0.0
220
0.0
230
1.0
  0
LINE
  5
369
100
AcDbEntity
  8
0
370
    35
390
0
 62
     7
 48
0.004376
100
AcDbLine
 10
-0.64447
 20
388.990967
 30
0.0
 11
-0.64447
 21
388.815918
 31
0.0
210
0.0
220
0.0
230
1.0
  0
LINE
  5
36A
100
AcDbEntity
  8
0
370
    35
390
0
 62
     7
 48
0.00394
100
AcDbLine
 10
-0.64447
 20
389.14856
 30
0.0
 11
-0.64447
 21
388.990967
 31
0.0
210
0.0
220
0.0
230
1.0
  0
LINE
  5
36B
100
AcDbEntity
  8
0
370
    35
390
0
 62
     7
 48
0.003461
100
AcDbLine
 10
-0.64447
 20
389.286987
 30
0.0
 11
-0.64447
 21
389.14856
 31
0.0
210
0.0
220
0.0
230
1.0
  0
LINE
  5
36C
100
AcDbEntity
  8
0
370
    35
390
0
 62
     7
 48
0.002945
100
AcDbLine
 10
-0.64447
 20
389.404785
 30
0.0
 11
-0.64447
 21
389.286987
 31
0.0
210
0.0
220
0.0
230
1.0
  0
LINE
  5
36D
100
AcDbEntity
  8
0
370
    35
390
0
 62
     7
 48
0.002394
100
AcDbLine
 10
-0.64447
 20
389.500549
 30
0.0
 11
-0.64447
 21
389.404785
 31
0.0
210
0.0
220
0.0
230
1.0
  0
LINE
  5
36E
100
AcDbEntity
  8
0
370
    35
390
0
 62
     7
 48
0.001819
100
AcDbLine
 10
-0.64447
 20
389.573303
 30
0.0
 11
-0.64447
 21
389.500549
 31
0.0
210
0.0
220
0.0
230
1.0
  0
LINE
  5
36F
100
AcDbEntity
  8
0
370
    35
390
0
 62
     7
 48
0.001225
100
AcDbLine
 10
-0.64447
 20
389.622314
 30
0.0
 11
-0.64447
 21
389.573303
 31
0.0
210
0.0
220
0.0
230
1.0
  0
LINE
  5
370
100
AcDbEntity
  8
0
370
    35
390
0
 62
     7
 48
0.000693
100
AcDbLine
 10
-0.64447
 20
389.650024
 30
0.0
 11
-0.64447
 21
389.622314
 31
0.0
210
0.0
220
0.0
230
1.0
  0
LINE
  5
371
100
AcDbEntity
  8
0
370
    35
390
0
 62
     7
 48
0.000078
100
AcDbLine
 10
-0.64447
 20
389.650024
 30
0.0
 11
-0.64447
 21
389.646912
 31
0.0
210
0.0
220
0.0
230
1.0
  0
LINE
  5
372
100
AcDbEntity
  8
0
370
    35
390
0
 62
     7
 48
0.008893
100
AcDbLine
 10
-10.39447
 20
385.153076
 30
0.0
 11
-10.14447
 21
384.900024
 31
0.0
210
0.0
220
0.0
230
1.0
  0
LINE
  5
373
100
AcDbEntity
  8
0
370
    35
390
0
 62
     7
 48
0.23125
100
AcDbLine
 10
-10.14447
 20
384.900024
 30
0.0
 11
-0.89447
 21
384.900024
 31
0.0
210
0.0
220
0.0
230
1.0
  0
LINE
  5
374
100
AcDbEntity
  8
0
370
    35
390
0
 62
     7
 48
0.00909
100
AcDbLine
 10
-10.39447
 20
385.177734
 30
0.0
 11
-10.14447
 21
384.913696
 31
0.0
210
0.0
220
0.0
230
1.0
  0
LINE
  5
375
100
AcDbEntity
  8
0
370
    35
390
0
 62
     7
 48
0.23125
100
AcDbLine
 10
-10.14447
 20
384.913696
 30
0.0
 11
-0.89447
 21
384.913696
 31
0.0
210
0.0
220
0.0
230
1.0
  0
LINE
  5
376
100
AcDbEntity
  8
0
370
    35
390
0
 62
     7
 48
0.008653
100
AcDbLine
 10
-10.39447
 20
385.153076
 30
0.0
 11
-10.14447
 21
384.913696
 31
0.0
210
0.0
220
0.0
230
1.0
  0
LINE
  5
377
100
AcDbEntity
  8
0
370
    35
390
0
 62
     7
 48
0.009237
100
AcDbLine
 10
-10.39447
 20
385.226624
 30
0.0
 11
-10.14447
 21
384.95459
 31
0.0
210
0.0
220
0.0
230
1.0
  0
LINE
  5
378
100
AcDbEntity
  8
0
370
    35
390
0
 62
     7
 48
0.23125
100
AcDbLine
 10
-10.14447
 20
384.95459
 30
0.0
 11
-0.89447
 21
384.95459
 31
0.0
210
0.0
220
0.0
230
1.0
  0
LINE
  5
379
100
AcDbEntity
  8
0
370
    35
390
0
 62
     7
 48
0.008378
100
AcDbLine
 10
-10.39447
 20
385.177734
 30
0.0
 11
-10.14447
 21
384.95459
 31
0.0
210
0.0
220
0.0
230
1.0
  0
LINE
  5
37A
100
AcDbEntity
  8
0
370
    35
390
0
 62
     7
 48
0.00933
100
AcDbLine
 10
-10.39447
 20
385.299438
 30
0.0
 11
-10.14447
 21
385.022339
 31
0.0
210
0.0
220
0.0
230
1.0
  0
LINE
  5
37B
100
AcDbEntity
  8
0
370
    35
390
0
 62
     7
 48
0.23125
100
AcDbLine
 10
-10.14447
 20
385.022339
 30
0.0
 11
-0.89447
 21
385.022339
 31
0.0
210
0.0
220
0.0
230
1.0
  0
LINE
  5
37C
100
AcDbEntity
  8
0
370
    35
390
0
 62
     7
 48
0.008071
100
AcDbLine
 10
-10.39447
 20
385.226624
 30
0.0
 11
-10.14447
 21
385.022339
 31
0.0
210
0.0
220
0.0
230
1.0
  0
LINE
  5
37D
100
AcDbEntity
  8
0
370
    35
390
0
 62
     7
 48
0.009368
100
AcDbLine
 10
-10.39447
 20
385.395203
 30
0.0
 11
-10.14447
 21
385.116089
 31
0.0
210
0.0
220
0.0
230
1.0
  0
LINE
  5
37E
100
AcDbEntity
  8
0
370
    35
390
0
 62
     7
 48
0.23125
100
AcDbLine
 10
-10.14447
 20
385.116089
 30
0.0
 11
-0.89447
 21
385.116089
 31
0.0
210
0.0
220
0.0
230
1.0
  0
LINE
  5
37F
100
AcDbEntity
  8
0
370
    35
390
0
 62
     7
 48
0.007751
100
AcDbLine
 10
-10.39447
 20
385.299438
 30
0.0
 11
-10.14447
 21
385.116089
 31
0.0
210
0.0
220
0.0
230
1.0
  0
LINE
  5
380
100
AcDbEntity
  8
0
370
    35
390
0
 62
     7
 48
0.23125
100
AcDbLine
 10
-10.14447
 20
385.234924
 30
0.0
 11
-0.89447
 21
385.234924
 31
0.0
210
0.0
220
0.0
230
1.0
  0
LINE
  5
381
100
AcDbEntity
  8
0
370
    35
390
0
 62
     7
 48
0.003558
100
AcDbLine
 10
-10.264511
 20
385.311401
 30
0.0
 11
-10.14447
 21
385.234924
 31
0.0
210
0.0
220
0.0
230
1.0
  0
LINE
  5
382
100
AcDbEntity
  8
0
370
    35
390
0
 62
     7
 48
0.003866
100
AcDbLine
 10
-10.39447
 20
385.395203
 30
0.0
 11
-10.264511
 21
385.311401
 31
0.0
210
0.0
220
0.0
230
1.0
  0
LINE
  5
383
100
AcDbEntity
  8
0
370
    35
390
0
 62
     7
 48
0.009348
100
AcDbLine
 10
-10.39447
 20
385.513
 30
0.0
 11
-10.14447
 21
385.234924
 31
0.0
210
0.0
220
0.0
230
1.0
  0
LINE
  5
384
100
AcDbEntity
  8
0
370
    35
390
0
 62
     7
 48
0.009273
100
AcDbLine
 10
-10.39447
 20
385.651428
 30
0.0
 11
-10.14447
 21
385.377441
 31
0.0
210
0.0
220
0.0
230
1.0
  0
LINE
  5
385
100
AcDbEntity
  8
0
370
    35
390
0
 62
     7
 48
0.23125
100
AcDbLine
 10
-10.14447
 20
385.377441
 30
0.0
 11
-0.89447
 21
385.377441
 31
0.0
210
0.0
220
0.0
230
1.0
  0
LINE
  5
386
100
AcDbEntity
  8
0
370
    35
390
0
 62
     7
 48
0.00711
100
AcDbLine
 10
-10.39447
 20
385.513
 30
0.0
 11
-10.14447
 21
385.377441
 31
0.0
210
0.0
220
0.0
230
1.0
  0
LINE
  5
387
100
AcDbEntity
  8
0
370
    35
390
0
 62
     7
 48
0.009141
100
AcDbLine
 10
-10.39447
 20
385.80896
 30
0.0
 11
-10.14447
 21
385.542114
 31
0.0
210
0.0
220
0.0
230
1.0
  0
LINE
  5
388
100
AcDbEntity
  8
0
370
    35
390
0
 62
     7
 48
0.23125
100
AcDbLine
 10
-10.14447
 20
385.542114
 30
0.0
 11
-0.89447
 21
385.542114
 31
0.0
210
0.0
220
0.0
230
1.0
  0
LINE
  5
389
100
AcDbEntity
  8
0
370
    35
390
0
 62
     7
 48
0.006821
100
AcDbLine
 10
-10.39447
 20
385.651428
 30
0.0
 11
-10.14447
 21
385.542114
 31
0.0
210
0.0
220
0.0
230
1.0
  0
LINE
  5
38A
100
AcDbEntity
  8
0
370
    35
390
0
 62
     7
 48
0.00896
100
AcDbLine
 10
-10.39447
 20
385.984009
 30
0.0
 11
-10.14447
 21
385.727173
 31
0.0
210
0.0
220
0.0
230
1.0
  0
LINE
  5
38B
100
AcDbEntity
  8
0
370
    35
390
0
 62
     7
 48
0.23125
100
AcDbLine
 10
-10.14447
 20
385.727173
 30
0.0
 11
-0.89447
 21
385.727173
 31
0.0
210
0.0
220
0.0
230
1.0
  0
LINE
  5
38C
100
AcDbEntity
  8
0
370
    35
390
0
 62
     7
 48
0.006576
100
AcDbLine
 10
-10.39447
 20
385.80896
 30
0.0
 11
-10.14447
 21
385.727173
 31
0.0
210
0.0
220
0.0
230
1.0
  0
LINE
  5
38D
100
AcDbEntity
  8
0
370
    35
390
0
 62
     7
 48
0.008734
100
AcDbLine
 10
-10.39447
 20
386.1745
 30
0.0
 11
-10.14447
 21
385.930481
 31
0.0
210
0.0
220
0.0
230
1.0
  0
LINE
  5
38E
100
AcDbEntity
  8
0
370
    35
390
0
 62
     7
 48
0.23125
100
AcDbLine
 10
-10.14447
 20
385.930481
 30
0.0
 11
-0.89447
 21
385.930481
 31
0.0
210
0.0
220
0.0
230
1.0
  0
LINE
  5
38F
100
AcDbEntity
  8
0
370
    35
390
0
 62
     7
 48
0.006392
100
AcDbLine
 10
-10.39447
 20
385.984009
 30
0.0
 11
-10.14447
 21
385.930481
 31
0.0
210
0.0
220
0.0
230
1.0
  0
LINE
  5
390
100
AcDbEntity
  8
0
370
    35
390
0
 62
     7
 48
0.008468
100
AcDbLine
 10
-10.39447
 20
386.37854
 30
0.0
 11
-10.14447
 21
386.150024
 31
0.0
210
0.0
220
0.0
230
1.0
  0
LINE
  5
391
100
AcDbEntity
  8
0
370
    35
390
0
 62
     7
 48
0.23125
100
AcDbLine
 10
-10.14447
 20
386.150024
 30
0.0
 11
-0.89447
 21
386.150024
 31
0.0
210
0.0
220
0.0
230
1.0
  0
LINE
  5
392
100
AcDbEntity
  8
0
370
    35
390
0
 62
     7
 48
0.24375
100
AcDbLine
 10
-10.39447
 20
386.37854
 30
0.0
 11
-0.64447
 21
386.37854
 31
0.0
210
0.0
220
0.0
230
1.0
  0
LINE
  5
393
100
AcDbEntity
  8
0
370
    35
390
0
 62
     7
 48
0.00628
100
AcDbLine
 10
-10.39447
 20
386.1745
 30
0.0
 11
-10.14447
 21
386.150024
 31
0.0
210
0.0
220
0.0
230
1.0
  0
LINE
  5
394
100
AcDbEntity
  8
0
370
    35
390
0
 62
     7
 48
0.008171
100
AcDbLine
 10
-10.39447
 20
386.593628
 30
0.0
 11
-10.14447
 21
386.383118
 31
0.0
210
0.0
220
0.0
230
1.0
  0
LINE
  5
395
100
AcDbEntity
  8
0
370
    35
390
0
 62
     7
 48
0.23125
100
AcDbLine
 10
-10.14447
 20
386.383118
 30
0.0
 11
-0.89447
 21
386.383118
 31
0.0
210
0.0
220
0.0
230
1.0
  0
LINE
  5
396
100
AcDbEntity
  8
0
370
    35
390
0
 62
     7
 48
0.24375
100
AcDbLine
 10
-10.39447
 20
386.593628
 30
0.0
 11
-0.64447
 21
386.593628
 31
0.0
210
0.0
220
0.0
230
1.0
  0
LINE
  5
397
100
AcDbEntity
  8
0
370
    35
390
0
 62
     7
 48
0.006251
100
AcDbLine
 10
-10.39447
 20
386.37854
 30
0.0
 11
-10.14447
 21
386.383118
 31
0.0
210
0.0
220
0.0
230
1.0
  0
LINE
  5
398
100
AcDbEntity
  8
0
370
    35
390
0
 62
     7
 48
0.007853
100
AcDbLine
 10
-10.39447
 20
386.817627
 30
0.0
 11
-10.14447
 21
386.627441
 31
0.0
210
0.0
220
0.0
230
1.0
  0
LINE
  5
399
100
AcDbEntity
  8
0
370
    35
390
0
 62
     7
 48
0.23125
100
AcDbLine
 10
-10.14447
 20
386.627441
 30
0.0
 11
-0.89447
 21
386.627441
 31
0.0
210
0.0
220
0.0
230
1.0
  0
LINE
  5
39A
100
AcDbEntity
  8
0
370
    35
390
0
 62
     7
 48
0.24375
100
AcDbLine
 10
-10.39447
 20
386.817627
 30
0.0
 11
-0.64447
 21
386.817627
 31
0.0
210
0.0
220
0.0
230
1.0
  0
LINE
  5
39B
100
AcDbEntity
  8
0
370
    35
390
0
 62
     7
 48
0.006307
100
AcDbLine
 10
-10.39447
 20
386.593628
 30
0.0
 11
-10.14447
 21
386.627441
 31
0.0
210
0.0
220
0.0
230
1.0
  0
LINE
  5
39C
100
AcDbEntity
  8
0
370
    35
390
0
 62
     7
 48
0.007527
100
AcDbLine
 10
-10.39447
 20
387.047974
 30
0.0
 11
-10.14447
 21
386.880188
 31
0.0
210
0.0
220
0.0
230
1.0
  0
LINE
  5
39D
100
AcDbEntity
  8
0
370
    35
390
0
 62
     7
 48
0.23125
100
AcDbLine
 10
-10.14447
 20
386.880188
 30
0.0
 11
-0.89447
 21
386.880188
 31
0.0
210
0.0
220
0.0
230
1.0
  0
LINE
  5
39E
100
AcDbEntity
  8
0
370
    35
390
0
 62
     7
 48
0.24375
100
AcDbLine
 10
-10.39447
 20
387.047974
 30
0.0
 11
-0.64447
 21
387.047974
 31
0.0
210
0.0
220
0.0
230
1.0
  0
LINE
  5
39F
100
AcDbEntity
  8
0
370
    35
390
0
 62
     7
 48
0.006443
100
AcDbLine
 10
-10.39447
 20
386.817627
 30
0.0
 11
-10.14447
 21
386.880188
 31
0.0
210
0.0
220
0.0
230
1.0
  0
LINE
  5
3A0
100
AcDbEntity
  8
0
370
    35
390
0
 62
     7
 48
0.007207
100
AcDbLine
 10
-10.39447
 20
387.282227
 30
0.0
 11
-10.14447
 21
387.138672
 31
0.0
210
0.0
220
0.0
230
1.0
  0
LINE
  5
3A1
100
AcDbEntity
  8
0
370
    35
390
0
 62
     7
 48
0.23125
100
AcDbLine
 10
-10.14447
 20
387.138672
 30
0.0
 11
-0.89447
 21
387.138672
 31
0.0
210
0.0
220
0.0
230
1.0
  0
LINE
  5
3A2
100
AcDbEntity
  8
0
370
    35
390
0
 62
     7
 48
0.24375
100
AcDbLine
 10
-10.39447
 20
387.282227
 30
0.0
 11
-0.64447
 21
387.282227
 31
0.0
210
0.0
220
0.0
230
1.0
  0
LINE
  5
3A3
100
AcDbEntity
  8
0
370
    35
390
0
 62
     7
 48
0.006649
100
AcDbLine
 10
-10.39447
 20
387.047974
 30
0.0
 11
-10.14447
 21
387.138672
 31
0.0
210
0.0
220
0.0
230
1.0
  0
LINE
  5
3A4
100
AcDbEntity
  8
0
370
    35
390
0
 62
     7
 48
0.006908
100
AcDbLine
 10
-10.39447
 20
387.517761
 30
0.0
 11
-10.14447
 21
387.400024
 31
0.0
210
0.0
220
0.0
230
1.0
  0
LINE
  5
3A5
100
AcDbEntity
  8
0
370
    35
390
0
 62
     7
 48
0.23125
100
AcDbLine
 10
-10.14447
 20
387.400024
 30
0.0
 11
-0.89447
 21
387.400024
 31
0.0
210
0.0
220
0.0
230
1.0
  0
LINE
  5
3A6
100
AcDbEntity
  8
0
370
    35
390
0
 62
     7
 48
0.24375
100
AcDbLine
 10
-10.39447
 20
387.517761
 30
0.0
 11
-0.64447
 21
387.517761
 31
0.0
210
0.0
220
0.0
230
1.0
  0
LINE
  5
3A7
100
AcDbEntity
  8
0
370
    35
390
0
 62
     7
 48
0.006909
100
AcDbLine
 10
-10.39447
 20
387.282227
 30
0.0
 11
-10.14447
 21
387.400024
 31
0.0
210
0.0
220
0.0
230
1.0
  0
LINE
  5
3A8
100
AcDbEntity
  8
0
370
    35
390
0
 62
     7
 48
0.006648
100
AcDbLine
 10
-10.39447
 20
387.751953
 30
0.0
 11
-10.14447
 21
387.661316
 31
0.0
210
0.0
220
0.0
230
1.0
  0
LINE
  5
3A9
100
AcDbEntity
  8
0
370
    35
390
0
 62
     7
 48
0.23125
100
AcDbLine
 10
-10.14447
 20
387.661316
 30
0.0
 11
-0.89447
 21
387.661316
 31
0.0
210
0.0
220
0.0
230
1.0
  0
LINE
  5
3AA
100
AcDbEntity
  8
0
370
    35
390
0
 62
     7
 48
0.24375
100
AcDbLine
 10
-10.39447
 20
387.751953
 30
0.0
 11
-0.64447
 21
387.751953
 31
0.0
210
0.0
220
0.0
230
1.0
  0
LINE
  5
3AB
100
AcDbEntity
  8
0
370
    35
390
0
 62
     7
 48
0.007207
100
AcDbLine
 10
-10.39447
 20
387.517761
 30
0.0
 11
-10.14447
 21
387.661316
 31
0.0
210
0.0
220
0.0
230
1.0
  0
LINE
  5
3AC
100
AcDbEntity
  8
0
370
    35
390
0
 62
     7
 48
0.006443
100
AcDbLine
 10
-10.39447
 20
387.9823
 30
0.0
 11
-10.14447
 21
387.919739
 31
0.0
210
0.0
220
0.0
230
1.0
  0
LINE
  5
3AD
100
AcDbEntity
  8
0
370
    35
390
0
 62
     7
 48
0.23125
100
AcDbLine
 10
-10.14447
 20
387.919739
 30
0.0
 11
-0.89447
 21
387.919739
 31
0.0
210
0.0
220
0.0
230
1.0
  0
LINE
  5
3AE
100
AcDbEntity
  8
0
370
    35
390
0
 62
     7
 48
0.24375
100
AcDbLine
 10
-10.39447
 20
387.9823
 30
0.0
 11
-0.64447
 21
387.9823
 31
0.0
210
0.0
220
0.0
230
1.0
  0
LINE
  5
3AF
100
AcDbEntity
  8
0
370
    35
390
0
 62
     7
 48
0.007527
100
AcDbLine
 10
-10.39447
 20
387.751953
 30
0.0
 11
-10.14447
 21
387.919739
 31
0.0
210
0.0
220
0.0
230
1.0
  0
LINE
  5
3B0
100
AcDbEntity
  8
0
370
    35
390
0
 62
     7
 48
0.006307
100
AcDbLine
 10
-10.39447
 20
388.206299
 30
0.0
 11
-10.14447
 21
388.172546
 31
0.0
210
0.0
220
0.0
230
1.0
  0
LINE
  5
3B1
100
AcDbEntity
  8
0
370
    35
390
0
 62
     7
 48
0.23125
100
AcDbLine
 10
-10.14447
 20
388.172546
 30
0.0
 11
-0.89447
 21
388.172546
 31
0.0
210
0.0
220
0.0
230
1.0
  0
LINE
  5
3B2
100
AcDbEntity
  8
0
370
    35
390
0
 62
     7
 48
0.24375
100
AcDbLine
 10
-10.39447
 20
388.206299
 30
0.0
 11
-0.64447
 21
388.206299
 31
0.0
210
0.0
220
0.0
230
1.0
  0
LINE
  5
3B3
100
AcDbEntity
  8
0
370
    35
390
0
 62
     7
 48
0.007854
100
AcDbLine
 10
-10.39447
 20
387.9823
 30
0.0
 11
-10.14447
 21
388.172546
 31
0.0
210
0.0
220
0.0
230
1.0
  0
LINE
  5
3B4
100
AcDbEntity
  8
0
370
    35
390
0
 62
     7
 48
0.006251
100
AcDbLine
 10
-10.39447
 20
388.421448
 30
0.0
 11
-10.14447
 21
388.416809
 31
0.0
210
0.0
220
0.0
230
1.0
  0
LINE
  5
3B5
100
AcDbEntity
  8
0
370
    35
390
0
 62
     7
 48
0.23125
100
AcDbLine
 10
-10.14447
 20
388.416809
 30
0.0
 11
-0.89447
 21
388.416809
 31
0.0
210
0.0
220
0.0
230
1.0
  0
LINE
  5
3B6
100
AcDbEntity
  8
0
370
    35
390
0
 62
     7
 48
0.24375
100
AcDbLine
 10
-10.39447
 20
388.421448
 30
0.0
 11
-0.64447
 21
388.421448
 31
0.0
210
0.0
220
0.0
230
1.0
  0
LINE
  5
3B7
100
AcDbEntity
  8
0
370
    35
390
0
 62
     7
 48
0.008171
100
AcDbLine
 10
-10.39447
 20
388.206299
 30
0.0
 11
-10.14447
 21
388.416809
 31
0.0
210
0.0
220
0.0
230
1.0
  0
LINE
  5
3B8
100
AcDbEntity
  8
0
370
    35
390
0
 62
     7
 48
0.00628
100
AcDbLine
 10
-10.39447
 20
388.625427
 30
0.0
 11
-10.14447
 21
388.650024
 31
0.0
210
0.0
220
0.0
230
1.0
  0
LINE
  5
3B9
100
AcDbEntity
  8
0
370
    35
390
0
 62
     7
 48
0.23125
100
AcDbLine
 10
-10.14447
 20
388.650024
 30
0.0
 11
-0.89447
 21
388.650024
 31
0.0
210
0.0
220
0.0
230
1.0
  0
LINE
  5
3BA
100
AcDbEntity
  8
0
370
    35
390
0
 62
     7
 48
0.008469
100
AcDbLine
 10
-10.39447
 20
388.421448
 30
0.0
 11
-10.14447
 21
388.650024
 31
0.0
210
0.0
220
0.0
230
1.0
  0
LINE
  5
3BB
100
AcDbEntity
  8
0
370
    35
390
0
 62
     7
 48
0.006392
100
AcDbLine
 10
-0.64447
 20
388.815918
 30
0.0
 11
-0.89447
 21
388.869446
 31
0.0
210
0.0
220
0.0
230
1.0
  0
LINE
  5
3BC
100
AcDbEntity
  8
0
370
    35
390
0
 62
     7
 48
0.008734
100
AcDbLine
 10
-0.64447
 20
388.625427
 30
0.0
 11
-0.89447
 21
388.869446
 31
0.0
210
0.0
220
0.0
230
1.0
  0
LINE
  5
3BD
100
AcDbEntity
  8
0
370
    35
390
0
 62
     7
 48
0.006576
100
AcDbLine
 10
-0.64447
 20
388.990967
 30
0.0
 11
-0.89447
 21
389.072815
 31
0.0
210
0.0
220
0.0
230
1.0
  0
LINE
  5
3BE
100
AcDbEntity
  8
0
370
    35
390
0
 62
     7
 48
0.008962
100
AcDbLine
 10
-0.64447
 20
388.815918
 30
0.0
 11
-0.89447
 21
389.072815
 31
0.0
210
0.0
220
0.0
230
1.0
  0
LINE
  5
3BF
100
AcDbEntity
  8
0
370
    35
390
0
 62
     7
 48
0.006821
100
AcDbLine
 10
-0.64447
 20
389.14856
 30
0.0
 11
-0.89447
 21
389.257813
 31
0.0
210
0.0
220
0.0
230
1.0
  0
LINE
  5
3C0
100
AcDbEntity
  8
0
370
    35
390
0
 62
     7
 48
0.009141
100
AcDbLine
 10
-0.64447
 20
388.990967
 30
0.0
 11
-0.89447
 21
389.257813
 31
0.0
210
0.0
220
0.0
230
1.0
  0
LINE
  5
3C1
100
AcDbEntity
  8
0
370
    35
390
0
 62
     7
 48
0.00711
100
AcDbLine
 10
-0.64447
 20
389.286987
 30
0.0
 11
-0.89447
 21
389.422546
 31
0.0
210
0.0
220
0.0
230
1.0
  0
LINE
  5
3C2
100
AcDbEntity
  8
0
370
    35
390
0
 62
     7
 48
0.009273
100
AcDbLine
 10
-0.64447
 20
389.14856
 30
0.0
 11
-0.89447
 21
389.422546
 31
0.0
210
0.0
220
0.0
230
1.0
  0
LINE
  5
3C3
100
AcDbEntity
  8
0
370
    35
390
0
 62
     7
 48
0.007424
100
AcDbLine
 10
-0.64447
 20
389.404785
 30
0.0
 11
-0.89447
 21
389.565063
 31
0.0
210
0.0
220
0.0
230
1.0
  0
LINE
  5
3C4
100
AcDbEntity
  8
0
370
    35
390
0
 62
     7
 48
0.009348
100
AcDbLine
 10
-0.64447
 20
389.286987
 30
0.0
 11
-0.89447
 21
389.565063
 31
0.0
210
0.0
220
0.0
230
1.0
  0
LINE
  5
3C5
100
AcDbEntity
  8
0
370
    35
390
0
 62
     7
 48
0.00775
100
AcDbLine
 10
-0.64447
 20
389.500549
 30
0.0
 11
-0.89447
 21
389.683838
 31
0.0
210
0.0
220
0.0
230
1.0
  0
LINE
  5
3C6
100
AcDbEntity
  8
0
370
    35
390
0
 62
     7
 48
0.009367
100
AcDbLine
 10
-0.64447
 20
389.404785
 30
0.0
 11
-0.89447
 21
389.683838
 31
0.0
210
0.0
220
0.0
230
1.0
  0
LINE
  5
3C7
100
AcDbEntity
  8
0
370
    35
390
0
 62
     7
 48
0.008071
100
AcDbLine
 10
-0.64447
 20
389.573303
 30
0.0
 11
-0.89447
 21
389.777588
 31
0.0
210
0.0
220
0.0
230
1.0
  0
LINE
  5
3C8
100
AcDbEntity
  8
0
370
    35
390
0
 62
     7
 48
0.009329
100
AcDbLine
 10
-0.64447
 20
389.500549
 30
0.0
 11
-0.89447
 21
389.777588
 31
0.0
210
0.0
220
0.0
230
1.0
  0
LINE
  5
3C9
100
AcDbEntity
  8
0
370
    35
390
0
 62
     7
 48
0.008376
100
AcDbLine
 10
-0.64447
 20
389.622314
 30
0.0
 11
-0.89447
 21
389.845337
 31
0.0
210
0.0
220
0.0
230
1.0
  0
LINE
  5
3CA
100
AcDbEntity
  8
0
370
    35
390
0
 62
     7
 48
0.009237
100
AcDbLine
 10
-0.64447
 20
389.573303
 30
0.0
 11
-0.89447
 21
389.845337
 31
0.0
210
0.0
220
0.0
230
1.0
  0
LINE
  5
3CB
100
AcDbEntity
  8
0
370
    35
390
0
 62
     7
 48
0.008653
100
AcDbLine
 10
-0.64447
 20
389.646912
 30
0.0
 11
-0.89447
 21
389.886292
 31
0.0
210
0.0
220
0.0
230
1.0
  0
LINE
  5
3CC
100
AcDbEntity
  8
0
370
    35
390
0
 62
     7
 48
0.009089
100
AcDbLine
 10
-0.64447
 20
389.622314
 30
0.0
 11
-0.89447
 21
389.886292
 31
0.0
210
0.0
220
0.0
230
1.0
  0
LINE
  5
3CD
100
AcDbEntity
  8
0
370
    35
390
0
 62
     7
 48
0.008894
100
AcDbLine
 10
-0.64447
 20
389.646912
 30
0.0
 11
-0.89447
 21
389.900024
 31
0.0
210
0.0
220
0.0
230
1.0
  0
LINE
  5
3CE
100
AcDbEntity
  8
0
370
    35
390
0
 62
     7
 48
0.00612
100
AcDbLine
 10
-10.64447
 20
385.644836
 30
0.0
 11
-10.64447
 21
385.400024
 31
0.0
210
0.0
220
0.0
230
1.0
  0
LINE
  5
3CF
100
AcDbEntity
  8
0
370
    35
390
0
 62
     7
 48
0.008734
100
AcDbLine
 10
-10.39447
 20
388.625427
 30
0.0
 11
-10.14447
 21
388.869446
 31
0.0
210
0.0
220
0.0
230
1.0
  0
LINE
  5
3D0
100
AcDbEntity
  8
0
370
    35
390
0
 62
     7
 48
0.006392
100
AcDbLine
 10
-10.39447
 20
388.815918
 30
0.0
 11
-10.14447
 21
388.869446
 31
0.0
210
0.0
220
0.0
230
1.0
  0
LINE
  5
3D1
100
AcDbEntity
  8
0
370
    35
390
0
 62
     7
 48
0.008962
100
AcDbLine
 10
-10.39447
 20
388.815918
 30
0.0
 11
-10.14447
 21
389.072815
 31
0.0
210
0.0
220
0.0
230
1.0
  0
LINE
  5
3D2
100
AcDbEntity
  8
0
370
    35
390
0
 62
     7
 48
0.006576
100
AcDbLine
 10
-10.39447
 20
388.990967
 30
0.0
 11
-10.14447
 21
389.072815
 31
0.0
210
0.0
220
0.0
230
1.0
  0
LINE
  5
3D3
100
AcDbEntity
  8
0
370
    35
390
0
 62
     7
 48
0.009141
100
AcDbLine
 10
-10.39447
 20
388.990967
 30
0.0
 11
-10.14447
 21
389.257813
 31
0.0
210
0.0
220
0.0
230
1.0
  0
LINE
  5
3D4
100
AcDbEntity
  8
0
370
    35
390
0
 62
     7
 48
0.006821
100
AcDbLine
 10
-10.39447
 20
389.14856
 30
0.0
 11
-10.14447
 21
389.257813
 31
0.0
210
0.0
220
0.0
230
1.0
  0
LINE
  5
3D5
100
AcDbEntity
  8
0
370
    35
390
0
 62
     7
 48
0.009273
100
AcDbLine
 10
-10.39447
 20
389.14856
 30
0.0
 11
-10.14447
 21
389.422546
 31
0.0
210
0.0
220
0.0
230
1.0
  0
LINE
  5
3D6
100
AcDbEntity
  8
0
370
    35
390
0
 62
     7
 48
0.00711
100
AcDbLine
 10
-10.39447
 20
389.286987
 30
0.0
 11
-10.14447
 21
389.422546
 31
0.0
210
0.0
220
0.0
230
1.0
  0
LINE
  5
3D7
100
AcDbEntity
  8
0
370
    35
390
0
 62
     7
 48
0.009348
100
AcDbLine
 10
-10.39447
 20
389.286987
 30
0.0
 11
-10.14447
 21
389.565063
 31
0.0
210
0.0
220
0.0
230
1.0
  0
LINE
  5
3D8
100
AcDbEntity
  8
0
370
    35
390
0
 62
     7
 48
0.007424
100
AcDbLine
 10
-10.39447
 20
389.404785
 30
0.0
 11
-10.14447
 21
389.565063
 31
0.0
210
0.0
220
0.0
230
1.0
  0
LINE
  5
3D9
100
AcDbEntity
  8
0
370
    35
390
0
 62
     7
 48
0.009367
100
AcDbLine
 10
-10.39447
 20
389.404785
 30
0.0
 11
-10.14447
 21
389.683838
 31
0.0
210
0.0
220
0.0
230
1.0
  0
LINE
  5
3DA
100
AcDbEntity
  8
0
370
    35
390
0
 62
     7
 48
0.00775
100
AcDbLine
 10
-10.39447
 20
389.500549
 30
0.0
 11
-10.14447
 21
389.683838
 31
0.0
210
0.0
220
0.0
230
1.0
  0
LINE
  5
3DB
100
AcDbEntity
  8
0
370
    35
390
0
 62
     7
 48
0.009329
100
AcDbLine
 10
-10.39447
 20
389.500549
 30
0.0
 11
-10.14447
 21
389.777588
 31
0.0
210
0.0
220
0.0
230
1.0
  0
LINE
  5
3DC
100
AcDbEntity
  8
0
370
    35
390
0
 62
     7
 48
0.008071
100
AcDbLine
 10
-10.39447
 20
389.573303
 30
0.0
 11
-10.14447
 21
389.777588
 31
0.0
210
0.0
220
0.0
230
1.0
  0
LINE
  5
3DD
100
AcDbEntity
  8
0
370
    35
390
0
 62
     7
 48
0.009237
100
AcDbLine
 10
-10.39447
 20
389.573303
 30
0.0
 11
-10.14447
 21
389.845337
 31
0.0
210
0.0
220
0.0
230
1.0
  0
LINE
  5
3DE
100
AcDbEntity
  8
0
370
    35
390
0
 62
     7
 48
0.008376
100
AcDbLine
 10
-10.39447
 20
389.622314
 30
0.0
 11
-10.14447
 21
389.845337
 31
0.0
210
0.0
220
0.0
230
1.0
  0
LINE
  5
3DF
100
AcDbEntity
  8
0
370
    35
390
0
 62
     7
 48
0.009089
100
AcDbLine
 10
-10.39447
 20
389.622314
 30
0.0
 11
-10.14447
 21
389.886292
 31
0.0
210
0.0
220
0.0
230
1.0
  0
LINE
  5
3E0
100
AcDbEntity
  8
0
370
    35
390
0
 62
     7
 48
0.008653
100
AcDbLine
 10
-10.39447
 20
389.646912
 30
0.0
 11
-10.14447
 21
389.886292
 31
0.0
210
0.0
220
0.0
230
1.0
  0
LINE
  5
3E1
100
AcDbEntity
  8
0
370
    35
390
0
 62
     7
 48
0.008894
100
AcDbLine
 10
-10.39447
 20
389.646912
 30
0.0
 11
-10.14447
 21
389.900024
 31
0.0
210
0.0
220
0.0
230
1.0
  0
LINE
  5
3E2
100
AcDbEntity
  8
0
370
    35
390
0
 62
     7
 48
0.09388
100
AcDbLine
 10
-10.64447
 20
389.400024
 30
0.0
 11
-10.64447
 21
385.644836
 31
0.0
210
0.0
220
0.0
230
1.0
  0
LINE
  5
3E3
100
AcDbEntity
  8
0
370
    35
390
0
 62
     7
 48
0.23125
100
AcDbLine
 10
-10.14447
 20
388.869446
 30
0.0
 11
-0.89447
 21
388.869446
 31
0.0
210
0.0
220
0.0
230
1.0
  0
LINE
  5
3E4
100
AcDbEntity
  8
0
370
    35
390
0
 62
     7
 48
0.23125
100
AcDbLine
 10
-10.14447
 20
389.072815
 30
0.0
 11
-0.89447
 21
389.072815
 31
0.0
210
0.0
220
0.0
230
1.0
  0
LINE
  5
3E5
100
AcDbEntity
  8
0
370
    35
390
0
 62
     7
 48
0.23125
100
AcDbLine
 10
-10.14447
 20
389.257813
 30
0.0
 11
-0.89447
 21
389.257813
 31
0.0
210
0.0
220
0.0
230
1.0
  0
LINE
  5
3E6
100
AcDbEntity
  8
0
370
    35
390
0
 62
     7
 48
0.23125
100
AcDbLine
 10
-10.14447
 20
389.422546
 30
0.0
 11
-0.89447
 21
389.422546
 31
0.0
210
0.0
220
0.0
230
1.0
  0
LINE
  5
3E7
100
AcDbEntity
  8
0
370
    35
390
0
 62
     7
 48
0.23125
100
AcDbLine
 10
-10.14447
 20
389.565063
 30
0.0
 11
-0.89447
 21
389.565063
 31
0.0
210
0.0
220
0.0
230
1.0
  0
LINE
  5
3E8
100
AcDbEntity
  8
0
370
    35
390
0
 62
     7
 48
0.23125
100
AcDbLine
 10
-10.14447
 20
389.683838
 30
0.0
 11
-0.89447
 21
389.683838
 31
0.0
210
0.0
220
0.0
230
1.0
  0
LINE
  5
3E9
100
AcDbEntity
  8
0
370
    35
390
0
 62
     7
 48
0.23125
100
AcDbLine
 10
-10.14447
 20
389.777588
 30
0.0
 11
-0.89447
 21
389.777588
 31
0.0
210
0.0
220
0.0
230
1.0
  0
LINE
  5
3EA
100
AcDbEntity
  8
0
370
    35
390
0
 62
     7
 48
0.23125
100
AcDbLine
 10
-10.14447
 20
389.845337
 30
0.0
 11
-0.89447
 21
389.845337
 31
0.0
210
0.0
220
0.0
230
1.0
  0
LINE
  5
3EB
100
AcDbEntity
  8
0
370
    35
390
0
 62
     7
 48
0.23125
100
AcDbLine
 10
-10.14447
 20
389.886292
 30
0.0
 11
-0.89447
 21
389.886292
 31
0.0
210
0.0
220
0.0
230
1.0
  0
LINE
  5
3EC
100
AcDbEntity
  8
0
370
    35
390
0
 62
     7
 48
0.23125
100
AcDbLine
 10
-10.14447
 20
389.900024
 30
0.0
 11
-0.89447
 21
389.900024
 31
0.0
210
0.0
220
0.0
230
1.0
  0
LINE
  5
3ED
100
AcDbEntity
  8
0
370
    35
390
0
 62
     7
100
AcDbLine
 10
25.35553
 20
406.25
 30
0.0
 11
-0.64447
 21
406.25
 31
0.0
210
0.0
220
0.0
230
1.0
  0
LINE
  5
3EE
100
AcDbEntity
  8
0
370
    35
390
0
 62
     7
100
AcDbLine
 10
25.35553
 20
401.75
 30
0.0
 11
-0.64447
 21
401.75
 31
0.0
210
0.0
220
0.0
230
1.0
  0
LINE
  5
3EF
100
AcDbEntity
  8
0
370
    35
390
0
 62
     7
 48
0.061391
100
AcDbLine
 10
126.355545
 20
389.650024
 30
0.0
 11
128.811172
 21
389.650024
 31
0.0
210
0.0
220
0.0
230
1.0
  0
LINE
  5
3F0
100
AcDbEntity
  8
0
370
    35
390
0
 62
     7
 48
0.012527
100
AcDbLine
 10
128.310104
 20
385.150024
 30
0.0
 11
128.811172
 21
385.150024
 31
0.0
210
0.0
220
0.0
230
1.0
  0
LINE
  5
3F1
100
AcDbEntity
  8
0
370
    35
390
0
 62
     7
 48
0.008839
100
AcDbLine
 10
-0.64447
 20
406.25
 30
0.0
 11
-0.89447
 21
406.5
 31
0.0
210
0.0
220
0.0
230
1.0
  0
LINE
  5
3F2
100
AcDbEntity
  8
0
370
    35
390
0
 62
     7
 48
0.008839
100
AcDbLine
 10
-0.64447
 20
401.75
 30
0.0
 11
-0.89447
 21
401.5
 31
0.0
210
0.0
220
0.0
230
1.0
  0
LINE
  5
3F3
100
AcDbEntity
  8
0
370
    35
390
0
 62
     7
 48
0.007217
100
AcDbLine
 10
128.955551
 20
389.400024
 30
0.0
 11
128.811172
 21
389.650024
 31
0.0
210
0.0
220
0.0
230
1.0
  0
LINE
  5
3F4
100
AcDbEntity
  8
0
370
    35
390
0
 62
     7
 48
0.007217
100
AcDbLine
 10
128.955551
 20
385.400024
 30
0.0
 11
128.811172
 21
385.150024
 31
0.0
210
0.0
220
0.0
230
1.0
  0
LINE
  5
3F5
100
AcDbEntity
  8
0
370
    35
390
0
 62
     7
 48
0.044194
100
AcDbLine
 10
3.35553
 20
390.450012
 30
0.0
 11
4.60553
 21
389.200012
 31
0.0
210
0.0
220
0.0
230
1.0
  0
LINE
  5
3F6
100
AcDbEntity
  8
0
370
    35
390
0
 62
     7
 48
0.028283
100
AcDbLine
 10
3.35553
 20
400.950012
 30
0.0
 11
4.155518
 21
401.749939
 31
0.0
210
0.0
220
0.0
230
1.0
  0
LINE
  5
3F7
100
AcDbEntity
  8
0
370
    35
390
0
 62
     7
 48
0.017672
100
AcDbLine
 10
-10.64447
 20
406.0
 30
0.0
 11
-10.144623
 21
406.499817
 31
0.0
210
0.0
220
0.0
230
1.0
  0
LINE
  5
3F8
100
AcDbEntity
  8
0
370
    35
390
0
 62
     7
 48
0.017672
100
AcDbLine
 10
-10.64447
 20
402.0
 30
0.0
 11
-10.144623
 21
401.500183
 31
0.0
210
0.0
220
0.0
230
1.0
  0
LINE
  5
3F9
100
AcDbEntity
  8
0
370
    35
390
0
 62
     7
 48
0.01
100
AcDbLine
 10
3.35553
 20
400.700012
 30
0.0
 11
2.955521
 21
400.700012
 31
0.0
210
0.0
220
0.0
230
1.0
  0
LINE
  5
3FA
100
AcDbEntity
  8
0
370
    35
390
0
 62
     7
 48
0.01
100
AcDbLine
 10
3.35553
 20
390.700012
 30
0.0
 11
2.955521
 21
390.700012
 31
0.0
210
0.0
220
0.0
230
1.0
  0
LINE
  5
3FB
100
AcDbEntity
  8
0
370
    35
390
0
 62
     7
 48
0.023094
100
AcDbLine
 10
2.155533
 20
400.238098
 30
0.0
 11
2.955521
 21
400.700012
 31
0.0
210
0.0
220
0.0
230
1.0
  0
LINE
  5
3FC
100
AcDbEntity
  8
0
370
    35
390
0
 62
     7
 48
0.023093
100
AcDbLine
 10
2.155533
 20
391.161865
 30
0.0
 11
2.955521
 21
390.700012
 31
0.0
210
0.0
220
0.0
230
1.0
  0
LINE
  5
3FD
100
AcDbEntity
  8
0
370
    35
390
0
 62
     7
100
AcDbLine
 10
2.155533
 20
399.700012
 30
0.0
 11
-55.844467
 21
399.700012
 31
0.0
210
0.0
220
0.0
230
1.0
  0
LINE
  5
3FE
100
AcDbEntity
  8
0
370
    35
390
0
 62
     7
100
AcDbLine
 10
2.155533
 20
391.700012
 30
0.0
 11
-55.844467
 21
391.700012
 31
0.0
210
0.0
220
0.0
230
1.0
  0
LINE
  5
3FF
100
AcDbEntity
  8
0
370
    35
390
0
 62
     7
100
AcDbLine
 10
19.605499
 20
385.150024
 30
0.0
 11
-0.64447
 21
385.150024
 31
0.0
210
0.0
220
0.0
230
1.0
  0
LINE
  5
400
100
AcDbEntity
  8
0
370
    35
390
0
 62
     7
 48
0.12
100
AcDbLine
 10
4.155518
 20
389.650024
 30
0.0
 11
-0.64447
 21
389.650024
 31
0.0
210
0.0
220
0.0
230
1.0
  0
LINE
  5
401
100
AcDbEntity
  8
0
370
    35
390
0
 62
     7
 48
0.008839
100
AcDbLine
 10
-0.64447
 20
389.650024
 30
0.0
 11
-0.89447
 21
389.900024
 31
0.0
210
0.0
220
0.0
230
1.0
  0
LINE
  5
402
100
AcDbEntity
  8
0
370
    35
390
0
 62
     7
 48
0.017673
100
AcDbLine
 10
-10.64447
 20
385.400024
 30
0.0
 11
-10.144623
 21
384.900146
 31
0.0
210
0.0
220
0.0
230
1.0
  0
LINE
  5
403
100
AcDbEntity
  8
0
370
    35
390
0
 62
     7
 48
0.017672
100
AcDbLine
 10
-10.64447
 20
389.400024
 30
0.0
 11
-10.144623
 21
389.899841
 31
0.0
210
0.0
220
0.0
230
1.0
  0
LINE
  5
404
100
AcDbEntity
  8
0
370
    35
390
0
 62
     7
 48
0.325
100
AcDbLine
 10
-84.155472
 20
437.900024
 30
0.0
 11
-84.155472
 21
424.900024
 31
0.0
210
0.0
220
0.0
230
1.0
  0
LINE
  5
405
100
AcDbEntity
  8
0
370
    35
390
0
 62
     7
 48
0.005
100
AcDbLine
 10
-83.955475
 20
437.900024
 30
0.0
 11
-84.155472
 21
437.900024
 31
0.0
210
0.0
220
0.0
230
1.0
  0
LINE
  5
406
100
AcDbEntity
  8
0
370
    35
390
0
 62
     7
 48
0.005
100
AcDbLine
 10
-83.955475
 20
424.900024
 30
0.0
 11
-84.155472
 21
424.900024
 31
0.0
210
0.0
220
0.0
230
1.0
  0
LINE
  5
407
100
AcDbEntity
  8
0
370
    35
390
0
 62
     7
 48
0.464999
100
AcDbLine
 10
-83.955475
 20
437.900024
 30
0.0
 11
-83.955475
 21
456.5
 31
0.0
210
0.0
220
0.0
230
1.0
  0
LINE
  5
408
100
AcDbEntity
  8
0
370
    35
390
0
 62
     7
 48
0.0025
100
AcDbLine
 10
-83.855469
 20
456.5
 30
0.0
 11
-83.955475
 21
456.5
 31
0.0
210
0.0
220
0.0
230
1.0
  0
LINE
  5
409
100
AcDbEntity
  8
0
370
    35
390
0
 62
     7
 48
0.0625
100
AcDbLine
 10
-83.855469
 20
459.0
 30
0.0
 11
-83.855469
 21
456.5
 31
0.0
210
0.0
220
0.0
230
1.0
  0
ARC
  5
40A
100
AcDbEntity
  8
0
370
    35
390
0
 62
     7
100
AcDbCircle
 10
-84.355469
 20
459.0
 30
0.0
 40
0.5
210
0.0
220
0.0
230
1.0
100
AcDbArc
 50
0.0
 51
90.000003
  0
LINE
  5
40B
100
AcDbEntity
  8
0
370
    35
390
0
 62
     7
 48
0.075
100
AcDbLine
 10
-84.355469
 20
459.5
 30
0.0
 11
-87.355469
 21
459.5
 31
0.0
210
0.0
220
0.0
230
1.0
  0
ARC
  5
40C
100
AcDbEntity
  8
0
370
    35
390
0
 62
     7
100
AcDbCircle
 10
-87.355469
 20
459.0
 30
0.0
 40
0.5
210
0.0
220
0.0
230
1.0
100
AcDbArc
 50
90.000003
 51
179.999991
  0
ARC
  5
40D
100
AcDbEntity
  8
0
370
    35
390
0
 62
     7
100
AcDbCircle
 10
-91.855469
 20
411.5
 30
0.0
 40
0.5
210
0.0
220
0.0
230
1.0
100
AcDbArc
 50
179.999991
 51
269.999997
  0
LINE
  5
40E
100
AcDbEntity
  8
0
370
    35
390
0
 62
     7
 48
0.0625
100
AcDbLine
 10
-89.355469
 20
411.0
 30
0.0
 11
-91.855469
 21
411.0
 31
0.0
210
0.0
220
0.0
230
1.0
  0
ARC
  5
40F
100
AcDbEntity
  8
0
370
    35
390
0
 62
     7
100
AcDbCircle
 10
-89.355469
 20
411.5
 30
0.0
 40
0.5
210
0.0
220
0.0
230
1.0
100
AcDbArc
 50
269.999997
 51
360.0
  0
LINE
  5
410
100
AcDbEntity
  8
0
370
    35
390
0
 62
     7
 48
0.125
100
AcDbLine
 10
-88.855469
 20
416.5
 30
0.0
 11
-88.855469
 21
411.5
 31
0.0
210
0.0
220
0.0
230
1.0
  0
ARC
  5
411
100
AcDbEntity
  8
0
370
    35
390
0
 62
     7
100
AcDbCircle
 10
-88.355469
 20
416.5
 30
0.0
 40
0.5
210
0.0
220
0.0
230
1.0
100
AcDbArc
 50
90.000003
 51
179.999991
  0
LINE
  5
412
100
AcDbEntity
  8
0
370
    35
390
0
 62
     7
 48
0.1
100
AcDbLine
 10
-84.355469
 20
417.0
 30
0.0
 11
-88.355469
 21
417.0
 31
0.0
210
0.0
220
0.0
230
1.0
  0
ARC
  5
413
100
AcDbEntity
  8
0
370
    35
390
0
 62
     7
100
AcDbCircle
 10
-84.355469
 20
417.5
 30
0.0
 40
0.5
210
0.0
220
0.0
230
1.0
100
AcDbArc
 50
269.999997
 51
360.0
  0
LINE
  5
414
100
AcDbEntity
  8
0
370
    35
390
0
 62
     7
 48
0.08
100
AcDbLine
 10
-83.855469
 20
420.700012
 30
0.0
 11
-83.855469
 21
417.5
 31
0.0
210
0.0
220
0.0
230
1.0
  0
LINE
  5
415
100
AcDbEntity
  8
0
370
    35
390
0
 62
     7
 48
0.0025
100
AcDbLine
 10
-83.955475
 20
420.700012
 30
0.0
 11
-83.855469
 21
420.700012
 31
0.0
210
0.0
220
0.0
230
1.0
  0
LINE
  5
416
100
AcDbEntity
  8
0
370
    35
390
0
 62
     7
 48
0.105
100
AcDbLine
 10
-83.955475
 20
420.700012
 30
0.0
 11
-83.955475
 21
424.900024
 31
0.0
210
0.0
220
0.0
230
1.0
  0
LINE
  5
417
100
AcDbEntity
  8
0
370
    35
390
0
 62
     7
 48
0.445
100
AcDbLine
 10
-84.855469
 20
459.0
 30
0.0
 11
-102.655472
 21
459.0
 31
0.0
210
0.0
220
0.0
230
1.0
  0
ARC
  5
418
100
AcDbEntity
  8
0
370
    35
390
0
 62
     7
100
AcDbCircle
 10
-84.855469
 20
458.5
 30
0.0
 40
0.5
210
0.0
220
0.0
230
1.0
100
AcDbArc
 50
0.0
 51
90.000003
  0
LINE
  5
419
100
AcDbEntity
  8
0
370
    35
390
0
 62
     7
100
AcDbLine
 10
-84.355469
 20
458.5
 30
0.0
 11
-84.355469
 21
418.0
 31
0.0
210
0.0
220
0.0
230
1.0
  0
ARC
  5
41A
100
AcDbEntity
  8
0
370
    35
390
0
 62
     7
100
AcDbCircle
 10
-84.855469
 20
418.0
 30
0.0
 40
0.5
210
0.0
220
0.0
230
1.0
100
AcDbArc
 50
269.999997
 51
360.0
  0
LINE
  5
41B
100
AcDbEntity
  8
0
370
    35
390
0
 62
     7
 48
0.0875
100
AcDbLine
 10
-88.355469
 20
417.5
 30
0.0
 11
-84.855469
 21
417.5
 31
0.0
210
0.0
220
0.0
230
1.0
  0
ARC
  5
41C
100
AcDbEntity
  8
0
370
    35
390
0
 62
     7
100
AcDbCircle
 10
-88.355469
 20
416.5
 30
0.0
 40
1.0
210
0.0
220
0.0
230
1.0
100
AcDbArc
 50
90.000003
 51
179.999991
  0
LINE
  5
41D
100
AcDbEntity
  8
0
370
    35
390
0
 62
     7
 48
0.1125
100
AcDbLine
 10
-89.355469
 20
416.5
 30
0.0
 11
-89.355469
 21
412.0
 31
0.0
210
0.0
220
0.0
230
1.0
  0
ARC
  5
41E
100
AcDbEntity
  8
0
370
    35
390
0
 62
     7
100
AcDbCircle
 10
-89.855469
 20
412.0
 30
0.0
 40
0.5
210
0.0
220
0.0
230
1.0
100
AcDbArc
 50
269.999997
 51
360.0
  0
LINE
  5
41F
100
AcDbEntity
  8
0
370
    35
390
0
 62
     7
 48
0.425
100
AcDbLine
 10
-106.855469
 20
411.5
 30
0.0
 11
-89.855469
 21
411.5
 31
0.0
210
0.0
220
0.0
230
1.0
  0
LINE
  5
420
100
AcDbEntity
  8
0
370
    35
390
0
 62
     7
 48
0.005
100
AcDbLine
 10
-88.355469
 20
459.200012
 30
0.0
 11
-88.355469
 21
459.0
 31
0.0
210
0.0
220
0.0
230
1.0
  0
ARC
  5
421
100
AcDbEntity
  8
0
370
    35
390
0
 62
     7
100
AcDbCircle
 10
-88.655472
 20
459.200012
 30
0.0
 40
0.3
210
0.0
220
0.0
230
1.0
100
AcDbArc
 50
0.0
 51
90.000003
  0
LINE
  5
422
100
AcDbEntity
  8
0
370
    35
390
0
 62
     7
 48
0.3675
100
AcDbLine
 10
-88.655472
 20
459.5
 30
0.0
 11
-103.355469
 21
459.5
 31
0.0
210
0.0
220
0.0
230
1.0
  0
ARC
  5
423
100
AcDbEntity
  8
0
370
    35
390
0
 62
     7
100
AcDbCircle
 10
-103.355469
 20
459.200012
 30
0.0
 40
0.3
210
0.0
220
0.0
230
1.0
100
AcDbArc
 50
90.000003
 51
179.999991
  0
LINE
  5
424
100
AcDbEntity
  8
0
370
    35
390
0
 62
     7
 48
0.08
100
AcDbLine
 10
-103.655472
 20
459.200012
 30
0.0
 11
-103.655472
 21
456.0
 31
0.0
210
0.0
220
0.0
230
1.0
  0
LINE
  5
425
100
AcDbEntity
  8
0
370
    35
390
0
 62
     7
 48
0.1425
100
AcDbLine
 10
-103.655472
 20
456.0
 30
0.0
 11
-109.355469
 21
456.0
 31
0.0
210
0.0
220
0.0
230
1.0
  0
LINE
  5
426
100
AcDbEntity
  8
0
370
    35
390
0
 62
     7
 48
0.028284
100
AcDbLine
 10
-109.355469
 20
456.0
 30
0.0
 11
-110.155472
 21
455.200012
 31
0.0
210
0.0
220
0.0
230
1.0
  0
ARC
  5
427
100
AcDbEntity
  8
0
370
    35
390
0
 62
     7
100
AcDbCircle
 10
-102.655472
 20
458.5
 30
0.0
 40
0.5
210
0.0
220
0.0
230
1.0
100
AcDbArc
 50
90.000003
 51
179.999991
  0
LINE
  5
428
100
AcDbEntity
  8
0
370
    35
390
0
 62
     7
 48
0.07
100
AcDbLine
 10
-103.155472
 20
458.5
 30
0.0
 11
-103.155472
 21
455.700012
 31
0.0
210
0.0
220
0.0
230
1.0
  0
ARC
  5
429
100
AcDbEntity
  8
0
370
    35
390
0
 62
     7
100
AcDbCircle
 10
-103.655472
 20
455.700012
 30
0.0
 40
0.5
210
0.0
220
0.0
230
1.0
100
AcDbArc
 50
269.999997
 51
360.0
  0
LINE
  5
42A
100
AcDbEntity
  8
0
370
    35
390
0
 62
     7
 48
0.205
100
AcDbLine
 10
-103.655472
 20
455.200012
 30
0.0
 11
-111.855469
 21
455.200012
 31
0.0
210
0.0
220
0.0
230
1.0
  0
ARC
  5
42B
100
AcDbEntity
  8
0
370
    35
390
0
 62
     7
100
AcDbCircle
 10
-111.855469
 20
454.700012
 30
0.0
 40
0.5
210
0.0
220
0.0
230
1.0
100
AcDbArc
 50
90.000003
 51
179.999991
  0
LINE
  5
42C
100
AcDbEntity
  8
0
370
    35
390
0
 62
     7
100
AcDbLine
 10
-112.355469
 20
418.0
 30
0.0
 11
-112.355469
 21
454.700012
 31
0.0
210
0.0
220
0.0
230
1.0
  0
ARC
  5
42D
100
AcDbEntity
  8
0
370
    35
390
0
 62
     7
100
AcDbCircle
 10
-111.855469
 20
418.0
 30
0.0
 40
0.5
210
0.0
220
0.0
230
1.0
100
AcDbArc
 50
179.999991
 51
269.999997
  0
LINE
  5
42E
100
AcDbEntity
  8
0
370
    35
390
0
 62
     7
 48
0.0875
100
AcDbLine
 10
-111.855469
 20
417.5
 30
0.0
 11
-108.355469
 21
417.5
 31
0.0
210
0.0
220
0.0
230
1.0
  0
ARC
  5
42F
100
AcDbEntity
  8
0
370
    35
390
0
 62
     7
100
AcDbCircle
 10
-108.355469
 20
416.5
 30
0.0
 40
1.0
210
0.0
220
0.0
230
1.0
100
AcDbArc
 50
0.0
 51
90.000003
  0
LINE
  5
430
100
AcDbEntity
  8
0
370
    35
390
0
 62
     7
 48
0.1125
100
AcDbLine
 10
-107.355469
 20
412.0
 30
0.0
 11
-107.355469
 21
416.5
 31
0.0
210
0.0
220
0.0
230
1.0
  0
ARC
  5
431
100
AcDbEntity
  8
0
370
    35
390
0
 62
     7
100
AcDbCircle
 10
-106.855469
 20
412.0
 30
0.0
 40
0.5
210
0.0
220
0.0
230
1.0
100
AcDbArc
 50
179.999991
 51
269.999997
  0
CIRCLE
  5
432
100
AcDbEntity
  8
0
370
    35
390
0
 62
     7
100
AcDbCircle
 10
-98.355469
 20
420.5
 30
0.0
 40
2.067
210
0.0
220
0.0
230
1.0
  0
LINE
  5
433
100
AcDbEntity
  8
0
370
    35
390
0
 62
     7
 48
0.0075
100
AcDbLine
 10
-110.355469
 20
455.5
 30
0.0
 11
-110.355469
 21
455.200012
 31
0.0
210
0.0
220
0.0
230
1.0
  0
LINE
  5
434
100
AcDbEntity
  8
0
370
    35
390
0
 62
     7
 48
0.05
100
AcDbLine
 10
-110.355469
 20
455.5
 30
0.0
 11
-112.355469
 21
455.5
 31
0.0
210
0.0
220
0.0
230
1.0
  0
ARC
  5
435
100
AcDbEntity
  8
0
370
    35
390
0
 62
     7
100
AcDbCircle
 10
-112.355469
 20
455.0
 30
0.0
 40
0.5
210
0.0
220
0.0
230
1.0
100
AcDbArc
 50
90.000003
 51
179.999991
  0
LINE
  5
436
100
AcDbEntity
  8
0
370
    35
390
0
 62
     7
100
AcDbLine
 10
-112.855469
 20
455.0
 30
0.0
 11
-112.855469
 21
417.5
 31
0.0
210
0.0
220
0.0
230
1.0
  0
ARC
  5
437
100
AcDbEntity
  8
0
370
    35
390
0
 62
     7
100
AcDbCircle
 10
-112.355469
 20
417.5
 30
0.0
 40
0.5
210
0.0
220
0.0
230
1.0
100
AcDbArc
 50
179.999991
 51
269.999997
  0
LINE
  5
438
100
AcDbEntity
  8
0
370
    35
390
0
 62
     7
 48
0.1
100
AcDbLine
 10
-108.355469
 20
417.0
 30
0.0
 11
-112.355469
 21
417.0
 31
0.0
210
0.0
220
0.0
230
1.0
  0
ARC
  5
439
100
AcDbEntity
  8
0
370
    35
390
0
 62
     7
100
AcDbCircle
 10
-108.355469
 20
416.5
 30
0.0
 40
0.5
210
0.0
220
0.0
230
1.0
100
AcDbArc
 50
0.0
 51
90.000003
  0
LINE
  5
43A
100
AcDbEntity
  8
0
370
    35
390
0
 62
     7
 48
0.125
100
AcDbLine
 10
-107.855469
 20
411.5
 30
0.0
 11
-107.855469
 21
416.5
 31
0.0
210
0.0
220
0.0
230
1.0
  0
ARC
  5
43B
100
AcDbEntity
  8
0
370
    35
390
0
 62
     7
100
AcDbCircle
 10
-107.355469
 20
411.5
 30
0.0
 40
0.5
210
0.0
220
0.0
230
1.0
100
AcDbArc
 50
179.999991
 51
269.999997
  0
LINE
  5
43C
100
AcDbEntity
  8
0
370
    35
390
0
 62
     7
 48
0.0625
100
AcDbLine
 10
-107.355469
 20
411.0
 30
0.0
 11
-104.855469
 21
411.0
 31
0.0
210
0.0
220
0.0
230
1.0
  0
ARC
  5
43D
100
AcDbEntity
  8
0
370
    35
390
0
 62
     7
100
AcDbCircle
 10
-104.855469
 20
411.5
 30
0.0
 40
0.5
210
0.0
220
0.0
230
1.0
100
AcDbArc
 50
269.999997
 51
360.0
  0
LINE
  5
43E
100
AcDbEntity
  8
0
370
    35
390
0
 62
     7
 48
0.0025
100
AcDbLine
 10
-88.855469
 20
411.5
 30
0.0
 11
-88.755478
 21
411.5
 31
0.0
210
0.0
220
0.0
230
1.0
  0
LINE
  5
43F
100
AcDbEntity
  8
0
370
    35
390
0
 62
     7
 48
0.0125
100
AcDbLine
 10
-88.755478
 20
411.5
 30
0.0
 11
-88.755478
 21
412.0
 31
0.0
210
0.0
220
0.0
230
1.0
  0
LINE
  5
440
100
AcDbEntity
  8
0
370
    35
390
0
 62
     7
 48
0.1
100
AcDbLine
 10
-88.755478
 20
416.0
 30
0.0
 11
-88.755478
 21
412.0
 31
0.0
210
0.0
220
0.0
230
1.0
  0
LINE
  5
441
100
AcDbEntity
  8
0
370
    35
390
0
 62
     7
 48
0.0025
100
AcDbLine
 10
-88.855469
 20
416.5
 30
0.0
 11
-88.755478
 21
416.5
 31
0.0
210
0.0
220
0.0
230
1.0
  0
LINE
  5
442
100
AcDbEntity
  8
0
370
    35
390
0
 62
     7
 48
0.0125
100
AcDbLine
 10
-88.755478
 20
416.0
 30
0.0
 11
-88.755478
 21
416.5
 31
0.0
210
0.0
220
0.0
230
1.0
  0
LINE
  5
443
100
AcDbEntity
  8
0
370
    35
390
0
 62
     7
 48
0.003259
100
AcDbLine
 10
-88.655472
 20
412.0
 30
0.0
 11
-88.655472
 21
412.130371
 31
0.0
210
0.0
220
0.0
230
1.0
  0
LINE
  5
444
100
AcDbEntity
  8
0
370
    35
390
0
 62
     7
 48
0.0875
100
AcDbLine
 10
-88.655472
 20
415.630371
 30
0.0
 11
-88.655472
 21
412.130371
 31
0.0
210
0.0
220
0.0
230
1.0
  0
LINE
  5
445
100
AcDbEntity
  8
0
370
    35
390
0
 62
     7
 48
0.0025
100
AcDbLine
 10
-88.755478
 20
415.900024
 30
0.0
 11
-88.655472
 21
415.900024
 31
0.0
210
0.0
220
0.0
230
1.0
  0
LINE
  5
446
100
AcDbEntity
  8
0
370
    35
390
0
 62
     7
 48
0.006741
100
AcDbLine
 10
-88.655472
 20
415.630371
 30
0.0
 11
-88.655472
 21
415.900024
 31
0.0
210
0.0
220
0.0
230
1.0
  0
LINE
  5
447
100
AcDbEntity
  8
0
370
    35
390
0
 62
     7
 48
0.0025
100
AcDbLine
 10
-88.755478
 20
412.0
 30
0.0
 11
-88.655472
 21
412.0
 31
0.0
210
0.0
220
0.0
230
1.0
  0
LINE
  5
448
100
AcDbEntity
  8
0
370
    35
390
0
 62
     7
 48
0.0025
100
AcDbLine
 10
-88.755478
 20
412.0
 30
0.0
 11
-88.655472
 21
412.0
 31
0.0
210
0.0
220
0.0
230
1.0
  0
LINE
  5
449
100
AcDbEntity
  8
0
370
    35
390
0
 62
     7
 48
0.105
100
AcDbLine
 10
-107.155472
 20
409.0
 30
0.0
 11
-102.955475
 21
409.0
 31
0.0
210
0.0
220
0.0
230
1.0
  0
LINE
  5
44A
100
AcDbEntity
  8
0
370
    35
390
0
 62
     7
 48
0.06
100
AcDbLine
 10
-91.355469
 20
409.0
 30
0.0
 11
-93.755478
 21
409.0
 31
0.0
210
0.0
220
0.0
230
1.0
  0
LINE
  5
44B
100
AcDbEntity
  8
0
370
    35
390
0
 62
     7
 48
0.03
100
AcDbLine
 10
-91.355469
 20
409.0
 30
0.0
 11
-90.155472
 21
409.0
 31
0.0
210
0.0
220
0.0
230
1.0
  0
ARC
  5
44C
100
AcDbEntity
  8
0
370
    35
390
0
 62
     7
100
AcDbCircle
 10
-90.155472
 20
408.5
 30
0.0
 40
0.5
210
0.0
220
0.0
230
1.0
100
AcDbArc
 50
0.0
 51
90.000003
  0
ARC
  5
44D
100
AcDbEntity
  8
0
370
    35
390
0
 62
     7
100
AcDbCircle
 10
-91.355469
 20
408.5
 30
0.0
 40
0.5
210
0.0
220
0.0
230
1.0
100
AcDbArc
 50
90.000003
 51
179.999991
  0
ARC
  5
44E
100
AcDbEntity
  8
0
370
    35
390
0
 62
     7
100
AcDbCircle
 10
-93.755478
 20
409.5
 30
0.0
 40
0.5
210
0.0
220
0.0
230
1.0
100
AcDbArc
 50
179.999991
 51
269.999997
  0
ARC
  5
44F
100
AcDbEntity
  8
0
370
    35
390
0
 62
     7
100
AcDbCircle
 10
-102.955475
 20
409.5
 30
0.0
 40
0.5
210
0.0
220
0.0
230
1.0
100
AcDbArc
 50
269.999997
 51
360.0
  0
ARC
  5
450
100
AcDbEntity
  8
0
370
    35
390
0
 62
     7
100
AcDbCircle
 10
-107.155472
 20
408.5
 30
0.0
 40
0.5
210
0.0
220
0.0
230
1.0
100
AcDbArc
 50
90.000003
 51
179.999991
  0
LINE
  5
451
100
AcDbEntity
  8
0
370
    35
390
0
 62
     7
 48
0.0125
100
AcDbLine
 10
-106.155472
 20
409.5
 30
0.0
 11
-106.155472
 21
409.0
 31
0.0
210
0.0
220
0.0
230
1.0
  0
ARC
  5
452
100
AcDbEntity
  8
0
370
    35
390
0
 62
     7
100
AcDbCircle
 10
-105.655472
 20
409.5
 30
0.0
 40
0.5
210
0.0
220
0.0
230
1.0
100
AcDbArc
 50
90.000003
 51
179.999991
  0
LINE
  5
453
100
AcDbEntity
  8
0
370
    35
390
0
 62
     7
 48
0.0375
100
AcDbLine
 10
-104.155472
 20
410.0
 30
0.0
 11
-105.655472
 21
410.0
 31
0.0
210
0.0
220
0.0
230
1.0
  0
ARC
  5
454
100
AcDbEntity
  8
0
370
    35
390
0
 62
     7
100
AcDbCircle
 10
-104.155472
 20
411.0
 30
0.0
 40
1.0
210
0.0
220
0.0
230
1.0
100
AcDbArc
 50
269.999997
 51
360.0
  0
LINE
  5
455
100
AcDbEntity
  8
0
370
    35
390
0
 62
     7
 48
0.0125
100
AcDbLine
 10
-103.155472
 20
411.5
 30
0.0
 11
-103.155472
 21
411.0
 31
0.0
210
0.0
220
0.0
230
1.0
  0
LINE
  5
456
100
AcDbEntity
  8
0
370
    35
390
0
 62
     7
 48
0.025
100
AcDbLine
 10
-102.655472
 20
411.5
 30
0.0
 11
-102.655472
 21
410.5
 31
0.0
210
0.0
220
0.0
230
1.0
  0
ARC
  5
457
100
AcDbEntity
  8
0
370
    35
390
0
 62
     7
100
AcDbCircle
 10
-104.155472
 20
410.5
 30
0.0
 40
1.5
210
0.0
220
0.0
230
1.0
100
AcDbArc
 50
269.999997
 51
360.0
  0
ARC
  5
458
100
AcDbEntity
  8
0
370
    35
390
0
 62
     7
100
AcDbCircle
 10
-92.555481
 20
410.5
 30
0.0
 40
1.5
210
0.0
220
0.0
230
1.0
100
AcDbArc
 50
179.999991
 51
269.999997
  0
LINE
  5
459
100
AcDbEntity
  8
0
370
    35
390
0
 62
     7
 48
0.0125
100
AcDbLine
 10
-90.555481
 20
409.5
 30
0.0
 11
-90.555481
 21
409.0
 31
0.0
210
0.0
220
0.0
230
1.0
  0
ARC
  5
45A
100
AcDbEntity
  8
0
370
    35
390
0
 62
     7
100
AcDbCircle
 10
-91.055481
 20
409.5
 30
0.0
 40
0.5
210
0.0
220
0.0
230
1.0
100
AcDbArc
 50
0.0
 51
90.000003
  0
LINE
  5
45B
100
AcDbEntity
  8
0
370
    35
390
0
 62
     7
 48
0.0375
100
AcDbLine
 10
-92.555481
 20
410.0
 30
0.0
 11
-91.055481
 21
410.0
 31
0.0
210
0.0
220
0.0
230
1.0
  0
ARC
  5
45C
100
AcDbEntity
  8
0
370
    35
390
0
 62
     7
100
AcDbCircle
 10
-92.555481
 20
411.0
 30
0.0
 40
1.0
210
0.0
220
0.0
230
1.0
100
AcDbArc
 50
179.999991
 51
269.999997
  0
LINE
  5
45D
100
AcDbEntity
  8
0
370
    35
390
0
 62
     7
 48
0.0125
100
AcDbLine
 10
-93.555481
 20
411.5
 30
0.0
 11
-93.555481
 21
411.0
 31
0.0
210
0.0
220
0.0
230
1.0
  0
LINE
  5
45E
100
AcDbEntity
  8
0
370
    35
390
0
 62
     7
 48
0.025
100
AcDbLine
 10
-94.055481
 20
411.5
 30
0.0
 11
-94.055481
 21
410.5
 31
0.0
210
0.0
220
0.0
230
1.0
  0
LINE
  5
45F
100
AcDbEntity
  8
0
370
    35
390
0
 62
     7
 48
0.022501
100
AcDbLine
 10
-89.655472
 20
382.0
 30
0.0
 11
-89.655472
 21
382.900024
 31
0.0
210
0.0
220
0.0
230
1.0
  0
LINE
  5
460
100
AcDbEntity
  8
0
370
    35
390
0
 62
     7
 48
0.0625
100
AcDbLine
 10
-89.655472
 20
382.900024
 30
0.0
 11
-89.655472
 21
385.400024
 31
0.0
210
0.0
220
0.0
230
1.0
  0
LINE
  5
461
100
AcDbEntity
  8
0
370
    35
390
0
 62
     7
100
AcDbLine
 10
-89.655472
 20
385.400024
 30
0.0
 11
-89.655472
 21
406.0
 31
0.0
210
0.0
220
0.0
230
1.0
  0
LINE
  5
462
100
AcDbEntity
  8
0
370
    35
390
0
 62
     7
 48
0.0625
100
AcDbLine
 10
-89.655472
 20
406.0
 30
0.0
 11
-89.655472
 21
408.5
 31
0.0
210
0.0
220
0.0
230
1.0
  0
LINE
  5
463
100
AcDbEntity
  8
0
370
    35
390
0
 62
     7
 48
0.031126
100
AcDbLine
 10
-91.855469
 20
408.5
 30
0.0
 11
-91.855469
 21
407.254944
 31
0.0
210
0.0
220
0.0
230
1.0
  0
LINE
  5
464
100
AcDbEntity
  8
0
370
    35
390
0
 62
     7
 48
0.045
100
AcDbLine
 10
-94.255478
 20
409.5
 30
0.0
 11
-94.255478
 21
411.299988
 31
0.0
210
0.0
220
0.0
230
1.0
  0
ARC
  5
465
100
AcDbEntity
  8
0
370
    35
390
0
 62
     7
100
AcDbCircle
 10
-94.755478
 20
411.299988
 30
0.0
 40
0.5
210
0.0
220
0.0
230
1.0
100
AcDbArc
 50
0.0
 51
23.579369
  0
LINE
  5
466
100
AcDbEntity
  8
0
370
    35
390
0
 62
     7
 48
0.045
100
AcDbLine
 10
-102.455475
 20
409.5
 30
0.0
 11
-102.455475
 21
411.299988
 31
0.0
210
0.0
220
0.0
230
1.0
  0
ARC
  5
467
100
AcDbEntity
  8
0
370
    35
390
0
 62
     7
100
AcDbCircle
 10
-101.955475
 20
411.299988
 30
0.0
 40
0.5
210
0.0
220
0.0
230
1.0
100
AcDbArc
 50
156.420635
 51
179.999991
  0
LINE
  5
468
100
AcDbEntity
  8
0
370
    35
390
0
 62
     7
 48
0.255
100
AcDbLine
 10
-107.655472
 20
382.0
 30
0.0
 11
-107.655472
 21
392.200012
 31
0.0
210
0.0
220
0.0
230
1.0
  0
LINE
  5
469
100
AcDbEntity
  8
0
370
    35
390
0
 62
     7
 48
0.025
100
AcDbLine
 10
-107.655472
 20
392.200012
 30
0.0
 11
-107.655472
 21
393.200012
 31
0.0
210
0.0
220
0.0
230
1.0
  0
LINE
  5
46A
100
AcDbEntity
  8
0
370
    35
390
0
 62
     7
 48
0.125
100
AcDbLine
 10
-107.655472
 20
393.200012
 30
0.0
 11
-107.655472
 21
398.200012
 31
0.0
210
0.0
220
0.0
230
1.0
  0
LINE
  5
46B
100
AcDbEntity
  8
0
370
    35
390
0
 62
     7
 48
0.025
100
AcDbLine
 10
-107.655472
 20
398.200012
 30
0.0
 11
-107.655472
 21
399.200012
 31
0.0
210
0.0
220
0.0
230
1.0
  0
LINE
  5
46C
100
AcDbEntity
  8
0
370
    35
390
0
 62
     7
 48
0.2325
100
AcDbLine
 10
-107.655472
 20
408.5
 30
0.0
 11
-107.655472
 21
399.200012
 31
0.0
210
0.0
220
0.0
230
1.0
  0
LINE
  5
46D
100
AcDbEntity
  8
0
370
    35
390
0
 62
     7
 48
0.02
100
AcDbLine
 10
-88.855469
 20
407.5
 30
0.0
 11
-89.655472
 21
407.5
 31
0.0
210
0.0
220
0.0
230
1.0
  0
LINE
  5
46E
100
AcDbEntity
  8
0
370
    35
390
0
 62
     7
 48
0.02
100
AcDbLine
 10
-88.855469
 20
408.299988
 30
0.0
 11
-89.655472
 21
408.299988
 31
0.0
210
0.0
220
0.0
230
1.0
  0
LINE
  5
46F
100
AcDbEntity
  8
0
370
    35
390
0
 62
     7
 48
0.025
100
AcDbLine
 10
-88.855469
 20
407.299988
 30
0.0
 11
-88.855469
 21
408.299988
 31
0.0
210
0.0
220
0.0
230
1.0
  0
LINE
  5
470
100
AcDbEntity
  8
0
370
    35
390
0
 62
     7
 48
0.02
100
AcDbLine
 10
-88.855469
 20
388.700012
 30
0.0
 11
-89.655472
 21
388.700012
 31
0.0
210
0.0
220
0.0
230
1.0
  0
LINE
  5
471
100
AcDbEntity
  8
0
370
    35
390
0
 62
     7
 48
0.075
100
AcDbLine
 10
-88.855469
 20
388.700012
 30
0.0
 11
-88.855469
 21
391.700012
 31
0.0
210
0.0
220
0.0
230
1.0
  0
LINE
  5
472
100
AcDbEntity
  8
0
370
    35
390
0
 62
     7
 48
0.305942
100
AcDbLine
 10
-88.855469
 20
403.937683
 30
0.0
 11
-88.855469
 21
391.700012
 31
0.0
210
0.0
220
0.0
230
1.0
  0
LINE
  5
473
100
AcDbEntity
  8
0
370
    35
390
0
 62
     7
 48
0.024069
100
AcDbLine
 10
-88.855469
 20
403.937683
 30
0.0
 11
-88.855469
 21
404.900452
 31
0.0
210
0.0
220
0.0
230
1.0
  0
LINE
  5
474
100
AcDbEntity
  8
0
370
    35
390
0
 62
     7
 48
0.064989
100
AcDbLine
 10
-89.655472
 20
404.900452
 30
0.0
 11
-89.655472
 21
407.5
 31
0.0
210
0.0
220
0.0
230
1.0
  0
ARC
  5
475
100
AcDbEntity
  8
0
370
    35
390
0
 62
     7
100
AcDbCircle
 10
-95.270401
 20
404.182007
 30
0.0
 40
5.712038
210
0.0
220
0.0
230
1.0
100
AcDbArc
 50
18.558476
 51
26.433648
  0
ARC
  5
476
100
AcDbEntity
  8
0
370
    35
390
0
 62
     7
100
AcDbCircle
 10
-89.855469
 20
406.0
 30
0.0
 40
0.2
210
0.0
220
0.0
230
1.0
100
AcDbArc
 50
269.999997
 51
360.0
  0
ARC
  5
477
100
AcDbEntity
  8
0
370
    35
390
0
 62
     7
100
AcDbCircle
 10
-89.855469
 20
385.400024
 30
0.0
 40
0.2
210
0.0
220
0.0
230
1.0
100
AcDbArc
 50
0.0
 51
90.000003
  0
ARC
  5
478
100
AcDbEntity
  8
0
370
    35
390
0
 62
     7
100
AcDbCircle
 10
-95.270279
 20
387.218018
 30
0.0
 40
5.711964
210
0.0
220
0.0
230
1.0
100
AcDbArc
 50
333.565022
 51
341.44031
  0
ARC
  5
479
100
AcDbEntity
  8
0
370
    35
390
0
 62
     7
100
AcDbCircle
 10
-90.155472
 20
382.900024
 30
0.0
 40
0.5
210
0.0
220
0.0
230
1.0
100
AcDbArc
 50
269.999997
 51
360.0
  0
LINE
  5
47A
100
AcDbEntity
  8
0
370
    35
390
0
 62
     7
 48
0.0125
100
AcDbLine
 10
-90.155472
 20
382.0
 30
0.0
 11
-89.655472
 21
382.0
 31
0.0
210
0.0
220
0.0
230
1.0
  0
LINE
  5
47B
100
AcDbEntity
  8
0
370
    35
390
0
 62
     7
 48
0.017678
100
AcDbLine
 10
-89.655472
 20
382.0
 30
0.0
 11
-90.155472
 21
381.5
 31
0.0
210
0.0
220
0.0
230
1.0
  0
ARC
  5
47C
100
AcDbEntity
  8
0
370
    35
390
0
 62
     7
100
AcDbCircle
 10
-91.855469
 20
404.5
 30
0.0
 40
2.3
210
0.0
220
0.0
230
1.0
100
AcDbArc
 50
34.417388
 51
79.713437
  0
LINE
  5
47D
100
AcDbEntity
  8
0
370
    35
390
0
 62
     7
 48
0.001033
100
AcDbLine
 10
-89.916794
 20
405.799988
 30
0.0
 11
-89.958099
 21
405.799988
 31
0.0
210
0.0
220
0.0
230
1.0
  0
LINE
  5
47E
100
AcDbEntity
  8
0
370
    35
390
0
 62
     7
 48
0.000241
100
AcDbLine
 10
-89.916794
 20
405.799988
 30
0.0
 11
-89.907227
 21
405.801025
 31
0.0
210
0.0
220
0.0
230
1.0
  0
LINE
  5
47F
100
AcDbEntity
  8
0
370
    35
390
0
 62
     7
 48
0.00025
100
AcDbLine
 10
-89.907227
 20
405.801025
 30
0.0
 11
-89.897736
 21
405.804199
 31
0.0
210
0.0
220
0.0
230
1.0
  0
LINE
  5
480
100
AcDbEntity
  8
0
370
    35
390
0
 62
     7
 48
0.000268
100
AcDbLine
 10
-89.897736
 20
405.804199
 30
0.0
 11
-89.888489
 21
405.809631
 31
0.0
210
0.0
220
0.0
230
1.0
  0
LINE
  5
481
100
AcDbEntity
  8
0
370
    35
390
0
 62
     7
 48
0.000288
100
AcDbLine
 10
-89.888489
 20
405.809631
 30
0.0
 11
-89.879684
 21
405.817078
 31
0.0
210
0.0
220
0.0
230
1.0
  0
LINE
  5
482
100
AcDbEntity
  8
0
370
    35
390
0
 62
     7
 48
0.000645
100
AcDbLine
 10
-89.879684
 20
405.817078
 30
0.0
 11
-89.864288
 21
405.837769
 31
0.0
210
0.0
220
0.0
230
1.0
  0
LINE
  5
483
100
AcDbEntity
  8
0
370
    35
390
0
 62
     7
 48
0.000743
100
AcDbLine
 10
-89.864288
 20
405.837769
 30
0.0
 11
-89.852509
 21
405.865051
 31
0.0
210
0.0
220
0.0
230
1.0
  0
LINE
  5
484
100
AcDbEntity
  8
0
370
    35
390
0
 62
     7
 48
0.000822
100
AcDbLine
 10
-89.852509
 20
405.865051
 30
0.0
 11
-89.845337
 21
405.897156
 31
0.0
210
0.0
220
0.0
230
1.0
  0
LINE
  5
485
100
AcDbEntity
  8
0
370
    35
390
0
 62
     7
 48
0.000877
100
AcDbLine
 10
-89.845337
 20
405.897156
 30
0.0
 11
-89.843445
 21
405.93219
 31
0.0
210
0.0
220
0.0
230
1.0
  0
LINE
  5
486
100
AcDbEntity
  8
0
370
    35
390
0
 62
     7
 48
0.00091
100
AcDbLine
 10
-89.843445
 20
405.93219
 30
0.0
 11
-89.84729
 21
405.968384
 31
0.0
210
0.0
220
0.0
230
1.0
  0
LINE
  5
487
100
AcDbEntity
  8
0
370
    35
390
0
 62
     7
 48
0.000816
100
AcDbLine
 10
-89.84729
 20
405.968384
 30
0.0
 11
-89.855469
 21
406.0
 31
0.0
210
0.0
220
0.0
230
1.0
  0
ARC
  5
488
100
AcDbEntity
  8
0
370
    35
390
0
 62
     7
100
AcDbCircle
 10
-91.355469
 20
407.254944
 30
0.0
 40
0.5
210
0.0
220
0.0
230
1.0
100
AcDbArc
 50
179.999991
 51
259.713439
  0
LINE
  5
489
100
AcDbEntity
  8
0
370
    35
390
0
 62
     7
 48
0.339999
100
AcDbLine
 10
-106.855469
 20
404.5
 30
0.0
 11
-106.855469
 21
390.900024
 31
0.0
210
0.0
220
0.0
230
1.0
  0
LINE
  5
48A
100
AcDbEntity
  8
0
370
    35
390
0
 62
     7
 48
0.0125
100
AcDbLine
 10
-106.855469
 20
390.400024
 30
0.0
 11
-106.855469
 21
390.900024
 31
0.0
210
0.0
220
0.0
230
1.0
  0
LINE
  5
48B
100
AcDbEntity
  8
0
370
    35
390
0
 62
     7
 48
0.075
100
AcDbLine
 10
-106.855469
 20
387.400024
 30
0.0
 11
-106.855469
 21
390.400024
 31
0.0
210
0.0
220
0.0
230
1.0
  0
LINE
  5
48C
100
AcDbEntity
  8
0
370
    35
390
0
 62
     7
 48
0.0125
100
AcDbLine
 10
-106.855469
 20
386.900024
 30
0.0
 11
-106.855469
 21
387.400024
 31
0.0
210
0.0
220
0.0
230
1.0
  0
ARC
  5
48D
100
AcDbEntity
  8
0
370
    35
390
0
 62
     7
100
AcDbCircle
 10
-104.855469
 20
404.5
 30
0.0
 40
2.0
210
0.0
220
0.0
230
1.0
100
AcDbArc
 50
93.840256
 51
179.999991
  0
LINE
  5
48E
100
AcDbEntity
  8
0
370
    35
390
0
 62
     7
 48
0.225
100
AcDbLine
 10
-104.855469
 20
406.5
 30
0.0
 11
-95.855469
 21
406.5
 31
0.0
210
0.0
220
0.0
230
1.0
  0
LINE
  5
48F
100
AcDbEntity
  8
0
370
    35
390
0
 62
     7
 48
0.0125
100
AcDbLine
 10
-91.855469
 20
406.5
 30
0.0
 11
-92.355469
 21
406.5
 31
0.0
210
0.0
220
0.0
230
1.0
  0
LINE
  5
490
100
AcDbEntity
  8
0
370
    35
390
0
 62
     7
 48
0.075
100
AcDbLine
 10
-92.355469
 20
406.5
 30
0.0
 11
-95.355469
 21
406.5
 31
0.0
210
0.0
220
0.0
230
1.0
  0
LINE
  5
491
100
AcDbEntity
  8
0
370
    35
390
0
 62
     7
 48
0.0125
100
AcDbLine
 10
-95.855469
 20
406.5
 30
0.0
 11
-95.355469
 21
406.5
 31
0.0
210
0.0
220
0.0
230
1.0
  0
ARC
  5
492
100
AcDbEntity
  8
0
370
    35
390
0
 62
     7
100
AcDbCircle
 10
-91.855469
 20
404.5
 30
0.0
 40
2.0
210
0.0
220
0.0
230
1.0
100
AcDbArc
 50
0.0
 51
90.000003
  0
LINE
  5
493
100
AcDbEntity
  8
0
370
    35
390
0
 62
     7
 48
0.005
100
AcDbLine
 10
-107.855469
 20
407.5
 30
0.0
 11
-107.655472
 21
407.5
 31
0.0
210
0.0
220
0.0
230
1.0
  0
LINE
  5
494
100
AcDbEntity
  8
0
370
    35
390
0
 62
     7
 48
0.005
100
AcDbLine
 10
-107.855469
 20
408.299988
 30
0.0
 11
-107.655472
 21
408.299988
 31
0.0
210
0.0
220
0.0
230
1.0
  0
LINE
  5
495
100
AcDbEntity
  8
0
370
    35
390
0
 62
     7
 48
0.019997
100
AcDbLine
 10
-107.855469
 20
408.299988
 30
0.0
 11
-107.855469
 21
407.500122
 31
0.0
210
0.0
220
0.0
230
1.0
  0
LINE
  5
496
100
AcDbEntity
  8
0
370
    35
390
0
 62
     7
 48
0.005
100
AcDbLine
 10
-107.855469
 20
388.700012
 30
0.0
 11
-107.655472
 21
388.700012
 31
0.0
210
0.0
220
0.0
230
1.0
  0
LINE
  5
497
100
AcDbEntity
  8
0
370
    35
390
0
 62
     7
 48
0.075
100
AcDbLine
 10
-107.855469
 20
391.700012
 30
0.0
 11
-107.855469
 21
388.700012
 31
0.0
210
0.0
220
0.0
230
1.0
  0
LINE
  5
498
100
AcDbEntity
  8
0
370
    35
390
0
 62
     7
 48
0.305942
100
AcDbLine
 10
-107.855469
 20
403.937683
 30
0.0
 11
-107.855469
 21
391.700012
 31
0.0
210
0.0
220
0.0
230
1.0
  0
LINE
  5
499
100
AcDbEntity
  8
0
370
    35
390
0
 62
     7
 48
0.024069
100
AcDbLine
 10
-107.855469
 20
404.900452
 30
0.0
 11
-107.855469
 21
403.937683
 31
0.0
210
0.0
220
0.0
230
1.0
  0
ARC
  5
49A
100
AcDbEntity
  8
0
370
    35
390
0
 62
     7
100
AcDbCircle
 10
-107.155472
 20
398.200012
 30
0.0
 40
0.5
210
0.0
220
0.0
230
1.0
100
AcDbArc
 50
90.000003
 51
179.999991
  0
ARC
  5
49B
100
AcDbEntity
  8
0
370
    35
390
0
 62
     7
100
AcDbCircle
 10
-107.155472
 20
393.200012
 30
0.0
 40
0.5
210
0.0
220
0.0
230
1.0
100
AcDbArc
 50
179.999991
 51
269.999997
  0
LINE
  5
49C
100
AcDbEntity
  8
0
370
    35
390
0
 62
     7
 48
0.0125
100
AcDbLine
 10
-107.655472
 20
382.0
 30
0.0
 11
-107.155472
 21
382.0
 31
0.0
210
0.0
220
0.0
230
1.0
  0
LINE
  5
49D
100
AcDbEntity
  8
0
370
    35
390
0
 62
     7
 48
0.017678
100
AcDbLine
 10
-107.655472
 20
382.0
 30
0.0
 11
-107.155472
 21
381.5
 31
0.0
210
0.0
220
0.0
230
1.0
  0
LINE
  5
49E
100
AcDbEntity
  8
0
370
    35
390
0
 62
     7
 48
0.028751
100
AcDbLine
 10
-89.655472
 20
388.700012
 30
0.0
 11
-89.655472
 21
387.549988
 31
0.0
210
0.0
220
0.0
230
1.0
  0
ARC
  5
49F
100
AcDbEntity
  8
0
370
    35
390
0
 62
     7
100
AcDbCircle
 10
-92.055481
 20
387.549988
 30
0.0
 40
2.4
210
0.0
220
0.0
230
1.0
100
AcDbArc
 50
359.586046
 51
0.00001
  0
LINE
  5
4A0
100
AcDbEntity
  8
0
370
    35
390
0
 62
     7
 48
0.064989
100
AcDbLine
 10
-88.855469
 20
404.900452
 30
0.0
 11
-88.855469
 21
407.5
 31
0.0
210
0.0
220
0.0
230
1.0
  0
LINE
  5
4A1
100
AcDbEntity
  8
0
370
    35
390
0
 62
     7
 48
0.001533
100
AcDbLine
 10
-89.855469
 20
405.799988
 30
0.0
 11
-89.916794
 21
405.799988
 31
0.0
210
0.0
220
0.0
230
1.0
  0
LINE
  5
4A2
100
AcDbEntity
  8
0
370
    35
390
0
 62
     7
 48
0.000056
100
AcDbLine
 10
-89.958099
 20
405.799988
 30
0.0
 11
-89.960327
 21
405.799988
 31
0.0
210
0.0
220
0.0
230
1.0
  0
LINE
  5
4A3
100
AcDbEntity
  8
0
370
    35
390
0
 62
     7
 48
0.425
100
AcDbLine
 10
-90.155472
 20
382.0
 30
0.0
 11
-107.155472
 21
382.0
 31
0.0
210
0.0
220
0.0
230
1.0
  0
LINE
  5
4A4
100
AcDbEntity
  8
0
370
    35
390
0
 62
     7
 48
0.001983
100
AcDbLine
 10
-90.09201
 20
385.799988
 30
0.0
 11
-90.055084
 21
385.729797
 31
0.0
210
0.0
220
0.0
230
1.0
  0
LINE
  5
4A5
100
AcDbEntity
  8
0
370
    35
390
0
 62
     7
 48
0.000992
100
AcDbLine
 10
-90.055084
 20
385.729797
 30
0.0
 11
-90.035477
 21
385.695313
 31
0.0
210
0.0
220
0.0
230
1.0
  0
LINE
  5
4A6
100
AcDbEntity
  8
0
370
    35
390
0
 62
     7
 48
0.001233
100
AcDbLine
 10
-90.035477
 20
385.695313
 30
0.0
 11
-90.009399
 21
385.653442
 31
0.0
210
0.0
220
0.0
230
1.0
  0
LINE
  5
4A7
100
AcDbEntity
  8
0
370
    35
390
0
 62
     7
 48
0.000581
100
AcDbLine
 10
-90.009399
 20
385.653442
 30
0.0
 11
-89.996078
 21
385.634399
 31
0.0
210
0.0
220
0.0
230
1.0
  0
LINE
  5
4A8
100
AcDbEntity
  8
0
370
    35
390
0
 62
     7
 48
0.000724
100
AcDbLine
 10
-89.996078
 20
385.634399
 30
0.0
 11
-89.977722
 21
385.612
 31
0.0
210
0.0
220
0.0
230
1.0
  0
LINE
  5
4A9
100
AcDbEntity
  8
0
370
    35
390
0
 62
     7
 48
0.000416
100
AcDbLine
 10
-89.977722
 20
385.612
 30
0.0
 11
-89.964935
 21
385.601379
 31
0.0
210
0.0
220
0.0
230
1.0
  0
LINE
  5
4AA
100
AcDbEntity
  8
0
370
    35
390
0
 62
     7
 48
0.00012
100
AcDbLine
 10
-89.964935
 20
385.601379
 30
0.0
 11
-89.960327
 21
385.599976
 31
0.0
210
0.0
220
0.0
230
1.0
  0
LINE
  5
4AB
100
AcDbEntity
  8
0
370
    35
390
0
 62
     7
 48
0.000056
100
AcDbLine
 10
-89.958099
 20
385.599976
 30
0.0
 11
-89.960327
 21
385.599976
 31
0.0
210
0.0
220
0.0
230
1.0
  0
LINE
  5
4AC
100
AcDbEntity
  8
0
370
    35
390
0
 62
     7
 48
0.001984
100
AcDbLine
 10
-90.09201
 20
405.599976
 30
0.0
 11
-90.055084
 21
405.670227
 31
0.0
210
0.0
220
0.0
230
1.0
  0
LINE
  5
4AD
100
AcDbEntity
  8
0
370
    35
390
0
 62
     7
 48
0.00099
100
AcDbLine
 10
-90.055084
 20
405.670227
 30
0.0
 11
-90.035477
 21
405.704651
 31
0.0
210
0.0
220
0.0
230
1.0
  0
LINE
  5
4AE
100
AcDbEntity
  8
0
370
    35
390
0
 62
     7
 48
0.001233
100
AcDbLine
 10
-90.035477
 20
405.704651
 30
0.0
 11
-90.009399
 21
405.746521
 31
0.0
210
0.0
220
0.0
230
1.0
  0
LINE
  5
4AF
100
AcDbEntity
  8
0
370
    35
390
0
 62
     7
 48
0.000581
100
AcDbLine
 10
-90.009399
 20
405.746521
 30
0.0
 11
-89.996078
 21
405.765564
 31
0.0
210
0.0
220
0.0
230
1.0
  0
LINE
  5
4B0
100
AcDbEntity
  8
0
370
    35
390
0
 62
     7
 48
0.000724
100
AcDbLine
 10
-89.996078
 20
405.765564
 30
0.0
 11
-89.977722
 21
405.787964
 31
0.0
210
0.0
220
0.0
230
1.0
  0
LINE
  5
4B1
100
AcDbEntity
  8
0
370
    35
390
0
 62
     7
 48
0.000416
100
AcDbLine
 10
-89.977722
 20
405.787964
 30
0.0
 11
-89.964935
 21
405.798584
 31
0.0
210
0.0
220
0.0
230
1.0
  0
LINE
  5
4B2
100
AcDbEntity
  8
0
370
    35
390
0
 62
     7
 48
0.00012
100
AcDbLine
 10
-89.964935
 20
405.798584
 30
0.0
 11
-89.960327
 21
405.799988
 31
0.0
210
0.0
220
0.0
230
1.0
  0
LINE
  5
4B3
100
AcDbEntity
  8
0
370
    35
390
0
 62
     7
 48
0.001033
100
AcDbLine
 10
-89.958099
 20
385.599976
 30
0.0
 11
-89.916794
 21
385.599976
 31
0.0
210
0.0
220
0.0
230
1.0
  0
LINE
  5
4B4
100
AcDbEntity
  8
0
370
    35
390
0
 62
     7
 48
0.001533
100
AcDbLine
 10
-89.855469
 20
385.599976
 30
0.0
 11
-89.916794
 21
385.599976
 31
0.0
210
0.0
220
0.0
230
1.0
  0
LINE
  5
4B5
100
AcDbEntity
  8
0
370
    35
390
0
 62
     7
 48
0.000241
100
AcDbLine
 10
-89.916794
 20
385.599976
 30
0.0
 11
-89.907227
 21
385.598938
 31
0.0
210
0.0
220
0.0
230
1.0
  0
LINE
  5
4B6
100
AcDbEntity
  8
0
370
    35
390
0
 62
     7
 48
0.00025
100
AcDbLine
 10
-89.907227
 20
385.598938
 30
0.0
 11
-89.897736
 21
385.595764
 31
0.0
210
0.0
220
0.0
230
1.0
  0
LINE
  5
4B7
100
AcDbEntity
  8
0
370
    35
390
0
 62
     7
 48
0.000267
100
AcDbLine
 10
-89.897736
 20
385.595764
 30
0.0
 11
-89.888489
 21
385.590393
 31
0.0
210
0.0
220
0.0
230
1.0
  0
LINE
  5
4B8
100
AcDbEntity
  8
0
370
    35
390
0
 62
     7
 48
0.00029
100
AcDbLine
 10
-89.888489
 20
385.590393
 30
0.0
 11
-89.879684
 21
385.582825
 31
0.0
210
0.0
220
0.0
230
1.0
  0
LINE
  5
4B9
100
AcDbEntity
  8
0
370
    35
390
0
 62
     7
 48
0.000644
100
AcDbLine
 10
-89.879684
 20
385.582825
 30
0.0
 11
-89.864288
 21
385.562195
 31
0.0
210
0.0
220
0.0
230
1.0
  0
LINE
  5
4BA
100
AcDbEntity
  8
0
370
    35
390
0
 62
     7
 48
0.000742
100
AcDbLine
 10
-89.864288
 20
385.562195
 30
0.0
 11
-89.852509
 21
385.534973
 31
0.0
210
0.0
220
0.0
230
1.0
  0
LINE
  5
4BB
100
AcDbEntity
  8
0
370
    35
390
0
 62
     7
 48
0.000824
100
AcDbLine
 10
-89.852509
 20
385.534973
 30
0.0
 11
-89.845337
 21
385.502808
 31
0.0
210
0.0
220
0.0
230
1.0
  0
LINE
  5
4BC
100
AcDbEntity
  8
0
370
    35
390
0
 62
     7
 48
0.000877
100
AcDbLine
 10
-89.845337
 20
385.502808
 30
0.0
 11
-89.843445
 21
385.467773
 31
0.0
210
0.0
220
0.0
230
1.0
  0
LINE
  5
4BD
100
AcDbEntity
  8
0
370
    35
390
0
 62
     7
 48
0.00091
100
AcDbLine
 10
-89.843445
 20
385.467773
 30
0.0
 11
-89.84729
 21
385.43158
 31
0.0
210
0.0
220
0.0
230
1.0
  0
LINE
  5
4BE
100
AcDbEntity
  8
0
370
    35
390
0
 62
     7
 48
0.000815
100
AcDbLine
 10
-89.84729
 20
385.43158
 30
0.0
 11
-89.855469
 21
385.400024
 31
0.0
210
0.0
220
0.0
230
1.0
  0
ARC
  5
4BF
100
AcDbEntity
  8
0
370
    35
390
0
 62
     7
100
AcDbCircle
 10
-91.855469
 20
386.900024
 30
0.0
 40
2.3
210
0.0
220
0.0
230
1.0
100
AcDbArc
 50
280.286563
 51
325.582605
  0
LINE
  5
4C0
100
AcDbEntity
  8
0
370
    35
390
0
 62
     7
 48
0.03
100
AcDbLine
 10
-90.155472
 20
382.400024
 30
0.0
 11
-91.355469
 21
382.400024
 31
0.0
210
0.0
220
0.0
230
1.0
  0
LINE
  5
4C1
100
AcDbEntity
  8
0
370
    35
390
0
 62
     7
 48
0.425
100
AcDbLine
 10
-90.155472
 20
381.5
 30
0.0
 11
-107.155472
 21
381.5
 31
0.0
210
0.0
220
0.0
230
1.0
  0
LINE
  5
4C2
100
AcDbEntity
  8
0
370
    35
390
0
 62
     7
 48
0.0075
100
AcDbLine
 10
-106.855484
 20
398.700012
 30
0.0
 11
-107.155472
 21
398.700012
 31
0.0
210
0.0
220
0.0
230
1.0
  0
ARC
  5
4C3
100
AcDbEntity
  8
0
370
    35
390
0
 62
     7
100
AcDbCircle
 10
-106.355469
 20
390.900024
 30
0.0
 40
0.5
210
0.0
220
0.0
230
1.0
100
AcDbArc
 50
179.999991
 51
269.999997
  0
CIRCLE
  5
4C4
100
AcDbEntity
  8
0
370
    35
390
0
 62
     7
100
AcDbCircle
 10
-104.355469
 20
387.400024
 30
0.0
 40
2.5
210
0.0
220
0.0
230
1.0
  0
LINE
  5
4C5
100
AcDbEntity
  8
0
370
    35
390
0
 62
     7
 48
0.075
100
AcDbLine
 10
-101.355469
 20
384.900024
 30
0.0
 11
-104.355469
 21
384.900024
 31
0.0
210
0.0
220
0.0
230
1.0
  0
LINE
  5
4C6
100
AcDbEntity
  8
0
370
    35
390
0
 62
     7
 48
0.0125
100
AcDbLine
 10
-100.855469
 20
384.900024
 30
0.0
 11
-101.355469
 21
384.900024
 31
0.0
210
0.0
220
0.0
230
1.0
  0
ARC
  5
4C7
100
AcDbEntity
  8
0
370
    35
390
0
 62
     7
100
AcDbCircle
 10
-104.855469
 20
386.900024
 30
0.0
 40
2.0
210
0.0
220
0.0
230
1.0
100
AcDbArc
 50
179.999991
 51
269.999997
  0
LINE
  5
4C8
100
AcDbEntity
  8
0
370
    35
390
0
 62
     7
 48
0.0125
100
AcDbLine
 10
-104.355469
 20
384.900024
 30
0.0
 11
-104.855469
 21
384.900024
 31
0.0
210
0.0
220
0.0
230
1.0
  0
LINE
  5
4C9
100
AcDbEntity
  8
0
370
    35
390
0
 62
     7
 48
0.000788
100
AcDbLine
 10
-104.855469
 20
406.397339
 30
0.0
 11
-104.871353
 21
406.424561
 31
0.0
210
0.0
220
0.0
230
1.0
  0
LINE
  5
4CA
100
AcDbEntity
  8
0
370
    35
390
0
 62
     7
 48
0.000699
100
AcDbLine
 10
-104.871353
 20
406.424561
 30
0.0
 11
-104.887207
 21
406.447571
 31
0.0
210
0.0
220
0.0
230
1.0
  0
LINE
  5
4CB
100
AcDbEntity
  8
0
370
    35
390
0
 62
     7
 48
0.000546
100
AcDbLine
 10
-104.887207
 20
406.447571
 30
0.0
 11
-104.901184
 21
406.464355
 31
0.0
210
0.0
220
0.0
230
1.0
  0
LINE
  5
4CC
100
AcDbEntity
  8
0
370
    35
390
0
 62
     7
 48
0.000481
100
AcDbLine
 10
-104.901184
 20
406.464355
 30
0.0
 11
-104.915085
 21
406.477661
 31
0.0
210
0.0
220
0.0
230
1.0
  0
LINE
  5
4CD
100
AcDbEntity
  8
0
370
    35
390
0
 62
     7
 48
0.000379
100
AcDbLine
 10
-104.915085
 20
406.477661
 30
0.0
 11
-104.927292
 21
406.486633
 31
0.0
210
0.0
220
0.0
230
1.0
  0
LINE
  5
4CE
100
AcDbEntity
  8
0
370
    35
390
0
 62
     7
 48
0.00034
100
AcDbLine
 10
-104.927292
 20
406.486633
 30
0.0
 11
-104.939407
 21
406.492798
 31
0.0
210
0.0
220
0.0
230
1.0
  0
LINE
  5
4CF
100
AcDbEntity
  8
0
370
    35
390
0
 62
     7
 48
0.000284
100
AcDbLine
 10
-104.939407
 20
406.492798
 30
0.0
 11
-104.950287
 21
406.496094
 31
0.0
210
0.0
220
0.0
230
1.0
  0
LINE
  5
4D0
100
AcDbEntity
  8
0
370
    35
390
0
 62
     7
 48
0.00027
100
AcDbLine
 10
-104.950287
 20
406.496094
 30
0.0
 11
-104.961044
 21
406.497131
 31
0.0
210
0.0
220
0.0
230
1.0
  0
LINE
  5
4D1
100
AcDbEntity
  8
0
370
    35
390
0
 62
     7
 48
0.000061
100
AcDbLine
 10
-104.961044
 20
406.497131
 30
0.0
 11
-104.963501
 21
406.49707
 31
0.0
210
0.0
220
0.0
230
1.0
  0
LINE
  5
4D2
100
AcDbEntity
  8
0
370
    35
390
0
 62
     7
 48
0.0125
100
AcDbLine
 10
-89.855469
 20
404.0
 30
0.0
 11
-89.855469
 21
404.5
 31
0.0
210
0.0
220
0.0
230
1.0
  0
CIRCLE
  5
4D3
100
AcDbEntity
  8
0
370
    35
390
0
 62
     7
100
AcDbCircle
 10
-92.355469
 20
404.0
 30
0.0
 40
2.5
210
0.0
220
0.0
230
1.0
  0
LINE
  5
4D4
100
AcDbEntity
  8
0
370
    35
390
0
 62
     7
 48
0.0125
100
AcDbLine
 10
-89.855469
 20
401.0
 30
0.0
 11
-89.855469
 21
400.5
 31
0.0
210
0.0
220
0.0
230
1.0
  0
LINE
  5
4D5
100
AcDbEntity
  8
0
370
    35
390
0
 62
     7
 48
0.075
100
AcDbLine
 10
-89.855469
 20
401.0
 30
0.0
 11
-89.855469
 21
404.0
 31
0.0
210
0.0
220
0.0
230
1.0
  0
ARC
  5
4D6
100
AcDbEntity
  8
0
370
    35
390
0
 62
     7
100
AcDbCircle
 10
-95.855469
 20
406.0
 30
0.0
 40
0.5
210
0.0
220
0.0
230
1.0
100
AcDbArc
 50
0.0
 51
90.000003
  0
LINE
  5
4D7
100
AcDbEntity
  8
0
370
    35
390
0
 62
     7
 48
0.339999
100
AcDbLine
 10
-89.855469
 20
386.900024
 30
0.0
 11
-89.855469
 21
400.5
 31
0.0
210
0.0
220
0.0
230
1.0
  0
LINE
  5
4D8
100
AcDbEntity
  8
0
370
    35
390
0
 62
     7
 48
0.064989
100
AcDbLine
 10
-107.855469
 20
407.5
 30
0.0
 11
-107.855469
 21
404.900452
 31
0.0
210
0.0
220
0.0
230
1.0
  0
LINE
  5
4D9
100
AcDbEntity
  8
0
370
    35
390
0
 62
     7
 48
0.0075
100
AcDbLine
 10
-107.155472
 20
392.700012
 30
0.0
 11
-106.855484
 21
392.700012
 31
0.0
210
0.0
220
0.0
230
1.0
  0
LINE
  5
4DA
100
AcDbEntity
  8
0
370
    35
390
0
 62
     7
 48
0.004999
100
AcDbLine
 10
-89.655472
 20
408.300049
 30
0.0
 11
-89.655472
 21
408.5
 31
0.0
210
0.0
220
0.0
230
1.0
  0
ARC
  5
4DB
100
AcDbEntity
  8
0
370
    35
390
0
 62
     7
100
AcDbCircle
 10
-91.855469
 20
386.900024
 30
0.0
 40
2.0
210
0.0
220
0.0
230
1.0
100
AcDbArc
 50
273.840265
 51
0.00001
  0
LINE
  5
4DC
100
AcDbEntity
  8
0
370
    35
390
0
 62
     7
 48
0.225
100
AcDbLine
 10
-91.855469
 20
384.900024
 30
0.0
 11
-100.855469
 21
384.900024
 31
0.0
210
0.0
220
0.0
230
1.0
  0
ARC
  5
4DD
100
AcDbEntity
  8
0
370
    35
390
0
 62
     7
100
AcDbCircle
 10
-91.355469
 20
384.144958
 30
0.0
 40
0.5
210
0.0
220
0.0
230
1.0
100
AcDbArc
 50
100.286561
 51
179.999991
  0
LINE
  5
4DE
100
AcDbEntity
  8
0
370
    35
390
0
 62
     7
 48
0.031123
100
AcDbLine
 10
-91.855469
 20
382.900024
 30
0.0
 11
-91.855469
 21
384.144958
 31
0.0
210
0.0
220
0.0
230
1.0
  0
ARC
  5
4DF
100
AcDbEntity
  8
0
370
    35
390
0
 62
     7
100
AcDbCircle
 10
-91.355469
 20
382.900024
 30
0.0
 40
0.5
210
0.0
220
0.0
230
1.0
100
AcDbArc
 50
179.999991
 51
269.999997
  0
LINE
  5
4E0
100
AcDbEntity
  8
0
370
    35
390
0
 62
     7
 48
0.001924
100
AcDbLine
 10
-106.278503
 20
390.400024
 30
0.0
 11
-106.355469
 21
390.400024
 31
0.0
210
0.0
220
0.0
230
1.0
  0
LINE
  5
4E1
100
AcDbEntity
  8
0
370
    35
390
0
 62
     7
 48
0.012038
100
AcDbLine
 10
-104.355469
 20
390.400024
 30
0.0
 11
-104.836975
 21
390.400024
 31
0.0
210
0.0
220
0.0
230
1.0
  0
LINE
  5
4E2
100
AcDbEntity
  8
0
370
    35
390
0
 62
     7
 48
0.036038
100
AcDbLine
 10
-104.836975
 20
390.400024
 30
0.0
 11
-106.278503
 21
390.400024
 31
0.0
210
0.0
220
0.0
230
1.0
  0
LINE
  5
4E3
100
AcDbEntity
  8
0
370
    35
390
0
 62
     7
 48
0.001923
100
AcDbLine
 10
-101.355469
 20
385.400024
 30
0.0
 11
-101.355469
 21
385.476929
 31
0.0
210
0.0
220
0.0
230
1.0
  0
LINE
  5
4E4
100
AcDbEntity
  8
0
370
    35
390
0
 62
     7
 48
0.03604
100
AcDbLine
 10
-101.355469
 20
386.918518
 30
0.0
 11
-101.355469
 21
385.476929
 31
0.0
210
0.0
220
0.0
230
1.0
  0
LINE
  5
4E5
100
AcDbEntity
  8
0
370
    35
390
0
 62
     7
 48
0.012038
100
AcDbLine
 10
-101.355469
 20
386.918518
 30
0.0
 11
-101.355469
 21
387.400024
 31
0.0
210
0.0
220
0.0
230
1.0
  0
ARC
  5
4E6
100
AcDbEntity
  8
0
370
    35
390
0
 62
     7
100
AcDbCircle
 10
-104.355469
 20
387.400024
 30
0.0
 40
3.0
210
0.0
220
0.0
230
1.0
100
AcDbArc
 50
0.0
 51
89.999996
  0
ARC
  5
4E7
100
AcDbEntity
  8
0
370
    35
390
0
 62
     7
100
AcDbCircle
 10
-100.855469
 20
385.400024
 30
0.0
 40
0.5
210
0.0
220
0.0
230
1.0
100
AcDbArc
 50
179.999991
 51
269.999997
  0
LINE
  5
4E8
100
AcDbEntity
  8
0
370
    35
390
0
 62
     7
 48
0.001926
100
AcDbLine
 10
-95.355469
 20
405.922974
 30
0.0
 11
-95.355469
 21
406.0
 31
0.0
210
0.0
220
0.0
230
1.0
  0
LINE
  5
4E9
100
AcDbEntity
  8
0
370
    35
390
0
 62
     7
 48
0.036037
100
AcDbLine
 10
-95.355469
 20
404.481506
 30
0.0
 11
-95.355469
 21
405.922974
 31
0.0
210
0.0
220
0.0
230
1.0
  0
LINE
  5
4EA
100
AcDbEntity
  8
0
370
    35
390
0
 62
     7
 48
0.012038
100
AcDbLine
 10
-95.355469
 20
404.0
 30
0.0
 11
-95.355469
 21
404.481506
 31
0.0
210
0.0
220
0.0
230
1.0
  0
ARC
  5
4EB
100
AcDbEntity
  8
0
370
    35
390
0
 62
     7
100
AcDbCircle
 10
-92.355469
 20
404.0
 30
0.0
 40
3.0
210
0.0
220
0.0
230
1.0
100
AcDbArc
 50
179.999991
 51
269.999997
  0
LINE
  5
4EC
100
AcDbEntity
  8
0
370
    35
390
0
 62
     7
 48
0.012037
100
AcDbLine
 10
-91.873978
 20
401.0
 30
0.0
 11
-92.355469
 21
401.0
 31
0.0
210
0.0
220
0.0
230
1.0
  0
LINE
  5
4ED
100
AcDbEntity
  8
0
370
    35
390
0
 62
     7
 48
0.036038
100
AcDbLine
 10
-91.873978
 20
401.0
 30
0.0
 11
-90.432449
 21
401.0
 31
0.0
210
0.0
220
0.0
230
1.0
  0
LINE
  5
4EE
100
AcDbEntity
  8
0
370
    35
390
0
 62
     7
 48
0.001925
100
AcDbLine
 10
-90.355469
 20
401.0
 30
0.0
 11
-90.432449
 21
401.0
 31
0.0
210
0.0
220
0.0
230
1.0
  0
ARC
  5
4EF
100
AcDbEntity
  8
0
370
    35
390
0
 62
     7
100
AcDbCircle
 10
-90.355469
 20
400.5
 30
0.0
 40
0.5
210
0.0
220
0.0
230
1.0
100
AcDbArc
 50
0.0
 51
90.000003
  0
LINE
  5
4F0
100
AcDbEntity
  8
0
370
    35
390
0
 62
     7
 48
0.000789
100
AcDbLine
 10
-91.855469
 20
385.002625
 30
0.0
 11
-91.8396
 21
384.975342
 31
0.0
210
0.0
220
0.0
230
1.0
  0
LINE
  5
4F1
100
AcDbEntity
  8
0
370
    35
390
0
 62
     7
 48
0.000697
100
AcDbLine
 10
-91.8396
 20
384.975342
 30
0.0
 11
-91.823746
 21
384.952393
 31
0.0
210
0.0
220
0.0
230
1.0
  0
LINE
  5
4F2
100
AcDbEntity
  8
0
370
    35
390
0
 62
     7
 48
0.000546
100
AcDbLine
 10
-91.823746
 20
384.952393
 30
0.0
 11
-91.809769
 21
384.935608
 31
0.0
210
0.0
220
0.0
230
1.0
  0
LINE
  5
4F3
100
AcDbEntity
  8
0
370
    35
390
0
 62
     7
 48
0.000481
100
AcDbLine
 10
-91.809769
 20
384.935608
 30
0.0
 11
-91.795868
 21
384.922302
 31
0.0
210
0.0
220
0.0
230
1.0
  0
LINE
  5
4F4
100
AcDbEntity
  8
0
370
    35
390
0
 62
     7
 48
0.000378
100
AcDbLine
 10
-91.795868
 20
384.922302
 30
0.0
 11
-91.783646
 21
384.913391
 31
0.0
210
0.0
220
0.0
230
1.0
  0
LINE
  5
4F5
100
AcDbEntity
  8
0
370
    35
390
0
 62
     7
 48
0.000341
100
AcDbLine
 10
-91.783646
 20
384.913391
 30
0.0
 11
-91.77153
 21
384.907166
 31
0.0
210
0.0
220
0.0
230
1.0
  0
LINE
  5
4F6
100
AcDbEntity
  8
0
370
    35
390
0
 62
     7
 48
0.000284
100
AcDbLine
 10
-91.77153
 20
384.907166
 30
0.0
 11
-91.760666
 21
384.90387
 31
0.0
210
0.0
220
0.0
230
1.0
  0
LINE
  5
4F7
100
AcDbEntity
  8
0
370
    35
390
0
 62
     7
 48
0.00027
100
AcDbLine
 10
-91.760666
 20
384.90387
 30
0.0
 11
-91.749908
 21
384.902832
 31
0.0
210
0.0
220
0.0
230
1.0
  0
LINE
  5
4F8
100
AcDbEntity
  8
0
370
    35
390
0
 62
     7
 48
0.000061
100
AcDbLine
 10
-91.749908
 20
384.902832
 30
0.0
 11
-91.747452
 21
384.902893
 31
0.0
210
0.0
220
0.0
230
1.0
  0
ARC
  5
4F9
100
AcDbEntity
  8
0
370
    35
390
0
 62
     7
100
AcDbCircle
 10
-101.585587
 20
394.526733
 30
0.0
 40
3.063399
210
0.0
220
0.0
230
1.0
100
AcDbArc
 50
199.821136
 51
205.289481
  0
ARC
  5
4FA
100
AcDbEntity
  8
0
370
    35
390
0
 62
     7
100
AcDbCircle
 10
-101.585907
 20
396.873352
 30
0.0
 40
3.063055
210
0.0
220
0.0
230
1.0
100
AcDbArc
 50
154.710137
 51
160.1787
  0
ARC
  5
4FB
100
AcDbEntity
  8
0
370
    35
390
0
 62
     7
100
AcDbCircle
 10
-98.355469
 20
395.700012
 30
0.0
 40
6.5
210
0.0
220
0.0
230
1.0
100
AcDbArc
 50
160.104156
 51
199.895612
  0
ARC
  5
4FC
100
AcDbEntity
  8
0
370
    35
390
0
 62
     7
100
AcDbCircle
 10
-95.125351
 20
396.87323
 30
0.0
 40
3.063395
210
0.0
220
0.0
230
1.0
100
AcDbArc
 50
19.82113
 51
25.289566
  0
ARC
  5
4FD
100
AcDbEntity
  8
0
370
    35
390
0
 62
     7
100
AcDbCircle
 10
-95.125031
 20
394.526611
 30
0.0
 40
3.063052
210
0.0
220
0.0
230
1.0
100
AcDbArc
 50
334.71006
 51
340.178692
  0
LINE
  5
4FE
100
AcDbEntity
  8
0
370
    35
390
0
 62
     7
 48
0.130384
100
AcDbLine
 10
-97.6138
 20
389.200012
 30
0.0
 11
-93.097137
 21
391.807678
 31
0.0
210
0.0
220
0.0
230
1.0
  0
LINE
  5
4FF
100
AcDbEntity
  8
0
370
    35
390
0
 62
     7
 48
0.037083
100
AcDbLine
 10
-99.097137
 20
389.200012
 30
0.0
 11
-97.6138
 21
389.200012
 31
0.0
210
0.0
220
0.0
230
1.0
  0
LINE
  5
500
100
AcDbEntity
  8
0
370
    35
390
0
 62
     7
 48
0.130384
100
AcDbLine
 10
-103.6138
 20
391.807678
 30
0.0
 11
-99.097137
 21
389.200012
 31
0.0
210
0.0
220
0.0
230
1.0
  0
LINE
  5
501
100
AcDbEntity
  8
0
370
    35
390
0
 62
     7
 48
0.130385
100
AcDbLine
 10
-104.355469
 20
398.307678
 30
0.0
 11
-104.355469
 21
393.092285
 31
0.0
210
0.0
220
0.0
230
1.0
  0
LINE
  5
502
100
AcDbEntity
  8
0
370
    35
390
0
 62
     7
 48
0.037083
100
AcDbLine
 10
-103.6138
 20
391.807678
 30
0.0
 11
-104.355469
 21
393.092285
 31
0.0
210
0.0
220
0.0
230
1.0
  0
LINE
  5
503
100
AcDbEntity
  8
0
370
    35
390
0
 62
     7
 48
0.130385
100
AcDbLine
 10
-99.097137
 20
402.200012
 30
0.0
 11
-103.6138
 21
399.592285
 31
0.0
210
0.0
220
0.0
230
1.0
  0
LINE
  5
504
100
AcDbEntity
  8
0
370
    35
390
0
 62
     7
 48
0.022377
100
AcDbLine
 10
-103.907928
 20
399.082825
 30
0.0
 11
-104.355469
 21
398.307678
 31
0.0
210
0.0
220
0.0
230
1.0
  0
LINE
  5
505
100
AcDbEntity
  8
0
370
    35
390
0
 62
     7
 48
0.014707
100
AcDbLine
 10
-103.907928
 20
399.082825
 30
0.0
 11
-103.6138
 21
399.592285
 31
0.0
210
0.0
220
0.0
230
1.0
  0
LINE
  5
506
100
AcDbEntity
  8
0
370
    35
390
0
 62
     7
 48
0.037083
100
AcDbLine
 10
-97.6138
 20
402.200012
 30
0.0
 11
-99.097137
 21
402.200012
 31
0.0
210
0.0
220
0.0
230
1.0
  0
LINE
  5
507
100
AcDbEntity
  8
0
370
    35
390
0
 62
     7
 48
0.130385
100
AcDbLine
 10
-93.097137
 20
399.592285
 30
0.0
 11
-97.6138
 21
402.200012
 31
0.0
210
0.0
220
0.0
230
1.0
  0
ARC
  5
508
100
AcDbEntity
  8
0
370
    35
390
0
 62
     7
100
AcDbCircle
 10
-98.355469
 20
395.700012
 30
0.0
 40
6.5
210
0.0
220
0.0
230
1.0
100
AcDbArc
 50
340.104161
 51
19.89561
  0
LINE
  5
509
100
AcDbEntity
  8
0
370
    35
390
0
 62
     7
 48
0.022378
100
AcDbLine
 10
-92.803024
 20
392.317078
 30
0.0
 11
-92.355469
 21
393.092285
 31
0.0
210
0.0
220
0.0
230
1.0
  0
LINE
  5
50A
100
AcDbEntity
  8
0
370
    35
390
0
 62
     7
 48
0.014705
100
AcDbLine
 10
-92.803024
 20
392.317078
 30
0.0
 11
-93.097137
 21
391.807678
 31
0.0
210
0.0
220
0.0
230
1.0
  0
CIRCLE
  5
50B
100
AcDbEntity
  8
0
370
    35
390
0
 62
     7
100
AcDbCircle
 10
-98.355469
 20
395.700012
 30
0.0
 40
5.25
210
0.0
220
0.0
230
1.0
  0
LINE
  5
50C
100
AcDbEntity
  8
0
370
    35
390
0
 62
     7
 48
0.130385
100
AcDbLine
 10
-92.355469
 20
398.307678
 30
0.0
 11
-92.355469
 21
393.092285
 31
0.0
210
0.0
220
0.0
230
1.0
  0
LINE
  5
50D
100
AcDbEntity
  8
0
370
    35
390
0
 62
     7
 48
0.037083
100
AcDbLine
 10
-93.097137
 20
399.592285
 30
0.0
 11
-92.355469
 21
398.307678
 31
0.0
210
0.0
220
0.0
230
1.0
  0
LINE
  5
50E
100
AcDbEntity
  8
0
370
    35
390
0
 62
     7
 48
0.006978
100
AcDbLine
 10
-90.46846
 20
405.225403
 30
0.0
 11
-90.190414
 21
405.25
 31
0.0
210
0.0
220
0.0
230
1.0
  0
LINE
  5
50F
100
AcDbEntity
  8
0
370
    35
390
0
 62
     7
 48
0.006978
100
AcDbLine
 10
-90.350708
 20
405.021484
 30
0.0
 11
-90.190414
 21
405.25
 31
0.0
210
0.0
220
0.0
230
1.0
  0
LINE
  5
510
100
AcDbEntity
  8
0
370
    35
390
0
 62
     7
 48
0.006978
100
AcDbLine
 10
-90.606888
 20
405.415955
 30
0.0
 11
-90.332932
 21
405.469482
 31
0.0
210
0.0
220
0.0
230
1.0
  0
LINE
  5
511
100
AcDbEntity
  8
0
370
    35
390
0
 62
     7
 48
0.00698
100
AcDbLine
 10
-90.46846
 20
405.225403
 30
0.0
 11
-90.332932
 21
405.469482
 31
0.0
210
0.0
220
0.0
230
1.0
  0
LINE
  5
512
100
AcDbEntity
  8
0
370
    35
390
0
 62
     7
 48
0.006978
100
AcDbLine
 10
-90.764481
 20
405.591003
 30
0.0
 11
-90.497604
 21
405.672791
 31
0.0
210
0.0
220
0.0
230
1.0
  0
LINE
  5
513
100
AcDbEntity
  8
0
370
    35
390
0
 62
     7
 48
0.006978
100
AcDbLine
 10
-90.606888
 20
405.415955
 30
0.0
 11
-90.497604
 21
405.672791
 31
0.0
210
0.0
220
0.0
230
1.0
  0
LINE
  5
514
100
AcDbEntity
  8
0
370
    35
390
0
 62
     7
 48
0.006978
100
AcDbLine
 10
-90.939499
 20
405.748596
 30
0.0
 11
-90.682648
 21
405.857849
 31
0.0
210
0.0
220
0.0
230
1.0
  0
LINE
  5
515
100
AcDbEntity
  8
0
370
    35
390
0
 62
     7
 48
0.006978
100
AcDbLine
 10
-90.764481
 20
405.591003
 30
0.0
 11
-90.682648
 21
405.857849
 31
0.0
210
0.0
220
0.0
230
1.0
  0
LINE
  5
516
100
AcDbEntity
  8
0
370
    35
390
0
 62
     7
 48
0.006979
100
AcDbLine
 10
-91.130035
 20
405.886963
 30
0.0
 11
-90.886017
 21
406.022522
 31
0.0
210
0.0
220
0.0
230
1.0
  0
LINE
  5
517
100
AcDbEntity
  8
0
370
    35
390
0
 62
     7
 48
0.006977
100
AcDbLine
 10
-90.939499
 20
405.748596
 30
0.0
 11
-90.886017
 21
406.022522
 31
0.0
210
0.0
220
0.0
230
1.0
  0
LINE
  5
518
100
AcDbEntity
  8
0
370
    35
390
0
 62
     7
 48
0.006978
100
AcDbLine
 10
-91.334
 20
406.004761
 30
0.0
 11
-91.105469
 21
406.165039
 31
0.0
210
0.0
220
0.0
230
1.0
  0
LINE
  5
519
100
AcDbEntity
  8
0
370
    35
390
0
 62
     7
 48
0.006979
100
AcDbLine
 10
-91.130035
 20
405.886963
 30
0.0
 11
-91.105469
 21
406.165039
 31
0.0
210
0.0
220
0.0
230
1.0
  0
LINE
  5
51A
100
AcDbEntity
  8
0
370
    35
390
0
 62
     7
 48
0.006979
100
AcDbLine
 10
-91.549149
 20
406.100525
 30
0.0
 11
-91.338638
 21
406.283875
 31
0.0
210
0.0
220
0.0
230
1.0
  0
LINE
  5
51B
100
AcDbEntity
  8
0
370
    35
390
0
 62
     7
 48
0.006979
100
AcDbLine
 10
-91.334
 20
406.004761
 30
0.0
 11
-91.338638
 21
406.283875
 31
0.0
210
0.0
220
0.0
230
1.0
  0
LINE
  5
51C
100
AcDbEntity
  8
0
370
    35
390
0
 62
     7
 48
0.006979
100
AcDbLine
 10
-91.773132
 20
406.173279
 30
0.0
 11
-91.582932
 21
406.377625
 31
0.0
210
0.0
220
0.0
230
1.0
  0
LINE
  5
51D
100
AcDbEntity
  8
0
370
    35
390
0
 62
     7
 48
0.006979
100
AcDbLine
 10
-91.549149
 20
406.100525
 30
0.0
 11
-91.582932
 21
406.377625
 31
0.0
210
0.0
220
0.0
230
1.0
  0
LINE
  5
51E
100
AcDbEntity
  8
0
370
    35
390
0
 62
     7
 48
0.006977
100
AcDbLine
 10
-92.003494
 20
406.22229
 30
0.0
 11
-91.835693
 21
406.445313
 31
0.0
210
0.0
220
0.0
230
1.0
  0
LINE
  5
51F
100
AcDbEntity
  8
0
370
    35
390
0
 62
     7
 48
0.006978
100
AcDbLine
 10
-91.773132
 20
406.173279
 30
0.0
 11
-91.835693
 21
406.445313
 31
0.0
210
0.0
220
0.0
230
1.0
  0
LINE
  5
520
100
AcDbEntity
  8
0
370
    35
390
0
 62
     7
 48
0.00698
100
AcDbLine
 10
-92.237717
 20
406.246887
 30
0.0
 11
-92.094147
 21
406.486328
 31
0.0
210
0.0
220
0.0
230
1.0
  0
LINE
  5
521
100
AcDbEntity
  8
0
370
    35
390
0
 62
     7
 48
0.006979
100
AcDbLine
 10
-92.003494
 20
406.22229
 30
0.0
 11
-92.094147
 21
406.486328
 31
0.0
210
0.0
220
0.0
230
1.0
  0
LINE
  5
522
100
AcDbEntity
  8
0
370
    35
390
0
 62
     7
 48
0.006979
100
AcDbLine
 10
-92.473236
 20
406.246887
 30
0.0
 11
-92.355469
 21
406.5
 31
0.0
210
0.0
220
0.0
230
1.0
  0
LINE
  5
523
100
AcDbEntity
  8
0
370
    35
390
0
 62
     7
 48
0.006979
100
AcDbLine
 10
-92.237717
 20
406.246887
 30
0.0
 11
-92.355469
 21
406.5
 31
0.0
210
0.0
220
0.0
230
1.0
  0
LINE
  5
524
100
AcDbEntity
  8
0
370
    35
390
0
 62
     7
 48
0.006979
100
AcDbLine
 10
-92.707458
 20
406.22229
 30
0.0
 11
-92.616791
 21
406.486328
 31
0.0
210
0.0
220
0.0
230
1.0
  0
LINE
  5
525
100
AcDbEntity
  8
0
370
    35
390
0
 62
     7
 48
0.006979
100
AcDbLine
 10
-92.473236
 20
406.246887
 30
0.0
 11
-92.616791
 21
406.486328
 31
0.0
210
0.0
220
0.0
230
1.0
  0
LINE
  5
526
100
AcDbEntity
  8
0
370
    35
390
0
 62
     7
 48
0.006978
100
AcDbLine
 10
-92.93782
 20
406.173279
 30
0.0
 11
-92.875259
 21
406.445313
 31
0.0
210
0.0
220
0.0
230
1.0
  0
LINE
  5
527
100
AcDbEntity
  8
0
370
    35
390
0
 62
     7
 48
0.006977
100
AcDbLine
 10
-92.707458
 20
406.22229
 30
0.0
 11
-92.875259
 21
406.445313
 31
0.0
210
0.0
220
0.0
230
1.0
  0
LINE
  5
528
100
AcDbEntity
  8
0
370
    35
390
0
 62
     7
 48
0.006979
100
AcDbLine
 10
-93.161804
 20
406.100525
 30
0.0
 11
-93.128021
 21
406.377625
 31
0.0
210
0.0
220
0.0
230
1.0
  0
LINE
  5
529
100
AcDbEntity
  8
0
370
    35
390
0
 62
     7
 48
0.006979
100
AcDbLine
 10
-92.93782
 20
406.173279
 30
0.0
 11
-93.128021
 21
406.377625
 31
0.0
210
0.0
220
0.0
230
1.0
  0
LINE
  5
52A
100
AcDbEntity
  8
0
370
    35
390
0
 62
     7
 48
0.006979
100
AcDbLine
 10
-93.376953
 20
406.004761
 30
0.0
 11
-93.372314
 21
406.283875
 31
0.0
210
0.0
220
0.0
230
1.0
  0
LINE
  5
52B
100
AcDbEntity
  8
0
370
    35
390
0
 62
     7
 48
0.006979
100
AcDbLine
 10
-93.161804
 20
406.100525
 30
0.0
 11
-93.372314
 21
406.283875
 31
0.0
210
0.0
220
0.0
230
1.0
  0
LINE
  5
52C
100
AcDbEntity
  8
0
370
    35
390
0
 62
     7
 48
0.003328
100
AcDbLine
 10
-93.49649
 20
406.088623
 30
0.0
 11
-93.605469
 21
406.165039
 31
0.0
210
0.0
220
0.0
230
1.0
  0
LINE
  5
52D
100
AcDbEntity
  8
0
370
    35
390
0
 62
     7
 48
0.003651
100
AcDbLine
 10
-93.376953
 20
406.004761
 30
0.0
 11
-93.49649
 21
406.088623
 31
0.0
210
0.0
220
0.0
230
1.0
  0
LINE
  5
52E
100
AcDbEntity
  8
0
370
    35
390
0
 62
     7
 48
0.006979
100
AcDbLine
 10
-93.580917
 20
405.886963
 30
0.0
 11
-93.605469
 21
406.165039
 31
0.0
210
0.0
220
0.0
230
1.0
  0
LINE
  5
52F
100
AcDbEntity
  8
0
370
    35
390
0
 62
     7
 48
0.006978
100
AcDbLine
 10
-93.771439
 20
405.748596
 30
0.0
 11
-93.824936
 21
406.022522
 31
0.0
210
0.0
220
0.0
230
1.0
  0
LINE
  5
530
100
AcDbEntity
  8
0
370
    35
390
0
 62
     7
 48
0.006979
100
AcDbLine
 10
-93.580917
 20
405.886963
 30
0.0
 11
-93.824936
 21
406.022522
 31
0.0
210
0.0
220
0.0
230
1.0
  0
LINE
  5
531
100
AcDbEntity
  8
0
370
    35
390
0
 62
     7
 48
0.006978
100
AcDbLine
 10
-93.946457
 20
405.591003
 30
0.0
 11
-94.028305
 21
405.857849
 31
0.0
210
0.0
220
0.0
230
1.0
  0
LINE
  5
532
100
AcDbEntity
  8
0
370
    35
390
0
 62
     7
 48
0.006978
100
AcDbLine
 10
-93.771439
 20
405.748596
 30
0.0
 11
-94.028305
 21
405.857849
 31
0.0
210
0.0
220
0.0
230
1.0
  0
LINE
  5
533
100
AcDbEntity
  8
0
370
    35
390
0
 62
     7
 48
0.006978
100
AcDbLine
 10
-94.10405
 20
405.415955
 30
0.0
 11
-94.213333
 21
405.672791
 31
0.0
210
0.0
220
0.0
230
1.0
  0
LINE
  5
534
100
AcDbEntity
  8
0
370
    35
390
0
 62
     7
 48
0.006978
100
AcDbLine
 10
-93.946457
 20
405.591003
 30
0.0
 11
-94.213333
 21
405.672791
 31
0.0
210
0.0
220
0.0
230
1.0
  0
LINE
  5
535
100
AcDbEntity
  8
0
370
    35
390
0
 62
     7
 48
0.00698
100
AcDbLine
 10
-94.242477
 20
405.225403
 30
0.0
 11
-94.378021
 21
405.469482
 31
0.0
210
0.0
220
0.0
230
1.0
  0
LINE
  5
536
100
AcDbEntity
  8
0
370
    35
390
0
 62
     7
 48
0.006979
100
AcDbLine
 10
-94.10405
 20
405.415955
 30
0.0
 11
-94.378021
 21
405.469482
 31
0.0
210
0.0
220
0.0
230
1.0
  0
LINE
  5
537
100
AcDbEntity
  8
0
370
    35
390
0
 62
     7
 48
0.006978
100
AcDbLine
 10
-94.360245
 20
405.021484
 30
0.0
 11
-94.520538
 21
405.25
 31
0.0
210
0.0
220
0.0
230
1.0
  0
LINE
  5
538
100
AcDbEntity
  8
0
370
    35
390
0
 62
     7
 48
0.006979
100
AcDbLine
 10
-94.242477
 20
405.225403
 30
0.0
 11
-94.520538
 21
405.25
 31
0.0
210
0.0
220
0.0
230
1.0
  0
LINE
  5
539
100
AcDbEntity
  8
0
370
    35
390
0
 62
     7
 48
0.006977
100
AcDbLine
 10
-94.456024
 20
404.806335
 30
0.0
 11
-94.639343
 21
405.016785
 31
0.0
210
0.0
220
0.0
230
1.0
  0
LINE
  5
53A
100
AcDbEntity
  8
0
370
    35
390
0
 62
     7
 48
0.006978
100
AcDbLine
 10
-94.360245
 20
405.021484
 30
0.0
 11
-94.639343
 21
405.016785
 31
0.0
210
0.0
220
0.0
230
1.0
  0
LINE
  5
53B
100
AcDbEntity
  8
0
370
    35
390
0
 62
     7
 48
0.006978
100
AcDbLine
 10
-94.528809
 20
404.582336
 30
0.0
 11
-94.733109
 21
404.772522
 31
0.0
210
0.0
220
0.0
230
1.0
  0
LINE
  5
53C
100
AcDbEntity
  8
0
370
    35
390
0
 62
     7
 48
0.006978
100
AcDbLine
 10
-94.456024
 20
404.806335
 30
0.0
 11
-94.733109
 21
404.772522
 31
0.0
210
0.0
220
0.0
230
1.0
  0
LINE
  5
53D
100
AcDbEntity
  8
0
370
    35
390
0
 62
     7
 48
0.006979
100
AcDbLine
 10
-94.577774
 20
404.351929
 30
0.0
 11
-94.800842
 21
404.519775
 31
0.0
210
0.0
220
0.0
230
1.0
  0
LINE
  5
53E
100
AcDbEntity
  8
0
370
    35
390
0
 62
     7
 48
0.006978
100
AcDbLine
 10
-94.528809
 20
404.582336
 30
0.0
 11
-94.800842
 21
404.519775
 31
0.0
210
0.0
220
0.0
230
1.0
  0
LINE
  5
53F
100
AcDbEntity
  8
0
370
    35
390
0
 62
     7
 48
0.006978
100
AcDbLine
 10
-94.577774
 20
404.351929
 30
0.0
 11
-94.841782
 21
404.261292
 31
0.0
210
0.0
220
0.0
230
1.0
  0
LINE
  5
540
100
AcDbEntity
  8
0
370
    35
390
0
 62
     7
 48
0.006978
100
AcDbLine
 10
-94.602386
 20
404.117737
 30
0.0
 11
-94.841782
 21
404.261292
 31
0.0
210
0.0
220
0.0
230
1.0
  0
LINE
  5
541
100
AcDbEntity
  8
0
370
    35
390
0
 62
     7
 48
0.006978
100
AcDbLine
 10
-94.602386
 20
403.882263
 30
0.0
 11
-94.855469
 21
404.0
 31
0.0
210
0.0
220
0.0
230
1.0
  0
LINE
  5
542
100
AcDbEntity
  8
0
370
    35
390
0
 62
     7
 48
0.006978
100
AcDbLine
 10
-94.602386
 20
404.117737
 30
0.0
 11
-94.855469
 21
404.0
 31
0.0
210
0.0
220
0.0
230
1.0
  0
LINE
  5
543
100
AcDbEntity
  8
0
370
    35
390
0
 62
     7
 48
0.006978
100
AcDbLine
 10
-94.577774
 20
403.64801
 30
0.0
 11
-94.841782
 21
403.738647
 31
0.0
210
0.0
220
0.0
230
1.0
  0
LINE
  5
544
100
AcDbEntity
  8
0
370
    35
390
0
 62
     7
 48
0.006979
100
AcDbLine
 10
-94.602386
 20
403.882263
 30
0.0
 11
-94.841782
 21
403.738647
 31
0.0
210
0.0
220
0.0
230
1.0
  0
LINE
  5
545
100
AcDbEntity
  8
0
370
    35
390
0
 62
     7
 48
0.006978
100
AcDbLine
 10
-94.528809
 20
403.417603
 30
0.0
 11
-94.800842
 21
403.480164
 31
0.0
210
0.0
220
0.0
230
1.0
  0
LINE
  5
546
100
AcDbEntity
  8
0
370
    35
390
0
 62
     7
 48
0.006979
100
AcDbLine
 10
-94.577774
 20
403.64801
 30
0.0
 11
-94.800842
 21
403.480164
 31
0.0
210
0.0
220
0.0
230
1.0
  0
LINE
  5
547
100
AcDbEntity
  8
0
370
    35
390
0
 62
     7
 48
0.006978
100
AcDbLine
 10
-94.456024
 20
403.193665
 30
0.0
 11
-94.733109
 21
403.227478
 31
0.0
210
0.0
220
0.0
230
1.0
  0
LINE
  5
548
100
AcDbEntity
  8
0
370
    35
390
0
 62
     7
 48
0.006977
100
AcDbLine
 10
-94.528809
 20
403.417603
 30
0.0
 11
-94.733109
 21
403.227478
 31
0.0
210
0.0
220
0.0
230
1.0
  0
LINE
  5
549
100
AcDbEntity
  8
0
370
    35
390
0
 62
     7
 48
0.006978
100
AcDbLine
 10
-94.360245
 20
402.978516
 30
0.0
 11
-94.639343
 21
402.983154
 31
0.0
210
0.0
220
0.0
230
1.0
  0
LINE
  5
54A
100
AcDbEntity
  8
0
370
    35
390
0
 62
     7
 48
0.006979
100
AcDbLine
 10
-94.456024
 20
403.193665
 30
0.0
 11
-94.639343
 21
402.983154
 31
0.0
210
0.0
220
0.0
230
1.0
  0
LINE
  5
54B
100
AcDbEntity
  8
0
370
    35
390
0
 62
     7
 48
0.006979
100
AcDbLine
 10
-94.242477
 20
402.774536
 30
0.0
 11
-94.520538
 21
402.75
 31
0.0
210
0.0
220
0.0
230
1.0
  0
LINE
  5
54C
100
AcDbEntity
  8
0
370
    35
390
0
 62
     7
 48
0.006978
100
AcDbLine
 10
-94.360245
 20
402.978516
 30
0.0
 11
-94.520538
 21
402.75
 31
0.0
210
0.0
220
0.0
230
1.0
  0
LINE
  5
54D
100
AcDbEntity
  8
0
370
    35
390
0
 62
     7
 48
0.006979
100
AcDbLine
 10
-94.10405
 20
402.584045
 30
0.0
 11
-94.378021
 21
402.530518
 31
0.0
210
0.0
220
0.0
230
1.0
  0
LINE
  5
54E
100
AcDbEntity
  8
0
370
    35
390
0
 62
     7
 48
0.006978
100
AcDbLine
 10
-94.242477
 20
402.774536
 30
0.0
 11
-94.378021
 21
402.530518
 31
0.0
210
0.0
220
0.0
230
1.0
  0
LINE
  5
54F
100
AcDbEntity
  8
0
370
    35
390
0
 62
     7
 48
0.006979
100
AcDbLine
 10
-93.946457
 20
402.408997
 30
0.0
 11
-94.213333
 21
402.327148
 31
0.0
210
0.0
220
0.0
230
1.0
  0
LINE
  5
550
100
AcDbEntity
  8
0
370
    35
390
0
 62
     7
 48
0.006979
100
AcDbLine
 10
-94.10405
 20
402.584045
 30
0.0
 11
-94.213333
 21
402.327148
 31
0.0
210
0.0
220
0.0
230
1.0
  0
LINE
  5
551
100
AcDbEntity
  8
0
370
    35
390
0
 62
     7
 48
0.006979
100
AcDbLine
 10
-93.771439
 20
402.251404
 30
0.0
 11
-94.028305
 21
402.14209
 31
0.0
210
0.0
220
0.0
230
1.0
  0
LINE
  5
552
100
AcDbEntity
  8
0
370
    35
390
0
 62
     7
 48
0.006979
100
AcDbLine
 10
-93.946457
 20
402.408997
 30
0.0
 11
-94.028305
 21
402.14209
 31
0.0
210
0.0
220
0.0
230
1.0
  0
LINE
  5
553
100
AcDbEntity
  8
0
370
    35
390
0
 62
     7
 48
0.006978
100
AcDbLine
 10
-93.580917
 20
402.112976
 30
0.0
 11
-93.824936
 21
401.977478
 31
0.0
210
0.0
220
0.0
230
1.0
  0
LINE
  5
554
100
AcDbEntity
  8
0
370
    35
390
0
 62
     7
 48
0.006978
100
AcDbLine
 10
-93.771439
 20
402.251404
 30
0.0
 11
-93.824936
 21
401.977478
 31
0.0
210
0.0
220
0.0
230
1.0
  0
LINE
  5
555
100
AcDbEntity
  8
0
370
    35
390
0
 62
     7
 48
0.006979
100
AcDbLine
 10
-93.376953
 20
401.995239
 30
0.0
 11
-93.605469
 21
401.8349
 31
0.0
210
0.0
220
0.0
230
1.0
  0
LINE
  5
556
100
AcDbEntity
  8
0
370
    35
390
0
 62
     7
 48
0.006979
100
AcDbLine
 10
-93.580917
 20
402.112976
 30
0.0
 11
-93.605469
 21
401.8349
 31
0.0
210
0.0
220
0.0
230
1.0
  0
LINE
  5
557
100
AcDbEntity
  8
0
370
    35
390
0
 62
     7
 48
0.006978
100
AcDbLine
 10
-93.161804
 20
401.899414
 30
0.0
 11
-93.372314
 21
401.716125
 31
0.0
210
0.0
220
0.0
230
1.0
  0
LINE
  5
558
100
AcDbEntity
  8
0
370
    35
390
0
 62
     7
 48
0.006979
100
AcDbLine
 10
-93.376953
 20
401.995239
 30
0.0
 11
-93.372314
 21
401.716125
 31
0.0
210
0.0
220
0.0
230
1.0
  0
LINE
  5
559
100
AcDbEntity
  8
0
370
    35
390
0
 62
     7
 48
0.006978
100
AcDbLine
 10
-92.93782
 20
401.82666
 30
0.0
 11
-93.128021
 21
401.622375
 31
0.0
210
0.0
220
0.0
230
1.0
  0
LINE
  5
55A
100
AcDbEntity
  8
0
370
    35
390
0
 62
     7
 48
0.006977
100
AcDbLine
 10
-93.161804
 20
401.899414
 30
0.0
 11
-93.128021
 21
401.622375
 31
0.0
210
0.0
220
0.0
230
1.0
  0
LINE
  5
55B
100
AcDbEntity
  8
0
370
    35
390
0
 62
     7
 48
0.006977
100
AcDbLine
 10
-92.707458
 20
401.777649
 30
0.0
 11
-92.875259
 21
401.554626
 31
0.0
210
0.0
220
0.0
230
1.0
  0
LINE
  5
55C
100
AcDbEntity
  8
0
370
    35
390
0
 62
     7
 48
0.006978
100
AcDbLine
 10
-92.93782
 20
401.82666
 30
0.0
 11
-92.875259
 21
401.554626
 31
0.0
210
0.0
220
0.0
230
1.0
  0
LINE
  5
55D
100
AcDbEntity
  8
0
370
    35
390
0
 62
     7
 48
0.006978
100
AcDbLine
 10
-92.473236
 20
401.753052
 30
0.0
 11
-92.616791
 21
401.513672
 31
0.0
210
0.0
220
0.0
230
1.0
  0
LINE
  5
55E
100
AcDbEntity
  8
0
370
    35
390
0
 62
     7
 48
0.006978
100
AcDbLine
 10
-92.707458
 20
401.777649
 30
0.0
 11
-92.616791
 21
401.513672
 31
0.0
210
0.0
220
0.0
230
1.0
  0
LINE
  5
55F
100
AcDbEntity
  8
0
370
    35
390
0
 62
     7
 48
0.006978
100
AcDbLine
 10
-92.237717
 20
401.753052
 30
0.0
 11
-92.355469
 21
401.5
 31
0.0
210
0.0
220
0.0
230
1.0
  0
LINE
  5
560
100
AcDbEntity
  8
0
370
    35
390
0
 62
     7
 48
0.006978
100
AcDbLine
 10
-92.473236
 20
401.753052
 30
0.0
 11
-92.355469
 21
401.5
 31
0.0
210
0.0
220
0.0
230
1.0
  0
LINE
  5
561
100
AcDbEntity
  8
0
370
    35
390
0
 62
     7
 48
0.006978
100
AcDbLine
 10
-92.003494
 20
401.777649
 30
0.0
 11
-92.094147
 21
401.513672
 31
0.0
210
0.0
220
0.0
230
1.0
  0
LINE
  5
562
100
AcDbEntity
  8
0
370
    35
390
0
 62
     7
 48
0.006978
100
AcDbLine
 10
-92.237717
 20
401.753052
 30
0.0
 11
-92.094147
 21
401.513672
 31
0.0
210
0.0
220
0.0
230
1.0
  0
LINE
  5
563
100
AcDbEntity
  8
0
370
    35
390
0
 62
     7
 48
0.006978
100
AcDbLine
 10
-91.773132
 20
401.82666
 30
0.0
 11
-91.835693
 21
401.554626
 31
0.0
210
0.0
220
0.0
230
1.0
  0
LINE
  5
564
100
AcDbEntity
  8
0
370
    35
390
0
 62
     7
 48
0.006977
100
AcDbLine
 10
-92.003494
 20
401.777649
 30
0.0
 11
-91.835693
 21
401.554626
 31
0.0
210
0.0
220
0.0
230
1.0
  0
LINE
  5
565
100
AcDbEntity
  8
0
370
    35
390
0
 62
     7
 48
0.006977
100
AcDbLine
 10
-91.549149
 20
401.899414
 30
0.0
 11
-91.582932
 21
401.622375
 31
0.0
210
0.0
220
0.0
230
1.0
  0
LINE
  5
566
100
AcDbEntity
  8
0
370
    35
390
0
 62
     7
 48
0.006978
100
AcDbLine
 10
-91.773132
 20
401.82666
 30
0.0
 11
-91.582932
 21
401.622375
 31
0.0
210
0.0
220
0.0
230
1.0
  0
LINE
  5
567
100
AcDbEntity
  8
0
370
    35
390
0
 62
     7
 48
0.006979
100
AcDbLine
 10
-91.334
 20
401.995239
 30
0.0
 11
-91.338638
 21
401.716125
 31
0.0
210
0.0
220
0.0
230
1.0
  0
LINE
  5
568
100
AcDbEntity
  8
0
370
    35
390
0
 62
     7
 48
0.006978
100
AcDbLine
 10
-91.549149
 20
401.899414
 30
0.0
 11
-91.338638
 21
401.716125
 31
0.0
210
0.0
220
0.0
230
1.0
  0
LINE
  5
569
100
AcDbEntity
  8
0
370
    35
390
0
 62
     7
 48
0.003329
100
AcDbLine
 10
-91.214462
 20
401.911377
 30
0.0
 11
-91.105469
 21
401.8349
 31
0.0
210
0.0
220
0.0
230
1.0
  0
LINE
  5
56A
100
AcDbEntity
  8
0
370
    35
390
0
 62
     7
 48
0.003651
100
AcDbLine
 10
-91.334
 20
401.995239
 30
0.0
 11
-91.214462
 21
401.911377
 31
0.0
210
0.0
220
0.0
230
1.0
  0
LINE
  5
56B
100
AcDbEntity
  8
0
370
    35
390
0
 62
     7
 48
0.006979
100
AcDbLine
 10
-91.130035
 20
402.112976
 30
0.0
 11
-91.105469
 21
401.8349
 31
0.0
210
0.0
220
0.0
230
1.0
  0
LINE
  5
56C
100
AcDbEntity
  8
0
370
    35
390
0
 62
     7
 48
0.006977
100
AcDbLine
 10
-90.939499
 20
402.251404
 30
0.0
 11
-90.886017
 21
401.977478
 31
0.0
210
0.0
220
0.0
230
1.0
  0
LINE
  5
56D
100
AcDbEntity
  8
0
370
    35
390
0
 62
     7
 48
0.006978
100
AcDbLine
 10
-91.130035
 20
402.112976
 30
0.0
 11
-90.886017
 21
401.977478
 31
0.0
210
0.0
220
0.0
230
1.0
  0
LINE
  5
56E
100
AcDbEntity
  8
0
370
    35
390
0
 62
     7
 48
0.006979
100
AcDbLine
 10
-90.764481
 20
402.408997
 30
0.0
 11
-90.682648
 21
402.14209
 31
0.0
210
0.0
220
0.0
230
1.0
  0
LINE
  5
56F
100
AcDbEntity
  8
0
370
    35
390
0
 62
     7
 48
0.006979
100
AcDbLine
 10
-90.939499
 20
402.251404
 30
0.0
 11
-90.682648
 21
402.14209
 31
0.0
210
0.0
220
0.0
230
1.0
  0
LINE
  5
570
100
AcDbEntity
  8
0
370
    35
390
0
 62
     7
 48
0.006979
100
AcDbLine
 10
-90.606888
 20
402.584045
 30
0.0
 11
-90.497604
 21
402.327148
 31
0.0
210
0.0
220
0.0
230
1.0
  0
LINE
  5
571
100
AcDbEntity
  8
0
370
    35
390
0
 62
     7
 48
0.006979
100
AcDbLine
 10
-90.764481
 20
402.408997
 30
0.0
 11
-90.497604
 21
402.327148
 31
0.0
210
0.0
220
0.0
230
1.0
  0
LINE
  5
572
100
AcDbEntity
  8
0
370
    35
390
0
 62
     7
 48
0.006978
100
AcDbLine
 10
-90.46846
 20
402.774536
 30
0.0
 11
-90.332932
 21
402.530518
 31
0.0
210
0.0
220
0.0
230
1.0
  0
LINE
  5
573
100
AcDbEntity
  8
0
370
    35
390
0
 62
     7
 48
0.006978
100
AcDbLine
 10
-90.606888
 20
402.584045
 30
0.0
 11
-90.332932
 21
402.530518
 31
0.0
210
0.0
220
0.0
230
1.0
  0
LINE
  5
574
100
AcDbEntity
  8
0
370
    35
390
0
 62
     7
 48
0.006978
100
AcDbLine
 10
-90.350708
 20
402.978516
 30
0.0
 11
-90.190414
 21
402.75
 31
0.0
210
0.0
220
0.0
230
1.0
  0
LINE
  5
575
100
AcDbEntity
  8
0
370
    35
390
0
 62
     7
 48
0.006978
100
AcDbLine
 10
-90.46846
 20
402.774536
 30
0.0
 11
-90.190414
 21
402.75
 31
0.0
210
0.0
220
0.0
230
1.0
  0
LINE
  5
576
100
AcDbEntity
  8
0
370
    35
390
0
 62
     7
 48
0.006978
100
AcDbLine
 10
-90.254913
 20
403.193665
 30
0.0
 11
-90.071609
 21
402.983154
 31
0.0
210
0.0
220
0.0
230
1.0
  0
LINE
  5
577
100
AcDbEntity
  8
0
370
    35
390
0
 62
     7
 48
0.006978
100
AcDbLine
 10
-90.350708
 20
402.978516
 30
0.0
 11
-90.071609
 21
402.983154
 31
0.0
210
0.0
220
0.0
230
1.0
  0
LINE
  5
578
100
AcDbEntity
  8
0
370
    35
390
0
 62
     7
 48
0.006977
100
AcDbLine
 10
-90.182144
 20
403.417603
 30
0.0
 11
-89.977829
 21
403.227478
 31
0.0
210
0.0
220
0.0
230
1.0
  0
LINE
  5
579
100
AcDbEntity
  8
0
370
    35
390
0
 62
     7
 48
0.006978
100
AcDbLine
 10
-90.254913
 20
403.193665
 30
0.0
 11
-89.977829
 21
403.227478
 31
0.0
210
0.0
220
0.0
230
1.0
  0
LINE
  5
57A
100
AcDbEntity
  8
0
370
    35
390
0
 62
     7
 48
0.006979
100
AcDbLine
 10
-90.133179
 20
403.64801
 30
0.0
 11
-89.91011
 21
403.480164
 31
0.0
210
0.0
220
0.0
230
1.0
  0
LINE
  5
57B
100
AcDbEntity
  8
0
370
    35
390
0
 62
     7
 48
0.006978
100
AcDbLine
 10
-90.182144
 20
403.417603
 30
0.0
 11
-89.91011
 21
403.480164
 31
0.0
210
0.0
220
0.0
230
1.0
  0
LINE
  5
57C
100
AcDbEntity
  8
0
370
    35
390
0
 62
     7
 48
0.006979
100
AcDbLine
 10
-90.108551
 20
403.882263
 30
0.0
 11
-89.869171
 21
403.738647
 31
0.0
210
0.0
220
0.0
230
1.0
  0
LINE
  5
57D
100
AcDbEntity
  8
0
370
    35
390
0
 62
     7
 48
0.006978
100
AcDbLine
 10
-90.133179
 20
403.64801
 30
0.0
 11
-89.869171
 21
403.738647
 31
0.0
210
0.0
220
0.0
230
1.0
  0
LINE
  5
57E
100
AcDbEntity
  8
0
370
    35
390
0
 62
     7
 48
0.006978
100
AcDbLine
 10
-90.108551
 20
404.117737
 30
0.0
 11
-89.855469
 21
404.0
 31
0.0
210
0.0
220
0.0
230
1.0
  0
LINE
  5
57F
100
AcDbEntity
  8
0
370
    35
390
0
 62
     7
 48
0.006978
100
AcDbLine
 10
-90.108551
 20
403.882263
 30
0.0
 11
-89.855469
 21
404.0
 31
0.0
210
0.0
220
0.0
230
1.0
  0
LINE
  5
580
100
AcDbEntity
  8
0
370
    35
390
0
 62
     7
 48
0.006978
100
AcDbLine
 10
-90.133179
 20
404.351929
 30
0.0
 11
-89.869171
 21
404.261292
 31
0.0
210
0.0
220
0.0
230
1.0
  0
LINE
  5
581
100
AcDbEntity
  8
0
370
    35
390
0
 62
     7
 48
0.006978
100
AcDbLine
 10
-90.108551
 20
404.117737
 30
0.0
 11
-89.869171
 21
404.261292
 31
0.0
210
0.0
220
0.0
230
1.0
  0
LINE
  5
582
100
AcDbEntity
  8
0
370
    35
390
0
 62
     7
 48
0.006978
100
AcDbLine
 10
-90.182144
 20
404.582336
 30
0.0
 11
-89.91011
 21
404.519775
 31
0.0
210
0.0
220
0.0
230
1.0
  0
LINE
  5
583
100
AcDbEntity
  8
0
370
    35
390
0
 62
     7
 48
0.006979
100
AcDbLine
 10
-90.133179
 20
404.351929
 30
0.0
 11
-89.91011
 21
404.519775
 31
0.0
210
0.0
220
0.0
230
1.0
  0
LINE
  5
584
100
AcDbEntity
  8
0
370
    35
390
0
 62
     7
 48
0.006978
100
AcDbLine
 10
-90.254913
 20
404.806335
 30
0.0
 11
-89.977829
 21
404.772522
 31
0.0
210
0.0
220
0.0
230
1.0
  0
LINE
  5
585
100
AcDbEntity
  8
0
370
    35
390
0
 62
     7
 48
0.006978
100
AcDbLine
 10
-90.182144
 20
404.582336
 30
0.0
 11
-89.977829
 21
404.772522
 31
0.0
210
0.0
220
0.0
230
1.0
  0
LINE
  5
586
100
AcDbEntity
  8
0
370
    35
390
0
 62
     7
 48
0.006978
100
AcDbLine
 10
-90.350708
 20
405.021484
 30
0.0
 11
-90.071609
 21
405.016785
 31
0.0
210
0.0
220
0.0
230
1.0
  0
LINE
  5
587
100
AcDbEntity
  8
0
370
    35
390
0
 62
     7
 48
0.006977
100
AcDbLine
 10
-90.254913
 20
404.806335
 30
0.0
 11
-90.071609
 21
405.016785
 31
0.0
210
0.0
220
0.0
230
1.0
  0
CIRCLE
  5
588
100
AcDbEntity
  8
0
370
    35
390
0
 62
     7
100
AcDbCircle
 10
-92.355469
 20
404.0
 30
0.0
 40
2.0
210
0.0
220
0.0
230
1.0
  0
CIRCLE
  5
589
100
AcDbEntity
  8
0
370
    35
390
0
 62
     7
100
AcDbCircle
 10
-98.355469
 20
395.700012
 30
0.0
 40
5.0
210
0.0
220
0.0
230
1.0
  0
LINE
  5
58A
100
AcDbEntity
  8
0
370
    35
390
0
 62
     7
 48
0.029105
100
AcDbLine
 10
-91.773361
 20
403.0
 30
0.0
 11
-92.937576
 21
403.0
 31
0.0
210
0.0
220
0.0
230
1.0
  0
LINE
  5
58B
100
AcDbEntity
  8
0
370
    35
390
0
 62
     7
 48
0.02875
100
AcDbLine
 10
-92.937576
 20
403.0
 30
0.0
 11
-93.505478
 21
404.0
 31
0.0
210
0.0
220
0.0
230
1.0
  0
LINE
  5
58C
100
AcDbEntity
  8
0
370
    35
390
0
 62
     7
 48
0.02875
100
AcDbLine
 10
-93.505478
 20
404.0
 30
0.0
 11
-92.937576
 21
405.0
 31
0.0
210
0.0
220
0.0
230
1.0
  0
LINE
  5
58D
100
AcDbEntity
  8
0
370
    35
390
0
 62
     7
 48
0.029105
100
AcDbLine
 10
-92.937576
 20
405.0
 30
0.0
 11
-91.773361
 21
405.0
 31
0.0
210
0.0
220
0.0
230
1.0
  0
LINE
  5
58E
100
AcDbEntity
  8
0
370
    35
390
0
 62
     7
 48
0.02875
100
AcDbLine
 10
-91.773361
 20
405.0
 30
0.0
 11
-91.205475
 21
404.0
 31
0.0
210
0.0
220
0.0
230
1.0
  0
LINE
  5
58F
100
AcDbEntity
  8
0
370
    35
390
0
 62
     7
 48
0.02875
100
AcDbLine
 10
-91.205475
 20
404.0
 30
0.0
 11
-91.773361
 21
403.0
 31
0.0
210
0.0
220
0.0
230
1.0
  0
CIRCLE
  5
590
100
AcDbEntity
  8
0
370
    35
390
0
 62
     7
100
AcDbCircle
 10
-98.355469
 20
395.700012
 30
0.0
 40
4.53812
210
0.0
220
0.0
230
1.0
  0
CIRCLE
  5
591
100
AcDbEntity
  8
0
370
    35
390
0
 62
     7
100
AcDbCircle
 10
-98.355469
 20
395.700012
 30
0.0
 40
4.0
210
0.0
220
0.0
230
1.0
  0
LINE
  5
592
100
AcDbEntity
  8
0
370
    35
390
0
 62
     7
 48
0.006978
100
AcDbLine
 10
-106.242477
 20
386.1745
 30
0.0
 11
-106.520538
 21
386.150024
 31
0.0
210
0.0
220
0.0
230
1.0
  0
LINE
  5
593
100
AcDbEntity
  8
0
370
    35
390
0
 62
     7
 48
0.006978
100
AcDbLine
 10
-106.360245
 20
386.37854
 30
0.0
 11
-106.520538
 21
386.150024
 31
0.0
210
0.0
220
0.0
230
1.0
  0
LINE
  5
594
100
AcDbEntity
  8
0
370
    35
390
0
 62
     7
 48
0.006979
100
AcDbLine
 10
-106.10405
 20
385.984009
 30
0.0
 11
-106.378021
 21
385.930481
 31
0.0
210
0.0
220
0.0
230
1.0
  0
LINE
  5
595
100
AcDbEntity
  8
0
370
    35
390
0
 62
     7
 48
0.006978
100
AcDbLine
 10
-106.242477
 20
386.1745
 30
0.0
 11
-106.378021
 21
385.930481
 31
0.0
210
0.0
220
0.0
230
1.0
  0
LINE
  5
596
100
AcDbEntity
  8
0
370
    35
390
0
 62
     7
 48
0.006978
100
AcDbLine
 10
-105.946457
 20
385.80896
 30
0.0
 11
-106.213333
 21
385.727173
 31
0.0
210
0.0
220
0.0
230
1.0
  0
LINE
  5
597
100
AcDbEntity
  8
0
370
    35
390
0
 62
     7
 48
0.006978
100
AcDbLine
 10
-106.10405
 20
385.984009
 30
0.0
 11
-106.213333
 21
385.727173
 31
0.0
210
0.0
220
0.0
230
1.0
  0
LINE
  5
598
100
AcDbEntity
  8
0
370
    35
390
0
 62
     7
 48
0.006979
100
AcDbLine
 10
-105.771439
 20
385.651428
 30
0.0
 11
-106.028305
 21
385.542114
 31
0.0
210
0.0
220
0.0
230
1.0
  0
LINE
  5
599
100
AcDbEntity
  8
0
370
    35
390
0
 62
     7
 48
0.006978
100
AcDbLine
 10
-105.946457
 20
385.80896
 30
0.0
 11
-106.028305
 21
385.542114
 31
0.0
210
0.0
220
0.0
230
1.0
  0
LINE
  5
59A
100
AcDbEntity
  8
0
370
    35
390
0
 62
     7
 48
0.006979
100
AcDbLine
 10
-105.580917
 20
385.513
 30
0.0
 11
-105.824936
 21
385.377441
 31
0.0
210
0.0
220
0.0
230
1.0
  0
LINE
  5
59B
100
AcDbEntity
  8
0
370
    35
390
0
 62
     7
 48
0.006979
100
AcDbLine
 10
-105.771439
 20
385.651428
 30
0.0
 11
-105.824936
 21
385.377441
 31
0.0
210
0.0
220
0.0
230
1.0
  0
LINE
  5
59C
100
AcDbEntity
  8
0
370
    35
390
0
 62
     7
 48
0.006978
100
AcDbLine
 10
-105.376953
 20
385.395203
 30
0.0
 11
-105.605469
 21
385.234924
 31
0.0
210
0.0
220
0.0
230
1.0
  0
LINE
  5
59D
100
AcDbEntity
  8
0
370
    35
390
0
 62
     7
 48
0.006979
100
AcDbLine
 10
-105.580917
 20
385.513
 30
0.0
 11
-105.605469
 21
385.234924
 31
0.0
210
0.0
220
0.0
230
1.0
  0
LINE
  5
59E
100
AcDbEntity
  8
0
370
    35
390
0
 62
     7
 48
0.006979
100
AcDbLine
 10
-105.161804
 20
385.299438
 30
0.0
 11
-105.372314
 21
385.116089
 31
0.0
210
0.0
220
0.0
230
1.0
  0
LINE
  5
59F
100
AcDbEntity
  8
0
370
    35
390
0
 62
     7
 48
0.006979
100
AcDbLine
 10
-105.376953
 20
385.395203
 30
0.0
 11
-105.372314
 21
385.116089
 31
0.0
210
0.0
220
0.0
230
1.0
  0
LINE
  5
5A0
100
AcDbEntity
  8
0
370
    35
390
0
 62
     7
 48
0.006978
100
AcDbLine
 10
-104.93782
 20
385.226624
 30
0.0
 11
-105.128021
 21
385.022339
 31
0.0
210
0.0
220
0.0
230
1.0
  0
LINE
  5
5A1
100
AcDbEntity
  8
0
370
    35
390
0
 62
     7
 48
0.006979
100
AcDbLine
 10
-105.161804
 20
385.299438
 30
0.0
 11
-105.128021
 21
385.022339
 31
0.0
210
0.0
220
0.0
230
1.0
  0
LINE
  5
5A2
100
AcDbEntity
  8
0
370
    35
390
0
 62
     7
 48
0.00698
100
AcDbLine
 10
-104.707443
 20
385.177734
 30
0.0
 11
-104.875259
 21
384.95459
 31
0.0
210
0.0
220
0.0
230
1.0
  0
LINE
  5
5A3
100
AcDbEntity
  8
0
370
    35
390
0
 62
     7
 48
0.006978
100
AcDbLine
 10
-104.93782
 20
385.226624
 30
0.0
 11
-104.875259
 21
384.95459
 31
0.0
210
0.0
220
0.0
230
1.0
  0
LINE
  5
5A4
100
AcDbEntity
  8
0
370
    35
390
0
 62
     7
 48
0.006978
100
AcDbLine
 10
-104.473236
 20
385.153076
 30
0.0
 11
-104.616791
 21
384.913696
 31
0.0
210
0.0
220
0.0
230
1.0
  0
LINE
  5
5A5
100
AcDbEntity
  8
0
370
    35
390
0
 62
     7
 48
0.006979
100
AcDbLine
 10
-104.707443
 20
385.177734
 30
0.0
 11
-104.616791
 21
384.913696
 31
0.0
210
0.0
220
0.0
230
1.0
  0
LINE
  5
5A6
100
AcDbEntity
  8
0
370
    35
390
0
 62
     7
 48
0.006978
100
AcDbLine
 10
-104.237717
 20
385.153076
 30
0.0
 11
-104.355469
 21
384.900024
 31
0.0
210
0.0
220
0.0
230
1.0
  0
LINE
  5
5A7
100
AcDbEntity
  8
0
370
    35
390
0
 62
     7
 48
0.006978
100
AcDbLine
 10
-104.473236
 20
385.153076
 30
0.0
 11
-104.355469
 21
384.900024
 31
0.0
210
0.0
220
0.0
230
1.0
  0
LINE
  5
5A8
100
AcDbEntity
  8
0
370
    35
390
0
 62
     7
 48
0.006979
100
AcDbLine
 10
-104.003494
 20
385.177734
 30
0.0
 11
-104.094147
 21
384.913696
 31
0.0
210
0.0
220
0.0
230
1.0
  0
LINE
  5
5A9
100
AcDbEntity
  8
0
370
    35
390
0
 62
     7
 48
0.006978
100
AcDbLine
 10
-104.237717
 20
385.153076
 30
0.0
 11
-104.094147
 21
384.913696
 31
0.0
210
0.0
220
0.0
230
1.0
  0
LINE
  5
5AA
100
AcDbEntity
  8
0
370
    35
390
0
 62
     7
 48
0.006978
100
AcDbLine
 10
-103.773132
 20
385.226624
 30
0.0
 11
-103.835693
 21
384.95459
 31
0.0
210
0.0
220
0.0
230
1.0
  0
LINE
  5
5AB
100
AcDbEntity
  8
0
370
    35
390
0
 62
     7
 48
0.00698
100
AcDbLine
 10
-104.003494
 20
385.177734
 30
0.0
 11
-103.835693
 21
384.95459
 31
0.0
210
0.0
220
0.0
230
1.0
  0
LINE
  5
5AC
100
AcDbEntity
  8
0
370
    35
390
0
 62
     7
 48
0.006979
100
AcDbLine
 10
-103.549149
 20
385.299438
 30
0.0
 11
-103.582932
 21
385.022339
 31
0.0
210
0.0
220
0.0
230
1.0
  0
LINE
  5
5AD
100
AcDbEntity
  8
0
370
    35
390
0
 62
     7
 48
0.006978
100
AcDbLine
 10
-103.773132
 20
385.226624
 30
0.0
 11
-103.582932
 21
385.022339
 31
0.0
210
0.0
220
0.0
230
1.0
  0
LINE
  5
5AE
100
AcDbEntity
  8
0
370
    35
390
0
 62
     7
 48
0.006979
100
AcDbLine
 10
-103.334
 20
385.395203
 30
0.0
 11
-103.338638
 21
385.116089
 31
0.0
210
0.0
220
0.0
230
1.0
  0
LINE
  5
5AF
100
AcDbEntity
  8
0
370
    35
390
0
 62
     7
 48
0.006979
100
AcDbLine
 10
-103.549149
 20
385.299438
 30
0.0
 11
-103.338638
 21
385.116089
 31
0.0
210
0.0
220
0.0
230
1.0
  0
LINE
  5
5B0
100
AcDbEntity
  8
0
370
    35
390
0
 62
     7
 48
0.003329
100
AcDbLine
 10
-103.214462
 20
385.311401
 30
0.0
 11
-103.105469
 21
385.234924
 31
0.0
210
0.0
220
0.0
230
1.0
  0
LINE
  5
5B1
100
AcDbEntity
  8
0
370
    35
390
0
 62
     7
 48
0.00365
100
AcDbLine
 10
-103.334
 20
385.395203
 30
0.0
 11
-103.214462
 21
385.311401
 31
0.0
210
0.0
220
0.0
230
1.0
  0
LINE
  5
5B2
100
AcDbEntity
  8
0
370
    35
390
0
 62
     7
 48
0.006979
100
AcDbLine
 10
-103.130035
 20
385.513
 30
0.0
 11
-103.105469
 21
385.234924
 31
0.0
210
0.0
220
0.0
230
1.0
  0
LINE
  5
5B3
100
AcDbEntity
  8
0
370
    35
390
0
 62
     7
 48
0.006979
100
AcDbLine
 10
-102.939499
 20
385.651428
 30
0.0
 11
-102.886017
 21
385.377441
 31
0.0
210
0.0
220
0.0
230
1.0
  0
LINE
  5
5B4
100
AcDbEntity
  8
0
370
    35
390
0
 62
     7
 48
0.006979
100
AcDbLine
 10
-103.130035
 20
385.513
 30
0.0
 11
-102.886017
 21
385.377441
 31
0.0
210
0.0
220
0.0
230
1.0
  0
LINE
  5
5B5
100
AcDbEntity
  8
0
370
    35
390
0
 62
     7
 48
0.006978
100
AcDbLine
 10
-102.764481
 20
385.80896
 30
0.0
 11
-102.682648
 21
385.542114
 31
0.0
210
0.0
220
0.0
230
1.0
  0
LINE
  5
5B6
100
AcDbEntity
  8
0
370
    35
390
0
 62
     7
 48
0.006979
100
AcDbLine
 10
-102.939499
 20
385.651428
 30
0.0
 11
-102.682648
 21
385.542114
 31
0.0
210
0.0
220
0.0
230
1.0
  0
LINE
  5
5B7
100
AcDbEntity
  8
0
370
    35
390
0
 62
     7
 48
0.006978
100
AcDbLine
 10
-102.606888
 20
385.984009
 30
0.0
 11
-102.497604
 21
385.727173
 31
0.0
210
0.0
220
0.0
230
1.0
  0
LINE
  5
5B8
100
AcDbEntity
  8
0
370
    35
390
0
 62
     7
 48
0.006978
100
AcDbLine
 10
-102.764481
 20
385.80896
 30
0.0
 11
-102.497604
 21
385.727173
 31
0.0
210
0.0
220
0.0
230
1.0
  0
LINE
  5
5B9
100
AcDbEntity
  8
0
370
    35
390
0
 62
     7
 48
0.006978
100
AcDbLine
 10
-102.46846
 20
386.1745
 30
0.0
 11
-102.332932
 21
385.930481
 31
0.0
210
0.0
220
0.0
230
1.0
  0
LINE
  5
5BA
100
AcDbEntity
  8
0
370
    35
390
0
 62
     7
 48
0.006978
100
AcDbLine
 10
-102.606888
 20
385.984009
 30
0.0
 11
-102.332932
 21
385.930481
 31
0.0
210
0.0
220
0.0
230
1.0
  0
LINE
  5
5BB
100
AcDbEntity
  8
0
370
    35
390
0
 62
     7
 48
0.006978
100
AcDbLine
 10
-102.350708
 20
386.37854
 30
0.0
 11
-102.190414
 21
386.150024
 31
0.0
210
0.0
220
0.0
230
1.0
  0
LINE
  5
5BC
100
AcDbEntity
  8
0
370
    35
390
0
 62
     7
 48
0.006978
100
AcDbLine
 10
-102.46846
 20
386.1745
 30
0.0
 11
-102.190414
 21
386.150024
 31
0.0
210
0.0
220
0.0
230
1.0
  0
LINE
  5
5BD
100
AcDbEntity
  8
0
370
    35
390
0
 62
     7
 48
0.006978
100
AcDbLine
 10
-102.254913
 20
386.593628
 30
0.0
 11
-102.071609
 21
386.383118
 31
0.0
210
0.0
220
0.0
230
1.0
  0
LINE
  5
5BE
100
AcDbEntity
  8
0
370
    35
390
0
 62
     7
 48
0.006978
100
AcDbLine
 10
-102.350708
 20
386.37854
 30
0.0
 11
-102.071609
 21
386.383118
 31
0.0
210
0.0
220
0.0
230
1.0
  0
LINE
  5
5BF
100
AcDbEntity
  8
0
370
    35
390
0
 62
     7
 48
0.006978
100
AcDbLine
 10
-102.182144
 20
386.817627
 30
0.0
 11
-101.977829
 21
386.627441
 31
0.0
210
0.0
220
0.0
230
1.0
  0
LINE
  5
5C0
100
AcDbEntity
  8
0
370
    35
390
0
 62
     7
 48
0.006978
100
AcDbLine
 10
-102.254913
 20
386.593628
 30
0.0
 11
-101.977829
 21
386.627441
 31
0.0
210
0.0
220
0.0
230
1.0
  0
LINE
  5
5C1
100
AcDbEntity
  8
0
370
    35
390
0
 62
     7
 48
0.006978
100
AcDbLine
 10
-102.133179
 20
387.047974
 30
0.0
 11
-101.91011
 21
386.880188
 31
0.0
210
0.0
220
0.0
230
1.0
  0
LINE
  5
5C2
100
AcDbEntity
  8
0
370
    35
390
0
 62
     7
 48
0.006978
100
AcDbLine
 10
-102.182144
 20
386.817627
 30
0.0
 11
-101.91011
 21
386.880188
 31
0.0
210
0.0
220
0.0
230
1.0
  0
LINE
  5
5C3
100
AcDbEntity
  8
0
370
    35
390
0
 62
     7
 48
0.006978
100
AcDbLine
 10
-102.108551
 20
387.282227
 30
0.0
 11
-101.869171
 21
387.138672
 31
0.0
210
0.0
220
0.0
230
1.0
  0
LINE
  5
5C4
100
AcDbEntity
  8
0
370
    35
390
0
 62
     7
 48
0.006979
100
AcDbLine
 10
-102.133179
 20
387.047974
 30
0.0
 11
-101.869171
 21
387.138672
 31
0.0
210
0.0
220
0.0
230
1.0
  0
LINE
  5
5C5
100
AcDbEntity
  8
0
370
    35
390
0
 62
     7
 48
0.006978
100
AcDbLine
 10
-102.108551
 20
387.517761
 30
0.0
 11
-101.855469
 21
387.400024
 31
0.0
210
0.0
220
0.0
230
1.0
  0
LINE
  5
5C6
100
AcDbEntity
  8
0
370
    35
390
0
 62
     7
 48
0.006979
100
AcDbLine
 10
-102.108551
 20
387.282227
 30
0.0
 11
-101.855469
 21
387.400024
 31
0.0
210
0.0
220
0.0
230
1.0
  0
LINE
  5
5C7
100
AcDbEntity
  8
0
370
    35
390
0
 62
     7
 48
0.006978
100
AcDbLine
 10
-102.133179
 20
387.751953
 30
0.0
 11
-101.869171
 21
387.661316
 31
0.0
210
0.0
220
0.0
230
1.0
  0
LINE
  5
5C8
100
AcDbEntity
  8
0
370
    35
390
0
 62
     7
 48
0.006978
100
AcDbLine
 10
-102.108551
 20
387.517761
 30
0.0
 11
-101.869171
 21
387.661316
 31
0.0
210
0.0
220
0.0
230
1.0
  0
LINE
  5
5C9
100
AcDbEntity
  8
0
370
    35
390
0
 62
     7
 48
0.006978
100
AcDbLine
 10
-102.182144
 20
387.9823
 30
0.0
 11
-101.91011
 21
387.919739
 31
0.0
210
0.0
220
0.0
230
1.0
  0
LINE
  5
5CA
100
AcDbEntity
  8
0
370
    35
390
0
 62
     7
 48
0.006978
100
AcDbLine
 10
-102.133179
 20
387.751953
 30
0.0
 11
-101.91011
 21
387.919739
 31
0.0
210
0.0
220
0.0
230
1.0
  0
LINE
  5
5CB
100
AcDbEntity
  8
0
370
    35
390
0
 62
     7
 48
0.006978
100
AcDbLine
 10
-102.254913
 20
388.206299
 30
0.0
 11
-101.977829
 21
388.172546
 31
0.0
210
0.0
220
0.0
230
1.0
  0
LINE
  5
5CC
100
AcDbEntity
  8
0
370
    35
390
0
 62
     7
 48
0.006979
100
AcDbLine
 10
-102.182144
 20
387.9823
 30
0.0
 11
-101.977829
 21
388.172546
 31
0.0
210
0.0
220
0.0
230
1.0
  0
LINE
  5
5CD
100
AcDbEntity
  8
0
370
    35
390
0
 62
     7
 48
0.006978
100
AcDbLine
 10
-102.350708
 20
388.421448
 30
0.0
 11
-102.071609
 21
388.416809
 31
0.0
210
0.0
220
0.0
230
1.0
  0
LINE
  5
5CE
100
AcDbEntity
  8
0
370
    35
390
0
 62
     7
 48
0.006978
100
AcDbLine
 10
-102.254913
 20
388.206299
 30
0.0
 11
-102.071609
 21
388.416809
 31
0.0
210
0.0
220
0.0
230
1.0
  0
LINE
  5
5CF
100
AcDbEntity
  8
0
370
    35
390
0
 62
     7
 48
0.006978
100
AcDbLine
 10
-102.46846
 20
388.625427
 30
0.0
 11
-102.190414
 21
388.650024
 31
0.0
210
0.0
220
0.0
230
1.0
  0
LINE
  5
5D0
100
AcDbEntity
  8
0
370
    35
390
0
 62
     7
 48
0.006979
100
AcDbLine
 10
-102.350708
 20
388.421448
 30
0.0
 11
-102.190414
 21
388.650024
 31
0.0
210
0.0
220
0.0
230
1.0
  0
LINE
  5
5D1
100
AcDbEntity
  8
0
370
    35
390
0
 62
     7
 48
0.006979
100
AcDbLine
 10
-105.771439
 20
389.14856
 30
0.0
 11
-105.824936
 21
389.422546
 31
0.0
210
0.0
220
0.0
230
1.0
  0
LINE
  5
5D2
100
AcDbEntity
  8
0
370
    35
390
0
 62
     7
 48
0.006978
100
AcDbLine
 10
-105.771439
 20
389.14856
 30
0.0
 11
-106.028305
 21
389.257813
 31
0.0
210
0.0
220
0.0
230
1.0
  0
LINE
  5
5D3
100
AcDbEntity
  8
0
370
    35
390
0
 62
     7
 48
0.006978
100
AcDbLine
 10
-105.946457
 20
388.990967
 30
0.0
 11
-106.028305
 21
389.257813
 31
0.0
210
0.0
220
0.0
230
1.0
  0
LINE
  5
5D4
100
AcDbEntity
  8
0
370
    35
390
0
 62
     7
 48
0.006979
100
AcDbLine
 10
-105.946457
 20
388.990967
 30
0.0
 11
-106.213333
 21
389.072815
 31
0.0
210
0.0
220
0.0
230
1.0
  0
LINE
  5
5D5
100
AcDbEntity
  8
0
370
    35
390
0
 62
     7
 48
0.006979
100
AcDbLine
 10
-106.10405
 20
388.815918
 30
0.0
 11
-106.213333
 21
389.072815
 31
0.0
210
0.0
220
0.0
230
1.0
  0
LINE
  5
5D6
100
AcDbEntity
  8
0
370
    35
390
0
 62
     7
 48
0.006979
100
AcDbLine
 10
-106.10405
 20
388.815918
 30
0.0
 11
-106.378021
 21
388.869446
 31
0.0
210
0.0
220
0.0
230
1.0
  0
LINE
  5
5D7
100
AcDbEntity
  8
0
370
    35
390
0
 62
     7
 48
0.006978
100
AcDbLine
 10
-106.242477
 20
388.625427
 30
0.0
 11
-106.378021
 21
388.869446
 31
0.0
210
0.0
220
0.0
230
1.0
  0
LINE
  5
5D8
100
AcDbEntity
  8
0
370
    35
390
0
 62
     7
 48
0.006979
100
AcDbLine
 10
-106.242477
 20
388.625427
 30
0.0
 11
-106.520538
 21
388.650024
 31
0.0
210
0.0
220
0.0
230
1.0
  0
LINE
  5
5D9
100
AcDbEntity
  8
0
370
    35
390
0
 62
     7
 48
0.006979
100
AcDbLine
 10
-106.360245
 20
388.421448
 30
0.0
 11
-106.520538
 21
388.650024
 31
0.0
210
0.0
220
0.0
230
1.0
  0
LINE
  5
5DA
100
AcDbEntity
  8
0
370
    35
390
0
 62
     7
 48
0.006978
100
AcDbLine
 10
-106.360245
 20
388.421448
 30
0.0
 11
-106.639343
 21
388.416809
 31
0.0
210
0.0
220
0.0
230
1.0
  0
LINE
  5
5DB
100
AcDbEntity
  8
0
370
    35
390
0
 62
     7
 48
0.006979
100
AcDbLine
 10
-106.456024
 20
388.206299
 30
0.0
 11
-106.639343
 21
388.416809
 31
0.0
210
0.0
220
0.0
230
1.0
  0
LINE
  5
5DC
100
AcDbEntity
  8
0
370
    35
390
0
 62
     7
 48
0.006978
100
AcDbLine
 10
-106.456024
 20
388.206299
 30
0.0
 11
-106.733109
 21
388.172546
 31
0.0
210
0.0
220
0.0
230
1.0
  0
LINE
  5
5DD
100
AcDbEntity
  8
0
370
    35
390
0
 62
     7
 48
0.006979
100
AcDbLine
 10
-106.528809
 20
387.9823
 30
0.0
 11
-106.733109
 21
388.172546
 31
0.0
210
0.0
220
0.0
230
1.0
  0
LINE
  5
5DE
100
AcDbEntity
  8
0
370
    35
390
0
 62
     7
 48
0.006978
100
AcDbLine
 10
-106.528809
 20
387.9823
 30
0.0
 11
-106.800842
 21
387.919739
 31
0.0
210
0.0
220
0.0
230
1.0
  0
LINE
  5
5DF
100
AcDbEntity
  8
0
370
    35
390
0
 62
     7
 48
0.006978
100
AcDbLine
 10
-106.577774
 20
387.751953
 30
0.0
 11
-106.800842
 21
387.919739
 31
0.0
210
0.0
220
0.0
230
1.0
  0
LINE
  5
5E0
100
AcDbEntity
  8
0
370
    35
390
0
 62
     7
 48
0.006978
100
AcDbLine
 10
-106.577774
 20
387.751953
 30
0.0
 11
-106.841782
 21
387.661316
 31
0.0
210
0.0
220
0.0
230
1.0
  0
LINE
  5
5E1
100
AcDbEntity
  8
0
370
    35
390
0
 62
     7
 48
0.006978
100
AcDbLine
 10
-106.602386
 20
387.517761
 30
0.0
 11
-106.841782
 21
387.661316
 31
0.0
210
0.0
220
0.0
230
1.0
  0
LINE
  5
5E2
100
AcDbEntity
  8
0
370
    35
390
0
 62
     7
 48
0.006978
100
AcDbLine
 10
-106.602386
 20
387.517761
 30
0.0
 11
-106.855469
 21
387.400024
 31
0.0
210
0.0
220
0.0
230
1.0
  0
LINE
  5
5E3
100
AcDbEntity
  8
0
370
    35
390
0
 62
     7
 48
0.006979
100
AcDbLine
 10
-106.602386
 20
387.282227
 30
0.0
 11
-106.855469
 21
387.400024
 31
0.0
210
0.0
220
0.0
230
1.0
  0
LINE
  5
5E4
100
AcDbEntity
  8
0
370
    35
390
0
 62
     7
 48
0.006978
100
AcDbLine
 10
-106.602386
 20
387.282227
 30
0.0
 11
-106.841782
 21
387.138672
 31
0.0
210
0.0
220
0.0
230
1.0
  0
LINE
  5
5E5
100
AcDbEntity
  8
0
370
    35
390
0
 62
     7
 48
0.006979
100
AcDbLine
 10
-106.577774
 20
387.047974
 30
0.0
 11
-106.841782
 21
387.138672
 31
0.0
210
0.0
220
0.0
230
1.0
  0
LINE
  5
5E6
100
AcDbEntity
  8
0
370
    35
390
0
 62
     7
 48
0.006978
100
AcDbLine
 10
-106.577774
 20
387.047974
 30
0.0
 11
-106.800842
 21
386.880188
 31
0.0
210
0.0
220
0.0
230
1.0
  0
LINE
  5
5E7
100
AcDbEntity
  8
0
370
    35
390
0
 62
     7
 48
0.006978
100
AcDbLine
 10
-106.528809
 20
386.817627
 30
0.0
 11
-106.800842
 21
386.880188
 31
0.0
210
0.0
220
0.0
230
1.0
  0
LINE
  5
5E8
100
AcDbEntity
  8
0
370
    35
390
0
 62
     7
 48
0.006978
100
AcDbLine
 10
-106.528809
 20
386.817627
 30
0.0
 11
-106.733109
 21
386.627441
 31
0.0
210
0.0
220
0.0
230
1.0
  0
LINE
  5
5E9
100
AcDbEntity
  8
0
370
    35
390
0
 62
     7
 48
0.006978
100
AcDbLine
 10
-106.456024
 20
386.593628
 30
0.0
 11
-106.733109
 21
386.627441
 31
0.0
210
0.0
220
0.0
230
1.0
  0
LINE
  5
5EA
100
AcDbEntity
  8
0
370
    35
390
0
 62
     7
 48
0.006979
100
AcDbLine
 10
-106.456024
 20
386.593628
 30
0.0
 11
-106.639343
 21
386.383118
 31
0.0
210
0.0
220
0.0
230
1.0
  0
LINE
  5
5EB
100
AcDbEntity
  8
0
370
    35
390
0
 62
     7
 48
0.006978
100
AcDbLine
 10
-106.360245
 20
386.37854
 30
0.0
 11
-106.639343
 21
386.383118
 31
0.0
210
0.0
220
0.0
230
1.0
  0
CIRCLE
  5
5EC
100
AcDbEntity
  8
0
370
    35
390
0
 62
     7
100
AcDbCircle
 10
-104.355469
 20
387.400024
 30
0.0
 40
2.0
210
0.0
220
0.0
230
1.0
  0
LINE
  5
5ED
100
AcDbEntity
  8
0
370
    35
390
0
 62
     7
 48
0.003328
100
AcDbLine
 10
-105.49649
 20
389.488586
 30
0.0
 11
-105.605469
 21
389.565063
 31
0.0
210
0.0
220
0.0
230
1.0
  0
LINE
  5
5EE
100
AcDbEntity
  8
0
370
    35
390
0
 62
     7
 48
0.006979
100
AcDbLine
 10
-105.580917
 20
389.286987
 30
0.0
 11
-105.605469
 21
389.565063
 31
0.0
210
0.0
220
0.0
230
1.0
  0
LINE
  5
5EF
100
AcDbEntity
  8
0
370
    35
390
0
 62
     7
 48
0.006979
100
AcDbLine
 10
-105.580917
 20
389.286987
 30
0.0
 11
-105.824936
 21
389.422546
 31
0.0
210
0.0
220
0.0
230
1.0
  0
LINE
  5
5F0
100
AcDbEntity
  8
0
370
    35
390
0
 62
     7
 48
0.006978
100
AcDbLine
 10
-102.46846
 20
388.625427
 30
0.0
 11
-102.332932
 21
388.869446
 31
0.0
210
0.0
220
0.0
230
1.0
  0
LINE
  5
5F1
100
AcDbEntity
  8
0
370
    35
390
0
 62
     7
 48
0.006978
100
AcDbLine
 10
-102.606888
 20
388.815918
 30
0.0
 11
-102.332932
 21
388.869446
 31
0.0
210
0.0
220
0.0
230
1.0
  0
LINE
  5
5F2
100
AcDbEntity
  8
0
370
    35
390
0
 62
     7
 48
0.006979
100
AcDbLine
 10
-102.606888
 20
388.815918
 30
0.0
 11
-102.497604
 21
389.072815
 31
0.0
210
0.0
220
0.0
230
1.0
  0
LINE
  5
5F3
100
AcDbEntity
  8
0
370
    35
390
0
 62
     7
 48
0.006979
100
AcDbLine
 10
-102.764481
 20
388.990967
 30
0.0
 11
-102.497604
 21
389.072815
 31
0.0
210
0.0
220
0.0
230
1.0
  0
LINE
  5
5F4
100
AcDbEntity
  8
0
370
    35
390
0
 62
     7
 48
0.006978
100
AcDbLine
 10
-102.764481
 20
388.990967
 30
0.0
 11
-102.682648
 21
389.257813
 31
0.0
210
0.0
220
0.0
230
1.0
  0
LINE
  5
5F5
100
AcDbEntity
  8
0
370
    35
390
0
 62
     7
 48
0.006978
100
AcDbLine
 10
-102.939499
 20
389.14856
 30
0.0
 11
-102.682648
 21
389.257813
 31
0.0
210
0.0
220
0.0
230
1.0
  0
LINE
  5
5F6
100
AcDbEntity
  8
0
370
    35
390
0
 62
     7
 48
0.006979
100
AcDbLine
 10
-102.939499
 20
389.14856
 30
0.0
 11
-102.886017
 21
389.422546
 31
0.0
210
0.0
220
0.0
230
1.0
  0
LINE
  5
5F7
100
AcDbEntity
  8
0
370
    35
390
0
 62
     7
 48
0.006979
100
AcDbLine
 10
-103.130035
 20
389.286987
 30
0.0
 11
-102.886017
 21
389.422546
 31
0.0
210
0.0
220
0.0
230
1.0
  0
LINE
  5
5F8
100
AcDbEntity
  8
0
370
    35
390
0
 62
     7
 48
0.006979
100
AcDbLine
 10
-103.130035
 20
389.286987
 30
0.0
 11
-103.105469
 21
389.565063
 31
0.0
210
0.0
220
0.0
230
1.0
  0
LINE
  5
5F9
100
AcDbEntity
  8
0
370
    35
390
0
 62
     7
 48
0.006978
100
AcDbLine
 10
-103.334
 20
389.404785
 30
0.0
 11
-103.105469
 21
389.565063
 31
0.0
210
0.0
220
0.0
230
1.0
  0
LINE
  5
5FA
100
AcDbEntity
  8
0
370
    35
390
0
 62
     7
 48
0.006977
100
AcDbLine
 10
-103.334
 20
389.404785
 30
0.0
 11
-103.338638
 21
389.683838
 31
0.0
210
0.0
220
0.0
230
1.0
  0
LINE
  5
5FB
100
AcDbEntity
  8
0
370
    35
390
0
 62
     7
 48
0.006978
100
AcDbLine
 10
-103.549149
 20
389.500549
 30
0.0
 11
-103.338638
 21
389.683838
 31
0.0
210
0.0
220
0.0
230
1.0
  0
LINE
  5
5FC
100
AcDbEntity
  8
0
370
    35
390
0
 62
     7
 48
0.006977
100
AcDbLine
 10
-103.549149
 20
389.500549
 30
0.0
 11
-103.582932
 21
389.777588
 31
0.0
210
0.0
220
0.0
230
1.0
  0
LINE
  5
5FD
100
AcDbEntity
  8
0
370
    35
390
0
 62
     7
 48
0.006978
100
AcDbLine
 10
-103.773132
 20
389.573303
 30
0.0
 11
-103.582932
 21
389.777588
 31
0.0
210
0.0
220
0.0
230
1.0
  0
LINE
  5
5FE
100
AcDbEntity
  8
0
370
    35
390
0
 62
     7
 48
0.006978
100
AcDbLine
 10
-103.773132
 20
389.573303
 30
0.0
 11
-103.835693
 21
389.845337
 31
0.0
210
0.0
220
0.0
230
1.0
  0
LINE
  5
5FF
100
AcDbEntity
  8
0
370
    35
390
0
 62
     7
 48
0.006977
100
AcDbLine
 10
-104.003494
 20
389.622314
 30
0.0
 11
-103.835693
 21
389.845337
 31
0.0
210
0.0
220
0.0
230
1.0
  0
LINE
  5
600
100
AcDbEntity
  8
0
370
    35
390
0
 62
     7
 48
0.006978
100
AcDbLine
 10
-104.003494
 20
389.622314
 30
0.0
 11
-104.094147
 21
389.886292
 31
0.0
210
0.0
220
0.0
230
1.0
  0
LINE
  5
601
100
AcDbEntity
  8
0
370
    35
390
0
 62
     7
 48
0.006978
100
AcDbLine
 10
-104.237717
 20
389.646912
 30
0.0
 11
-104.094147
 21
389.886292
 31
0.0
210
0.0
220
0.0
230
1.0
  0
LINE
  5
602
100
AcDbEntity
  8
0
370
    35
390
0
 62
     7
 48
0.006979
100
AcDbLine
 10
-104.237717
 20
389.646912
 30
0.0
 11
-104.355469
 21
389.900024
 31
0.0
210
0.0
220
0.0
230
1.0
  0
LINE
  5
603
100
AcDbEntity
  8
0
370
    35
390
0
 62
     7
 48
0.006979
100
AcDbLine
 10
-104.473236
 20
389.646912
 30
0.0
 11
-104.355469
 21
389.900024
 31
0.0
210
0.0
220
0.0
230
1.0
  0
LINE
  5
604
100
AcDbEntity
  8
0
370
    35
390
0
 62
     7
 48
0.006978
100
AcDbLine
 10
-104.473236
 20
389.646912
 30
0.0
 11
-104.616791
 21
389.886292
 31
0.0
210
0.0
220
0.0
230
1.0
  0
LINE
  5
605
100
AcDbEntity
  8
0
370
    35
390
0
 62
     7
 48
0.006978
100
AcDbLine
 10
-104.707443
 20
389.622314
 30
0.0
 11
-104.616791
 21
389.886292
 31
0.0
210
0.0
220
0.0
230
1.0
  0
LINE
  5
606
100
AcDbEntity
  8
0
370
    35
390
0
 62
     7
 48
0.006978
100
AcDbLine
 10
-104.707443
 20
389.622314
 30
0.0
 11
-104.875259
 21
389.845337
 31
0.0
210
0.0
220
0.0
230
1.0
  0
LINE
  5
607
100
AcDbEntity
  8
0
370
    35
390
0
 62
     7
 48
0.006978
100
AcDbLine
 10
-104.93782
 20
389.573303
 30
0.0
 11
-104.875259
 21
389.845337
 31
0.0
210
0.0
220
0.0
230
1.0
  0
LINE
  5
608
100
AcDbEntity
  8
0
370
    35
390
0
 62
     7
 48
0.006978
100
AcDbLine
 10
-104.93782
 20
389.573303
 30
0.0
 11
-105.128021
 21
389.777588
 31
0.0
210
0.0
220
0.0
230
1.0
  0
LINE
  5
609
100
AcDbEntity
  8
0
370
    35
390
0
 62
     7
 48
0.006977
100
AcDbLine
 10
-105.161804
 20
389.500549
 30
0.0
 11
-105.128021
 21
389.777588
 31
0.0
210
0.0
220
0.0
230
1.0
  0
LINE
  5
60A
100
AcDbEntity
  8
0
370
    35
390
0
 62
     7
 48
0.006978
100
AcDbLine
 10
-105.161804
 20
389.500549
 30
0.0
 11
-105.372314
 21
389.683838
 31
0.0
210
0.0
220
0.0
230
1.0
  0
LINE
  5
60B
100
AcDbEntity
  8
0
370
    35
390
0
 62
     7
 48
0.006977
100
AcDbLine
 10
-105.376953
 20
389.404785
 30
0.0
 11
-105.372314
 21
389.683838
 31
0.0
210
0.0
220
0.0
230
1.0
  0
LINE
  5
60C
100
AcDbEntity
  8
0
370
    35
390
0
 62
     7
 48
0.00365
100
AcDbLine
 10
-105.376953
 20
389.404785
 30
0.0
 11
-105.49649
 21
389.488586
 31
0.0
210
0.0
220
0.0
230
1.0
  0
LINE
  5
60D
100
AcDbEntity
  8
0
370
    35
390
0
 62
     7
 48
0.029105
100
AcDbLine
 10
-103.773361
 20
386.400024
 30
0.0
 11
-104.937576
 21
386.400024
 31
0.0
210
0.0
220
0.0
230
1.0
  0
LINE
  5
60E
100
AcDbEntity
  8
0
370
    35
390
0
 62
     7
 48
0.02875
100
AcDbLine
 10
-104.937576
 20
386.400024
 30
0.0
 11
-105.505478
 21
387.400024
 31
0.0
210
0.0
220
0.0
230
1.0
  0
LINE
  5
60F
100
AcDbEntity
  8
0
370
    35
390
0
 62
     7
 48
0.02875
100
AcDbLine
 10
-105.505478
 20
387.400024
 30
0.0
 11
-104.937576
 21
388.400024
 31
0.0
210
0.0
220
0.0
230
1.0
  0
LINE
  5
610
100
AcDbEntity
  8
0
370
    35
390
0
 62
     7
 48
0.029105
100
AcDbLine
 10
-104.937576
 20
388.400024
 30
0.0
 11
-103.773361
 21
388.400024
 31
0.0
210
0.0
220
0.0
230
1.0
  0
LINE
  5
611
100
AcDbEntity
  8
0
370
    35
390
0
 62
     7
 48
0.02875
100
AcDbLine
 10
-103.773361
 20
388.400024
 30
0.0
 11
-103.205475
 21
387.400024
 31
0.0
210
0.0
220
0.0
230
1.0
  0
LINE
  5
612
100
AcDbEntity
  8
0
370
    35
390
0
 62
     7
 48
0.02875
100
AcDbLine
 10
-103.205475
 20
387.400024
 30
0.0
 11
-103.773361
 21
386.400024
 31
0.0
210
0.0
220
0.0
230
1.0
  0
LINE
  5
613
100
AcDbEntity
  8
0
370
    35
390
0
 62
     7
 48
0.00015
100
AcDbLine
 10
-89.655472
 20
404.800293
 30
0.0
 11
-89.655472
 21
404.806274
 31
0.0
210
0.0
220
0.0
230
1.0
  0
LINE
  5
614
100
AcDbEntity
  8
0
370
    35
390
0
 62
     7
 48
0.000302
100
AcDbLine
 10
-89.655472
 20
406.0
 30
0.0
 11
-89.655838
 21
405.987915
 31
0.0
210
0.0
220
0.0
230
1.0
  0
LINE
  5
615
100
AcDbEntity
  8
0
370
    35
390
0
 62
     7
 48
0.000302
100
AcDbLine
 10
-89.655838
 20
385.412109
 30
0.0
 11
-89.655472
 21
385.400024
 31
0.0
210
0.0
220
0.0
230
1.0
  0
ARC
  5
616
100
AcDbEntity
  8
0
370
    35
390
0
 62
     7
100
AcDbCircle
 10
-104.855469
 20
404.5
 30
0.0
 40
2.0
210
0.0
220
0.0
230
1.0
100
AcDbArc
 50
90.000003
 51
93.840256
  0
ARC
  5
617
100
AcDbEntity
  8
0
370
    35
390
0
 62
     7
100
AcDbCircle
 10
-91.855469
 20
386.900024
 30
0.0
 40
2.0
210
0.0
220
0.0
230
1.0
100
AcDbArc
 50
269.999997
 51
273.840265
  0
LINE
  5
618
100
AcDbEntity
  8
0
370
    35
390
0
 62
     7
 48
0.1
100
AcDbLine
 10
50.35553
 20
403.25
 30
0.0
 11
54.35553
 21
403.25
 31
0.0
210
0.0
220
0.0
230
1.0
  0
LINE
  5
619
100
AcDbEntity
  8
0
370
    35
390
0
 62
     7
 48
0.1
100
AcDbLine
 10
54.35553
 20
398.75
 30
0.0
 11
50.35553
 21
398.75
 31
0.0
210
0.0
220
0.0
230
1.0
  0
ARC
  5
61A
100
AcDbEntity
  8
0
370
    35
390
0
 62
     7
100
AcDbCircle
 10
54.35553
 20
401.0
 30
0.0
 40
2.25
210
0.0
220
0.0
230
1.0
100
AcDbArc
 50
269.999997
 51
90.000003
  0
ARC
  5
61B
100
AcDbEntity
  8
0
370
    35
390
0
 62
     7
100
AcDbCircle
 10
50.35553
 20
401.0
 30
0.0
 40
2.25
210
0.0
220
0.0
230
1.0
100
AcDbArc
 50
90.000003
 51
269.999997
  0
LINE
  5
61C
100
AcDbEntity
  8
0
370
    35
390
0
 62
     7
 48
0.1
100
AcDbLine
 10
106.355545
 20
403.25
 30
0.0
 11
110.355545
 21
403.25
 31
0.0
210
0.0
220
0.0
230
1.0
  0
LINE
  5
61D
100
AcDbEntity
  8
0
370
    35
390
0
 62
     7
 48
0.1
100
AcDbLine
 10
110.355545
 20
398.75
 30
0.0
 11
106.355545
 21
398.75
 31
0.0
210
0.0
220
0.0
230
1.0
  0
ARC
  5
61E
100
AcDbEntity
  8
0
370
    35
390
0
 62
     7
100
AcDbCircle
 10
110.355545
 20
401.0
 30
0.0
 40
2.25
210
0.0
220
0.0
230
1.0
100
AcDbArc
 50
269.999997
 51
90.000003
  0
ARC
  5
61F
100
AcDbEntity
  8
0
370
    35
390
0
 62
     7
100
AcDbCircle
 10
106.355545
 20
401.0
 30
0.0
 40
2.25
210
0.0
220
0.0
230
1.0
100
AcDbArc
 50
90.000003
 51
269.999997
  0
ENDSEC
  0
SECTION
  2
OBJECTS
  0
DICTIONARY
  5
19
100
AcDbDictionary
280
     0
281
     1
  3
ACAD_GROUP
350
1A
  3
ACAD_MLINESTYLE
350
1B
  3
ACAD_LAYOUT
350
1E
  3
ACAD_PLOTSETTINGS
350
22
  3
ACAD_PLOTSTYLENAME
350
1F
  3
ACAD_WIPEOUT_VARS
350
23
  0
DICTIONARY
  5
1A
102
{ACAD_REACTORS
330
19
102
}
100
AcDbDictionary
280
     0
281
     1
  0
DICTIONARY
  5
1B
102
{ACAD_REACTORS
330
19
102
}
100
AcDbDictionary
280
     0
281
     1
  3
Standard
350
1C
  0
MLINESTYLE
  5
1C
102
{ACAD_REACTORS
330
1B
102
}
100
AcDbMlineStyle
  2
Standard
 70
     0
  3

 62
     0
 51
90.0
 52
90.0
 71
     2
 49
0.5
 62
   256
  6
ByLayer
 49
-0.5
 62
   256
  6
ByLayer
  0
ACDBDICTIONARYWDFLT
  5
1F
102
{ACAD_REACTORS
330
19
102
}
100
AcDbDictionary
281
     1
  3
Normal
350
1D
100
AcDbDictionaryWithDefault
340
1D
  0
ACDBPLACEHOLDER
  5
1D
102
{ACAD_REACTORS
330
1F
102
}
  0
LAYOUT
  5
20
102
{ACAD_REACTORS
330
1E
102
}
100
AcDbPlotSettings
  1

  2

  4

  6

 40
0.0
 41
0.0
 42
0.0
 43
0.0
 44
0.0
 45
0.0
 46
0.0
 47
0.0
 48
0.0
 49
0.0
140
0.0
141
0.0
142
1.0
143
1.0
 70
  1024
 72
     0
 73
     0
 74
     0
  7

 75
     0
147
1.0
148
0.0
149
0.0
100
AcDbLayout
  1
Model
 70
     0
 71
     0
 10
0.0
 20
0.0
 11
0.0
 21
0.0
 12
0.0
 22
0.0
 32
0.0
 14
0.0
 24
0.0
 34
0.0
 15
0.0
 25
0.0
 35
0.0
146
0.0
 13
0.0
 23
0.0
 33
0.0
 16
0.0
 26
0.0
 36
0.0
 17
0.0
 27
0.0
 37
0.0
 76
     0
330
A
331
0
345
0
346
0
  0
LAYOUT
  5
21
102
{ACAD_REACTORS
330
1E
102
}
100
AcDbPlotSettings
  1

  2

  4

  6

 40
0.0
 41
0.0
 42
0.0
 43
0.0
 44
0.0
 45
0.0
 46
0.0
 47
0.0
 48
0.0
 49
0.0
140
0.0
141
0.0
142
1.0
143
1.0
 70
     0
 72
     0
 73
     0
 74
     0
  7

 75
     0
147
1.0
148
0.0
149
0.0
100
AcDbLayout
  1
Layout1
 70
     0
 71
     0
 10
0.0
 20
0.0
 11
0.0
 21
0.0
 12
0.0
 22
0.0
 32
0.0
 14
0.0
 24
0.0
 34
0.0
 15
0.0
 25
0.0
 35
0.0
146
0.0
 13
0.0
 23
0.0
 33
0.0
 16
0.0
 26
0.0
 36
0.0
 17
0.0
 27
0.0
 37
0.0
 76
     0
330
B
331
0
345
0
346
0
  0
DICTIONARY
  5
1E
102
{ACAD_REACTORS
330
19
102
}
100
AcDbDictionary
280
     0
281
     1
  3
Layout1
350
21
  3
Model
350
20
  0
DICTIONARY
  5
22
102
{ACAD_REACTORS
330
19
102
}
100
AcDbDictionary
280
     0
281
     1
  0
WIPEOUTVARIABLES
  5
23
100
AcDbWipeoutVariables
 70
     1
  0
ENDSEC
  0
EOF
