  0
SECTION
  2
HEADER
  9
$ACADVER
  1
AC1009
  9
$INSBASE
 10
0
 20
0
 30
0
  9
$EXTMIN
 10
0
 20
0
  9
$EXTMAX
 10
1682
 20
1188
  9
$LIMMIN
 10
0
 20
0
  9
$LIMMAX
 10
1682
 20
1188
  9
$LTSCALE
 40
2
  0
ENDSEC
  0
SECTION
  2
TABLES
  0
TABLE
  2
LTYPE
 70
     9
  0
LTYPE
  2
CONTINUOUS
 70
    64
  3
実線
 72
    65
 73
     0
 40
0.0
  0
LTYPE
  2
DASHED1
 70
    64
  3
--  --  --  --  --  --  --  --  
 72
    65
 73
     2
 40
2.5
 49
1.25
 49
-1.25
  0
LTYPE
  2
DASHED2
 70
    64
  3
----    ----    ----    ----    
 72
    65
 73
     2
 40
5.0
 49
2.5
 49
-2.5
  0
LTYPE
  2
DASHED3
 70
    64
  3
------  ------  ------  ------  
 72
    65
 73
     2
 40
5.0
 49
3.75
 49
-1.25
  0
LTYPE
  2
CENTER1
 70
    64
  3
----- - ----- - ----- - ----- - 
 72
    65
 73
     4
 40
10.0
 49
6.25
 49
-1.25
 49
1.25
 49
-1.25
  0
LTYPE
  2
CENTER2
 70
    64
  3
----------  --  ----------  --  
 72
    65
 73
     4
 40
20.0
 49
12.5
 49
-2.5
 49
2.5
 49
-2.5
  0
LTYPE
  2
PHANTOM1
 70
    64
  3
--- - - --- - - --- - - --- - - 
 72
    65
 73
     6
 40
10.0
 49
3.25
 49
-1.25
 49
1.25
 49
-1.25
 49
1.25
 49
-1.25
  0
LTYPE
  2
PHANTOM2
 70
    64
  3
--------  -  -  --------  -  -  
 72
    65
 73
     6
 40
20.0
 49
10.0
 49
-2.5
 49
1.25
 49
-2.5
 49
1.25
 49
-2.5
  0
LTYPE
  2
DOT
 70
    64
  3
-   -   -   -   -   -   -   -   
 72
    65
 73
     2
 40
2.5
 49
0.625
 49
-1.875
  0
LTYPE
  2
DUMMY
 70
    64
  3
ダミー
 72
    65
 73
     0
 40
0.0
  0
LTYPE
  2
RAND1
 70
    64
  3
ランダム線1
 72
    65
 73
     4
 40
10.0
 49
1.0
 49
-2.0
 49
3.0
 49
-4.0
  0
LTYPE
  2
RAND2
 70
    64
  3
ランダム線2
 72
    65
 73
     4
 40
14.0
 49
2.0
 49
-3.0
 49
4.0
 49
-5.0
  0
LTYPE
  2
RAND3
 70
    64
  3
ランダム線3
 72
    65
 73
     4
 40
18.0
 49
3.0
 49
-4.0
 49
5.0
 49
-6.0
  0
LTYPE
  2
RAND4
 70
    64
  3
ランダム線4
 72
    65
 73
     4
 40
22.0
 49
4.0
 49
-5.0
 49
6.0
 49
-7.0
  0
LTYPE
  2
RAND5
 70
    64
  3
ランダム線5
 72
    65
 73
     4
 40
26.0
 49
5.0
 49
-6.0
 49
7.0
 49
-8.0
  0
LTYPE
  2
LONG1
 70
    64
  3
----------  --  ----------  --  
 72
    65
 73
     4
 40
40.0
 49
32.5
 49
-2.5
 49
2.5
 49
-2.5
  0
LTYPE
  2
LONG2
 70
    64
  3
--------  -  -  --------  -  -  
 72
    65
 73
     6
 40
40.0
 49
30.0
 49
-2.5
 49
1.25
 49
-2.5
 49
1.25
 49
-2.5
  0
LTYPE
  2
LONG3
 70
    64
  3
+++++++++++++++..+++++++++++++++
 72
    65
 73
     2
 40
40.0
 49
37.5
 49
-2.5
  0
LTYPE
  2
LONG4
 70
    64
  3
+++++++++++++++..+++++++++++++++
 72
    65
 73
     2
 40
80.0
 49
75.0
 49
-5.0
  0
LTYPE
  2
LONG5
 70
    64
  3
----------  --  ----------  --  
 72
    65
 73
     4
 40
60.0
 49
37.5
 49
-7.5
 49
7.5
 49
-7.5
  0
LTYPE
  2
dashed
 70
   64
  3
-------   -------------   ------
 72
   65
 73
    2
 40
7.5
 49
6
 49
-1.5
  0
LTYPE
  2
dashed_spaced
 70
   64
  3
----        --------        ----
 72
   65
 73
    2
 40
12
 49
6
 49
-6
  0
LTYPE
  2
long_dashed_dotted
 70
   64
  3
------------- --- --------------
 72
   65
 73
    4
 40
15.25
 49
12
 49
-1.5
 49
0.25
 49
-1.5
  0
LTYPE
  2
long_dashed_double-dotted
 70
   64
  3
----------- --- --- ------------
 72
   65
 73
    6
 40
17
 49
12
 49
-1.5
 49
0.25
 49
-1.5
 49
0.25
 49
-1.5
  0
LTYPE
  2
long_dashed_triplicate-dotted
 70
   64
  3
--------- --- --- --- ----------
 72
   65
 73
    8
 40
18.75
 49
12
 49
-1.5
 49
0.25
 49
-1.5
 49
0.25
 49
-1.5
 49
0.25
 49
-1.5
  0
LTYPE
  2
dotted
 70
   64
  3
   -       -       -       -    
 72
   65
 73
    2
 40
1.75
 49
0.25
 49
-1.5
  0
LTYPE
  2
chain
 70
   64
  3
-------------- -- --------------
 72
   65
 73
    4
 40
18.5
 49
12
 49
-1.5
 49
3.5
 49
-1.5
  0
LTYPE
  2
chain_double_dash
 70
   64
  3
------------ -- -- -------------
 72
   65
 73
    6
 40
23.5
 49
12
 49
-1.5
 49
3.5
 49
-1.5
 49
3.5
 49
-1.5
  0
LTYPE
  2
dashed_dotted
 70
   64
  3
-----------     -     ----------
 72
   65
 73
    4
 40
9.25
 49
6
 49
-1.5
 49
0.25
 49
-1.5
  0
LTYPE
  2
double-dashed_dotted
 70
   64
  3
------   -----------   -   -----
 72
   65
 73
    6
 40
16.75
 49
6
 49
-1.5
 49
6
 49
-1.5
 49
0.25
 49
-1.5
  0
LTYPE
  2
dashed_double-dotted
 70
   64
  3
---------    -    -    ---------
 72
   65
 73
    6
 40
11
 49
6
 49
-1.5
 49
0.25
 49
-1.5
 49
0.25
 49
-1.5
  0
LTYPE
  2
double-dashed_double-dotted
 70
   64
  3
-----   ---------   -   -   ----
 72
   65
 73
    8
 40
18.5
 49
6
 49
-1.5
 49
6
 49
-1.5
 49
0.25
 49
-1.5
 49
0.25
 49
-1.5
  0
LTYPE
  2
dashed_triplicate-dotted
 70
   64
  3
-------    -    -    -    ------
 72
   65
 73
    8
 40
12.75
 49
6
 49
-1.5
 49
0.25
 49
-1.5
 49
0.25
 49
-1.5
 49
0.25
 49
-1.5
  0
LTYPE
  2
double-dashed_triplicate-dotted
 70
   64
  3
-----  ---------  -  -  -  -----
 72
   65
 73
   10
 40
20.25
 49
6
 49
-1.5
 49
6
 49
-1.5
 49
0.25
 49
-1.5
 49
0.25
 49
-1.5
 49
0.25
 49
-1.5
  0
LTYPE
  2
undefined
 70
   64
  3
--------------------------------
 72
   65
 73
    0
 40
0
  0
ENDTAB
  0
TABLE
  2
STYLE
  5
3
100
AcDbSymbolTable
 70
     1
  0
STYLE
  5
10
100
AcDbSymbolTableRecord
100
AcDbTextStyleTableRecord
  2
STANDARD
 70
     0
 40
0.0
 41
1.0
 50
0.0
 71
     0
 42
0.2
  3
txt
  4
bigfont.shx
  0
STYLE
  5
26
100
AcDbSymbolTableRecord
100
AcDbTextStyleTableRecord
  2
TATEGAKI
 70
    68
 40
0.0
 41
1.0
 50
0.0
 71
     0
 42
1.0
  3
txt
  4
bigfont.shx
  0
ENDTAB
  0
TABLE
  2
LAYER
 70
    2
  0
LAYER
  2
_0-0_0
 70
   64
 62
    7
  6
CONTINUOUS
  0
LAYER
  2
ADD_LINE
 70
   64
 62
    7
  6
CONTINUOUS
  0
ENDTAB
  0
ENDSEC
  0
SECTION
  2
BLOCKS
  0
ENDSEC
  0
SECTION
  2
ENTITIES
  0
POINT
  8
_0-0_0
 62
    7
 10
-237.9975895
 20
768.89999399999999
  0
LINE
  8
_0-0_0
  6
CONTINUOUS
 62
    7
 10
-344.99761949999993
 20
809.90048200000001
 11
-344.99761949999993
 21
809.89947499999994
  0
LINE
  8
_0-0_0
  6
CONTINUOUS
 62
    7
 10
-318.49761949999993
 20
775.55499299999997
 11
-318.49761949999993
 21
777.79998799999998
  0
LINE
  8
_0-0_0
  6
CONTINUOUS
 62
    7
 10
-318.49761949999993
 20
777.79998799999998
 11
-318.49761949999993
 21
779.79998799999998
  0
LINE
  8
_0-0_0
  6
CONTINUOUS
 62
    7
 10
-318.49761949999993
 20
779.79998799999998
 11
-318.49761949999993
 21
780.29998799999998
  0
LINE
  8
_0-0_0
  6
CONTINUOUS
 62
    7
 10
-318.49761949999993
 20
780.29998799999998
 11
-318.49761949999993
 21
781.29998799999998
  0
LINE
  8
_0-0_0
  6
CONTINUOUS
 62
    7
 10
-318.49761949999993
 20
757.19998199999998
 11
-318.49761949999993
 21
775.55499299999997
  0
LINE
  8
_0-0_0
  6
CONTINUOUS
 62
    7
 10
-221.9975895
 20
779.29998799999998
 11
-221.9975895
 21
779.79998799999998
  0
LINE
  8
_0-0_0
  6
CONTINUOUS
 62
    7
 10
-221.9975895
 20
780.29998799999998
 11
-221.9975895
 21
781.29998799999998
  0
LINE
  8
_0-0_0
  6
CONTINUOUS
 62
    7
 10
-221.9975895
 20
779.79998799999998
 11
-221.9975895
 21
780.29998799999998
  0
ARC
  8
_0-0_0
  6
CONTINUOUS
 62
    7
 10
-235.9975895
 20
775.55499299999997
 40
0.5
 50
0
 51
123.74898500000002
  0
ARC
  8
_0-0_0
  6
CONTINUOUS
 62
    7
 10
-237.4975895
 20
777.79998799999998
 40
2.2000000000000002
 50
180.00000900000003
 51
303.74900400000001
  0
LINE
  8
_0-0_0
  6
CONTINUOUS
 62
    7
 10
-239.69760150000002
 20
777.79998799999998
 11
-239.69760150000002
 21
779.29998799999998
  0
LINE
  8
_0-0_0
  6
CONTINUOUS
 62
    7
 10
-314.29760749999991
 20
779.29998799999998
 11
-239.69760150000002
 21
779.29998799999998
  0
LINE
  8
_0-0_0
  6
CONTINUOUS
 62
    7
 10
-314.29760749999991
 20
779.29998799999998
 11
-314.29760749999991
 21
777.79998799999998
  0
ARC
  8
_0-0_0
  6
CONTINUOUS
 62
    7
 10
-316.49761949999993
 20
777.79998799999998
 40
2.2000000000000002
 50
236.25102899999999
 51
0
  0
ARC
  8
_0-0_0
  6
CONTINUOUS
 62
    7
 10
-317.99761949999993
 20
775.55499299999997
 40
0.5
 50
56.251010000000008
 51
180.00000900000001
  0
ARC
  8
_0-0_0
  6
CONTINUOUS
 62
    7
 10
-316.49761949999993
 20
757.19998199999998
 40
2
 50
180.00000900000003
 51
269.99999700000001
  0
LINE
  8
_0-0_0
  6
CONTINUOUS
 62
    7
 10
-316.49761949999993
 20
755.19998199999998
 11
-315.49761949999993
 21
755.19998199999998
  0
LINE
  8
_0-0_0
  6
CONTINUOUS
 62
    7
 10
-315.49761949999993
 20
755.19998199999998
 11
-315.49761949999993
 21
756.79998799999998
  0
ARC
  8
_0-0_0
  6
CONTINUOUS
 62
    7
 10
-314.99761949999993
 20
756.79998799999998
 40
0.5
 50
90.000003000000007
 51
180.00000900000001
  0
LINE
  8
_0-0_0
  6
CONTINUOUS
 62
    7
 10
-314.79760749999991
 20
757.29998799999998
 11
-314.99761949999993
 21
757.29998799999998
  0
ARC
  8
_0-0_0
  6
CONTINUOUS
 62
    7
 10
-314.79760749999991
 20
756.79998799999998
 40
0.5
 50
90.000003000000007
 51
180.00000900000001
  0
LINE
  8
_0-0_0
  6
CONTINUOUS
 62
    7
 10
-315.29760749999991
 20
755.29998799999998
 11
-315.29760749999991
 21
756.79998799999998
  0
LINE
  8
_0-0_0
  6
CONTINUOUS
 62
    7
 10
-245.69760150000002
 20
755.29998799999998
 11
-315.29760749999991
 21
755.29998799999998
  0
LINE
  8
_0-0_0
  6
CONTINUOUS
 62
    7
 10
-245.69760150000002
 20
755.29998799999998
 11
-245.69760150000002
 21
756.79998799999998
  0
ARC
  8
_0-0_0
  6
CONTINUOUS
 62
    7
 10
-246.19760150000002
 20
756.79998799999998
 40
0.5
 50
0
 51
90.000003000000007
  0
LINE
  8
_0-0_0
  6
CONTINUOUS
 62
    7
 10
-245.9975895
 20
757.29998799999998
 11
-246.19760150000002
 21
757.29998799999998
  0
ARC
  8
_0-0_0
  6
CONTINUOUS
 62
    7
 10
-245.9975895
 20
756.79998799999998
 40
0.5
 50
0
 51
90.000003000000007
  0
LINE
  8
_0-0_0
  6
CONTINUOUS
 62
    7
 10
-245.4975895
 20
756.79998799999998
 11
-245.4975895
 21
755.19998199999998
  0
LINE
  8
_0-0_0
  6
CONTINUOUS
 62
    7
 10
-245.4975895
 20
755.19998199999998
 11
-235.4975895
 21
755.19998199999998
  0
LINE
  8
_0-0_0
  6
CONTINUOUS
 62
    7
 10
-235.4975895
 20
755.19998199999998
 11
-235.4975895
 21
756.09997599999997
  0
LINE
  8
_0-0_0
  6
CONTINUOUS
 62
    7
 10
-299.49761949999993
 20
758.704071
 11
-258.09762550000005
 21
758.704071
  0
LINE
  8
_0-0_0
  6
CONTINUOUS
 62
    7
 10
-299.49761949999993
 20
778.29998799999998
 11
-258.09762550000005
 21
778.29998799999998
  0
ARC
  8
_0-0_0
  6
CONTINUOUS
 62
    7
 10
-246.79760749999991
 20
757.49997000000008
 40
0.2
 50
180.00000900000003
 51
269.99999700000001
  0
LINE
  8
_0-0_0
  6
CONTINUOUS
 62
    7
 10
-246.79760749999991
 20
757.29998799999998
 11
-314.19760150000002
 21
757.29998799999998
  0
ARC
  8
_0-0_0
  6
CONTINUOUS
 62
    7
 10
-314.19760150000002
 20
757.49997000000008
 40
0.2
 50
269.99999700000001
 51
0
  0
ARC
  8
_0-0_0
  6
CONTINUOUS
 62
    7
 10
-313.79760749999991
 20
757.49997000000008
 40
0.2
 50
90.000003000000007
 51
180.00000900000001
  0
LINE
  8
_0-0_0
  6
CONTINUOUS
 62
    7
 10
-313.79760749999991
 20
757.69998199999998
 11
-247.19760150000002
 21
757.69998199999998
  0
ARC
  8
_0-0_0
  6
CONTINUOUS
 62
    7
 10
-247.19760150000002
 20
757.49997000000008
 40
0.2
 50
0
 51
90.000003000000007
  0
LINE
  8
_0-0_0
  6
CONTINUOUS
 62
    7
 10
-318.49761949999993
 20
780.29998799999998
 11
-221.9975895
 21
780.29998799999998
  0
LINE
  8
_0-0_0
  6
CONTINUOUS
 62
    7
 10
-222.4975895
 20
779.29998799999998
 11
-221.9975895
 21
779.29998799999998
  0
LINE
  8
_0-0_0
  6
CONTINUOUS
 62
    7
 10
-235.4975895
 20
757.29998799999998
 11
-235.4975895
 21
756.09997599999997
  0
LINE
  8
_0-0_0
  6
CONTINUOUS
 62
    7
 10
-235.4975895
 20
757.29998799999998
 11
-235.4975895
 21
774.89999399999999
  0
LINE
  8
_0-0_0
  6
CONTINUOUS
 62
    7
 10
-235.4975895
 20
776.87734999999998
 11
-235.4975895
 21
774.89999399999999
  0
LINE
  8
_0-0_0
  6
CONTINUOUS
 62
    7
 10
-316.49761949999993
 20
763.78967299999999
 11
-316.49761949999993
 21
774.23767099999998
  0
ARC
  8
_0-0_0
  6
CONTINUOUS
 62
    7
 10
-316.49761949999993
 20
777.79998799999998
 40
2.7000000000000002
 50
285.68033600000007
 51
352.23356600000005
  0
LINE
  8
_0-0_0
  6
CONTINUOUS
 62
    7
 10
-239.4975895
 20
775.29998799999998
 11
-239.4975895
 21
761.69998199999998
  0
LINE
  8
_0-0_0
  6
CONTINUOUS
 62
    7
 10
-314.49761949999993
 20
779.29998799999998
 11
-314.29760749999991
 21
779.29998799999998
  0
LINE
  8
_0-0_0
  6
CONTINUOUS
 62
    7
 10
-314.49761949999993
 20
779.29998799999998
 11
-314.49761949999993
 21
777.79998799999998
  0
ARC
  8
_0-0_0
  6
CONTINUOUS
 62
    7
 10
-316.49761949999993
 20
777.79998799999998
 40
2
 50
180.00000900000003
 51
0.0000000000000254
  0
LINE
  8
_0-0_0
  6
CONTINUOUS
 62
    7
 10
-222.4975895
 20
779.29998799999998
 11
-222.4975895
 21
777.59997599999997
  0
LINE
  8
_0-0_0
  6
CONTINUOUS
 62
    7
 10
-235.4975895
 20
755.29998799999998
 11
-223.4975895
 21
755.29998799999998
  0
LINE
  8
_0-0_0
  6
CONTINUOUS
 62
    7
 10
-223.4975895
 20
755.29998799999998
 11
-218.82217450000007
 21
755.29998799999998
  0
LINE
  8
_0-0_0
  6
CONTINUOUS
 62
    7
 10
-223.4975895
 20
760.79998799999998
 11
-223.4975895
 21
757.79998799999998
  0
LINE
  8
_0-0_0
  6
CONTINUOUS
 62
    7
 10
-223.4975895
 20
757.79998799999998
 11
-223.4975895
 21
757.29998799999998
  0
LINE
  8
_0-0_0
  6
CONTINUOUS
 62
    7
 10
-223.4975895
 20
760.79998799999998
 11
-223.4975895
 21
761.29998799999998
  0
ARC
  8
_0-0_0
  6
CONTINUOUS
 62
    7
 10
-229.49761949999993
 20
760.60000600000001
 40
0.500016
 50
180.00117
 51
359.995611
  0
LINE
  8
_0-0_0
  6
CONTINUOUS
 62
    7
 10
-228.9975895
 20
760.59997599999997
 11
-228.9975895
 21
772.59997599999997
  0
ARC
  8
_0-0_0
  6
CONTINUOUS
 62
    7
 10
-229.49761949999993
 20
772.59997599999997
 40
0.500016
 50
0.001164
 51
179.99560600000004
  0
LINE
  8
_0-0_0
  6
CONTINUOUS
 62
    7
 10
-229.9975895
 20
760.59997599999997
 11
-229.9975895
 21
772.59997599999997
  0
ARC
  8
_0-0_0
  6
CONTINUOUS
 62
    7
 10
-227.99761949999993
 20
760.60000600000001
 40
0.500016
 50
180.00117
 51
359.995611
  0
LINE
  8
_0-0_0
  6
CONTINUOUS
 62
    7
 10
-227.4975895
 20
760.59997599999997
 11
-227.4975895
 21
772.59997599999997
  0
ARC
  8
_0-0_0
  6
CONTINUOUS
 62
    7
 10
-227.99761949999993
 20
772.59997599999997
 40
0.500016
 50
0.001164
 51
179.99560600000004
  0
LINE
  8
_0-0_0
  6
CONTINUOUS
 62
    7
 10
-228.4975895
 20
760.59997599999997
 11
-228.4975895
 21
772.59997599999997
  0
ARC
  8
_0-0_0
  6
CONTINUOUS
 62
    7
 10
-226.49761949999993
 20
760.60000600000001
 40
0.500016
 50
180.00117
 51
359.995611
  0
LINE
  8
_0-0_0
  6
CONTINUOUS
 62
    7
 10
-225.9975895
 20
760.59997599999997
 11
-225.9975895
 21
772.59997599999997
  0
ARC
  8
_0-0_0
  6
CONTINUOUS
 62
    7
 10
-226.49761949999993
 20
772.59997599999997
 40
0.500016
 50
0.001164
 51
179.99560600000004
  0
LINE
  8
_0-0_0
  6
CONTINUOUS
 62
    7
 10
-226.9975895
 20
760.59997599999997
 11
-226.9975895
 21
772.59997599999997
  0
ARC
  8
_0-0_0
  6
CONTINUOUS
 62
    7
 10
-224.99761949999993
 20
760.60000600000001
 40
0.500016
 50
180.00117
 51
359.995611
  0
LINE
  8
_0-0_0
  6
CONTINUOUS
 62
    7
 10
-224.4975895
 20
760.59997599999997
 11
-224.4975895
 21
772.59997599999997
  0
ARC
  8
_0-0_0
  6
CONTINUOUS
 62
    7
 10
-224.99761949999993
 20
772.59997599999997
 40
0.500016
 50
0.001164
 51
179.99560600000004
  0
LINE
  8
_0-0_0
  6
CONTINUOUS
 62
    7
 10
-225.4975895
 20
760.59997599999997
 11
-225.4975895
 21
772.59997599999997
  0
LINE
  8
_0-0_0
  6
CONTINUOUS
 62
    7
 10
-235.4975895
 20
777.59997599999997
 11
-235.4975895
 21
776.87734999999998
  0
LINE
  8
_0-0_0
  6
CONTINUOUS
 62
    7
 10
-222.4975895
 20
777.59997599999997
 11
-235.4975895
 21
777.59997599999997
  0
LINE
  8
_0-0_0
  6
CONTINUOUS
 62
    7
 10
-235.4975895
 20
779.29998799999998
 11
-222.4975895
 21
779.29998799999998
  0
LINE
  8
_0-0_0
  6
CONTINUOUS
 62
    7
 10
-235.4975895
 20
779.29998799999998
 11
-235.4975895
 21
777.59997599999997
  0
LINE
  8
_0-0_0
  6
CONTINUOUS
 62
    7
 10
-246.04760749999991
 20
757.27694700000006
 11
-246.04760749999991
 21
757.29998799999998
  0
ARC
  8
_0-0_0
  6
CONTINUOUS
 62
    7
 10
-218.82217450000007
 20
757.29998799999998
 40
2
 50
269.99999700000001
 51
288.43501300000003
  0
LINE
  8
_0-0_0
  6
CONTINUOUS
 62
    7
 10
-239.69760150000002
 20
779.29998799999998
 11
-239.4975895
 21
779.29998799999998
  0
ARC
  8
_0-0_0
  6
CONTINUOUS
 62
    7
 10
-237.4975895
 20
777.79998799999998
 40
2
 50
180.00000900000003
 51
0.0000000000000254
  0
LINE
  8
_0-0_0
  6
CONTINUOUS
 62
    7
 10
-239.4975895
 20
777.79998799999998
 11
-239.4975895
 21
779.29998799999998
  0
LINE
  8
_0-0_0
  6
CONTINUOUS
 62
    7
 10
-217.74761949999993
 20
755.54998799999998
 11
-218.18972750000012
 21
755.40261899999996
  0
ARC
  8
_0-0_0
  6
CONTINUOUS
 62
    7
 10
-248.4975895
 20
770.89999399999999
 40
2.25
 50
269.99999700000001
 51
90.000002999999992
  0
LINE
  8
_0-0_0
  6
CONTINUOUS
 62
    7
 10
-252.49761949999993
 20
768.64999399999999
 11
-248.4975895
 21
768.64999399999999
  0
ARC
  8
_0-0_0
  6
CONTINUOUS
 62
    7
 10
-252.49761949999993
 20
770.89999399999999
 40
2.25
 50
90.000003000000007
 51
269.99999700000006
  0
ARC
  8
_0-0_0
  6
CONTINUOUS
 62
    7
 10
-304.49761949999993
 20
770.89999399999999
 40
2.25
 50
269.99999700000001
 51
90.000002999999992
  0
LINE
  8
_0-0_0
  6
CONTINUOUS
 62
    7
 10
-308.49761949999993
 20
768.64999399999999
 11
-304.49761949999993
 21
768.64999399999999
  0
ARC
  8
_0-0_0
  6
CONTINUOUS
 62
    7
 10
-308.49761949999993
 20
770.89999399999999
 40
2.25
 50
90.000003000000007
 51
269.99999700000006
  0
LINE
  8
_0-0_0
  6
CONTINUOUS
 62
    7
 10
-252.49761949999993
 20
773.14999399999999
 11
-248.4975895
 21
773.14999399999999
  0
LINE
  8
_0-0_0
  6
CONTINUOUS
 62
    7
 10
-308.49761949999993
 20
773.14999399999999
 11
-304.49761949999993
 21
773.14999399999999
  0
LINE
  8
_0-0_0
  6
CONTINUOUS
 62
    7
 10
-246.25698850000003
 20
766.89999399999999
 11
-254.7382204999999
 21
766.89999399999999
  0
LINE
  8
_0-0_0
  6
CONTINUOUS
 62
    7
 10
-246.25698850000003
 20
766.89999399999999
 11
-243.94760150000002
 21
770.89999399999999
  0
LINE
  8
_0-0_0
  6
CONTINUOUS
 62
    7
 10
-243.94760150000002
 20
770.89999399999999
 11
-246.25698850000003
 21
774.89999399999999
  0
LINE
  8
_0-0_0
  6
CONTINUOUS
 62
    7
 10
-254.7382204999999
 20
774.89999399999999
 11
-246.25698850000003
 21
774.89999399999999
  0
LINE
  8
_0-0_0
  6
CONTINUOUS
 62
    7
 10
-257.04760749999991
 20
770.89999399999999
 11
-254.7382204999999
 21
774.89999399999999
  0
LINE
  8
_0-0_0
  6
CONTINUOUS
 62
    7
 10
-254.7382204999999
 20
766.89999399999999
 11
-257.04760749999991
 21
770.89999399999999
  0
LINE
  8
_0-0_0
  6
CONTINUOUS
 62
    7
 10
-302.25701950000007
 20
766.89999399999999
 11
-310.73818949999986
 21
766.89999399999999
  0
LINE
  8
_0-0_0
  6
CONTINUOUS
 62
    7
 10
-299.94760150000002
 20
770.89999399999999
 11
-302.25701950000007
 21
766.89999399999999
  0
LINE
  8
_0-0_0
  6
CONTINUOUS
 62
    7
 10
-299.94760150000002
 20
770.89999399999999
 11
-302.25701950000007
 21
774.89999399999999
  0
LINE
  8
_0-0_0
  6
CONTINUOUS
 62
    7
 10
-310.73818949999986
 20
774.89999399999999
 11
-302.25701950000007
 21
774.89999399999999
  0
LINE
  8
_0-0_0
  6
CONTINUOUS
 62
    7
 10
-313.04760749999991
 20
770.89999399999999
 11
-310.73818949999986
 21
774.89999399999999
  0
LINE
  8
_0-0_0
  6
CONTINUOUS
 62
    7
 10
-313.04760749999991
 20
770.89999399999999
 11
-310.73818949999986
 21
766.89999399999999
  0
CIRCLE
  8
_0-0_0
  6
CONTINUOUS
 62
    7
 10
-237.4975895
 20
777.79998799999998
 40
1.4750000000000001
  0
CIRCLE
  8
_0-0_0
  6
CONTINUOUS
 62
    7
 10
-316.49761949999993
 20
777.79998799999998
 40
1.4750000000000001
  0
LINE
  8
_0-0_0
  6
CONTINUOUS
 62
    7
 10
-237.04760749999991
 20
777.59997599999997
 11
-236.39761350000003
 21
777.59997599999997
  0
ARC
  8
_0-0_0
  6
CONTINUOUS
 62
    7
 10
-237.04760749999991
 20
777.34997599999997
 40
0.25
 50
90.000003000000007
 51
180.00000900000001
  0
LINE
  8
_0-0_0
  6
CONTINUOUS
 62
    7
 10
-237.29760749999991
 20
777.34997599999997
 11
-237.29760749999991
 21
776.69998199999998
  0
LINE
  8
_0-0_0
  6
CONTINUOUS
 62
    7
 10
-237.69760150000002
 20
776.69998199999998
 11
-237.29760749999991
 21
776.69998199999998
  0
LINE
  8
_0-0_0
  6
CONTINUOUS
 62
    7
 10
-237.69760150000002
 20
776.69998199999998
 11
-237.69760150000002
 21
777.34997599999997
  0
ARC
  8
_0-0_0
  6
CONTINUOUS
 62
    7
 10
-237.94760150000002
 20
777.34997599999997
 40
0.25
 50
0
 51
90.000003000000007
  0
LINE
  8
_0-0_0
  6
CONTINUOUS
 62
    7
 10
-238.59762550000005
 20
777.59997599999997
 11
-237.94760150000002
 21
777.59997599999997
  0
LINE
  8
_0-0_0
  6
CONTINUOUS
 62
    7
 10
-238.59762550000005
 20
777.59997599999997
 11
-238.59762550000005
 21
778
  0
LINE
  8
_0-0_0
  6
CONTINUOUS
 62
    7
 10
-237.94760150000002
 20
778
 11
-238.59762550000005
 21
778
  0
ARC
  8
_0-0_0
  6
CONTINUOUS
 62
    7
 10
-237.94760150000002
 20
778.25
 40
0.25
 50
269.99999700000001
 51
0
  0
LINE
  8
_0-0_0
  6
CONTINUOUS
 62
    7
 10
-237.69760150000002
 20
778.25
 11
-237.69760150000002
 21
778.89999399999999
  0
LINE
  8
_0-0_0
  6
CONTINUOUS
 62
    7
 10
-237.29760749999991
 20
778.89999399999999
 11
-237.69760150000002
 21
778.89999399999999
  0
LINE
  8
_0-0_0
  6
CONTINUOUS
 62
    7
 10
-237.29760749999991
 20
778.89999399999999
 11
-237.29760749999991
 21
778.25
  0
ARC
  8
_0-0_0
  6
CONTINUOUS
 62
    7
 10
-237.04760749999991
 20
778.25
 40
0.25
 50
180.00000900000003
 51
269.99999700000001
  0
LINE
  8
_0-0_0
  6
CONTINUOUS
 62
    7
 10
-236.39761350000003
 20
778
 11
-237.04760749999991
 21
778
  0
LINE
  8
_0-0_0
  6
CONTINUOUS
 62
    7
 10
-236.39761350000003
 20
778
 11
-236.39761350000003
 21
777.59997599999997
  0
LINE
  8
_0-0_0
  6
CONTINUOUS
 62
    7
 10
-316.04760749999991
 20
777.59997599999997
 11
-315.39761350000003
 21
777.59997599999997
  0
ARC
  8
_0-0_0
  6
CONTINUOUS
 62
    7
 10
-316.04760749999991
 20
777.34997599999997
 40
0.25
 50
90.000003000000007
 51
180.00000900000001
  0
LINE
  8
_0-0_0
  6
CONTINUOUS
 62
    7
 10
-316.29760749999991
 20
777.34997599999997
 11
-316.29760749999991
 21
776.69998199999998
  0
LINE
  8
_0-0_0
  6
CONTINUOUS
 62
    7
 10
-316.69760150000002
 20
776.69998199999998
 11
-316.29760749999991
 21
776.69998199999998
  0
LINE
  8
_0-0_0
  6
CONTINUOUS
 62
    7
 10
-316.69760150000002
 20
776.69998199999998
 11
-316.69760150000002
 21
777.34997599999997
  0
ARC
  8
_0-0_0
  6
CONTINUOUS
 62
    7
 10
-316.94760150000002
 20
777.34997599999997
 40
0.25
 50
0
 51
90.000003000000007
  0
LINE
  8
_0-0_0
  6
CONTINUOUS
 62
    7
 10
-317.59762550000005
 20
777.59997599999997
 11
-316.94760150000002
 21
777.59997599999997
  0
LINE
  8
_0-0_0
  6
CONTINUOUS
 62
    7
 10
-317.59762550000005
 20
777.59997599999997
 11
-317.59762550000005
 21
778
  0
LINE
  8
_0-0_0
  6
CONTINUOUS
 62
    7
 10
-316.94760150000002
 20
778
 11
-317.59762550000005
 21
778
  0
ARC
  8
_0-0_0
  6
CONTINUOUS
 62
    7
 10
-316.94760150000002
 20
778.25
 40
0.25
 50
269.99999700000001
 51
0
  0
LINE
  8
_0-0_0
  6
CONTINUOUS
 62
    7
 10
-316.69760150000002
 20
778.25
 11
-316.69760150000002
 21
778.89999399999999
  0
LINE
  8
_0-0_0
  6
CONTINUOUS
 62
    7
 10
-316.29760749999991
 20
778.89999399999999
 11
-316.69760150000002
 21
778.89999399999999
  0
LINE
  8
_0-0_0
  6
CONTINUOUS
 62
    7
 10
-316.29760749999991
 20
778.89999399999999
 11
-316.29760749999991
 21
778.25
  0
ARC
  8
_0-0_0
  6
CONTINUOUS
 62
    7
 10
-316.04760749999991
 20
778.25
 40
0.25
 50
180.00000900000003
 51
269.99999700000001
  0
LINE
  8
_0-0_0
  6
CONTINUOUS
 62
    7
 10
-315.39761350000003
 20
778
 11
-316.04760749999991
 21
778
  0
LINE
  8
_0-0_0
  6
CONTINUOUS
 62
    7
 10
-315.39761350000003
 20
778
 11
-315.39761350000003
 21
777.59997599999997
  0
LINE
  8
_0-0_0
  6
CONTINUOUS
 62
    7
 10
-314.94760150000002
 20
757.27694700000006
 11
-314.94760150000002
 21
757.29998799999998
  0
LINE
  8
_0-0_0
  6
CONTINUOUS
 62
    7
 10
-296.49761949999993
 20
775.29998799999998
 11
-296.49761949999993
 21
762.34298699999999
  0
ARC
  8
_0-0_0
  6
CONTINUOUS
 62
    7
 10
-299.49761949999993
 20
775.29998799999998
 40
3
 50
0
 51
90.000003000000007
  0
LINE
  8
_0-0_0
  6
CONTINUOUS
 62
    7
 10
-260.49761949999993
 20
761.69998199999998
 11
-260.49761949999993
 21
775.29998799999998
  0
LINE
  8
_0-0_0
  6
CONTINUOUS
 62
    7
 10
-277.01013149999994
 20
771.46963499999993
 11
-278.31011949999993
 21
774.96963499999993
  0
ARC
  8
_0-0_0
  6
CONTINUOUS
 62
    7
 10
-279.79760749999991
 20
771.39999399999999
 40
0.2
 50
159.62357
 51
269.99999700000001
  0
LINE
  8
_0-0_0
  6
CONTINUOUS
 62
    7
 10
-235.4975895
 20
776.89999399999999
 11
-218.82217450000007
 21
776.89999399999999
  0
ARC
  8
_0-0_0
  6
CONTINUOUS
 62
    7
 10
-218.82217450000007
 20
774.89999399999999
 40
2
 50
71.565000999999995
 51
90.000003000000007
  0
LINE
  8
_0-0_0
  6
CONTINUOUS
 62
    7
 10
-218.18969749999997
 20
776.79736300000002
 11
-218.30920449999985
 21
776.83297700000003
  0
LINE
  8
_0-0_0
  6
CONTINUOUS
 62
    7
 10
-218.30920449999985
 20
776.83297700000003
 11
-218.43075550000003
 21
776.86084000000005
  0
LINE
  8
_0-0_0
  6
CONTINUOUS
 62
    7
 10
-218.43075550000003
 20
776.86084000000005
 11
-218.55386350000003
 21
776.88088999999991
  0
LINE
  8
_0-0_0
  6
CONTINUOUS
 62
    7
 10
-218.55386350000003
 20
776.88088999999991
 11
-218.67810050000003
 21
776.89300500000002
  0
LINE
  8
_0-0_0
  6
CONTINUOUS
 62
    7
 10
-218.67810050000003
 20
776.89300500000002
 11
-218.80294849999996
 21
776.89712499999996
  0
LINE
  8
_0-0_0
  6
CONTINUOUS
 62
    7
 10
-218.80294849999996
 20
776.89712499999996
 11
-218.82217450000007
 21
776.897064
  0
LINE
  8
_0-0_0
  6
CONTINUOUS
 62
    7
 10
-213.86515850000001
 20
775.35583500000007
 11
-218.18972750000012
 21
776.79736300000002
  0
LINE
  8
_0-0_0
  6
CONTINUOUS
 62
    7
 10
-214.02326949999997
 20
760.79998799999998
 11
-213.3299105000001
 21
760.79998799999998
  0
LINE
  8
_0-0_0
  6
CONTINUOUS
 62
    7
 10
-214.02326949999997
 20
760.79998799999998
 11
-218.34780849999993
 21
760.79998799999998
  0
LINE
  8
_0-0_0
  6
CONTINUOUS
 62
    7
 10
-218.82217450000007
 20
760.79998799999998
 11
-218.34780849999993
 21
760.79998799999998
  0
LINE
  8
_0-0_0
  6
CONTINUOUS
 62
    7
 10
-223.4975895
 20
760.79998799999998
 11
-218.82217450000007
 21
760.79998799999998
  0
LINE
  8
_0-0_0
  6
CONTINUOUS
 62
    7
 10
-212.49760450000008
 20
760.04995699999995
 11
-212.49760450000008
 21
761.17095999999992
  0
LINE
  8
_0-0_0
  6
CONTINUOUS
 62
    7
 10
-212.49760450000008
 20
762.09228499999995
 11
-212.49760450000008
 21
761.17095999999992
  0
LINE
  8
_0-0_0
  6
CONTINUOUS
 62
    7
 10
-201.49760450000008
 20
760.84997599999997
 11
-201.49760450000008
 21
768.83154300000001
  0
ARC
  8
_0-0_0
  6
CONTINUOUS
 62
    7
 10
-207.6714935
 20
769.35086100000001
 40
4.9238749999999998
 50
352.49423299999995
 51
1.5359699999999901
  0
LINE
  8
_0-0_0
  6
CONTINUOUS
 62
    7
 10
-202.7897794999999
 20
763.49227900000005
 11
-202.6954495
 21
763.738922
  0
LINE
  8
_0-0_0
  6
CONTINUOUS
 62
    7
 10
-202.6954495
 20
763.738922
 11
-202.61149649999993
 21
763.978882
  0
LINE
  8
_0-0_0
  6
CONTINUOUS
 62
    7
 10
-202.61149649999993
 20
763.978882
 11
-202.53733850000003
 21
764.21301300000005
  0
LINE
  8
_0-0_0
  6
CONTINUOUS
 62
    7
 10
-202.53733850000003
 20
764.21301300000005
 11
-202.47245750000002
 21
764.442047
  0
LINE
  8
_0-0_0
  6
CONTINUOUS
 62
    7
 10
-202.47245750000002
 20
764.442047
 11
-202.41641249999998
 21
764.66671799999995
  0
LINE
  8
_0-0_0
  6
CONTINUOUS
 62
    7
 10
-202.41641249999998
 20
764.66671799999995
 11
-202.36885050000001
 21
764.88769500000001
  0
LINE
  8
_0-0_0
  6
CONTINUOUS
 62
    7
 10
-202.36885050000001
 20
764.88769500000001
 11
-202.32945250000012
 21
765.10562099999993
  0
LINE
  8
_0-0_0
  6
CONTINUOUS
 62
    7
 10
-202.32945250000012
 20
765.10562099999993
 11
-202.29795850000005
 21
765.32104499999991
  0
LINE
  8
_0-0_0
  6
CONTINUOUS
 62
    7
 10
-202.29795850000005
 20
765.32104499999991
 11
-202.27418549999993
 21
765.53457700000001
  0
LINE
  8
_0-0_0
  6
CONTINUOUS
 62
    7
 10
-202.27418549999993
 20
765.53457700000001
 11
-202.2582554999999
 21
765.74230999999997
  0
LINE
  8
_0-0_0
  6
CONTINUOUS
 62
    7
 10
-202.2582554999999
 20
765.74230999999997
 11
-202.24949650000008
 21
765.94915800000001
  0
LINE
  8
_0-0_0
  6
CONTINUOUS
 62
    7
 10
-202.24949650000008
 20
765.94915800000001
 11
-202.24786349999999
 21
766.15560899999991
  0
LINE
  8
_0-0_0
  6
CONTINUOUS
 62
    7
 10
-202.24786349999999
 20
766.15560899999991
 11
-202.25332649999996
 21
766.362213
  0
LINE
  8
_0-0_0
  6
CONTINUOUS
 62
    7
 10
-202.25332649999996
 20
766.362213
 11
-202.26594550000004
 21
766.56939699999998
  0
LINE
  8
_0-0_0
  6
CONTINUOUS
 62
    7
 10
-202.26594550000004
 20
766.56939699999998
 11
-202.28575150000006
 21
766.77767999999992
  0
LINE
  8
_0-0_0
  6
CONTINUOUS
 62
    7
 10
-202.28575150000006
 20
766.77767999999992
 11
-202.31289650000008
 21
766.98761000000002
  0
LINE
  8
_0-0_0
  6
CONTINUOUS
 62
    7
 10
-202.31289650000008
 20
766.98761000000002
 11
-202.34754950000001
 21
767.19967700000007
  0
LINE
  8
_0-0_0
  6
CONTINUOUS
 62
    7
 10
-202.34754950000001
 20
767.19967700000007
 11
-202.38989250000009
 21
767.41442899999993
  0
LINE
  8
_0-0_0
  6
CONTINUOUS
 62
    7
 10
-202.38989250000009
 20
767.41442899999993
 11
-202.44021649999991
 21
767.63241599999992
  0
LINE
  8
_0-0_0
  6
CONTINUOUS
 62
    7
 10
-202.44021649999991
 20
767.63241599999992
 11
-202.49446149999994
 21
767.83871499999998
  0
LINE
  8
_0-0_0
  6
CONTINUOUS
 62
    7
 10
-202.49446149999994
 20
767.83871499999998
 11
-202.5561674999999
 21
768.04882799999996
  0
LINE
  8
_0-0_0
  6
CONTINUOUS
 62
    7
 10
-202.5561674999999
 20
768.04882799999996
 11
-202.62568650000003
 21
768.26327500000002
  0
LINE
  8
_0-0_0
  6
CONTINUOUS
 62
    7
 10
-202.62568650000003
 20
768.26327500000002
 11
-202.70339949999993
 21
768.48269699999992
  0
LINE
  8
_0-0_0
  6
CONTINUOUS
 62
    7
 10
-202.70339949999993
 20
768.48269699999992
 11
-202.7897794999999
 21
768.707672
  0
ARC
  8
_0-0_0
  6
CONTINUOUS
 62
    7
 10
-207.66133149999996
 20
762.84997599999997
 40
4.9136889999999998
 50
352.48898799999995
 51
7.5110139999999577
  0
LINE
  8
_0-0_0
  6
CONTINUOUS
 62
    7
 10
-202.7897794999999
 20
762.207672
 11
-202.73529050000002
 21
762.13775599999997
  0
LINE
  8
_0-0_0
  6
CONTINUOUS
 62
    7
 10
-202.73529050000002
 20
762.13775599999997
 11
-202.68418849999989
 21
762.06890900000008
  0
LINE
  8
_0-0_0
  6
CONTINUOUS
 62
    7
 10
-202.68418849999989
 20
762.06890900000008
 11
-202.63655049999988
 21
762.00140399999998
  0
LINE
  8
_0-0_0
  6
CONTINUOUS
 62
    7
 10
-202.63655049999988
 20
762.00140399999998
 11
-202.5920564999999
 21
761.93487600000003
  0
LINE
  8
_0-0_0
  6
CONTINUOUS
 62
    7
 10
-202.5920564999999
 20
761.93487600000003
 11
-202.53733850000003
 21
761.84732099999997
  0
LINE
  8
_0-0_0
  6
CONTINUOUS
 62
    7
 10
-202.53733850000003
 20
761.84732099999997
 11
-202.4878235000001
 21
761.76123099999995
  0
LINE
  8
_0-0_0
  6
CONTINUOUS
 62
    7
 10
-202.4878235000001
 20
761.76123099999995
 11
-202.44335950000004
 21
761.67639199999996
  0
LINE
  8
_0-0_0
  6
CONTINUOUS
 62
    7
 10
-202.44335950000004
 20
761.67639199999996
 11
-202.39639250000005
 21
761.57608000000005
  0
LINE
  8
_0-0_0
  6
CONTINUOUS
 62
    7
 10
-202.39639250000005
 20
761.57608000000005
 11
-202.35618550000004
 21
761.47714199999996
  0
LINE
  8
_0-0_0
  6
CONTINUOUS
 62
    7
 10
-202.35618550000004
 20
761.47714199999996
 11
-202.32252549999998
 21
761.37939499999993
  0
LINE
  8
_0-0_0
  6
CONTINUOUS
 62
    7
 10
-202.32252549999998
 20
761.37939499999993
 11
-202.29522750000001
 21
761.28259300000002
  0
LINE
  8
_0-0_0
  6
CONTINUOUS
 62
    7
 10
-202.29522750000001
 20
761.28259300000002
 11
-202.27418549999993
 21
761.18652399999996
  0
LINE
  8
_0-0_0
  6
CONTINUOUS
 62
    7
 10
-202.27418549999993
 20
761.18652399999996
 11
-202.2582554999999
 21
761.082672
  0
LINE
  8
_0-0_0
  6
CONTINUOUS
 62
    7
 10
-202.2582554999999
 20
761.082672
 11
-202.24949650000008
 21
760.97924799999998
  0
LINE
  8
_0-0_0
  6
CONTINUOUS
 62
    7
 10
-202.24949650000008
 20
760.97924799999998
 11
-202.24786349999999
 21
760.87600700000007
  0
LINE
  8
_0-0_0
  6
CONTINUOUS
 62
    7
 10
-202.24786349999999
 20
760.87600700000007
 11
-202.25332649999996
 21
760.77273600000001
  0
LINE
  8
_0-0_0
  6
CONTINUOUS
 62
    7
 10
-202.25332649999996
 20
760.77273600000001
 11
-202.26594550000004
 21
760.669129
  0
LINE
  8
_0-0_0
  6
CONTINUOUS
 62
    7
 10
-202.26594550000004
 20
760.669129
 11
-202.28575150000006
 21
760.56497200000001
  0
LINE
  8
_0-0_0
  6
CONTINUOUS
 62
    7
 10
-202.28575150000006
 20
760.56497200000001
 11
-202.31289650000008
 21
760.46002199999998
  0
LINE
  8
_0-0_0
  6
CONTINUOUS
 62
    7
 10
-202.31289650000008
 20
760.46002199999998
 11
-202.34754950000001
 21
760.35400400000003
  0
LINE
  8
_0-0_0
  6
CONTINUOUS
 62
    7
 10
-202.34754950000001
 20
760.35400400000003
 11
-202.38989250000009
 21
760.24661300000002
  0
LINE
  8
_0-0_0
  6
CONTINUOUS
 62
    7
 10
-202.38989250000009
 20
760.24661300000002
 11
-202.44021649999991
 21
760.13760400000001
  0
LINE
  8
_0-0_0
  6
CONTINUOUS
 62
    7
 10
-202.44021649999991
 20
760.13760400000001
 11
-202.48590050000007
 21
760.04995699999995
  0
LINE
  8
_0-0_0
  6
CONTINUOUS
 62
    7
 10
-212.49760450000008
 20
769.99227900000005
 11
-202.7897794999999
 21
769.99227900000005
  0
LINE
  8
_0-0_0
  6
CONTINUOUS
 62
    7
 10
-212.49760450000008
 20
768.707672
 11
-212.49760450000008
 21
769.99227900000005
  0
LINE
  8
_0-0_0
  6
CONTINUOUS
 62
    7
 10
-212.49760450000008
 20
768.707672
 11
-202.7897794999999
 21
768.707672
  0
ARC
  8
_0-0_0
  6
CONTINUOUS
 62
    7
 10
-207.70951850000006
 20
769.34591699999999
 40
4.9620009999999999
 50
1.5813010000000001
 51
7.4847919999999997
  0
LINE
  8
_0-0_0
  6
CONTINUOUS
 62
    7
 10
-212.79760749999991
 20
763.88797
 11
-212.88107349999996
 21
764.26663200000007
  0
LINE
  8
_0-0_0
  6
CONTINUOUS
 62
    7
 10
-212.88107349999996
 20
764.26663200000007
 11
-212.92115749999994
 21
764.45816100000002
  0
LINE
  8
_0-0_0
  6
CONTINUOUS
 62
    7
 10
-212.92115749999994
 20
764.45816100000002
 11
-212.97724949999997
 21
764.7482
  0
LINE
  8
_0-0_0
  6
CONTINUOUS
 62
    7
 10
-212.97724949999997
 20
764.7482
 11
-213.01484649999998
 21
764.96777399999996
  0
LINE
  8
_0-0_0
  6
CONTINUOUS
 62
    7
 10
-213.01484649999998
 20
764.96777399999996
 11
-213.04748549999999
 21
765.18902600000001
  0
LINE
  8
_0-0_0
  6
CONTINUOUS
 62
    7
 10
-213.04748549999999
 20
765.18902600000001
 11
-213.07464649999997
 21
765.41583300000002
  0
LINE
  8
_0-0_0
  6
CONTINUOUS
 62
    7
 10
-213.07464649999997
 20
765.41583300000002
 11
-213.0947114999999
 21
765.64321900000004
  0
LINE
  8
_0-0_0
  6
CONTINUOUS
 62
    7
 10
-213.0947114999999
 20
765.64321900000004
 11
-213.10186750000003
 21
765.75695799999994
  0
LINE
  8
_0-0_0
  6
CONTINUOUS
 62
    7
 10
-213.10186750000003
 20
765.75695799999994
 11
-213.10702549999996
 21
765.87063599999999
  0
LINE
  8
_0-0_0
  6
CONTINUOUS
 62
    7
 10
-213.10702549999996
 20
765.87063599999999
 11
-213.1107485
 21
766.022064
  0
LINE
  8
_0-0_0
  6
CONTINUOUS
 62
    7
 10
-213.1107485
 20
766.022064
 11
-213.11080949999996
 21
766.17334000000005
  0
LINE
  8
_0-0_0
  6
CONTINUOUS
 62
    7
 10
-213.11080949999996
 20
766.17334000000005
 11
-213.10722349999992
 21
766.32437099999993
  0
LINE
  8
_0-0_0
  6
CONTINUOUS
 62
    7
 10
-213.10722349999992
 20
766.32437099999993
 11
-213.09771750000004
 21
766.51294000000007
  0
LINE
  8
_0-0_0
  6
CONTINUOUS
 62
    7
 10
-213.09771750000004
 20
766.51294000000007
 11
-213.08285550000005
 21
766.70117200000004
  0
LINE
  8
_0-0_0
  6
CONTINUOUS
 62
    7
 10
-213.08285550000005
 20
766.70117200000004
 11
-213.06292750000011
 21
766.88913000000002
  0
LINE
  8
_0-0_0
  6
CONTINUOUS
 62
    7
 10
-213.06292750000011
 20
766.88913000000002
 11
-213.04653950000011
 21
767.01800500000002
  0
LINE
  8
_0-0_0
  6
CONTINUOUS
 62
    7
 10
-213.04653950000011
 20
767.01800500000002
 11
-213.02813749999996
 21
767.14663700000006
  0
LINE
  8
_0-0_0
  6
CONTINUOUS
 62
    7
 10
-213.02813749999996
 20
767.14663700000006
 11
-213.00396750000004
 21
767.29858400000001
  0
LINE
  8
_0-0_0
  6
CONTINUOUS
 62
    7
 10
-213.00396750000004
 20
767.29858400000001
 11
-212.97756950000007
 21
767.44992100000002
  0
LINE
  8
_0-0_0
  6
CONTINUOUS
 62
    7
 10
-212.97756950000007
 20
767.44992100000002
 11
-212.92140250000011
 21
767.74054000000001
  0
LINE
  8
_0-0_0
  6
CONTINUOUS
 62
    7
 10
-212.92140250000011
 20
767.74054000000001
 11
-212.88124049999988
 21
767.93249500000002
  0
LINE
  8
_0-0_0
  6
CONTINUOUS
 62
    7
 10
-212.88124049999988
 20
767.93249500000002
 11
-212.79760749999991
 21
768.31198100000006
  0
LINE
  8
_0-0_0
  6
CONTINUOUS
 62
    7
 10
-212.49760450000008
 20
764.53793300000007
 11
-212.49760450000008
 21
767.66204799999991
  0
LINE
  8
_0-0_0
  6
CONTINUOUS
 62
    7
 10
-187.74760450000008
 20
756.57455499999992
 11
-187.99760450000008
 21
756.54998799999998
  0
LINE
  8
_0-0_0
  6
CONTINUOUS
 62
    7
 10
-187.99760450000008
 20
756.54998799999998
 11
-197.24760450000008
 21
756.54998799999998
  0
LINE
  8
_0-0_0
  6
CONTINUOUS
 62
    7
 10
-197.49760450000008
 20
756.57455499999992
 11
-197.24760450000008
 21
756.54998799999998
  0
LINE
  8
_0-0_0
  6
CONTINUOUS
 62
    7
 10
-187.74760450000008
 20
759.54855399999997
 11
-187.99760450000008
 21
759.82254
  0
LINE
  8
_0-0_0
  6
CONTINUOUS
 62
    7
 10
-187.74760450000008
 20
759.54855399999997
 11
-187.99760450000008
 21
759.65783699999997
  0
LINE
  8
_0-0_0
  6
CONTINUOUS
 62
    7
 10
-187.74760450000008
 20
759.39096100000006
 11
-187.99760450000008
 21
759.65783699999997
  0
LINE
  8
_0-0_0
  6
CONTINUOUS
 62
    7
 10
-187.74760450000008
 20
759.39096100000006
 11
-187.99760450000008
 21
759.47280899999998
  0
LINE
  8
_0-0_0
  6
CONTINUOUS
 62
    7
 10
-187.74760450000008
 20
759.21597300000008
 11
-187.99760450000008
 21
759.47280899999998
  0
LINE
  8
_0-0_0
  6
CONTINUOUS
 62
    7
 10
-187.74760450000008
 20
759.21597300000008
 11
-187.99760450000008
 21
759.26944000000003
  0
LINE
  8
_0-0_0
  6
CONTINUOUS
 62
    7
 10
-187.74760450000008
 20
759.02542100000005
 11
-187.99760450000008
 21
759.26944000000003
  0
LINE
  8
_0-0_0
  6
CONTINUOUS
 62
    7
 10
-187.74760450000008
 20
759.02542100000005
 11
-187.99760450000008
 21
759.04998799999998
  0
LINE
  8
_0-0_0
  6
CONTINUOUS
 62
    7
 10
-187.74760450000008
 20
758.82147199999997
 11
-187.99760450000008
 21
759.04998799999998
  0
LINE
  8
_0-0_0
  6
CONTINUOUS
 62
    7
 10
-187.74760450000008
 20
758.82147199999997
 11
-187.99760450000008
 21
758.81683399999997
  0
LINE
  8
_0-0_0
  6
CONTINUOUS
 62
    7
 10
-187.74760450000008
 20
758.60632299999997
 11
-187.99760450000008
 21
758.81683399999997
  0
LINE
  8
_0-0_0
  6
CONTINUOUS
 62
    7
 10
-187.74760450000008
 20
758.60632299999997
 11
-187.99760450000008
 21
758.57254
  0
LINE
  8
_0-0_0
  6
CONTINUOUS
 62
    7
 10
-187.74760450000008
 20
758.38232399999993
 11
-187.99760450000008
 21
758.57254
  0
LINE
  8
_0-0_0
  6
CONTINUOUS
 62
    7
 10
-187.74760450000008
 20
758.38232399999993
 11
-187.99760450000008
 21
758.31976299999997
  0
LINE
  8
_0-0_0
  6
CONTINUOUS
 62
    7
 10
-187.74760450000008
 20
758.15197799999999
 11
-187.99760450000008
 21
758.31976299999997
  0
LINE
  8
_0-0_0
  6
CONTINUOUS
 62
    7
 10
-187.74760450000008
 20
758.15197799999999
 11
-187.99760450000008
 21
758.06131000000005
  0
LINE
  8
_0-0_0
  6
CONTINUOUS
 62
    7
 10
-187.74760450000008
 20
757.91775499999994
 11
-187.99760450000008
 21
758.06131000000005
  0
LINE
  8
_0-0_0
  6
CONTINUOUS
 62
    7
 10
-187.74760450000008
 20
757.91775499999994
 11
-187.99760450000008
 21
757.79998799999998
  0
LINE
  8
_0-0_0
  6
CONTINUOUS
 62
    7
 10
-187.74760450000008
 20
757.68222100000003
 11
-187.99760450000008
 21
757.79998799999998
  0
LINE
  8
_0-0_0
  6
CONTINUOUS
 62
    7
 10
-187.74760450000008
 20
757.68222100000003
 11
-187.99760450000008
 21
757.53866599999992
  0
LINE
  8
_0-0_0
  6
CONTINUOUS
 62
    7
 10
-187.74760450000008
 20
757.44799799999998
 11
-187.99760450000008
 21
757.53866599999992
  0
LINE
  8
_0-0_0
  6
CONTINUOUS
 62
    7
 10
-187.74760450000008
 20
757.44799799999998
 11
-187.99760450000008
 21
757.280213
  0
LINE
  8
_0-0_0
  6
CONTINUOUS
 62
    7
 10
-187.74760450000008
 20
757.21765099999993
 11
-187.99760450000008
 21
757.280213
  0
LINE
  8
_0-0_0
  6
CONTINUOUS
 62
    7
 10
-187.74760450000008
 20
757.21765099999993
 11
-187.99760450000008
 21
757.02743499999997
  0
LINE
  8
_0-0_0
  6
CONTINUOUS
 62
    7
 10
-187.74760450000008
 20
756.993652
 11
-187.99760450000008
 21
757.02743499999997
  0
LINE
  8
_0-0_0
  6
CONTINUOUS
 62
    7
 10
-187.74760450000008
 20
756.993652
 11
-187.99760450000008
 21
756.783142
  0
LINE
  8
_0-0_0
  6
CONTINUOUS
 62
    7
 10
-187.74760450000008
 20
756.778504
 11
-187.99760450000008
 21
756.783142
  0
LINE
  8
_0-0_0
  6
CONTINUOUS
 62
    7
 10
-187.74760450000008
 20
756.778504
 11
-187.99760450000008
 21
756.54998799999998
  0
LINE
  8
_0-0_0
  6
CONTINUOUS
 62
    7
 10
-187.74760450000008
 20
756.57455499999992
 11
-187.99760450000008
 21
756.33053599999994
  0
LINE
  8
_0-0_0
  6
CONTINUOUS
 62
    7
 10
-187.74760450000008
 20
756.38400300000001
 11
-187.99760450000008
 21
756.33053599999994
  0
LINE
  8
_0-0_0
  6
CONTINUOUS
 62
    7
 10
-187.74760450000008
 20
756.38400300000001
 11
-187.99760450000008
 21
756.12716699999999
  0
LINE
  8
_0-0_0
  6
CONTINUOUS
 62
    7
 10
-187.74760450000008
 20
756.20898399999999
 11
-187.99760450000008
 21
756.12716699999999
  0
LINE
  8
_0-0_0
  6
CONTINUOUS
 62
    7
 10
-187.74760450000008
 20
756.20898399999999
 11
-187.99760450000008
 21
755.94210799999996
  0
LINE
  8
_0-0_0
  6
CONTINUOUS
 62
    7
 10
-187.74760450000008
 20
756.051422
 11
-187.99760450000008
 21
755.94210799999996
  0
LINE
  8
_0-0_0
  6
CONTINUOUS
 62
    7
 10
-187.74760450000008
 20
756.051422
 11
-187.99760450000008
 21
755.77743499999997
  0
LINE
  8
_0-0_0
  6
CONTINUOUS
 62
    7
 10
-187.74760450000008
 20
755.91299400000003
 11
-187.99760450000008
 21
755.77743499999997
  0
LINE
  8
_0-0_0
  6
CONTINUOUS
 62
    7
 10
-187.74760450000008
 20
755.91299400000003
 11
-187.99760450000008
 21
755.63491799999997
  0
LINE
  8
_0-0_0
  6
CONTINUOUS
 62
    7
 10
-187.74760450000008
 20
755.79522700000007
 11
-187.99760450000008
 21
755.63491799999997
  0
LINE
  8
_0-0_0
  6
CONTINUOUS
 62
    7
 10
-187.74760450000008
 20
755.79522700000007
 11
-187.99760450000008
 21
755.51611300000002
  0
LINE
  8
_0-0_0
  6
CONTINUOUS
 62
    7
 10
-187.74760450000008
 20
755.699432
 11
-187.99760450000008
 21
755.51611300000002
  0
LINE
  8
_0-0_0
  6
CONTINUOUS
 62
    7
 10
-187.74760450000008
 20
755.699432
 11
-187.99760450000008
 21
755.42233299999998
  0
LINE
  8
_0-0_0
  6
CONTINUOUS
 62
    7
 10
-187.74760450000008
 20
755.62664799999993
 11
-187.99760450000008
 21
755.42233299999998
  0
LINE
  8
_0-0_0
  6
CONTINUOUS
 62
    7
 10
-187.74760450000008
 20
755.62664799999993
 11
-187.99760450000008
 21
755.35461399999997
  0
LINE
  8
_0-0_0
  6
CONTINUOUS
 62
    7
 10
-187.74760450000008
 20
755.57769800000005
 11
-187.99760450000008
 21
755.35461399999997
  0
LINE
  8
_0-0_0
  6
CONTINUOUS
 62
    7
 10
-187.74760450000008
 20
755.57769800000005
 11
-187.99760450000008
 21
755.31368999999995
  0
LINE
  8
_0-0_0
  6
CONTINUOUS
 62
    7
 10
-187.74760450000008
 20
755.55306999999993
 11
-187.99760450000008
 21
755.31368999999995
  0
LINE
  8
_0-0_0
  6
CONTINUOUS
 62
    7
 10
-187.74760450000008
 20
755.55306999999993
 11
-187.99760450000008
 21
755.29998799999998
  0
LINE
  8
_0-0_0
  6
CONTINUOUS
 62
    7
 10
-187.49760450000008
 20
755.79998799999998
 11
-187.49760450000008
 21
759.55514500000004
  0
LINE
  8
_0-0_0
  6
CONTINUOUS
 62
    7
 10
-187.87756349999995
 20
759.88861099999997
 11
-187.99760450000008
 21
759.965057
  0
LINE
  8
_0-0_0
  6
CONTINUOUS
 62
    7
 10
-187.74760450000008
 20
759.68698100000006
 11
-187.99760450000008
 21
759.965057
  0
LINE
  8
_0-0_0
  6
CONTINUOUS
 62
    7
 10
-187.74760450000008
 20
759.68698100000006
 11
-187.99760450000008
 21
759.82254
  0
LINE
  8
_0-0_0
  6
CONTINUOUS
 62
    7
 10
-187.99760450000008
 20
759.65783699999997
 11
-197.24760450000008
 21
759.65783699999997
  0
LINE
  8
_0-0_0
  6
CONTINUOUS
 62
    7
 10
-197.49760450000008
 20
759.54855399999997
 11
-197.24760450000008
 21
759.65783699999997
  0
LINE
  8
_0-0_0
  6
CONTINUOUS
 62
    7
 10
-187.99760450000008
 20
759.47280899999998
 11
-197.24760450000008
 21
759.47280899999998
  0
LINE
  8
_0-0_0
  6
CONTINUOUS
 62
    7
 10
-197.49760450000008
 20
759.39096100000006
 11
-197.24760450000008
 21
759.47280899999998
  0
LINE
  8
_0-0_0
  6
CONTINUOUS
 62
    7
 10
-187.99760450000008
 20
759.26944000000003
 11
-197.24760450000008
 21
759.26944000000003
  0
LINE
  8
_0-0_0
  6
CONTINUOUS
 62
    7
 10
-197.49760450000008
 20
759.21597300000008
 11
-197.24760450000008
 21
759.26944000000003
  0
LINE
  8
_0-0_0
  6
CONTINUOUS
 62
    7
 10
-187.99760450000008
 20
759.04998799999998
 11
-197.24760450000008
 21
759.04998799999998
  0
LINE
  8
_0-0_0
  6
CONTINUOUS
 62
    7
 10
-197.49760450000008
 20
759.02542100000005
 11
-197.24760450000008
 21
759.04998799999998
  0
LINE
  8
_0-0_0
  6
CONTINUOUS
 62
    7
 10
-187.99760450000008
 20
758.81683399999997
 11
-197.24760450000008
 21
758.81683399999997
  0
LINE
  8
_0-0_0
  6
CONTINUOUS
 62
    7
 10
-187.74760450000008
 20
758.82147199999997
 11
-197.49760450000008
 21
758.82147199999997
  0
LINE
  8
_0-0_0
  6
CONTINUOUS
 62
    7
 10
-197.49760450000008
 20
758.82147199999997
 11
-197.24760450000008
 21
758.81683399999997
  0
LINE
  8
_0-0_0
  6
CONTINUOUS
 62
    7
 10
-187.99760450000008
 20
758.57254
 11
-197.24760450000008
 21
758.57254
  0
LINE
  8
_0-0_0
  6
CONTINUOUS
 62
    7
 10
-187.74760450000008
 20
758.60632299999997
 11
-197.49760450000008
 21
758.60632299999997
  0
LINE
  8
_0-0_0
  6
CONTINUOUS
 62
    7
 10
-197.49760450000008
 20
758.60632299999997
 11
-197.24760450000008
 21
758.57254
  0
LINE
  8
_0-0_0
  6
CONTINUOUS
 62
    7
 10
-187.99760450000008
 20
758.31976299999997
 11
-197.24760450000008
 21
758.31976299999997
  0
LINE
  8
_0-0_0
  6
CONTINUOUS
 62
    7
 10
-187.74760450000008
 20
758.38232399999993
 11
-197.49760450000008
 21
758.38232399999993
  0
LINE
  8
_0-0_0
  6
CONTINUOUS
 62
    7
 10
-197.49760450000008
 20
758.38232399999993
 11
-197.24760450000008
 21
758.31976299999997
  0
LINE
  8
_0-0_0
  6
CONTINUOUS
 62
    7
 10
-187.99760450000008
 20
758.06131000000005
 11
-197.24760450000008
 21
758.06131000000005
  0
LINE
  8
_0-0_0
  6
CONTINUOUS
 62
    7
 10
-187.74760450000008
 20
758.15197799999999
 11
-197.49760450000008
 21
758.15197799999999
  0
LINE
  8
_0-0_0
  6
CONTINUOUS
 62
    7
 10
-197.49760450000008
 20
758.15197799999999
 11
-197.24760450000008
 21
758.06131000000005
  0
LINE
  8
_0-0_0
  6
CONTINUOUS
 62
    7
 10
-187.99760450000008
 20
757.79998799999998
 11
-197.24760450000008
 21
757.79998799999998
  0
LINE
  8
_0-0_0
  6
CONTINUOUS
 62
    7
 10
-187.74760450000008
 20
757.91775499999994
 11
-197.49760450000008
 21
757.91775499999994
  0
LINE
  8
_0-0_0
  6
CONTINUOUS
 62
    7
 10
-197.49760450000008
 20
757.91775499999994
 11
-197.24760450000008
 21
757.79998799999998
  0
LINE
  8
_0-0_0
  6
CONTINUOUS
 62
    7
 10
-187.99760450000008
 20
757.53866599999992
 11
-197.24760450000008
 21
757.53866599999992
  0
LINE
  8
_0-0_0
  6
CONTINUOUS
 62
    7
 10
-187.74760450000008
 20
757.68222100000003
 11
-197.49760450000008
 21
757.68222100000003
  0
LINE
  8
_0-0_0
  6
CONTINUOUS
 62
    7
 10
-197.49760450000008
 20
757.68222100000003
 11
-197.24760450000008
 21
757.53866599999992
  0
LINE
  8
_0-0_0
  6
CONTINUOUS
 62
    7
 10
-187.99760450000008
 20
757.280213
 11
-197.24760450000008
 21
757.280213
  0
LINE
  8
_0-0_0
  6
CONTINUOUS
 62
    7
 10
-187.74760450000008
 20
757.44799799999998
 11
-197.49760450000008
 21
757.44799799999998
  0
LINE
  8
_0-0_0
  6
CONTINUOUS
 62
    7
 10
-197.49760450000008
 20
757.44799799999998
 11
-197.24760450000008
 21
757.280213
  0
LINE
  8
_0-0_0
  6
CONTINUOUS
 62
    7
 10
-187.99760450000008
 20
757.02743499999997
 11
-197.24760450000008
 21
757.02743499999997
  0
LINE
  8
_0-0_0
  6
CONTINUOUS
 62
    7
 10
-187.74760450000008
 20
757.21765099999993
 11
-197.49760450000008
 21
757.21765099999993
  0
LINE
  8
_0-0_0
  6
CONTINUOUS
 62
    7
 10
-197.49760450000008
 20
757.21765099999993
 11
-197.24760450000008
 21
757.02743499999997
  0
LINE
  8
_0-0_0
  6
CONTINUOUS
 62
    7
 10
-187.99760450000008
 20
756.783142
 11
-197.24760450000008
 21
756.783142
  0
LINE
  8
_0-0_0
  6
CONTINUOUS
 62
    7
 10
-187.74760450000008
 20
756.993652
 11
-197.49760450000008
 21
756.993652
  0
LINE
  8
_0-0_0
  6
CONTINUOUS
 62
    7
 10
-197.49760450000008
 20
756.993652
 11
-197.24760450000008
 21
756.783142
  0
LINE
  8
_0-0_0
  6
CONTINUOUS
 62
    7
 10
-187.99760450000008
 20
756.12716699999999
 11
-197.24760450000008
 21
756.12716699999999
  0
LINE
  8
_0-0_0
  6
CONTINUOUS
 62
    7
 10
-197.49760450000008
 20
756.38400300000001
 11
-197.24760450000008
 21
756.12716699999999
  0
LINE
  8
_0-0_0
  6
CONTINUOUS
 62
    7
 10
-187.99760450000008
 20
755.94210799999996
 11
-197.24760450000008
 21
755.94210799999996
  0
LINE
  8
_0-0_0
  6
CONTINUOUS
 62
    7
 10
-197.49760450000008
 20
756.20898399999999
 11
-197.24760450000008
 21
755.94210799999996
  0
LINE
  8
_0-0_0
  6
CONTINUOUS
 62
    7
 10
-187.99760450000008
 20
755.77743499999997
 11
-197.24760450000008
 21
755.77743499999997
  0
LINE
  8
_0-0_0
  6
CONTINUOUS
 62
    7
 10
-197.49760450000008
 20
756.051422
 11
-197.24760450000008
 21
755.77743499999997
  0
LINE
  8
_0-0_0
  6
CONTINUOUS
 62
    7
 10
-187.99760450000008
 20
755.63491799999997
 11
-197.24760450000008
 21
755.63491799999997
  0
LINE
  8
_0-0_0
  6
CONTINUOUS
 62
    7
 10
-197.49760450000008
 20
755.91299400000003
 11
-197.24760450000008
 21
755.63491799999997
  0
LINE
  8
_0-0_0
  6
CONTINUOUS
 62
    7
 10
-187.99760450000008
 20
755.51611300000002
 11
-197.24760450000008
 21
755.51611300000002
  0
LINE
  8
_0-0_0
  6
CONTINUOUS
 62
    7
 10
-197.49760450000008
 20
755.79522700000007
 11
-197.24760450000008
 21
755.51611300000002
  0
LINE
  8
_0-0_0
  6
CONTINUOUS
 62
    7
 10
-187.99760450000008
 20
755.42233299999998
 11
-197.24760450000008
 21
755.42233299999998
  0
LINE
  8
_0-0_0
  6
CONTINUOUS
 62
    7
 10
-197.49760450000008
 20
755.699432
 11
-197.24760450000008
 21
755.42233299999998
  0
LINE
  8
_0-0_0
  6
CONTINUOUS
 62
    7
 10
-187.99760450000008
 20
755.35461399999997
 11
-197.24760450000008
 21
755.35461399999997
  0
LINE
  8
_0-0_0
  6
CONTINUOUS
 62
    7
 10
-197.49760450000008
 20
755.62664799999993
 11
-197.24760450000008
 21
755.35461399999997
  0
LINE
  8
_0-0_0
  6
CONTINUOUS
 62
    7
 10
-187.99760450000008
 20
755.31368999999995
 11
-197.24760450000008
 21
755.31368999999995
  0
LINE
  8
_0-0_0
  6
CONTINUOUS
 62
    7
 10
-197.49760450000008
 20
755.57769800000005
 11
-197.24760450000008
 21
755.31368999999995
  0
LINE
  8
_0-0_0
  6
CONTINUOUS
 62
    7
 10
-187.99760450000008
 20
755.29998799999998
 11
-197.24760450000008
 21
755.29998799999998
  0
LINE
  8
_0-0_0
  6
CONTINUOUS
 62
    7
 10
-197.49760450000008
 20
755.55306999999993
 11
-197.24760450000008
 21
755.29998799999998
  0
LINE
  8
_0-0_0
  6
CONTINUOUS
 62
    7
 10
-187.99760450000008
 20
759.965057
 11
-197.24760450000008
 21
759.965057
  0
LINE
  8
_0-0_0
  6
CONTINUOUS
 62
    7
 10
-187.74760450000008
 20
759.80474900000002
 11
-187.87756349999995
 21
759.88861099999997
  0
LINE
  8
_0-0_0
  6
CONTINUOUS
 62
    7
 10
-197.49760450000008
 20
759.80474900000002
 11
-197.3676304999999
 21
759.88861099999997
  0
LINE
  8
_0-0_0
  6
CONTINUOUS
 62
    7
 10
-197.3676304999999
 20
759.88861099999997
 11
-197.24760450000008
 21
759.965057
  0
LINE
  8
_0-0_0
  6
CONTINUOUS
 62
    7
 10
-187.99760450000008
 20
759.82254
 11
-197.24760450000008
 21
759.82254
  0
LINE
  8
_0-0_0
  6
CONTINUOUS
 62
    7
 10
-197.49760450000008
 20
759.68698100000006
 11
-197.24760450000008
 21
759.82254
  0
LINE
  8
_0-0_0
  6
CONTINUOUS
 62
    7
 10
-187.74760450000008
 20
759.80474900000002
 11
-187.99760450000008
 21
760.08386199999995
  0
LINE
  8
_0-0_0
  6
CONTINUOUS
 62
    7
 10
-187.99760450000008
 20
760.08386199999995
 11
-197.24760450000008
 21
760.08386199999995
  0
LINE
  8
_0-0_0
  6
CONTINUOUS
 62
    7
 10
-197.49760450000008
 20
759.80474900000002
 11
-197.24760450000008
 21
760.08386199999995
  0
LINE
  8
_0-0_0
  6
CONTINUOUS
 62
    7
 10
-187.74760450000008
 20
759.90054299999997
 11
-187.99760450000008
 21
760.08386199999995
  0
LINE
  8
_0-0_0
  6
CONTINUOUS
 62
    7
 10
-197.49760450000008
 20
759.90054299999997
 11
-197.24760450000008
 21
760.08386199999995
  0
LINE
  8
_0-0_0
  6
CONTINUOUS
 62
    7
 10
-187.74760450000008
 20
759.90054299999997
 11
-187.99760450000008
 21
760.17764299999999
  0
LINE
  8
_0-0_0
  6
CONTINUOUS
 62
    7
 10
-187.99760450000008
 20
760.17764299999999
 11
-197.24760450000008
 21
760.17764299999999
  0
LINE
  8
_0-0_0
  6
CONTINUOUS
 62
    7
 10
-197.49760450000008
 20
759.90054299999997
 11
-197.24760450000008
 21
760.17764299999999
  0
LINE
  8
_0-0_0
  6
CONTINUOUS
 62
    7
 10
-187.74760450000008
 20
759.97332800000004
 11
-187.99760450000008
 21
760.17764299999999
  0
LINE
  8
_0-0_0
  6
CONTINUOUS
 62
    7
 10
-197.49760450000008
 20
759.97332800000004
 11
-197.24760450000008
 21
760.17764299999999
  0
LINE
  8
_0-0_0
  6
CONTINUOUS
 62
    7
 10
-187.74760450000008
 20
759.97332800000004
 11
-187.99760450000008
 21
760.245361
  0
LINE
  8
_0-0_0
  6
CONTINUOUS
 62
    7
 10
-187.99760450000008
 20
760.245361
 11
-197.24760450000008
 21
760.245361
  0
LINE
  8
_0-0_0
  6
CONTINUOUS
 62
    7
 10
-197.49760450000008
 20
759.97332800000004
 11
-197.24760450000008
 21
760.245361
  0
LINE
  8
_0-0_0
  6
CONTINUOUS
 62
    7
 10
-187.74760450000008
 20
760.02227799999991
 11
-187.99760450000008
 21
760.245361
  0
LINE
  8
_0-0_0
  6
CONTINUOUS
 62
    7
 10
-197.49760450000008
 20
760.02227799999991
 11
-197.24760450000008
 21
760.245361
  0
LINE
  8
_0-0_0
  6
CONTINUOUS
 62
    7
 10
-187.74760450000008
 20
760.02227799999991
 11
-187.99760450000008
 21
760.28628600000002
  0
LINE
  8
_0-0_0
  6
CONTINUOUS
 62
    7
 10
-187.99760450000008
 20
760.28628600000002
 11
-197.24760450000008
 21
760.28628600000002
  0
LINE
  8
_0-0_0
  6
CONTINUOUS
 62
    7
 10
-197.49760450000008
 20
760.02227799999991
 11
-197.24760450000008
 21
760.28628600000002
  0
LINE
  8
_0-0_0
  6
CONTINUOUS
 62
    7
 10
-187.74760450000008
 20
760.04690600000004
 11
-187.99760450000008
 21
760.28628600000002
  0
LINE
  8
_0-0_0
  6
CONTINUOUS
 62
    7
 10
-197.49760450000008
 20
760.04690600000004
 11
-197.24760450000008
 21
760.28628600000002
  0
LINE
  8
_0-0_0
  6
CONTINUOUS
 62
    7
 10
-187.74760450000008
 20
760.04690600000004
 11
-187.99760450000008
 21
760.29998799999998
  0
LINE
  8
_0-0_0
  6
CONTINUOUS
 62
    7
 10
-187.99760450000008
 20
760.29998799999998
 11
-197.24760450000008
 21
760.29998799999998
  0
LINE
  8
_0-0_0
  6
CONTINUOUS
 62
    7
 10
-197.49760450000008
 20
760.04690600000004
 11
-197.24760450000008
 21
760.29998799999998
  0
LINE
  8
_0-0_0
  6
CONTINUOUS
 62
    7
 10
-187.74760450000008
 20
773.17456100000004
 11
-187.99760450000008
 21
773.14999399999999
  0
LINE
  8
_0-0_0
  6
CONTINUOUS
 62
    7
 10
-187.99760450000008
 20
773.14999399999999
 11
-197.24760450000008
 21
773.14999399999999
  0
LINE
  8
_0-0_0
  6
CONTINUOUS
 62
    7
 10
-197.49760450000008
 20
773.17456100000004
 11
-197.24760450000008
 21
773.14999399999999
  0
LINE
  8
_0-0_0
  6
CONTINUOUS
 62
    7
 10
-187.74760450000008
 20
776.14855999999997
 11
-187.99760450000008
 21
776.42251599999997
  0
LINE
  8
_0-0_0
  6
CONTINUOUS
 62
    7
 10
-187.74760450000008
 20
776.14855999999997
 11
-187.99760450000008
 21
776.25784299999998
  0
LINE
  8
_0-0_0
  6
CONTINUOUS
 62
    7
 10
-187.74760450000008
 20
775.99096699999996
 11
-187.99760450000008
 21
776.25784299999998
  0
LINE
  8
_0-0_0
  6
CONTINUOUS
 62
    7
 10
-187.74760450000008
 20
775.99096699999996
 11
-187.99760450000008
 21
776.07281499999999
  0
LINE
  8
_0-0_0
  6
CONTINUOUS
 62
    7
 10
-187.74760450000008
 20
775.81594900000005
 11
-187.99760450000008
 21
776.07281499999999
  0
LINE
  8
_0-0_0
  6
CONTINUOUS
 62
    7
 10
-187.74760450000008
 20
775.81594900000005
 11
-187.99760450000008
 21
775.86944599999993
  0
LINE
  8
_0-0_0
  6
CONTINUOUS
 62
    7
 10
-187.74760450000008
 20
775.62542699999995
 11
-187.99760450000008
 21
775.86944599999993
  0
LINE
  8
_0-0_0
  6
CONTINUOUS
 62
    7
 10
-187.74760450000008
 20
775.62542699999995
 11
-187.99760450000008
 21
775.64999399999999
  0
LINE
  8
_0-0_0
  6
CONTINUOUS
 62
    7
 10
-187.74760450000008
 20
775.42147799999998
 11
-187.99760450000008
 21
775.64999399999999
  0
LINE
  8
_0-0_0
  6
CONTINUOUS
 62
    7
 10
-187.74760450000008
 20
775.42147799999998
 11
-187.99760450000008
 21
775.41683999999998
  0
LINE
  8
_0-0_0
  6
CONTINUOUS
 62
    7
 10
-187.74760450000008
 20
775.20632899999998
 11
-187.99760450000008
 21
775.41683999999998
  0
LINE
  8
_0-0_0
  6
CONTINUOUS
 62
    7
 10
-187.74760450000008
 20
775.20632899999998
 11
-187.99760450000008
 21
775.17251599999997
  0
LINE
  8
_0-0_0
  6
CONTINUOUS
 62
    7
 10
-187.74760450000008
 20
774.98233000000005
 11
-187.99760450000008
 21
775.17251599999997
  0
LINE
  8
_0-0_0
  6
CONTINUOUS
 62
    7
 10
-187.74760450000008
 20
774.98233000000005
 11
-187.99760450000008
 21
774.91976899999997
  0
LINE
  8
_0-0_0
  6
CONTINUOUS
 62
    7
 10
-187.74760450000008
 20
774.75195299999996
 11
-187.99760450000008
 21
774.91976899999997
  0
LINE
  8
_0-0_0
  6
CONTINUOUS
 62
    7
 10
-187.74760450000008
 20
774.75195299999996
 11
-187.99760450000008
 21
774.66131599999994
  0
LINE
  8
_0-0_0
  6
CONTINUOUS
 62
    7
 10
-187.74760450000008
 20
774.51773099999991
 11
-187.99760450000008
 21
774.66131599999994
  0
LINE
  8
_0-0_0
  6
CONTINUOUS
 62
    7
 10
-187.74760450000008
 20
774.51773099999991
 11
-187.99760450000008
 21
774.39999399999999
  0
LINE
  8
_0-0_0
  6
CONTINUOUS
 62
    7
 10
-187.74760450000008
 20
774.28222699999992
 11
-187.99760450000008
 21
774.39999399999999
  0
LINE
  8
_0-0_0
  6
CONTINUOUS
 62
    7
 10
-187.74760450000008
 20
774.28222699999992
 11
-187.99760450000008
 21
774.13867200000004
  0
LINE
  8
_0-0_0
  6
CONTINUOUS
 62
    7
 10
-187.74760450000008
 20
774.04800399999999
 11
-187.99760450000008
 21
774.13867200000004
  0
LINE
  8
_0-0_0
  6
CONTINUOUS
 62
    7
 10
-187.74760450000008
 20
774.04800399999999
 11
-187.99760450000008
 21
773.88021900000001
  0
LINE
  8
_0-0_0
  6
CONTINUOUS
 62
    7
 10
-187.74760450000008
 20
773.81765799999994
 11
-187.99760450000008
 21
773.88021900000001
  0
LINE
  8
_0-0_0
  6
CONTINUOUS
 62
    7
 10
-187.74760450000008
 20
773.81765799999994
 11
-187.99760450000008
 21
773.62744199999997
  0
LINE
  8
_0-0_0
  6
CONTINUOUS
 62
    7
 10
-187.74760450000008
 20
773.593659
 11
-187.99760450000008
 21
773.62744199999997
  0
LINE
  8
_0-0_0
  6
CONTINUOUS
 62
    7
 10
-187.74760450000008
 20
773.593659
 11
-187.99760450000008
 21
773.38314800000001
  0
LINE
  8
_0-0_0
  6
CONTINUOUS
 62
    7
 10
-187.74760450000008
 20
773.37851000000001
 11
-187.99760450000008
 21
773.38314800000001
  0
LINE
  8
_0-0_0
  6
CONTINUOUS
 62
    7
 10
-187.74760450000008
 20
773.37851000000001
 11
-187.99760450000008
 21
773.14999399999999
  0
LINE
  8
_0-0_0
  6
CONTINUOUS
 62
    7
 10
-187.74760450000008
 20
773.17456100000004
 11
-187.99760450000008
 21
772.93051199999991
  0
LINE
  8
_0-0_0
  6
CONTINUOUS
 62
    7
 10
-187.74760450000008
 20
772.98400900000001
 11
-187.99760450000008
 21
772.93051199999991
  0
LINE
  8
_0-0_0
  6
CONTINUOUS
 62
    7
 10
-187.74760450000008
 20
772.98400900000001
 11
-187.99760450000008
 21
772.72717299999999
  0
LINE
  8
_0-0_0
  6
CONTINUOUS
 62
    7
 10
-187.74760450000008
 20
772.80899099999999
 11
-187.99760450000008
 21
772.72717299999999
  0
LINE
  8
_0-0_0
  6
CONTINUOUS
 62
    7
 10
-187.74760450000008
 20
772.80899099999999
 11
-187.99760450000008
 21
772.54211399999997
  0
LINE
  8
_0-0_0
  6
CONTINUOUS
 62
    7
 10
-187.74760450000008
 20
772.65139799999997
 11
-187.99760450000008
 21
772.54211399999997
  0
LINE
  8
_0-0_0
  6
CONTINUOUS
 62
    7
 10
-187.74760450000008
 20
772.65139799999997
 11
-187.99760450000008
 21
772.37744199999997
  0
LINE
  8
_0-0_0
  6
CONTINUOUS
 62
    7
 10
-187.74760450000008
 20
772.51297
 11
-187.99760450000008
 21
772.37744199999997
  0
LINE
  8
_0-0_0
  6
CONTINUOUS
 62
    7
 10
-187.74760450000008
 20
772.51297
 11
-187.99760450000008
 21
772.23492399999998
  0
LINE
  8
_0-0_0
  6
CONTINUOUS
 62
    7
 10
-187.74760450000008
 20
772.39523299999996
 11
-187.99760450000008
 21
772.23492399999998
  0
LINE
  8
_0-0_0
  6
CONTINUOUS
 62
    7
 10
-187.74760450000008
 20
772.39523299999996
 11
-187.99760450000008
 21
772.11611900000003
  0
LINE
  8
_0-0_0
  6
CONTINUOUS
 62
    7
 10
-187.74760450000008
 20
772.29943900000001
 11
-187.99760450000008
 21
772.11611900000003
  0
LINE
  8
_0-0_0
  6
CONTINUOUS
 62
    7
 10
-187.74760450000008
 20
772.29943900000001
 11
-187.99760450000008
 21
772.02233899999999
  0
LINE
  8
_0-0_0
  6
CONTINUOUS
 62
    7
 10
-187.74760450000008
 20
772.22665400000005
 11
-187.99760450000008
 21
772.02233899999999
  0
LINE
  8
_0-0_0
  6
CONTINUOUS
 62
    7
 10
-187.74760450000008
 20
772.22665400000005
 11
-187.99760450000008
 21
771.95461999999998
  0
LINE
  8
_0-0_0
  6
CONTINUOUS
 62
    7
 10
-187.74760450000008
 20
772.17767299999991
 11
-187.99760450000008
 21
771.95461999999998
  0
LINE
  8
_0-0_0
  6
CONTINUOUS
 62
    7
 10
-187.74760450000008
 20
772.17767299999991
 11
-187.99760450000008
 21
771.91366599999992
  0
LINE
  8
_0-0_0
  6
CONTINUOUS
 62
    7
 10
-187.74760450000008
 20
772.15307600000006
 11
-187.99760450000008
 21
771.91366599999992
  0
LINE
  8
_0-0_0
  6
CONTINUOUS
 62
    7
 10
-187.74760450000008
 20
772.15307600000006
 11
-187.99760450000008
 21
771.89999399999999
  0
LINE
  8
_0-0_0
  6
CONTINUOUS
 62
    7
 10
-187.49760450000008
 20
772.39999399999999
 11
-187.49760450000008
 21
776.15515099999993
  0
LINE
  8
_0-0_0
  6
CONTINUOUS
 62
    7
 10
-187.87756349999995
 20
776.48861699999998
 11
-187.99760450000008
 21
776.56506400000001
  0
LINE
  8
_0-0_0
  6
CONTINUOUS
 62
    7
 10
-187.74760450000008
 20
776.28698699999995
 11
-187.99760450000008
 21
776.56506400000001
  0
LINE
  8
_0-0_0
  6
CONTINUOUS
 62
    7
 10
-187.74760450000008
 20
776.28698699999995
 11
-187.99760450000008
 21
776.42251599999997
  0
LINE
  8
_0-0_0
  6
CONTINUOUS
 62
    7
 10
-187.99760450000008
 20
776.25784299999998
 11
-197.24760450000008
 21
776.25784299999998
  0
LINE
  8
_0-0_0
  6
CONTINUOUS
 62
    7
 10
-197.49760450000008
 20
776.14855999999997
 11
-197.24760450000008
 21
776.25784299999998
  0
LINE
  8
_0-0_0
  6
CONTINUOUS
 62
    7
 10
-187.99760450000008
 20
776.07281499999999
 11
-197.24760450000008
 21
776.07281499999999
  0
LINE
  8
_0-0_0
  6
CONTINUOUS
 62
    7
 10
-197.49760450000008
 20
775.99096699999996
 11
-197.24760450000008
 21
776.07281499999999
  0
LINE
  8
_0-0_0
  6
CONTINUOUS
 62
    7
 10
-187.99760450000008
 20
775.86944599999993
 11
-197.24760450000008
 21
775.86944599999993
  0
LINE
  8
_0-0_0
  6
CONTINUOUS
 62
    7
 10
-197.49760450000008
 20
775.81594900000005
 11
-197.24760450000008
 21
775.86944599999993
  0
LINE
  8
_0-0_0
  6
CONTINUOUS
 62
    7
 10
-187.99760450000008
 20
775.64999399999999
 11
-197.24760450000008
 21
775.64999399999999
  0
LINE
  8
_0-0_0
  6
CONTINUOUS
 62
    7
 10
-197.49760450000008
 20
775.62542699999995
 11
-197.24760450000008
 21
775.64999399999999
  0
LINE
  8
_0-0_0
  6
CONTINUOUS
 62
    7
 10
-187.99760450000008
 20
775.41683999999998
 11
-197.24760450000008
 21
775.41683999999998
  0
LINE
  8
_0-0_0
  6
CONTINUOUS
 62
    7
 10
-187.74760450000008
 20
775.42147799999998
 11
-197.49760450000008
 21
775.42147799999998
  0
LINE
  8
_0-0_0
  6
CONTINUOUS
 62
    7
 10
-197.49760450000008
 20
775.42147799999998
 11
-197.24760450000008
 21
775.41683999999998
  0
LINE
  8
_0-0_0
  6
CONTINUOUS
 62
    7
 10
-187.99760450000008
 20
775.17251599999997
 11
-197.24760450000008
 21
775.17251599999997
  0
LINE
  8
_0-0_0
  6
CONTINUOUS
 62
    7
 10
-187.74760450000008
 20
775.20632899999998
 11
-197.49760450000008
 21
775.20632899999998
  0
LINE
  8
_0-0_0
  6
CONTINUOUS
 62
    7
 10
-197.49760450000008
 20
775.20632899999998
 11
-197.24760450000008
 21
775.17251599999997
  0
LINE
  8
_0-0_0
  6
CONTINUOUS
 62
    7
 10
-187.99760450000008
 20
774.91976899999997
 11
-197.24760450000008
 21
774.91976899999997
  0
LINE
  8
_0-0_0
  6
CONTINUOUS
 62
    7
 10
-187.74760450000008
 20
774.98233000000005
 11
-197.49760450000008
 21
774.98233000000005
  0
LINE
  8
_0-0_0
  6
CONTINUOUS
 62
    7
 10
-197.49760450000008
 20
774.98233000000005
 11
-197.24760450000008
 21
774.91976899999997
  0
LINE
  8
_0-0_0
  6
CONTINUOUS
 62
    7
 10
-187.99760450000008
 20
774.66131599999994
 11
-197.24760450000008
 21
774.66131599999994
  0
LINE
  8
_0-0_0
  6
CONTINUOUS
 62
    7
 10
-187.74760450000008
 20
774.75195299999996
 11
-197.49760450000008
 21
774.75195299999996
  0
LINE
  8
_0-0_0
  6
CONTINUOUS
 62
    7
 10
-197.49760450000008
 20
774.75195299999996
 11
-197.24760450000008
 21
774.66131599999994
  0
LINE
  8
_0-0_0
  6
CONTINUOUS
 62
    7
 10
-187.99760450000008
 20
774.39999399999999
 11
-197.24760450000008
 21
774.39999399999999
  0
LINE
  8
_0-0_0
  6
CONTINUOUS
 62
    7
 10
-187.74760450000008
 20
774.51773099999991
 11
-197.49760450000008
 21
774.51773099999991
  0
LINE
  8
_0-0_0
  6
CONTINUOUS
 62
    7
 10
-197.49760450000008
 20
774.51773099999991
 11
-197.24760450000008
 21
774.39999399999999
  0
LINE
  8
_0-0_0
  6
CONTINUOUS
 62
    7
 10
-187.99760450000008
 20
774.13867200000004
 11
-197.24760450000008
 21
774.13867200000004
  0
LINE
  8
_0-0_0
  6
CONTINUOUS
 62
    7
 10
-187.74760450000008
 20
774.28222699999992
 11
-197.49760450000008
 21
774.28222699999992
  0
LINE
  8
_0-0_0
  6
CONTINUOUS
 62
    7
 10
-197.49760450000008
 20
774.28222699999992
 11
-197.24760450000008
 21
774.13867200000004
  0
LINE
  8
_0-0_0
  6
CONTINUOUS
 62
    7
 10
-187.99760450000008
 20
773.88021900000001
 11
-197.24760450000008
 21
773.88021900000001
  0
LINE
  8
_0-0_0
  6
CONTINUOUS
 62
    7
 10
-187.74760450000008
 20
774.04800399999999
 11
-197.49760450000008
 21
774.04800399999999
  0
LINE
  8
_0-0_0
  6
CONTINUOUS
 62
    7
 10
-197.49760450000008
 20
774.04800399999999
 11
-197.24760450000008
 21
773.88021900000001
  0
LINE
  8
_0-0_0
  6
CONTINUOUS
 62
    7
 10
-187.99760450000008
 20
773.62744199999997
 11
-197.24760450000008
 21
773.62744199999997
  0
LINE
  8
_0-0_0
  6
CONTINUOUS
 62
    7
 10
-187.74760450000008
 20
773.81765799999994
 11
-197.49760450000008
 21
773.81765799999994
  0
LINE
  8
_0-0_0
  6
CONTINUOUS
 62
    7
 10
-197.49760450000008
 20
773.81765799999994
 11
-197.24760450000008
 21
773.62744199999997
  0
LINE
  8
_0-0_0
  6
CONTINUOUS
 62
    7
 10
-187.99760450000008
 20
773.38314800000001
 11
-197.24760450000008
 21
773.38314800000001
  0
LINE
  8
_0-0_0
  6
CONTINUOUS
 62
    7
 10
-187.74760450000008
 20
773.593659
 11
-197.49760450000008
 21
773.593659
  0
LINE
  8
_0-0_0
  6
CONTINUOUS
 62
    7
 10
-197.49760450000008
 20
773.593659
 11
-197.24760450000008
 21
773.38314800000001
  0
LINE
  8
_0-0_0
  6
CONTINUOUS
 62
    7
 10
-187.99760450000008
 20
772.72717299999999
 11
-197.24760450000008
 21
772.72717299999999
  0
LINE
  8
_0-0_0
  6
CONTINUOUS
 62
    7
 10
-197.49760450000008
 20
772.98400900000001
 11
-197.24760450000008
 21
772.72717299999999
  0
LINE
  8
_0-0_0
  6
CONTINUOUS
 62
    7
 10
-187.99760450000008
 20
772.54211399999997
 11
-197.24760450000008
 21
772.54211399999997
  0
LINE
  8
_0-0_0
  6
CONTINUOUS
 62
    7
 10
-197.49760450000008
 20
772.80899099999999
 11
-197.24760450000008
 21
772.54211399999997
  0
LINE
  8
_0-0_0
  6
CONTINUOUS
 62
    7
 10
-187.99760450000008
 20
772.37744199999997
 11
-197.24760450000008
 21
772.37744199999997
  0
LINE
  8
_0-0_0
  6
CONTINUOUS
 62
    7
 10
-197.49760450000008
 20
772.65139799999997
 11
-197.24760450000008
 21
772.37744199999997
  0
LINE
  8
_0-0_0
  6
CONTINUOUS
 62
    7
 10
-187.99760450000008
 20
772.23492399999998
 11
-197.24760450000008
 21
772.23492399999998
  0
LINE
  8
_0-0_0
  6
CONTINUOUS
 62
    7
 10
-197.49760450000008
 20
772.51297
 11
-197.24760450000008
 21
772.23492399999998
  0
LINE
  8
_0-0_0
  6
CONTINUOUS
 62
    7
 10
-187.99760450000008
 20
772.11611900000003
 11
-197.24760450000008
 21
772.11611900000003
  0
LINE
  8
_0-0_0
  6
CONTINUOUS
 62
    7
 10
-197.49760450000008
 20
772.39523299999996
 11
-197.24760450000008
 21
772.11611900000003
  0
LINE
  8
_0-0_0
  6
CONTINUOUS
 62
    7
 10
-187.99760450000008
 20
772.02233899999999
 11
-197.24760450000008
 21
772.02233899999999
  0
LINE
  8
_0-0_0
  6
CONTINUOUS
 62
    7
 10
-197.49760450000008
 20
772.29943900000001
 11
-197.24760450000008
 21
772.02233899999999
  0
LINE
  8
_0-0_0
  6
CONTINUOUS
 62
    7
 10
-187.99760450000008
 20
771.95461999999998
 11
-197.24760450000008
 21
771.95461999999998
  0
LINE
  8
_0-0_0
  6
CONTINUOUS
 62
    7
 10
-197.49760450000008
 20
772.22665400000005
 11
-197.24760450000008
 21
771.95461999999998
  0
LINE
  8
_0-0_0
  6
CONTINUOUS
 62
    7
 10
-187.99760450000008
 20
771.91366599999992
 11
-197.24760450000008
 21
771.91366599999992
  0
LINE
  8
_0-0_0
  6
CONTINUOUS
 62
    7
 10
-197.49760450000008
 20
772.17767299999991
 11
-197.24760450000008
 21
771.91366599999992
  0
LINE
  8
_0-0_0
  6
CONTINUOUS
 62
    7
 10
-187.99760450000008
 20
771.89999399999999
 11
-197.24760450000008
 21
771.89999399999999
  0
LINE
  8
_0-0_0
  6
CONTINUOUS
 62
    7
 10
-197.49760450000008
 20
772.15307600000006
 11
-197.24760450000008
 21
771.89999399999999
  0
LINE
  8
_0-0_0
  6
CONTINUOUS
 62
    7
 10
-187.99760450000008
 20
776.56506400000001
 11
-197.24760450000008
 21
776.56506400000001
  0
LINE
  8
_0-0_0
  6
CONTINUOUS
 62
    7
 10
-187.74760450000008
 20
776.40475500000002
 11
-187.87756349999995
 21
776.48861699999998
  0
LINE
  8
_0-0_0
  6
CONTINUOUS
 62
    7
 10
-197.49760450000008
 20
776.40475500000002
 11
-197.3676304999999
 21
776.48861699999998
  0
LINE
  8
_0-0_0
  6
CONTINUOUS
 62
    7
 10
-197.3676304999999
 20
776.48861699999998
 11
-197.24760450000008
 21
776.56506400000001
  0
LINE
  8
_0-0_0
  6
CONTINUOUS
 62
    7
 10
-187.99760450000008
 20
776.42251599999997
 11
-197.24760450000008
 21
776.42251599999997
  0
LINE
  8
_0-0_0
  6
CONTINUOUS
 62
    7
 10
-197.49760450000008
 20
776.28698699999995
 11
-197.24760450000008
 21
776.42251599999997
  0
LINE
  8
_0-0_0
  6
CONTINUOUS
 62
    7
 10
-187.74760450000008
 20
776.40475500000002
 11
-187.99760450000008
 21
776.68383799999992
  0
LINE
  8
_0-0_0
  6
CONTINUOUS
 62
    7
 10
-187.99760450000008
 20
776.68383799999992
 11
-197.24760450000008
 21
776.68383799999992
  0
LINE
  8
_0-0_0
  6
CONTINUOUS
 62
    7
 10
-197.49760450000008
 20
776.40475500000002
 11
-197.24760450000008
 21
776.68383799999992
  0
LINE
  8
_0-0_0
  6
CONTINUOUS
 62
    7
 10
-187.74760450000008
 20
776.50054899999998
 11
-187.99760450000008
 21
776.68383799999992
  0
LINE
  8
_0-0_0
  6
CONTINUOUS
 62
    7
 10
-197.49760450000008
 20
776.50054899999998
 11
-197.24760450000008
 21
776.68383799999992
  0
LINE
  8
_0-0_0
  6
CONTINUOUS
 62
    7
 10
-187.74760450000008
 20
776.50054899999998
 11
-187.99760450000008
 21
776.77761899999996
  0
LINE
  8
_0-0_0
  6
CONTINUOUS
 62
    7
 10
-187.99760450000008
 20
776.77761899999996
 11
-197.24760450000008
 21
776.77761899999996
  0
LINE
  8
_0-0_0
  6
CONTINUOUS
 62
    7
 10
-197.49760450000008
 20
776.50054899999998
 11
-197.24760450000008
 21
776.77761899999996
  0
LINE
  8
_0-0_0
  6
CONTINUOUS
 62
    7
 10
-187.74760450000008
 20
776.57333399999993
 11
-187.99760450000008
 21
776.77761899999996
  0
LINE
  8
_0-0_0
  6
CONTINUOUS
 62
    7
 10
-197.49760450000008
 20
776.57333399999993
 11
-197.24760450000008
 21
776.77761899999996
  0
LINE
  8
_0-0_0
  6
CONTINUOUS
 62
    7
 10
-187.74760450000008
 20
776.57333399999993
 11
-187.99760450000008
 21
776.84536800000001
  0
LINE
  8
_0-0_0
  6
CONTINUOUS
 62
    7
 10
-187.99760450000008
 20
776.84536800000001
 11
-197.24760450000008
 21
776.84536800000001
  0
LINE
  8
_0-0_0
  6
CONTINUOUS
 62
    7
 10
-197.49760450000008
 20
776.57333399999993
 11
-197.24760450000008
 21
776.84536800000001
  0
LINE
  8
_0-0_0
  6
CONTINUOUS
 62
    7
 10
-187.74760450000008
 20
776.62228400000004
 11
-187.99760450000008
 21
776.84536800000001
  0
LINE
  8
_0-0_0
  6
CONTINUOUS
 62
    7
 10
-197.49760450000008
 20
776.62228400000004
 11
-197.24760450000008
 21
776.84536800000001
  0
LINE
  8
_0-0_0
  6
CONTINUOUS
 62
    7
 10
-187.74760450000008
 20
776.62228400000004
 11
-187.99760450000008
 21
776.88629199999991
  0
LINE
  8
_0-0_0
  6
CONTINUOUS
 62
    7
 10
-187.99760450000008
 20
776.88629199999991
 11
-197.24760450000008
 21
776.88629199999991
  0
LINE
  8
_0-0_0
  6
CONTINUOUS
 62
    7
 10
-197.49760450000008
 20
776.62228400000004
 11
-197.24760450000008
 21
776.88629199999991
  0
LINE
  8
_0-0_0
  6
CONTINUOUS
 62
    7
 10
-187.74760450000008
 20
776.64691199999993
 11
-187.99760450000008
 21
776.88629199999991
  0
LINE
  8
_0-0_0
  6
CONTINUOUS
 62
    7
 10
-197.49760450000008
 20
776.64691199999993
 11
-197.24760450000008
 21
776.88629199999991
  0
LINE
  8
_0-0_0
  6
CONTINUOUS
 62
    7
 10
-187.74760450000008
 20
776.64691199999993
 11
-187.99760450000008
 21
776.89999399999999
  0
LINE
  8
_0-0_0
  6
CONTINUOUS
 62
    7
 10
-187.99760450000008
 20
776.89999399999999
 11
-197.24760450000008
 21
776.89999399999999
  0
LINE
  8
_0-0_0
  6
CONTINUOUS
 62
    7
 10
-197.49760450000008
 20
776.64691199999993
 11
-197.24760450000008
 21
776.89999399999999
  0
LINE
  8
_0-0_0
  6
CONTINUOUS
 62
    7
 10
-142.29760750000003
 20
762.09997599999997
 11
-142.29760750000003
 21
762.10134900000003
  0
LINE
  8
_0-0_0
  6
CONTINUOUS
 62
    7
 10
-142.29760750000003
 20
762.10134900000003
 11
-142.29760750000003
 21
770.09997599999997
  0
LINE
  8
_0-0_0
  6
CONTINUOUS
 62
    7
 10
-197.49760450000008
 20
776.28698699999995
 11
-197.24760450000008
 21
776.56506400000001
  0
LINE
  8
_0-0_0
  6
CONTINUOUS
 62
    7
 10
-187.49760450000008
 20
776.15515099999993
 11
-187.49760450000008
 21
776.39999399999999
  0
LINE
  8
_0-0_0
  6
CONTINUOUS
 62
    7
 10
-197.49760450000008
 20
772.15307600000006
 11
-197.24760450000008
 21
771.91366599999992
  0
LINE
  8
_0-0_0
  6
CONTINUOUS
 62
    7
 10
-197.49760450000008
 20
772.17767299999991
 11
-197.24760450000008
 21
771.95461999999998
  0
LINE
  8
_0-0_0
  6
CONTINUOUS
 62
    7
 10
-197.49760450000008
 20
772.22665400000005
 11
-197.24760450000008
 21
772.02233899999999
  0
LINE
  8
_0-0_0
  6
CONTINUOUS
 62
    7
 10
-197.49760450000008
 20
772.29943900000001
 11
-197.24760450000008
 21
772.11611900000003
  0
LINE
  8
_0-0_0
  6
CONTINUOUS
 62
    7
 10
-197.49760450000008
 20
772.39523299999996
 11
-197.24760450000008
 21
772.23492399999998
  0
LINE
  8
_0-0_0
  6
CONTINUOUS
 62
    7
 10
-197.49760450000008
 20
772.51297
 11
-197.24760450000008
 21
772.37744199999997
  0
LINE
  8
_0-0_0
  6
CONTINUOUS
 62
    7
 10
-197.49760450000008
 20
772.65139799999997
 11
-197.24760450000008
 21
772.54211399999997
  0
LINE
  8
_0-0_0
  6
CONTINUOUS
 62
    7
 10
-197.49760450000008
 20
772.80899099999999
 11
-197.24760450000008
 21
772.72717299999999
  0
LINE
  8
_0-0_0
  6
CONTINUOUS
 62
    7
 10
-187.99760450000008
 20
772.93051199999991
 11
-197.24760450000008
 21
772.93051199999991
  0
LINE
  8
_0-0_0
  6
CONTINUOUS
 62
    7
 10
-197.49760450000008
 20
772.98400900000001
 11
-197.24760450000008
 21
772.93051199999991
  0
LINE
  8
_0-0_0
  6
CONTINUOUS
 62
    7
 10
-197.49760450000008
 20
773.37851000000001
 11
-197.24760450000008
 21
773.38314800000001
  0
LINE
  8
_0-0_0
  6
CONTINUOUS
 62
    7
 10
-187.74760450000008
 20
773.37851000000001
 11
-197.49760450000008
 21
773.37851000000001
  0
LINE
  8
_0-0_0
  6
CONTINUOUS
 62
    7
 10
-197.49760450000008
 20
773.593659
 11
-197.24760450000008
 21
773.62744199999997
  0
LINE
  8
_0-0_0
  6
CONTINUOUS
 62
    7
 10
-197.49760450000008
 20
773.81765799999994
 11
-197.24760450000008
 21
773.88021900000001
  0
LINE
  8
_0-0_0
  6
CONTINUOUS
 62
    7
 10
-197.49760450000008
 20
774.04800399999999
 11
-197.24760450000008
 21
774.13867200000004
  0
LINE
  8
_0-0_0
  6
CONTINUOUS
 62
    7
 10
-197.49760450000008
 20
774.28222699999992
 11
-197.24760450000008
 21
774.39999399999999
  0
LINE
  8
_0-0_0
  6
CONTINUOUS
 62
    7
 10
-197.49760450000008
 20
774.51773099999991
 11
-197.24760450000008
 21
774.66131599999994
  0
LINE
  8
_0-0_0
  6
CONTINUOUS
 62
    7
 10
-197.49760450000008
 20
774.75195299999996
 11
-197.24760450000008
 21
774.91976899999997
  0
LINE
  8
_0-0_0
  6
CONTINUOUS
 62
    7
 10
-197.49760450000008
 20
774.98233000000005
 11
-197.24760450000008
 21
775.17251599999997
  0
LINE
  8
_0-0_0
  6
CONTINUOUS
 62
    7
 10
-197.49760450000008
 20
775.20632899999998
 11
-197.24760450000008
 21
775.41683999999998
  0
LINE
  8
_0-0_0
  6
CONTINUOUS
 62
    7
 10
-197.49760450000008
 20
775.42147799999998
 11
-197.24760450000008
 21
775.64999399999999
  0
LINE
  8
_0-0_0
  6
CONTINUOUS
 62
    7
 10
-197.49760450000008
 20
775.62542699999995
 11
-197.24760450000008
 21
775.86944599999993
  0
LINE
  8
_0-0_0
  6
CONTINUOUS
 62
    7
 10
-197.49760450000008
 20
775.81594900000005
 11
-197.24760450000008
 21
776.07281499999999
  0
LINE
  8
_0-0_0
  6
CONTINUOUS
 62
    7
 10
-197.49760450000008
 20
775.99096699999996
 11
-197.24760450000008
 21
776.25784299999998
  0
LINE
  8
_0-0_0
  6
CONTINUOUS
 62
    7
 10
-197.49760450000008
 20
776.14855999999997
 11
-197.24760450000008
 21
776.42251599999997
  0
LINE
  8
_0-0_0
  6
CONTINUOUS
 62
    7
 10
-197.49760450000008
 20
773.17456100000004
 11
-197.24760450000008
 21
772.93051199999991
  0
LINE
  8
_0-0_0
  6
CONTINUOUS
 62
    7
 10
-197.49760450000008
 20
773.37851000000001
 11
-197.24760450000008
 21
773.14999399999999
  0
LINE
  8
_0-0_0
  6
CONTINUOUS
 62
    7
 10
-197.49760450000008
 20
759.68698100000006
 11
-197.24760450000008
 21
759.965057
  0
LINE
  8
_0-0_0
  6
CONTINUOUS
 62
    7
 10
-187.49760450000008
 20
759.55514500000004
 11
-187.49760450000008
 21
759.79998799999998
  0
LINE
  8
_0-0_0
  6
CONTINUOUS
 62
    7
 10
-197.49760450000008
 20
755.55306999999993
 11
-197.24760450000008
 21
755.31368999999995
  0
LINE
  8
_0-0_0
  6
CONTINUOUS
 62
    7
 10
-197.49760450000008
 20
755.57769800000005
 11
-197.24760450000008
 21
755.35461399999997
  0
LINE
  8
_0-0_0
  6
CONTINUOUS
 62
    7
 10
-197.49760450000008
 20
755.62664799999993
 11
-197.24760450000008
 21
755.42233299999998
  0
LINE
  8
_0-0_0
  6
CONTINUOUS
 62
    7
 10
-197.49760450000008
 20
755.699432
 11
-197.24760450000008
 21
755.51611300000002
  0
LINE
  8
_0-0_0
  6
CONTINUOUS
 62
    7
 10
-197.49760450000008
 20
755.79522700000007
 11
-197.24760450000008
 21
755.63491799999997
  0
LINE
  8
_0-0_0
  6
CONTINUOUS
 62
    7
 10
-197.49760450000008
 20
755.91299400000003
 11
-197.24760450000008
 21
755.77743499999997
  0
LINE
  8
_0-0_0
  6
CONTINUOUS
 62
    7
 10
-197.49760450000008
 20
756.051422
 11
-197.24760450000008
 21
755.94210799999996
  0
LINE
  8
_0-0_0
  6
CONTINUOUS
 62
    7
 10
-197.49760450000008
 20
756.20898399999999
 11
-197.24760450000008
 21
756.12716699999999
  0
LINE
  8
_0-0_0
  6
CONTINUOUS
 62
    7
 10
-187.99760450000008
 20
756.33053599999994
 11
-197.24760450000008
 21
756.33053599999994
  0
LINE
  8
_0-0_0
  6
CONTINUOUS
 62
    7
 10
-197.49760450000008
 20
756.38400300000001
 11
-197.24760450000008
 21
756.33053599999994
  0
LINE
  8
_0-0_0
  6
CONTINUOUS
 62
    7
 10
-197.49760450000008
 20
756.778504
 11
-197.24760450000008
 21
756.783142
  0
LINE
  8
_0-0_0
  6
CONTINUOUS
 62
    7
 10
-187.74760450000008
 20
756.778504
 11
-197.49760450000008
 21
756.778504
  0
LINE
  8
_0-0_0
  6
CONTINUOUS
 62
    7
 10
-197.49760450000008
 20
756.993652
 11
-197.24760450000008
 21
757.02743499999997
  0
LINE
  8
_0-0_0
  6
CONTINUOUS
 62
    7
 10
-197.49760450000008
 20
757.21765099999993
 11
-197.24760450000008
 21
757.280213
  0
LINE
  8
_0-0_0
  6
CONTINUOUS
 62
    7
 10
-197.49760450000008
 20
757.44799799999998
 11
-197.24760450000008
 21
757.53866599999992
  0
LINE
  8
_0-0_0
  6
CONTINUOUS
 62
    7
 10
-197.49760450000008
 20
757.68222100000003
 11
-197.24760450000008
 21
757.79998799999998
  0
LINE
  8
_0-0_0
  6
CONTINUOUS
 62
    7
 10
-197.49760450000008
 20
757.91775499999994
 11
-197.24760450000008
 21
758.06131000000005
  0
LINE
  8
_0-0_0
  6
CONTINUOUS
 62
    7
 10
-197.49760450000008
 20
758.15197799999999
 11
-197.24760450000008
 21
758.31976299999997
  0
LINE
  8
_0-0_0
  6
CONTINUOUS
 62
    7
 10
-197.49760450000008
 20
758.38232399999993
 11
-197.24760450000008
 21
758.57254
  0
LINE
  8
_0-0_0
  6
CONTINUOUS
 62
    7
 10
-197.49760450000008
 20
758.60632299999997
 11
-197.24760450000008
 21
758.81683399999997
  0
LINE
  8
_0-0_0
  6
CONTINUOUS
 62
    7
 10
-197.49760450000008
 20
758.82147199999997
 11
-197.24760450000008
 21
759.04998799999998
  0
LINE
  8
_0-0_0
  6
CONTINUOUS
 62
    7
 10
-197.49760450000008
 20
759.02542100000005
 11
-197.24760450000008
 21
759.26944000000003
  0
LINE
  8
_0-0_0
  6
CONTINUOUS
 62
    7
 10
-197.49760450000008
 20
759.21597300000008
 11
-197.24760450000008
 21
759.47280899999998
  0
LINE
  8
_0-0_0
  6
CONTINUOUS
 62
    7
 10
-197.49760450000008
 20
759.39096100000006
 11
-197.24760450000008
 21
759.65783699999997
  0
LINE
  8
_0-0_0
  6
CONTINUOUS
 62
    7
 10
-197.49760450000008
 20
759.54855399999997
 11
-197.24760450000008
 21
759.82254
  0
LINE
  8
_0-0_0
  6
CONTINUOUS
 62
    7
 10
-197.49760450000008
 20
756.57455499999992
 11
-197.24760450000008
 21
756.33053599999994
  0
LINE
  8
_0-0_0
  6
CONTINUOUS
 62
    7
 10
-197.49760450000008
 20
756.778504
 11
-197.24760450000008
 21
756.54998799999998
  0
LINE
  8
_0-0_0
  6
CONTINUOUS
 62
    7
 10
-200.29760749999991
 20
761.56185899999991
 11
-200.29760749999991
 21
763.83093299999996
  0
LINE
  8
_0-0_0
  6
CONTINUOUS
 62
    7
 10
-200.29760749999991
 20
763.83093299999996
 11
-200.29760749999991
 21
770.63809199999992
  0
LINE
  8
_0-0_0
  6
CONTINUOUS
 62
    7
 10
-197.49760450000008
 20
773.37851000000001
 11
-197.49760450000008
 21
773.593659
  0
LINE
  8
_0-0_0
  6
CONTINUOUS
 62
    7
 10
-197.49760450000008
 20
773.593659
 11
-197.49760450000008
 21
773.81765799999994
  0
LINE
  8
_0-0_0
  6
CONTINUOUS
 62
    7
 10
-197.49760450000008
 20
773.81765799999994
 11
-197.49760450000008
 21
774.04800399999999
  0
LINE
  8
_0-0_0
  6
CONTINUOUS
 62
    7
 10
-197.49760450000008
 20
774.04800399999999
 11
-197.49760450000008
 21
774.28222699999992
  0
LINE
  8
_0-0_0
  6
CONTINUOUS
 62
    7
 10
-197.49760450000008
 20
774.28222699999992
 11
-197.49760450000008
 21
774.51773099999991
  0
LINE
  8
_0-0_0
  6
CONTINUOUS
 62
    7
 10
-197.49760450000008
 20
774.51773099999991
 11
-197.49760450000008
 21
774.75195299999996
  0
LINE
  8
_0-0_0
  6
CONTINUOUS
 62
    7
 10
-197.49760450000008
 20
774.75195299999996
 11
-197.49760450000008
 21
774.98233000000005
  0
LINE
  8
_0-0_0
  6
CONTINUOUS
 62
    7
 10
-197.49760450000008
 20
774.98233000000005
 11
-197.49760450000008
 21
775.20632899999998
  0
LINE
  8
_0-0_0
  6
CONTINUOUS
 62
    7
 10
-197.49760450000008
 20
775.20632899999998
 11
-197.49760450000008
 21
775.42147799999998
  0
LINE
  8
_0-0_0
  6
CONTINUOUS
 62
    7
 10
-197.49760450000008
 20
775.42147799999998
 11
-197.49760450000008
 21
775.62542699999995
  0
LINE
  8
_0-0_0
  6
CONTINUOUS
 62
    7
 10
-197.49760450000008
 20
775.62542699999995
 11
-197.49760450000008
 21
775.81594900000005
  0
LINE
  8
_0-0_0
  6
CONTINUOUS
 62
    7
 10
-197.49760450000008
 20
775.81594900000005
 11
-197.49760450000008
 21
775.99096699999996
  0
LINE
  8
_0-0_0
  6
CONTINUOUS
 62
    7
 10
-197.49760450000008
 20
775.99096699999996
 11
-197.49760450000008
 21
776.14855999999997
  0
LINE
  8
_0-0_0
  6
CONTINUOUS
 62
    7
 10
-197.49760450000008
 20
776.14855999999997
 11
-197.49760450000008
 21
776.28698699999995
  0
LINE
  8
_0-0_0
  6
CONTINUOUS
 62
    7
 10
-197.49760450000008
 20
776.28698699999995
 11
-197.49760450000008
 21
776.37454200000002
  0
LINE
  8
_0-0_0
  6
CONTINUOUS
 62
    7
 10
-197.49760450000008
 20
776.37454200000002
 11
-197.49760450000008
 21
776.40475500000002
  0
LINE
  8
_0-0_0
  6
CONTINUOUS
 62
    7
 10
-197.49760450000008
 20
776.40475500000002
 11
-197.49760450000008
 21
776.50054899999998
  0
LINE
  8
_0-0_0
  6
CONTINUOUS
 62
    7
 10
-197.49760450000008
 20
776.50054899999998
 11
-197.49760450000008
 21
776.57333399999993
  0
LINE
  8
_0-0_0
  6
CONTINUOUS
 62
    7
 10
-197.49760450000008
 20
776.57333399999993
 11
-197.49760450000008
 21
776.62228400000004
  0
LINE
  8
_0-0_0
  6
CONTINUOUS
 62
    7
 10
-197.49760450000008
 20
776.62228400000004
 11
-197.49760450000008
 21
776.64999399999999
  0
LINE
  8
_0-0_0
  6
CONTINUOUS
 62
    7
 10
-197.49760450000008
 20
776.64691199999993
 11
-197.49760450000008
 21
776.64999399999999
  0
LINE
  8
_0-0_0
  6
CONTINUOUS
 62
    7
 10
-197.49760450000008
 20
772.14999399999999
 11
-197.49760450000008
 21
772.15307600000006
  0
LINE
  8
_0-0_0
  6
CONTINUOUS
 62
    7
 10
-197.49760450000008
 20
772.15307600000006
 11
-197.49760450000008
 21
772.17767299999991
  0
LINE
  8
_0-0_0
  6
CONTINUOUS
 62
    7
 10
-197.49760450000008
 20
772.17767299999991
 11
-197.49760450000008
 21
772.22665400000005
  0
LINE
  8
_0-0_0
  6
CONTINUOUS
 62
    7
 10
-197.49760450000008
 20
772.22665400000005
 11
-197.49760450000008
 21
772.29943900000001
  0
LINE
  8
_0-0_0
  6
CONTINUOUS
 62
    7
 10
-197.49760450000008
 20
772.14999399999999
 11
-197.49760450000008
 21
772.39523299999996
  0
LINE
  8
_0-0_0
  6
CONTINUOUS
 62
    7
 10
-197.49760450000008
 20
772.39523299999996
 11
-197.49760450000008
 21
772.51297
  0
LINE
  8
_0-0_0
  6
CONTINUOUS
 62
    7
 10
-197.49760450000008
 20
772.51297
 11
-197.49760450000008
 21
772.65139799999997
  0
LINE
  8
_0-0_0
  6
CONTINUOUS
 62
    7
 10
-197.49760450000008
 20
772.65139799999997
 11
-197.49760450000008
 21
772.80899099999999
  0
LINE
  8
_0-0_0
  6
CONTINUOUS
 62
    7
 10
-197.49760450000008
 20
772.80899099999999
 11
-197.49760450000008
 21
772.98400900000001
  0
LINE
  8
_0-0_0
  6
CONTINUOUS
 62
    7
 10
-197.49760450000008
 20
772.98400900000001
 11
-197.49760450000008
 21
773.17456100000004
  0
LINE
  8
_0-0_0
  6
CONTINUOUS
 62
    7
 10
-197.49760450000008
 20
773.32128899999998
 11
-197.49760450000008
 21
773.37851000000001
  0
LINE
  8
_0-0_0
  6
CONTINUOUS
 62
    7
 10
-197.49760450000008
 20
773.17456100000004
 11
-197.49760450000008
 21
773.32128899999998
  0
LINE
  8
_0-0_0
  6
CONTINUOUS
 62
    7
 10
-197.49760450000008
 20
756.778504
 11
-197.49760450000008
 21
756.993652
  0
LINE
  8
_0-0_0
  6
CONTINUOUS
 62
    7
 10
-197.49760450000008
 20
756.993652
 11
-197.49760450000008
 21
757.21765099999993
  0
LINE
  8
_0-0_0
  6
CONTINUOUS
 62
    7
 10
-197.49760450000008
 20
757.21765099999993
 11
-197.49760450000008
 21
757.44799799999998
  0
LINE
  8
_0-0_0
  6
CONTINUOUS
 62
    7
 10
-197.49760450000008
 20
757.44799799999998
 11
-197.49760450000008
 21
757.68222100000003
  0
LINE
  8
_0-0_0
  6
CONTINUOUS
 62
    7
 10
-197.49760450000008
 20
757.68222100000003
 11
-197.49760450000008
 21
757.91775499999994
  0
LINE
  8
_0-0_0
  6
CONTINUOUS
 62
    7
 10
-197.49760450000008
 20
757.91775499999994
 11
-197.49760450000008
 21
758.15197799999999
  0
LINE
  8
_0-0_0
  6
CONTINUOUS
 62
    7
 10
-197.49760450000008
 20
758.15197799999999
 11
-197.49760450000008
 21
758.38232399999993
  0
LINE
  8
_0-0_0
  6
CONTINUOUS
 62
    7
 10
-197.49760450000008
 20
758.38232399999993
 11
-197.49760450000008
 21
758.60632299999997
  0
LINE
  8
_0-0_0
  6
CONTINUOUS
 62
    7
 10
-197.49760450000008
 20
758.60632299999997
 11
-197.49760450000008
 21
758.82147199999997
  0
LINE
  8
_0-0_0
  6
CONTINUOUS
 62
    7
 10
-197.49760450000008
 20
758.82147199999997
 11
-197.49760450000008
 21
759.02542100000005
  0
LINE
  8
_0-0_0
  6
CONTINUOUS
 62
    7
 10
-197.49760450000008
 20
759.02542100000005
 11
-197.49760450000008
 21
759.21597300000008
  0
LINE
  8
_0-0_0
  6
CONTINUOUS
 62
    7
 10
-197.49760450000008
 20
759.21597300000008
 11
-197.49760450000008
 21
759.39096100000006
  0
LINE
  8
_0-0_0
  6
CONTINUOUS
 62
    7
 10
-197.49760450000008
 20
759.39096100000006
 11
-197.49760450000008
 21
759.54855399999997
  0
LINE
  8
_0-0_0
  6
CONTINUOUS
 62
    7
 10
-197.49760450000008
 20
759.54855399999997
 11
-197.49760450000008
 21
759.68698100000006
  0
LINE
  8
_0-0_0
  6
CONTINUOUS
 62
    7
 10
-197.49760450000008
 20
759.68698100000006
 11
-197.49760450000008
 21
759.77453600000001
  0
LINE
  8
_0-0_0
  6
CONTINUOUS
 62
    7
 10
-197.49760450000008
 20
759.77453600000001
 11
-197.49760450000008
 21
759.80474900000002
  0
LINE
  8
_0-0_0
  6
CONTINUOUS
 62
    7
 10
-197.49760450000008
 20
759.80474900000002
 11
-197.49760450000008
 21
759.90054299999997
  0
LINE
  8
_0-0_0
  6
CONTINUOUS
 62
    7
 10
-197.49760450000008
 20
759.90054299999997
 11
-197.49760450000008
 21
759.97332800000004
  0
LINE
  8
_0-0_0
  6
CONTINUOUS
 62
    7
 10
-197.49760450000008
 20
759.97332800000004
 11
-197.49760450000008
 21
760.04998799999998
  0
LINE
  8
_0-0_0
  6
CONTINUOUS
 62
    7
 10
-197.49760450000008
 20
760.02227799999991
 11
-197.49760450000008
 21
760.04690600000004
  0
LINE
  8
_0-0_0
  6
CONTINUOUS
 62
    7
 10
-197.49760450000008
 20
760.04690600000004
 11
-197.49760450000008
 21
760.04998799999998
  0
LINE
  8
_0-0_0
  6
CONTINUOUS
 62
    7
 10
-197.49760450000008
 20
755.54998799999998
 11
-197.49760450000008
 21
755.55306999999993
  0
LINE
  8
_0-0_0
  6
CONTINUOUS
 62
    7
 10
-197.49760450000008
 20
755.55306999999993
 11
-197.49760450000008
 21
755.57769800000005
  0
LINE
  8
_0-0_0
  6
CONTINUOUS
 62
    7
 10
-197.49760450000008
 20
755.57769800000005
 11
-197.49760450000008
 21
755.62664799999993
  0
LINE
  8
_0-0_0
  6
CONTINUOUS
 62
    7
 10
-197.49760450000008
 20
755.62664799999993
 11
-197.49760450000008
 21
755.699432
  0
LINE
  8
_0-0_0
  6
CONTINUOUS
 62
    7
 10
-197.49760450000008
 20
755.54998799999998
 11
-197.49760450000008
 21
755.79522700000007
  0
LINE
  8
_0-0_0
  6
CONTINUOUS
 62
    7
 10
-197.49760450000008
 20
755.79522700000007
 11
-197.49760450000008
 21
755.91299400000003
  0
LINE
  8
_0-0_0
  6
CONTINUOUS
 62
    7
 10
-197.49760450000008
 20
755.91299400000003
 11
-197.49760450000008
 21
756.051422
  0
LINE
  8
_0-0_0
  6
CONTINUOUS
 62
    7
 10
-197.49760450000008
 20
756.051422
 11
-197.49760450000008
 21
756.20898399999999
  0
LINE
  8
_0-0_0
  6
CONTINUOUS
 62
    7
 10
-197.49760450000008
 20
756.20898399999999
 11
-197.49760450000008
 21
756.38400300000001
  0
LINE
  8
_0-0_0
  6
CONTINUOUS
 62
    7
 10
-197.49760450000008
 20
756.38400300000001
 11
-197.49760450000008
 21
756.57455499999992
  0
LINE
  8
_0-0_0
  6
CONTINUOUS
 62
    7
 10
-197.49760450000008
 20
756.72128299999997
 11
-197.49760450000008
 21
756.778504
  0
LINE
  8
_0-0_0
  6
CONTINUOUS
 62
    7
 10
-197.49760450000008
 20
756.57455499999992
 11
-197.49760450000008
 21
756.72128299999997
  0
LINE
  8
_0-0_0
  6
CONTINUOUS
 62
    7
 10
-201.09761049999997
 20
763.59997599999997
 11
-201.09761049999997
 21
771.09997599999997
  0
LINE
  8
_0-0_0
  6
CONTINUOUS
 62
    7
 10
-201.09761049999997
 20
761.09997599999997
 11
-201.09761049999997
 21
763.59997599999997
  0
LINE
  8
_0-0_0
  6
CONTINUOUS
 62
    7
 10
-212.49760450000008
 20
772.59997599999997
 11
-202.7897794999999
 21
772.59997599999997
  0
LINE
  8
_0-0_0
  6
CONTINUOUS
 62
    7
 10
-202.74760450000008
 20
772.59997599999997
 11
-202.7897794999999
 21
772.59997599999997
  0
LINE
  8
_0-0_0
  6
CONTINUOUS
 62
    7
 10
-212.79760749999991
 20
763.88797
 11
-212.73880050000002
 21
763.64111300000002
  0
LINE
  8
_0-0_0
  6
CONTINUOUS
 62
    7
 10
-212.73880050000002
 20
763.64111300000002
 11
-212.68904150000003
 21
763.44879199999991
  0
LINE
  8
_0-0_0
  6
CONTINUOUS
 62
    7
 10
-212.68904150000003
 20
763.44879199999991
 11
-212.61791949999997
 21
763.18304499999999
  0
LINE
  8
_0-0_0
  6
CONTINUOUS
 62
    7
 10
-212.61791949999997
 20
763.18304499999999
 11
-212.58496050000008
 21
763.05633599999999
  0
LINE
  8
_0-0_0
  6
CONTINUOUS
 62
    7
 10
-212.58496050000008
 20
763.05633599999999
 11
-212.55970750000006
 21
762.95291099999997
  0
LINE
  8
_0-0_0
  6
CONTINUOUS
 62
    7
 10
-212.55970750000006
 20
762.95291099999997
 11
-212.53767449999987
 21
762.852936
  0
LINE
  8
_0-0_0
  6
CONTINUOUS
 62
    7
 10
-212.53767449999987
 20
762.852936
 11
-212.51628149999988
 21
762.73523
  0
LINE
  8
_0-0_0
  6
CONTINUOUS
 62
    7
 10
-212.51628149999988
 20
762.73523
 11
-212.50772150000012
 21
762.67309599999999
  0
LINE
  8
_0-0_0
  6
CONTINUOUS
 62
    7
 10
-212.50772150000012
 20
762.67309599999999
 11
-212.50163249999991
 21
762.61248799999998
  0
LINE
  8
_0-0_0
  6
CONTINUOUS
 62
    7
 10
-212.50163249999991
 20
762.61248799999998
 11
-212.4986265
 21
762.56326300000001
  0
LINE
  8
_0-0_0
  6
CONTINUOUS
 62
    7
 10
-212.4986265
 20
762.56326300000001
 11
-212.49760450000008
 21
762.51504499999999
  0
LINE
  8
_0-0_0
  6
CONTINUOUS
 62
    7
 10
-212.79760749999991
 20
768.31198100000006
 11
-212.73881549999987
 21
768.558807
  0
LINE
  8
_0-0_0
  6
CONTINUOUS
 62
    7
 10
-212.73881549999987
 20
768.558807
 11
-212.68904150000003
 21
768.75116000000003
  0
LINE
  8
_0-0_0
  6
CONTINUOUS
 62
    7
 10
-212.68904150000003
 20
768.75116000000003
 11
-212.61791949999997
 21
769.01693699999998
  0
LINE
  8
_0-0_0
  6
CONTINUOUS
 62
    7
 10
-212.61791949999997
 20
769.01693699999998
 11
-212.58496050000008
 21
769.14367700000003
  0
LINE
  8
_0-0_0
  6
CONTINUOUS
 62
    7
 10
-212.58496050000008
 20
769.14367700000003
 11
-212.55969249999998
 21
769.24707000000001
  0
LINE
  8
_0-0_0
  6
CONTINUOUS
 62
    7
 10
-212.55969249999998
 20
769.24707000000001
 11
-212.53767449999987
 21
769.34701500000006
  0
LINE
  8
_0-0_0
  6
CONTINUOUS
 62
    7
 10
-212.53767449999987
 20
769.34701500000006
 11
-212.51629649999995
 21
769.46472199999994
  0
LINE
  8
_0-0_0
  6
CONTINUOUS
 62
    7
 10
-212.51629649999995
 20
769.46472199999994
 11
-212.50772150000012
 21
769.52685599999995
  0
LINE
  8
_0-0_0
  6
CONTINUOUS
 62
    7
 10
-212.50772150000012
 20
769.52685599999995
 11
-212.50163249999991
 21
769.58746300000007
  0
LINE
  8
_0-0_0
  6
CONTINUOUS
 62
    7
 10
-212.50163249999991
 20
769.58746300000007
 11
-212.4986265
 21
769.63671899999997
  0
LINE
  8
_0-0_0
  6
CONTINUOUS
 62
    7
 10
-212.4986265
 20
769.63671899999997
 11
-212.49760450000008
 21
769.68493699999999
  0
LINE
  8
_0-0_0
  6
CONTINUOUS
 62
    7
 10
-212.49760450000008
 20
764.53793300000007
 11
-212.49760450000008
 21
763.49227900000005
  0
LINE
  8
_0-0_0
  6
CONTINUOUS
 62
    7
 10
-212.49760450000008
 20
762.207672
 11
-212.49760450000008
 21
763.49227900000005
  0
LINE
  8
_0-0_0
  6
CONTINUOUS
 62
    7
 10
-212.49760450000008
 20
762.09228499999995
 11
-212.49760450000008
 21
762.207672
  0
ARC
  8
_0-0_0
  6
CONTINUOUS
 62
    7
 10
-214.49760450000008
 20
773.45846600000004
 40
2
 50
0
 51
71.565000999999995
  0
LINE
  8
_0-0_0
  6
CONTINUOUS
 62
    7
 10
-202.7897794999999
 20
772.59997599999997
 11
-202.73529050000002
 21
772.53006000000005
  0
LINE
  8
_0-0_0
  6
CONTINUOUS
 62
    7
 10
-202.73529050000002
 20
772.53006000000005
 11
-202.68418849999989
 21
772.46121199999993
  0
LINE
  8
_0-0_0
  6
CONTINUOUS
 62
    7
 10
-202.68418849999989
 20
772.46121199999993
 11
-202.63655049999988
 21
772.39370699999995
  0
LINE
  8
_0-0_0
  6
CONTINUOUS
 62
    7
 10
-202.63655049999988
 20
772.39370699999995
 11
-202.5920564999999
 21
772.327179
  0
LINE
  8
_0-0_0
  6
CONTINUOUS
 62
    7
 10
-202.5920564999999
 20
772.327179
 11
-202.53733850000003
 21
772.23962400000005
  0
LINE
  8
_0-0_0
  6
CONTINUOUS
 62
    7
 10
-202.53733850000003
 20
772.23962400000005
 11
-202.4878235000001
 21
772.15353400000004
  0
LINE
  8
_0-0_0
  6
CONTINUOUS
 62
    7
 10
-202.4878235000001
 20
772.15353400000004
 11
-202.44335950000004
 21
772.06869499999993
  0
LINE
  8
_0-0_0
  6
CONTINUOUS
 62
    7
 10
-202.44335950000004
 20
772.06869499999993
 11
-202.39639250000005
 21
771.96838400000001
  0
LINE
  8
_0-0_0
  6
CONTINUOUS
 62
    7
 10
-202.39639250000005
 20
771.96838400000001
 11
-202.35618550000004
 21
771.86944599999993
  0
LINE
  8
_0-0_0
  6
CONTINUOUS
 62
    7
 10
-202.35618550000004
 20
771.86944599999993
 11
-202.32252549999998
 21
771.77169800000001
  0
LINE
  8
_0-0_0
  6
CONTINUOUS
 62
    7
 10
-202.32252549999998
 20
771.77169800000001
 11
-202.29522750000001
 21
771.67489599999999
  0
LINE
  8
_0-0_0
  6
CONTINUOUS
 62
    7
 10
-202.29522750000001
 20
771.67489599999999
 11
-202.27418549999993
 21
771.57882700000005
  0
LINE
  8
_0-0_0
  6
CONTINUOUS
 62
    7
 10
-202.27418549999993
 20
771.57882700000005
 11
-202.2582554999999
 21
771.47497599999997
  0
LINE
  8
_0-0_0
  6
CONTINUOUS
 62
    7
 10
-202.2582554999999
 20
771.47497599999997
 11
-202.24949650000008
 21
771.37155200000007
  0
LINE
  8
_0-0_0
  6
CONTINUOUS
 62
    7
 10
-202.24949650000008
 20
771.37155200000007
 11
-202.24786349999999
 21
771.26831100000004
  0
LINE
  8
_0-0_0
  6
CONTINUOUS
 62
    7
 10
-202.24786349999999
 20
771.26831100000004
 11
-202.25332649999996
 21
771.16503899999998
  0
LINE
  8
_0-0_0
  6
CONTINUOUS
 62
    7
 10
-202.25332649999996
 20
771.16503899999998
 11
-202.26594550000004
 21
771.06143199999997
  0
LINE
  8
_0-0_0
  6
CONTINUOUS
 62
    7
 10
-202.26594550000004
 20
771.06143199999997
 11
-202.28575150000006
 21
770.95727499999998
  0
LINE
  8
_0-0_0
  6
CONTINUOUS
 62
    7
 10
-202.28575150000006
 20
770.95727499999998
 11
-202.31289650000008
 21
770.85232599999995
  0
LINE
  8
_0-0_0
  6
CONTINUOUS
 62
    7
 10
-202.31289650000008
 20
770.85232599999995
 11
-202.34754950000001
 21
770.746307
  0
LINE
  8
_0-0_0
  6
CONTINUOUS
 62
    7
 10
-202.34754950000001
 20
770.746307
 11
-202.38989250000009
 21
770.63891599999999
  0
LINE
  8
_0-0_0
  6
CONTINUOUS
 62
    7
 10
-202.38989250000009
 20
770.63891599999999
 11
-202.44021649999991
 21
770.52990699999998
  0
LINE
  8
_0-0_0
  6
CONTINUOUS
 62
    7
 10
-202.44021649999991
 20
770.52990699999998
 11
-202.49446149999994
 21
770.42678799999999
  0
LINE
  8
_0-0_0
  6
CONTINUOUS
 62
    7
 10
-202.49446149999994
 20
770.42678799999999
 11
-202.5561674999999
 21
770.32171599999992
  0
LINE
  8
_0-0_0
  6
CONTINUOUS
 62
    7
 10
-202.5561674999999
 20
770.32171599999992
 11
-202.62568650000003
 21
770.21447799999999
  0
LINE
  8
_0-0_0
  6
CONTINUOUS
 62
    7
 10
-202.62568650000003
 20
770.21447799999999
 11
-202.70339949999993
 21
770.10476700000004
  0
LINE
  8
_0-0_0
  6
CONTINUOUS
 62
    7
 10
-202.70339949999993
 20
770.10476700000004
 11
-202.7897794999999
 21
769.99227900000005
  0
LINE
  8
_0-0_0
  6
CONTINUOUS
 62
    7
 10
-212.49760450000008
 20
770.10766599999999
 11
-212.49760450000008
 21
769.99227900000005
  0
LINE
  8
_0-0_0
  6
CONTINUOUS
 62
    7
 10
-212.49760450000008
 20
768.707672
 11
-212.49760450000008
 21
767.66204799999991
  0
LINE
  8
_0-0_0
  6
CONTINUOUS
 62
    7
 10
-212.49760450000008
 20
763.49227900000005
 11
-202.7897794999999
 21
763.49227900000005
  0
LINE
  8
_0-0_0
  6
CONTINUOUS
 62
    7
 10
-212.49760450000008
 20
762.207672
 11
-202.7897794999999
 21
762.207672
  0
LINE
  8
_0-0_0
  6
CONTINUOUS
 62
    7
 10
-201.49760450000008
 20
768.83154300000001
 11
-201.49760450000008
 21
771.34997599999997
  0
LINE
  8
_0-0_0
  6
CONTINUOUS
 62
    7
 10
-212.49760450000008
 20
773.45846600000004
 11
-212.49760450000008
 21
770.10766599999999
  0
LINE
  8
_0-0_0
  6
CONTINUOUS
 62
    7
 10
-223.4975895
 20
755.29998799999998
 11
-223.4975895
 21
755.55004899999994
  0
LINE
  8
_0-0_0
  6
CONTINUOUS
 62
    7
 10
-247.9975895
 20
775.39999399999999
 11
-252.99761949999993
 21
775.39999399999999
  0
ARC
  8
_0-0_0
  6
CONTINUOUS
 62
    7
 10
-252.99761949999993
 20
770.89999399999999
 40
4.5
 50
90.000003000000007
 51
269.99999700000006
  0
LINE
  8
_0-0_0
  6
CONTINUOUS
 62
    7
 10
-247.9975895
 20
766.39999399999999
 11
-252.99761949999993
 21
766.39999399999999
  0
ARC
  8
_0-0_0
  6
CONTINUOUS
 62
    7
 10
-247.9975895
 20
770.89999399999999
 40
4.5
 50
269.99999700000001
 51
90.000002999999992
  0
LINE
  8
_0-0_0
  6
CONTINUOUS
 62
    7
 10
-303.99761949999993
 20
775.39999399999999
 11
-308.99761949999993
 21
775.39999399999999
  0
ARC
  8
_0-0_0
  6
CONTINUOUS
 62
    7
 10
-308.99761949999993
 20
770.89999399999999
 40
4.5
 50
90.000003000000007
 51
269.99999700000006
  0
LINE
  8
_0-0_0
  6
CONTINUOUS
 62
    7
 10
-303.99761949999993
 20
766.39999399999999
 11
-308.99761949999993
 21
766.39999399999999
  0
ARC
  8
_0-0_0
  6
CONTINUOUS
 62
    7
 10
-303.99761949999993
 20
770.89999399999999
 40
4.5
 50
269.99999700000001
 51
90.000002999999992
  0
LINE
  8
_0-0_0
  6
CONTINUOUS
 62
    7
 10
-278.6850895
 20
774.96963499999993
 11
-279.9850765000001
 21
771.46963499999993
  0
LINE
  8
_0-0_0
  6
CONTINUOUS
 62
    7
 10
-279.79760749999991
 20
771.19998199999998
 11
-277.19760150000002
 21
771.19998199999998
  0
ARC
  8
_0-0_0
  6
CONTINUOUS
 62
    7
 10
-277.19760150000002
 20
771.39999399999999
 40
0.2
 50
269.99999700000001
 51
20.376435000000019
  0
ARC
  8
_0-0_0
  6
CONTINUOUS
 62
    7
 10
-278.49761949999993
 20
774.89999399999999
 40
0.2
 50
20.376434999999997
 51
159.62357000000003
  0
LINE
  8
_0-0_0
  6
CONTINUOUS
 62
    7
 10
-223.4975895
 20
755.29998799999998
 11
-223.4975895
 21
757.29998799999998
  0
ARC
  8
_0-0_0
  6
CONTINUOUS
 62
    7
 10
-257.49761949999993
 20
761.69998199999998
 40
3
 50
180.00000900000003
 51
269.99999700000001
  0
LINE
  8
_0-0_0
  6
CONTINUOUS
 62
    7
 10
-257.49761949999993
 20
758.69998199999998
 11
-242.4975895
 21
758.69998199999998
  0
ARC
  8
_0-0_0
  6
CONTINUOUS
 62
    7
 10
-242.4975895
 20
761.69998199999998
 40
3
 50
269.99999700000001
 51
0
  0
ARC
  8
_0-0_0
  6
CONTINUOUS
 62
    7
 10
-242.4975895
 20
775.29998799999998
 40
3
 50
0
 51
90.000003000000007
  0
LINE
  8
_0-0_0
  6
CONTINUOUS
 62
    7
 10
-242.4975895
 20
778.29998799999998
 11
-257.49761949999993
 21
778.29998799999998
  0
ARC
  8
_0-0_0
  6
CONTINUOUS
 62
    7
 10
-257.49761949999993
 20
775.29998799999998
 40
3
 50
90.000003000000007
 51
180.00000900000001
  0
ARC
  8
_0-0_0
  6
CONTINUOUS
 62
    7
 10
-311.40792850000003
 20
763.78967299999999
 40
5.089683
 50
180.00000900000003
 51
269.99999700000001
  0
LINE
  8
_0-0_0
  6
CONTINUOUS
 62
    7
 10
-311.40792850000003
 20
758.69998199999998
 11
-300.14059449999991
 21
758.69998199999998
  0
ARC
  8
_0-0_0
  6
CONTINUOUS
 62
    7
 10
-300.14059449999991
 20
762.34298699999999
 40
3.6429879999999999
 50
269.99999700000001
 51
0.0000099999999886
  0
LINE
  8
_0-0_0
  6
CONTINUOUS
 62
    7
 10
-299.49761949999993
 20
778.29998799999998
 11
-312.83154349999995
 21
778.29998799999998
  0
ARC
  8
_0-0_0
  6
CONTINUOUS
 62
    7
 10
-312.83154349999995
 20
777.29998799999998
 40
1
 50
90.000003000000007
 51
172.23356100000001
  0
ARC
  8
_0-0_0
  6
CONTINUOUS
 62
    7
 10
-315.49761949999993
 20
774.23767099999998
 40
1
 50
105.68034800000001
 51
180.00000900000001
  0
LINE
  8
_0-0_0
  6
CONTINUOUS
 62
    7
 10
-258.09762550000005
 20
778.29998799999998
 11
-258.09762550000005
 21
778.23937999999998
  0
LINE
  8
_0-0_0
  6
CONTINUOUS
 62
    7
 10
-299.49761949999993
 20
758.75717199999997
 11
-299.49761949999993
 21
758.704071
  0
LINE
  8
_0-0_0
  6
CONTINUOUS
 62
    7
 10
-258.09762550000005
 20
758.76058999999998
 11
-258.09762550000005
 21
758.704071
  0
LINE
  8
_0-0_0
  6
CONTINUOUS
 62
    7
 10
-201.49760450000008
 20
760.84997599999997
 11
-202.29760749999991
 21
760.04998799999998
  0
LINE
  8
_0-0_0
  6
CONTINUOUS
 62
    7
 10
-187.49760450000008
 20
755.79998799999998
 11
-187.99743650000005
 21
755.30014000000006
  0
LINE
  8
_0-0_0
  6
CONTINUOUS
 62
    7
 10
-187.49760450000008
 20
772.39999399999999
 11
-187.99743650000005
 21
771.90014700000006
  0
LINE
  8
_0-0_0
  6
CONTINUOUS
 62
    7
 10
-200.29760749999991
 20
770.09997599999997
 11
-142.29760750000003
 21
770.09997599999997
  0
LINE
  8
_0-0_0
  6
CONTINUOUS
 62
    7
 10
-200.29760749999991
 20
762.09997599999997
 11
-142.29760750000003
 21
762.09997599999997
  0
LINE
  8
_0-0_0
  6
CONTINUOUS
 62
    7
 10
-187.49760450000008
 20
776.39999399999999
 11
-187.99743650000005
 21
776.89984099999992
  0
LINE
  8
_0-0_0
  6
CONTINUOUS
 62
    7
 10
-187.49760450000008
 20
759.79998799999998
 11
-187.99743650000005
 21
760.29983500000003
  0
LINE
  8
_0-0_0
  6
CONTINUOUS
 62
    7
 10
-197.49760450000008
 20
776.64999399999999
 11
-197.24760450000008
 21
776.89999399999999
  0
LINE
  8
_0-0_0
  6
CONTINUOUS
 62
    7
 10
-197.49760450000008
 20
772.14999399999999
 11
-197.24760450000008
 21
771.89999399999999
  0
LINE
  8
_0-0_0
  6
CONTINUOUS
 62
    7
 10
-197.49760450000008
 20
760.04998799999998
 11
-197.24760450000008
 21
760.29998799999998
  0
LINE
  8
_0-0_0
  6
CONTINUOUS
 62
    7
 10
-197.49760450000008
 20
755.54998799999998
 11
-197.24760450000008
 21
755.29998799999998
  0
LINE
  8
_0-0_0
  6
CONTINUOUS
 62
    7
 10
-200.29760749999991
 20
770.63809199999992
 11
-201.09761049999997
 21
771.09997599999997
  0
LINE
  8
_0-0_0
  6
CONTINUOUS
 62
    7
 10
-200.29760749999991
 20
761.56185899999991
 11
-201.09761049999997
 21
761.09997599999997
  0
LINE
  8
_0-0_0
  6
CONTINUOUS
 62
    7
 10
-217.74765049999996
 20
776.64999399999999
 11
-197.49760450000008
 21
776.64999399999999
  0
LINE
  8
_0-0_0
  6
CONTINUOUS
 62
    7
 10
-202.29760749999991
 20
772.14999399999999
 11
-197.49760450000008
 21
772.14999399999999
  0
LINE
  8
_0-0_0
  6
CONTINUOUS
 62
    7
 10
-223.4975895
 20
760.04998799999998
 11
-197.49760450000008
 21
760.04998799999998
  0
LINE
  8
_0-0_0
  6
CONTINUOUS
 62
    7
 10
-223.4975895
 20
755.54998799999998
 11
-197.49760450000008
 21
755.54998799999998
  0
LINE
  8
_0-0_0
  6
CONTINUOUS
 62
    7
 10
-201.49760450000008
 20
771.09997599999997
 11
-201.09761049999997
 21
771.09997599999997
  0
LINE
  8
_0-0_0
  6
CONTINUOUS
 62
    7
 10
-201.49760450000008
 20
761.09997599999997
 11
-201.09761049999997
 21
761.09997599999997
  0
LINE
  8
_0-0_0
  6
CONTINUOUS
 62
    7
 10
-201.49760450000008
 20
771.34997599999997
 11
-202.74760450000008
 21
772.59997599999997
  0
ARC
  8
_0-0_0
  6
CONTINUOUS
 62
    7
 10
-323.49761949999993
 20
799.59997599999997
 40
8
 50
215.099627
 51
324.90037799999999
  0
LINE
  8
_0-0_0
  6
CONTINUOUS
 62
    7
 10
-332.49761949999993
 20
794.99997000000008
 11
-330.0428465
 21
794.99997000000008
  0
LINE
  8
_0-0_0
  6
CONTINUOUS
 62
    7
 10
-332.49761949999993
 20
781.79998799999998
 11
-332.49761949999993
 21
794.99997000000008
  0
LINE
  8
_0-0_0
  6
CONTINUOUS
 62
    7
 10
1640.5025025
 20
781.79998799999998
 11
1640.5025025
 21
794.99997000000008
  0
LINE
  8
_0-0_0
  6
CONTINUOUS
 62
    7
 10
1638.0477905
 20
794.99997000000008
 11
1640.5025025
 21
794.99997000000008
  0
ARC
  8
_0-0_0
  6
CONTINUOUS
 62
    7
 10
1631.5025025
 20
799.59997599999997
 40
8
 50
215.099627
 51
324.90037799999999
  0
LINE
  8
_0-0_0
  6
CONTINUOUS
 62
    7
 10
-316.95239249999986
 20
794.99997000000008
 11
1624.9572145
 21
794.99997000000008
  0
LINE
  8
_0-0_0
  6
CONTINUOUS
 62
    7
 10
-316.95239249999986
 20
794.99997000000008
 11
-316.8634035
 21
795.12927300000001
  0
LINE
  8
_0-0_0
  6
CONTINUOUS
 62
    7
 10
1624.9572145
 20
794.99997000000008
 11
1624.8683475
 21
795.12927300000001
  0
LINE
  8
_0-0_0
  6
CONTINUOUS
 62
    7
 10
1638.2297974999999
 20
795.27069099999994
 11
1638.3113404999999
 21
795.39999399999999
  0
ARC
  8
_0-0_0
  6
CONTINUOUS
 62
    7
 10
1631.5025025
 20
799.59997599999997
 40
8
 50
328.33175599999993
 51
334.05550899999992
  0
LINE
  8
_0-0_0
  6
CONTINUOUS
 62
    7
 10
1638.6962275000001
 20
796.09997599999997
 11
1638.7902225
 21
796.29998799999998
  0
LINE
  8
_0-0_0
  6
CONTINUOUS
 62
    7
 10
1638.7902225
 20
796.29998799999998
 11
1638.8775025
 21
796.49997000000008
  0
ARC
  8
_0-0_0
  6
CONTINUOUS
 62
    7
 10
1631.5025025
 20
799.59997599999997
 40
8
 50
337.20097500000003
 51
342.54240199999998
  0
LINE
  8
_0-0_0
  6
CONTINUOUS
 62
    7
 10
1639.1339725
 20
797.19998199999998
 11
1639.1940305000001
 21
797.39999399999999
  0
LINE
  8
_0-0_0
  6
CONTINUOUS
 62
    7
 10
1639.1940305000001
 20
797.39999399999999
 11
1639.2484744999999
 21
797.59997599999997
  0
ARC
  8
_0-0_0
  6
CONTINUOUS
 62
    7
 10
1631.5025025
 20
799.59997599999997
 40
8
 50
345.52249499999999
 51
350.64797900000002
  0
LINE
  8
_0-0_0
  6
CONTINUOUS
 62
    7
 10
1639.3961795
 20
798.29998799999998
 11
1639.4265745
 21
798.49997000000008
  0
LINE
  8
_0-0_0
  6
CONTINUOUS
 62
    7
 10
1639.4265745
 20
798.49997000000008
 11
1639.4517215000001
 21
798.69998199999998
  0
ARC
  8
_0-0_0
  6
CONTINUOUS
 62
    7
 10
1631.5025025
 20
799.59997599999997
 40
8
 50
353.54056400000002
 51
358.56744600000002
  0
LINE
  8
_0-0_0
  6
CONTINUOUS
 62
    7
 10
1639.5000605
 20
799.39999399999999
 11
1639.5025025
 21
799.59997599999997
  0
LINE
  8
_0-0_0
  6
CONTINUOUS
 62
    7
 10
1623.5049435000001
 20
799.39999399999999
 11
1623.5025025
 21
799.59997599999997
  0
ARC
  8
_0-0_0
  6
CONTINUOUS
 62
    7
 10
1631.5025025
 20
799.59997599999997
 40
8
 50
181.432545
 51
186.45945499999999
  0
LINE
  8
_0-0_0
  6
CONTINUOUS
 62
    7
 10
1623.5784305
 20
798.49997000000008
 11
1623.5532834999999
 21
798.69998199999998
  0
LINE
  8
_0-0_0
  6
CONTINUOUS
 62
    7
 10
1623.6088255
 20
798.29998799999998
 11
1623.5784305
 21
798.49997000000008
  0
ARC
  8
_0-0_0
  6
CONTINUOUS
 62
    7
 10
1631.5025025
 20
799.59997599999997
 40
8
 50
189.35203999999999
 51
194.47751
  0
LINE
  8
_0-0_0
  6
CONTINUOUS
 62
    7
 10
1623.8109744999999
 20
797.39999399999999
 11
1623.7565305000001
 21
797.59997599999997
  0
LINE
  8
_0-0_0
  6
CONTINUOUS
 62
    7
 10
1623.8710325
 20
797.19998199999998
 11
1623.8109744999999
 21
797.39999399999999
  0
ARC
  8
_0-0_0
  6
CONTINUOUS
 62
    7
 10
1631.5025025
 20
799.59997599999997
 40
8
 50
197.45760300000001
 51
202.79902999999999
  0
LINE
  8
_0-0_0
  6
CONTINUOUS
 62
    7
 10
1624.2147825
 20
796.29998799999998
 11
1624.1275025
 21
796.49997000000008
  0
LINE
  8
_0-0_0
  6
CONTINUOUS
 62
    7
 10
1624.3087765
 20
796.09997599999997
 11
1624.2147825
 21
796.29998799999998
  0
ARC
  8
_0-0_0
  6
CONTINUOUS
 62
    7
 10
1631.5025025
 20
799.59997599999997
 40
8
 50
205.94448199999999
 51
211.66823500000001
  0
LINE
  8
_0-0_0
  6
CONTINUOUS
 62
    7
 10
1624.7752075000001
 20
795.27069099999994
 11
1624.6936645000001
 21
795.39999399999999
  0
LINE
  8
_0-0_0
  6
CONTINUOUS
 62
    7
 10
1624.7752075000001
 20
795.27069099999994
 11
1624.8683475
 21
795.12927300000001
  0
LINE
  8
_0-0_0
  6
CONTINUOUS
 62
    7
 10
1638.0477905
 20
794.99997000000008
 11
1638.1366575
 21
795.12927300000001
  0
LINE
  8
_0-0_0
  6
CONTINUOUS
 62
    7
 10
1638.2297974999999
 20
795.27069099999994
 11
1638.1366575
 21
795.12927300000001
  0
LINE
  8
_0-0_0
  6
CONTINUOUS
 62
    7
 10
1640.5025025
 20
795.12927300000001
 11
1640.5025025
 21
794.99997000000008
  0
LINE
  8
_0-0_0
  6
CONTINUOUS
 62
    7
 10
1640.5025025
 20
803.92929099999992
 11
1640.5025025
 21
804.07070899999997
  0
LINE
  8
_0-0_0
  6
CONTINUOUS
 62
    7
 10
1640.5025025
 20
803.92929099999992
 11
1640.5025025
 21
803.79998799999998
  0
LINE
  8
_0-0_0
  6
CONTINUOUS
 62
    7
 10
1640.5025025
 20
803.09997599999997
 11
1640.5025025
 21
803.79998799999998
  0
LINE
  8
_0-0_0
  6
CONTINUOUS
 62
    7
 10
1640.5025025
 20
802.89999399999999
 11
1640.5025025
 21
803.09997599999997
  0
LINE
  8
_0-0_0
  6
CONTINUOUS
 62
    7
 10
1640.5025025
 20
802.89999399999999
 11
1640.5025025
 21
802.69998199999998
  0
LINE
  8
_0-0_0
  6
CONTINUOUS
 62
    7
 10
1640.5025025
 20
801.99997000000008
 11
1640.5025025
 21
802.69998199999998
  0
LINE
  8
_0-0_0
  6
CONTINUOUS
 62
    7
 10
1640.5025025
 20
801.79998799999998
 11
1640.5025025
 21
801.99997000000008
  0
LINE
  8
_0-0_0
  6
CONTINUOUS
 62
    7
 10
1640.5025025
 20
801.79998799999998
 11
1640.5025025
 21
801.59997599999997
  0
LINE
  8
_0-0_0
  6
CONTINUOUS
 62
    7
 10
1640.5025025
 20
800.89999399999999
 11
1640.5025025
 21
801.59997599999997
  0
LINE
  8
_0-0_0
  6
CONTINUOUS
 62
    7
 10
1640.5025025
 20
800.69998199999998
 11
1640.5025025
 21
800.89999399999999
  0
LINE
  8
_0-0_0
  6
CONTINUOUS
 62
    7
 10
1640.5025025
 20
800.69998199999998
 11
1640.5025025
 21
800.49997000000008
  0
LINE
  8
_0-0_0
  6
CONTINUOUS
 62
    7
 10
1640.5025025
 20
799.79998799999998
 11
1640.5025025
 21
800.49997000000008
  0
LINE
  8
_0-0_0
  6
CONTINUOUS
 62
    7
 10
1640.5025025
 20
799.59997599999997
 11
1640.5025025
 21
799.79998799999998
  0
LINE
  8
_0-0_0
  6
CONTINUOUS
 62
    7
 10
1640.5025025
 20
799.59997599999997
 11
1640.5025025
 21
799.39999399999999
  0
LINE
  8
_0-0_0
  6
CONTINUOUS
 62
    7
 10
1640.5025025
 20
798.69998199999998
 11
1640.5025025
 21
799.39999399999999
  0
LINE
  8
_0-0_0
  6
CONTINUOUS
 62
    7
 10
1640.5025025
 20
798.49997000000008
 11
1640.5025025
 21
798.69998199999998
  0
LINE
  8
_0-0_0
  6
CONTINUOUS
 62
    7
 10
1640.5025025
 20
798.49997000000008
 11
1640.5025025
 21
798.29998799999998
  0
LINE
  8
_0-0_0
  6
CONTINUOUS
 62
    7
 10
1640.5025025
 20
797.59997599999997
 11
1640.5025025
 21
798.29998799999998
  0
LINE
  8
_0-0_0
  6
CONTINUOUS
 62
    7
 10
1640.5025025
 20
797.39999399999999
 11
1640.5025025
 21
797.59997599999997
  0
LINE
  8
_0-0_0
  6
CONTINUOUS
 62
    7
 10
1640.5025025
 20
797.39999399999999
 11
1640.5025025
 21
797.19998199999998
  0
LINE
  8
_0-0_0
  6
CONTINUOUS
 62
    7
 10
1640.5025025
 20
796.49997000000008
 11
1640.5025025
 21
797.19998199999998
  0
LINE
  8
_0-0_0
  6
CONTINUOUS
 62
    7
 10
1640.5025025
 20
796.29998799999998
 11
1640.5025025
 21
796.49997000000008
  0
LINE
  8
_0-0_0
  6
CONTINUOUS
 62
    7
 10
1640.5025025
 20
796.29998799999998
 11
1640.5025025
 21
796.09997599999997
  0
LINE
  8
_0-0_0
  6
CONTINUOUS
 62
    7
 10
1640.5025025
 20
795.39999399999999
 11
1640.5025025
 21
796.09997599999997
  0
LINE
  8
_0-0_0
  6
CONTINUOUS
 62
    7
 10
1640.5025025
 20
795.27069099999994
 11
1640.5025025
 21
795.39999399999999
  0
LINE
  8
_0-0_0
  6
CONTINUOUS
 62
    7
 10
1640.5025025
 20
795.12927300000001
 11
1640.5025025
 21
795.27069099999994
  0
LINE
  8
_0-0_0
  6
CONTINUOUS
 62
    7
 10
1640.5025025
 20
781.29998799999998
 11
1640.5025025
 21
781.79998799999998
  0
LINE
  8
_0-0_0
  6
CONTINUOUS
 62
    7
 10
1640.5025025
 20
809.79998799999998
 11
1640.5025025
 21
809.20602400000007
  0
LINE
  8
_0-0_0
  6
CONTINUOUS
 62
    7
 10
1640.5025025
 20
804.19998199999998
 11
1640.5025025
 21
809.20602400000007
  0
LINE
  8
_0-0_0
  6
CONTINUOUS
 62
    7
 10
1640.5025025
 20
804.07070899999997
 11
1640.5025025
 21
804.19998199999998
  0
LINE
  8
_0-0_0
  6
CONTINUOUS
 62
    7
 10
-332.49761949999993
 20
781.29998799999998
 11
-332.49761949999993
 21
781.79998799999998
  0
LINE
  8
_0-0_0
  6
CONTINUOUS
 62
    7
 10
-332.49761949999993
 20
781.29998799999998
 11
1640.5025025
 21
781.29998799999998
  0
LINE
  8
_0-0_0
  6
CONTINUOUS
 62
    7
 10
-332.49761949999993
 20
795.12927300000001
 11
-332.49761949999993
 21
795.27069099999994
  0
LINE
  8
_0-0_0
  6
CONTINUOUS
 62
    7
 10
-332.49761949999993
 20
795.12927300000001
 11
-332.49761949999993
 21
794.99997000000008
  0
LINE
  8
_0-0_0
  6
CONTINUOUS
 62
    7
 10
-332.49761949999993
 20
809.79998799999998
 11
-332.49761949999993
 21
809.20602400000007
  0
LINE
  8
_0-0_0
  6
CONTINUOUS
 62
    7
 10
-332.49761949999993
 20
804.19998199999998
 11
-332.49761949999993
 21
809.20602400000007
  0
LINE
  8
_0-0_0
  6
CONTINUOUS
 62
    7
 10
-332.49761949999993
 20
804.07070899999997
 11
-332.49761949999993
 21
804.19998199999998
  0
LINE
  8
_0-0_0
  6
CONTINUOUS
 62
    7
 10
-332.49761949999993
 20
803.92929099999992
 11
-332.49761949999993
 21
804.07070899999997
  0
LINE
  8
_0-0_0
  6
CONTINUOUS
 62
    7
 10
-332.49761949999993
 20
803.92929099999992
 11
-332.49761949999993
 21
803.79998799999998
  0
LINE
  8
_0-0_0
  6
CONTINUOUS
 62
    7
 10
-332.49761949999993
 20
803.09997599999997
 11
-332.49761949999993
 21
803.79998799999998
  0
LINE
  8
_0-0_0
  6
CONTINUOUS
 62
    7
 10
-332.49761949999993
 20
802.97070299999996
 11
-332.49761949999993
 21
803.09997599999997
  0
LINE
  8
_0-0_0
  6
CONTINUOUS
 62
    7
 10
-332.49761949999993
 20
802.82928500000003
 11
-332.49761949999993
 21
802.97070299999996
  0
LINE
  8
_0-0_0
  6
CONTINUOUS
 62
    7
 10
-332.49761949999993
 20
802.82928500000003
 11
-332.49761949999993
 21
802.69998199999998
  0
LINE
  8
_0-0_0
  6
CONTINUOUS
 62
    7
 10
-332.49761949999993
 20
801.99997000000008
 11
-332.49761949999993
 21
802.69998199999998
  0
LINE
  8
_0-0_0
  6
CONTINUOUS
 62
    7
 10
-332.49761949999993
 20
801.87069700000006
 11
-332.49761949999993
 21
801.99997000000008
  0
LINE
  8
_0-0_0
  6
CONTINUOUS
 62
    7
 10
-332.49761949999993
 20
801.72927900000002
 11
-332.49761949999993
 21
801.87069700000006
  0
LINE
  8
_0-0_0
  6
CONTINUOUS
 62
    7
 10
-332.49761949999993
 20
801.72927900000002
 11
-332.49761949999993
 21
801.59997599999997
  0
LINE
  8
_0-0_0
  6
CONTINUOUS
 62
    7
 10
-332.49761949999993
 20
800.89999399999999
 11
-332.49761949999993
 21
801.59997599999997
  0
LINE
  8
_0-0_0
  6
CONTINUOUS
 62
    7
 10
-332.49761949999993
 20
800.77069099999994
 11
-332.49761949999993
 21
800.89999399999999
  0
LINE
  8
_0-0_0
  6
CONTINUOUS
 62
    7
 10
-332.49761949999993
 20
800.62927300000001
 11
-332.49761949999993
 21
800.77069099999994
  0
LINE
  8
_0-0_0
  6
CONTINUOUS
 62
    7
 10
-332.49761949999993
 20
800.62927300000001
 11
-332.49761949999993
 21
800.49997000000008
  0
LINE
  8
_0-0_0
  6
CONTINUOUS
 62
    7
 10
-332.49761949999993
 20
799.79998799999998
 11
-332.49761949999993
 21
800.49997000000008
  0
LINE
  8
_0-0_0
  6
CONTINUOUS
 62
    7
 10
-332.49761949999993
 20
799.67068500000005
 11
-332.49761949999993
 21
799.79998799999998
  0
LINE
  8
_0-0_0
  6
CONTINUOUS
 62
    7
 10
-332.49761949999993
 20
799.52926600000001
 11
-332.49761949999993
 21
799.67068500000005
  0
LINE
  8
_0-0_0
  6
CONTINUOUS
 62
    7
 10
-332.49761949999993
 20
799.52926600000001
 11
-332.49761949999993
 21
799.39999399999999
  0
LINE
  8
_0-0_0
  6
CONTINUOUS
 62
    7
 10
-332.49761949999993
 20
798.69998199999998
 11
-332.49761949999993
 21
799.39999399999999
  0
LINE
  8
_0-0_0
  6
CONTINUOUS
 62
    7
 10
-332.49761949999993
 20
798.57070899999997
 11
-332.49761949999993
 21
798.69998199999998
  0
LINE
  8
_0-0_0
  6
CONTINUOUS
 62
    7
 10
-332.49761949999993
 20
798.42929099999992
 11
-332.49761949999993
 21
798.57070899999997
  0
LINE
  8
_0-0_0
  6
CONTINUOUS
 62
    7
 10
-332.49761949999993
 20
798.42929099999992
 11
-332.49761949999993
 21
798.29998799999998
  0
LINE
  8
_0-0_0
  6
CONTINUOUS
 62
    7
 10
-332.49761949999993
 20
797.59997599999997
 11
-332.49761949999993
 21
798.29998799999998
  0
LINE
  8
_0-0_0
  6
CONTINUOUS
 62
    7
 10
-332.49761949999993
 20
797.47070299999996
 11
-332.49761949999993
 21
797.59997599999997
  0
LINE
  8
_0-0_0
  6
CONTINUOUS
 62
    7
 10
-332.49761949999993
 20
797.32928500000003
 11
-332.49761949999993
 21
797.47070299999996
  0
LINE
  8
_0-0_0
  6
CONTINUOUS
 62
    7
 10
-332.49761949999993
 20
797.32928500000003
 11
-332.49761949999993
 21
797.19998199999998
  0
LINE
  8
_0-0_0
  6
CONTINUOUS
 62
    7
 10
-332.49761949999993
 20
796.49997000000008
 11
-332.49761949999993
 21
797.19998199999998
  0
LINE
  8
_0-0_0
  6
CONTINUOUS
 62
    7
 10
-332.49761949999993
 20
796.37069700000006
 11
-332.49761949999993
 21
796.49997000000008
  0
LINE
  8
_0-0_0
  6
CONTINUOUS
 62
    7
 10
-332.49761949999993
 20
796.22927900000002
 11
-332.49761949999993
 21
796.37069700000006
  0
LINE
  8
_0-0_0
  6
CONTINUOUS
 62
    7
 10
-332.49761949999993
 20
796.22927900000002
 11
-332.49761949999993
 21
796.09997599999997
  0
LINE
  8
_0-0_0
  6
CONTINUOUS
 62
    7
 10
-332.49761949999993
 20
795.39999399999999
 11
-332.49761949999993
 21
796.09997599999997
  0
LINE
  8
_0-0_0
  6
CONTINUOUS
 62
    7
 10
-332.49761949999993
 20
795.27069099999994
 11
-332.49761949999993
 21
795.39999399999999
  0
LINE
  8
_0-0_0
  6
CONTINUOUS
 62
    7
 10
-330.0428465
 20
794.99997000000008
 11
-330.13180549999993
 21
795.12927300000001
  0
LINE
  8
_0-0_0
  6
CONTINUOUS
 62
    7
 10
-316.77026350000006
 20
795.27069099999994
 11
-316.8634035
 21
795.12927300000001
  0
LINE
  8
_0-0_0
  6
CONTINUOUS
 62
    7
 10
-316.77026350000006
 20
795.27069099999994
 11
-316.6887815
 21
795.39999399999999
  0
ARC
  8
_0-0_0
  6
CONTINUOUS
 62
    7
 10
-323.49761949999993
 20
799.59997599999997
 40
8
 50
328.33175599999993
 51
334.05550899999992
  0
LINE
  8
_0-0_0
  6
CONTINUOUS
 62
    7
 10
-316.30386350000003
 20
796.09997599999997
 11
-316.20993049999993
 21
796.29998799999998
  0
LINE
  8
_0-0_0
  6
CONTINUOUS
 62
    7
 10
-316.20993049999993
 20
796.29998799999998
 11
-316.12265049999996
 21
796.49997000000008
  0
ARC
  8
_0-0_0
  6
CONTINUOUS
 62
    7
 10
-323.49761949999993
 20
799.59997599999997
 40
8
 50
337.20097500000003
 51
342.54240199999998
  0
LINE
  8
_0-0_0
  6
CONTINUOUS
 62
    7
 10
-315.86608849999993
 20
797.19998199999998
 11
-315.80606050000006
 21
797.39999399999999
  0
LINE
  8
_0-0_0
  6
CONTINUOUS
 62
    7
 10
-315.80606050000006
 20
797.39999399999999
 11
-315.7516485000001
 21
797.59997599999997
  0
ARC
  8
_0-0_0
  6
CONTINUOUS
 62
    7
 10
-323.49761949999993
 20
799.59997599999997
 40
8
 50
345.52249499999999
 51
350.64797900000002
  0
LINE
  8
_0-0_0
  6
CONTINUOUS
 62
    7
 10
-315.6039424999999
 20
798.29998799999998
 11
-315.57357750000006
 21
798.49997000000008
  0
LINE
  8
_0-0_0
  6
CONTINUOUS
 62
    7
 10
-315.57357750000006
 20
798.49997000000008
 11
-315.54840050000007
 21
798.69998199999998
  0
ARC
  8
_0-0_0
  6
CONTINUOUS
 62
    7
 10
-323.49761949999993
 20
799.59997599999997
 40
8
 50
353.54056400000002
 51
358.56744600000002
  0
LINE
  8
_0-0_0
  6
CONTINUOUS
 62
    7
 10
-315.50009150000005
 20
799.39999399999999
 11
-315.49761949999993
 21
799.59997599999997
  0
LINE
  8
_0-0_0
  6
CONTINUOUS
 62
    7
 10
-331.49728349999987
 20
799.52926600000001
 11
-331.49761949999993
 21
799.59997599999997
  0
LINE
  8
_0-0_0
  6
CONTINUOUS
 62
    7
 10
-331.49511750000011
 20
799.39999399999999
 11
-331.49728349999987
 21
799.52926600000001
  0
ARC
  8
_0-0_0
  6
CONTINUOUS
 62
    7
 10
-323.49761949999993
 20
799.59997599999997
 40
8
 50
181.432545
 51
186.45945499999999
  0
LINE
  8
_0-0_0
  6
CONTINUOUS
 62
    7
 10
-331.43112150000002
 20
798.57070899999997
 11
-331.44680749999998
 21
798.69998199999998
  0
LINE
  8
_0-0_0
  6
CONTINUOUS
 62
    7
 10
-331.43112150000002
 20
798.57070899999997
 11
-331.41146849999996
 21
798.42929099999992
  0
LINE
  8
_0-0_0
  6
CONTINUOUS
 62
    7
 10
-331.39126549999992
 20
798.29998799999998
 11
-331.41146849999996
 21
798.42929099999992
  0
ARC
  8
_0-0_0
  6
CONTINUOUS
 62
    7
 10
-323.49761949999993
 20
799.59997599999997
 40
8
 50
189.35203999999999
 51
194.47751
  0
LINE
  8
_0-0_0
  6
CONTINUOUS
 62
    7
 10
-331.2090455
 20
797.47070299999996
 11
-331.24356050000006
 21
797.59997599999997
  0
LINE
  8
_0-0_0
  6
CONTINUOUS
 62
    7
 10
-331.2090455
 20
797.47070299999996
 11
-331.16857949999985
 21
797.32928500000003
  0
LINE
  8
_0-0_0
  6
CONTINUOUS
 62
    7
 10
-331.12911949999989
 20
797.19998199999998
 11
-331.16857949999985
 21
797.32928500000003
  0
ARC
  8
_0-0_0
  6
CONTINUOUS
 62
    7
 10
-323.49761949999993
 20
799.59997599999997
 40
8
 50
197.45760300000001
 51
202.79902999999999
  0
LINE
  8
_0-0_0
  6
CONTINUOUS
 62
    7
 10
-330.81686450000007
 20
796.37069700000006
 11
-330.87255849999997
 21
796.49997000000008
  0
LINE
  8
_0-0_0
  6
CONTINUOUS
 62
    7
 10
-330.81686450000007
 20
796.37069700000006
 11
-330.75283850000005
 21
796.22927900000002
  0
LINE
  8
_0-0_0
  6
CONTINUOUS
 62
    7
 10
-330.6913454999999
 20
796.09997599999997
 11
-330.75283850000005
 21
796.22927900000002
  0
ARC
  8
_0-0_0
  6
CONTINUOUS
 62
    7
 10
-323.49761949999993
 20
799.59997599999997
 40
8
 50
205.94448199999999
 51
211.66823500000001
  0
LINE
  8
_0-0_0
  6
CONTINUOUS
 62
    7
 10
-330.2249455000001
 20
795.27069099999994
 11
-330.30642749999993
 21
795.39999399999999
  0
LINE
  8
_0-0_0
  6
CONTINUOUS
 62
    7
 10
-330.2249455000001
 20
795.27069099999994
 11
-330.13180549999993
 21
795.12927300000001
  0
LINE
  8
_0-0_0
  6
CONTINUOUS
 62
    7
 10
1558.0025025
 20
787.29998799999998
 11
1565.0025025
 21
787.29998799999998
  0
ARC
  8
_0-0_0
  6
CONTINUOUS
 62
    7
 10
1558.0025025
 20
786.79998799999998
 40
0.5
 50
90.000003000000007
 51
180.00000900000001
  0
LINE
  8
_0-0_0
  6
CONTINUOUS
 62
    7
 10
1557.5025025
 20
786.79998799999998
 11
1557.5025025
 21
782.79998799999998
  0
ARC
  8
_0-0_0
  6
CONTINUOUS
 62
    7
 10
1558.0025025
 20
782.79998799999998
 40
0.5
 50
180.00000900000003
 51
269.99999700000001
  0
LINE
  8
_0-0_0
  6
CONTINUOUS
 62
    7
 10
1565.0025025
 20
782.29998799999998
 11
1558.0025025
 21
782.29998799999998
  0
ARC
  8
_0-0_0
  6
CONTINUOUS
 62
    7
 10
1565.0025025
 20
782.79998799999998
 40
0.5
 50
269.99999700000001
 51
0
  0
LINE
  8
_0-0_0
  6
CONTINUOUS
 62
    7
 10
1565.5025025
 20
782.79998799999998
 11
1565.5025025
 21
786.79998799999998
  0
ARC
  8
_0-0_0
  6
CONTINUOUS
 62
    7
 10
1565.0025025
 20
786.79998799999998
 40
0.5
 50
0
 51
90.000003000000007
  0
ARC
  8
_0-0_0
  6
CONTINUOUS
 62
    7
 10
-281.99761949999993
 20
786.79998799999998
 40
0.5
 50
90.000003000000007
 51
180.00000900000001
  0
LINE
  8
_0-0_0
  6
CONTINUOUS
 62
    7
 10
-282.49761949999993
 20
786.79998799999998
 11
-282.49761949999993
 21
782.79998799999998
  0
ARC
  8
_0-0_0
  6
CONTINUOUS
 62
    7
 10
-281.99761949999993
 20
782.79998799999998
 40
0.5
 50
180.00000900000003
 51
269.99999700000001
  0
LINE
  8
_0-0_0
  6
CONTINUOUS
 62
    7
 10
-274.99761949999993
 20
782.29998799999998
 11
-281.99761949999993
 21
782.29998799999998
  0
ARC
  8
_0-0_0
  6
CONTINUOUS
 62
    7
 10
-274.99761949999993
 20
782.79998799999998
 40
0.5
 50
269.99999700000001
 51
0
  0
LINE
  8
_0-0_0
  6
CONTINUOUS
 62
    7
 10
-274.49761949999993
 20
782.79998799999998
 11
-274.49761949999993
 21
786.79998799999998
  0
ARC
  8
_0-0_0
  6
CONTINUOUS
 62
    7
 10
-274.99761949999993
 20
786.79998799999998
 40
0.5
 50
0
 51
90.000003000000007
  0
LINE
  8
_0-0_0
  6
CONTINUOUS
 62
    7
 10
-281.99761949999993
 20
787.29998799999998
 11
-274.99761949999993
 21
787.29998799999998
  0
LINE
  8
_0-0_0
  6
CONTINUOUS
 62
    7
 10
-316.6887815
 20
795.39999399999999
 11
1624.6936645000001
 21
795.39999399999999
  0
LINE
  8
_0-0_0
  6
CONTINUOUS
 62
    7
 10
-316.30386350000003
 20
796.09997599999997
 11
1624.3087765
 21
796.09997599999997
  0
LINE
  8
_0-0_0
  6
CONTINUOUS
 62
    7
 10
-316.20993049999993
 20
796.29998799999998
 11
1624.2147825
 21
796.29998799999998
  0
LINE
  8
_0-0_0
  6
CONTINUOUS
 62
    7
 10
-316.12265049999996
 20
796.49997000000008
 11
1624.1275025
 21
796.49997000000008
  0
LINE
  8
_0-0_0
  6
CONTINUOUS
 62
    7
 10
-315.86608849999993
 20
797.19998199999998
 11
1623.8710325
 21
797.19998199999998
  0
LINE
  8
_0-0_0
  6
CONTINUOUS
 62
    7
 10
-315.80606050000006
 20
797.39999399999999
 11
1623.8109744999999
 21
797.39999399999999
  0
LINE
  8
_0-0_0
  6
CONTINUOUS
 62
    7
 10
-315.7516485000001
 20
797.59997599999997
 11
1623.7565305000001
 21
797.59997599999997
  0
LINE
  8
_0-0_0
  6
CONTINUOUS
 62
    7
 10
-315.6039424999999
 20
798.29998799999998
 11
1623.6088255
 21
798.29998799999998
  0
LINE
  8
_0-0_0
  6
CONTINUOUS
 62
    7
 10
-315.57357750000006
 20
798.49997000000008
 11
1623.5784305
 21
798.49997000000008
  0
LINE
  8
_0-0_0
  6
CONTINUOUS
 62
    7
 10
-315.54840050000007
 20
798.69998199999998
 11
1623.5532834999999
 21
798.69998199999998
  0
LINE
  8
_0-0_0
  6
CONTINUOUS
 62
    7
 10
-315.50009150000005
 20
799.39999399999999
 11
1623.5049435000001
 21
799.39999399999999
  0
LINE
  8
_0-0_0
  6
CONTINUOUS
 62
    7
 10
-315.49761949999993
 20
799.59997599999997
 11
1623.5025025
 21
799.59997599999997
  0
LINE
  8
_0-0_0
  6
CONTINUOUS
 62
    7
 10
1638.0477905
 20
804.19998199999998
 11
1638.1366575
 21
804.07070899999997
  0
ARC
  8
_0-0_0
  6
CONTINUOUS
 62
    7
 10
1631.5025025
 20
799.59997599999997
 40
8
 50
35.099632
 51
144.900373
  0
LINE
  8
_0-0_0
  6
CONTINUOUS
 62
    7
 10
1624.9572145
 20
804.19998199999998
 11
1624.8683475
 21
804.07070899999997
  0
LINE
  8
_0-0_0
  6
CONTINUOUS
 62
    7
 10
1624.7752075000001
 20
803.92929099999992
 11
1624.8683475
 21
804.07070899999997
  0
LINE
  8
_0-0_0
  6
CONTINUOUS
 62
    7
 10
1624.7752075000001
 20
803.92929099999992
 11
1624.6936645000001
 21
803.79998799999998
  0
ARC
  8
_0-0_0
  6
CONTINUOUS
 62
    7
 10
1631.5025025
 20
799.59997599999997
 40
8
 50
148.33176499999999
 51
154.05551800000001
  0
LINE
  8
_0-0_0
  6
CONTINUOUS
 62
    7
 10
1624.3087765
 20
803.09997599999997
 11
1624.2147825
 21
802.89999399999999
  0
LINE
  8
_0-0_0
  6
CONTINUOUS
 62
    7
 10
1624.2147825
 20
802.89999399999999
 11
1624.1275025
 21
802.69998199999998
  0
ARC
  8
_0-0_0
  6
CONTINUOUS
 62
    7
 10
1631.5025025
 20
799.59997599999997
 40
8
 50
157.20097000000001
 51
162.54239699999999
  0
LINE
  8
_0-0_0
  6
CONTINUOUS
 62
    7
 10
1623.8710325
 20
801.99997000000008
 11
1623.8109744999999
 21
801.79998799999998
  0
LINE
  8
_0-0_0
  6
CONTINUOUS
 62
    7
 10
1623.8109744999999
 20
801.79998799999998
 11
1623.7565305000001
 21
801.59997599999997
  0
ARC
  8
_0-0_0
  6
CONTINUOUS
 62
    7
 10
1631.5025025
 20
799.59997599999997
 40
8
 50
165.52249
 51
170.64796000000001
  0
LINE
  8
_0-0_0
  6
CONTINUOUS
 62
    7
 10
1623.6088255
 20
800.89999399999999
 11
1623.5784305
 21
800.69998199999998
  0
LINE
  8
_0-0_0
  6
CONTINUOUS
 62
    7
 10
1623.5784305
 20
800.69998199999998
 11
1623.5532834999999
 21
800.49997000000008
  0
ARC
  8
_0-0_0
  6
CONTINUOUS
 62
    7
 10
1631.5025025
 20
799.59997599999997
 40
8
 50
173.54054500000001
 51
178.567455
  0
LINE
  8
_0-0_0
  6
CONTINUOUS
 62
    7
 10
1623.5049435000001
 20
799.79998799999998
 11
1623.5025025
 21
799.59997599999997
  0
LINE
  8
_0-0_0
  6
CONTINUOUS
 62
    7
 10
1639.5000605
 20
799.79998799999998
 11
1639.5025025
 21
799.59997599999997
  0
ARC
  8
_0-0_0
  6
CONTINUOUS
 62
    7
 10
1631.5025025
 20
799.59997599999997
 40
8
 50
1.432544
 51
6.4594489999999993
  0
LINE
  8
_0-0_0
  6
CONTINUOUS
 62
    7
 10
1639.4265745
 20
800.69998199999998
 11
1639.4517215000001
 21
800.49997000000008
  0
LINE
  8
_0-0_0
  6
CONTINUOUS
 62
    7
 10
1639.3961795
 20
800.89999399999999
 11
1639.4265745
 21
800.69998199999998
  0
ARC
  8
_0-0_0
  6
CONTINUOUS
 62
    7
 10
1631.5025025
 20
799.59997599999997
 40
8
 50
9.3520350000000008
 51
14.477510999999998
  0
LINE
  8
_0-0_0
  6
CONTINUOUS
 62
    7
 10
1639.1940305000001
 20
801.79998799999998
 11
1639.2484744999999
 21
801.59997599999997
  0
LINE
  8
_0-0_0
  6
CONTINUOUS
 62
    7
 10
1639.1339725
 20
801.99997000000008
 11
1639.1940305000001
 21
801.79998799999998
  0
ARC
  8
_0-0_0
  6
CONTINUOUS
 62
    7
 10
1631.5025025
 20
799.59997599999997
 40
8
 50
17.457602999999999
 51
22.799030999999999
  0
LINE
  8
_0-0_0
  6
CONTINUOUS
 62
    7
 10
1638.7902225
 20
802.89999399999999
 11
1638.8775025
 21
802.69998199999998
  0
LINE
  8
_0-0_0
  6
CONTINUOUS
 62
    7
 10
1638.6962275000001
 20
803.09997599999997
 11
1638.7902225
 21
802.89999399999999
  0
ARC
  8
_0-0_0
  6
CONTINUOUS
 62
    7
 10
1631.5025025
 20
799.59997599999997
 40
8
 50
25.944476999999999
 51
31.668240000000001
  0
LINE
  8
_0-0_0
  6
CONTINUOUS
 62
    7
 10
1638.2297974999999
 20
803.92929099999992
 11
1638.3113404999999
 21
803.79998799999998
  0
LINE
  8
_0-0_0
  6
CONTINUOUS
 62
    7
 10
1638.2297974999999
 20
803.92929099999992
 11
1638.1366575
 21
804.07070899999997
  0
CIRCLE
  8
_0-0_0
  6
CONTINUOUS
 62
    7
 10
1631.5025025
 20
799.59997599999997
 40
7.5
  0
LINE
  8
_0-0_0
  6
CONTINUOUS
 62
    7
 10
1639.5000605
 20
799.39999399999999
 11
1640.5025025
 21
799.39999399999999
  0
LINE
  8
_0-0_0
  6
CONTINUOUS
 62
    7
 10
1639.5025025
 20
799.59997599999997
 11
1640.5025025
 21
799.59997599999997
  0
LINE
  8
_0-0_0
  6
CONTINUOUS
 62
    7
 10
1639.4517215000001
 20
798.69998199999998
 11
1640.5025025
 21
798.69998199999998
  0
LINE
  8
_0-0_0
  6
CONTINUOUS
 62
    7
 10
1639.4265745
 20
798.49997000000008
 11
1640.5025025
 21
798.49997000000008
  0
LINE
  8
_0-0_0
  6
CONTINUOUS
 62
    7
 10
1639.3961795
 20
798.29998799999998
 11
1640.5025025
 21
798.29998799999998
  0
LINE
  8
_0-0_0
  6
CONTINUOUS
 62
    7
 10
1639.2484744999999
 20
797.59997599999997
 11
1640.5025025
 21
797.59997599999997
  0
LINE
  8
_0-0_0
  6
CONTINUOUS
 62
    7
 10
1639.1940305000001
 20
797.39999399999999
 11
1640.5025025
 21
797.39999399999999
  0
LINE
  8
_0-0_0
  6
CONTINUOUS
 62
    7
 10
1639.1339725
 20
797.19998199999998
 11
1640.5025025
 21
797.19998199999998
  0
LINE
  8
_0-0_0
  6
CONTINUOUS
 62
    7
 10
1638.8775025
 20
796.49997000000008
 11
1640.5025025
 21
796.49997000000008
  0
LINE
  8
_0-0_0
  6
CONTINUOUS
 62
    7
 10
1638.7902225
 20
796.29998799999998
 11
1640.5025025
 21
796.29998799999998
  0
LINE
  8
_0-0_0
  6
CONTINUOUS
 62
    7
 10
1638.6962275000001
 20
796.09997599999997
 11
1640.5025025
 21
796.09997599999997
  0
LINE
  8
_0-0_0
  6
CONTINUOUS
 62
    7
 10
1638.3113404999999
 20
795.39999399999999
 11
1640.5025025
 21
795.39999399999999
  0
LINE
  8
_0-0_0
  6
CONTINUOUS
 62
    7
 10
1638.3113404999999
 20
803.79998799999998
 11
1640.5025025
 21
803.79998799999998
  0
LINE
  8
_0-0_0
  6
CONTINUOUS
 62
    7
 10
1638.6962275000001
 20
803.09997599999997
 11
1640.5025025
 21
803.09997599999997
  0
LINE
  8
_0-0_0
  6
CONTINUOUS
 62
    7
 10
1638.7902225
 20
802.89999399999999
 11
1640.5025025
 21
802.89999399999999
  0
LINE
  8
_0-0_0
  6
CONTINUOUS
 62
    7
 10
1638.8775025
 20
802.69998199999998
 11
1640.5025025
 21
802.69998199999998
  0
LINE
  8
_0-0_0
  6
CONTINUOUS
 62
    7
 10
1639.1339725
 20
801.99997000000008
 11
1640.5025025
 21
801.99997000000008
  0
LINE
  8
_0-0_0
  6
CONTINUOUS
 62
    7
 10
1639.1940305000001
 20
801.79998799999998
 11
1640.5025025
 21
801.79998799999998
  0
LINE
  8
_0-0_0
  6
CONTINUOUS
 62
    7
 10
1639.2484744999999
 20
801.59997599999997
 11
1640.5025025
 21
801.59997599999997
  0
LINE
  8
_0-0_0
  6
CONTINUOUS
 62
    7
 10
1639.3961795
 20
800.89999399999999
 11
1640.5025025
 21
800.89999399999999
  0
LINE
  8
_0-0_0
  6
CONTINUOUS
 62
    7
 10
1639.4265745
 20
800.69998199999998
 11
1640.5025025
 21
800.69998199999998
  0
LINE
  8
_0-0_0
  6
CONTINUOUS
 62
    7
 10
1639.4517215000001
 20
800.49997000000008
 11
1640.5025025
 21
800.49997000000008
  0
LINE
  8
_0-0_0
  6
CONTINUOUS
 62
    7
 10
1639.5000605
 20
799.79998799999998
 11
1640.5025025
 21
799.79998799999998
  0
LINE
  8
_0-0_0
  6
CONTINUOUS
 62
    7
 10
1641.0025025
 20
783.09997599999997
 11
1640.5025025
 21
783.09997599999997
  0
LINE
  8
_0-0_0
  6
CONTINUOUS
 62
    7
 10
1640.5025025
 20
785.29998799999998
 11
1641.0025025
 21
785.29998799999998
  0
LINE
  8
_0-0_0
  6
CONTINUOUS
 62
    7
 10
1641.0025025
 20
787.59997599999997
 11
1640.5025025
 21
787.59997599999997
  0
LINE
  8
_0-0_0
  6
CONTINUOUS
 62
    7
 10
-332.49761949999993
 20
787.59997599999997
 11
-332.99761949999993
 21
787.59997599999997
  0
LINE
  8
_0-0_0
  6
CONTINUOUS
 62
    7
 10
1640.5025025
 20
789.89999399999999
 11
1641.0025025
 21
789.89999399999999
  0
LINE
  8
_0-0_0
  6
CONTINUOUS
 62
    7
 10
1641.0025025
 20
810.09997599999997
 11
1641.0025025
 21
809.99997000000008
  0
LINE
  8
_0-0_0
  6
CONTINUOUS
 62
    7
 10
-332.99761949999993
 20
810.09997599999997
 11
-332.99761949999993
 21
809.99997000000008
  0
LINE
  8
_0-0_0
  6
CONTINUOUS
 62
    7
 10
-332.99761949999993
 20
789.89999399999999
 11
-332.49761949999993
 21
789.89999399999999
  0
LINE
  8
_0-0_0
  6
CONTINUOUS
 62
    7
 10
-332.49761949999993
 20
809.79998799999998
 11
1640.5025025
 21
809.79998799999998
  0
LINE
  8
_0-0_0
  6
CONTINUOUS
 62
    7
 10
-332.49761949999993
 20
809.20602400000007
 11
1640.5025025
 21
809.20602400000007
  0
LINE
  8
_0-0_0
  6
CONTINUOUS
 62
    7
 10
1638.0477905
 20
804.19998199999998
 11
1640.5025025
 21
804.19998199999998
  0
LINE
  8
_0-0_0
  6
CONTINUOUS
 62
    7
 10
-332.49761949999993
 20
804.19998199999998
 11
-330.0428465
 21
804.19998199999998
  0
ARC
  8
_0-0_0
  6
CONTINUOUS
 62
    7
 10
-323.49761949999993
 20
799.59997599999997
 40
8
 50
35.099632
 51
144.900373
  0
LINE
  8
_0-0_0
  6
CONTINUOUS
 62
    7
 10
-316.95239249999986
 20
804.19998199999998
 11
1624.9572145
 21
804.19998199999998
  0
LINE
  8
_0-0_0
  6
CONTINUOUS
 62
    7
 10
-332.99761949999993
 20
783.09997599999997
 11
-332.49761949999993
 21
783.09997599999997
  0
LINE
  8
_0-0_0
  6
CONTINUOUS
 62
    7
 10
-332.99761949999993
 20
785.29998799999998
 11
-332.49761949999993
 21
785.29998799999998
  0
LINE
  8
_0-0_0
  6
CONTINUOUS
 62
    7
 10
-330.0428465
 20
804.19998199999998
 11
-330.13180549999993
 21
804.07070899999997
  0
LINE
  8
_0-0_0
  6
CONTINUOUS
 62
    7
 10
-330.2249455000001
 20
803.92929099999992
 11
-330.13180549999993
 21
804.07070899999997
  0
LINE
  8
_0-0_0
  6
CONTINUOUS
 62
    7
 10
-332.49761949999993
 20
803.79998799999998
 11
-330.30642749999993
 21
803.79998799999998
  0
LINE
  8
_0-0_0
  6
CONTINUOUS
 62
    7
 10
-330.2249455000001
 20
803.92929099999992
 11
-330.30642749999993
 21
803.79998799999998
  0
ARC
  8
_0-0_0
  6
CONTINUOUS
 62
    7
 10
-323.49761949999993
 20
799.59997599999997
 40
8
 50
148.33176499999999
 51
154.05551800000001
  0
LINE
  8
_0-0_0
  6
CONTINUOUS
 62
    7
 10
-332.49761949999993
 20
803.09997599999997
 11
-330.6913454999999
 21
803.09997599999997
  0
LINE
  8
_0-0_0
  6
CONTINUOUS
 62
    7
 10
-330.6913454999999
 20
803.09997599999997
 11
-330.75283850000005
 21
802.97070299999996
  0
LINE
  8
_0-0_0
  6
CONTINUOUS
 62
    7
 10
-330.81686450000007
 20
802.82928500000003
 11
-330.75283850000005
 21
802.97070299999996
  0
LINE
  8
_0-0_0
  6
CONTINUOUS
 62
    7
 10
-332.49761949999993
 20
802.69998199999998
 11
-330.87255849999997
 21
802.69998199999998
  0
LINE
  8
_0-0_0
  6
CONTINUOUS
 62
    7
 10
-330.81686450000007
 20
802.82928500000003
 11
-330.87255849999997
 21
802.69998199999998
  0
ARC
  8
_0-0_0
  6
CONTINUOUS
 62
    7
 10
-323.49761949999993
 20
799.59997599999997
 40
8
 50
157.20097000000001
 51
162.54239699999999
  0
LINE
  8
_0-0_0
  6
CONTINUOUS
 62
    7
 10
-332.49761949999993
 20
801.99997000000008
 11
-331.12911949999989
 21
801.99997000000008
  0
LINE
  8
_0-0_0
  6
CONTINUOUS
 62
    7
 10
-331.12911949999989
 20
801.99997000000008
 11
-331.16857949999985
 21
801.87069700000006
  0
LINE
  8
_0-0_0
  6
CONTINUOUS
 62
    7
 10
-331.2090455
 20
801.72927900000002
 11
-331.16857949999985
 21
801.87069700000006
  0
LINE
  8
_0-0_0
  6
CONTINUOUS
 62
    7
 10
-332.49761949999993
 20
801.59997599999997
 11
-331.24356050000006
 21
801.59997599999997
  0
LINE
  8
_0-0_0
  6
CONTINUOUS
 62
    7
 10
-331.2090455
 20
801.72927900000002
 11
-331.24356050000006
 21
801.59997599999997
  0
ARC
  8
_0-0_0
  6
CONTINUOUS
 62
    7
 10
-323.49761949999993
 20
799.59997599999997
 40
8
 50
165.52249
 51
170.64796000000001
  0
LINE
  8
_0-0_0
  6
CONTINUOUS
 62
    7
 10
-332.49761949999993
 20
800.89999399999999
 11
-331.39126549999992
 21
800.89999399999999
  0
LINE
  8
_0-0_0
  6
CONTINUOUS
 62
    7
 10
-331.39126549999992
 20
800.89999399999999
 11
-331.41146849999996
 21
800.77069099999994
  0
LINE
  8
_0-0_0
  6
CONTINUOUS
 62
    7
 10
-331.43112150000002
 20
800.62927300000001
 11
-331.41146849999996
 21
800.77069099999994
  0
LINE
  8
_0-0_0
  6
CONTINUOUS
 62
    7
 10
-332.49761949999993
 20
800.49997000000008
 11
-331.44680749999998
 21
800.49997000000008
  0
LINE
  8
_0-0_0
  6
CONTINUOUS
 62
    7
 10
-331.43112150000002
 20
800.62927300000001
 11
-331.44680749999998
 21
800.49997000000008
  0
ARC
  8
_0-0_0
  6
CONTINUOUS
 62
    7
 10
-323.49761949999993
 20
799.59997599999997
 40
8
 50
173.54054500000001
 51
178.567455
  0
LINE
  8
_0-0_0
  6
CONTINUOUS
 62
    7
 10
-332.49761949999993
 20
799.79998799999998
 11
-331.49511750000011
 21
799.79998799999998
  0
LINE
  8
_0-0_0
  6
CONTINUOUS
 62
    7
 10
-331.49511750000011
 20
799.79998799999998
 11
-331.49728349999987
 21
799.67068500000005
  0
LINE
  8
_0-0_0
  6
CONTINUOUS
 62
    7
 10
-331.49761949999993
 20
799.59997599999997
 11
-331.49728349999987
 21
799.67068500000005
  0
LINE
  8
_0-0_0
  6
CONTINUOUS
 62
    7
 10
-332.49761949999993
 20
799.39999399999999
 11
-331.49511750000011
 21
799.39999399999999
  0
LINE
  8
_0-0_0
  6
CONTINUOUS
 62
    7
 10
-332.49761949999993
 20
798.69998199999998
 11
-331.44680749999998
 21
798.69998199999998
  0
LINE
  8
_0-0_0
  6
CONTINUOUS
 62
    7
 10
-332.49761949999993
 20
798.29998799999998
 11
-331.39126549999992
 21
798.29998799999998
  0
LINE
  8
_0-0_0
  6
CONTINUOUS
 62
    7
 10
-332.49761949999993
 20
797.59997599999997
 11
-331.24356050000006
 21
797.59997599999997
  0
LINE
  8
_0-0_0
  6
CONTINUOUS
 62
    7
 10
-332.49761949999993
 20
797.19998199999998
 11
-331.12911949999989
 21
797.19998199999998
  0
LINE
  8
_0-0_0
  6
CONTINUOUS
 62
    7
 10
-332.49761949999993
 20
796.49997000000008
 11
-330.87255849999997
 21
796.49997000000008
  0
LINE
  8
_0-0_0
  6
CONTINUOUS
 62
    7
 10
-332.49761949999993
 20
796.09997599999997
 11
-330.6913454999999
 21
796.09997599999997
  0
LINE
  8
_0-0_0
  6
CONTINUOUS
 62
    7
 10
-332.49761949999993
 20
795.39999399999999
 11
-330.30642749999993
 21
795.39999399999999
  0
LINE
  8
_0-0_0
  6
CONTINUOUS
 62
    7
 10
-315.50009150000005
 20
799.79998799999998
 11
-315.49761949999993
 21
799.59997599999997
  0
ARC
  8
_0-0_0
  6
CONTINUOUS
 62
    7
 10
-323.49761949999993
 20
799.59997599999997
 40
8
 50
1.432544
 51
6.4594489999999993
  0
LINE
  8
_0-0_0
  6
CONTINUOUS
 62
    7
 10
-315.57357750000006
 20
800.69998199999998
 11
-315.54840050000007
 21
800.49997000000008
  0
LINE
  8
_0-0_0
  6
CONTINUOUS
 62
    7
 10
-315.6039424999999
 20
800.89999399999999
 11
-315.57357750000006
 21
800.69998199999998
  0
ARC
  8
_0-0_0
  6
CONTINUOUS
 62
    7
 10
-323.49761949999993
 20
799.59997599999997
 40
8
 50
9.3520350000000008
 51
14.477510999999998
  0
LINE
  8
_0-0_0
  6
CONTINUOUS
 62
    7
 10
-315.80606050000006
 20
801.79998799999998
 11
-315.7516485000001
 21
801.59997599999997
  0
LINE
  8
_0-0_0
  6
CONTINUOUS
 62
    7
 10
-315.86608849999993
 20
801.99997000000008
 11
-315.80606050000006
 21
801.79998799999998
  0
ARC
  8
_0-0_0
  6
CONTINUOUS
 62
    7
 10
-323.49761949999993
 20
799.59997599999997
 40
8
 50
17.457602999999999
 51
22.799030999999999
  0
LINE
  8
_0-0_0
  6
CONTINUOUS
 62
    7
 10
-316.20993049999993
 20
802.89999399999999
 11
-316.12265049999996
 21
802.69998199999998
  0
LINE
  8
_0-0_0
  6
CONTINUOUS
 62
    7
 10
-316.30386350000003
 20
803.09997599999997
 11
-316.20993049999993
 21
802.89999399999999
  0
ARC
  8
_0-0_0
  6
CONTINUOUS
 62
    7
 10
-323.49761949999993
 20
799.59997599999997
 40
8
 50
25.944476999999999
 51
31.668240000000001
  0
LINE
  8
_0-0_0
  6
CONTINUOUS
 62
    7
 10
-316.77026350000006
 20
803.92929099999992
 11
-316.6887815
 21
803.79998799999998
  0
LINE
  8
_0-0_0
  6
CONTINUOUS
 62
    7
 10
-316.77026350000006
 20
803.92929099999992
 11
-316.8634035
 21
804.07070899999997
  0
LINE
  8
_0-0_0
  6
CONTINUOUS
 62
    7
 10
-316.95239249999986
 20
804.19998199999998
 11
-316.8634035
 21
804.07070899999997
  0
CIRCLE
  8
_0-0_0
  6
CONTINUOUS
 62
    7
 10
-323.49761949999993
 20
799.59997599999997
 40
7.5
  0
LINE
  8
_0-0_0
  6
CONTINUOUS
 62
    7
 10
-315.50009150000005
 20
799.79998799999998
 11
1623.5049435000001
 21
799.79998799999998
  0
LINE
  8
_0-0_0
  6
CONTINUOUS
 62
    7
 10
-315.54840050000007
 20
800.49997000000008
 11
1623.5532834999999
 21
800.49997000000008
  0
LINE
  8
_0-0_0
  6
CONTINUOUS
 62
    7
 10
-315.57357750000006
 20
800.69998199999998
 11
1623.5784305
 21
800.69998199999998
  0
LINE
  8
_0-0_0
  6
CONTINUOUS
 62
    7
 10
-315.6039424999999
 20
800.89999399999999
 11
1623.6088255
 21
800.89999399999999
  0
LINE
  8
_0-0_0
  6
CONTINUOUS
 62
    7
 10
-315.7516485000001
 20
801.59997599999997
 11
1623.7565305000001
 21
801.59997599999997
  0
LINE
  8
_0-0_0
  6
CONTINUOUS
 62
    7
 10
-315.80606050000006
 20
801.79998799999998
 11
1623.8109744999999
 21
801.79998799999998
  0
LINE
  8
_0-0_0
  6
CONTINUOUS
 62
    7
 10
-315.86608849999993
 20
801.99997000000008
 11
1623.8710325
 21
801.99997000000008
  0
LINE
  8
_0-0_0
  6
CONTINUOUS
 62
    7
 10
-316.12265049999996
 20
802.69998199999998
 11
1624.1275025
 21
802.69998199999998
  0
LINE
  8
_0-0_0
  6
CONTINUOUS
 62
    7
 10
-316.20993049999993
 20
802.89999399999999
 11
1624.2147825
 21
802.89999399999999
  0
LINE
  8
_0-0_0
  6
CONTINUOUS
 62
    7
 10
-316.30386350000003
 20
803.09997599999997
 11
1624.3087765
 21
803.09997599999997
  0
LINE
  8
_0-0_0
  6
CONTINUOUS
 62
    7
 10
-316.6887815
 20
803.79998799999998
 11
1624.6936645000001
 21
803.79998799999998
  0
LINE
  8
_0-0_0
  6
CONTINUOUS
 62
    7
 10
1641.0025025
 20
781.59997599999997
 11
1640.5025025
 21
781.59997599999997
  0
LINE
  8
_0-0_0
  6
CONTINUOUS
 62
    7
 10
1641.0025025
 20
809.19998199999998
 11
1641.0025025
 21
809.99997000000008
  0
LINE
  8
_0-0_0
  6
CONTINUOUS
 62
    7
 10
1641.0025025
 20
781.39999399999999
 11
1641.0025025
 21
809.19998199999998
  0
ARC
  8
_0-0_0
  6
CONTINUOUS
 62
    7
 10
1631.5025025
 20
800.29998799999998
 40
12.800000000000001
 50
73.932597000000001
 51
106.06740099999999
  0
LINE
  8
_0-0_0
  6
CONTINUOUS
 62
    7
 10
-332.99761949999993
 20
809.19998199999998
 11
-332.99761949999993
 21
809.99997000000008
  0
LINE
  8
_0-0_0
  6
CONTINUOUS
 62
    7
 10
-332.99761949999993
 20
781.39999399999999
 11
-332.99761949999993
 21
809.19998199999998
  0
ARC
  8
_0-0_0
  6
CONTINUOUS
 62
    7
 10
-323.49761949999993
 20
800.29998799999998
 40
12.800000000000001
 50
73.932597000000001
 51
106.06740099999999
  0
LINE
  8
_0-0_0
  6
CONTINUOUS
 62
    7
 10
317.00238050000007
 20
812.59997599999997
 11
317.00238050000007
 21
818.23989899999992
  0
LINE
  8
_0-0_0
  6
CONTINUOUS
 62
    7
 10
336.00238050000002
 20
818.23989899999992
 11
336.00238050000002
 21
812.59997599999997
  0
LINE
  8
_0-0_0
  6
CONTINUOUS
 62
    7
 10
967.00250249999999
 20
812.59997599999997
 11
967.00250249999999
 21
818.23989899999992
  0
LINE
  8
_0-0_0
  6
CONTINUOUS
 62
    7
 10
986.00250249999999
 20
818.23989899999992
 11
986.00250249999999
 21
812.59997599999997
  0
LINE
  8
_0-0_0
  6
CONTINUOUS
 62
    7
 10
1641.0025025
 20
810.09997599999997
 11
1641.0025025
 21
812.59997599999997
  0
LINE
  8
_0-0_0
  6
CONTINUOUS
 62
    7
 10
-332.99761949999993
 20
812.59997599999997
 11
1641.0025025
 21
812.59997599999997
  0
LINE
  8
_0-0_0
  6
CONTINUOUS
 62
    7
 10
-332.99761949999993
 20
810.09997599999997
 11
-332.99761949999993
 21
812.59997599999997
  0
LINE
  8
_0-0_0
  6
CONTINUOUS
 62
    7
 10
-332.99761949999993
 20
781.59997599999997
 11
-332.49761949999993
 21
781.59997599999997
  0
ARC
  8
_0-0_0
  6
CONTINUOUS
 62
    7
 10
1562.8025514999999
 20
786.49997000000008
 40
0.2
 50
339.62356199999999
 51
90.000002999999978
  0
LINE
  8
_0-0_0
  6
CONTINUOUS
 62
    7
 10
1562.9899295
 20
786.43035899999995
 11
1561.6900025
 21
782.93035899999995
  0
ARC
  8
_0-0_0
  6
CONTINUOUS
 62
    7
 10
1561.5025025
 20
782.99997000000008
 40
0.2
 50
200.37643
 51
339.62356199999999
  0
LINE
  8
_0-0_0
  6
CONTINUOUS
 62
    7
 10
1560.0150755
 20
786.43035899999995
 11
1561.3150025
 21
782.93035899999995
  0
ARC
  8
_0-0_0
  6
CONTINUOUS
 62
    7
 10
1560.2024535
 20
786.49997000000008
 40
0.2
 50
90.000003000000007
 51
200.37643
  0
LINE
  8
_0-0_0
  6
CONTINUOUS
 62
    7
 10
1560.2024535
 20
786.69998199999998
 11
1562.8025514999999
 21
786.69998199999998
  0
ARC
  8
_0-0_0
  6
CONTINUOUS
 62
    7
 10
-277.19760150000002
 20
786.49997000000008
 40
0.2
 50
339.62356199999999
 51
90.000002999999978
  0
LINE
  8
_0-0_0
  6
CONTINUOUS
 62
    7
 10
-277.01013149999994
 20
786.43035899999995
 11
-278.31011949999993
 21
782.93035899999995
  0
ARC
  8
_0-0_0
  6
CONTINUOUS
 62
    7
 10
-278.49761949999993
 20
782.99997000000008
 40
0.2
 50
200.37643
 51
339.62356199999999
  0
LINE
  8
_0-0_0
  6
CONTINUOUS
 62
    7
 10
-279.9850765000001
 20
786.43035899999995
 11
-278.6850895
 21
782.93035899999995
  0
ARC
  8
_0-0_0
  6
CONTINUOUS
 62
    7
 10
-279.79760749999991
 20
786.49997000000008
 40
0.2
 50
90.000003000000007
 51
200.37643
  0
LINE
  8
_0-0_0
  6
CONTINUOUS
 62
    7
 10
-279.79760749999991
 20
786.69998199999998
 11
-277.19760150000002
 21
786.69998199999998
  0
LINE
  8
_0-0_0
  6
CONTINUOUS
 62
    7
 10
1642.0025025
 20
809.19998199999998
 11
1641.0025025
 21
809.19998199999998
  0
LINE
  8
_0-0_0
  6
CONTINUOUS
 62
    7
 10
1642.0025025
 20
810.23696900000004
 11
1641.0025025
 21
810.23696900000004
  0
LINE
  8
_0-0_0
  6
CONTINUOUS
 62
    7
 10
1642.0025025
 20
781.39999399999999
 11
1641.0025025
 21
781.39999399999999
  0
ARC
  8
_0-0_0
  6
CONTINUOUS
 62
    7
 10
976.50250249999999
 20
800.29998799999998
 40
20.299999
 50
62.096725999999997
 51
117.903272
  0
CIRCLE
  8
_0-0_0
  6
CONTINUOUS
 62
    7
 10
976.50250249999999
 20
816.59997599999997
 40
2.5
  0
ARC
  8
_0-0_0
  6
CONTINUOUS
 62
    7
 10
326.50238050000007
 20
800.29998799999998
 40
20.299999
 50
62.096725999999997
 51
117.903272
  0
CIRCLE
  8
_0-0_0
  6
CONTINUOUS
 62
    7
 10
326.50238050000007
 20
816.59997599999997
 40
2.5
  0
LINE
  8
_0-0_0
  6
CONTINUOUS
 62
    7
 10
-333.99761949999993
 20
809.19998199999998
 11
-332.99761949999993
 21
809.19998199999998
  0
LINE
  8
_0-0_0
  6
CONTINUOUS
 62
    7
 10
-333.99761949999993
 20
810.19998199999998
 11
-332.99761949999993
 21
810.19998199999998
  0
LINE
  8
_0-0_0
  6
CONTINUOUS
 62
    7
 10
-333.99761949999993
 20
781.39999399999999
 11
-332.99761949999993
 21
781.39999399999999
  0
LINE
  8
_0-0_0
  6
CONTINUOUS
 62
    7
 10
1642.0025025
 20
812.39999399999999
 11
1641.0025025
 21
812.39999399999999
  0
LINE
  8
_0-0_0
  6
CONTINUOUS
 62
    7
 10
-333.99761949999993
 20
812.39999399999999
 11
-332.99761949999993
 21
812.39999399999999
  0
LINE
  8
_0-0_0
  6
CONTINUOUS
 62
    7
 10
1643.0025025
 20
808.78576699999996
 11
1643.0015255000001
 21
808.80429099999992
  0
LINE
  8
_0-0_0
  6
CONTINUOUS
 62
    7
 10
1643.0015255000001
 20
808.80429099999992
 11
1642.9984744999999
 21
808.822723
  0
LINE
  8
_0-0_0
  6
CONTINUOUS
 62
    7
 10
1642.9984744999999
 20
808.822723
 11
1642.9932255000001
 21
808.841858
  0
LINE
  8
_0-0_0
  6
CONTINUOUS
 62
    7
 10
1642.9932255000001
 20
808.841858
 11
1642.9859005000001
 21
808.86086999999998
  0
LINE
  8
_0-0_0
  6
CONTINUOUS
 62
    7
 10
1642.9859005000001
 20
808.86086999999998
 11
1642.9653935000001
 21
808.89758299999994
  0
LINE
  8
_0-0_0
  6
CONTINUOUS
 62
    7
 10
1642.9653935000001
 20
808.89758299999994
 11
1642.9369505
 21
808.93325800000002
  0
LINE
  8
_0-0_0
  6
CONTINUOUS
 62
    7
 10
1642.9369505
 20
808.93325800000002
 11
1642.9010615
 21
808.96756000000005
  0
LINE
  8
_0-0_0
  6
CONTINUOUS
 62
    7
 10
1642.9010615
 20
808.96756000000005
 11
1642.8524775000001
 21
809.00402800000006
  0
LINE
  8
_0-0_0
  6
CONTINUOUS
 62
    7
 10
1642.8524775000001
 20
809.00402800000006
 11
1642.7957154999999
 21
809.03802500000006
  0
LINE
  8
_0-0_0
  6
CONTINUOUS
 62
    7
 10
1642.7957154999999
 20
809.03802500000006
 11
1642.7315065
 21
809.06927500000006
  0
LINE
  8
_0-0_0
  6
CONTINUOUS
 62
    7
 10
1642.7315065
 20
809.06927500000006
 11
1642.6608275000001
 21
809.097534
  0
LINE
  8
_0-0_0
  6
CONTINUOUS
 62
    7
 10
1642.6608275000001
 20
809.097534
 11
1642.6127315000001
 21
809.11389199999996
  0
LINE
  8
_0-0_0
  6
CONTINUOUS
 62
    7
 10
1642.6127315000001
 20
809.11389199999996
 11
1642.5626835
 21
809.12887599999999
  0
LINE
  8
_0-0_0
  6
CONTINUOUS
 62
    7
 10
1642.5626835
 20
809.12887599999999
 11
1642.5059205
 21
809.14364599999999
  0
LINE
  8
_0-0_0
  6
CONTINUOUS
 62
    7
 10
1642.5059205
 20
809.14364599999999
 11
1642.4473264999999
 21
809.15673800000002
  0
LINE
  8
_0-0_0
  6
CONTINUOUS
 62
    7
 10
1642.4473264999999
 20
809.15673800000002
 11
1642.3305055000001
 21
809.17706299999998
  0
LINE
  8
_0-0_0
  6
CONTINUOUS
 62
    7
 10
1642.3305055000001
 20
809.17706299999998
 11
1642.2232054999999
 21
809.18978900000002
  0
LINE
  8
_0-0_0
  6
CONTINUOUS
 62
    7
 10
1642.2232054999999
 20
809.18978900000002
 11
1642.1133425
 21
809.19741799999997
  0
LINE
  8
_0-0_0
  6
CONTINUOUS
 62
    7
 10
1642.1133425
 20
809.19741799999997
 11
1642.0025025
 21
809.19998199999998
  0
LINE
  8
_0-0_0
  6
CONTINUOUS
 62
    7
 10
1643.0025025
 20
808.78576699999996
 11
1643.0025025
 21
809.78582800000004
  0
LINE
  8
_0-0_0
  6
CONTINUOUS
 62
    7
 10
1643.0025025
 20
809.78582800000004
 11
1642.9995725000001
 21
809.81741299999999
  0
LINE
  8
_0-0_0
  6
CONTINUOUS
 62
    7
 10
1642.9995725000001
 20
809.81741299999999
 11
1642.9909055000001
 21
809.84948699999995
  0
LINE
  8
_0-0_0
  6
CONTINUOUS
 62
    7
 10
1642.9909055000001
 20
809.84948699999995
 11
1642.9763795000001
 21
809.88174400000003
  0
LINE
  8
_0-0_0
  6
CONTINUOUS
 62
    7
 10
1642.9763795000001
 20
809.88174400000003
 11
1642.9561154999999
 21
809.91390999999999
  0
LINE
  8
_0-0_0
  6
CONTINUOUS
 62
    7
 10
1642.9561154999999
 20
809.91390999999999
 11
1642.9395145000001
 21
809.93515000000002
  0
LINE
  8
_0-0_0
  6
CONTINUOUS
 62
    7
 10
1642.9395145000001
 20
809.93515000000002
 11
1642.9205935
 21
809.95608500000003
  0
LINE
  8
_0-0_0
  6
CONTINUOUS
 62
    7
 10
1642.9205935
 20
809.95608500000003
 11
1642.8757935000001
 21
809.99688700000002
  0
LINE
  8
_0-0_0
  6
CONTINUOUS
 62
    7
 10
1642.8757935000001
 20
809.99688700000002
 11
1642.8225705
 21
810.03561400000001
  0
LINE
  8
_0-0_0
  6
CONTINUOUS
 62
    7
 10
1642.8225705
 20
810.03561400000001
 11
1642.7726435
 21
810.06582700000001
  0
LINE
  8
_0-0_0
  6
CONTINUOUS
 62
    7
 10
1642.7726435
 20
810.06582700000001
 11
1642.7179564999999
 21
810.09405500000003
  0
LINE
  8
_0-0_0
  6
CONTINUOUS
 62
    7
 10
1642.7179564999999
 20
810.09405500000003
 11
1642.6589965000001
 21
810.12008700000001
  0
LINE
  8
_0-0_0
  6
CONTINUOUS
 62
    7
 10
1642.6589965000001
 20
810.12008700000001
 11
1642.6122435
 21
810.13809199999992
  0
LINE
  8
_0-0_0
  6
CONTINUOUS
 62
    7
 10
1642.6122435
 20
810.13809199999992
 11
1642.5635374999999
 21
810.15469400000006
  0
LINE
  8
_0-0_0
  6
CONTINUOUS
 62
    7
 10
1642.5635374999999
 20
810.15469400000006
 11
1642.4611205000001
 21
810.18356300000005
  0
LINE
  8
_0-0_0
  6
CONTINUOUS
 62
    7
 10
1642.4611205000001
 20
810.18356300000005
 11
1642.3534545
 21
810.20639000000006
  0
LINE
  8
_0-0_0
  6
CONTINUOUS
 62
    7
 10
1642.3534545
 20
810.20639000000006
 11
1642.2417605000001
 21
810.22299199999998
  0
LINE
  8
_0-0_0
  6
CONTINUOUS
 62
    7
 10
1642.2417605000001
 20
810.22299199999998
 11
1642.1277465000001
 21
810.23318500000005
  0
LINE
  8
_0-0_0
  6
CONTINUOUS
 62
    7
 10
1642.1277465000001
 20
810.23318500000005
 11
1642.0025025
 21
810.23696900000004
  0
ARC
  8
_0-0_0
  6
CONTINUOUS
 62
    7
 10
1642.0025025
 20
782.39999399999999
 40
1
 50
269.99999700000001
 51
0
  0
LINE
  8
_0-0_0
  6
CONTINUOUS
 62
    7
 10
1643.0025025
 20
782.39999399999999
 11
1643.0025025
 21
808.78576699999996
  0
LINE
  8
_0-0_0
  6
CONTINUOUS
 62
    7
 10
-334.99761949999993
 20
808.78576699999996
 11
-334.99661250000008
 21
808.80429099999992
  0
LINE
  8
_0-0_0
  6
CONTINUOUS
 62
    7
 10
-334.99661250000008
 20
808.80429099999992
 11
-334.99362150000002
 21
808.822723
  0
LINE
  8
_0-0_0
  6
CONTINUOUS
 62
    7
 10
-334.99362150000002
 20
808.822723
 11
-334.98837249999997
 21
808.841858
  0
LINE
  8
_0-0_0
  6
CONTINUOUS
 62
    7
 10
-334.98837249999997
 20
808.841858
 11
-334.98098750000008
 21
808.86086999999998
  0
LINE
  8
_0-0_0
  6
CONTINUOUS
 62
    7
 10
-334.98098750000008
 20
808.86086999999998
 11
-334.96044949999987
 21
808.89758299999994
  0
LINE
  8
_0-0_0
  6
CONTINUOUS
 62
    7
 10
-334.96044949999987
 20
808.89758299999994
 11
-334.93203749999998
 21
808.93325800000002
  0
LINE
  8
_0-0_0
  6
CONTINUOUS
 62
    7
 10
-334.93203749999998
 20
808.93325800000002
 11
-334.89617950000002
 21
808.96756000000005
  0
LINE
  8
_0-0_0
  6
CONTINUOUS
 62
    7
 10
-334.89617950000002
 20
808.96756000000005
 11
-334.84753449999994
 21
809.00402800000006
  0
LINE
  8
_0-0_0
  6
CONTINUOUS
 62
    7
 10
-334.84753449999994
 20
809.00402800000006
 11
-334.79077150000012
 21
809.03802500000006
  0
LINE
  8
_0-0_0
  6
CONTINUOUS
 62
    7
 10
-334.79077150000012
 20
809.03802500000006
 11
-334.72662349999996
 21
809.06927500000006
  0
LINE
  8
_0-0_0
  6
CONTINUOUS
 62
    7
 10
-334.72662349999996
 20
809.06927500000006
 11
-334.65597550000007
 21
809.097534
  0
LINE
  8
_0-0_0
  6
CONTINUOUS
 62
    7
 10
-334.65597550000007
 20
809.097534
 11
-334.60787949999985
 21
809.11389199999996
  0
LINE
  8
_0-0_0
  6
CONTINUOUS
 62
    7
 10
-334.60787949999985
 20
809.11389199999996
 11
-334.55776949999995
 21
809.12887599999999
  0
LINE
  8
_0-0_0
  6
CONTINUOUS
 62
    7
 10
-334.55776949999995
 20
809.12887599999999
 11
-334.50106849999997
 21
809.14364599999999
  0
LINE
  8
_0-0_0
  6
CONTINUOUS
 62
    7
 10
-334.50106849999997
 20
809.14364599999999
 11
-334.44244350000008
 21
809.15673800000002
  0
LINE
  8
_0-0_0
  6
CONTINUOUS
 62
    7
 10
-334.44244350000008
 20
809.15673800000002
 11
-334.32565350000004
 21
809.17706299999998
  0
LINE
  8
_0-0_0
  6
CONTINUOUS
 62
    7
 10
-334.32565350000004
 20
809.17706299999998
 11
-334.21826149999993
 21
809.18978900000002
  0
LINE
  8
_0-0_0
  6
CONTINUOUS
 62
    7
 10
-334.21826149999993
 20
809.18978900000002
 11
-334.10849050000002
 21
809.19741799999997
  0
LINE
  8
_0-0_0
  6
CONTINUOUS
 62
    7
 10
-334.10849050000002
 20
809.19741799999997
 11
-333.99761949999993
 21
809.19998199999998
  0
LINE
  8
_0-0_0
  6
CONTINUOUS
 62
    7
 10
-334.99761949999993
 20
809.75543199999993
 11
-334.99472049999986
 21
809.78634699999998
  0
LINE
  8
_0-0_0
  6
CONTINUOUS
 62
    7
 10
-334.99472049999986
 20
809.78634699999998
 11
-334.9860235000001
 21
809.81777999999997
  0
LINE
  8
_0-0_0
  6
CONTINUOUS
 62
    7
 10
-334.9860235000001
 20
809.81777999999997
 11
-334.97152749999987
 21
809.84945700000003
  0
LINE
  8
_0-0_0
  6
CONTINUOUS
 62
    7
 10
-334.97152749999987
 20
809.84945700000003
 11
-334.95138550000001
 21
809.88104299999998
  0
LINE
  8
_0-0_0
  6
CONTINUOUS
 62
    7
 10
-334.95138550000001
 20
809.88104299999998
 11
-334.93484549999994
 21
809.90191699999991
  0
LINE
  8
_0-0_0
  6
CONTINUOUS
 62
    7
 10
-334.93484549999994
 20
809.90191699999991
 11
-334.9159545
 21
809.92251599999997
  0
LINE
  8
_0-0_0
  6
CONTINUOUS
 62
    7
 10
-334.9159545
 20
809.92251599999997
 11
-334.87130750000006
 21
809.96267699999999
  0
LINE
  8
_0-0_0
  6
CONTINUOUS
 62
    7
 10
-334.87130750000006
 20
809.96267699999999
 11
-334.81817649999994
 21
810.00088499999993
  0
LINE
  8
_0-0_0
  6
CONTINUOUS
 62
    7
 10
-334.81817649999994
 20
810.00088499999993
 11
-334.76828049999995
 21
810.03070099999991
  0
LINE
  8
_0-0_0
  6
CONTINUOUS
 62
    7
 10
-334.76828049999995
 20
810.03070099999991
 11
-334.7135925
 21
810.05856300000005
  0
LINE
  8
_0-0_0
  6
CONTINUOUS
 62
    7
 10
-334.7135925
 20
810.05856300000005
 11
-334.65463249999993
 21
810.08431999999993
  0
LINE
  8
_0-0_0
  6
CONTINUOUS
 62
    7
 10
-334.65463249999993
 20
810.08431999999993
 11
-334.60787949999985
 21
810.102081
  0
LINE
  8
_0-0_0
  6
CONTINUOUS
 62
    7
 10
-334.60787949999985
 20
810.102081
 11
-334.55917350000004
 21
810.11852999999996
  0
LINE
  8
_0-0_0
  6
CONTINUOUS
 62
    7
 10
-334.55917350000004
 20
810.11852999999996
 11
-334.45672650000006
 21
810.14709500000004
  0
LINE
  8
_0-0_0
  6
CONTINUOUS
 62
    7
 10
-334.45672650000006
 20
810.14709500000004
 11
-334.3489075
 21
810.16970800000001
  0
LINE
  8
_0-0_0
  6
CONTINUOUS
 62
    7
 10
-334.3489075
 20
810.16970800000001
 11
-334.23724349999998
 21
810.18612699999994
  0
LINE
  8
_0-0_0
  6
CONTINUOUS
 62
    7
 10
-334.23724349999998
 20
810.18612699999994
 11
-334.12307749999991
 21
810.19622800000002
  0
LINE
  8
_0-0_0
  6
CONTINUOUS
 62
    7
 10
-334.12307749999991
 20
810.19622800000002
 11
-333.99761949999993
 21
810.19998199999998
  0
LINE
  8
_0-0_0
  6
CONTINUOUS
 62
    7
 10
-334.99761949999993
 20
808.78576699999996
 11
-334.99761949999993
 21
809.75543199999993
  0
ARC
  8
_0-0_0
  6
CONTINUOUS
 62
    7
 10
-333.99761949999993
 20
782.39999399999999
 40
1
 50
180.00000900000003
 51
269.99999700000001
  0
LINE
  8
_0-0_0
  6
CONTINUOUS
 62
    7
 10
-334.99761949999993
 20
782.39999399999999
 11
-334.99761949999993
 21
808.78576699999996
  0
CIRCLE
  8
_0-0_0
  6
CONTINUOUS
 62
    7
 10
-323.49761949999993
 20
799.59997599999997
 40
5
  0
CIRCLE
  8
_0-0_0
  6
CONTINUOUS
 62
    7
 10
1631.5025025
 20
799.59997599999997
 40
5
  0
LINE
  8
_0-0_0
  6
CONTINUOUS
 62
    7
 10
1643.0025025
 20
809.78582800000004
 11
1643.0025025
 21
811.39999399999999
  0
ARC
  8
_0-0_0
  6
CONTINUOUS
 62
    7
 10
1642.0025025
 20
811.39999399999999
 40
1
 50
0
 51
90.000003000000007
  0
ARC
  8
_0-0_0
  6
CONTINUOUS
 62
    7
 10
-333.99761949999993
 20
811.39999399999999
 40
1
 50
90.000003000000007
 51
180.00000900000001
  0
LINE
  8
_0-0_0
  6
CONTINUOUS
 62
    7
 10
-334.99761949999993
 20
809.75543199999993
 11
-334.99761949999993
 21
811.39999399999999
  0
LINE
  8
_0-0_0
  6
CONTINUOUS
 62
    7
 10
-362.90747050000004
 20
781.39999399999999
 11
-362.90747050000004
 21
780.79998799999998
  0
LINE
  8
_0-0_0
  6
CONTINUOUS
 62
    7
 10
-360.40747050000004
 20
775.55499299999997
 11
-360.40747050000004
 21
777.79998799999998
  0
LINE
  8
_0-0_0
  6
CONTINUOUS
 62
    7
 10
-359.40747050000004
 20
777.79998799999998
 11
-359.40747050000004
 21
779.79998799999998
  0
ARC
  8
_0-0_0
  6
CONTINUOUS
 62
    7
 10
-359.90747050000004
 20
779.79998799999998
 40
0.5
 50
0
 51
90.000003000000007
  0
LINE
  8
_0-0_0
  6
CONTINUOUS
 62
    7
 10
-359.90747050000004
 20
780.29998799999998
 11
-361.40747050000004
 21
780.29998799999998
  0
ARC
  8
_0-0_0
  6
CONTINUOUS
 62
    7
 10
-361.40747050000004
 20
781.29998799999998
 40
1
 50
180.00000900000003
 51
269.99999700000001
  0
LINE
  8
_0-0_0
  6
CONTINUOUS
 62
    7
 10
-362.40747050000004
 20
781.39999399999999
 11
-362.40747050000004
 21
781.29998799999998
  0
ARC
  8
_0-0_0
  6
CONTINUOUS
 62
    7
 10
-361.40747050000004
 20
780.79998799999998
 40
1.5
 50
180.00000900000003
 51
269.99999700000001
  0
LINE
  8
_0-0_0
  6
CONTINUOUS
 62
    7
 10
-361.40747050000004
 20
779.29998799999998
 11
-362.10748250000006
 21
779.29998799999998
  0
ARC
  8
_0-0_0
  6
CONTINUOUS
 62
    7
 10
-362.10748250000006
 20
780.29998799999998
 40
1
 50
180.00000900000003
 51
269.99999700000001
  0
LINE
  8
_0-0_0
  6
CONTINUOUS
 62
    7
 10
-363.10748250000006
 20
781.29998799999998
 11
-363.10748250000006
 21
780.29998799999998
  0
LINE
  8
_0-0_0
  6
CONTINUOUS
 62
    7
 10
-371.30746449999992
 20
780.29998799999998
 11
-371.30746449999992
 21
781.29998799999998
  0
ARC
  8
_0-0_0
  6
CONTINUOUS
 62
    7
 10
-372.30746449999992
 20
780.29998799999998
 40
1
 50
269.99999700000001
 51
0
  0
LINE
  8
_0-0_0
  6
CONTINUOUS
 62
    7
 10
-372.30746449999992
 20
779.29998799999998
 11
-372.50747649999994
 21
779.29998799999998
  0
ARC
  8
_0-0_0
  6
CONTINUOUS
 62
    7
 10
-372.50747649999994
 20
780.29998799999998
 40
1
 50
269.99999700000001
 51
0
  0
LINE
  8
_0-0_0
  6
CONTINUOUS
 62
    7
 10
-371.50747649999994
 20
780.29998799999998
 11
-371.50747649999994
 21
781.39999399999999
  0
LINE
  8
_0-0_0
  6
CONTINUOUS
 62
    7
 10
-372.00747649999994
 20
781.29998799999998
 11
-372.00747649999994
 21
781.39999399999999
  0
ARC
  8
_0-0_0
  6
CONTINUOUS
 62
    7
 10
-373.00747649999994
 20
781.29998799999998
 40
1
 50
269.99999700000001
 51
0
  0
LINE
  8
_0-0_0
  6
CONTINUOUS
 62
    7
 10
-373.00747649999994
 20
780.29998799999998
 11
-374.50747649999994
 21
780.29998799999998
  0
ARC
  8
_0-0_0
  6
CONTINUOUS
 62
    7
 10
-374.50747649999994
 20
779.79998799999998
 40
0.5
 50
90.000003000000007
 51
180.00000900000001
  0
LINE
  8
_0-0_0
  6
CONTINUOUS
 62
    7
 10
-375.00747649999994
 20
779.79998799999998
 11
-375.00747649999994
 21
777.79998799999998
  0
LINE
  8
_0-0_0
  6
CONTINUOUS
 62
    7
 10
-374.00747649999994
 20
775.55499299999997
 11
-374.00747649999994
 21
777.79998799999998
  0
LINE
  8
_0-0_0
  6
CONTINUOUS
 62
    7
 10
-375.90747050000004
 20
757.19998199999998
 11
-375.90747050000004
 21
775.55499299999997
  0
LINE
  8
_0-0_0
  6
CONTINUOUS
 62
    7
 10
-359.10748250000006
 20
757.19998199999998
 11
-359.10748250000006
 21
775.55499299999997
  0
CIRCLE
  8
_0-0_0
  6
CONTINUOUS
 62
    7
 10
-367.20748950000007
 20
777.79998799999998
 40
2.0499999999999998
  0
LINE
  8
_0-0_0
  6
CONTINUOUS
 62
    7
 10
-359.10748250000006
 20
779.29998799999998
 11
-359.10748250000006
 21
779.27499399999999
  0
LINE
  8
_0-0_0
  6
CONTINUOUS
 62
    7
 10
-359.10748250000006
 20
776.05493200000001
 11
-359.10748250000006
 21
776.32498199999998
  0
LINE
  8
_0-0_0
  6
CONTINUOUS
 62
    7
 10
-359.10748250000006
 20
775.55499299999997
 11
-359.10748250000006
 21
776.05499299999997
  0
LINE
  8
_0-0_0
  6
CONTINUOUS
 62
    7
 10
-359.10748250000006
 20
755.19998199999998
 11
-359.10748250000006
 21
757.19998199999998
  0
LINE
  8
_0-0_0
  6
CONTINUOUS
 62
    7
 10
-375.90747050000004
 20
755.19998199999998
 11
-375.90747050000004
 21
757.19998199999998
  0
LINE
  8
_0-0_0
  6
CONTINUOUS
 62
    7
 10
-375.90747050000004
 20
755.19998199999998
 11
-359.10748250000006
 21
755.19998199999998
  0
LINE
  8
_0-0_0
  6
CONTINUOUS
 62
    7
 10
-375.90747050000004
 20
779.29998799999998
 11
-375.90747050000004
 21
777.79998799999998
  0
LINE
  8
_0-0_0
  6
CONTINUOUS
 62
    7
 10
-375.90747050000004
 20
776.05499299999997
 11
-375.90747050000004
 21
777.79998799999998
  0
LINE
  8
_0-0_0
  6
CONTINUOUS
 62
    7
 10
-375.90747050000004
 20
775.55499299999997
 11
-375.90747050000004
 21
776.05499299999997
  0
LINE
  8
_0-0_0
  6
CONTINUOUS
 62
    7
 10
-375.00747649999994
 20
776.05505399999993
 11
-375.00747649999994
 21
777.79998799999998
  0
ARC
  8
_0-0_0
  6
CONTINUOUS
 62
    7
 10
-360.70748950000007
 20
757.29998799999998
 40
2
 50
323.13010300000002
 51
0.0000000000000127
  0
LINE
  8
_0-0_0
  6
CONTINUOUS
 62
    7
 10
-358.70748950000007
 20
757.29998799999998
 11
-358.70748950000007
 21
758.70004300000005
  0
LINE
  8
_0-0_0
  6
CONTINUOUS
 62
    7
 10
-358.40747050000004
 20
763.78967299999999
 11
-358.40747050000004
 21
774.23767099999998
  0
LINE
  8
_0-0_0
  6
CONTINUOUS
 62
    7
 10
-358.40747050000004
 20
775.20047
 11
-358.40747050000004
 21
777.43511999999998
  0
LINE
  8
_0-0_0
  6
CONTINUOUS
 62
    7
 10
-375.90747050000004
 20
779.29998799999998
 11
-375.00747649999994
 21
779.29998799999998
  0
LINE
  8
_0-0_0
  6
CONTINUOUS
 62
    7
 10
-376.00747649999994
 20
758.69998199999998
 11
-375.90747050000004
 21
758.69998199999998
  0
LINE
  8
_0-0_0
  6
CONTINUOUS
 62
    7
 10
-376.00747649999994
 20
758.69998199999998
 11
-376.00747649999994
 21
763.78967299999999
  0
LINE
  8
_0-0_0
  6
CONTINUOUS
 62
    7
 10
-376.00747649999994
 20
774.23767099999998
 11
-376.00747649999994
 21
775.20047
  0
LINE
  8
_0-0_0
  6
CONTINUOUS
 62
    7
 10
-376.00747649999994
 20
778.29998799999998
 11
-375.90747050000004
 21
778.29998799999998
  0
LINE
  8
_0-0_0
  6
CONTINUOUS
 62
    7
 10
-376.00747649999994
 20
777.43511999999998
 11
-376.00747649999994
 21
778.29998799999998
  0
LINE
  8
_0-0_0
  6
CONTINUOUS
 62
    7
 10
-376.00747649999994
 20
775.20047
 11
-376.00747649999994
 21
777.43511999999998
  0
LINE
  8
_0-0_0
  6
CONTINUOUS
 62
    7
 10
-376.00747649999994
 20
763.78967299999999
 11
-376.00747649999994
 21
774.23767099999998
  0
LINE
  8
_0-0_0
  6
CONTINUOUS
 62
    7
 10
-375.70748950000007
 20
777.18872099999999
 11
-375.70748950000007
 21
779.07498199999998
  0
LINE
  8
_0-0_0
  6
CONTINUOUS
 62
    7
 10
-375.70748950000007
 20
776.52499399999999
 11
-375.70748950000007
 21
777.18872099999999
  0
LINE
  8
_0-0_0
  6
CONTINUOUS
 62
    7
 10
-358.70748950000007
 20
778.41125499999998
 11
-358.70748950000007
 21
776.52529900000002
  0
LINE
  8
_0-0_0
  6
CONTINUOUS
 62
    7
 10
-358.70748950000007
 20
779.06662000000006
 11
-358.70748950000007
 21
778.41125499999998
  0
LINE
  8
_0-0_0
  6
CONTINUOUS
 62
    7
 10
-358.40747050000004
 20
758.69998199999998
 11
-358.40747050000004
 21
763.78967299999999
  0
LINE
  8
_0-0_0
  6
CONTINUOUS
 62
    7
 10
-358.40747050000004
 20
777.43511999999998
 11
-358.40747050000004
 21
778.29998799999998
  0
LINE
  8
_0-0_0
  6
CONTINUOUS
 62
    7
 10
-358.40747050000004
 20
774.23767099999998
 11
-358.40747050000004
 21
775.20047
  0
LINE
  8
_0-0_0
  6
CONTINUOUS
 62
    7
 10
-358.40747050000004
 20
778.29998799999998
 11
-358.70748950000007
 21
778.29998799999998
  0
LINE
  8
_0-0_0
  6
CONTINUOUS
 62
    7
 10
-358.40747050000004
 20
758.69998199999998
 11
-359.10748250000006
 21
758.69998199999998
  0
LINE
  8
_0-0_0
  6
CONTINUOUS
 62
    7
 10
-359.10748250000006
 20
779.29998799999998
 11
-359.40747050000004
 21
779.29998799999998
  0
LINE
  8
_0-0_0
  6
CONTINUOUS
 62
    7
 10
-359.40747050000004
 20
777.79998799999998
 11
-359.40747050000004
 21
776.05505399999993
  0
LINE
  8
_0-0_0
  6
CONTINUOUS
 62
    7
 10
-363.10748250000006
 20
781.29998799999998
 11
-363.10748250000006
 21
781.40005500000007
  0
LINE
  8
_0-0_0
  6
CONTINUOUS
 62
    7
 10
-371.30746449999992
 20
781.40005500000007
 11
-371.30746449999992
 21
781.29998799999998
  0
LINE
  8
_0-0_0
  6
CONTINUOUS
 62
    7
 10
-360.40747050000004
 20
776.05499299999997
 11
-359.10748250000006
 21
776.05499299999997
  0
ARC
  8
_0-0_0
  6
CONTINUOUS
 62
    7
 10
-375.20748950000007
 20
779.07498199999998
 40
0.2
 50
359.91222800000003
 51
89.999948000000003
  0
ARC
  8
_0-0_0
  6
CONTINUOUS
 62
    7
 10
-375.20758049999995
 20
776.52514700000006
 40
0.200169
 50
270.02985900000004
 51
2.3526610000000452
  0
LINE
  8
_0-0_0
  6
CONTINUOUS
 62
    7
 10
-375.50747649999994
 20
779.27499399999999
 11
-375.20748950000007
 21
779.27499399999999
  0
LINE
  8
_0-0_0
  6
CONTINUOUS
 62
    7
 10
-375.50747649999994
 20
776.32498199999998
 11
-375.20748950000007
 21
776.32498199999998
  0
ARC
  8
_0-0_0
  6
CONTINUOUS
 62
    7
 10
-375.50738550000005
 20
779.07482899999991
 40
0.200169
 50
90.029849999999996
 51
182.352667
  0
ARC
  8
_0-0_0
  6
CONTINUOUS
 62
    7
 10
-375.50747649999994
 20
776.52499399999999
 40
0.2
 50
179.912237
 51
269.99994299999997
  0
ARC
  8
_0-0_0
  6
CONTINUOUS
 62
    7
 10
-359.20736749999992
 20
776.52514700000006
 40
0.200169
 50
177.647333
 51
269.97013600000002
  0
ARC
  8
_0-0_0
  6
CONTINUOUS
 62
    7
 10
-359.20748950000007
 20
779.07498199999998
 40
0.2
 50
90.000049999999987
 51
180.08776299999997
  0
LINE
  8
_0-0_0
  6
CONTINUOUS
 62
    7
 10
-358.90747050000004
 20
776.32498199999998
 11
-359.20748950000007
 21
776.32498199999998
  0
LINE
  8
_0-0_0
  6
CONTINUOUS
 62
    7
 10
-358.90747050000004
 20
779.27499399999999
 11
-359.20748950000007
 21
779.27499399999999
  0
ARC
  8
_0-0_0
  6
CONTINUOUS
 62
    7
 10
-358.90747050000004
 20
776.52499399999999
 40
0.2
 50
270.00005199999998
 51
0.0877600000000175
  0
ARC
  8
_0-0_0
  6
CONTINUOUS
 62
    7
 10
-358.90759249999996
 20
779.07482899999991
 40
0.200169
 50
357.64733799999999
 51
89.970147999999995
  0
LINE
  8
_0-0_0
  6
CONTINUOUS
 62
    7
 10
-375.90747050000004
 20
776.05499299999997
 11
-374.00747649999994
 21
776.05499299999997
  0
LINE
  8
_0-0_0
  6
CONTINUOUS
 62
    7
 10
-358.40747050000004
 20
781.79998799999998
 11
-358.40747050000004
 21
794.99997000000008
  0
ARC
  8
_0-0_0
  6
CONTINUOUS
 62
    7
 10
-358.90747050000004
 20
781.79998799999998
 40
0.5
 50
269.99999700000001
 51
0
  0
ARC
  8
_0-0_0
  6
CONTINUOUS
 62
    7
 10
-358.4660644999999
 20
795.19998199999998
 40
0.1
 50
135
 51
225
  0
LINE
  8
_0-0_0
  6
CONTINUOUS
 62
    7
 10
-358.53677349999998
 20
795.12927300000001
 11
-358.40747050000004
 21
794.99997000000008
  0
LINE
  8
_0-0_0
  6
CONTINUOUS
 62
    7
 10
-358.90747050000004
 20
781.29998799999998
 11
-360.80746449999992
 21
781.29998799999998
  0
ARC
  8
_0-0_0
  6
CONTINUOUS
 62
    7
 10
-360.80746449999992
 20
781.79998799999998
 40
0.5
 50
233.12990600000001
 51
269.99999700000001
  0
ARC
  8
_0-0_0
  6
CONTINUOUS
 62
    7
 10
-373.50747649999994
 20
781.79998799999998
 40
0.5
 50
269.99999700000001
 51
306.87009999999998
  0
LINE
  8
_0-0_0
  6
CONTINUOUS
 62
    7
 10
-373.50747649999994
 20
781.29998799999998
 11
-375.40747050000004
 21
781.29998799999998
  0
ARC
  8
_0-0_0
  6
CONTINUOUS
 62
    7
 10
-375.40747050000004
 20
781.79998799999998
 40
0.5
 50
180.00000900000003
 51
269.99999700000001
  0
LINE
  8
_0-0_0
  6
CONTINUOUS
 62
    7
 10
-375.90747050000004
 20
791.23498500000005
 11
-375.90747050000004
 21
781.79998799999998
  0
LINE
  8
_0-0_0
  6
CONTINUOUS
 62
    7
 10
-375.90747050000004
 20
791.23498500000005
 11
-375.20748950000007
 21
791.23498500000005
  0
LINE
  8
_0-0_0
  6
CONTINUOUS
 62
    7
 10
-359.20748950000007
 20
809.79998799999998
 11
-359.00143449999996
 21
809.79998799999998
  0
LINE
  8
_0-0_0
  6
CONTINUOUS
 62
    7
 10
-359.00143449999996
 20
809.79998799999998
 11
-358.40747050000004
 21
809.20602400000007
  0
LINE
  8
_0-0_0
  6
CONTINUOUS
 62
    7
 10
-358.40747050000004
 20
804.19998199999998
 11
-358.40747050000004
 21
809.20602400000007
  0
LINE
  8
_0-0_0
  6
CONTINUOUS
 62
    7
 10
-358.53677349999998
 20
804.07070899999997
 11
-358.40747050000004
 21
804.19998199999998
  0
ARC
  8
_0-0_0
  6
CONTINUOUS
 62
    7
 10
-358.4660644999999
 20
803.99997000000008
 40
0.1
 50
135
 51
225
  0
LINE
  8
_0-0_0
  6
CONTINUOUS
 62
    7
 10
-358.53677349999998
 20
803.92929099999992
 11
-358.40747050000004
 21
803.79998799999998
  0
LINE
  8
_0-0_0
  6
CONTINUOUS
 62
    7
 10
-358.40747050000004
 20
803.09997599999997
 11
-358.40747050000004
 21
803.79998799999998
  0
LINE
  8
_0-0_0
  6
CONTINUOUS
 62
    7
 10
-358.53677349999998
 20
802.97070299999996
 11
-358.40747050000004
 21
803.09997599999997
  0
ARC
  8
_0-0_0
  6
CONTINUOUS
 62
    7
 10
-358.4660644999999
 20
802.89999399999999
 40
0.1
 50
135
 51
225
  0
LINE
  8
_0-0_0
  6
CONTINUOUS
 62
    7
 10
-358.53677349999998
 20
802.82928500000003
 11
-358.40747050000004
 21
802.69998199999998
  0
LINE
  8
_0-0_0
  6
CONTINUOUS
 62
    7
 10
-358.40747050000004
 20
801.99997000000008
 11
-358.40747050000004
 21
802.69998199999998
  0
LINE
  8
_0-0_0
  6
CONTINUOUS
 62
    7
 10
-358.53677349999998
 20
801.87069700000006
 11
-358.40747050000004
 21
801.99997000000008
  0
ARC
  8
_0-0_0
  6
CONTINUOUS
 62
    7
 10
-358.4660644999999
 20
801.79998799999998
 40
0.1
 50
135
 51
225
  0
LINE
  8
_0-0_0
  6
CONTINUOUS
 62
    7
 10
-358.53677349999998
 20
801.72927900000002
 11
-358.40747050000004
 21
801.59997599999997
  0
LINE
  8
_0-0_0
  6
CONTINUOUS
 62
    7
 10
-358.40747050000004
 20
800.89999399999999
 11
-358.40747050000004
 21
801.59997599999997
  0
LINE
  8
_0-0_0
  6
CONTINUOUS
 62
    7
 10
-358.53677349999998
 20
800.77069099999994
 11
-358.40747050000004
 21
800.89999399999999
  0
ARC
  8
_0-0_0
  6
CONTINUOUS
 62
    7
 10
-358.4660644999999
 20
800.69998199999998
 40
0.1
 50
135
 51
225
  0
LINE
  8
_0-0_0
  6
CONTINUOUS
 62
    7
 10
-358.53677349999998
 20
800.62927300000001
 11
-358.40747050000004
 21
800.49997000000008
  0
LINE
  8
_0-0_0
  6
CONTINUOUS
 62
    7
 10
-358.40747050000004
 20
799.79998799999998
 11
-358.40747050000004
 21
800.49997000000008
  0
LINE
  8
_0-0_0
  6
CONTINUOUS
 62
    7
 10
-358.53677349999998
 20
799.67068500000005
 11
-358.40747050000004
 21
799.79998799999998
  0
ARC
  8
_0-0_0
  6
CONTINUOUS
 62
    7
 10
-358.4660644999999
 20
799.59997599999997
 40
0.1
 50
135
 51
225
  0
LINE
  8
_0-0_0
  6
CONTINUOUS
 62
    7
 10
-358.53677349999998
 20
799.52926600000001
 11
-358.40747050000004
 21
799.39999399999999
  0
LINE
  8
_0-0_0
  6
CONTINUOUS
 62
    7
 10
-358.40747050000004
 20
798.69998199999998
 11
-358.40747050000004
 21
799.39999399999999
  0
LINE
  8
_0-0_0
  6
CONTINUOUS
 62
    7
 10
-358.53677349999998
 20
798.57070899999997
 11
-358.40747050000004
 21
798.69998199999998
  0
ARC
  8
_0-0_0
  6
CONTINUOUS
 62
    7
 10
-358.4660644999999
 20
798.49997000000008
 40
0.1
 50
135
 51
225
  0
LINE
  8
_0-0_0
  6
CONTINUOUS
 62
    7
 10
-358.53677349999998
 20
798.42929099999992
 11
-358.40747050000004
 21
798.29998799999998
  0
LINE
  8
_0-0_0
  6
CONTINUOUS
 62
    7
 10
-358.40747050000004
 20
797.59997599999997
 11
-358.40747050000004
 21
798.29998799999998
  0
LINE
  8
_0-0_0
  6
CONTINUOUS
 62
    7
 10
-358.53677349999998
 20
797.47070299999996
 11
-358.40747050000004
 21
797.59997599999997
  0
ARC
  8
_0-0_0
  6
CONTINUOUS
 62
    7
 10
-358.4660644999999
 20
797.39999399999999
 40
0.1
 50
135
 51
225
  0
LINE
  8
_0-0_0
  6
CONTINUOUS
 62
    7
 10
-358.53677349999998
 20
797.32928500000003
 11
-358.40747050000004
 21
797.19998199999998
  0
LINE
  8
_0-0_0
  6
CONTINUOUS
 62
    7
 10
-358.40747050000004
 20
796.49997000000008
 11
-358.40747050000004
 21
797.19998199999998
  0
LINE
  8
_0-0_0
  6
CONTINUOUS
 62
    7
 10
-358.53677349999998
 20
796.37069700000006
 11
-358.40747050000004
 21
796.49997000000008
  0
ARC
  8
_0-0_0
  6
CONTINUOUS
 62
    7
 10
-358.4660644999999
 20
796.29998799999998
 40
0.1
 50
135
 51
225
  0
LINE
  8
_0-0_0
  6
CONTINUOUS
 62
    7
 10
-358.53677349999998
 20
796.22927900000002
 11
-358.40747050000004
 21
796.09997599999997
  0
LINE
  8
_0-0_0
  6
CONTINUOUS
 62
    7
 10
-358.40747050000004
 20
795.39999399999999
 11
-358.40747050000004
 21
796.09997599999997
  0
LINE
  8
_0-0_0
  6
CONTINUOUS
 62
    7
 10
-358.53677349999998
 20
795.27069099999994
 11
-358.40747050000004
 21
795.39999399999999
  0
LINE
  8
_0-0_0
  6
CONTINUOUS
 62
    7
 10
-358.40747050000004
 20
787.29998799999998
 11
-358.30746449999992
 21
787.29998799999998
  0
LINE
  8
_0-0_0
  6
CONTINUOUS
 62
    7
 10
-358.30746449999992
 20
786.79998799999998
 11
-358.30746449999992
 21
787.29998799999998
  0
LINE
  8
_0-0_0
  6
CONTINUOUS
 62
    7
 10
-358.30746449999992
 20
786.79998799999998
 11
-358.30746449999992
 21
782.79998799999998
  0
LINE
  8
_0-0_0
  6
CONTINUOUS
 62
    7
 10
-358.40747050000004
 20
782.29998799999998
 11
-358.30746449999992
 21
782.29998799999998
  0
LINE
  8
_0-0_0
  6
CONTINUOUS
 62
    7
 10
-358.30746449999992
 20
782.29998799999998
 11
-358.30746449999992
 21
782.79998799999998
  0
LINE
  8
_0-0_0
  6
CONTINUOUS
 62
    7
 10
-375.90747050000004
 20
791.29998799999998
 11
-375.90747050000004
 21
791.23498500000005
  0
LINE
  8
_0-0_0
  6
CONTINUOUS
 62
    7
 10
-359.40747050000004
 20
810.09997599999997
 11
-359.40747050000004
 21
809.99997000000008
  0
ARC
  8
_0-0_0
  6
CONTINUOUS
 62
    7
 10
-371.90747050000004
 20
810.09997599999997
 40
2.5
 50
90.000003000000007
 51
180.00000900000001
  0
LINE
  8
_0-0_0
  6
CONTINUOUS
 62
    7
 10
-376.00747649999994
 20
791.29998799999998
 11
-375.20748950000007
 21
791.29998799999998
  0
LINE
  8
_0-0_0
  6
CONTINUOUS
 62
    7
 10
-375.50747649999994
 20
813.09997599999997
 11
-375.50747649999994
 21
808.87844900000005
  0
LINE
  8
_0-0_0
  6
CONTINUOUS
 62
    7
 10
-374.40747050000004
 20
813.09997599999997
 11
-374.40747050000004
 21
810.09997599999997
  0
LINE
  8
_0-0_0
  6
CONTINUOUS
 62
    7
 10
-375.50747649999994
 20
808.87844900000005
 11
-375.20748950000007
 21
808.87844900000005
  0
LINE
  8
_0-0_0
  6
CONTINUOUS
 62
    7
 10
-375.50747649999994
 20
818.23989899999992
 11
-374.40747050000004
 21
818.23989899999992
  0
LINE
  8
_0-0_0
  6
CONTINUOUS
 62
    7
 10
-374.40747050000004
 20
813.10046399999999
 11
-374.40747050000004
 21
818.23989899999992
  0
LINE
  8
_0-0_0
  6
CONTINUOUS
 62
    7
 10
-376.00747649999994
 20
812.60089100000005
 11
-376.00747649999994
 21
817.67208899999991
  0
LINE
  8
_0-0_0
  6
CONTINUOUS
 62
    7
 10
-375.50747649999994
 20
818.23989899999992
 11
-376.00747649999994
 21
817.67208899999991
  0
ARC
  8
_0-0_0
  6
CONTINUOUS
 62
    7
 10
-361.90747050000004
 20
810.09997599999997
 40
2.5
 50
0
 51
90.000003000000007
  0
LINE
  8
_0-0_0
  6
CONTINUOUS
 62
    7
 10
-374.40747050000004
 20
810
 11
-374.40747050000004
 21
810.09997599999997
  0
LINE
  8
_0-0_0
  6
CONTINUOUS
 62
    7
 10
-361.90747050000004
 20
812.59997599999997
 11
-371.90747050000004
 21
812.59997599999997
  0
LINE
  8
_0-0_0
  6
CONTINUOUS
 62
    7
 10
-358.20748950000007
 20
782.79998799999998
 11
-358.20748950000007
 21
782.93035899999995
  0
LINE
  8
_0-0_0
  6
CONTINUOUS
 62
    7
 10
-358.20748950000007
 20
786.43035899999995
 11
-358.20748950000007
 21
782.93035899999995
  0
LINE
  8
_0-0_0
  6
CONTINUOUS
 62
    7
 10
-358.30746449999992
 20
786.69998199999998
 11
-358.20748950000007
 21
786.69998199999998
  0
LINE
  8
_0-0_0
  6
CONTINUOUS
 62
    7
 10
-358.20748950000007
 20
786.43035899999995
 11
-358.20748950000007
 21
786.69998199999998
  0
LINE
  8
_0-0_0
  6
CONTINUOUS
 62
    7
 10
-374.40747050000004
 20
820.60000600000001
 11
-374.40747050000004
 21
818.23989899999992
  0
LINE
  8
_0-0_0
  6
CONTINUOUS
 62
    7
 10
-358.60748250000006
 20
809.19998199999998
 11
-359.60748250000006
 21
810.19998199999998
  0
LINE
  8
_0-0_0
  6
CONTINUOUS
 62
    7
 10
-358.60748250000006
 20
781.39999399999999
 11
-358.60748250000006
 21
809.19998199999998
  0
LINE
  8
_0-0_0
  6
CONTINUOUS
 62
    7
 10
-375.20748950000007
 20
781.39999399999999
 11
-358.60748250000006
 21
781.39999399999999
  0
LINE
  8
_0-0_0
  6
CONTINUOUS
 62
    7
 10
-375.20748950000007
 20
809.19998199999998
 11
-375.20748950000007
 21
781.39999399999999
  0
LINE
  8
_0-0_0
  6
CONTINUOUS
 62
    7
 10
-376.00747649999994
 20
791.29998799999998
 11
-376.00747649999994
 21
808.11279300000001
  0
LINE
  8
_0-0_0
  6
CONTINUOUS
 62
    7
 10
-376.00747649999994
 20
812.59997599999997
 11
-376.00747649999994
 21
808.11279300000001
  0
ARC
  8
_0-0_0
  6
CONTINUOUS
 62
    7
 10
-344.55572549999988
 20
788.11779799999999
 40
37.269466000000001
 50
146.14857699999999
 51
147.55443399999999
  0
LINE
  8
_0-0_0
  6
CONTINUOUS
 62
    7
 10
-375.50747649999994
 20
820.60000600000001
 11
-375.50747649999994
 21
818.23989899999992
  0
LINE
  8
_0-0_0
  6
CONTINUOUS
 62
    7
 10
-376.00747649999994
 20
820.10000600000001
 11
-376.00747649999994
 21
817.67208899999991
  0
ARC
  8
_0-0_0
  6
CONTINUOUS
 62
    7
 10
-362.17651350000006
 20
809.79998799999998
 40
2.6000000000000001
 50
8.8498839999999994
 51
90.000002999999992
  0
LINE
  8
_0-0_0
  6
CONTINUOUS
 62
    7
 10
-362.17651350000006
 20
812.39999399999999
 11
-371.63842750000003
 21
812.39999399999999
  0
ARC
  8
_0-0_0
  6
CONTINUOUS
 62
    7
 10
-371.63842750000003
 20
809.79998799999998
 40
2.6000000000000001
 50
90.000003000000007
 51
171.150115
  0
LINE
  8
_0-0_0
  6
CONTINUOUS
 62
    7
 10
-375.20748950000007
 20
809.19998199999998
 11
-374.20748950000007
 21
810.19998199999998
  0
LINE
  8
_0-0_0
  6
CONTINUOUS
 62
    7
 10
-359.60748250000006
 20
808.78576699999996
 11
-358.60748250000006
 21
809.19998199999998
  0
ARC
  8
_0-0_0
  6
CONTINUOUS
 62
    7
 10
-365.15002449999997
 20
820.98611499999993
 40
12.126564999999999
 50
292.155034
 51
297.19674500000002
  0
LINE
  8
_0-0_0
  6
CONTINUOUS
 62
    7
 10
-359.60748250000006
 20
782.39999399999999
 11
-358.60748250000006
 21
781.39999399999999
  0
LINE
  8
_0-0_0
  6
CONTINUOUS
 62
    7
 10
-374.20748950000007
 20
782.39999399999999
 11
-375.20748950000007
 21
781.39999399999999
  0
LINE
  8
_0-0_0
  6
CONTINUOUS
 62
    7
 10
-374.20748950000007
 20
808.78576699999996
 11
-375.20748950000007
 21
809.19998199999998
  0
ARC
  8
_0-0_0
  6
CONTINUOUS
 62
    7
 10
-368.66494749999993
 20
820.98611499999993
 40
12.126567
 50
242.80325699999997
 51
247.84494000000001
  0
CIRCLE
  8
_0-0_0
  6
CONTINUOUS
 62
    7
 10
-366.90747050000004
 20
789.59997599999997
 40
2.0670000000000002
  0
LINE
  8
_0-0_0
  6
CONTINUOUS
 62
    7
 10
-374.40747050000004
 20
813.09997599999997
 11
-375.50747649999994
 21
813.09997599999997
  0
LINE
  8
_0-0_0
  6
CONTINUOUS
 62
    7
 10
-358.30746449999992
 20
782.79998799999998
 11
-358.20748950000007
 21
782.79998799999998
  0
LINE
  8
_0-0_0
  6
CONTINUOUS
 62
    7
 10
-358.30746449999992
 20
782.79998799999998
 11
-358.20748950000007
 21
782.79998799999998
  0
LINE
  8
_0-0_0
  6
CONTINUOUS
 62
    7
 10
-376.00747649999994
 20
812.59997599999997
 11
-375.50747649999994
 21
813.09997599999997
  0
LINE
  8
_0-0_0
  6
CONTINUOUS
 62
    7
 10
-374.40747050000004
 20
820.60000600000001
 11
-375.50747649999994
 21
820.60000600000001
  0
LINE
  8
_0-0_0
  6
CONTINUOUS
 62
    7
 10
-376.00747649999994
 20
820.10000600000001
 11
-375.50747649999994
 21
820.60000600000001
  0
ENDSEC
  0
EOF
