  0
SECTION
  2
HEADER
  9
$ACADVER
  1
AC1009
  9
$INSBASE
 10
0
 20
0
 30
0
  9
$EXTMIN
 10
0
 20
0
  9
$EXTMAX
 10
1682
 20
1188
  9
$LIMMIN
 10
0
 20
0
  9
$LIMMAX
 10
1682
 20
1188
  9
$LTSCALE
 40
2
  0
ENDSEC
  0
SECTION
  2
TABLES
  0
TABLE
  2
LTYPE
 70
     9
  0
LTYPE
  2
CONTINUOUS
 70
    64
  3
実線
 72
    65
 73
     0
 40
0.0
  0
LTYPE
  2
DASHED1
 70
    64
  3
--  --  --  --  --  --  --  --  
 72
    65
 73
     2
 40
2.5
 49
1.25
 49
-1.25
  0
LTYPE
  2
DASHED2
 70
    64
  3
----    ----    ----    ----    
 72
    65
 73
     2
 40
5.0
 49
2.5
 49
-2.5
  0
LTYPE
  2
DASHED3
 70
    64
  3
------  ------  ------  ------  
 72
    65
 73
     2
 40
5.0
 49
3.75
 49
-1.25
  0
LTYPE
  2
CENTER1
 70
    64
  3
----- - ----- - ----- - ----- - 
 72
    65
 73
     4
 40
10.0
 49
6.25
 49
-1.25
 49
1.25
 49
-1.25
  0
LTYPE
  2
CENTER2
 70
    64
  3
----------  --  ----------  --  
 72
    65
 73
     4
 40
20.0
 49
12.5
 49
-2.5
 49
2.5
 49
-2.5
  0
LTYPE
  2
PHANTOM1
 70
    64
  3
--- - - --- - - --- - - --- - - 
 72
    65
 73
     6
 40
10.0
 49
3.25
 49
-1.25
 49
1.25
 49
-1.25
 49
1.25
 49
-1.25
  0
LTYPE
  2
PHANTOM2
 70
    64
  3
--------  -  -  --------  -  -  
 72
    65
 73
     6
 40
20.0
 49
10.0
 49
-2.5
 49
1.25
 49
-2.5
 49
1.25
 49
-2.5
  0
LTYPE
  2
DOT
 70
    64
  3
-   -   -   -   -   -   -   -   
 72
    65
 73
     2
 40
2.5
 49
0.625
 49
-1.875
  0
LTYPE
  2
DUMMY
 70
    64
  3
ダミー
 72
    65
 73
     0
 40
0.0
  0
LTYPE
  2
RAND1
 70
    64
  3
ランダム線1
 72
    65
 73
     4
 40
10.0
 49
1.0
 49
-2.0
 49
3.0
 49
-4.0
  0
LTYPE
  2
RAND2
 70
    64
  3
ランダム線2
 72
    65
 73
     4
 40
14.0
 49
2.0
 49
-3.0
 49
4.0
 49
-5.0
  0
LTYPE
  2
RAND3
 70
    64
  3
ランダム線3
 72
    65
 73
     4
 40
18.0
 49
3.0
 49
-4.0
 49
5.0
 49
-6.0
  0
LTYPE
  2
RAND4
 70
    64
  3
ランダム線4
 72
    65
 73
     4
 40
22.0
 49
4.0
 49
-5.0
 49
6.0
 49
-7.0
  0
LTYPE
  2
RAND5
 70
    64
  3
ランダム線5
 72
    65
 73
     4
 40
26.0
 49
5.0
 49
-6.0
 49
7.0
 49
-8.0
  0
LTYPE
  2
LONG1
 70
    64
  3
----------  --  ----------  --  
 72
    65
 73
     4
 40
40.0
 49
32.5
 49
-2.5
 49
2.5
 49
-2.5
  0
LTYPE
  2
LONG2
 70
    64
  3
--------  -  -  --------  -  -  
 72
    65
 73
     6
 40
40.0
 49
30.0
 49
-2.5
 49
1.25
 49
-2.5
 49
1.25
 49
-2.5
  0
LTYPE
  2
LONG3
 70
    64
  3
+++++++++++++++..+++++++++++++++
 72
    65
 73
     2
 40
40.0
 49
37.5
 49
-2.5
  0
LTYPE
  2
LONG4
 70
    64
  3
+++++++++++++++..+++++++++++++++
 72
    65
 73
     2
 40
80.0
 49
75.0
 49
-5.0
  0
LTYPE
  2
LONG5
 70
    64
  3
----------  --  ----------  --  
 72
    65
 73
     4
 40
60.0
 49
37.5
 49
-7.5
 49
7.5
 49
-7.5
  0
LTYPE
  2
dashed
 70
   64
  3
-------   -------------   ------
 72
   65
 73
    2
 40
7.5
 49
6
 49
-1.5
  0
LTYPE
  2
dashed_spaced
 70
   64
  3
----        --------        ----
 72
   65
 73
    2
 40
12
 49
6
 49
-6
  0
LTYPE
  2
long_dashed_dotted
 70
   64
  3
------------- --- --------------
 72
   65
 73
    4
 40
15.25
 49
12
 49
-1.5
 49
0.25
 49
-1.5
  0
LTYPE
  2
long_dashed_double-dotted
 70
   64
  3
----------- --- --- ------------
 72
   65
 73
    6
 40
17
 49
12
 49
-1.5
 49
0.25
 49
-1.5
 49
0.25
 49
-1.5
  0
LTYPE
  2
long_dashed_triplicate-dotted
 70
   64
  3
--------- --- --- --- ----------
 72
   65
 73
    8
 40
18.75
 49
12
 49
-1.5
 49
0.25
 49
-1.5
 49
0.25
 49
-1.5
 49
0.25
 49
-1.5
  0
LTYPE
  2
dotted
 70
   64
  3
   -       -       -       -    
 72
   65
 73
    2
 40
1.75
 49
0.25
 49
-1.5
  0
LTYPE
  2
chain
 70
   64
  3
-------------- -- --------------
 72
   65
 73
    4
 40
18.5
 49
12
 49
-1.5
 49
3.5
 49
-1.5
  0
LTYPE
  2
chain_double_dash
 70
   64
  3
------------ -- -- -------------
 72
   65
 73
    6
 40
23.5
 49
12
 49
-1.5
 49
3.5
 49
-1.5
 49
3.5
 49
-1.5
  0
LTYPE
  2
dashed_dotted
 70
   64
  3
-----------     -     ----------
 72
   65
 73
    4
 40
9.25
 49
6
 49
-1.5
 49
0.25
 49
-1.5
  0
LTYPE
  2
double-dashed_dotted
 70
   64
  3
------   -----------   -   -----
 72
   65
 73
    6
 40
16.75
 49
6
 49
-1.5
 49
6
 49
-1.5
 49
0.25
 49
-1.5
  0
LTYPE
  2
dashed_double-dotted
 70
   64
  3
---------    -    -    ---------
 72
   65
 73
    6
 40
11
 49
6
 49
-1.5
 49
0.25
 49
-1.5
 49
0.25
 49
-1.5
  0
LTYPE
  2
double-dashed_double-dotted
 70
   64
  3
-----   ---------   -   -   ----
 72
   65
 73
    8
 40
18.5
 49
6
 49
-1.5
 49
6
 49
-1.5
 49
0.25
 49
-1.5
 49
0.25
 49
-1.5
  0
LTYPE
  2
dashed_triplicate-dotted
 70
   64
  3
-------    -    -    -    ------
 72
   65
 73
    8
 40
12.75
 49
6
 49
-1.5
 49
0.25
 49
-1.5
 49
0.25
 49
-1.5
 49
0.25
 49
-1.5
  0
LTYPE
  2
double-dashed_triplicate-dotted
 70
   64
  3
-----  ---------  -  -  -  -----
 72
   65
 73
   10
 40
20.25
 49
6
 49
-1.5
 49
6
 49
-1.5
 49
0.25
 49
-1.5
 49
0.25
 49
-1.5
 49
0.25
 49
-1.5
  0
LTYPE
  2
undefined
 70
   64
  3
--------------------------------
 72
   65
 73
    0
 40
0
  0
ENDTAB
  0
TABLE
  2
STYLE
  5
3
100
AcDbSymbolTable
 70
     1
  0
STYLE
  5
10
100
AcDbSymbolTableRecord
100
AcDbTextStyleTableRecord
  2
STANDARD
 70
     0
 40
0.0
 41
1.0
 50
0.0
 71
     0
 42
0.2
  3
txt
  4
bigfont.shx
  0
STYLE
  5
26
100
AcDbSymbolTableRecord
100
AcDbTextStyleTableRecord
  2
TATEGAKI
 70
    68
 40
0.0
 41
1.0
 50
0.0
 71
     0
 42
1.0
  3
txt
  4
bigfont.shx
  0
ENDTAB
  0
TABLE
  2
LAYER
 70
    2
  0
LAYER
  2
_0-0_0
 70
   64
 62
    7
  6
CONTINUOUS
  0
LAYER
  2
ADD_LINE
 70
   64
 62
    7
  6
CONTINUOUS
  0
ENDTAB
  0
ENDSEC
  0
SECTION
  2
BLOCKS
  0
ENDSEC
  0
SECTION
  2
ENTITIES
  0
POINT
  8
_0-0_0
 62
    7
 10
-87.997604499999966
 20
768.89999399999999
  0
LINE
  8
_0-0_0
  6
CONTINUOUS
 62
    7
 10
-194.99761949999993
 20
809.90048200000001
 11
-194.99761949999993
 21
809.89947499999994
  0
LINE
  8
_0-0_0
  6
CONTINUOUS
 62
    7
 10
-168.49761949999993
 20
775.55499299999997
 11
-168.49761949999993
 21
777.79998799999998
  0
LINE
  8
_0-0_0
  6
CONTINUOUS
 62
    7
 10
-168.49761949999993
 20
777.79998799999998
 11
-168.49761949999993
 21
779.79998799999998
  0
LINE
  8
_0-0_0
  6
CONTINUOUS
 62
    7
 10
-168.49761949999993
 20
779.79998799999998
 11
-168.49761949999993
 21
780.29998799999998
  0
LINE
  8
_0-0_0
  6
CONTINUOUS
 62
    7
 10
-168.49761949999993
 20
780.29998799999998
 11
-168.49761949999993
 21
781.29998799999998
  0
LINE
  8
_0-0_0
  6
CONTINUOUS
 62
    7
 10
-168.49761949999993
 20
757.19998199999998
 11
-168.49761949999993
 21
775.55499299999997
  0
LINE
  8
_0-0_0
  6
CONTINUOUS
 62
    7
 10
-71.997604499999966
 20
779.29998799999998
 11
-71.997604499999966
 21
779.79998799999998
  0
LINE
  8
_0-0_0
  6
CONTINUOUS
 62
    7
 10
-71.997604499999966
 20
780.29998799999998
 11
-71.997604499999966
 21
781.29998799999998
  0
LINE
  8
_0-0_0
  6
CONTINUOUS
 62
    7
 10
-71.997604499999966
 20
779.79998799999998
 11
-71.997604499999966
 21
780.29998799999998
  0
ARC
  8
_0-0_0
  6
CONTINUOUS
 62
    7
 10
-85.997604499999966
 20
775.55499299999997
 40
0.5
 50
0
 51
123.74898500000002
  0
ARC
  8
_0-0_0
  6
CONTINUOUS
 62
    7
 10
-87.497604499999966
 20
777.79998799999998
 40
2.2000000000000002
 50
180.00000900000003
 51
303.74900400000001
  0
LINE
  8
_0-0_0
  6
CONTINUOUS
 62
    7
 10
-89.697601500000019
 20
777.79998799999998
 11
-89.697601500000019
 21
779.29998799999998
  0
LINE
  8
_0-0_0
  6
CONTINUOUS
 62
    7
 10
-164.29760750000003
 20
779.29998799999998
 11
-89.697601500000019
 21
779.29998799999998
  0
LINE
  8
_0-0_0
  6
CONTINUOUS
 62
    7
 10
-164.29760750000003
 20
779.29998799999998
 11
-164.29760750000003
 21
777.79998799999998
  0
ARC
  8
_0-0_0
  6
CONTINUOUS
 62
    7
 10
-166.49760449999997
 20
777.79998799999998
 40
2.2000000000000002
 50
236.25102899999999
 51
0
  0
ARC
  8
_0-0_0
  6
CONTINUOUS
 62
    7
 10
-167.99761949999993
 20
775.55499299999997
 40
0.5
 50
56.251010000000008
 51
180.00000900000001
  0
ARC
  8
_0-0_0
  6
CONTINUOUS
 62
    7
 10
-166.49760449999997
 20
757.19998199999998
 40
2
 50
180.00000900000003
 51
269.99999700000001
  0
LINE
  8
_0-0_0
  6
CONTINUOUS
 62
    7
 10
-166.49760449999997
 20
755.19998199999998
 11
-165.49760449999997
 21
755.19998199999998
  0
LINE
  8
_0-0_0
  6
CONTINUOUS
 62
    7
 10
-165.49760449999997
 20
755.19998199999998
 11
-165.49760449999997
 21
756.79998799999998
  0
ARC
  8
_0-0_0
  6
CONTINUOUS
 62
    7
 10
-164.99760449999997
 20
756.79998799999998
 40
0.5
 50
90.000003000000007
 51
180.00000900000001
  0
LINE
  8
_0-0_0
  6
CONTINUOUS
 62
    7
 10
-164.79760750000003
 20
757.29998799999998
 11
-164.99760449999997
 21
757.29998799999998
  0
ARC
  8
_0-0_0
  6
CONTINUOUS
 62
    7
 10
-164.79760750000003
 20
756.79998799999998
 40
0.5
 50
90.000003000000007
 51
180.00000900000001
  0
LINE
  8
_0-0_0
  6
CONTINUOUS
 62
    7
 10
-165.29760750000003
 20
755.29998799999998
 11
-165.29760750000003
 21
756.79998799999998
  0
LINE
  8
_0-0_0
  6
CONTINUOUS
 62
    7
 10
-95.697601500000019
 20
755.29998799999998
 11
-165.29760750000003
 21
755.29998799999998
  0
LINE
  8
_0-0_0
  6
CONTINUOUS
 62
    7
 10
-95.697601500000019
 20
755.29998799999998
 11
-95.697601500000019
 21
756.79998799999998
  0
ARC
  8
_0-0_0
  6
CONTINUOUS
 62
    7
 10
-96.197601500000019
 20
756.79998799999998
 40
0.5
 50
0
 51
90.000003000000007
  0
LINE
  8
_0-0_0
  6
CONTINUOUS
 62
    7
 10
-95.997604499999966
 20
757.29998799999998
 11
-96.197601500000019
 21
757.29998799999998
  0
ARC
  8
_0-0_0
  6
CONTINUOUS
 62
    7
 10
-95.997604499999966
 20
756.79998799999998
 40
0.5
 50
0
 51
90.000003000000007
  0
LINE
  8
_0-0_0
  6
CONTINUOUS
 62
    7
 10
-95.497604499999966
 20
756.79998799999998
 11
-95.497604499999966
 21
755.19998199999998
  0
LINE
  8
_0-0_0
  6
CONTINUOUS
 62
    7
 10
-95.497604499999966
 20
755.19998199999998
 11
-85.497604499999966
 21
755.19998199999998
  0
LINE
  8
_0-0_0
  6
CONTINUOUS
 62
    7
 10
-85.497604499999966
 20
755.19998199999998
 11
-85.497604499999966
 21
756.09997599999997
  0
LINE
  8
_0-0_0
  6
CONTINUOUS
 62
    7
 10
-149.49761949999993
 20
758.704071
 11
-108.09761049999997
 21
758.704071
  0
LINE
  8
_0-0_0
  6
CONTINUOUS
 62
    7
 10
-149.49761949999993
 20
778.29998799999998
 11
-108.09761049999997
 21
778.29998799999998
  0
ARC
  8
_0-0_0
  6
CONTINUOUS
 62
    7
 10
-96.797607500000026
 20
757.49997000000008
 40
0.2
 50
180.00000900000003
 51
269.99999700000001
  0
LINE
  8
_0-0_0
  6
CONTINUOUS
 62
    7
 10
-96.797607500000026
 20
757.29998799999998
 11
-164.19760150000002
 21
757.29998799999998
  0
ARC
  8
_0-0_0
  6
CONTINUOUS
 62
    7
 10
-164.19760150000002
 20
757.49997000000008
 40
0.2
 50
269.99999700000001
 51
0
  0
ARC
  8
_0-0_0
  6
CONTINUOUS
 62
    7
 10
-163.79760750000003
 20
757.49997000000008
 40
0.2
 50
90.000003000000007
 51
180.00000900000001
  0
LINE
  8
_0-0_0
  6
CONTINUOUS
 62
    7
 10
-163.79760750000003
 20
757.69998199999998
 11
-97.197601500000019
 21
757.69998199999998
  0
ARC
  8
_0-0_0
  6
CONTINUOUS
 62
    7
 10
-97.197601500000019
 20
757.49997000000008
 40
0.2
 50
0
 51
90.000003000000007
  0
LINE
  8
_0-0_0
  6
CONTINUOUS
 62
    7
 10
-168.49761949999993
 20
780.29998799999998
 11
-71.997604499999966
 21
780.29998799999998
  0
LINE
  8
_0-0_0
  6
CONTINUOUS
 62
    7
 10
-72.497604499999966
 20
779.29998799999998
 11
-71.997604499999966
 21
779.29998799999998
  0
LINE
  8
_0-0_0
  6
CONTINUOUS
 62
    7
 10
-85.497604499999966
 20
757.29998799999998
 11
-85.497604499999966
 21
756.09997599999997
  0
LINE
  8
_0-0_0
  6
CONTINUOUS
 62
    7
 10
-85.497604499999966
 20
757.29998799999998
 11
-85.497604499999966
 21
774.89999399999999
  0
LINE
  8
_0-0_0
  6
CONTINUOUS
 62
    7
 10
-85.497604499999966
 20
776.87734999999998
 11
-85.497604499999966
 21
774.89999399999999
  0
LINE
  8
_0-0_0
  6
CONTINUOUS
 62
    7
 10
-166.49760449999997
 20
763.78967299999999
 11
-166.49760449999997
 21
774.23767099999998
  0
ARC
  8
_0-0_0
  6
CONTINUOUS
 62
    7
 10
-166.49760449999997
 20
777.79998799999998
 40
2.7000000000000002
 50
285.68033600000007
 51
352.23356600000005
  0
LINE
  8
_0-0_0
  6
CONTINUOUS
 62
    7
 10
-89.497604499999966
 20
775.29998799999998
 11
-89.497604499999966
 21
761.69998199999998
  0
LINE
  8
_0-0_0
  6
CONTINUOUS
 62
    7
 10
-164.49760449999997
 20
779.29998799999998
 11
-164.29760750000003
 21
779.29998799999998
  0
LINE
  8
_0-0_0
  6
CONTINUOUS
 62
    7
 10
-164.49760449999997
 20
779.29998799999998
 11
-164.49760449999997
 21
777.79998799999998
  0
ARC
  8
_0-0_0
  6
CONTINUOUS
 62
    7
 10
-166.49760449999997
 20
777.79998799999998
 40
2
 50
180.00000900000003
 51
0.0000000000000254
  0
LINE
  8
_0-0_0
  6
CONTINUOUS
 62
    7
 10
-72.497604499999966
 20
779.29998799999998
 11
-72.497604499999966
 21
777.59997599999997
  0
LINE
  8
_0-0_0
  6
CONTINUOUS
 62
    7
 10
-85.497604499999966
 20
755.29998799999998
 11
-73.497604499999966
 21
755.29998799999998
  0
LINE
  8
_0-0_0
  6
CONTINUOUS
 62
    7
 10
-73.497604499999966
 20
755.29998799999998
 11
-68.8221585
 21
755.29998799999998
  0
LINE
  8
_0-0_0
  6
CONTINUOUS
 62
    7
 10
-73.497604499999966
 20
760.79998799999998
 11
-73.497604499999966
 21
757.79998799999998
  0
LINE
  8
_0-0_0
  6
CONTINUOUS
 62
    7
 10
-73.497604499999966
 20
757.79998799999998
 11
-73.497604499999966
 21
757.29998799999998
  0
LINE
  8
_0-0_0
  6
CONTINUOUS
 62
    7
 10
-73.497604499999966
 20
760.79998799999998
 11
-73.497604499999966
 21
761.29998799999998
  0
ARC
  8
_0-0_0
  6
CONTINUOUS
 62
    7
 10
-79.497619499999928
 20
760.60000600000001
 40
0.500016
 50
180.00117
 51
359.995611
  0
LINE
  8
_0-0_0
  6
CONTINUOUS
 62
    7
 10
-78.997604499999966
 20
760.59997599999997
 11
-78.997604499999966
 21
772.59997599999997
  0
ARC
  8
_0-0_0
  6
CONTINUOUS
 62
    7
 10
-79.497619499999928
 20
772.59997599999997
 40
0.500016
 50
0.001164
 51
179.99560600000004
  0
LINE
  8
_0-0_0
  6
CONTINUOUS
 62
    7
 10
-79.997604499999966
 20
760.59997599999997
 11
-79.997604499999966
 21
772.59997599999997
  0
ARC
  8
_0-0_0
  6
CONTINUOUS
 62
    7
 10
-77.997619499999928
 20
760.60000600000001
 40
0.500016
 50
180.00117
 51
359.995611
  0
LINE
  8
_0-0_0
  6
CONTINUOUS
 62
    7
 10
-77.497604499999966
 20
760.59997599999997
 11
-77.497604499999966
 21
772.59997599999997
  0
ARC
  8
_0-0_0
  6
CONTINUOUS
 62
    7
 10
-77.997619499999928
 20
772.59997599999997
 40
0.500016
 50
0.001164
 51
179.99560600000004
  0
LINE
  8
_0-0_0
  6
CONTINUOUS
 62
    7
 10
-78.497604499999966
 20
760.59997599999997
 11
-78.497604499999966
 21
772.59997599999997
  0
ARC
  8
_0-0_0
  6
CONTINUOUS
 62
    7
 10
-76.497619499999928
 20
760.60000600000001
 40
0.500016
 50
180.00117
 51
359.995611
  0
LINE
  8
_0-0_0
  6
CONTINUOUS
 62
    7
 10
-75.997604499999966
 20
760.59997599999997
 11
-75.997604499999966
 21
772.59997599999997
  0
ARC
  8
_0-0_0
  6
CONTINUOUS
 62
    7
 10
-76.497619499999928
 20
772.59997599999997
 40
0.500016
 50
0.001164
 51
179.99560600000004
  0
LINE
  8
_0-0_0
  6
CONTINUOUS
 62
    7
 10
-76.997604499999966
 20
760.59997599999997
 11
-76.997604499999966
 21
772.59997599999997
  0
ARC
  8
_0-0_0
  6
CONTINUOUS
 62
    7
 10
-74.997619499999928
 20
760.60000600000001
 40
0.500016
 50
180.00117
 51
359.995611
  0
LINE
  8
_0-0_0
  6
CONTINUOUS
 62
    7
 10
-74.497604499999966
 20
760.59997599999997
 11
-74.497604499999966
 21
772.59997599999997
  0
ARC
  8
_0-0_0
  6
CONTINUOUS
 62
    7
 10
-74.997619499999928
 20
772.59997599999997
 40
0.500016
 50
0.001164
 51
179.99560600000004
  0
LINE
  8
_0-0_0
  6
CONTINUOUS
 62
    7
 10
-75.497604499999966
 20
760.59997599999997
 11
-75.497604499999966
 21
772.59997599999997
  0
LINE
  8
_0-0_0
  6
CONTINUOUS
 62
    7
 10
-85.497604499999966
 20
777.59997599999997
 11
-85.497604499999966
 21
776.87734999999998
  0
LINE
  8
_0-0_0
  6
CONTINUOUS
 62
    7
 10
-72.497604499999966
 20
777.59997599999997
 11
-85.497604499999966
 21
777.59997599999997
  0
LINE
  8
_0-0_0
  6
CONTINUOUS
 62
    7
 10
-85.497604499999966
 20
779.29998799999998
 11
-72.497604499999966
 21
779.29998799999998
  0
LINE
  8
_0-0_0
  6
CONTINUOUS
 62
    7
 10
-85.497604499999966
 20
779.29998799999998
 11
-85.497604499999966
 21
777.59997599999997
  0
LINE
  8
_0-0_0
  6
CONTINUOUS
 62
    7
 10
-96.047607500000026
 20
757.27694700000006
 11
-96.047607500000026
 21
757.29998799999998
  0
ARC
  8
_0-0_0
  6
CONTINUOUS
 62
    7
 10
-68.8221585
 20
757.29998799999998
 40
2
 50
269.99999700000001
 51
288.43501300000003
  0
LINE
  8
_0-0_0
  6
CONTINUOUS
 62
    7
 10
-89.697601500000019
 20
779.29998799999998
 11
-89.497604499999966
 21
779.29998799999998
  0
ARC
  8
_0-0_0
  6
CONTINUOUS
 62
    7
 10
-87.497604499999966
 20
777.79998799999998
 40
2
 50
180.00000900000003
 51
0.0000000000000254
  0
LINE
  8
_0-0_0
  6
CONTINUOUS
 62
    7
 10
-89.497604499999966
 20
777.79998799999998
 11
-89.497604499999966
 21
779.29998799999998
  0
LINE
  8
_0-0_0
  6
CONTINUOUS
 62
    7
 10
-67.747619499999928
 20
755.54998799999998
 11
-68.189712500000041
 21
755.40261899999996
  0
ARC
  8
_0-0_0
  6
CONTINUOUS
 62
    7
 10
-98.497604499999966
 20
770.89999399999999
 40
2.25
 50
269.99999700000001
 51
90.000002999999992
  0
LINE
  8
_0-0_0
  6
CONTINUOUS
 62
    7
 10
-102.49761949999993
 20
768.64999399999999
 11
-98.497604499999966
 21
768.64999399999999
  0
ARC
  8
_0-0_0
  6
CONTINUOUS
 62
    7
 10
-102.49761949999993
 20
770.89999399999999
 40
2.25
 50
90.000003000000007
 51
269.99999700000006
  0
ARC
  8
_0-0_0
  6
CONTINUOUS
 62
    7
 10
-154.49761949999993
 20
770.89999399999999
 40
2.25
 50
269.99999700000001
 51
90.000002999999992
  0
LINE
  8
_0-0_0
  6
CONTINUOUS
 62
    7
 10
-158.49761949999993
 20
768.64999399999999
 11
-154.49761949999993
 21
768.64999399999999
  0
ARC
  8
_0-0_0
  6
CONTINUOUS
 62
    7
 10
-158.49761949999993
 20
770.89999399999999
 40
2.25
 50
90.000003000000007
 51
269.99999700000006
  0
LINE
  8
_0-0_0
  6
CONTINUOUS
 62
    7
 10
-102.49761949999993
 20
773.14999399999999
 11
-98.497604499999966
 21
773.14999399999999
  0
LINE
  8
_0-0_0
  6
CONTINUOUS
 62
    7
 10
-158.49761949999993
 20
773.14999399999999
 11
-154.49761949999993
 21
773.14999399999999
  0
LINE
  8
_0-0_0
  6
CONTINUOUS
 62
    7
 10
-96.257003499999996
 20
766.89999399999999
 11
-104.73822050000001
 21
766.89999399999999
  0
LINE
  8
_0-0_0
  6
CONTINUOUS
 62
    7
 10
-96.257003499999996
 20
766.89999399999999
 11
-93.947601500000019
 21
770.89999399999999
  0
LINE
  8
_0-0_0
  6
CONTINUOUS
 62
    7
 10
-93.947601500000019
 20
770.89999399999999
 11
-96.257003499999996
 21
774.89999399999999
  0
LINE
  8
_0-0_0
  6
CONTINUOUS
 62
    7
 10
-104.73822050000001
 20
774.89999399999999
 11
-96.257003499999996
 21
774.89999399999999
  0
LINE
  8
_0-0_0
  6
CONTINUOUS
 62
    7
 10
-107.04760750000003
 20
770.89999399999999
 11
-104.73822050000001
 21
774.89999399999999
  0
LINE
  8
_0-0_0
  6
CONTINUOUS
 62
    7
 10
-104.73822050000001
 20
766.89999399999999
 11
-107.04760750000003
 21
770.89999399999999
  0
LINE
  8
_0-0_0
  6
CONTINUOUS
 62
    7
 10
-152.25701949999996
 20
766.89999399999999
 11
-160.73820550000005
 21
766.89999399999999
  0
LINE
  8
_0-0_0
  6
CONTINUOUS
 62
    7
 10
-149.94760150000002
 20
770.89999399999999
 11
-152.25701949999996
 21
766.89999399999999
  0
LINE
  8
_0-0_0
  6
CONTINUOUS
 62
    7
 10
-149.94760150000002
 20
770.89999399999999
 11
-152.25701949999996
 21
774.89999399999999
  0
LINE
  8
_0-0_0
  6
CONTINUOUS
 62
    7
 10
-160.73820550000005
 20
774.89999399999999
 11
-152.25701949999996
 21
774.89999399999999
  0
LINE
  8
_0-0_0
  6
CONTINUOUS
 62
    7
 10
-163.04760750000003
 20
770.89999399999999
 11
-160.73820550000005
 21
774.89999399999999
  0
LINE
  8
_0-0_0
  6
CONTINUOUS
 62
    7
 10
-163.04760750000003
 20
770.89999399999999
 11
-160.73820550000005
 21
766.89999399999999
  0
CIRCLE
  8
_0-0_0
  6
CONTINUOUS
 62
    7
 10
-87.497604499999966
 20
777.79998799999998
 40
1.4750000000000001
  0
CIRCLE
  8
_0-0_0
  6
CONTINUOUS
 62
    7
 10
-166.49760449999997
 20
777.79998799999998
 40
1.4750000000000001
  0
LINE
  8
_0-0_0
  6
CONTINUOUS
 62
    7
 10
-87.047607500000026
 20
777.59997599999997
 11
-86.397613500000034
 21
777.59997599999997
  0
ARC
  8
_0-0_0
  6
CONTINUOUS
 62
    7
 10
-87.047607500000026
 20
777.34997599999997
 40
0.25
 50
90.000003000000007
 51
180.00000900000001
  0
LINE
  8
_0-0_0
  6
CONTINUOUS
 62
    7
 10
-87.297607500000026
 20
777.34997599999997
 11
-87.297607500000026
 21
776.69998199999998
  0
LINE
  8
_0-0_0
  6
CONTINUOUS
 62
    7
 10
-87.697601500000019
 20
776.69998199999998
 11
-87.297607500000026
 21
776.69998199999998
  0
LINE
  8
_0-0_0
  6
CONTINUOUS
 62
    7
 10
-87.697601500000019
 20
776.69998199999998
 11
-87.697601500000019
 21
777.34997599999997
  0
ARC
  8
_0-0_0
  6
CONTINUOUS
 62
    7
 10
-87.947601500000019
 20
777.34997599999997
 40
0.25
 50
0
 51
90.000003000000007
  0
LINE
  8
_0-0_0
  6
CONTINUOUS
 62
    7
 10
-88.597610499999973
 20
777.59997599999997
 11
-87.947601500000019
 21
777.59997599999997
  0
LINE
  8
_0-0_0
  6
CONTINUOUS
 62
    7
 10
-88.597610499999973
 20
777.59997599999997
 11
-88.597610499999973
 21
778
  0
LINE
  8
_0-0_0
  6
CONTINUOUS
 62
    7
 10
-87.947601500000019
 20
778
 11
-88.597610499999973
 21
778
  0
ARC
  8
_0-0_0
  6
CONTINUOUS
 62
    7
 10
-87.947601500000019
 20
778.25
 40
0.25
 50
269.99999700000001
 51
0
  0
LINE
  8
_0-0_0
  6
CONTINUOUS
 62
    7
 10
-87.697601500000019
 20
778.25
 11
-87.697601500000019
 21
778.89999399999999
  0
LINE
  8
_0-0_0
  6
CONTINUOUS
 62
    7
 10
-87.297607500000026
 20
778.89999399999999
 11
-87.697601500000019
 21
778.89999399999999
  0
LINE
  8
_0-0_0
  6
CONTINUOUS
 62
    7
 10
-87.297607500000026
 20
778.89999399999999
 11
-87.297607500000026
 21
778.25
  0
ARC
  8
_0-0_0
  6
CONTINUOUS
 62
    7
 10
-87.047607500000026
 20
778.25
 40
0.25
 50
180.00000900000003
 51
269.99999700000001
  0
LINE
  8
_0-0_0
  6
CONTINUOUS
 62
    7
 10
-86.397613500000034
 20
778
 11
-87.047607500000026
 21
778
  0
LINE
  8
_0-0_0
  6
CONTINUOUS
 62
    7
 10
-86.397613500000034
 20
778
 11
-86.397613500000034
 21
777.59997599999997
  0
LINE
  8
_0-0_0
  6
CONTINUOUS
 62
    7
 10
-166.04760750000003
 20
777.59997599999997
 11
-165.39761350000003
 21
777.59997599999997
  0
ARC
  8
_0-0_0
  6
CONTINUOUS
 62
    7
 10
-166.04760750000003
 20
777.34997599999997
 40
0.25
 50
90.000003000000007
 51
180.00000900000001
  0
LINE
  8
_0-0_0
  6
CONTINUOUS
 62
    7
 10
-166.29760750000003
 20
777.34997599999997
 11
-166.29760750000003
 21
776.69998199999998
  0
LINE
  8
_0-0_0
  6
CONTINUOUS
 62
    7
 10
-166.69760150000002
 20
776.69998199999998
 11
-166.29760750000003
 21
776.69998199999998
  0
LINE
  8
_0-0_0
  6
CONTINUOUS
 62
    7
 10
-166.69760150000002
 20
776.69998199999998
 11
-166.69760150000002
 21
777.34997599999997
  0
ARC
  8
_0-0_0
  6
CONTINUOUS
 62
    7
 10
-166.94760150000002
 20
777.34997599999997
 40
0.25
 50
0
 51
90.000003000000007
  0
LINE
  8
_0-0_0
  6
CONTINUOUS
 62
    7
 10
-167.59762550000005
 20
777.59997599999997
 11
-166.94760150000002
 21
777.59997599999997
  0
LINE
  8
_0-0_0
  6
CONTINUOUS
 62
    7
 10
-167.59762550000005
 20
777.59997599999997
 11
-167.59762550000005
 21
778
  0
LINE
  8
_0-0_0
  6
CONTINUOUS
 62
    7
 10
-166.94760150000002
 20
778
 11
-167.59762550000005
 21
778
  0
ARC
  8
_0-0_0
  6
CONTINUOUS
 62
    7
 10
-166.94760150000002
 20
778.25
 40
0.25
 50
269.99999700000001
 51
0
  0
LINE
  8
_0-0_0
  6
CONTINUOUS
 62
    7
 10
-166.69760150000002
 20
778.25
 11
-166.69760150000002
 21
778.89999399999999
  0
LINE
  8
_0-0_0
  6
CONTINUOUS
 62
    7
 10
-166.29760750000003
 20
778.89999399999999
 11
-166.69760150000002
 21
778.89999399999999
  0
LINE
  8
_0-0_0
  6
CONTINUOUS
 62
    7
 10
-166.29760750000003
 20
778.89999399999999
 11
-166.29760750000003
 21
778.25
  0
ARC
  8
_0-0_0
  6
CONTINUOUS
 62
    7
 10
-166.04760750000003
 20
778.25
 40
0.25
 50
180.00000900000003
 51
269.99999700000001
  0
LINE
  8
_0-0_0
  6
CONTINUOUS
 62
    7
 10
-165.39761350000003
 20
778
 11
-166.04760750000003
 21
778
  0
LINE
  8
_0-0_0
  6
CONTINUOUS
 62
    7
 10
-165.39761350000003
 20
778
 11
-165.39761350000003
 21
777.59997599999997
  0
LINE
  8
_0-0_0
  6
CONTINUOUS
 62
    7
 10
-164.94760150000002
 20
757.27694700000006
 11
-164.94760150000002
 21
757.29998799999998
  0
LINE
  8
_0-0_0
  6
CONTINUOUS
 62
    7
 10
-146.49761949999993
 20
775.29998799999998
 11
-146.49761949999993
 21
762.34298699999999
  0
ARC
  8
_0-0_0
  6
CONTINUOUS
 62
    7
 10
-149.49761949999993
 20
775.29998799999998
 40
3
 50
0
 51
90.000003000000007
  0
LINE
  8
_0-0_0
  6
CONTINUOUS
 62
    7
 10
-110.49761949999993
 20
761.69998199999998
 11
-110.49761949999993
 21
775.29998799999998
  0
LINE
  8
_0-0_0
  6
CONTINUOUS
 62
    7
 10
-127.01013149999994
 20
771.46963499999993
 11
-128.31011949999993
 21
774.96963499999993
  0
ARC
  8
_0-0_0
  6
CONTINUOUS
 62
    7
 10
-129.79760750000003
 20
771.39999399999999
 40
0.2
 50
159.62357
 51
269.99999700000001
  0
LINE
  8
_0-0_0
  6
CONTINUOUS
 62
    7
 10
-85.497604499999966
 20
776.89999399999999
 11
-68.8221585
 21
776.89999399999999
  0
ARC
  8
_0-0_0
  6
CONTINUOUS
 62
    7
 10
-68.8221585
 20
774.89999399999999
 40
2
 50
71.565000999999995
 51
90.000003000000007
  0
LINE
  8
_0-0_0
  6
CONTINUOUS
 62
    7
 10
-68.189697499999966
 20
776.79736300000002
 11
-68.309204499999964
 21
776.83297700000003
  0
LINE
  8
_0-0_0
  6
CONTINUOUS
 62
    7
 10
-68.309204499999964
 20
776.83297700000003
 11
-68.430755500000032
 21
776.86084000000005
  0
LINE
  8
_0-0_0
  6
CONTINUOUS
 62
    7
 10
-68.430755500000032
 20
776.86084000000005
 11
-68.553878499999996
 21
776.88088999999991
  0
LINE
  8
_0-0_0
  6
CONTINUOUS
 62
    7
 10
-68.553878499999996
 20
776.88088999999991
 11
-68.678100500000028
 21
776.89300500000002
  0
LINE
  8
_0-0_0
  6
CONTINUOUS
 62
    7
 10
-68.678100500000028
 20
776.89300500000002
 11
-68.802932499999997
 21
776.89712499999996
  0
LINE
  8
_0-0_0
  6
CONTINUOUS
 62
    7
 10
-68.802932499999997
 20
776.89712499999996
 11
-68.8221585
 21
776.897064
  0
LINE
  8
_0-0_0
  6
CONTINUOUS
 62
    7
 10
-63.865158500000007
 20
775.35583500000007
 11
-68.189712500000041
 21
776.79736300000002
  0
LINE
  8
_0-0_0
  6
CONTINUOUS
 62
    7
 10
-64.023269499999969
 20
760.79998799999998
 11
-63.329910499999983
 21
760.79998799999998
  0
LINE
  8
_0-0_0
  6
CONTINUOUS
 62
    7
 10
-64.023269499999969
 20
760.79998799999998
 11
-68.347824500000002
 21
760.79998799999998
  0
LINE
  8
_0-0_0
  6
CONTINUOUS
 62
    7
 10
-68.8221585
 20
760.79998799999998
 11
-68.347824500000002
 21
760.79998799999998
  0
LINE
  8
_0-0_0
  6
CONTINUOUS
 62
    7
 10
-73.497604499999966
 20
760.79998799999998
 11
-68.8221585
 21
760.79998799999998
  0
LINE
  8
_0-0_0
  6
CONTINUOUS
 62
    7
 10
-62.497604499999966
 20
760.04995699999995
 11
-62.497604499999966
 21
761.17095999999992
  0
LINE
  8
_0-0_0
  6
CONTINUOUS
 62
    7
 10
-62.497604499999966
 20
762.09228499999995
 11
-62.497604499999966
 21
761.17095999999992
  0
LINE
  8
_0-0_0
  6
CONTINUOUS
 62
    7
 10
-51.497604499999966
 20
760.84997599999997
 11
-51.497604499999966
 21
768.83154300000001
  0
ARC
  8
_0-0_0
  6
CONTINUOUS
 62
    7
 10
-57.671493499999997
 20
769.35086100000001
 40
4.9238749999999998
 50
352.49423299999995
 51
1.5359699999999901
  0
LINE
  8
_0-0_0
  6
CONTINUOUS
 62
    7
 10
-52.789779500000009
 20
763.49227900000005
 11
-52.695449499999995
 21
763.738922
  0
LINE
  8
_0-0_0
  6
CONTINUOUS
 62
    7
 10
-52.695449499999995
 20
763.738922
 11
-52.61149649999993
 21
763.978882
  0
LINE
  8
_0-0_0
  6
CONTINUOUS
 62
    7
 10
-52.61149649999993
 20
763.978882
 11
-52.537338500000033
 21
764.21301300000005
  0
LINE
  8
_0-0_0
  6
CONTINUOUS
 62
    7
 10
-52.537338500000033
 20
764.21301300000005
 11
-52.472457500000019
 21
764.442047
  0
LINE
  8
_0-0_0
  6
CONTINUOUS
 62
    7
 10
-52.472457500000019
 20
764.442047
 11
-52.416412499999979
 21
764.66671799999995
  0
LINE
  8
_0-0_0
  6
CONTINUOUS
 62
    7
 10
-52.416412499999979
 20
764.66671799999995
 11
-52.368850500000008
 21
764.88769500000001
  0
LINE
  8
_0-0_0
  6
CONTINUOUS
 62
    7
 10
-52.368850500000008
 20
764.88769500000001
 11
-52.329452500000002
 21
765.10562099999993
  0
LINE
  8
_0-0_0
  6
CONTINUOUS
 62
    7
 10
-52.329452500000002
 20
765.10562099999993
 11
-52.29795850000005
 21
765.32104499999991
  0
LINE
  8
_0-0_0
  6
CONTINUOUS
 62
    7
 10
-52.29795850000005
 20
765.32104499999991
 11
-52.27418549999993
 21
765.53457700000001
  0
LINE
  8
_0-0_0
  6
CONTINUOUS
 62
    7
 10
-52.27418549999993
 20
765.53457700000001
 11
-52.258255500000018
 21
765.74230999999997
  0
LINE
  8
_0-0_0
  6
CONTINUOUS
 62
    7
 10
-52.258255500000018
 20
765.74230999999997
 11
-52.249496499999964
 21
765.94915800000001
  0
LINE
  8
_0-0_0
  6
CONTINUOUS
 62
    7
 10
-52.249496499999964
 20
765.94915800000001
 11
-52.247863499999994
 21
766.15560899999991
  0
LINE
  8
_0-0_0
  6
CONTINUOUS
 62
    7
 10
-52.247863499999994
 20
766.15560899999991
 11
-52.253326499999957
 21
766.362213
  0
LINE
  8
_0-0_0
  6
CONTINUOUS
 62
    7
 10
-52.253326499999957
 20
766.362213
 11
-52.265945500000043
 21
766.56939699999998
  0
LINE
  8
_0-0_0
  6
CONTINUOUS
 62
    7
 10
-52.265945500000043
 20
766.56939699999998
 11
-52.28575150000006
 21
766.77767999999992
  0
LINE
  8
_0-0_0
  6
CONTINUOUS
 62
    7
 10
-52.28575150000006
 20
766.77767999999992
 11
-52.312896499999965
 21
766.98761000000002
  0
LINE
  8
_0-0_0
  6
CONTINUOUS
 62
    7
 10
-52.312896499999965
 20
766.98761000000002
 11
-52.347549500000014
 21
767.19967700000007
  0
LINE
  8
_0-0_0
  6
CONTINUOUS
 62
    7
 10
-52.347549500000014
 20
767.19967700000007
 11
-52.389892499999974
 21
767.41442899999993
  0
LINE
  8
_0-0_0
  6
CONTINUOUS
 62
    7
 10
-52.389892499999974
 20
767.41442899999993
 11
-52.44021650000002
 21
767.63241599999992
  0
LINE
  8
_0-0_0
  6
CONTINUOUS
 62
    7
 10
-52.44021650000002
 20
767.63241599999992
 11
-52.494461499999943
 21
767.83871499999998
  0
LINE
  8
_0-0_0
  6
CONTINUOUS
 62
    7
 10
-52.494461499999943
 20
767.83871499999998
 11
-52.556167500000015
 21
768.04882799999996
  0
LINE
  8
_0-0_0
  6
CONTINUOUS
 62
    7
 10
-52.556167500000015
 20
768.04882799999996
 11
-52.625686500000029
 21
768.26327500000002
  0
LINE
  8
_0-0_0
  6
CONTINUOUS
 62
    7
 10
-52.625686500000029
 20
768.26327500000002
 11
-52.703399499999932
 21
768.48269699999992
  0
LINE
  8
_0-0_0
  6
CONTINUOUS
 62
    7
 10
-52.703399499999932
 20
768.48269699999992
 11
-52.789779500000009
 21
768.707672
  0
ARC
  8
_0-0_0
  6
CONTINUOUS
 62
    7
 10
-57.66133149999996
 20
762.84997599999997
 40
4.9136889999999998
 50
352.48898799999995
 51
7.5110139999999577
  0
LINE
  8
_0-0_0
  6
CONTINUOUS
 62
    7
 10
-52.789779500000009
 20
762.207672
 11
-52.735290500000019
 21
762.13775599999997
  0
LINE
  8
_0-0_0
  6
CONTINUOUS
 62
    7
 10
-52.735290500000019
 20
762.13775599999997
 11
-52.684188500000005
 21
762.06890900000008
  0
LINE
  8
_0-0_0
  6
CONTINUOUS
 62
    7
 10
-52.684188500000005
 20
762.06890900000008
 11
-52.636550499999998
 21
762.00140399999998
  0
LINE
  8
_0-0_0
  6
CONTINUOUS
 62
    7
 10
-52.636550499999998
 20
762.00140399999998
 11
-52.592056500000012
 21
761.93487600000003
  0
LINE
  8
_0-0_0
  6
CONTINUOUS
 62
    7
 10
-52.592056500000012
 20
761.93487600000003
 11
-52.537338500000033
 21
761.84732099999997
  0
LINE
  8
_0-0_0
  6
CONTINUOUS
 62
    7
 10
-52.537338500000033
 20
761.84732099999997
 11
-52.48782349999999
 21
761.76123099999995
  0
LINE
  8
_0-0_0
  6
CONTINUOUS
 62
    7
 10
-52.48782349999999
 20
761.76123099999995
 11
-52.443359500000042
 21
761.67639199999996
  0
LINE
  8
_0-0_0
  6
CONTINUOUS
 62
    7
 10
-52.443359500000042
 20
761.67639199999996
 11
-52.396392500000047
 21
761.57608000000005
  0
LINE
  8
_0-0_0
  6
CONTINUOUS
 62
    7
 10
-52.396392500000047
 20
761.57608000000005
 11
-52.356185500000038
 21
761.47714199999996
  0
LINE
  8
_0-0_0
  6
CONTINUOUS
 62
    7
 10
-52.356185500000038
 20
761.47714199999996
 11
-52.322525499999983
 21
761.37939499999993
  0
LINE
  8
_0-0_0
  6
CONTINUOUS
 62
    7
 10
-52.322525499999983
 20
761.37939499999993
 11
-52.29522750000001
 21
761.28259300000002
  0
LINE
  8
_0-0_0
  6
CONTINUOUS
 62
    7
 10
-52.29522750000001
 20
761.28259300000002
 11
-52.27418549999993
 21
761.18652399999996
  0
LINE
  8
_0-0_0
  6
CONTINUOUS
 62
    7
 10
-52.27418549999993
 20
761.18652399999996
 11
-52.258255500000018
 21
761.082672
  0
LINE
  8
_0-0_0
  6
CONTINUOUS
 62
    7
 10
-52.258255500000018
 20
761.082672
 11
-52.249496499999964
 21
760.97924799999998
  0
LINE
  8
_0-0_0
  6
CONTINUOUS
 62
    7
 10
-52.249496499999964
 20
760.97924799999998
 11
-52.247863499999994
 21
760.87600700000007
  0
LINE
  8
_0-0_0
  6
CONTINUOUS
 62
    7
 10
-52.247863499999994
 20
760.87600700000007
 11
-52.253326499999957
 21
760.77273600000001
  0
LINE
  8
_0-0_0
  6
CONTINUOUS
 62
    7
 10
-52.253326499999957
 20
760.77273600000001
 11
-52.265945500000043
 21
760.669129
  0
LINE
  8
_0-0_0
  6
CONTINUOUS
 62
    7
 10
-52.265945500000043
 20
760.669129
 11
-52.28575150000006
 21
760.56497200000001
  0
LINE
  8
_0-0_0
  6
CONTINUOUS
 62
    7
 10
-52.28575150000006
 20
760.56497200000001
 11
-52.312896499999965
 21
760.46002199999998
  0
LINE
  8
_0-0_0
  6
CONTINUOUS
 62
    7
 10
-52.312896499999965
 20
760.46002199999998
 11
-52.347549500000014
 21
760.35400400000003
  0
LINE
  8
_0-0_0
  6
CONTINUOUS
 62
    7
 10
-52.347549500000014
 20
760.35400400000003
 11
-52.389892499999974
 21
760.24661300000002
  0
LINE
  8
_0-0_0
  6
CONTINUOUS
 62
    7
 10
-52.389892499999974
 20
760.24661300000002
 11
-52.44021650000002
 21
760.13760400000001
  0
LINE
  8
_0-0_0
  6
CONTINUOUS
 62
    7
 10
-52.44021650000002
 20
760.13760400000001
 11
-52.485900499999957
 21
760.04995699999995
  0
LINE
  8
_0-0_0
  6
CONTINUOUS
 62
    7
 10
-62.497604499999966
 20
769.99227900000005
 11
-52.789779500000009
 21
769.99227900000005
  0
LINE
  8
_0-0_0
  6
CONTINUOUS
 62
    7
 10
-62.497604499999966
 20
768.707672
 11
-62.497604499999966
 21
769.99227900000005
  0
LINE
  8
_0-0_0
  6
CONTINUOUS
 62
    7
 10
-62.497604499999966
 20
768.707672
 11
-52.789779500000009
 21
768.707672
  0
ARC
  8
_0-0_0
  6
CONTINUOUS
 62
    7
 10
-57.709518500000058
 20
769.34591699999999
 40
4.9620009999999999
 50
1.5813010000000001
 51
7.4847919999999997
  0
LINE
  8
_0-0_0
  6
CONTINUOUS
 62
    7
 10
-62.797607500000026
 20
763.88797
 11
-62.881073499999957
 21
764.26663200000007
  0
LINE
  8
_0-0_0
  6
CONTINUOUS
 62
    7
 10
-62.881073499999957
 20
764.26663200000007
 11
-62.921157499999936
 21
764.45816100000002
  0
LINE
  8
_0-0_0
  6
CONTINUOUS
 62
    7
 10
-62.921157499999936
 20
764.45816100000002
 11
-62.977249499999971
 21
764.7482
  0
LINE
  8
_0-0_0
  6
CONTINUOUS
 62
    7
 10
-62.977249499999971
 20
764.7482
 11
-63.014846499999976
 21
764.96777399999996
  0
LINE
  8
_0-0_0
  6
CONTINUOUS
 62
    7
 10
-63.014846499999976
 20
764.96777399999996
 11
-63.047485499999993
 21
765.18902600000001
  0
LINE
  8
_0-0_0
  6
CONTINUOUS
 62
    7
 10
-63.047485499999993
 20
765.18902600000001
 11
-63.074646499999972
 21
765.41583300000002
  0
LINE
  8
_0-0_0
  6
CONTINUOUS
 62
    7
 10
-63.074646499999972
 20
765.41583300000002
 11
-63.094711500000017
 21
765.64321900000004
  0
LINE
  8
_0-0_0
  6
CONTINUOUS
 62
    7
 10
-63.094711500000017
 20
765.64321900000004
 11
-63.101867500000026
 21
765.75695799999994
  0
LINE
  8
_0-0_0
  6
CONTINUOUS
 62
    7
 10
-63.101867500000026
 20
765.75695799999994
 11
-63.107025499999963
 21
765.87063599999999
  0
LINE
  8
_0-0_0
  6
CONTINUOUS
 62
    7
 10
-63.107025499999963
 20
765.87063599999999
 11
-63.1107485
 21
766.022064
  0
LINE
  8
_0-0_0
  6
CONTINUOUS
 62
    7
 10
-63.1107485
 20
766.022064
 11
-63.110809499999959
 21
766.17334000000005
  0
LINE
  8
_0-0_0
  6
CONTINUOUS
 62
    7
 10
-63.110809499999959
 20
766.17334000000005
 11
-63.107223500000032
 21
766.32437099999993
  0
LINE
  8
_0-0_0
  6
CONTINUOUS
 62
    7
 10
-63.107223500000032
 20
766.32437099999993
 11
-63.097717500000044
 21
766.51294000000007
  0
LINE
  8
_0-0_0
  6
CONTINUOUS
 62
    7
 10
-63.097717500000044
 20
766.51294000000007
 11
-63.082855500000051
 21
766.70117200000004
  0
LINE
  8
_0-0_0
  6
CONTINUOUS
 62
    7
 10
-63.082855500000051
 20
766.70117200000004
 11
-63.062927500000001
 21
766.88913000000002
  0
LINE
  8
_0-0_0
  6
CONTINUOUS
 62
    7
 10
-63.062927500000001
 20
766.88913000000002
 11
-63.046539499999994
 21
767.01800500000002
  0
LINE
  8
_0-0_0
  6
CONTINUOUS
 62
    7
 10
-63.046539499999994
 20
767.01800500000002
 11
-63.028137499999957
 21
767.14663700000006
  0
LINE
  8
_0-0_0
  6
CONTINUOUS
 62
    7
 10
-63.028137499999957
 20
767.14663700000006
 11
-63.003967500000044
 21
767.29858400000001
  0
LINE
  8
_0-0_0
  6
CONTINUOUS
 62
    7
 10
-63.003967500000044
 20
767.29858400000001
 11
-62.977569499999959
 21
767.44992100000002
  0
LINE
  8
_0-0_0
  6
CONTINUOUS
 62
    7
 10
-62.977569499999959
 20
767.44992100000002
 11
-62.921402499999999
 21
767.74054000000001
  0
LINE
  8
_0-0_0
  6
CONTINUOUS
 62
    7
 10
-62.921402499999999
 20
767.74054000000001
 11
-62.88124049999999
 21
767.93249500000002
  0
LINE
  8
_0-0_0
  6
CONTINUOUS
 62
    7
 10
-62.88124049999999
 20
767.93249500000002
 11
-62.797607500000026
 21
768.31198100000006
  0
LINE
  8
_0-0_0
  6
CONTINUOUS
 62
    7
 10
-62.497604499999966
 20
764.53793300000007
 11
-62.497604499999966
 21
767.66204799999991
  0
LINE
  8
_0-0_0
  6
CONTINUOUS
 62
    7
 10
-37.747612499999946
 20
756.57455499999992
 11
-37.997612499999946
 21
756.54998799999998
  0
LINE
  8
_0-0_0
  6
CONTINUOUS
 62
    7
 10
-37.997612499999946
 20
756.54998799999998
 11
-47.247604499999966
 21
756.54998799999998
  0
LINE
  8
_0-0_0
  6
CONTINUOUS
 62
    7
 10
-47.497604499999966
 20
756.57455499999992
 11
-47.247604499999966
 21
756.54998799999998
  0
LINE
  8
_0-0_0
  6
CONTINUOUS
 62
    7
 10
-37.747612499999946
 20
759.54855399999997
 11
-37.997612499999946
 21
759.82254
  0
LINE
  8
_0-0_0
  6
CONTINUOUS
 62
    7
 10
-37.747612499999946
 20
759.54855399999997
 11
-37.997612499999946
 21
759.65783699999997
  0
LINE
  8
_0-0_0
  6
CONTINUOUS
 62
    7
 10
-37.747612499999946
 20
759.39096100000006
 11
-37.997612499999946
 21
759.65783699999997
  0
LINE
  8
_0-0_0
  6
CONTINUOUS
 62
    7
 10
-37.747612499999946
 20
759.39096100000006
 11
-37.997612499999946
 21
759.47280899999998
  0
LINE
  8
_0-0_0
  6
CONTINUOUS
 62
    7
 10
-37.747612499999946
 20
759.21597300000008
 11
-37.997612499999946
 21
759.47280899999998
  0
LINE
  8
_0-0_0
  6
CONTINUOUS
 62
    7
 10
-37.747612499999946
 20
759.21597300000008
 11
-37.997612499999946
 21
759.26944000000003
  0
LINE
  8
_0-0_0
  6
CONTINUOUS
 62
    7
 10
-37.747612499999946
 20
759.02542100000005
 11
-37.997612499999946
 21
759.26944000000003
  0
LINE
  8
_0-0_0
  6
CONTINUOUS
 62
    7
 10
-37.747612499999946
 20
759.02542100000005
 11
-37.997612499999946
 21
759.04998799999998
  0
LINE
  8
_0-0_0
  6
CONTINUOUS
 62
    7
 10
-37.747612499999946
 20
758.82147199999997
 11
-37.997612499999946
 21
759.04998799999998
  0
LINE
  8
_0-0_0
  6
CONTINUOUS
 62
    7
 10
-37.747612499999946
 20
758.82147199999997
 11
-37.997612499999946
 21
758.81683399999997
  0
LINE
  8
_0-0_0
  6
CONTINUOUS
 62
    7
 10
-37.747612499999946
 20
758.60632299999997
 11
-37.997612499999946
 21
758.81683399999997
  0
LINE
  8
_0-0_0
  6
CONTINUOUS
 62
    7
 10
-37.747612499999946
 20
758.60632299999997
 11
-37.997612499999946
 21
758.57254
  0
LINE
  8
_0-0_0
  6
CONTINUOUS
 62
    7
 10
-37.747612499999946
 20
758.38232399999993
 11
-37.997612499999946
 21
758.57254
  0
LINE
  8
_0-0_0
  6
CONTINUOUS
 62
    7
 10
-37.747612499999946
 20
758.38232399999993
 11
-37.997612499999946
 21
758.31976299999997
  0
LINE
  8
_0-0_0
  6
CONTINUOUS
 62
    7
 10
-37.747612499999946
 20
758.15197799999999
 11
-37.997612499999946
 21
758.31976299999997
  0
LINE
  8
_0-0_0
  6
CONTINUOUS
 62
    7
 10
-37.747612499999946
 20
758.15197799999999
 11
-37.997612499999946
 21
758.06131000000005
  0
LINE
  8
_0-0_0
  6
CONTINUOUS
 62
    7
 10
-37.747612499999946
 20
757.91775499999994
 11
-37.997612499999946
 21
758.06131000000005
  0
LINE
  8
_0-0_0
  6
CONTINUOUS
 62
    7
 10
-37.747612499999946
 20
757.91775499999994
 11
-37.997612499999946
 21
757.79998799999998
  0
LINE
  8
_0-0_0
  6
CONTINUOUS
 62
    7
 10
-37.747612499999946
 20
757.68222100000003
 11
-37.997612499999946
 21
757.79998799999998
  0
LINE
  8
_0-0_0
  6
CONTINUOUS
 62
    7
 10
-37.747612499999946
 20
757.68222100000003
 11
-37.997612499999946
 21
757.53866599999992
  0
LINE
  8
_0-0_0
  6
CONTINUOUS
 62
    7
 10
-37.747612499999946
 20
757.44799799999998
 11
-37.997612499999946
 21
757.53866599999992
  0
LINE
  8
_0-0_0
  6
CONTINUOUS
 62
    7
 10
-37.747612499999946
 20
757.44799799999998
 11
-37.997612499999946
 21
757.280213
  0
LINE
  8
_0-0_0
  6
CONTINUOUS
 62
    7
 10
-37.747612499999946
 20
757.21765099999993
 11
-37.997612499999946
 21
757.280213
  0
LINE
  8
_0-0_0
  6
CONTINUOUS
 62
    7
 10
-37.747612499999946
 20
757.21765099999993
 11
-37.997612499999946
 21
757.02743499999997
  0
LINE
  8
_0-0_0
  6
CONTINUOUS
 62
    7
 10
-37.747612499999946
 20
756.993652
 11
-37.997612499999946
 21
757.02743499999997
  0
LINE
  8
_0-0_0
  6
CONTINUOUS
 62
    7
 10
-37.747612499999946
 20
756.993652
 11
-37.997612499999946
 21
756.783142
  0
LINE
  8
_0-0_0
  6
CONTINUOUS
 62
    7
 10
-37.747612499999946
 20
756.778504
 11
-37.997612499999946
 21
756.783142
  0
LINE
  8
_0-0_0
  6
CONTINUOUS
 62
    7
 10
-37.747612499999946
 20
756.778504
 11
-37.997612499999946
 21
756.54998799999998
  0
LINE
  8
_0-0_0
  6
CONTINUOUS
 62
    7
 10
-37.747612499999946
 20
756.57455499999992
 11
-37.997612499999946
 21
756.33053599999994
  0
LINE
  8
_0-0_0
  6
CONTINUOUS
 62
    7
 10
-37.747612499999946
 20
756.38400300000001
 11
-37.997612499999946
 21
756.33053599999994
  0
LINE
  8
_0-0_0
  6
CONTINUOUS
 62
    7
 10
-37.747612499999946
 20
756.38400300000001
 11
-37.997612499999946
 21
756.12716699999999
  0
LINE
  8
_0-0_0
  6
CONTINUOUS
 62
    7
 10
-37.747612499999946
 20
756.20898399999999
 11
-37.997612499999946
 21
756.12716699999999
  0
LINE
  8
_0-0_0
  6
CONTINUOUS
 62
    7
 10
-37.747612499999946
 20
756.20898399999999
 11
-37.997612499999946
 21
755.94210799999996
  0
LINE
  8
_0-0_0
  6
CONTINUOUS
 62
    7
 10
-37.747612499999946
 20
756.051422
 11
-37.997612499999946
 21
755.94210799999996
  0
LINE
  8
_0-0_0
  6
CONTINUOUS
 62
    7
 10
-37.747612499999946
 20
756.051422
 11
-37.997612499999946
 21
755.77743499999997
  0
LINE
  8
_0-0_0
  6
CONTINUOUS
 62
    7
 10
-37.747612499999946
 20
755.91299400000003
 11
-37.997612499999946
 21
755.77743499999997
  0
LINE
  8
_0-0_0
  6
CONTINUOUS
 62
    7
 10
-37.747612499999946
 20
755.91299400000003
 11
-37.997612499999946
 21
755.63491799999997
  0
LINE
  8
_0-0_0
  6
CONTINUOUS
 62
    7
 10
-37.747612499999946
 20
755.79522700000007
 11
-37.997612499999946
 21
755.63491799999997
  0
LINE
  8
_0-0_0
  6
CONTINUOUS
 62
    7
 10
-37.747612499999946
 20
755.79522700000007
 11
-37.997612499999946
 21
755.51611300000002
  0
LINE
  8
_0-0_0
  6
CONTINUOUS
 62
    7
 10
-37.747612499999946
 20
755.699432
 11
-37.997612499999946
 21
755.51611300000002
  0
LINE
  8
_0-0_0
  6
CONTINUOUS
 62
    7
 10
-37.747612499999946
 20
755.699432
 11
-37.997612499999946
 21
755.42233299999998
  0
LINE
  8
_0-0_0
  6
CONTINUOUS
 62
    7
 10
-37.747612499999946
 20
755.62664799999993
 11
-37.997612499999946
 21
755.42233299999998
  0
LINE
  8
_0-0_0
  6
CONTINUOUS
 62
    7
 10
-37.747612499999946
 20
755.62664799999993
 11
-37.997612499999946
 21
755.35461399999997
  0
LINE
  8
_0-0_0
  6
CONTINUOUS
 62
    7
 10
-37.747612499999946
 20
755.57769800000005
 11
-37.997612499999946
 21
755.35461399999997
  0
LINE
  8
_0-0_0
  6
CONTINUOUS
 62
    7
 10
-37.747612499999946
 20
755.57769800000005
 11
-37.997612499999946
 21
755.31368999999995
  0
LINE
  8
_0-0_0
  6
CONTINUOUS
 62
    7
 10
-37.747612499999946
 20
755.55306999999993
 11
-37.997612499999946
 21
755.31368999999995
  0
LINE
  8
_0-0_0
  6
CONTINUOUS
 62
    7
 10
-37.747612499999946
 20
755.55306999999993
 11
-37.997612499999946
 21
755.29998799999998
  0
LINE
  8
_0-0_0
  6
CONTINUOUS
 62
    7
 10
-37.497612499999946
 20
755.79998799999998
 11
-37.497612499999946
 21
759.55514500000004
  0
LINE
  8
_0-0_0
  6
CONTINUOUS
 62
    7
 10
-37.877571499999931
 20
759.88861099999997
 11
-37.997612499999946
 21
759.965057
  0
LINE
  8
_0-0_0
  6
CONTINUOUS
 62
    7
 10
-37.747612499999946
 20
759.68698100000006
 11
-37.997612499999946
 21
759.965057
  0
LINE
  8
_0-0_0
  6
CONTINUOUS
 62
    7
 10
-37.747612499999946
 20
759.68698100000006
 11
-37.997612499999946
 21
759.82254
  0
LINE
  8
_0-0_0
  6
CONTINUOUS
 62
    7
 10
-37.997612499999946
 20
759.65783699999997
 11
-47.247604499999966
 21
759.65783699999997
  0
LINE
  8
_0-0_0
  6
CONTINUOUS
 62
    7
 10
-47.497604499999966
 20
759.54855399999997
 11
-47.247604499999966
 21
759.65783699999997
  0
LINE
  8
_0-0_0
  6
CONTINUOUS
 62
    7
 10
-37.997612499999946
 20
759.47280899999998
 11
-47.247604499999966
 21
759.47280899999998
  0
LINE
  8
_0-0_0
  6
CONTINUOUS
 62
    7
 10
-47.497604499999966
 20
759.39096100000006
 11
-47.247604499999966
 21
759.47280899999998
  0
LINE
  8
_0-0_0
  6
CONTINUOUS
 62
    7
 10
-37.997612499999946
 20
759.26944000000003
 11
-47.247604499999966
 21
759.26944000000003
  0
LINE
  8
_0-0_0
  6
CONTINUOUS
 62
    7
 10
-47.497604499999966
 20
759.21597300000008
 11
-47.247604499999966
 21
759.26944000000003
  0
LINE
  8
_0-0_0
  6
CONTINUOUS
 62
    7
 10
-37.997612499999946
 20
759.04998799999998
 11
-47.247604499999966
 21
759.04998799999998
  0
LINE
  8
_0-0_0
  6
CONTINUOUS
 62
    7
 10
-47.497604499999966
 20
759.02542100000005
 11
-47.247604499999966
 21
759.04998799999998
  0
LINE
  8
_0-0_0
  6
CONTINUOUS
 62
    7
 10
-37.997612499999946
 20
758.81683399999997
 11
-47.247604499999966
 21
758.81683399999997
  0
LINE
  8
_0-0_0
  6
CONTINUOUS
 62
    7
 10
-37.747612499999946
 20
758.82147199999997
 11
-47.497604499999966
 21
758.82147199999997
  0
LINE
  8
_0-0_0
  6
CONTINUOUS
 62
    7
 10
-47.497604499999966
 20
758.82147199999997
 11
-47.247604499999966
 21
758.81683399999997
  0
LINE
  8
_0-0_0
  6
CONTINUOUS
 62
    7
 10
-37.997612499999946
 20
758.57254
 11
-47.247604499999966
 21
758.57254
  0
LINE
  8
_0-0_0
  6
CONTINUOUS
 62
    7
 10
-37.747612499999946
 20
758.60632299999997
 11
-47.497604499999966
 21
758.60632299999997
  0
LINE
  8
_0-0_0
  6
CONTINUOUS
 62
    7
 10
-47.497604499999966
 20
758.60632299999997
 11
-47.247604499999966
 21
758.57254
  0
LINE
  8
_0-0_0
  6
CONTINUOUS
 62
    7
 10
-37.997612499999946
 20
758.31976299999997
 11
-47.247604499999966
 21
758.31976299999997
  0
LINE
  8
_0-0_0
  6
CONTINUOUS
 62
    7
 10
-37.747612499999946
 20
758.38232399999993
 11
-47.497604499999966
 21
758.38232399999993
  0
LINE
  8
_0-0_0
  6
CONTINUOUS
 62
    7
 10
-47.497604499999966
 20
758.38232399999993
 11
-47.247604499999966
 21
758.31976299999997
  0
LINE
  8
_0-0_0
  6
CONTINUOUS
 62
    7
 10
-37.997612499999946
 20
758.06131000000005
 11
-47.247604499999966
 21
758.06131000000005
  0
LINE
  8
_0-0_0
  6
CONTINUOUS
 62
    7
 10
-37.747612499999946
 20
758.15197799999999
 11
-47.497604499999966
 21
758.15197799999999
  0
LINE
  8
_0-0_0
  6
CONTINUOUS
 62
    7
 10
-47.497604499999966
 20
758.15197799999999
 11
-47.247604499999966
 21
758.06131000000005
  0
LINE
  8
_0-0_0
  6
CONTINUOUS
 62
    7
 10
-37.997612499999946
 20
757.79998799999998
 11
-47.247604499999966
 21
757.79998799999998
  0
LINE
  8
_0-0_0
  6
CONTINUOUS
 62
    7
 10
-37.747612499999946
 20
757.91775499999994
 11
-47.497604499999966
 21
757.91775499999994
  0
LINE
  8
_0-0_0
  6
CONTINUOUS
 62
    7
 10
-47.497604499999966
 20
757.91775499999994
 11
-47.247604499999966
 21
757.79998799999998
  0
LINE
  8
_0-0_0
  6
CONTINUOUS
 62
    7
 10
-37.997612499999946
 20
757.53866599999992
 11
-47.247604499999966
 21
757.53866599999992
  0
LINE
  8
_0-0_0
  6
CONTINUOUS
 62
    7
 10
-37.747612499999946
 20
757.68222100000003
 11
-47.497604499999966
 21
757.68222100000003
  0
LINE
  8
_0-0_0
  6
CONTINUOUS
 62
    7
 10
-47.497604499999966
 20
757.68222100000003
 11
-47.247604499999966
 21
757.53866599999992
  0
LINE
  8
_0-0_0
  6
CONTINUOUS
 62
    7
 10
-37.997612499999946
 20
757.280213
 11
-47.247604499999966
 21
757.280213
  0
LINE
  8
_0-0_0
  6
CONTINUOUS
 62
    7
 10
-37.747612499999946
 20
757.44799799999998
 11
-47.497604499999966
 21
757.44799799999998
  0
LINE
  8
_0-0_0
  6
CONTINUOUS
 62
    7
 10
-47.497604499999966
 20
757.44799799999998
 11
-47.247604499999966
 21
757.280213
  0
LINE
  8
_0-0_0
  6
CONTINUOUS
 62
    7
 10
-37.997612499999946
 20
757.02743499999997
 11
-47.247604499999966
 21
757.02743499999997
  0
LINE
  8
_0-0_0
  6
CONTINUOUS
 62
    7
 10
-37.747612499999946
 20
757.21765099999993
 11
-47.497604499999966
 21
757.21765099999993
  0
LINE
  8
_0-0_0
  6
CONTINUOUS
 62
    7
 10
-47.497604499999966
 20
757.21765099999993
 11
-47.247604499999966
 21
757.02743499999997
  0
LINE
  8
_0-0_0
  6
CONTINUOUS
 62
    7
 10
-37.997612499999946
 20
756.783142
 11
-47.247604499999966
 21
756.783142
  0
LINE
  8
_0-0_0
  6
CONTINUOUS
 62
    7
 10
-37.747612499999946
 20
756.993652
 11
-47.497604499999966
 21
756.993652
  0
LINE
  8
_0-0_0
  6
CONTINUOUS
 62
    7
 10
-47.497604499999966
 20
756.993652
 11
-47.247604499999966
 21
756.783142
  0
LINE
  8
_0-0_0
  6
CONTINUOUS
 62
    7
 10
-37.997612499999946
 20
756.12716699999999
 11
-47.247604499999966
 21
756.12716699999999
  0
LINE
  8
_0-0_0
  6
CONTINUOUS
 62
    7
 10
-47.497604499999966
 20
756.38400300000001
 11
-47.247604499999966
 21
756.12716699999999
  0
LINE
  8
_0-0_0
  6
CONTINUOUS
 62
    7
 10
-37.997612499999946
 20
755.94210799999996
 11
-47.247604499999966
 21
755.94210799999996
  0
LINE
  8
_0-0_0
  6
CONTINUOUS
 62
    7
 10
-47.497604499999966
 20
756.20898399999999
 11
-47.247604499999966
 21
755.94210799999996
  0
LINE
  8
_0-0_0
  6
CONTINUOUS
 62
    7
 10
-37.997612499999946
 20
755.77743499999997
 11
-47.247604499999966
 21
755.77743499999997
  0
LINE
  8
_0-0_0
  6
CONTINUOUS
 62
    7
 10
-47.497604499999966
 20
756.051422
 11
-47.247604499999966
 21
755.77743499999997
  0
LINE
  8
_0-0_0
  6
CONTINUOUS
 62
    7
 10
-37.997612499999946
 20
755.63491799999997
 11
-47.247604499999966
 21
755.63491799999997
  0
LINE
  8
_0-0_0
  6
CONTINUOUS
 62
    7
 10
-47.497604499999966
 20
755.91299400000003
 11
-47.247604499999966
 21
755.63491799999997
  0
LINE
  8
_0-0_0
  6
CONTINUOUS
 62
    7
 10
-37.997612499999946
 20
755.51611300000002
 11
-47.247604499999966
 21
755.51611300000002
  0
LINE
  8
_0-0_0
  6
CONTINUOUS
 62
    7
 10
-47.497604499999966
 20
755.79522700000007
 11
-47.247604499999966
 21
755.51611300000002
  0
LINE
  8
_0-0_0
  6
CONTINUOUS
 62
    7
 10
-37.997612499999946
 20
755.42233299999998
 11
-47.247604499999966
 21
755.42233299999998
  0
LINE
  8
_0-0_0
  6
CONTINUOUS
 62
    7
 10
-47.497604499999966
 20
755.699432
 11
-47.247604499999966
 21
755.42233299999998
  0
LINE
  8
_0-0_0
  6
CONTINUOUS
 62
    7
 10
-37.997612499999946
 20
755.35461399999997
 11
-47.247604499999966
 21
755.35461399999997
  0
LINE
  8
_0-0_0
  6
CONTINUOUS
 62
    7
 10
-47.497604499999966
 20
755.62664799999993
 11
-47.247604499999966
 21
755.35461399999997
  0
LINE
  8
_0-0_0
  6
CONTINUOUS
 62
    7
 10
-37.997612499999946
 20
755.31368999999995
 11
-47.247604499999966
 21
755.31368999999995
  0
LINE
  8
_0-0_0
  6
CONTINUOUS
 62
    7
 10
-47.497604499999966
 20
755.57769800000005
 11
-47.247604499999966
 21
755.31368999999995
  0
LINE
  8
_0-0_0
  6
CONTINUOUS
 62
    7
 10
-37.997612499999946
 20
755.29998799999998
 11
-47.247604499999966
 21
755.29998799999998
  0
LINE
  8
_0-0_0
  6
CONTINUOUS
 62
    7
 10
-47.497604499999966
 20
755.55306999999993
 11
-47.247604499999966
 21
755.29998799999998
  0
LINE
  8
_0-0_0
  6
CONTINUOUS
 62
    7
 10
-37.997612499999946
 20
759.965057
 11
-47.247604499999966
 21
759.965057
  0
LINE
  8
_0-0_0
  6
CONTINUOUS
 62
    7
 10
-37.747612499999946
 20
759.80474900000002
 11
-37.877571499999931
 21
759.88861099999997
  0
LINE
  8
_0-0_0
  6
CONTINUOUS
 62
    7
 10
-47.497604499999966
 20
759.80474900000002
 11
-47.367630500000018
 21
759.88861099999997
  0
LINE
  8
_0-0_0
  6
CONTINUOUS
 62
    7
 10
-47.367630500000018
 20
759.88861099999997
 11
-47.247604499999966
 21
759.965057
  0
LINE
  8
_0-0_0
  6
CONTINUOUS
 62
    7
 10
-37.997612499999946
 20
759.82254
 11
-47.247604499999966
 21
759.82254
  0
LINE
  8
_0-0_0
  6
CONTINUOUS
 62
    7
 10
-47.497604499999966
 20
759.68698100000006
 11
-47.247604499999966
 21
759.82254
  0
LINE
  8
_0-0_0
  6
CONTINUOUS
 62
    7
 10
-37.747612499999946
 20
759.80474900000002
 11
-37.997612499999946
 21
760.08386199999995
  0
LINE
  8
_0-0_0
  6
CONTINUOUS
 62
    7
 10
-37.997612499999946
 20
760.08386199999995
 11
-47.247604499999966
 21
760.08386199999995
  0
LINE
  8
_0-0_0
  6
CONTINUOUS
 62
    7
 10
-47.497604499999966
 20
759.80474900000002
 11
-47.247604499999966
 21
760.08386199999995
  0
LINE
  8
_0-0_0
  6
CONTINUOUS
 62
    7
 10
-37.747612499999946
 20
759.90054299999997
 11
-37.997612499999946
 21
760.08386199999995
  0
LINE
  8
_0-0_0
  6
CONTINUOUS
 62
    7
 10
-47.497604499999966
 20
759.90054299999997
 11
-47.247604499999966
 21
760.08386199999995
  0
LINE
  8
_0-0_0
  6
CONTINUOUS
 62
    7
 10
-37.747612499999946
 20
759.90054299999997
 11
-37.997612499999946
 21
760.17764299999999
  0
LINE
  8
_0-0_0
  6
CONTINUOUS
 62
    7
 10
-37.997612499999946
 20
760.17764299999999
 11
-47.247604499999966
 21
760.17764299999999
  0
LINE
  8
_0-0_0
  6
CONTINUOUS
 62
    7
 10
-47.497604499999966
 20
759.90054299999997
 11
-47.247604499999966
 21
760.17764299999999
  0
LINE
  8
_0-0_0
  6
CONTINUOUS
 62
    7
 10
-37.747612499999946
 20
759.97332800000004
 11
-37.997612499999946
 21
760.17764299999999
  0
LINE
  8
_0-0_0
  6
CONTINUOUS
 62
    7
 10
-47.497604499999966
 20
759.97332800000004
 11
-47.247604499999966
 21
760.17764299999999
  0
LINE
  8
_0-0_0
  6
CONTINUOUS
 62
    7
 10
-37.747612499999946
 20
759.97332800000004
 11
-37.997612499999946
 21
760.245361
  0
LINE
  8
_0-0_0
  6
CONTINUOUS
 62
    7
 10
-37.997612499999946
 20
760.245361
 11
-47.247604499999966
 21
760.245361
  0
LINE
  8
_0-0_0
  6
CONTINUOUS
 62
    7
 10
-47.497604499999966
 20
759.97332800000004
 11
-47.247604499999966
 21
760.245361
  0
LINE
  8
_0-0_0
  6
CONTINUOUS
 62
    7
 10
-37.747612499999946
 20
760.02227799999991
 11
-37.997612499999946
 21
760.245361
  0
LINE
  8
_0-0_0
  6
CONTINUOUS
 62
    7
 10
-47.497604499999966
 20
760.02227799999991
 11
-47.247604499999966
 21
760.245361
  0
LINE
  8
_0-0_0
  6
CONTINUOUS
 62
    7
 10
-37.747612499999946
 20
760.02227799999991
 11
-37.997612499999946
 21
760.28628600000002
  0
LINE
  8
_0-0_0
  6
CONTINUOUS
 62
    7
 10
-37.997612499999946
 20
760.28628600000002
 11
-47.247604499999966
 21
760.28628600000002
  0
LINE
  8
_0-0_0
  6
CONTINUOUS
 62
    7
 10
-47.497604499999966
 20
760.02227799999991
 11
-47.247604499999966
 21
760.28628600000002
  0
LINE
  8
_0-0_0
  6
CONTINUOUS
 62
    7
 10
-37.747612499999946
 20
760.04690600000004
 11
-37.997612499999946
 21
760.28628600000002
  0
LINE
  8
_0-0_0
  6
CONTINUOUS
 62
    7
 10
-47.497604499999966
 20
760.04690600000004
 11
-47.247604499999966
 21
760.28628600000002
  0
LINE
  8
_0-0_0
  6
CONTINUOUS
 62
    7
 10
-37.747612499999946
 20
760.04690600000004
 11
-37.997612499999946
 21
760.29998799999998
  0
LINE
  8
_0-0_0
  6
CONTINUOUS
 62
    7
 10
-37.997612499999946
 20
760.29998799999998
 11
-47.247604499999966
 21
760.29998799999998
  0
LINE
  8
_0-0_0
  6
CONTINUOUS
 62
    7
 10
-47.497604499999966
 20
760.04690600000004
 11
-47.247604499999966
 21
760.29998799999998
  0
LINE
  8
_0-0_0
  6
CONTINUOUS
 62
    7
 10
-37.747612499999946
 20
773.17456100000004
 11
-37.997612499999946
 21
773.14999399999999
  0
LINE
  8
_0-0_0
  6
CONTINUOUS
 62
    7
 10
-37.997612499999946
 20
773.14999399999999
 11
-47.247604499999966
 21
773.14999399999999
  0
LINE
  8
_0-0_0
  6
CONTINUOUS
 62
    7
 10
-47.497604499999966
 20
773.17456100000004
 11
-47.247604499999966
 21
773.14999399999999
  0
LINE
  8
_0-0_0
  6
CONTINUOUS
 62
    7
 10
-37.747612499999946
 20
776.14855999999997
 11
-37.997612499999946
 21
776.42251599999997
  0
LINE
  8
_0-0_0
  6
CONTINUOUS
 62
    7
 10
-37.747612499999946
 20
776.14855999999997
 11
-37.997612499999946
 21
776.25784299999998
  0
LINE
  8
_0-0_0
  6
CONTINUOUS
 62
    7
 10
-37.747612499999946
 20
775.99096699999996
 11
-37.997612499999946
 21
776.25784299999998
  0
LINE
  8
_0-0_0
  6
CONTINUOUS
 62
    7
 10
-37.747612499999946
 20
775.99096699999996
 11
-37.997612499999946
 21
776.07281499999999
  0
LINE
  8
_0-0_0
  6
CONTINUOUS
 62
    7
 10
-37.747612499999946
 20
775.81594900000005
 11
-37.997612499999946
 21
776.07281499999999
  0
LINE
  8
_0-0_0
  6
CONTINUOUS
 62
    7
 10
-37.747612499999946
 20
775.81594900000005
 11
-37.997612499999946
 21
775.86944599999993
  0
LINE
  8
_0-0_0
  6
CONTINUOUS
 62
    7
 10
-37.747612499999946
 20
775.62542699999995
 11
-37.997612499999946
 21
775.86944599999993
  0
LINE
  8
_0-0_0
  6
CONTINUOUS
 62
    7
 10
-37.747612499999946
 20
775.62542699999995
 11
-37.997612499999946
 21
775.64999399999999
  0
LINE
  8
_0-0_0
  6
CONTINUOUS
 62
    7
 10
-37.747612499999946
 20
775.42147799999998
 11
-37.997612499999946
 21
775.64999399999999
  0
LINE
  8
_0-0_0
  6
CONTINUOUS
 62
    7
 10
-37.747612499999946
 20
775.42147799999998
 11
-37.997612499999946
 21
775.41683999999998
  0
LINE
  8
_0-0_0
  6
CONTINUOUS
 62
    7
 10
-37.747612499999946
 20
775.20632899999998
 11
-37.997612499999946
 21
775.41683999999998
  0
LINE
  8
_0-0_0
  6
CONTINUOUS
 62
    7
 10
-37.747612499999946
 20
775.20632899999998
 11
-37.997612499999946
 21
775.17251599999997
  0
LINE
  8
_0-0_0
  6
CONTINUOUS
 62
    7
 10
-37.747612499999946
 20
774.98233000000005
 11
-37.997612499999946
 21
775.17251599999997
  0
LINE
  8
_0-0_0
  6
CONTINUOUS
 62
    7
 10
-37.747612499999946
 20
774.98233000000005
 11
-37.997612499999946
 21
774.91976899999997
  0
LINE
  8
_0-0_0
  6
CONTINUOUS
 62
    7
 10
-37.747612499999946
 20
774.75195299999996
 11
-37.997612499999946
 21
774.91976899999997
  0
LINE
  8
_0-0_0
  6
CONTINUOUS
 62
    7
 10
-37.747612499999946
 20
774.75195299999996
 11
-37.997612499999946
 21
774.66131599999994
  0
LINE
  8
_0-0_0
  6
CONTINUOUS
 62
    7
 10
-37.747612499999946
 20
774.51773099999991
 11
-37.997612499999946
 21
774.66131599999994
  0
LINE
  8
_0-0_0
  6
CONTINUOUS
 62
    7
 10
-37.747612499999946
 20
774.51773099999991
 11
-37.997612499999946
 21
774.39999399999999
  0
LINE
  8
_0-0_0
  6
CONTINUOUS
 62
    7
 10
-37.747612499999946
 20
774.28222699999992
 11
-37.997612499999946
 21
774.39999399999999
  0
LINE
  8
_0-0_0
  6
CONTINUOUS
 62
    7
 10
-37.747612499999946
 20
774.28222699999992
 11
-37.997612499999946
 21
774.13867200000004
  0
LINE
  8
_0-0_0
  6
CONTINUOUS
 62
    7
 10
-37.747612499999946
 20
774.04800399999999
 11
-37.997612499999946
 21
774.13867200000004
  0
LINE
  8
_0-0_0
  6
CONTINUOUS
 62
    7
 10
-37.747612499999946
 20
774.04800399999999
 11
-37.997612499999946
 21
773.88021900000001
  0
LINE
  8
_0-0_0
  6
CONTINUOUS
 62
    7
 10
-37.747612499999946
 20
773.81765799999994
 11
-37.997612499999946
 21
773.88021900000001
  0
LINE
  8
_0-0_0
  6
CONTINUOUS
 62
    7
 10
-37.747612499999946
 20
773.81765799999994
 11
-37.997612499999946
 21
773.62744199999997
  0
LINE
  8
_0-0_0
  6
CONTINUOUS
 62
    7
 10
-37.747612499999946
 20
773.593659
 11
-37.997612499999946
 21
773.62744199999997
  0
LINE
  8
_0-0_0
  6
CONTINUOUS
 62
    7
 10
-37.747612499999946
 20
773.593659
 11
-37.997612499999946
 21
773.38314800000001
  0
LINE
  8
_0-0_0
  6
CONTINUOUS
 62
    7
 10
-37.747612499999946
 20
773.37851000000001
 11
-37.997612499999946
 21
773.38314800000001
  0
LINE
  8
_0-0_0
  6
CONTINUOUS
 62
    7
 10
-37.747612499999946
 20
773.37851000000001
 11
-37.997612499999946
 21
773.14999399999999
  0
LINE
  8
_0-0_0
  6
CONTINUOUS
 62
    7
 10
-37.747612499999946
 20
773.17456100000004
 11
-37.997612499999946
 21
772.93051199999991
  0
LINE
  8
_0-0_0
  6
CONTINUOUS
 62
    7
 10
-37.747612499999946
 20
772.98400900000001
 11
-37.997612499999946
 21
772.93051199999991
  0
LINE
  8
_0-0_0
  6
CONTINUOUS
 62
    7
 10
-37.747612499999946
 20
772.98400900000001
 11
-37.997612499999946
 21
772.72717299999999
  0
LINE
  8
_0-0_0
  6
CONTINUOUS
 62
    7
 10
-37.747612499999946
 20
772.80899099999999
 11
-37.997612499999946
 21
772.72717299999999
  0
LINE
  8
_0-0_0
  6
CONTINUOUS
 62
    7
 10
-37.747612499999946
 20
772.80899099999999
 11
-37.997612499999946
 21
772.54211399999997
  0
LINE
  8
_0-0_0
  6
CONTINUOUS
 62
    7
 10
-37.747612499999946
 20
772.65139799999997
 11
-37.997612499999946
 21
772.54211399999997
  0
LINE
  8
_0-0_0
  6
CONTINUOUS
 62
    7
 10
-37.747612499999946
 20
772.65139799999997
 11
-37.997612499999946
 21
772.37744199999997
  0
LINE
  8
_0-0_0
  6
CONTINUOUS
 62
    7
 10
-37.747612499999946
 20
772.51297
 11
-37.997612499999946
 21
772.37744199999997
  0
LINE
  8
_0-0_0
  6
CONTINUOUS
 62
    7
 10
-37.747612499999946
 20
772.51297
 11
-37.997612499999946
 21
772.23492399999998
  0
LINE
  8
_0-0_0
  6
CONTINUOUS
 62
    7
 10
-37.747612499999946
 20
772.39523299999996
 11
-37.997612499999946
 21
772.23492399999998
  0
LINE
  8
_0-0_0
  6
CONTINUOUS
 62
    7
 10
-37.747612499999946
 20
772.39523299999996
 11
-37.997612499999946
 21
772.11611900000003
  0
LINE
  8
_0-0_0
  6
CONTINUOUS
 62
    7
 10
-37.747612499999946
 20
772.29943900000001
 11
-37.997612499999946
 21
772.11611900000003
  0
LINE
  8
_0-0_0
  6
CONTINUOUS
 62
    7
 10
-37.747612499999946
 20
772.29943900000001
 11
-37.997612499999946
 21
772.02233899999999
  0
LINE
  8
_0-0_0
  6
CONTINUOUS
 62
    7
 10
-37.747612499999946
 20
772.22665400000005
 11
-37.997612499999946
 21
772.02233899999999
  0
LINE
  8
_0-0_0
  6
CONTINUOUS
 62
    7
 10
-37.747612499999946
 20
772.22665400000005
 11
-37.997612499999946
 21
771.95461999999998
  0
LINE
  8
_0-0_0
  6
CONTINUOUS
 62
    7
 10
-37.747612499999946
 20
772.17767299999991
 11
-37.997612499999946
 21
771.95461999999998
  0
LINE
  8
_0-0_0
  6
CONTINUOUS
 62
    7
 10
-37.747612499999946
 20
772.17767299999991
 11
-37.997612499999946
 21
771.91366599999992
  0
LINE
  8
_0-0_0
  6
CONTINUOUS
 62
    7
 10
-37.747612499999946
 20
772.15307600000006
 11
-37.997612499999946
 21
771.91366599999992
  0
LINE
  8
_0-0_0
  6
CONTINUOUS
 62
    7
 10
-37.747612499999946
 20
772.15307600000006
 11
-37.997612499999946
 21
771.89999399999999
  0
LINE
  8
_0-0_0
  6
CONTINUOUS
 62
    7
 10
-37.497612499999946
 20
772.39999399999999
 11
-37.497612499999946
 21
776.15515099999993
  0
LINE
  8
_0-0_0
  6
CONTINUOUS
 62
    7
 10
-37.877571499999931
 20
776.48861699999998
 11
-37.997612499999946
 21
776.56506400000001
  0
LINE
  8
_0-0_0
  6
CONTINUOUS
 62
    7
 10
-37.747612499999946
 20
776.28698699999995
 11
-37.997612499999946
 21
776.56506400000001
  0
LINE
  8
_0-0_0
  6
CONTINUOUS
 62
    7
 10
-37.747612499999946
 20
776.28698699999995
 11
-37.997612499999946
 21
776.42251599999997
  0
LINE
  8
_0-0_0
  6
CONTINUOUS
 62
    7
 10
-37.997612499999946
 20
776.25784299999998
 11
-47.247604499999966
 21
776.25784299999998
  0
LINE
  8
_0-0_0
  6
CONTINUOUS
 62
    7
 10
-47.497604499999966
 20
776.14855999999997
 11
-47.247604499999966
 21
776.25784299999998
  0
LINE
  8
_0-0_0
  6
CONTINUOUS
 62
    7
 10
-37.997612499999946
 20
776.07281499999999
 11
-47.247604499999966
 21
776.07281499999999
  0
LINE
  8
_0-0_0
  6
CONTINUOUS
 62
    7
 10
-47.497604499999966
 20
775.99096699999996
 11
-47.247604499999966
 21
776.07281499999999
  0
LINE
  8
_0-0_0
  6
CONTINUOUS
 62
    7
 10
-37.997612499999946
 20
775.86944599999993
 11
-47.247604499999966
 21
775.86944599999993
  0
LINE
  8
_0-0_0
  6
CONTINUOUS
 62
    7
 10
-47.497604499999966
 20
775.81594900000005
 11
-47.247604499999966
 21
775.86944599999993
  0
LINE
  8
_0-0_0
  6
CONTINUOUS
 62
    7
 10
-37.997612499999946
 20
775.64999399999999
 11
-47.247604499999966
 21
775.64999399999999
  0
LINE
  8
_0-0_0
  6
CONTINUOUS
 62
    7
 10
-47.497604499999966
 20
775.62542699999995
 11
-47.247604499999966
 21
775.64999399999999
  0
LINE
  8
_0-0_0
  6
CONTINUOUS
 62
    7
 10
-37.997612499999946
 20
775.41683999999998
 11
-47.247604499999966
 21
775.41683999999998
  0
LINE
  8
_0-0_0
  6
CONTINUOUS
 62
    7
 10
-37.747612499999946
 20
775.42147799999998
 11
-47.497604499999966
 21
775.42147799999998
  0
LINE
  8
_0-0_0
  6
CONTINUOUS
 62
    7
 10
-47.497604499999966
 20
775.42147799999998
 11
-47.247604499999966
 21
775.41683999999998
  0
LINE
  8
_0-0_0
  6
CONTINUOUS
 62
    7
 10
-37.997612499999946
 20
775.17251599999997
 11
-47.247604499999966
 21
775.17251599999997
  0
LINE
  8
_0-0_0
  6
CONTINUOUS
 62
    7
 10
-37.747612499999946
 20
775.20632899999998
 11
-47.497604499999966
 21
775.20632899999998
  0
LINE
  8
_0-0_0
  6
CONTINUOUS
 62
    7
 10
-47.497604499999966
 20
775.20632899999998
 11
-47.247604499999966
 21
775.17251599999997
  0
LINE
  8
_0-0_0
  6
CONTINUOUS
 62
    7
 10
-37.997612499999946
 20
774.91976899999997
 11
-47.247604499999966
 21
774.91976899999997
  0
LINE
  8
_0-0_0
  6
CONTINUOUS
 62
    7
 10
-37.747612499999946
 20
774.98233000000005
 11
-47.497604499999966
 21
774.98233000000005
  0
LINE
  8
_0-0_0
  6
CONTINUOUS
 62
    7
 10
-47.497604499999966
 20
774.98233000000005
 11
-47.247604499999966
 21
774.91976899999997
  0
LINE
  8
_0-0_0
  6
CONTINUOUS
 62
    7
 10
-37.997612499999946
 20
774.66131599999994
 11
-47.247604499999966
 21
774.66131599999994
  0
LINE
  8
_0-0_0
  6
CONTINUOUS
 62
    7
 10
-37.747612499999946
 20
774.75195299999996
 11
-47.497604499999966
 21
774.75195299999996
  0
LINE
  8
_0-0_0
  6
CONTINUOUS
 62
    7
 10
-47.497604499999966
 20
774.75195299999996
 11
-47.247604499999966
 21
774.66131599999994
  0
LINE
  8
_0-0_0
  6
CONTINUOUS
 62
    7
 10
-37.997612499999946
 20
774.39999399999999
 11
-47.247604499999966
 21
774.39999399999999
  0
LINE
  8
_0-0_0
  6
CONTINUOUS
 62
    7
 10
-37.747612499999946
 20
774.51773099999991
 11
-47.497604499999966
 21
774.51773099999991
  0
LINE
  8
_0-0_0
  6
CONTINUOUS
 62
    7
 10
-47.497604499999966
 20
774.51773099999991
 11
-47.247604499999966
 21
774.39999399999999
  0
LINE
  8
_0-0_0
  6
CONTINUOUS
 62
    7
 10
-37.997612499999946
 20
774.13867200000004
 11
-47.247604499999966
 21
774.13867200000004
  0
LINE
  8
_0-0_0
  6
CONTINUOUS
 62
    7
 10
-37.747612499999946
 20
774.28222699999992
 11
-47.497604499999966
 21
774.28222699999992
  0
LINE
  8
_0-0_0
  6
CONTINUOUS
 62
    7
 10
-47.497604499999966
 20
774.28222699999992
 11
-47.247604499999966
 21
774.13867200000004
  0
LINE
  8
_0-0_0
  6
CONTINUOUS
 62
    7
 10
-37.997612499999946
 20
773.88021900000001
 11
-47.247604499999966
 21
773.88021900000001
  0
LINE
  8
_0-0_0
  6
CONTINUOUS
 62
    7
 10
-37.747612499999946
 20
774.04800399999999
 11
-47.497604499999966
 21
774.04800399999999
  0
LINE
  8
_0-0_0
  6
CONTINUOUS
 62
    7
 10
-47.497604499999966
 20
774.04800399999999
 11
-47.247604499999966
 21
773.88021900000001
  0
LINE
  8
_0-0_0
  6
CONTINUOUS
 62
    7
 10
-37.997612499999946
 20
773.62744199999997
 11
-47.247604499999966
 21
773.62744199999997
  0
LINE
  8
_0-0_0
  6
CONTINUOUS
 62
    7
 10
-37.747612499999946
 20
773.81765799999994
 11
-47.497604499999966
 21
773.81765799999994
  0
LINE
  8
_0-0_0
  6
CONTINUOUS
 62
    7
 10
-47.497604499999966
 20
773.81765799999994
 11
-47.247604499999966
 21
773.62744199999997
  0
LINE
  8
_0-0_0
  6
CONTINUOUS
 62
    7
 10
-37.997612499999946
 20
773.38314800000001
 11
-47.247604499999966
 21
773.38314800000001
  0
LINE
  8
_0-0_0
  6
CONTINUOUS
 62
    7
 10
-37.747612499999946
 20
773.593659
 11
-47.497604499999966
 21
773.593659
  0
LINE
  8
_0-0_0
  6
CONTINUOUS
 62
    7
 10
-47.497604499999966
 20
773.593659
 11
-47.247604499999966
 21
773.38314800000001
  0
LINE
  8
_0-0_0
  6
CONTINUOUS
 62
    7
 10
-37.997612499999946
 20
772.72717299999999
 11
-47.247604499999966
 21
772.72717299999999
  0
LINE
  8
_0-0_0
  6
CONTINUOUS
 62
    7
 10
-47.497604499999966
 20
772.98400900000001
 11
-47.247604499999966
 21
772.72717299999999
  0
LINE
  8
_0-0_0
  6
CONTINUOUS
 62
    7
 10
-37.997612499999946
 20
772.54211399999997
 11
-47.247604499999966
 21
772.54211399999997
  0
LINE
  8
_0-0_0
  6
CONTINUOUS
 62
    7
 10
-47.497604499999966
 20
772.80899099999999
 11
-47.247604499999966
 21
772.54211399999997
  0
LINE
  8
_0-0_0
  6
CONTINUOUS
 62
    7
 10
-37.997612499999946
 20
772.37744199999997
 11
-47.247604499999966
 21
772.37744199999997
  0
LINE
  8
_0-0_0
  6
CONTINUOUS
 62
    7
 10
-47.497604499999966
 20
772.65139799999997
 11
-47.247604499999966
 21
772.37744199999997
  0
LINE
  8
_0-0_0
  6
CONTINUOUS
 62
    7
 10
-37.997612499999946
 20
772.23492399999998
 11
-47.247604499999966
 21
772.23492399999998
  0
LINE
  8
_0-0_0
  6
CONTINUOUS
 62
    7
 10
-47.497604499999966
 20
772.51297
 11
-47.247604499999966
 21
772.23492399999998
  0
LINE
  8
_0-0_0
  6
CONTINUOUS
 62
    7
 10
-37.997612499999946
 20
772.11611900000003
 11
-47.247604499999966
 21
772.11611900000003
  0
LINE
  8
_0-0_0
  6
CONTINUOUS
 62
    7
 10
-47.497604499999966
 20
772.39523299999996
 11
-47.247604499999966
 21
772.11611900000003
  0
LINE
  8
_0-0_0
  6
CONTINUOUS
 62
    7
 10
-37.997612499999946
 20
772.02233899999999
 11
-47.247604499999966
 21
772.02233899999999
  0
LINE
  8
_0-0_0
  6
CONTINUOUS
 62
    7
 10
-47.497604499999966
 20
772.29943900000001
 11
-47.247604499999966
 21
772.02233899999999
  0
LINE
  8
_0-0_0
  6
CONTINUOUS
 62
    7
 10
-37.997612499999946
 20
771.95461999999998
 11
-47.247604499999966
 21
771.95461999999998
  0
LINE
  8
_0-0_0
  6
CONTINUOUS
 62
    7
 10
-47.497604499999966
 20
772.22665400000005
 11
-47.247604499999966
 21
771.95461999999998
  0
LINE
  8
_0-0_0
  6
CONTINUOUS
 62
    7
 10
-37.997612499999946
 20
771.91366599999992
 11
-47.247604499999966
 21
771.91366599999992
  0
LINE
  8
_0-0_0
  6
CONTINUOUS
 62
    7
 10
-47.497604499999966
 20
772.17767299999991
 11
-47.247604499999966
 21
771.91366599999992
  0
LINE
  8
_0-0_0
  6
CONTINUOUS
 62
    7
 10
-37.997612499999946
 20
771.89999399999999
 11
-47.247604499999966
 21
771.89999399999999
  0
LINE
  8
_0-0_0
  6
CONTINUOUS
 62
    7
 10
-47.497604499999966
 20
772.15307600000006
 11
-47.247604499999966
 21
771.89999399999999
  0
LINE
  8
_0-0_0
  6
CONTINUOUS
 62
    7
 10
-37.997612499999946
 20
776.56506400000001
 11
-47.247604499999966
 21
776.56506400000001
  0
LINE
  8
_0-0_0
  6
CONTINUOUS
 62
    7
 10
-37.747612499999946
 20
776.40475500000002
 11
-37.877571499999931
 21
776.48861699999998
  0
LINE
  8
_0-0_0
  6
CONTINUOUS
 62
    7
 10
-47.497604499999966
 20
776.40475500000002
 11
-47.367630500000018
 21
776.48861699999998
  0
LINE
  8
_0-0_0
  6
CONTINUOUS
 62
    7
 10
-47.367630500000018
 20
776.48861699999998
 11
-47.247604499999966
 21
776.56506400000001
  0
LINE
  8
_0-0_0
  6
CONTINUOUS
 62
    7
 10
-37.997612499999946
 20
776.42251599999997
 11
-47.247604499999966
 21
776.42251599999997
  0
LINE
  8
_0-0_0
  6
CONTINUOUS
 62
    7
 10
-47.497604499999966
 20
776.28698699999995
 11
-47.247604499999966
 21
776.42251599999997
  0
LINE
  8
_0-0_0
  6
CONTINUOUS
 62
    7
 10
-37.747612499999946
 20
776.40475500000002
 11
-37.997612499999946
 21
776.68383799999992
  0
LINE
  8
_0-0_0
  6
CONTINUOUS
 62
    7
 10
-37.997612499999946
 20
776.68383799999992
 11
-47.247604499999966
 21
776.68383799999992
  0
LINE
  8
_0-0_0
  6
CONTINUOUS
 62
    7
 10
-47.497604499999966
 20
776.40475500000002
 11
-47.247604499999966
 21
776.68383799999992
  0
LINE
  8
_0-0_0
  6
CONTINUOUS
 62
    7
 10
-37.747612499999946
 20
776.50054899999998
 11
-37.997612499999946
 21
776.68383799999992
  0
LINE
  8
_0-0_0
  6
CONTINUOUS
 62
    7
 10
-47.497604499999966
 20
776.50054899999998
 11
-47.247604499999966
 21
776.68383799999992
  0
LINE
  8
_0-0_0
  6
CONTINUOUS
 62
    7
 10
-37.747612499999946
 20
776.50054899999998
 11
-37.997612499999946
 21
776.77761899999996
  0
LINE
  8
_0-0_0
  6
CONTINUOUS
 62
    7
 10
-37.997612499999946
 20
776.77761899999996
 11
-47.247604499999966
 21
776.77761899999996
  0
LINE
  8
_0-0_0
  6
CONTINUOUS
 62
    7
 10
-47.497604499999966
 20
776.50054899999998
 11
-47.247604499999966
 21
776.77761899999996
  0
LINE
  8
_0-0_0
  6
CONTINUOUS
 62
    7
 10
-37.747612499999946
 20
776.57333399999993
 11
-37.997612499999946
 21
776.77761899999996
  0
LINE
  8
_0-0_0
  6
CONTINUOUS
 62
    7
 10
-47.497604499999966
 20
776.57333399999993
 11
-47.247604499999966
 21
776.77761899999996
  0
LINE
  8
_0-0_0
  6
CONTINUOUS
 62
    7
 10
-37.747612499999946
 20
776.57333399999993
 11
-37.997612499999946
 21
776.84536800000001
  0
LINE
  8
_0-0_0
  6
CONTINUOUS
 62
    7
 10
-37.997612499999946
 20
776.84536800000001
 11
-47.247604499999966
 21
776.84536800000001
  0
LINE
  8
_0-0_0
  6
CONTINUOUS
 62
    7
 10
-47.497604499999966
 20
776.57333399999993
 11
-47.247604499999966
 21
776.84536800000001
  0
LINE
  8
_0-0_0
  6
CONTINUOUS
 62
    7
 10
-37.747612499999946
 20
776.62228400000004
 11
-37.997612499999946
 21
776.84536800000001
  0
LINE
  8
_0-0_0
  6
CONTINUOUS
 62
    7
 10
-47.497604499999966
 20
776.62228400000004
 11
-47.247604499999966
 21
776.84536800000001
  0
LINE
  8
_0-0_0
  6
CONTINUOUS
 62
    7
 10
-37.747612499999946
 20
776.62228400000004
 11
-37.997612499999946
 21
776.88629199999991
  0
LINE
  8
_0-0_0
  6
CONTINUOUS
 62
    7
 10
-37.997612499999946
 20
776.88629199999991
 11
-47.247604499999966
 21
776.88629199999991
  0
LINE
  8
_0-0_0
  6
CONTINUOUS
 62
    7
 10
-47.497604499999966
 20
776.62228400000004
 11
-47.247604499999966
 21
776.88629199999991
  0
LINE
  8
_0-0_0
  6
CONTINUOUS
 62
    7
 10
-37.747612499999946
 20
776.64691199999993
 11
-37.997612499999946
 21
776.88629199999991
  0
LINE
  8
_0-0_0
  6
CONTINUOUS
 62
    7
 10
-47.497604499999966
 20
776.64691199999993
 11
-47.247604499999966
 21
776.88629199999991
  0
LINE
  8
_0-0_0
  6
CONTINUOUS
 62
    7
 10
-37.747612499999946
 20
776.64691199999993
 11
-37.997612499999946
 21
776.89999399999999
  0
LINE
  8
_0-0_0
  6
CONTINUOUS
 62
    7
 10
-37.997612499999946
 20
776.89999399999999
 11
-47.247604499999966
 21
776.89999399999999
  0
LINE
  8
_0-0_0
  6
CONTINUOUS
 62
    7
 10
-47.497604499999966
 20
776.64691199999993
 11
-47.247604499999966
 21
776.89999399999999
  0
LINE
  8
_0-0_0
  6
CONTINUOUS
 62
    7
 10
7.7023924999999736
 20
762.09997599999997
 11
7.7023924999999736
 21
762.10134900000003
  0
LINE
  8
_0-0_0
  6
CONTINUOUS
 62
    7
 10
7.7023924999999736
 20
762.10134900000003
 11
7.7023924999999736
 21
770.09997599999997
  0
LINE
  8
_0-0_0
  6
CONTINUOUS
 62
    7
 10
-47.497604499999966
 20
776.28698699999995
 11
-47.247604499999966
 21
776.56506400000001
  0
LINE
  8
_0-0_0
  6
CONTINUOUS
 62
    7
 10
-37.497612499999946
 20
776.15515099999993
 11
-37.497612499999946
 21
776.39999399999999
  0
LINE
  8
_0-0_0
  6
CONTINUOUS
 62
    7
 10
-47.497604499999966
 20
772.15307600000006
 11
-47.247604499999966
 21
771.91366599999992
  0
LINE
  8
_0-0_0
  6
CONTINUOUS
 62
    7
 10
-47.497604499999966
 20
772.17767299999991
 11
-47.247604499999966
 21
771.95461999999998
  0
LINE
  8
_0-0_0
  6
CONTINUOUS
 62
    7
 10
-47.497604499999966
 20
772.22665400000005
 11
-47.247604499999966
 21
772.02233899999999
  0
LINE
  8
_0-0_0
  6
CONTINUOUS
 62
    7
 10
-47.497604499999966
 20
772.29943900000001
 11
-47.247604499999966
 21
772.11611900000003
  0
LINE
  8
_0-0_0
  6
CONTINUOUS
 62
    7
 10
-47.497604499999966
 20
772.39523299999996
 11
-47.247604499999966
 21
772.23492399999998
  0
LINE
  8
_0-0_0
  6
CONTINUOUS
 62
    7
 10
-47.497604499999966
 20
772.51297
 11
-47.247604499999966
 21
772.37744199999997
  0
LINE
  8
_0-0_0
  6
CONTINUOUS
 62
    7
 10
-47.497604499999966
 20
772.65139799999997
 11
-47.247604499999966
 21
772.54211399999997
  0
LINE
  8
_0-0_0
  6
CONTINUOUS
 62
    7
 10
-47.497604499999966
 20
772.80899099999999
 11
-47.247604499999966
 21
772.72717299999999
  0
LINE
  8
_0-0_0
  6
CONTINUOUS
 62
    7
 10
-37.997612499999946
 20
772.93051199999991
 11
-47.247604499999966
 21
772.93051199999991
  0
LINE
  8
_0-0_0
  6
CONTINUOUS
 62
    7
 10
-47.497604499999966
 20
772.98400900000001
 11
-47.247604499999966
 21
772.93051199999991
  0
LINE
  8
_0-0_0
  6
CONTINUOUS
 62
    7
 10
-47.497604499999966
 20
773.37851000000001
 11
-47.247604499999966
 21
773.38314800000001
  0
LINE
  8
_0-0_0
  6
CONTINUOUS
 62
    7
 10
-37.747612499999946
 20
773.37851000000001
 11
-47.497604499999966
 21
773.37851000000001
  0
LINE
  8
_0-0_0
  6
CONTINUOUS
 62
    7
 10
-47.497604499999966
 20
773.593659
 11
-47.247604499999966
 21
773.62744199999997
  0
LINE
  8
_0-0_0
  6
CONTINUOUS
 62
    7
 10
-47.497604499999966
 20
773.81765799999994
 11
-47.247604499999966
 21
773.88021900000001
  0
LINE
  8
_0-0_0
  6
CONTINUOUS
 62
    7
 10
-47.497604499999966
 20
774.04800399999999
 11
-47.247604499999966
 21
774.13867200000004
  0
LINE
  8
_0-0_0
  6
CONTINUOUS
 62
    7
 10
-47.497604499999966
 20
774.28222699999992
 11
-47.247604499999966
 21
774.39999399999999
  0
LINE
  8
_0-0_0
  6
CONTINUOUS
 62
    7
 10
-47.497604499999966
 20
774.51773099999991
 11
-47.247604499999966
 21
774.66131599999994
  0
LINE
  8
_0-0_0
  6
CONTINUOUS
 62
    7
 10
-47.497604499999966
 20
774.75195299999996
 11
-47.247604499999966
 21
774.91976899999997
  0
LINE
  8
_0-0_0
  6
CONTINUOUS
 62
    7
 10
-47.497604499999966
 20
774.98233000000005
 11
-47.247604499999966
 21
775.17251599999997
  0
LINE
  8
_0-0_0
  6
CONTINUOUS
 62
    7
 10
-47.497604499999966
 20
775.20632899999998
 11
-47.247604499999966
 21
775.41683999999998
  0
LINE
  8
_0-0_0
  6
CONTINUOUS
 62
    7
 10
-47.497604499999966
 20
775.42147799999998
 11
-47.247604499999966
 21
775.64999399999999
  0
LINE
  8
_0-0_0
  6
CONTINUOUS
 62
    7
 10
-47.497604499999966
 20
775.62542699999995
 11
-47.247604499999966
 21
775.86944599999993
  0
LINE
  8
_0-0_0
  6
CONTINUOUS
 62
    7
 10
-47.497604499999966
 20
775.81594900000005
 11
-47.247604499999966
 21
776.07281499999999
  0
LINE
  8
_0-0_0
  6
CONTINUOUS
 62
    7
 10
-47.497604499999966
 20
775.99096699999996
 11
-47.247604499999966
 21
776.25784299999998
  0
LINE
  8
_0-0_0
  6
CONTINUOUS
 62
    7
 10
-47.497604499999966
 20
776.14855999999997
 11
-47.247604499999966
 21
776.42251599999997
  0
LINE
  8
_0-0_0
  6
CONTINUOUS
 62
    7
 10
-47.497604499999966
 20
773.17456100000004
 11
-47.247604499999966
 21
772.93051199999991
  0
LINE
  8
_0-0_0
  6
CONTINUOUS
 62
    7
 10
-47.497604499999966
 20
773.37851000000001
 11
-47.247604499999966
 21
773.14999399999999
  0
LINE
  8
_0-0_0
  6
CONTINUOUS
 62
    7
 10
-47.497604499999966
 20
759.68698100000006
 11
-47.247604499999966
 21
759.965057
  0
LINE
  8
_0-0_0
  6
CONTINUOUS
 62
    7
 10
-37.497612499999946
 20
759.55514500000004
 11
-37.497612499999946
 21
759.79998799999998
  0
LINE
  8
_0-0_0
  6
CONTINUOUS
 62
    7
 10
-47.497604499999966
 20
755.55306999999993
 11
-47.247604499999966
 21
755.31368999999995
  0
LINE
  8
_0-0_0
  6
CONTINUOUS
 62
    7
 10
-47.497604499999966
 20
755.57769800000005
 11
-47.247604499999966
 21
755.35461399999997
  0
LINE
  8
_0-0_0
  6
CONTINUOUS
 62
    7
 10
-47.497604499999966
 20
755.62664799999993
 11
-47.247604499999966
 21
755.42233299999998
  0
LINE
  8
_0-0_0
  6
CONTINUOUS
 62
    7
 10
-47.497604499999966
 20
755.699432
 11
-47.247604499999966
 21
755.51611300000002
  0
LINE
  8
_0-0_0
  6
CONTINUOUS
 62
    7
 10
-47.497604499999966
 20
755.79522700000007
 11
-47.247604499999966
 21
755.63491799999997
  0
LINE
  8
_0-0_0
  6
CONTINUOUS
 62
    7
 10
-47.497604499999966
 20
755.91299400000003
 11
-47.247604499999966
 21
755.77743499999997
  0
LINE
  8
_0-0_0
  6
CONTINUOUS
 62
    7
 10
-47.497604499999966
 20
756.051422
 11
-47.247604499999966
 21
755.94210799999996
  0
LINE
  8
_0-0_0
  6
CONTINUOUS
 62
    7
 10
-47.497604499999966
 20
756.20898399999999
 11
-47.247604499999966
 21
756.12716699999999
  0
LINE
  8
_0-0_0
  6
CONTINUOUS
 62
    7
 10
-37.997612499999946
 20
756.33053599999994
 11
-47.247604499999966
 21
756.33053599999994
  0
LINE
  8
_0-0_0
  6
CONTINUOUS
 62
    7
 10
-47.497604499999966
 20
756.38400300000001
 11
-47.247604499999966
 21
756.33053599999994
  0
LINE
  8
_0-0_0
  6
CONTINUOUS
 62
    7
 10
-47.497604499999966
 20
756.778504
 11
-47.247604499999966
 21
756.783142
  0
LINE
  8
_0-0_0
  6
CONTINUOUS
 62
    7
 10
-37.747612499999946
 20
756.778504
 11
-47.497604499999966
 21
756.778504
  0
LINE
  8
_0-0_0
  6
CONTINUOUS
 62
    7
 10
-47.497604499999966
 20
756.993652
 11
-47.247604499999966
 21
757.02743499999997
  0
LINE
  8
_0-0_0
  6
CONTINUOUS
 62
    7
 10
-47.497604499999966
 20
757.21765099999993
 11
-47.247604499999966
 21
757.280213
  0
LINE
  8
_0-0_0
  6
CONTINUOUS
 62
    7
 10
-47.497604499999966
 20
757.44799799999998
 11
-47.247604499999966
 21
757.53866599999992
  0
LINE
  8
_0-0_0
  6
CONTINUOUS
 62
    7
 10
-47.497604499999966
 20
757.68222100000003
 11
-47.247604499999966
 21
757.79998799999998
  0
LINE
  8
_0-0_0
  6
CONTINUOUS
 62
    7
 10
-47.497604499999966
 20
757.91775499999994
 11
-47.247604499999966
 21
758.06131000000005
  0
LINE
  8
_0-0_0
  6
CONTINUOUS
 62
    7
 10
-47.497604499999966
 20
758.15197799999999
 11
-47.247604499999966
 21
758.31976299999997
  0
LINE
  8
_0-0_0
  6
CONTINUOUS
 62
    7
 10
-47.497604499999966
 20
758.38232399999993
 11
-47.247604499999966
 21
758.57254
  0
LINE
  8
_0-0_0
  6
CONTINUOUS
 62
    7
 10
-47.497604499999966
 20
758.60632299999997
 11
-47.247604499999966
 21
758.81683399999997
  0
LINE
  8
_0-0_0
  6
CONTINUOUS
 62
    7
 10
-47.497604499999966
 20
758.82147199999997
 11
-47.247604499999966
 21
759.04998799999998
  0
LINE
  8
_0-0_0
  6
CONTINUOUS
 62
    7
 10
-47.497604499999966
 20
759.02542100000005
 11
-47.247604499999966
 21
759.26944000000003
  0
LINE
  8
_0-0_0
  6
CONTINUOUS
 62
    7
 10
-47.497604499999966
 20
759.21597300000008
 11
-47.247604499999966
 21
759.47280899999998
  0
LINE
  8
_0-0_0
  6
CONTINUOUS
 62
    7
 10
-47.497604499999966
 20
759.39096100000006
 11
-47.247604499999966
 21
759.65783699999997
  0
LINE
  8
_0-0_0
  6
CONTINUOUS
 62
    7
 10
-47.497604499999966
 20
759.54855399999997
 11
-47.247604499999966
 21
759.82254
  0
LINE
  8
_0-0_0
  6
CONTINUOUS
 62
    7
 10
-47.497604499999966
 20
756.57455499999992
 11
-47.247604499999966
 21
756.33053599999994
  0
LINE
  8
_0-0_0
  6
CONTINUOUS
 62
    7
 10
-47.497604499999966
 20
756.778504
 11
-47.247604499999966
 21
756.54998799999998
  0
LINE
  8
_0-0_0
  6
CONTINUOUS
 62
    7
 10
-50.297607500000026
 20
761.56185899999991
 11
-50.297607500000026
 21
763.83093299999996
  0
LINE
  8
_0-0_0
  6
CONTINUOUS
 62
    7
 10
-50.297607500000026
 20
763.83093299999996
 11
-50.297607500000026
 21
770.63809199999992
  0
LINE
  8
_0-0_0
  6
CONTINUOUS
 62
    7
 10
-47.497604499999966
 20
773.37851000000001
 11
-47.497604499999966
 21
773.593659
  0
LINE
  8
_0-0_0
  6
CONTINUOUS
 62
    7
 10
-47.497604499999966
 20
773.593659
 11
-47.497604499999966
 21
773.81765799999994
  0
LINE
  8
_0-0_0
  6
CONTINUOUS
 62
    7
 10
-47.497604499999966
 20
773.81765799999994
 11
-47.497604499999966
 21
774.04800399999999
  0
LINE
  8
_0-0_0
  6
CONTINUOUS
 62
    7
 10
-47.497604499999966
 20
774.04800399999999
 11
-47.497604499999966
 21
774.28222699999992
  0
LINE
  8
_0-0_0
  6
CONTINUOUS
 62
    7
 10
-47.497604499999966
 20
774.28222699999992
 11
-47.497604499999966
 21
774.51773099999991
  0
LINE
  8
_0-0_0
  6
CONTINUOUS
 62
    7
 10
-47.497604499999966
 20
774.51773099999991
 11
-47.497604499999966
 21
774.75195299999996
  0
LINE
  8
_0-0_0
  6
CONTINUOUS
 62
    7
 10
-47.497604499999966
 20
774.75195299999996
 11
-47.497604499999966
 21
774.98233000000005
  0
LINE
  8
_0-0_0
  6
CONTINUOUS
 62
    7
 10
-47.497604499999966
 20
774.98233000000005
 11
-47.497604499999966
 21
775.20632899999998
  0
LINE
  8
_0-0_0
  6
CONTINUOUS
 62
    7
 10
-47.497604499999966
 20
775.20632899999998
 11
-47.497604499999966
 21
775.42147799999998
  0
LINE
  8
_0-0_0
  6
CONTINUOUS
 62
    7
 10
-47.497604499999966
 20
775.42147799999998
 11
-47.497604499999966
 21
775.62542699999995
  0
LINE
  8
_0-0_0
  6
CONTINUOUS
 62
    7
 10
-47.497604499999966
 20
775.62542699999995
 11
-47.497604499999966
 21
775.81594900000005
  0
LINE
  8
_0-0_0
  6
CONTINUOUS
 62
    7
 10
-47.497604499999966
 20
775.81594900000005
 11
-47.497604499999966
 21
775.99096699999996
  0
LINE
  8
_0-0_0
  6
CONTINUOUS
 62
    7
 10
-47.497604499999966
 20
775.99096699999996
 11
-47.497604499999966
 21
776.14855999999997
  0
LINE
  8
_0-0_0
  6
CONTINUOUS
 62
    7
 10
-47.497604499999966
 20
776.14855999999997
 11
-47.497604499999966
 21
776.28698699999995
  0
LINE
  8
_0-0_0
  6
CONTINUOUS
 62
    7
 10
-47.497604499999966
 20
776.28698699999995
 11
-47.497604499999966
 21
776.37454200000002
  0
LINE
  8
_0-0_0
  6
CONTINUOUS
 62
    7
 10
-47.497604499999966
 20
776.37454200000002
 11
-47.497604499999966
 21
776.40475500000002
  0
LINE
  8
_0-0_0
  6
CONTINUOUS
 62
    7
 10
-47.497604499999966
 20
776.40475500000002
 11
-47.497604499999966
 21
776.50054899999998
  0
LINE
  8
_0-0_0
  6
CONTINUOUS
 62
    7
 10
-47.497604499999966
 20
776.50054899999998
 11
-47.497604499999966
 21
776.57333399999993
  0
LINE
  8
_0-0_0
  6
CONTINUOUS
 62
    7
 10
-47.497604499999966
 20
776.57333399999993
 11
-47.497604499999966
 21
776.64999399999999
  0
LINE
  8
_0-0_0
  6
CONTINUOUS
 62
    7
 10
-47.497604499999966
 20
776.62228400000004
 11
-47.497604499999966
 21
776.64691199999993
  0
LINE
  8
_0-0_0
  6
CONTINUOUS
 62
    7
 10
-47.497604499999966
 20
776.64691199999993
 11
-47.497604499999966
 21
776.64999399999999
  0
LINE
  8
_0-0_0
  6
CONTINUOUS
 62
    7
 10
-47.497604499999966
 20
772.14999399999999
 11
-47.497604499999966
 21
772.15307600000006
  0
LINE
  8
_0-0_0
  6
CONTINUOUS
 62
    7
 10
-47.497604499999966
 20
772.15307600000006
 11
-47.497604499999966
 21
772.17767299999991
  0
LINE
  8
_0-0_0
  6
CONTINUOUS
 62
    7
 10
-47.497604499999966
 20
772.17767299999991
 11
-47.497604499999966
 21
772.22665400000005
  0
LINE
  8
_0-0_0
  6
CONTINUOUS
 62
    7
 10
-47.497604499999966
 20
772.22665400000005
 11
-47.497604499999966
 21
772.29943900000001
  0
LINE
  8
_0-0_0
  6
CONTINUOUS
 62
    7
 10
-47.497604499999966
 20
772.29943900000001
 11
-47.497604499999966
 21
772.39523299999996
  0
LINE
  8
_0-0_0
  6
CONTINUOUS
 62
    7
 10
-47.497604499999966
 20
772.39523299999996
 11
-47.497604499999966
 21
772.51297
  0
LINE
  8
_0-0_0
  6
CONTINUOUS
 62
    7
 10
-47.497604499999966
 20
772.51297
 11
-47.497604499999966
 21
772.65139799999997
  0
LINE
  8
_0-0_0
  6
CONTINUOUS
 62
    7
 10
-47.497604499999966
 20
772.65139799999997
 11
-47.497604499999966
 21
772.80899099999999
  0
LINE
  8
_0-0_0
  6
CONTINUOUS
 62
    7
 10
-47.497604499999966
 20
772.80899099999999
 11
-47.497604499999966
 21
772.98400900000001
  0
LINE
  8
_0-0_0
  6
CONTINUOUS
 62
    7
 10
-47.497604499999966
 20
772.98400900000001
 11
-47.497604499999966
 21
773.17456100000004
  0
LINE
  8
_0-0_0
  6
CONTINUOUS
 62
    7
 10
-47.497604499999966
 20
773.32128899999998
 11
-47.497604499999966
 21
773.37851000000001
  0
LINE
  8
_0-0_0
  6
CONTINUOUS
 62
    7
 10
-47.497604499999966
 20
773.17456100000004
 11
-47.497604499999966
 21
773.32128899999998
  0
LINE
  8
_0-0_0
  6
CONTINUOUS
 62
    7
 10
-47.497604499999966
 20
756.778504
 11
-47.497604499999966
 21
756.993652
  0
LINE
  8
_0-0_0
  6
CONTINUOUS
 62
    7
 10
-47.497604499999966
 20
756.993652
 11
-47.497604499999966
 21
757.21765099999993
  0
LINE
  8
_0-0_0
  6
CONTINUOUS
 62
    7
 10
-47.497604499999966
 20
757.21765099999993
 11
-47.497604499999966
 21
757.44799799999998
  0
LINE
  8
_0-0_0
  6
CONTINUOUS
 62
    7
 10
-47.497604499999966
 20
757.44799799999998
 11
-47.497604499999966
 21
757.68222100000003
  0
LINE
  8
_0-0_0
  6
CONTINUOUS
 62
    7
 10
-47.497604499999966
 20
757.68222100000003
 11
-47.497604499999966
 21
757.91775499999994
  0
LINE
  8
_0-0_0
  6
CONTINUOUS
 62
    7
 10
-47.497604499999966
 20
757.91775499999994
 11
-47.497604499999966
 21
758.15197799999999
  0
LINE
  8
_0-0_0
  6
CONTINUOUS
 62
    7
 10
-47.497604499999966
 20
758.15197799999999
 11
-47.497604499999966
 21
758.38232399999993
  0
LINE
  8
_0-0_0
  6
CONTINUOUS
 62
    7
 10
-47.497604499999966
 20
758.38232399999993
 11
-47.497604499999966
 21
758.60632299999997
  0
LINE
  8
_0-0_0
  6
CONTINUOUS
 62
    7
 10
-47.497604499999966
 20
758.60632299999997
 11
-47.497604499999966
 21
758.82147199999997
  0
LINE
  8
_0-0_0
  6
CONTINUOUS
 62
    7
 10
-47.497604499999966
 20
758.82147199999997
 11
-47.497604499999966
 21
759.02542100000005
  0
LINE
  8
_0-0_0
  6
CONTINUOUS
 62
    7
 10
-47.497604499999966
 20
759.02542100000005
 11
-47.497604499999966
 21
759.21597300000008
  0
LINE
  8
_0-0_0
  6
CONTINUOUS
 62
    7
 10
-47.497604499999966
 20
759.21597300000008
 11
-47.497604499999966
 21
759.39096100000006
  0
LINE
  8
_0-0_0
  6
CONTINUOUS
 62
    7
 10
-47.497604499999966
 20
759.39096100000006
 11
-47.497604499999966
 21
759.54855399999997
  0
LINE
  8
_0-0_0
  6
CONTINUOUS
 62
    7
 10
-47.497604499999966
 20
759.54855399999997
 11
-47.497604499999966
 21
759.68698100000006
  0
LINE
  8
_0-0_0
  6
CONTINUOUS
 62
    7
 10
-47.497604499999966
 20
759.68698100000006
 11
-47.497604499999966
 21
759.77453600000001
  0
LINE
  8
_0-0_0
  6
CONTINUOUS
 62
    7
 10
-47.497604499999966
 20
759.77453600000001
 11
-47.497604499999966
 21
759.80474900000002
  0
LINE
  8
_0-0_0
  6
CONTINUOUS
 62
    7
 10
-47.497604499999966
 20
759.80474900000002
 11
-47.497604499999966
 21
759.90054299999997
  0
LINE
  8
_0-0_0
  6
CONTINUOUS
 62
    7
 10
-47.497604499999966
 20
759.90054299999997
 11
-47.497604499999966
 21
759.97332800000004
  0
LINE
  8
_0-0_0
  6
CONTINUOUS
 62
    7
 10
-47.497604499999966
 20
759.97332800000004
 11
-47.497604499999966
 21
760.04998799999998
  0
LINE
  8
_0-0_0
  6
CONTINUOUS
 62
    7
 10
-47.497604499999966
 20
760.02227799999991
 11
-47.497604499999966
 21
760.04690600000004
  0
LINE
  8
_0-0_0
  6
CONTINUOUS
 62
    7
 10
-47.497604499999966
 20
760.04690600000004
 11
-47.497604499999966
 21
760.04998799999998
  0
LINE
  8
_0-0_0
  6
CONTINUOUS
 62
    7
 10
-47.497604499999966
 20
755.54998799999998
 11
-47.497604499999966
 21
755.55306999999993
  0
LINE
  8
_0-0_0
  6
CONTINUOUS
 62
    7
 10
-47.497604499999966
 20
755.55306999999993
 11
-47.497604499999966
 21
755.57769800000005
  0
LINE
  8
_0-0_0
  6
CONTINUOUS
 62
    7
 10
-47.497604499999966
 20
755.57769800000005
 11
-47.497604499999966
 21
755.62664799999993
  0
LINE
  8
_0-0_0
  6
CONTINUOUS
 62
    7
 10
-47.497604499999966
 20
755.54998799999998
 11
-47.497604499999966
 21
755.699432
  0
LINE
  8
_0-0_0
  6
CONTINUOUS
 62
    7
 10
-47.497604499999966
 20
755.699432
 11
-47.497604499999966
 21
755.79522700000007
  0
LINE
  8
_0-0_0
  6
CONTINUOUS
 62
    7
 10
-47.497604499999966
 20
755.79522700000007
 11
-47.497604499999966
 21
755.91299400000003
  0
LINE
  8
_0-0_0
  6
CONTINUOUS
 62
    7
 10
-47.497604499999966
 20
755.91299400000003
 11
-47.497604499999966
 21
756.051422
  0
LINE
  8
_0-0_0
  6
CONTINUOUS
 62
    7
 10
-47.497604499999966
 20
756.051422
 11
-47.497604499999966
 21
756.20898399999999
  0
LINE
  8
_0-0_0
  6
CONTINUOUS
 62
    7
 10
-47.497604499999966
 20
756.20898399999999
 11
-47.497604499999966
 21
756.38400300000001
  0
LINE
  8
_0-0_0
  6
CONTINUOUS
 62
    7
 10
-47.497604499999966
 20
756.38400300000001
 11
-47.497604499999966
 21
756.57455499999992
  0
LINE
  8
_0-0_0
  6
CONTINUOUS
 62
    7
 10
-47.497604499999966
 20
756.72128299999997
 11
-47.497604499999966
 21
756.778504
  0
LINE
  8
_0-0_0
  6
CONTINUOUS
 62
    7
 10
-47.497604499999966
 20
756.57455499999992
 11
-47.497604499999966
 21
756.72128299999997
  0
LINE
  8
_0-0_0
  6
CONTINUOUS
 62
    7
 10
-51.097610499999973
 20
763.59997599999997
 11
-51.097610499999973
 21
771.09997599999997
  0
LINE
  8
_0-0_0
  6
CONTINUOUS
 62
    7
 10
-51.097610499999973
 20
761.09997599999997
 11
-51.097610499999973
 21
763.59997599999997
  0
LINE
  8
_0-0_0
  6
CONTINUOUS
 62
    7
 10
-62.497604499999966
 20
772.59997599999997
 11
-52.789779500000009
 21
772.59997599999997
  0
LINE
  8
_0-0_0
  6
CONTINUOUS
 62
    7
 10
-52.747604499999966
 20
772.59997599999997
 11
-52.789779500000009
 21
772.59997599999997
  0
LINE
  8
_0-0_0
  6
CONTINUOUS
 62
    7
 10
-62.797607500000026
 20
763.88797
 11
-62.738800500000025
 21
763.64111300000002
  0
LINE
  8
_0-0_0
  6
CONTINUOUS
 62
    7
 10
-62.738800500000025
 20
763.64111300000002
 11
-62.68904150000003
 21
763.44879199999991
  0
LINE
  8
_0-0_0
  6
CONTINUOUS
 62
    7
 10
-62.68904150000003
 20
763.44879199999991
 11
-62.617919499999971
 21
763.18304499999999
  0
LINE
  8
_0-0_0
  6
CONTINUOUS
 62
    7
 10
-62.617919499999971
 20
763.18304499999999
 11
-62.584960499999966
 21
763.05633599999999
  0
LINE
  8
_0-0_0
  6
CONTINUOUS
 62
    7
 10
-62.584960499999966
 20
763.05633599999999
 11
-62.559707500000059
 21
762.95291099999997
  0
LINE
  8
_0-0_0
  6
CONTINUOUS
 62
    7
 10
-62.559707500000059
 20
762.95291099999997
 11
-62.53767449999998
 21
762.852936
  0
LINE
  8
_0-0_0
  6
CONTINUOUS
 62
    7
 10
-62.53767449999998
 20
762.852936
 11
-62.516281499999991
 21
762.73523
  0
LINE
  8
_0-0_0
  6
CONTINUOUS
 62
    7
 10
-62.516281499999991
 20
762.73523
 11
-62.507721500000002
 21
762.67309599999999
  0
LINE
  8
_0-0_0
  6
CONTINUOUS
 62
    7
 10
-62.507721500000002
 20
762.67309599999999
 11
-62.501632500000028
 21
762.61248799999998
  0
LINE
  8
_0-0_0
  6
CONTINUOUS
 62
    7
 10
-62.501632500000028
 20
762.61248799999998
 11
-62.4986265
 21
762.56326300000001
  0
LINE
  8
_0-0_0
  6
CONTINUOUS
 62
    7
 10
-62.4986265
 20
762.56326300000001
 11
-62.497604499999966
 21
762.51504499999999
  0
LINE
  8
_0-0_0
  6
CONTINUOUS
 62
    7
 10
-62.797607500000026
 20
768.31198100000006
 11
-62.738815499999987
 21
768.558807
  0
LINE
  8
_0-0_0
  6
CONTINUOUS
 62
    7
 10
-62.738815499999987
 20
768.558807
 11
-62.68904150000003
 21
768.75116000000003
  0
LINE
  8
_0-0_0
  6
CONTINUOUS
 62
    7
 10
-62.68904150000003
 20
768.75116000000003
 11
-62.617919499999971
 21
769.01693699999998
  0
LINE
  8
_0-0_0
  6
CONTINUOUS
 62
    7
 10
-62.617919499999971
 20
769.01693699999998
 11
-62.584960499999966
 21
769.14367700000003
  0
LINE
  8
_0-0_0
  6
CONTINUOUS
 62
    7
 10
-62.584960499999966
 20
769.14367700000003
 11
-62.559692499999983
 21
769.24707000000001
  0
LINE
  8
_0-0_0
  6
CONTINUOUS
 62
    7
 10
-62.559692499999983
 20
769.24707000000001
 11
-62.53767449999998
 21
769.34701500000006
  0
LINE
  8
_0-0_0
  6
CONTINUOUS
 62
    7
 10
-62.53767449999998
 20
769.34701500000006
 11
-62.516296499999953
 21
769.46472199999994
  0
LINE
  8
_0-0_0
  6
CONTINUOUS
 62
    7
 10
-62.516296499999953
 20
769.46472199999994
 11
-62.507721500000002
 21
769.52685599999995
  0
LINE
  8
_0-0_0
  6
CONTINUOUS
 62
    7
 10
-62.507721500000002
 20
769.52685599999995
 11
-62.501632500000028
 21
769.58746300000007
  0
LINE
  8
_0-0_0
  6
CONTINUOUS
 62
    7
 10
-62.501632500000028
 20
769.58746300000007
 11
-62.4986265
 21
769.63671899999997
  0
LINE
  8
_0-0_0
  6
CONTINUOUS
 62
    7
 10
-62.4986265
 20
769.63671899999997
 11
-62.497604499999966
 21
769.68493699999999
  0
LINE
  8
_0-0_0
  6
CONTINUOUS
 62
    7
 10
-62.497604499999966
 20
764.53793300000007
 11
-62.497604499999966
 21
763.49227900000005
  0
LINE
  8
_0-0_0
  6
CONTINUOUS
 62
    7
 10
-62.497604499999966
 20
762.207672
 11
-62.497604499999966
 21
763.49227900000005
  0
LINE
  8
_0-0_0
  6
CONTINUOUS
 62
    7
 10
-62.497604499999966
 20
762.09228499999995
 11
-62.497604499999966
 21
762.207672
  0
ARC
  8
_0-0_0
  6
CONTINUOUS
 62
    7
 10
-64.497604499999966
 20
773.45846600000004
 40
2
 50
0
 51
71.565000999999995
  0
LINE
  8
_0-0_0
  6
CONTINUOUS
 62
    7
 10
-52.789779500000009
 20
772.59997599999997
 11
-52.735290500000019
 21
772.53006000000005
  0
LINE
  8
_0-0_0
  6
CONTINUOUS
 62
    7
 10
-52.735290500000019
 20
772.53006000000005
 11
-52.684188500000005
 21
772.46121199999993
  0
LINE
  8
_0-0_0
  6
CONTINUOUS
 62
    7
 10
-52.684188500000005
 20
772.46121199999993
 11
-52.636550499999998
 21
772.39370699999995
  0
LINE
  8
_0-0_0
  6
CONTINUOUS
 62
    7
 10
-52.636550499999998
 20
772.39370699999995
 11
-52.592056500000012
 21
772.327179
  0
LINE
  8
_0-0_0
  6
CONTINUOUS
 62
    7
 10
-52.592056500000012
 20
772.327179
 11
-52.537338500000033
 21
772.23962400000005
  0
LINE
  8
_0-0_0
  6
CONTINUOUS
 62
    7
 10
-52.537338500000033
 20
772.23962400000005
 11
-52.48782349999999
 21
772.15353400000004
  0
LINE
  8
_0-0_0
  6
CONTINUOUS
 62
    7
 10
-52.48782349999999
 20
772.15353400000004
 11
-52.443359500000042
 21
772.06869499999993
  0
LINE
  8
_0-0_0
  6
CONTINUOUS
 62
    7
 10
-52.443359500000042
 20
772.06869499999993
 11
-52.396392500000047
 21
771.96838400000001
  0
LINE
  8
_0-0_0
  6
CONTINUOUS
 62
    7
 10
-52.396392500000047
 20
771.96838400000001
 11
-52.356185500000038
 21
771.86944599999993
  0
LINE
  8
_0-0_0
  6
CONTINUOUS
 62
    7
 10
-52.356185500000038
 20
771.86944599999993
 11
-52.322525499999983
 21
771.77169800000001
  0
LINE
  8
_0-0_0
  6
CONTINUOUS
 62
    7
 10
-52.322525499999983
 20
771.77169800000001
 11
-52.29522750000001
 21
771.67489599999999
  0
LINE
  8
_0-0_0
  6
CONTINUOUS
 62
    7
 10
-52.29522750000001
 20
771.67489599999999
 11
-52.27418549999993
 21
771.57882700000005
  0
LINE
  8
_0-0_0
  6
CONTINUOUS
 62
    7
 10
-52.27418549999993
 20
771.57882700000005
 11
-52.258255500000018
 21
771.47497599999997
  0
LINE
  8
_0-0_0
  6
CONTINUOUS
 62
    7
 10
-52.258255500000018
 20
771.47497599999997
 11
-52.249496499999964
 21
771.37155200000007
  0
LINE
  8
_0-0_0
  6
CONTINUOUS
 62
    7
 10
-52.249496499999964
 20
771.37155200000007
 11
-52.247863499999994
 21
771.26831100000004
  0
LINE
  8
_0-0_0
  6
CONTINUOUS
 62
    7
 10
-52.247863499999994
 20
771.26831100000004
 11
-52.253326499999957
 21
771.16503899999998
  0
LINE
  8
_0-0_0
  6
CONTINUOUS
 62
    7
 10
-52.253326499999957
 20
771.16503899999998
 11
-52.265945500000043
 21
771.06143199999997
  0
LINE
  8
_0-0_0
  6
CONTINUOUS
 62
    7
 10
-52.265945500000043
 20
771.06143199999997
 11
-52.28575150000006
 21
770.95727499999998
  0
LINE
  8
_0-0_0
  6
CONTINUOUS
 62
    7
 10
-52.28575150000006
 20
770.95727499999998
 11
-52.312896499999965
 21
770.85232599999995
  0
LINE
  8
_0-0_0
  6
CONTINUOUS
 62
    7
 10
-52.312896499999965
 20
770.85232599999995
 11
-52.347549500000014
 21
770.746307
  0
LINE
  8
_0-0_0
  6
CONTINUOUS
 62
    7
 10
-52.347549500000014
 20
770.746307
 11
-52.389892499999974
 21
770.63891599999999
  0
LINE
  8
_0-0_0
  6
CONTINUOUS
 62
    7
 10
-52.389892499999974
 20
770.63891599999999
 11
-52.44021650000002
 21
770.52990699999998
  0
LINE
  8
_0-0_0
  6
CONTINUOUS
 62
    7
 10
-52.44021650000002
 20
770.52990699999998
 11
-52.494461499999943
 21
770.42678799999999
  0
LINE
  8
_0-0_0
  6
CONTINUOUS
 62
    7
 10
-52.494461499999943
 20
770.42678799999999
 11
-52.556167500000015
 21
770.32171599999992
  0
LINE
  8
_0-0_0
  6
CONTINUOUS
 62
    7
 10
-52.556167500000015
 20
770.32171599999992
 11
-52.625686500000029
 21
770.21447799999999
  0
LINE
  8
_0-0_0
  6
CONTINUOUS
 62
    7
 10
-52.625686500000029
 20
770.21447799999999
 11
-52.703399499999932
 21
770.10476700000004
  0
LINE
  8
_0-0_0
  6
CONTINUOUS
 62
    7
 10
-52.703399499999932
 20
770.10476700000004
 11
-52.789779500000009
 21
769.99227900000005
  0
LINE
  8
_0-0_0
  6
CONTINUOUS
 62
    7
 10
-62.497604499999966
 20
770.10766599999999
 11
-62.497604499999966
 21
769.99227900000005
  0
LINE
  8
_0-0_0
  6
CONTINUOUS
 62
    7
 10
-62.497604499999966
 20
768.707672
 11
-62.497604499999966
 21
767.66204799999991
  0
LINE
  8
_0-0_0
  6
CONTINUOUS
 62
    7
 10
-62.497604499999966
 20
763.49227900000005
 11
-52.789779500000009
 21
763.49227900000005
  0
LINE
  8
_0-0_0
  6
CONTINUOUS
 62
    7
 10
-62.497604499999966
 20
762.207672
 11
-52.789779500000009
 21
762.207672
  0
LINE
  8
_0-0_0
  6
CONTINUOUS
 62
    7
 10
-51.497604499999966
 20
768.83154300000001
 11
-51.497604499999966
 21
771.34997599999997
  0
LINE
  8
_0-0_0
  6
CONTINUOUS
 62
    7
 10
-62.497604499999966
 20
773.45846600000004
 11
-62.497604499999966
 21
770.10766599999999
  0
LINE
  8
_0-0_0
  6
CONTINUOUS
 62
    7
 10
-73.497604499999966
 20
755.29998799999998
 11
-73.497604499999966
 21
755.55004899999994
  0
LINE
  8
_0-0_0
  6
CONTINUOUS
 62
    7
 10
-97.997604499999966
 20
775.39999399999999
 11
-102.99761949999993
 21
775.39999399999999
  0
ARC
  8
_0-0_0
  6
CONTINUOUS
 62
    7
 10
-102.99761949999993
 20
770.89999399999999
 40
4.5
 50
90.000003000000007
 51
269.99999700000006
  0
LINE
  8
_0-0_0
  6
CONTINUOUS
 62
    7
 10
-97.997604499999966
 20
766.39999399999999
 11
-102.99761949999993
 21
766.39999399999999
  0
ARC
  8
_0-0_0
  6
CONTINUOUS
 62
    7
 10
-97.997604499999966
 20
770.89999399999999
 40
4.5
 50
269.99999700000001
 51
90.000002999999992
  0
LINE
  8
_0-0_0
  6
CONTINUOUS
 62
    7
 10
-153.99761949999993
 20
775.39999399999999
 11
-158.99761949999993
 21
775.39999399999999
  0
ARC
  8
_0-0_0
  6
CONTINUOUS
 62
    7
 10
-158.99761949999993
 20
770.89999399999999
 40
4.5
 50
90.000003000000007
 51
269.99999700000006
  0
LINE
  8
_0-0_0
  6
CONTINUOUS
 62
    7
 10
-153.99761949999993
 20
766.39999399999999
 11
-158.99761949999993
 21
766.39999399999999
  0
ARC
  8
_0-0_0
  6
CONTINUOUS
 62
    7
 10
-153.99761949999993
 20
770.89999399999999
 40
4.5
 50
269.99999700000001
 51
90.000002999999992
  0
LINE
  8
_0-0_0
  6
CONTINUOUS
 62
    7
 10
-128.6850895
 20
774.96963499999993
 11
-129.98509249999995
 21
771.46963499999993
  0
LINE
  8
_0-0_0
  6
CONTINUOUS
 62
    7
 10
-129.79760750000003
 20
771.19998199999998
 11
-127.19760150000002
 21
771.19998199999998
  0
ARC
  8
_0-0_0
  6
CONTINUOUS
 62
    7
 10
-127.19760150000002
 20
771.39999399999999
 40
0.2
 50
269.99999700000001
 51
20.376435000000019
  0
ARC
  8
_0-0_0
  6
CONTINUOUS
 62
    7
 10
-128.49761949999993
 20
774.89999399999999
 40
0.2
 50
20.376434999999997
 51
159.62357000000003
  0
LINE
  8
_0-0_0
  6
CONTINUOUS
 62
    7
 10
-73.497604499999966
 20
755.29998799999998
 11
-73.497604499999966
 21
757.29998799999998
  0
ARC
  8
_0-0_0
  6
CONTINUOUS
 62
    7
 10
-107.49761949999993
 20
761.69998199999998
 40
3
 50
180.00000900000003
 51
269.99999700000001
  0
LINE
  8
_0-0_0
  6
CONTINUOUS
 62
    7
 10
-107.49761949999993
 20
758.69998199999998
 11
-92.497604499999966
 21
758.69998199999998
  0
ARC
  8
_0-0_0
  6
CONTINUOUS
 62
    7
 10
-92.497604499999966
 20
761.69998199999998
 40
3
 50
269.99999700000001
 51
0
  0
ARC
  8
_0-0_0
  6
CONTINUOUS
 62
    7
 10
-92.497604499999966
 20
775.29998799999998
 40
3
 50
0
 51
90.000003000000007
  0
LINE
  8
_0-0_0
  6
CONTINUOUS
 62
    7
 10
-92.497604499999966
 20
778.29998799999998
 11
-107.49761949999993
 21
778.29998799999998
  0
ARC
  8
_0-0_0
  6
CONTINUOUS
 62
    7
 10
-107.49761949999993
 20
775.29998799999998
 40
3
 50
90.000003000000007
 51
180.00000900000001
  0
ARC
  8
_0-0_0
  6
CONTINUOUS
 62
    7
 10
-161.40792850000003
 20
763.78967299999999
 40
5.089683
 50
180.00000900000003
 51
269.99999700000001
  0
LINE
  8
_0-0_0
  6
CONTINUOUS
 62
    7
 10
-161.40792850000003
 20
758.69998199999998
 11
-150.14059450000002
 21
758.69998199999998
  0
ARC
  8
_0-0_0
  6
CONTINUOUS
 62
    7
 10
-150.14059450000002
 20
762.34298699999999
 40
3.6429879999999999
 50
269.99999700000001
 51
0.0000099999999886
  0
LINE
  8
_0-0_0
  6
CONTINUOUS
 62
    7
 10
-149.49761949999993
 20
778.29998799999998
 11
-162.83154349999995
 21
778.29998799999998
  0
ARC
  8
_0-0_0
  6
CONTINUOUS
 62
    7
 10
-162.83154349999995
 20
777.29998799999998
 40
1
 50
90.000003000000007
 51
172.23356100000001
  0
ARC
  8
_0-0_0
  6
CONTINUOUS
 62
    7
 10
-165.49760449999997
 20
774.23767099999998
 40
1
 50
105.68034800000001
 51
180.00000900000001
  0
LINE
  8
_0-0_0
  6
CONTINUOUS
 62
    7
 10
-108.09761049999997
 20
778.29998799999998
 11
-108.09761049999997
 21
778.23937999999998
  0
LINE
  8
_0-0_0
  6
CONTINUOUS
 62
    7
 10
-149.49761949999993
 20
758.75717199999997
 11
-149.49761949999993
 21
758.704071
  0
LINE
  8
_0-0_0
  6
CONTINUOUS
 62
    7
 10
-108.09761049999997
 20
758.76058999999998
 11
-108.09761049999997
 21
758.704071
  0
LINE
  8
_0-0_0
  6
CONTINUOUS
 62
    7
 10
-51.497604499999966
 20
760.84997599999997
 11
-52.297607500000026
 21
760.04998799999998
  0
LINE
  8
_0-0_0
  6
CONTINUOUS
 62
    7
 10
-37.497612499999946
 20
755.79998799999998
 11
-37.997444500000029
 21
755.30014000000006
  0
LINE
  8
_0-0_0
  6
CONTINUOUS
 62
    7
 10
-37.497612499999946
 20
772.39999399999999
 11
-37.997444500000029
 21
771.90014700000006
  0
LINE
  8
_0-0_0
  6
CONTINUOUS
 62
    7
 10
-50.297607500000026
 20
770.09997599999997
 11
7.7023924999999736
 21
770.09997599999997
  0
LINE
  8
_0-0_0
  6
CONTINUOUS
 62
    7
 10
-50.297607500000026
 20
762.09997599999997
 11
7.7023924999999736
 21
762.09997599999997
  0
LINE
  8
_0-0_0
  6
CONTINUOUS
 62
    7
 10
-37.497612499999946
 20
776.39999399999999
 11
-37.997444500000029
 21
776.89984099999992
  0
LINE
  8
_0-0_0
  6
CONTINUOUS
 62
    7
 10
-37.497612499999946
 20
759.79998799999998
 11
-37.997444500000029
 21
760.29983500000003
  0
LINE
  8
_0-0_0
  6
CONTINUOUS
 62
    7
 10
-47.497604499999966
 20
776.64999399999999
 11
-47.247604499999966
 21
776.89999399999999
  0
LINE
  8
_0-0_0
  6
CONTINUOUS
 62
    7
 10
-47.497604499999966
 20
772.14999399999999
 11
-47.247604499999966
 21
771.89999399999999
  0
LINE
  8
_0-0_0
  6
CONTINUOUS
 62
    7
 10
-47.497604499999966
 20
760.04998799999998
 11
-47.247604499999966
 21
760.29998799999998
  0
LINE
  8
_0-0_0
  6
CONTINUOUS
 62
    7
 10
-47.497604499999966
 20
755.54998799999998
 11
-47.247604499999966
 21
755.29998799999998
  0
LINE
  8
_0-0_0
  6
CONTINUOUS
 62
    7
 10
-50.297607500000026
 20
770.63809199999992
 11
-51.097610499999973
 21
771.09997599999997
  0
LINE
  8
_0-0_0
  6
CONTINUOUS
 62
    7
 10
-50.297607500000026
 20
761.56185899999991
 11
-51.097610499999973
 21
761.09997599999997
  0
LINE
  8
_0-0_0
  6
CONTINUOUS
 62
    7
 10
-67.747650499999963
 20
776.64999399999999
 11
-47.497604499999966
 21
776.64999399999999
  0
LINE
  8
_0-0_0
  6
CONTINUOUS
 62
    7
 10
-52.297607500000026
 20
772.14999399999999
 11
-47.497604499999966
 21
772.14999399999999
  0
LINE
  8
_0-0_0
  6
CONTINUOUS
 62
    7
 10
-73.497604499999966
 20
760.04998799999998
 11
-47.497604499999966
 21
760.04998799999998
  0
LINE
  8
_0-0_0
  6
CONTINUOUS
 62
    7
 10
-73.497604499999966
 20
755.54998799999998
 11
-47.497604499999966
 21
755.54998799999998
  0
LINE
  8
_0-0_0
  6
CONTINUOUS
 62
    7
 10
-51.497604499999966
 20
771.09997599999997
 11
-51.097610499999973
 21
771.09997599999997
  0
LINE
  8
_0-0_0
  6
CONTINUOUS
 62
    7
 10
-51.497604499999966
 20
761.09997599999997
 11
-51.097610499999973
 21
761.09997599999997
  0
LINE
  8
_0-0_0
  6
CONTINUOUS
 62
    7
 10
-51.497604499999966
 20
771.34997599999997
 11
-52.747604499999966
 21
772.59997599999997
  0
ARC
  8
_0-0_0
  6
CONTINUOUS
 62
    7
 10
-173.49761949999993
 20
799.59997599999997
 40
8
 50
215.099627
 51
324.90037799999999
  0
LINE
  8
_0-0_0
  6
CONTINUOUS
 62
    7
 10
-182.49761949999993
 20
794.99997000000008
 11
-180.0428465
 21
794.99997000000008
  0
LINE
  8
_0-0_0
  6
CONTINUOUS
 62
    7
 10
-182.49761949999993
 20
781.79998799999998
 11
-182.49761949999993
 21
794.99997000000008
  0
LINE
  8
_0-0_0
  6
CONTINUOUS
 62
    7
 10
1590.5025025
 20
781.79998799999998
 11
1590.5025025
 21
794.99997000000008
  0
LINE
  8
_0-0_0
  6
CONTINUOUS
 62
    7
 10
1588.0477905
 20
794.99997000000008
 11
1590.5025025
 21
794.99997000000008
  0
ARC
  8
_0-0_0
  6
CONTINUOUS
 62
    7
 10
1581.5025025
 20
799.59997599999997
 40
8
 50
215.099627
 51
324.90037799999999
  0
LINE
  8
_0-0_0
  6
CONTINUOUS
 62
    7
 10
-166.95237750000001
 20
794.99997000000008
 11
1574.9572145
 21
794.99997000000008
  0
LINE
  8
_0-0_0
  6
CONTINUOUS
 62
    7
 10
-166.95237750000001
 20
794.99997000000008
 11
-166.8634035
 21
795.12927300000001
  0
LINE
  8
_0-0_0
  6
CONTINUOUS
 62
    7
 10
1574.9572145
 20
794.99997000000008
 11
1574.8683475
 21
795.12927300000001
  0
LINE
  8
_0-0_0
  6
CONTINUOUS
 62
    7
 10
1588.2297974999999
 20
795.27069099999994
 11
1588.3113404999999
 21
795.39999399999999
  0
ARC
  8
_0-0_0
  6
CONTINUOUS
 62
    7
 10
1581.5025025
 20
799.59997599999997
 40
8
 50
328.33175599999993
 51
334.05550899999992
  0
LINE
  8
_0-0_0
  6
CONTINUOUS
 62
    7
 10
1588.6962275000001
 20
796.09997599999997
 11
1588.7902225
 21
796.29998799999998
  0
LINE
  8
_0-0_0
  6
CONTINUOUS
 62
    7
 10
1588.7902225
 20
796.29998799999998
 11
1588.8775025
 21
796.49997000000008
  0
ARC
  8
_0-0_0
  6
CONTINUOUS
 62
    7
 10
1581.5025025
 20
799.59997599999997
 40
8
 50
337.20097500000003
 51
342.54240199999998
  0
LINE
  8
_0-0_0
  6
CONTINUOUS
 62
    7
 10
1589.1339725
 20
797.19998199999998
 11
1589.1940305000001
 21
797.39999399999999
  0
LINE
  8
_0-0_0
  6
CONTINUOUS
 62
    7
 10
1589.1940305000001
 20
797.39999399999999
 11
1589.2484744999999
 21
797.59997599999997
  0
ARC
  8
_0-0_0
  6
CONTINUOUS
 62
    7
 10
1581.5025025
 20
799.59997599999997
 40
8
 50
345.52249499999999
 51
350.64797900000002
  0
LINE
  8
_0-0_0
  6
CONTINUOUS
 62
    7
 10
1589.3961795
 20
798.29998799999998
 11
1589.4265745
 21
798.49997000000008
  0
LINE
  8
_0-0_0
  6
CONTINUOUS
 62
    7
 10
1589.4265745
 20
798.49997000000008
 11
1589.4517215000001
 21
798.69998199999998
  0
ARC
  8
_0-0_0
  6
CONTINUOUS
 62
    7
 10
1581.5025025
 20
799.59997599999997
 40
8
 50
353.54056400000002
 51
358.56744600000002
  0
LINE
  8
_0-0_0
  6
CONTINUOUS
 62
    7
 10
1589.5000605
 20
799.39999399999999
 11
1589.5025025
 21
799.59997599999997
  0
LINE
  8
_0-0_0
  6
CONTINUOUS
 62
    7
 10
1573.5049435000001
 20
799.39999399999999
 11
1573.5025025
 21
799.59997599999997
  0
ARC
  8
_0-0_0
  6
CONTINUOUS
 62
    7
 10
1581.5025025
 20
799.59997599999997
 40
8
 50
181.432545
 51
186.45945499999999
  0
LINE
  8
_0-0_0
  6
CONTINUOUS
 62
    7
 10
1573.5784305
 20
798.49997000000008
 11
1573.5532834999999
 21
798.69998199999998
  0
LINE
  8
_0-0_0
  6
CONTINUOUS
 62
    7
 10
1573.6088255
 20
798.29998799999998
 11
1573.5784305
 21
798.49997000000008
  0
ARC
  8
_0-0_0
  6
CONTINUOUS
 62
    7
 10
1581.5025025
 20
799.59997599999997
 40
8
 50
189.35203999999999
 51
194.47751
  0
LINE
  8
_0-0_0
  6
CONTINUOUS
 62
    7
 10
1573.8109744999999
 20
797.39999399999999
 11
1573.7565305000001
 21
797.59997599999997
  0
LINE
  8
_0-0_0
  6
CONTINUOUS
 62
    7
 10
1573.8710325
 20
797.19998199999998
 11
1573.8109744999999
 21
797.39999399999999
  0
ARC
  8
_0-0_0
  6
CONTINUOUS
 62
    7
 10
1581.5025025
 20
799.59997599999997
 40
8
 50
197.45760300000001
 51
202.79902999999999
  0
LINE
  8
_0-0_0
  6
CONTINUOUS
 62
    7
 10
1574.2147825
 20
796.29998799999998
 11
1574.1275025
 21
796.49997000000008
  0
LINE
  8
_0-0_0
  6
CONTINUOUS
 62
    7
 10
1574.3087765
 20
796.09997599999997
 11
1574.2147825
 21
796.29998799999998
  0
ARC
  8
_0-0_0
  6
CONTINUOUS
 62
    7
 10
1581.5025025
 20
799.59997599999997
 40
8
 50
205.94448199999999
 51
211.66823500000001
  0
LINE
  8
_0-0_0
  6
CONTINUOUS
 62
    7
 10
1574.7752075000001
 20
795.27069099999994
 11
1574.6936645000001
 21
795.39999399999999
  0
LINE
  8
_0-0_0
  6
CONTINUOUS
 62
    7
 10
1574.7752075000001
 20
795.27069099999994
 11
1574.8683475
 21
795.12927300000001
  0
LINE
  8
_0-0_0
  6
CONTINUOUS
 62
    7
 10
1588.0477905
 20
794.99997000000008
 11
1588.1366575
 21
795.12927300000001
  0
LINE
  8
_0-0_0
  6
CONTINUOUS
 62
    7
 10
1588.2297974999999
 20
795.27069099999994
 11
1588.1366575
 21
795.12927300000001
  0
LINE
  8
_0-0_0
  6
CONTINUOUS
 62
    7
 10
1590.5025025
 20
795.12927300000001
 11
1590.5025025
 21
794.99997000000008
  0
LINE
  8
_0-0_0
  6
CONTINUOUS
 62
    7
 10
1590.5025025
 20
803.92929099999992
 11
1590.5025025
 21
804.07070899999997
  0
LINE
  8
_0-0_0
  6
CONTINUOUS
 62
    7
 10
1590.5025025
 20
803.92929099999992
 11
1590.5025025
 21
803.79998799999998
  0
LINE
  8
_0-0_0
  6
CONTINUOUS
 62
    7
 10
1590.5025025
 20
803.09997599999997
 11
1590.5025025
 21
803.79998799999998
  0
LINE
  8
_0-0_0
  6
CONTINUOUS
 62
    7
 10
1590.5025025
 20
802.89999399999999
 11
1590.5025025
 21
803.09997599999997
  0
LINE
  8
_0-0_0
  6
CONTINUOUS
 62
    7
 10
1590.5025025
 20
802.89999399999999
 11
1590.5025025
 21
802.69998199999998
  0
LINE
  8
_0-0_0
  6
CONTINUOUS
 62
    7
 10
1590.5025025
 20
801.99997000000008
 11
1590.5025025
 21
802.69998199999998
  0
LINE
  8
_0-0_0
  6
CONTINUOUS
 62
    7
 10
1590.5025025
 20
801.79998799999998
 11
1590.5025025
 21
801.99997000000008
  0
LINE
  8
_0-0_0
  6
CONTINUOUS
 62
    7
 10
1590.5025025
 20
801.79998799999998
 11
1590.5025025
 21
801.59997599999997
  0
LINE
  8
_0-0_0
  6
CONTINUOUS
 62
    7
 10
1590.5025025
 20
800.89999399999999
 11
1590.5025025
 21
801.59997599999997
  0
LINE
  8
_0-0_0
  6
CONTINUOUS
 62
    7
 10
1590.5025025
 20
800.69998199999998
 11
1590.5025025
 21
800.89999399999999
  0
LINE
  8
_0-0_0
  6
CONTINUOUS
 62
    7
 10
1590.5025025
 20
800.69998199999998
 11
1590.5025025
 21
800.49997000000008
  0
LINE
  8
_0-0_0
  6
CONTINUOUS
 62
    7
 10
1590.5025025
 20
799.79998799999998
 11
1590.5025025
 21
800.49997000000008
  0
LINE
  8
_0-0_0
  6
CONTINUOUS
 62
    7
 10
1590.5025025
 20
799.59997599999997
 11
1590.5025025
 21
799.79998799999998
  0
LINE
  8
_0-0_0
  6
CONTINUOUS
 62
    7
 10
1590.5025025
 20
799.59997599999997
 11
1590.5025025
 21
799.39999399999999
  0
LINE
  8
_0-0_0
  6
CONTINUOUS
 62
    7
 10
1590.5025025
 20
798.69998199999998
 11
1590.5025025
 21
799.39999399999999
  0
LINE
  8
_0-0_0
  6
CONTINUOUS
 62
    7
 10
1590.5025025
 20
798.49997000000008
 11
1590.5025025
 21
798.69998199999998
  0
LINE
  8
_0-0_0
  6
CONTINUOUS
 62
    7
 10
1590.5025025
 20
798.49997000000008
 11
1590.5025025
 21
798.29998799999998
  0
LINE
  8
_0-0_0
  6
CONTINUOUS
 62
    7
 10
1590.5025025
 20
797.59997599999997
 11
1590.5025025
 21
798.29998799999998
  0
LINE
  8
_0-0_0
  6
CONTINUOUS
 62
    7
 10
1590.5025025
 20
797.39999399999999
 11
1590.5025025
 21
797.59997599999997
  0
LINE
  8
_0-0_0
  6
CONTINUOUS
 62
    7
 10
1590.5025025
 20
797.39999399999999
 11
1590.5025025
 21
797.19998199999998
  0
LINE
  8
_0-0_0
  6
CONTINUOUS
 62
    7
 10
1590.5025025
 20
796.49997000000008
 11
1590.5025025
 21
797.19998199999998
  0
LINE
  8
_0-0_0
  6
CONTINUOUS
 62
    7
 10
1590.5025025
 20
796.29998799999998
 11
1590.5025025
 21
796.49997000000008
  0
LINE
  8
_0-0_0
  6
CONTINUOUS
 62
    7
 10
1590.5025025
 20
796.29998799999998
 11
1590.5025025
 21
796.09997599999997
  0
LINE
  8
_0-0_0
  6
CONTINUOUS
 62
    7
 10
1590.5025025
 20
795.39999399999999
 11
1590.5025025
 21
796.09997599999997
  0
LINE
  8
_0-0_0
  6
CONTINUOUS
 62
    7
 10
1590.5025025
 20
795.27069099999994
 11
1590.5025025
 21
795.39999399999999
  0
LINE
  8
_0-0_0
  6
CONTINUOUS
 62
    7
 10
1590.5025025
 20
795.12927300000001
 11
1590.5025025
 21
795.27069099999994
  0
LINE
  8
_0-0_0
  6
CONTINUOUS
 62
    7
 10
1590.5025025
 20
781.29998799999998
 11
1590.5025025
 21
781.79998799999998
  0
LINE
  8
_0-0_0
  6
CONTINUOUS
 62
    7
 10
1590.5025025
 20
809.79998799999998
 11
1590.5025025
 21
809.20602400000007
  0
LINE
  8
_0-0_0
  6
CONTINUOUS
 62
    7
 10
1590.5025025
 20
804.19998199999998
 11
1590.5025025
 21
809.20602400000007
  0
LINE
  8
_0-0_0
  6
CONTINUOUS
 62
    7
 10
1590.5025025
 20
804.07070899999997
 11
1590.5025025
 21
804.19998199999998
  0
LINE
  8
_0-0_0
  6
CONTINUOUS
 62
    7
 10
-182.49761949999993
 20
781.29998799999998
 11
-182.49761949999993
 21
781.79998799999998
  0
LINE
  8
_0-0_0
  6
CONTINUOUS
 62
    7
 10
-182.49761949999993
 20
781.29998799999998
 11
1590.5025025
 21
781.29998799999998
  0
LINE
  8
_0-0_0
  6
CONTINUOUS
 62
    7
 10
-182.49761949999993
 20
795.12927300000001
 11
-182.49761949999993
 21
795.27069099999994
  0
LINE
  8
_0-0_0
  6
CONTINUOUS
 62
    7
 10
-182.49761949999993
 20
795.12927300000001
 11
-182.49761949999993
 21
794.99997000000008
  0
LINE
  8
_0-0_0
  6
CONTINUOUS
 62
    7
 10
-182.49761949999993
 20
809.79998799999998
 11
-182.49761949999993
 21
809.20602400000007
  0
LINE
  8
_0-0_0
  6
CONTINUOUS
 62
    7
 10
-182.49761949999993
 20
804.19998199999998
 11
-182.49761949999993
 21
809.20602400000007
  0
LINE
  8
_0-0_0
  6
CONTINUOUS
 62
    7
 10
-182.49761949999993
 20
804.07070899999997
 11
-182.49761949999993
 21
804.19998199999998
  0
LINE
  8
_0-0_0
  6
CONTINUOUS
 62
    7
 10
-182.49761949999993
 20
803.92929099999992
 11
-182.49761949999993
 21
804.07070899999997
  0
LINE
  8
_0-0_0
  6
CONTINUOUS
 62
    7
 10
-182.49761949999993
 20
803.92929099999992
 11
-182.49761949999993
 21
803.79998799999998
  0
LINE
  8
_0-0_0
  6
CONTINUOUS
 62
    7
 10
-182.49761949999993
 20
803.09997599999997
 11
-182.49761949999993
 21
803.79998799999998
  0
LINE
  8
_0-0_0
  6
CONTINUOUS
 62
    7
 10
-182.49761949999993
 20
802.97070299999996
 11
-182.49761949999993
 21
803.09997599999997
  0
LINE
  8
_0-0_0
  6
CONTINUOUS
 62
    7
 10
-182.49761949999993
 20
802.82928500000003
 11
-182.49761949999993
 21
802.97070299999996
  0
LINE
  8
_0-0_0
  6
CONTINUOUS
 62
    7
 10
-182.49761949999993
 20
802.82928500000003
 11
-182.49761949999993
 21
802.69998199999998
  0
LINE
  8
_0-0_0
  6
CONTINUOUS
 62
    7
 10
-182.49761949999993
 20
801.99997000000008
 11
-182.49761949999993
 21
802.69998199999998
  0
LINE
  8
_0-0_0
  6
CONTINUOUS
 62
    7
 10
-182.49761949999993
 20
801.87069700000006
 11
-182.49761949999993
 21
801.99997000000008
  0
LINE
  8
_0-0_0
  6
CONTINUOUS
 62
    7
 10
-182.49761949999993
 20
801.72927900000002
 11
-182.49761949999993
 21
801.87069700000006
  0
LINE
  8
_0-0_0
  6
CONTINUOUS
 62
    7
 10
-182.49761949999993
 20
801.72927900000002
 11
-182.49761949999993
 21
801.59997599999997
  0
LINE
  8
_0-0_0
  6
CONTINUOUS
 62
    7
 10
-182.49761949999993
 20
800.89999399999999
 11
-182.49761949999993
 21
801.59997599999997
  0
LINE
  8
_0-0_0
  6
CONTINUOUS
 62
    7
 10
-182.49761949999993
 20
800.77069099999994
 11
-182.49761949999993
 21
800.89999399999999
  0
LINE
  8
_0-0_0
  6
CONTINUOUS
 62
    7
 10
-182.49761949999993
 20
800.62927300000001
 11
-182.49761949999993
 21
800.77069099999994
  0
LINE
  8
_0-0_0
  6
CONTINUOUS
 62
    7
 10
-182.49761949999993
 20
800.62927300000001
 11
-182.49761949999993
 21
800.49997000000008
  0
LINE
  8
_0-0_0
  6
CONTINUOUS
 62
    7
 10
-182.49761949999993
 20
799.79998799999998
 11
-182.49761949999993
 21
800.49997000000008
  0
LINE
  8
_0-0_0
  6
CONTINUOUS
 62
    7
 10
-182.49761949999993
 20
799.67068500000005
 11
-182.49761949999993
 21
799.79998799999998
  0
LINE
  8
_0-0_0
  6
CONTINUOUS
 62
    7
 10
-182.49761949999993
 20
799.52926600000001
 11
-182.49761949999993
 21
799.67068500000005
  0
LINE
  8
_0-0_0
  6
CONTINUOUS
 62
    7
 10
-182.49761949999993
 20
799.52926600000001
 11
-182.49761949999993
 21
799.39999399999999
  0
LINE
  8
_0-0_0
  6
CONTINUOUS
 62
    7
 10
-182.49761949999993
 20
798.69998199999998
 11
-182.49761949999993
 21
799.39999399999999
  0
LINE
  8
_0-0_0
  6
CONTINUOUS
 62
    7
 10
-182.49761949999993
 20
798.57070899999997
 11
-182.49761949999993
 21
798.69998199999998
  0
LINE
  8
_0-0_0
  6
CONTINUOUS
 62
    7
 10
-182.49761949999993
 20
798.42929099999992
 11
-182.49761949999993
 21
798.57070899999997
  0
LINE
  8
_0-0_0
  6
CONTINUOUS
 62
    7
 10
-182.49761949999993
 20
798.42929099999992
 11
-182.49761949999993
 21
798.29998799999998
  0
LINE
  8
_0-0_0
  6
CONTINUOUS
 62
    7
 10
-182.49761949999993
 20
797.59997599999997
 11
-182.49761949999993
 21
798.29998799999998
  0
LINE
  8
_0-0_0
  6
CONTINUOUS
 62
    7
 10
-182.49761949999993
 20
797.47070299999996
 11
-182.49761949999993
 21
797.59997599999997
  0
LINE
  8
_0-0_0
  6
CONTINUOUS
 62
    7
 10
-182.49761949999993
 20
797.32928500000003
 11
-182.49761949999993
 21
797.47070299999996
  0
LINE
  8
_0-0_0
  6
CONTINUOUS
 62
    7
 10
-182.49761949999993
 20
797.32928500000003
 11
-182.49761949999993
 21
797.19998199999998
  0
LINE
  8
_0-0_0
  6
CONTINUOUS
 62
    7
 10
-182.49761949999993
 20
796.49997000000008
 11
-182.49761949999993
 21
797.19998199999998
  0
LINE
  8
_0-0_0
  6
CONTINUOUS
 62
    7
 10
-182.49761949999993
 20
796.37069700000006
 11
-182.49761949999993
 21
796.49997000000008
  0
LINE
  8
_0-0_0
  6
CONTINUOUS
 62
    7
 10
-182.49761949999993
 20
796.22927900000002
 11
-182.49761949999993
 21
796.37069700000006
  0
LINE
  8
_0-0_0
  6
CONTINUOUS
 62
    7
 10
-182.49761949999993
 20
796.22927900000002
 11
-182.49761949999993
 21
796.09997599999997
  0
LINE
  8
_0-0_0
  6
CONTINUOUS
 62
    7
 10
-182.49761949999993
 20
795.39999399999999
 11
-182.49761949999993
 21
796.09997599999997
  0
LINE
  8
_0-0_0
  6
CONTINUOUS
 62
    7
 10
-182.49761949999993
 20
795.27069099999994
 11
-182.49761949999993
 21
795.39999399999999
  0
LINE
  8
_0-0_0
  6
CONTINUOUS
 62
    7
 10
-180.0428465
 20
794.99997000000008
 11
-180.13180549999993
 21
795.12927300000001
  0
LINE
  8
_0-0_0
  6
CONTINUOUS
 62
    7
 10
-166.77026350000006
 20
795.27069099999994
 11
-166.8634035
 21
795.12927300000001
  0
LINE
  8
_0-0_0
  6
CONTINUOUS
 62
    7
 10
-166.77026350000006
 20
795.27069099999994
 11
-166.6887815
 21
795.39999399999999
  0
ARC
  8
_0-0_0
  6
CONTINUOUS
 62
    7
 10
-173.49761949999993
 20
799.59997599999997
 40
8
 50
328.33175599999993
 51
334.05550899999992
  0
LINE
  8
_0-0_0
  6
CONTINUOUS
 62
    7
 10
-166.30386350000003
 20
796.09997599999997
 11
-166.2099455
 21
796.29998799999998
  0
LINE
  8
_0-0_0
  6
CONTINUOUS
 62
    7
 10
-166.2099455
 20
796.29998799999998
 11
-166.12265049999996
 21
796.49997000000008
  0
ARC
  8
_0-0_0
  6
CONTINUOUS
 62
    7
 10
-173.49761949999993
 20
799.59997599999997
 40
8
 50
337.20097500000003
 51
342.54240199999998
  0
LINE
  8
_0-0_0
  6
CONTINUOUS
 62
    7
 10
-165.86608849999993
 20
797.19998199999998
 11
-165.80606050000006
 21
797.39999399999999
  0
LINE
  8
_0-0_0
  6
CONTINUOUS
 62
    7
 10
-165.80606050000006
 20
797.39999399999999
 11
-165.75164849999999
 21
797.59997599999997
  0
ARC
  8
_0-0_0
  6
CONTINUOUS
 62
    7
 10
-173.49761949999993
 20
799.59997599999997
 40
8
 50
345.52249499999999
 51
350.64797900000002
  0
LINE
  8
_0-0_0
  6
CONTINUOUS
 62
    7
 10
-165.60394250000002
 20
798.29998799999998
 11
-165.57359350000002
 21
798.49997000000008
  0
LINE
  8
_0-0_0
  6
CONTINUOUS
 62
    7
 10
-165.57359350000002
 20
798.49997000000008
 11
-165.54840049999996
 21
798.69998199999998
  0
ARC
  8
_0-0_0
  6
CONTINUOUS
 62
    7
 10
-173.49761949999993
 20
799.59997599999997
 40
8
 50
353.54056400000002
 51
358.56744600000002
  0
LINE
  8
_0-0_0
  6
CONTINUOUS
 62
    7
 10
-165.50010650000002
 20
799.39999399999999
 11
-165.49760449999997
 21
799.59997599999997
  0
LINE
  8
_0-0_0
  6
CONTINUOUS
 62
    7
 10
-181.49728349999998
 20
799.52926600000001
 11
-181.49761949999993
 21
799.59997599999997
  0
LINE
  8
_0-0_0
  6
CONTINUOUS
 62
    7
 10
-181.49511749999999
 20
799.39999399999999
 11
-181.49728349999998
 21
799.52926600000001
  0
ARC
  8
_0-0_0
  6
CONTINUOUS
 62
    7
 10
-173.49761949999993
 20
799.59997599999997
 40
8
 50
181.432545
 51
186.45945499999999
  0
LINE
  8
_0-0_0
  6
CONTINUOUS
 62
    7
 10
-181.43112150000002
 20
798.57070899999997
 11
-181.44680749999998
 21
798.69998199999998
  0
LINE
  8
_0-0_0
  6
CONTINUOUS
 62
    7
 10
-181.43112150000002
 20
798.57070899999997
 11
-181.41146849999996
 21
798.42929099999992
  0
LINE
  8
_0-0_0
  6
CONTINUOUS
 62
    7
 10
-181.39126549999992
 20
798.29998799999998
 11
-181.41146849999996
 21
798.42929099999992
  0
ARC
  8
_0-0_0
  6
CONTINUOUS
 62
    7
 10
-173.49761949999993
 20
799.59997599999997
 40
8
 50
189.35203999999999
 51
194.47751
  0
LINE
  8
_0-0_0
  6
CONTINUOUS
 62
    7
 10
-181.2090455
 20
797.47070299999996
 11
-181.24356050000006
 21
797.59997599999997
  0
LINE
  8
_0-0_0
  6
CONTINUOUS
 62
    7
 10
-181.2090455
 20
797.47070299999996
 11
-181.16857949999996
 21
797.32928500000003
  0
LINE
  8
_0-0_0
  6
CONTINUOUS
 62
    7
 10
-181.1291195
 20
797.19998199999998
 11
-181.16857949999996
 21
797.32928500000003
  0
ARC
  8
_0-0_0
  6
CONTINUOUS
 62
    7
 10
-173.49761949999993
 20
799.59997599999997
 40
8
 50
197.45760300000001
 51
202.79902999999999
  0
LINE
  8
_0-0_0
  6
CONTINUOUS
 62
    7
 10
-180.81686450000007
 20
796.37069700000006
 11
-180.87255849999997
 21
796.49997000000008
  0
LINE
  8
_0-0_0
  6
CONTINUOUS
 62
    7
 10
-180.81686450000007
 20
796.37069700000006
 11
-180.75283850000005
 21
796.22927900000002
  0
LINE
  8
_0-0_0
  6
CONTINUOUS
 62
    7
 10
-180.69134550000001
 20
796.09997599999997
 11
-180.75283850000005
 21
796.22927900000002
  0
ARC
  8
_0-0_0
  6
CONTINUOUS
 62
    7
 10
-173.49761949999993
 20
799.59997599999997
 40
8
 50
205.94448199999999
 51
211.66823500000001
  0
LINE
  8
_0-0_0
  6
CONTINUOUS
 62
    7
 10
-180.22494549999999
 20
795.27069099999994
 11
-180.30642749999993
 21
795.39999399999999
  0
LINE
  8
_0-0_0
  6
CONTINUOUS
 62
    7
 10
-180.22494549999999
 20
795.27069099999994
 11
-180.13180549999993
 21
795.12927300000001
  0
LINE
  8
_0-0_0
  6
CONTINUOUS
 62
    7
 10
1508.0025025
 20
787.29998799999998
 11
1515.0025025
 21
787.29998799999998
  0
ARC
  8
_0-0_0
  6
CONTINUOUS
 62
    7
 10
1508.0025025
 20
786.79998799999998
 40
0.5
 50
90.000003000000007
 51
180.00000900000001
  0
LINE
  8
_0-0_0
  6
CONTINUOUS
 62
    7
 10
1507.5025025
 20
786.79998799999998
 11
1507.5025025
 21
782.79998799999998
  0
ARC
  8
_0-0_0
  6
CONTINUOUS
 62
    7
 10
1508.0025025
 20
782.79998799999998
 40
0.5
 50
180.00000900000003
 51
269.99999700000001
  0
LINE
  8
_0-0_0
  6
CONTINUOUS
 62
    7
 10
1515.0025025
 20
782.29998799999998
 11
1508.0025025
 21
782.29998799999998
  0
ARC
  8
_0-0_0
  6
CONTINUOUS
 62
    7
 10
1515.0025025
 20
782.79998799999998
 40
0.5
 50
269.99999700000001
 51
0
  0
LINE
  8
_0-0_0
  6
CONTINUOUS
 62
    7
 10
1515.5025025
 20
782.79998799999998
 11
1515.5025025
 21
786.79998799999998
  0
ARC
  8
_0-0_0
  6
CONTINUOUS
 62
    7
 10
1515.0025025
 20
786.79998799999998
 40
0.5
 50
0
 51
90.000003000000007
  0
ARC
  8
_0-0_0
  6
CONTINUOUS
 62
    7
 10
-131.99761949999993
 20
786.79998799999998
 40
0.5
 50
90.000003000000007
 51
180.00000900000001
  0
LINE
  8
_0-0_0
  6
CONTINUOUS
 62
    7
 10
-132.49761949999993
 20
786.79998799999998
 11
-132.49761949999993
 21
782.79998799999998
  0
ARC
  8
_0-0_0
  6
CONTINUOUS
 62
    7
 10
-131.99761949999993
 20
782.79998799999998
 40
0.5
 50
180.00000900000003
 51
269.99999700000001
  0
LINE
  8
_0-0_0
  6
CONTINUOUS
 62
    7
 10
-124.99761949999993
 20
782.29998799999998
 11
-131.99761949999993
 21
782.29998799999998
  0
ARC
  8
_0-0_0
  6
CONTINUOUS
 62
    7
 10
-124.99761949999993
 20
782.79998799999998
 40
0.5
 50
269.99999700000001
 51
0
  0
LINE
  8
_0-0_0
  6
CONTINUOUS
 62
    7
 10
-124.49761949999993
 20
782.79998799999998
 11
-124.49761949999993
 21
786.79998799999998
  0
ARC
  8
_0-0_0
  6
CONTINUOUS
 62
    7
 10
-124.99761949999993
 20
786.79998799999998
 40
0.5
 50
0
 51
90.000003000000007
  0
LINE
  8
_0-0_0
  6
CONTINUOUS
 62
    7
 10
-131.99761949999993
 20
787.29998799999998
 11
-124.99761949999993
 21
787.29998799999998
  0
LINE
  8
_0-0_0
  6
CONTINUOUS
 62
    7
 10
-166.6887815
 20
795.39999399999999
 11
1574.6936645000001
 21
795.39999399999999
  0
LINE
  8
_0-0_0
  6
CONTINUOUS
 62
    7
 10
-166.30386350000003
 20
796.09997599999997
 11
1574.3087765
 21
796.09997599999997
  0
LINE
  8
_0-0_0
  6
CONTINUOUS
 62
    7
 10
-166.2099455
 20
796.29998799999998
 11
1574.2147825
 21
796.29998799999998
  0
LINE
  8
_0-0_0
  6
CONTINUOUS
 62
    7
 10
-166.12265049999996
 20
796.49997000000008
 11
1574.1275025
 21
796.49997000000008
  0
LINE
  8
_0-0_0
  6
CONTINUOUS
 62
    7
 10
-165.86608849999993
 20
797.19998199999998
 11
1573.8710325
 21
797.19998199999998
  0
LINE
  8
_0-0_0
  6
CONTINUOUS
 62
    7
 10
-165.80606050000006
 20
797.39999399999999
 11
1573.8109744999999
 21
797.39999399999999
  0
LINE
  8
_0-0_0
  6
CONTINUOUS
 62
    7
 10
-165.75164849999999
 20
797.59997599999997
 11
1573.7565305000001
 21
797.59997599999997
  0
LINE
  8
_0-0_0
  6
CONTINUOUS
 62
    7
 10
-165.60394250000002
 20
798.29998799999998
 11
1573.6088255
 21
798.29998799999998
  0
LINE
  8
_0-0_0
  6
CONTINUOUS
 62
    7
 10
-165.57359350000002
 20
798.49997000000008
 11
1573.5784305
 21
798.49997000000008
  0
LINE
  8
_0-0_0
  6
CONTINUOUS
 62
    7
 10
-165.54840049999996
 20
798.69998199999998
 11
1573.5532834999999
 21
798.69998199999998
  0
LINE
  8
_0-0_0
  6
CONTINUOUS
 62
    7
 10
-165.50010650000002
 20
799.39999399999999
 11
1573.5049435000001
 21
799.39999399999999
  0
LINE
  8
_0-0_0
  6
CONTINUOUS
 62
    7
 10
-165.49760449999997
 20
799.59997599999997
 11
1573.5025025
 21
799.59997599999997
  0
LINE
  8
_0-0_0
  6
CONTINUOUS
 62
    7
 10
1588.0477905
 20
804.19998199999998
 11
1588.1366575
 21
804.07070899999997
  0
ARC
  8
_0-0_0
  6
CONTINUOUS
 62
    7
 10
1581.5025025
 20
799.59997599999997
 40
8
 50
35.099632
 51
144.900373
  0
LINE
  8
_0-0_0
  6
CONTINUOUS
 62
    7
 10
1574.9572145
 20
804.19998199999998
 11
1574.8683475
 21
804.07070899999997
  0
LINE
  8
_0-0_0
  6
CONTINUOUS
 62
    7
 10
1574.7752075000001
 20
803.92929099999992
 11
1574.8683475
 21
804.07070899999997
  0
LINE
  8
_0-0_0
  6
CONTINUOUS
 62
    7
 10
1574.7752075000001
 20
803.92929099999992
 11
1574.6936645000001
 21
803.79998799999998
  0
ARC
  8
_0-0_0
  6
CONTINUOUS
 62
    7
 10
1581.5025025
 20
799.59997599999997
 40
8
 50
148.33176499999999
 51
154.05551800000001
  0
LINE
  8
_0-0_0
  6
CONTINUOUS
 62
    7
 10
1574.3087765
 20
803.09997599999997
 11
1574.2147825
 21
802.89999399999999
  0
LINE
  8
_0-0_0
  6
CONTINUOUS
 62
    7
 10
1574.2147825
 20
802.89999399999999
 11
1574.1275025
 21
802.69998199999998
  0
ARC
  8
_0-0_0
  6
CONTINUOUS
 62
    7
 10
1581.5025025
 20
799.59997599999997
 40
8
 50
157.20097000000001
 51
162.54239699999999
  0
LINE
  8
_0-0_0
  6
CONTINUOUS
 62
    7
 10
1573.8710325
 20
801.99997000000008
 11
1573.8109744999999
 21
801.79998799999998
  0
LINE
  8
_0-0_0
  6
CONTINUOUS
 62
    7
 10
1573.8109744999999
 20
801.79998799999998
 11
1573.7565305000001
 21
801.59997599999997
  0
ARC
  8
_0-0_0
  6
CONTINUOUS
 62
    7
 10
1581.5025025
 20
799.59997599999997
 40
8
 50
165.52249
 51
170.64796000000001
  0
LINE
  8
_0-0_0
  6
CONTINUOUS
 62
    7
 10
1573.6088255
 20
800.89999399999999
 11
1573.5784305
 21
800.69998199999998
  0
LINE
  8
_0-0_0
  6
CONTINUOUS
 62
    7
 10
1573.5784305
 20
800.69998199999998
 11
1573.5532834999999
 21
800.49997000000008
  0
ARC
  8
_0-0_0
  6
CONTINUOUS
 62
    7
 10
1581.5025025
 20
799.59997599999997
 40
8
 50
173.54054500000001
 51
178.567455
  0
LINE
  8
_0-0_0
  6
CONTINUOUS
 62
    7
 10
1573.5049435000001
 20
799.79998799999998
 11
1573.5025025
 21
799.59997599999997
  0
LINE
  8
_0-0_0
  6
CONTINUOUS
 62
    7
 10
1589.5000605
 20
799.79998799999998
 11
1589.5025025
 21
799.59997599999997
  0
ARC
  8
_0-0_0
  6
CONTINUOUS
 62
    7
 10
1581.5025025
 20
799.59997599999997
 40
8
 50
1.432544
 51
6.4594489999999993
  0
LINE
  8
_0-0_0
  6
CONTINUOUS
 62
    7
 10
1589.4265745
 20
800.69998199999998
 11
1589.4517215000001
 21
800.49997000000008
  0
LINE
  8
_0-0_0
  6
CONTINUOUS
 62
    7
 10
1589.3961795
 20
800.89999399999999
 11
1589.4265745
 21
800.69998199999998
  0
ARC
  8
_0-0_0
  6
CONTINUOUS
 62
    7
 10
1581.5025025
 20
799.59997599999997
 40
8
 50
9.3520350000000008
 51
14.477510999999998
  0
LINE
  8
_0-0_0
  6
CONTINUOUS
 62
    7
 10
1589.1940305000001
 20
801.79998799999998
 11
1589.2484744999999
 21
801.59997599999997
  0
LINE
  8
_0-0_0
  6
CONTINUOUS
 62
    7
 10
1589.1339725
 20
801.99997000000008
 11
1589.1940305000001
 21
801.79998799999998
  0
ARC
  8
_0-0_0
  6
CONTINUOUS
 62
    7
 10
1581.5025025
 20
799.59997599999997
 40
8
 50
17.457602999999999
 51
22.799030999999999
  0
LINE
  8
_0-0_0
  6
CONTINUOUS
 62
    7
 10
1588.7902225
 20
802.89999399999999
 11
1588.8775025
 21
802.69998199999998
  0
LINE
  8
_0-0_0
  6
CONTINUOUS
 62
    7
 10
1588.6962275000001
 20
803.09997599999997
 11
1588.7902225
 21
802.89999399999999
  0
ARC
  8
_0-0_0
  6
CONTINUOUS
 62
    7
 10
1581.5025025
 20
799.59997599999997
 40
8
 50
25.944476999999999
 51
31.668240000000001
  0
LINE
  8
_0-0_0
  6
CONTINUOUS
 62
    7
 10
1588.2297974999999
 20
803.92929099999992
 11
1588.3113404999999
 21
803.79998799999998
  0
LINE
  8
_0-0_0
  6
CONTINUOUS
 62
    7
 10
1588.2297974999999
 20
803.92929099999992
 11
1588.1366575
 21
804.07070899999997
  0
CIRCLE
  8
_0-0_0
  6
CONTINUOUS
 62
    7
 10
1581.5025025
 20
799.59997599999997
 40
7.5
  0
LINE
  8
_0-0_0
  6
CONTINUOUS
 62
    7
 10
1589.5000605
 20
799.39999399999999
 11
1590.5025025
 21
799.39999399999999
  0
LINE
  8
_0-0_0
  6
CONTINUOUS
 62
    7
 10
1589.5025025
 20
799.59997599999997
 11
1590.5025025
 21
799.59997599999997
  0
LINE
  8
_0-0_0
  6
CONTINUOUS
 62
    7
 10
1589.4517215000001
 20
798.69998199999998
 11
1590.5025025
 21
798.69998199999998
  0
LINE
  8
_0-0_0
  6
CONTINUOUS
 62
    7
 10
1589.4265745
 20
798.49997000000008
 11
1590.5025025
 21
798.49997000000008
  0
LINE
  8
_0-0_0
  6
CONTINUOUS
 62
    7
 10
1589.3961795
 20
798.29998799999998
 11
1590.5025025
 21
798.29998799999998
  0
LINE
  8
_0-0_0
  6
CONTINUOUS
 62
    7
 10
1589.2484744999999
 20
797.59997599999997
 11
1590.5025025
 21
797.59997599999997
  0
LINE
  8
_0-0_0
  6
CONTINUOUS
 62
    7
 10
1589.1940305000001
 20
797.39999399999999
 11
1590.5025025
 21
797.39999399999999
  0
LINE
  8
_0-0_0
  6
CONTINUOUS
 62
    7
 10
1589.1339725
 20
797.19998199999998
 11
1590.5025025
 21
797.19998199999998
  0
LINE
  8
_0-0_0
  6
CONTINUOUS
 62
    7
 10
1588.8775025
 20
796.49997000000008
 11
1590.5025025
 21
796.49997000000008
  0
LINE
  8
_0-0_0
  6
CONTINUOUS
 62
    7
 10
1588.7902225
 20
796.29998799999998
 11
1590.5025025
 21
796.29998799999998
  0
LINE
  8
_0-0_0
  6
CONTINUOUS
 62
    7
 10
1588.6962275000001
 20
796.09997599999997
 11
1590.5025025
 21
796.09997599999997
  0
LINE
  8
_0-0_0
  6
CONTINUOUS
 62
    7
 10
1588.3113404999999
 20
795.39999399999999
 11
1590.5025025
 21
795.39999399999999
  0
LINE
  8
_0-0_0
  6
CONTINUOUS
 62
    7
 10
1588.3113404999999
 20
803.79998799999998
 11
1590.5025025
 21
803.79998799999998
  0
LINE
  8
_0-0_0
  6
CONTINUOUS
 62
    7
 10
1588.6962275000001
 20
803.09997599999997
 11
1590.5025025
 21
803.09997599999997
  0
LINE
  8
_0-0_0
  6
CONTINUOUS
 62
    7
 10
1588.7902225
 20
802.89999399999999
 11
1590.5025025
 21
802.89999399999999
  0
LINE
  8
_0-0_0
  6
CONTINUOUS
 62
    7
 10
1588.8775025
 20
802.69998199999998
 11
1590.5025025
 21
802.69998199999998
  0
LINE
  8
_0-0_0
  6
CONTINUOUS
 62
    7
 10
1589.1339725
 20
801.99997000000008
 11
1590.5025025
 21
801.99997000000008
  0
LINE
  8
_0-0_0
  6
CONTINUOUS
 62
    7
 10
1589.1940305000001
 20
801.79998799999998
 11
1590.5025025
 21
801.79998799999998
  0
LINE
  8
_0-0_0
  6
CONTINUOUS
 62
    7
 10
1589.2484744999999
 20
801.59997599999997
 11
1590.5025025
 21
801.59997599999997
  0
LINE
  8
_0-0_0
  6
CONTINUOUS
 62
    7
 10
1589.3961795
 20
800.89999399999999
 11
1590.5025025
 21
800.89999399999999
  0
LINE
  8
_0-0_0
  6
CONTINUOUS
 62
    7
 10
1589.4265745
 20
800.69998199999998
 11
1590.5025025
 21
800.69998199999998
  0
LINE
  8
_0-0_0
  6
CONTINUOUS
 62
    7
 10
1589.4517215000001
 20
800.49997000000008
 11
1590.5025025
 21
800.49997000000008
  0
LINE
  8
_0-0_0
  6
CONTINUOUS
 62
    7
 10
1589.5000605
 20
799.79998799999998
 11
1590.5025025
 21
799.79998799999998
  0
LINE
  8
_0-0_0
  6
CONTINUOUS
 62
    7
 10
1591.0025025
 20
783.09997599999997
 11
1590.5025025
 21
783.09997599999997
  0
LINE
  8
_0-0_0
  6
CONTINUOUS
 62
    7
 10
1590.5025025
 20
785.29998799999998
 11
1591.0025025
 21
785.29998799999998
  0
LINE
  8
_0-0_0
  6
CONTINUOUS
 62
    7
 10
1591.0025025
 20
787.59997599999997
 11
1590.5025025
 21
787.59997599999997
  0
LINE
  8
_0-0_0
  6
CONTINUOUS
 62
    7
 10
-182.49761949999993
 20
787.59997599999997
 11
-182.99761949999993
 21
787.59997599999997
  0
LINE
  8
_0-0_0
  6
CONTINUOUS
 62
    7
 10
1590.5025025
 20
789.89999399999999
 11
1591.0025025
 21
789.89999399999999
  0
LINE
  8
_0-0_0
  6
CONTINUOUS
 62
    7
 10
1591.0025025
 20
810.09997599999997
 11
1591.0025025
 21
809.99997000000008
  0
LINE
  8
_0-0_0
  6
CONTINUOUS
 62
    7
 10
-182.99761949999993
 20
810.09997599999997
 11
-182.99761949999993
 21
809.99997000000008
  0
LINE
  8
_0-0_0
  6
CONTINUOUS
 62
    7
 10
-182.99761949999993
 20
789.89999399999999
 11
-182.49761949999993
 21
789.89999399999999
  0
LINE
  8
_0-0_0
  6
CONTINUOUS
 62
    7
 10
-182.49761949999993
 20
809.79998799999998
 11
1590.5025025
 21
809.79998799999998
  0
LINE
  8
_0-0_0
  6
CONTINUOUS
 62
    7
 10
-182.49761949999993
 20
809.20602400000007
 11
1590.5025025
 21
809.20602400000007
  0
LINE
  8
_0-0_0
  6
CONTINUOUS
 62
    7
 10
1588.0477905
 20
804.19998199999998
 11
1590.5025025
 21
804.19998199999998
  0
LINE
  8
_0-0_0
  6
CONTINUOUS
 62
    7
 10
-182.49761949999993
 20
804.19998199999998
 11
-180.0428465
 21
804.19998199999998
  0
ARC
  8
_0-0_0
  6
CONTINUOUS
 62
    7
 10
-173.49761949999993
 20
799.59997599999997
 40
8
 50
35.099632
 51
144.900373
  0
LINE
  8
_0-0_0
  6
CONTINUOUS
 62
    7
 10
-166.95237750000001
 20
804.19998199999998
 11
1574.9572145
 21
804.19998199999998
  0
LINE
  8
_0-0_0
  6
CONTINUOUS
 62
    7
 10
-182.99761949999993
 20
783.09997599999997
 11
-182.49761949999993
 21
783.09997599999997
  0
LINE
  8
_0-0_0
  6
CONTINUOUS
 62
    7
 10
-182.99761949999993
 20
785.29998799999998
 11
-182.49761949999993
 21
785.29998799999998
  0
LINE
  8
_0-0_0
  6
CONTINUOUS
 62
    7
 10
-180.0428465
 20
804.19998199999998
 11
-180.13180549999993
 21
804.07070899999997
  0
LINE
  8
_0-0_0
  6
CONTINUOUS
 62
    7
 10
-180.22494549999999
 20
803.92929099999992
 11
-180.13180549999993
 21
804.07070899999997
  0
LINE
  8
_0-0_0
  6
CONTINUOUS
 62
    7
 10
-182.49761949999993
 20
803.79998799999998
 11
-180.30642749999993
 21
803.79998799999998
  0
LINE
  8
_0-0_0
  6
CONTINUOUS
 62
    7
 10
-180.22494549999999
 20
803.92929099999992
 11
-180.30642749999993
 21
803.79998799999998
  0
ARC
  8
_0-0_0
  6
CONTINUOUS
 62
    7
 10
-173.49761949999993
 20
799.59997599999997
 40
8
 50
148.33176499999999
 51
154.05551800000001
  0
LINE
  8
_0-0_0
  6
CONTINUOUS
 62
    7
 10
-182.49761949999993
 20
803.09997599999997
 11
-180.69134550000001
 21
803.09997599999997
  0
LINE
  8
_0-0_0
  6
CONTINUOUS
 62
    7
 10
-180.69134550000001
 20
803.09997599999997
 11
-180.75283850000005
 21
802.97070299999996
  0
LINE
  8
_0-0_0
  6
CONTINUOUS
 62
    7
 10
-180.81686450000007
 20
802.82928500000003
 11
-180.75283850000005
 21
802.97070299999996
  0
LINE
  8
_0-0_0
  6
CONTINUOUS
 62
    7
 10
-182.49761949999993
 20
802.69998199999998
 11
-180.87255849999997
 21
802.69998199999998
  0
LINE
  8
_0-0_0
  6
CONTINUOUS
 62
    7
 10
-180.81686450000007
 20
802.82928500000003
 11
-180.87255849999997
 21
802.69998199999998
  0
ARC
  8
_0-0_0
  6
CONTINUOUS
 62
    7
 10
-173.49761949999993
 20
799.59997599999997
 40
8
 50
157.20097000000001
 51
162.54239699999999
  0
LINE
  8
_0-0_0
  6
CONTINUOUS
 62
    7
 10
-182.49761949999993
 20
801.99997000000008
 11
-181.1291195
 21
801.99997000000008
  0
LINE
  8
_0-0_0
  6
CONTINUOUS
 62
    7
 10
-181.1291195
 20
801.99997000000008
 11
-181.16857949999996
 21
801.87069700000006
  0
LINE
  8
_0-0_0
  6
CONTINUOUS
 62
    7
 10
-181.2090455
 20
801.72927900000002
 11
-181.16857949999996
 21
801.87069700000006
  0
LINE
  8
_0-0_0
  6
CONTINUOUS
 62
    7
 10
-182.49761949999993
 20
801.59997599999997
 11
-181.24356050000006
 21
801.59997599999997
  0
LINE
  8
_0-0_0
  6
CONTINUOUS
 62
    7
 10
-181.2090455
 20
801.72927900000002
 11
-181.24356050000006
 21
801.59997599999997
  0
ARC
  8
_0-0_0
  6
CONTINUOUS
 62
    7
 10
-173.49761949999993
 20
799.59997599999997
 40
8
 50
165.52249
 51
170.64796000000001
  0
LINE
  8
_0-0_0
  6
CONTINUOUS
 62
    7
 10
-182.49761949999993
 20
800.89999399999999
 11
-181.39126549999992
 21
800.89999399999999
  0
LINE
  8
_0-0_0
  6
CONTINUOUS
 62
    7
 10
-181.39126549999992
 20
800.89999399999999
 11
-181.41146849999996
 21
800.77069099999994
  0
LINE
  8
_0-0_0
  6
CONTINUOUS
 62
    7
 10
-181.43112150000002
 20
800.62927300000001
 11
-181.41146849999996
 21
800.77069099999994
  0
LINE
  8
_0-0_0
  6
CONTINUOUS
 62
    7
 10
-182.49761949999993
 20
800.49997000000008
 11
-181.44680749999998
 21
800.49997000000008
  0
LINE
  8
_0-0_0
  6
CONTINUOUS
 62
    7
 10
-181.43112150000002
 20
800.62927300000001
 11
-181.44680749999998
 21
800.49997000000008
  0
ARC
  8
_0-0_0
  6
CONTINUOUS
 62
    7
 10
-173.49761949999993
 20
799.59997599999997
 40
8
 50
173.54054500000001
 51
178.567455
  0
LINE
  8
_0-0_0
  6
CONTINUOUS
 62
    7
 10
-182.49761949999993
 20
799.79998799999998
 11
-181.49511749999999
 21
799.79998799999998
  0
LINE
  8
_0-0_0
  6
CONTINUOUS
 62
    7
 10
-181.49511749999999
 20
799.79998799999998
 11
-181.49728349999998
 21
799.67068500000005
  0
LINE
  8
_0-0_0
  6
CONTINUOUS
 62
    7
 10
-181.49761949999993
 20
799.59997599999997
 11
-181.49728349999998
 21
799.67068500000005
  0
LINE
  8
_0-0_0
  6
CONTINUOUS
 62
    7
 10
-182.49761949999993
 20
799.39999399999999
 11
-181.49511749999999
 21
799.39999399999999
  0
LINE
  8
_0-0_0
  6
CONTINUOUS
 62
    7
 10
-182.49761949999993
 20
798.69998199999998
 11
-181.44680749999998
 21
798.69998199999998
  0
LINE
  8
_0-0_0
  6
CONTINUOUS
 62
    7
 10
-182.49761949999993
 20
798.29998799999998
 11
-181.39126549999992
 21
798.29998799999998
  0
LINE
  8
_0-0_0
  6
CONTINUOUS
 62
    7
 10
-182.49761949999993
 20
797.59997599999997
 11
-181.24356050000006
 21
797.59997599999997
  0
LINE
  8
_0-0_0
  6
CONTINUOUS
 62
    7
 10
-182.49761949999993
 20
797.19998199999998
 11
-181.1291195
 21
797.19998199999998
  0
LINE
  8
_0-0_0
  6
CONTINUOUS
 62
    7
 10
-182.49761949999993
 20
796.49997000000008
 11
-180.87255849999997
 21
796.49997000000008
  0
LINE
  8
_0-0_0
  6
CONTINUOUS
 62
    7
 10
-182.49761949999993
 20
796.09997599999997
 11
-180.69134550000001
 21
796.09997599999997
  0
LINE
  8
_0-0_0
  6
CONTINUOUS
 62
    7
 10
-182.49761949999993
 20
795.39999399999999
 11
-180.30642749999993
 21
795.39999399999999
  0
LINE
  8
_0-0_0
  6
CONTINUOUS
 62
    7
 10
-165.50010650000002
 20
799.79998799999998
 11
-165.49760449999997
 21
799.59997599999997
  0
ARC
  8
_0-0_0
  6
CONTINUOUS
 62
    7
 10
-173.49761949999993
 20
799.59997599999997
 40
8
 50
1.432544
 51
6.4594489999999993
  0
LINE
  8
_0-0_0
  6
CONTINUOUS
 62
    7
 10
-165.57359350000002
 20
800.69998199999998
 11
-165.54840049999996
 21
800.49997000000008
  0
LINE
  8
_0-0_0
  6
CONTINUOUS
 62
    7
 10
-165.60394250000002
 20
800.89999399999999
 11
-165.57359350000002
 21
800.69998199999998
  0
ARC
  8
_0-0_0
  6
CONTINUOUS
 62
    7
 10
-173.49761949999993
 20
799.59997599999997
 40
8
 50
9.3520350000000008
 51
14.477510999999998
  0
LINE
  8
_0-0_0
  6
CONTINUOUS
 62
    7
 10
-165.80606050000006
 20
801.79998799999998
 11
-165.75164849999999
 21
801.59997599999997
  0
LINE
  8
_0-0_0
  6
CONTINUOUS
 62
    7
 10
-165.86608849999993
 20
801.99997000000008
 11
-165.80606050000006
 21
801.79998799999998
  0
ARC
  8
_0-0_0
  6
CONTINUOUS
 62
    7
 10
-173.49761949999993
 20
799.59997599999997
 40
8
 50
17.457602999999999
 51
22.799030999999999
  0
LINE
  8
_0-0_0
  6
CONTINUOUS
 62
    7
 10
-166.2099455
 20
802.89999399999999
 11
-166.12265049999996
 21
802.69998199999998
  0
LINE
  8
_0-0_0
  6
CONTINUOUS
 62
    7
 10
-166.30386350000003
 20
803.09997599999997
 11
-166.2099455
 21
802.89999399999999
  0
ARC
  8
_0-0_0
  6
CONTINUOUS
 62
    7
 10
-173.49761949999993
 20
799.59997599999997
 40
8
 50
25.944476999999999
 51
31.668240000000001
  0
LINE
  8
_0-0_0
  6
CONTINUOUS
 62
    7
 10
-166.77026350000006
 20
803.92929099999992
 11
-166.6887815
 21
803.79998799999998
  0
LINE
  8
_0-0_0
  6
CONTINUOUS
 62
    7
 10
-166.77026350000006
 20
803.92929099999992
 11
-166.8634035
 21
804.07070899999997
  0
LINE
  8
_0-0_0
  6
CONTINUOUS
 62
    7
 10
-166.95237750000001
 20
804.19998199999998
 11
-166.8634035
 21
804.07070899999997
  0
CIRCLE
  8
_0-0_0
  6
CONTINUOUS
 62
    7
 10
-173.49761949999993
 20
799.59997599999997
 40
7.5
  0
LINE
  8
_0-0_0
  6
CONTINUOUS
 62
    7
 10
-165.50010650000002
 20
799.79998799999998
 11
1573.5049435000001
 21
799.79998799999998
  0
LINE
  8
_0-0_0
  6
CONTINUOUS
 62
    7
 10
-165.54840049999996
 20
800.49997000000008
 11
1573.5532834999999
 21
800.49997000000008
  0
LINE
  8
_0-0_0
  6
CONTINUOUS
 62
    7
 10
-165.57359350000002
 20
800.69998199999998
 11
1573.5784305
 21
800.69998199999998
  0
LINE
  8
_0-0_0
  6
CONTINUOUS
 62
    7
 10
-165.60394250000002
 20
800.89999399999999
 11
1573.6088255
 21
800.89999399999999
  0
LINE
  8
_0-0_0
  6
CONTINUOUS
 62
    7
 10
-165.75164849999999
 20
801.59997599999997
 11
1573.7565305000001
 21
801.59997599999997
  0
LINE
  8
_0-0_0
  6
CONTINUOUS
 62
    7
 10
-165.80606050000006
 20
801.79998799999998
 11
1573.8109744999999
 21
801.79998799999998
  0
LINE
  8
_0-0_0
  6
CONTINUOUS
 62
    7
 10
-165.86608849999993
 20
801.99997000000008
 11
1573.8710325
 21
801.99997000000008
  0
LINE
  8
_0-0_0
  6
CONTINUOUS
 62
    7
 10
-166.12265049999996
 20
802.69998199999998
 11
1574.1275025
 21
802.69998199999998
  0
LINE
  8
_0-0_0
  6
CONTINUOUS
 62
    7
 10
-166.2099455
 20
802.89999399999999
 11
1574.2147825
 21
802.89999399999999
  0
LINE
  8
_0-0_0
  6
CONTINUOUS
 62
    7
 10
-166.30386350000003
 20
803.09997599999997
 11
1574.3087765
 21
803.09997599999997
  0
LINE
  8
_0-0_0
  6
CONTINUOUS
 62
    7
 10
-166.6887815
 20
803.79998799999998
 11
1574.6936645000001
 21
803.79998799999998
  0
LINE
  8
_0-0_0
  6
CONTINUOUS
 62
    7
 10
1591.0025025
 20
781.59997599999997
 11
1590.5025025
 21
781.59997599999997
  0
LINE
  8
_0-0_0
  6
CONTINUOUS
 62
    7
 10
1591.0025025
 20
809.19998199999998
 11
1591.0025025
 21
809.99997000000008
  0
LINE
  8
_0-0_0
  6
CONTINUOUS
 62
    7
 10
1591.0025025
 20
781.39999399999999
 11
1591.0025025
 21
809.19998199999998
  0
ARC
  8
_0-0_0
  6
CONTINUOUS
 62
    7
 10
1581.5025025
 20
800.29998799999998
 40
12.800000000000001
 50
73.932597000000001
 51
106.06740099999999
  0
LINE
  8
_0-0_0
  6
CONTINUOUS
 62
    7
 10
-182.99761949999993
 20
809.19998199999998
 11
-182.99761949999993
 21
809.99997000000008
  0
LINE
  8
_0-0_0
  6
CONTINUOUS
 62
    7
 10
-182.99761949999993
 20
781.39999399999999
 11
-182.99761949999993
 21
809.19998199999998
  0
ARC
  8
_0-0_0
  6
CONTINUOUS
 62
    7
 10
-173.49761949999993
 20
800.29998799999998
 40
12.800000000000001
 50
73.932597000000001
 51
106.06740099999999
  0
LINE
  8
_0-0_0
  6
CONTINUOUS
 62
    7
 10
402.00238050000002
 20
812.59997599999997
 11
402.00238050000002
 21
818.23989899999992
  0
LINE
  8
_0-0_0
  6
CONTINUOUS
 62
    7
 10
421.00238050000002
 20
818.23989899999992
 11
421.00238050000002
 21
812.59997599999997
  0
LINE
  8
_0-0_0
  6
CONTINUOUS
 62
    7
 10
987.00250249999999
 20
812.59997599999997
 11
987.00250249999999
 21
818.23989899999992
  0
LINE
  8
_0-0_0
  6
CONTINUOUS
 62
    7
 10
1006.0025025
 20
818.23989899999992
 11
1006.0025025
 21
812.59997599999997
  0
LINE
  8
_0-0_0
  6
CONTINUOUS
 62
    7
 10
1591.0025025
 20
810.09997599999997
 11
1591.0025025
 21
812.59997599999997
  0
LINE
  8
_0-0_0
  6
CONTINUOUS
 62
    7
 10
-182.99761949999993
 20
812.59997599999997
 11
1591.0025025
 21
812.59997599999997
  0
LINE
  8
_0-0_0
  6
CONTINUOUS
 62
    7
 10
-182.99761949999993
 20
810.09997599999997
 11
-182.99761949999993
 21
812.59997599999997
  0
LINE
  8
_0-0_0
  6
CONTINUOUS
 62
    7
 10
-182.99761949999993
 20
781.59997599999997
 11
-182.49761949999993
 21
781.59997599999997
  0
ARC
  8
_0-0_0
  6
CONTINUOUS
 62
    7
 10
1512.8025514999999
 20
786.49997000000008
 40
0.2
 50
339.62356199999999
 51
90.000002999999978
  0
LINE
  8
_0-0_0
  6
CONTINUOUS
 62
    7
 10
1512.9899295
 20
786.43035899999995
 11
1511.6900025
 21
782.93035899999995
  0
ARC
  8
_0-0_0
  6
CONTINUOUS
 62
    7
 10
1511.5025025
 20
782.99997000000008
 40
0.2
 50
200.37643
 51
339.62356199999999
  0
LINE
  8
_0-0_0
  6
CONTINUOUS
 62
    7
 10
1510.0150755
 20
786.43035899999995
 11
1511.3150025
 21
782.93035899999995
  0
ARC
  8
_0-0_0
  6
CONTINUOUS
 62
    7
 10
1510.2024535
 20
786.49997000000008
 40
0.2
 50
90.000003000000007
 51
200.37643
  0
LINE
  8
_0-0_0
  6
CONTINUOUS
 62
    7
 10
1510.2024535
 20
786.69998199999998
 11
1512.8025514999999
 21
786.69998199999998
  0
ARC
  8
_0-0_0
  6
CONTINUOUS
 62
    7
 10
-127.19760150000002
 20
786.49997000000008
 40
0.2
 50
339.62356199999999
 51
90.000002999999978
  0
LINE
  8
_0-0_0
  6
CONTINUOUS
 62
    7
 10
-127.01013149999994
 20
786.43035899999995
 11
-128.31011949999993
 21
782.93035899999995
  0
ARC
  8
_0-0_0
  6
CONTINUOUS
 62
    7
 10
-128.49761949999993
 20
782.99997000000008
 40
0.2
 50
200.37643
 51
339.62356199999999
  0
LINE
  8
_0-0_0
  6
CONTINUOUS
 62
    7
 10
-129.98509249999995
 20
786.43035899999995
 11
-128.6850895
 21
782.93035899999995
  0
ARC
  8
_0-0_0
  6
CONTINUOUS
 62
    7
 10
-129.79760750000003
 20
786.49997000000008
 40
0.2
 50
90.000003000000007
 51
200.37643
  0
LINE
  8
_0-0_0
  6
CONTINUOUS
 62
    7
 10
-129.79760750000003
 20
786.69998199999998
 11
-127.19760150000002
 21
786.69998199999998
  0
LINE
  8
_0-0_0
  6
CONTINUOUS
 62
    7
 10
1592.0025025
 20
809.19998199999998
 11
1591.0025025
 21
809.19998199999998
  0
LINE
  8
_0-0_0
  6
CONTINUOUS
 62
    7
 10
1592.0025025
 20
810.23696900000004
 11
1591.0025025
 21
810.23696900000004
  0
LINE
  8
_0-0_0
  6
CONTINUOUS
 62
    7
 10
1592.0025025
 20
781.39999399999999
 11
1591.0025025
 21
781.39999399999999
  0
ARC
  8
_0-0_0
  6
CONTINUOUS
 62
    7
 10
996.50250249999999
 20
800.29998799999998
 40
20.299999
 50
62.096725999999997
 51
117.903272
  0
CIRCLE
  8
_0-0_0
  6
CONTINUOUS
 62
    7
 10
996.50250249999999
 20
816.59997599999997
 40
2.5
  0
ARC
  8
_0-0_0
  6
CONTINUOUS
 62
    7
 10
411.50238050000002
 20
800.29998799999998
 40
20.299999
 50
62.096725999999997
 51
117.903272
  0
CIRCLE
  8
_0-0_0
  6
CONTINUOUS
 62
    7
 10
411.50238050000002
 20
816.59997599999997
 40
2.5
  0
LINE
  8
_0-0_0
  6
CONTINUOUS
 62
    7
 10
-183.99761949999993
 20
809.19998199999998
 11
-182.99761949999993
 21
809.19998199999998
  0
LINE
  8
_0-0_0
  6
CONTINUOUS
 62
    7
 10
-183.99761949999993
 20
810.19998199999998
 11
-182.99761949999993
 21
810.19998199999998
  0
LINE
  8
_0-0_0
  6
CONTINUOUS
 62
    7
 10
-183.99761949999993
 20
781.39999399999999
 11
-182.99761949999993
 21
781.39999399999999
  0
LINE
  8
_0-0_0
  6
CONTINUOUS
 62
    7
 10
1592.0025025
 20
812.39999399999999
 11
1591.0025025
 21
812.39999399999999
  0
LINE
  8
_0-0_0
  6
CONTINUOUS
 62
    7
 10
-183.99761949999993
 20
812.39999399999999
 11
-182.99761949999993
 21
812.39999399999999
  0
LINE
  8
_0-0_0
  6
CONTINUOUS
 62
    7
 10
1593.0025025
 20
808.78576699999996
 11
1593.0015255000001
 21
808.80429099999992
  0
LINE
  8
_0-0_0
  6
CONTINUOUS
 62
    7
 10
1593.0015255000001
 20
808.80429099999992
 11
1592.9984744999999
 21
808.822723
  0
LINE
  8
_0-0_0
  6
CONTINUOUS
 62
    7
 10
1592.9984744999999
 20
808.822723
 11
1592.9932255000001
 21
808.841858
  0
LINE
  8
_0-0_0
  6
CONTINUOUS
 62
    7
 10
1592.9932255000001
 20
808.841858
 11
1592.9859005000001
 21
808.86086999999998
  0
LINE
  8
_0-0_0
  6
CONTINUOUS
 62
    7
 10
1592.9859005000001
 20
808.86086999999998
 11
1592.9653935000001
 21
808.89758299999994
  0
LINE
  8
_0-0_0
  6
CONTINUOUS
 62
    7
 10
1592.9653935000001
 20
808.89758299999994
 11
1592.9369505
 21
808.93325800000002
  0
LINE
  8
_0-0_0
  6
CONTINUOUS
 62
    7
 10
1592.9369505
 20
808.93325800000002
 11
1592.9010615
 21
808.96756000000005
  0
LINE
  8
_0-0_0
  6
CONTINUOUS
 62
    7
 10
1592.9010615
 20
808.96756000000005
 11
1592.8524775000001
 21
809.00402800000006
  0
LINE
  8
_0-0_0
  6
CONTINUOUS
 62
    7
 10
1592.8524775000001
 20
809.00402800000006
 11
1592.7957154999999
 21
809.03802500000006
  0
LINE
  8
_0-0_0
  6
CONTINUOUS
 62
    7
 10
1592.7957154999999
 20
809.03802500000006
 11
1592.7315065
 21
809.06927500000006
  0
LINE
  8
_0-0_0
  6
CONTINUOUS
 62
    7
 10
1592.7315065
 20
809.06927500000006
 11
1592.6608275000001
 21
809.097534
  0
LINE
  8
_0-0_0
  6
CONTINUOUS
 62
    7
 10
1592.6608275000001
 20
809.097534
 11
1592.6127315000001
 21
809.11389199999996
  0
LINE
  8
_0-0_0
  6
CONTINUOUS
 62
    7
 10
1592.6127315000001
 20
809.11389199999996
 11
1592.5626835
 21
809.12887599999999
  0
LINE
  8
_0-0_0
  6
CONTINUOUS
 62
    7
 10
1592.5626835
 20
809.12887599999999
 11
1592.5059205
 21
809.14364599999999
  0
LINE
  8
_0-0_0
  6
CONTINUOUS
 62
    7
 10
1592.5059205
 20
809.14364599999999
 11
1592.4473264999999
 21
809.15673800000002
  0
LINE
  8
_0-0_0
  6
CONTINUOUS
 62
    7
 10
1592.4473264999999
 20
809.15673800000002
 11
1592.3305055000001
 21
809.17706299999998
  0
LINE
  8
_0-0_0
  6
CONTINUOUS
 62
    7
 10
1592.3305055000001
 20
809.17706299999998
 11
1592.2232054999999
 21
809.18978900000002
  0
LINE
  8
_0-0_0
  6
CONTINUOUS
 62
    7
 10
1592.2232054999999
 20
809.18978900000002
 11
1592.1133425
 21
809.19741799999997
  0
LINE
  8
_0-0_0
  6
CONTINUOUS
 62
    7
 10
1592.1133425
 20
809.19741799999997
 11
1592.0025025
 21
809.19998199999998
  0
LINE
  8
_0-0_0
  6
CONTINUOUS
 62
    7
 10
1593.0025025
 20
808.78576699999996
 11
1593.0025025
 21
809.78582800000004
  0
LINE
  8
_0-0_0
  6
CONTINUOUS
 62
    7
 10
1593.0025025
 20
809.78582800000004
 11
1592.9995725000001
 21
809.81741299999999
  0
LINE
  8
_0-0_0
  6
CONTINUOUS
 62
    7
 10
1592.9995725000001
 20
809.81741299999999
 11
1592.9909055000001
 21
809.84948699999995
  0
LINE
  8
_0-0_0
  6
CONTINUOUS
 62
    7
 10
1592.9909055000001
 20
809.84948699999995
 11
1592.9763795000001
 21
809.88174400000003
  0
LINE
  8
_0-0_0
  6
CONTINUOUS
 62
    7
 10
1592.9763795000001
 20
809.88174400000003
 11
1592.9561154999999
 21
809.91390999999999
  0
LINE
  8
_0-0_0
  6
CONTINUOUS
 62
    7
 10
1592.9561154999999
 20
809.91390999999999
 11
1592.9395145000001
 21
809.93515000000002
  0
LINE
  8
_0-0_0
  6
CONTINUOUS
 62
    7
 10
1592.9395145000001
 20
809.93515000000002
 11
1592.9205935
 21
809.95608500000003
  0
LINE
  8
_0-0_0
  6
CONTINUOUS
 62
    7
 10
1592.9205935
 20
809.95608500000003
 11
1592.8757935000001
 21
809.99688700000002
  0
LINE
  8
_0-0_0
  6
CONTINUOUS
 62
    7
 10
1592.8757935000001
 20
809.99688700000002
 11
1592.8225705
 21
810.03561400000001
  0
LINE
  8
_0-0_0
  6
CONTINUOUS
 62
    7
 10
1592.8225705
 20
810.03561400000001
 11
1592.7726435
 21
810.06582700000001
  0
LINE
  8
_0-0_0
  6
CONTINUOUS
 62
    7
 10
1592.7726435
 20
810.06582700000001
 11
1592.7179564999999
 21
810.09405500000003
  0
LINE
  8
_0-0_0
  6
CONTINUOUS
 62
    7
 10
1592.7179564999999
 20
810.09405500000003
 11
1592.6589965000001
 21
810.12008700000001
  0
LINE
  8
_0-0_0
  6
CONTINUOUS
 62
    7
 10
1592.6589965000001
 20
810.12008700000001
 11
1592.6122435
 21
810.13809199999992
  0
LINE
  8
_0-0_0
  6
CONTINUOUS
 62
    7
 10
1592.6122435
 20
810.13809199999992
 11
1592.5635374999999
 21
810.15469400000006
  0
LINE
  8
_0-0_0
  6
CONTINUOUS
 62
    7
 10
1592.5635374999999
 20
810.15469400000006
 11
1592.4611205000001
 21
810.18356300000005
  0
LINE
  8
_0-0_0
  6
CONTINUOUS
 62
    7
 10
1592.4611205000001
 20
810.18356300000005
 11
1592.3534545
 21
810.20639000000006
  0
LINE
  8
_0-0_0
  6
CONTINUOUS
 62
    7
 10
1592.3534545
 20
810.20639000000006
 11
1592.2417605000001
 21
810.22299199999998
  0
LINE
  8
_0-0_0
  6
CONTINUOUS
 62
    7
 10
1592.2417605000001
 20
810.22299199999998
 11
1592.1277465000001
 21
810.23318500000005
  0
LINE
  8
_0-0_0
  6
CONTINUOUS
 62
    7
 10
1592.1277465000001
 20
810.23318500000005
 11
1592.0025025
 21
810.23696900000004
  0
ARC
  8
_0-0_0
  6
CONTINUOUS
 62
    7
 10
1592.0025025
 20
782.39999399999999
 40
1
 50
269.99999700000001
 51
0
  0
LINE
  8
_0-0_0
  6
CONTINUOUS
 62
    7
 10
1593.0025025
 20
782.39999399999999
 11
1593.0025025
 21
808.78576699999996
  0
LINE
  8
_0-0_0
  6
CONTINUOUS
 62
    7
 10
-184.99761949999993
 20
808.78576699999996
 11
-184.99661250000008
 21
808.80429099999992
  0
LINE
  8
_0-0_0
  6
CONTINUOUS
 62
    7
 10
-184.99661250000008
 20
808.80429099999992
 11
-184.99362150000002
 21
808.822723
  0
LINE
  8
_0-0_0
  6
CONTINUOUS
 62
    7
 10
-184.99362150000002
 20
808.822723
 11
-184.98837249999997
 21
808.841858
  0
LINE
  8
_0-0_0
  6
CONTINUOUS
 62
    7
 10
-184.98837249999997
 20
808.841858
 11
-184.98098750000008
 21
808.86086999999998
  0
LINE
  8
_0-0_0
  6
CONTINUOUS
 62
    7
 10
-184.98098750000008
 20
808.86086999999998
 11
-184.96044949999987
 21
808.89758299999994
  0
LINE
  8
_0-0_0
  6
CONTINUOUS
 62
    7
 10
-184.96044949999987
 20
808.89758299999994
 11
-184.93203749999998
 21
808.93325800000002
  0
LINE
  8
_0-0_0
  6
CONTINUOUS
 62
    7
 10
-184.93203749999998
 20
808.93325800000002
 11
-184.89617950000002
 21
808.96756000000005
  0
LINE
  8
_0-0_0
  6
CONTINUOUS
 62
    7
 10
-184.89617950000002
 20
808.96756000000005
 11
-184.84753449999994
 21
809.00402800000006
  0
LINE
  8
_0-0_0
  6
CONTINUOUS
 62
    7
 10
-184.84753449999994
 20
809.00402800000006
 11
-184.79077150000012
 21
809.03802500000006
  0
LINE
  8
_0-0_0
  6
CONTINUOUS
 62
    7
 10
-184.79077150000012
 20
809.03802500000006
 11
-184.72662349999996
 21
809.06927500000006
  0
LINE
  8
_0-0_0
  6
CONTINUOUS
 62
    7
 10
-184.72662349999996
 20
809.06927500000006
 11
-184.65597550000007
 21
809.097534
  0
LINE
  8
_0-0_0
  6
CONTINUOUS
 62
    7
 10
-184.65597550000007
 20
809.097534
 11
-184.60787949999985
 21
809.11389199999996
  0
LINE
  8
_0-0_0
  6
CONTINUOUS
 62
    7
 10
-184.60787949999985
 20
809.11389199999996
 11
-184.55776949999995
 21
809.12887599999999
  0
LINE
  8
_0-0_0
  6
CONTINUOUS
 62
    7
 10
-184.55776949999995
 20
809.12887599999999
 11
-184.50106849999997
 21
809.14364599999999
  0
LINE
  8
_0-0_0
  6
CONTINUOUS
 62
    7
 10
-184.50106849999997
 20
809.14364599999999
 11
-184.44244350000008
 21
809.15673800000002
  0
LINE
  8
_0-0_0
  6
CONTINUOUS
 62
    7
 10
-184.44244350000008
 20
809.15673800000002
 11
-184.32565350000004
 21
809.17706299999998
  0
LINE
  8
_0-0_0
  6
CONTINUOUS
 62
    7
 10
-184.32565350000004
 20
809.17706299999998
 11
-184.21826149999993
 21
809.18978900000002
  0
LINE
  8
_0-0_0
  6
CONTINUOUS
 62
    7
 10
-184.21826149999993
 20
809.18978900000002
 11
-184.10849050000002
 21
809.19741799999997
  0
LINE
  8
_0-0_0
  6
CONTINUOUS
 62
    7
 10
-184.10849050000002
 20
809.19741799999997
 11
-183.99761949999993
 21
809.19998199999998
  0
LINE
  8
_0-0_0
  6
CONTINUOUS
 62
    7
 10
-184.99761949999993
 20
809.75543199999993
 11
-184.99472049999986
 21
809.78634699999998
  0
LINE
  8
_0-0_0
  6
CONTINUOUS
 62
    7
 10
-184.99472049999986
 20
809.78634699999998
 11
-184.9860235000001
 21
809.81777999999997
  0
LINE
  8
_0-0_0
  6
CONTINUOUS
 62
    7
 10
-184.9860235000001
 20
809.81777999999997
 11
-184.97152749999987
 21
809.84945700000003
  0
LINE
  8
_0-0_0
  6
CONTINUOUS
 62
    7
 10
-184.97152749999987
 20
809.84945700000003
 11
-184.95138550000001
 21
809.88104299999998
  0
LINE
  8
_0-0_0
  6
CONTINUOUS
 62
    7
 10
-184.95138550000001
 20
809.88104299999998
 11
-184.93484549999994
 21
809.90191699999991
  0
LINE
  8
_0-0_0
  6
CONTINUOUS
 62
    7
 10
-184.93484549999994
 20
809.90191699999991
 11
-184.9159545
 21
809.92251599999997
  0
LINE
  8
_0-0_0
  6
CONTINUOUS
 62
    7
 10
-184.9159545
 20
809.92251599999997
 11
-184.87130750000006
 21
809.96267699999999
  0
LINE
  8
_0-0_0
  6
CONTINUOUS
 62
    7
 10
-184.87130750000006
 20
809.96267699999999
 11
-184.81817649999994
 21
810.00088499999993
  0
LINE
  8
_0-0_0
  6
CONTINUOUS
 62
    7
 10
-184.81817649999994
 20
810.00088499999993
 11
-184.76828049999995
 21
810.03070099999991
  0
LINE
  8
_0-0_0
  6
CONTINUOUS
 62
    7
 10
-184.76828049999995
 20
810.03070099999991
 11
-184.7135925
 21
810.05856300000005
  0
LINE
  8
_0-0_0
  6
CONTINUOUS
 62
    7
 10
-184.7135925
 20
810.05856300000005
 11
-184.65463249999993
 21
810.08431999999993
  0
LINE
  8
_0-0_0
  6
CONTINUOUS
 62
    7
 10
-184.65463249999993
 20
810.08431999999993
 11
-184.60787949999985
 21
810.102081
  0
LINE
  8
_0-0_0
  6
CONTINUOUS
 62
    7
 10
-184.60787949999985
 20
810.102081
 11
-184.55917350000004
 21
810.11852999999996
  0
LINE
  8
_0-0_0
  6
CONTINUOUS
 62
    7
 10
-184.55917350000004
 20
810.11852999999996
 11
-184.45672650000006
 21
810.14709500000004
  0
LINE
  8
_0-0_0
  6
CONTINUOUS
 62
    7
 10
-184.45672650000006
 20
810.14709500000004
 11
-184.3489075
 21
810.16970800000001
  0
LINE
  8
_0-0_0
  6
CONTINUOUS
 62
    7
 10
-184.3489075
 20
810.16970800000001
 11
-184.23724349999998
 21
810.18612699999994
  0
LINE
  8
_0-0_0
  6
CONTINUOUS
 62
    7
 10
-184.23724349999998
 20
810.18612699999994
 11
-184.12307749999991
 21
810.19622800000002
  0
LINE
  8
_0-0_0
  6
CONTINUOUS
 62
    7
 10
-184.12307749999991
 20
810.19622800000002
 11
-183.99761949999993
 21
810.19998199999998
  0
LINE
  8
_0-0_0
  6
CONTINUOUS
 62
    7
 10
-184.99761949999993
 20
808.78576699999996
 11
-184.99761949999993
 21
809.75543199999993
  0
ARC
  8
_0-0_0
  6
CONTINUOUS
 62
    7
 10
-183.99761949999993
 20
782.39999399999999
 40
1
 50
180.00000900000003
 51
269.99999700000001
  0
LINE
  8
_0-0_0
  6
CONTINUOUS
 62
    7
 10
-184.99761949999993
 20
782.39999399999999
 11
-184.99761949999993
 21
808.78576699999996
  0
CIRCLE
  8
_0-0_0
  6
CONTINUOUS
 62
    7
 10
-173.49761949999993
 20
799.59997599999997
 40
5
  0
CIRCLE
  8
_0-0_0
  6
CONTINUOUS
 62
    7
 10
1581.5025025
 20
799.59997599999997
 40
5
  0
LINE
  8
_0-0_0
  6
CONTINUOUS
 62
    7
 10
1593.0025025
 20
809.78582800000004
 11
1593.0025025
 21
811.39999399999999
  0
ARC
  8
_0-0_0
  6
CONTINUOUS
 62
    7
 10
1592.0025025
 20
811.39999399999999
 40
1
 50
0
 51
90.000003000000007
  0
ARC
  8
_0-0_0
  6
CONTINUOUS
 62
    7
 10
-183.99761949999993
 20
811.39999399999999
 40
1
 50
90.000003000000007
 51
180.00000900000001
  0
LINE
  8
_0-0_0
  6
CONTINUOUS
 62
    7
 10
-184.99761949999993
 20
809.75543199999993
 11
-184.99761949999993
 21
811.39999399999999
  0
LINE
  8
_0-0_0
  6
CONTINUOUS
 62
    7
 10
-212.90747050000004
 20
781.39999399999999
 11
-212.90747050000004
 21
780.79998799999998
  0
LINE
  8
_0-0_0
  6
CONTINUOUS
 62
    7
 10
-210.40747050000004
 20
775.55499299999997
 11
-210.40747050000004
 21
777.79998799999998
  0
LINE
  8
_0-0_0
  6
CONTINUOUS
 62
    7
 10
-209.40747050000004
 20
777.79998799999998
 11
-209.40747050000004
 21
779.79998799999998
  0
ARC
  8
_0-0_0
  6
CONTINUOUS
 62
    7
 10
-209.90747050000004
 20
779.79998799999998
 40
0.5
 50
0
 51
90.000003000000007
  0
LINE
  8
_0-0_0
  6
CONTINUOUS
 62
    7
 10
-209.90747050000004
 20
780.29998799999998
 11
-211.40747050000004
 21
780.29998799999998
  0
ARC
  8
_0-0_0
  6
CONTINUOUS
 62
    7
 10
-211.40747050000004
 20
781.29998799999998
 40
1
 50
180.00000900000003
 51
269.99999700000001
  0
LINE
  8
_0-0_0
  6
CONTINUOUS
 62
    7
 10
-212.40747050000004
 20
781.39999399999999
 11
-212.40747050000004
 21
781.29998799999998
  0
ARC
  8
_0-0_0
  6
CONTINUOUS
 62
    7
 10
-211.40747050000004
 20
780.79998799999998
 40
1.5
 50
180.00000900000003
 51
269.99999700000001
  0
LINE
  8
_0-0_0
  6
CONTINUOUS
 62
    7
 10
-211.40747050000004
 20
779.29998799999998
 11
-212.10748250000006
 21
779.29998799999998
  0
ARC
  8
_0-0_0
  6
CONTINUOUS
 62
    7
 10
-212.10748250000006
 20
780.29998799999998
 40
1
 50
180.00000900000003
 51
269.99999700000001
  0
LINE
  8
_0-0_0
  6
CONTINUOUS
 62
    7
 10
-213.10748250000006
 20
781.29998799999998
 11
-213.10748250000006
 21
780.29998799999998
  0
LINE
  8
_0-0_0
  6
CONTINUOUS
 62
    7
 10
-221.30746449999992
 20
780.29998799999998
 11
-221.30746449999992
 21
781.29998799999998
  0
ARC
  8
_0-0_0
  6
CONTINUOUS
 62
    7
 10
-222.30746449999992
 20
780.29998799999998
 40
1
 50
269.99999700000001
 51
0
  0
LINE
  8
_0-0_0
  6
CONTINUOUS
 62
    7
 10
-222.30746449999992
 20
779.29998799999998
 11
-222.50747649999994
 21
779.29998799999998
  0
ARC
  8
_0-0_0
  6
CONTINUOUS
 62
    7
 10
-222.50747649999994
 20
780.29998799999998
 40
1
 50
269.99999700000001
 51
0
  0
LINE
  8
_0-0_0
  6
CONTINUOUS
 62
    7
 10
-221.50747649999994
 20
780.29998799999998
 11
-221.50747649999994
 21
781.39999399999999
  0
LINE
  8
_0-0_0
  6
CONTINUOUS
 62
    7
 10
-222.00747649999994
 20
781.29998799999998
 11
-222.00747649999994
 21
781.39999399999999
  0
ARC
  8
_0-0_0
  6
CONTINUOUS
 62
    7
 10
-223.00747649999994
 20
781.29998799999998
 40
1
 50
269.99999700000001
 51
0
  0
LINE
  8
_0-0_0
  6
CONTINUOUS
 62
    7
 10
-223.00747649999994
 20
780.29998799999998
 11
-224.50747649999994
 21
780.29998799999998
  0
ARC
  8
_0-0_0
  6
CONTINUOUS
 62
    7
 10
-224.50747649999994
 20
779.79998799999998
 40
0.5
 50
90.000003000000007
 51
180.00000900000001
  0
LINE
  8
_0-0_0
  6
CONTINUOUS
 62
    7
 10
-225.00747649999994
 20
779.79998799999998
 11
-225.00747649999994
 21
777.79998799999998
  0
LINE
  8
_0-0_0
  6
CONTINUOUS
 62
    7
 10
-224.00747649999994
 20
775.55499299999997
 11
-224.00747649999994
 21
777.79998799999998
  0
LINE
  8
_0-0_0
  6
CONTINUOUS
 62
    7
 10
-225.90747050000004
 20
757.19998199999998
 11
-225.90747050000004
 21
775.55499299999997
  0
LINE
  8
_0-0_0
  6
CONTINUOUS
 62
    7
 10
-209.10748250000006
 20
757.19998199999998
 11
-209.10748250000006
 21
775.55499299999997
  0
CIRCLE
  8
_0-0_0
  6
CONTINUOUS
 62
    7
 10
-217.20748950000007
 20
777.79998799999998
 40
2.0499999999999998
  0
LINE
  8
_0-0_0
  6
CONTINUOUS
 62
    7
 10
-209.10748250000006
 20
779.29998799999998
 11
-209.10748250000006
 21
779.27499399999999
  0
LINE
  8
_0-0_0
  6
CONTINUOUS
 62
    7
 10
-209.10748250000006
 20
776.05493200000001
 11
-209.10748250000006
 21
776.32498199999998
  0
LINE
  8
_0-0_0
  6
CONTINUOUS
 62
    7
 10
-209.10748250000006
 20
775.55499299999997
 11
-209.10748250000006
 21
776.05499299999997
  0
LINE
  8
_0-0_0
  6
CONTINUOUS
 62
    7
 10
-209.10748250000006
 20
755.19998199999998
 11
-209.10748250000006
 21
757.19998199999998
  0
LINE
  8
_0-0_0
  6
CONTINUOUS
 62
    7
 10
-225.90747050000004
 20
755.19998199999998
 11
-225.90747050000004
 21
757.19998199999998
  0
LINE
  8
_0-0_0
  6
CONTINUOUS
 62
    7
 10
-225.90747050000004
 20
755.19998199999998
 11
-209.10748250000006
 21
755.19998199999998
  0
LINE
  8
_0-0_0
  6
CONTINUOUS
 62
    7
 10
-225.90747050000004
 20
779.29998799999998
 11
-225.90747050000004
 21
777.79998799999998
  0
LINE
  8
_0-0_0
  6
CONTINUOUS
 62
    7
 10
-225.90747050000004
 20
776.05499299999997
 11
-225.90747050000004
 21
777.79998799999998
  0
LINE
  8
_0-0_0
  6
CONTINUOUS
 62
    7
 10
-225.90747050000004
 20
775.55499299999997
 11
-225.90747050000004
 21
776.05499299999997
  0
LINE
  8
_0-0_0
  6
CONTINUOUS
 62
    7
 10
-225.00747649999994
 20
776.05505399999993
 11
-225.00747649999994
 21
777.79998799999998
  0
ARC
  8
_0-0_0
  6
CONTINUOUS
 62
    7
 10
-210.70748950000007
 20
757.29998799999998
 40
2
 50
323.13010300000002
 51
0.0000000000000127
  0
LINE
  8
_0-0_0
  6
CONTINUOUS
 62
    7
 10
-208.70748950000007
 20
757.29998799999998
 11
-208.70748950000007
 21
758.70004300000005
  0
LINE
  8
_0-0_0
  6
CONTINUOUS
 62
    7
 10
-208.40747050000004
 20
763.78967299999999
 11
-208.40747050000004
 21
774.23767099999998
  0
LINE
  8
_0-0_0
  6
CONTINUOUS
 62
    7
 10
-208.40747050000004
 20
775.20047
 11
-208.40747050000004
 21
777.43511999999998
  0
LINE
  8
_0-0_0
  6
CONTINUOUS
 62
    7
 10
-225.90747050000004
 20
779.29998799999998
 11
-225.00747649999994
 21
779.29998799999998
  0
LINE
  8
_0-0_0
  6
CONTINUOUS
 62
    7
 10
-226.00747649999994
 20
758.69998199999998
 11
-225.90747050000004
 21
758.69998199999998
  0
LINE
  8
_0-0_0
  6
CONTINUOUS
 62
    7
 10
-226.00747649999994
 20
758.69998199999998
 11
-226.00747649999994
 21
763.78967299999999
  0
LINE
  8
_0-0_0
  6
CONTINUOUS
 62
    7
 10
-226.00747649999994
 20
774.23767099999998
 11
-226.00747649999994
 21
775.20047
  0
LINE
  8
_0-0_0
  6
CONTINUOUS
 62
    7
 10
-226.00747649999994
 20
778.29998799999998
 11
-225.90747050000004
 21
778.29998799999998
  0
LINE
  8
_0-0_0
  6
CONTINUOUS
 62
    7
 10
-226.00747649999994
 20
777.43511999999998
 11
-226.00747649999994
 21
778.29998799999998
  0
LINE
  8
_0-0_0
  6
CONTINUOUS
 62
    7
 10
-226.00747649999994
 20
775.20047
 11
-226.00747649999994
 21
777.43511999999998
  0
LINE
  8
_0-0_0
  6
CONTINUOUS
 62
    7
 10
-226.00747649999994
 20
763.78967299999999
 11
-226.00747649999994
 21
774.23767099999998
  0
LINE
  8
_0-0_0
  6
CONTINUOUS
 62
    7
 10
-225.70748950000007
 20
777.18872099999999
 11
-225.70748950000007
 21
779.07498199999998
  0
LINE
  8
_0-0_0
  6
CONTINUOUS
 62
    7
 10
-225.70748950000007
 20
776.52499399999999
 11
-225.70748950000007
 21
777.18872099999999
  0
LINE
  8
_0-0_0
  6
CONTINUOUS
 62
    7
 10
-208.70748950000007
 20
778.41125499999998
 11
-208.70748950000007
 21
776.52529900000002
  0
LINE
  8
_0-0_0
  6
CONTINUOUS
 62
    7
 10
-208.70748950000007
 20
779.06662000000006
 11
-208.70748950000007
 21
778.41125499999998
  0
LINE
  8
_0-0_0
  6
CONTINUOUS
 62
    7
 10
-208.40747050000004
 20
758.69998199999998
 11
-208.40747050000004
 21
763.78967299999999
  0
LINE
  8
_0-0_0
  6
CONTINUOUS
 62
    7
 10
-208.40747050000004
 20
777.43511999999998
 11
-208.40747050000004
 21
778.29998799999998
  0
LINE
  8
_0-0_0
  6
CONTINUOUS
 62
    7
 10
-208.40747050000004
 20
774.23767099999998
 11
-208.40747050000004
 21
775.20047
  0
LINE
  8
_0-0_0
  6
CONTINUOUS
 62
    7
 10
-208.40747050000004
 20
778.29998799999998
 11
-208.70748950000007
 21
778.29998799999998
  0
LINE
  8
_0-0_0
  6
CONTINUOUS
 62
    7
 10
-208.40747050000004
 20
758.69998199999998
 11
-209.10748250000006
 21
758.69998199999998
  0
LINE
  8
_0-0_0
  6
CONTINUOUS
 62
    7
 10
-209.10748250000006
 20
779.29998799999998
 11
-209.40747050000004
 21
779.29998799999998
  0
LINE
  8
_0-0_0
  6
CONTINUOUS
 62
    7
 10
-209.40747050000004
 20
777.79998799999998
 11
-209.40747050000004
 21
776.05505399999993
  0
LINE
  8
_0-0_0
  6
CONTINUOUS
 62
    7
 10
-213.10748250000006
 20
781.29998799999998
 11
-213.10748250000006
 21
781.40005500000007
  0
LINE
  8
_0-0_0
  6
CONTINUOUS
 62
    7
 10
-221.30746449999992
 20
781.40005500000007
 11
-221.30746449999992
 21
781.29998799999998
  0
LINE
  8
_0-0_0
  6
CONTINUOUS
 62
    7
 10
-210.40747050000004
 20
776.05499299999997
 11
-209.10748250000006
 21
776.05499299999997
  0
ARC
  8
_0-0_0
  6
CONTINUOUS
 62
    7
 10
-225.20748950000007
 20
779.07498199999998
 40
0.2
 50
359.91222800000003
 51
89.999948000000003
  0
ARC
  8
_0-0_0
  6
CONTINUOUS
 62
    7
 10
-225.20758049999995
 20
776.52514700000006
 40
0.200169
 50
270.02985900000004
 51
2.3526610000000452
  0
LINE
  8
_0-0_0
  6
CONTINUOUS
 62
    7
 10
-225.50747649999994
 20
779.27499399999999
 11
-225.20748950000007
 21
779.27499399999999
  0
LINE
  8
_0-0_0
  6
CONTINUOUS
 62
    7
 10
-225.50747649999994
 20
776.32498199999998
 11
-225.20748950000007
 21
776.32498199999998
  0
ARC
  8
_0-0_0
  6
CONTINUOUS
 62
    7
 10
-225.50738550000005
 20
779.07482899999991
 40
0.200169
 50
90.029849999999996
 51
182.352667
  0
ARC
  8
_0-0_0
  6
CONTINUOUS
 62
    7
 10
-225.50747649999994
 20
776.52499399999999
 40
0.2
 50
179.912237
 51
269.99994299999997
  0
ARC
  8
_0-0_0
  6
CONTINUOUS
 62
    7
 10
-209.20736749999992
 20
776.52514700000006
 40
0.200169
 50
177.647333
 51
269.97013600000002
  0
ARC
  8
_0-0_0
  6
CONTINUOUS
 62
    7
 10
-209.20748950000007
 20
779.07498199999998
 40
0.2
 50
90.000049999999987
 51
180.08776299999997
  0
LINE
  8
_0-0_0
  6
CONTINUOUS
 62
    7
 10
-208.90747050000004
 20
776.32498199999998
 11
-209.20748950000007
 21
776.32498199999998
  0
LINE
  8
_0-0_0
  6
CONTINUOUS
 62
    7
 10
-208.90747050000004
 20
779.27499399999999
 11
-209.20748950000007
 21
779.27499399999999
  0
ARC
  8
_0-0_0
  6
CONTINUOUS
 62
    7
 10
-208.90747050000004
 20
776.52499399999999
 40
0.2
 50
270.00005199999998
 51
0.0877600000000175
  0
ARC
  8
_0-0_0
  6
CONTINUOUS
 62
    7
 10
-208.90759249999996
 20
779.07482899999991
 40
0.200169
 50
357.64733799999999
 51
89.970147999999995
  0
LINE
  8
_0-0_0
  6
CONTINUOUS
 62
    7
 10
-225.90747050000004
 20
776.05499299999997
 11
-224.00747649999994
 21
776.05499299999997
  0
LINE
  8
_0-0_0
  6
CONTINUOUS
 62
    7
 10
-208.40747050000004
 20
781.79998799999998
 11
-208.40747050000004
 21
794.99997000000008
  0
ARC
  8
_0-0_0
  6
CONTINUOUS
 62
    7
 10
-208.90747050000004
 20
781.79998799999998
 40
0.5
 50
269.99999700000001
 51
0
  0
ARC
  8
_0-0_0
  6
CONTINUOUS
 62
    7
 10
-208.4660644999999
 20
795.19998199999998
 40
0.1
 50
135
 51
225
  0
LINE
  8
_0-0_0
  6
CONTINUOUS
 62
    7
 10
-208.53677349999998
 20
795.12927300000001
 11
-208.40747050000004
 21
794.99997000000008
  0
LINE
  8
_0-0_0
  6
CONTINUOUS
 62
    7
 10
-208.90747050000004
 20
781.29998799999998
 11
-210.80746449999992
 21
781.29998799999998
  0
ARC
  8
_0-0_0
  6
CONTINUOUS
 62
    7
 10
-210.80746449999992
 20
781.79998799999998
 40
0.5
 50
233.12990600000001
 51
269.99999700000001
  0
ARC
  8
_0-0_0
  6
CONTINUOUS
 62
    7
 10
-223.50747649999994
 20
781.79998799999998
 40
0.5
 50
269.99999700000001
 51
306.87009999999998
  0
LINE
  8
_0-0_0
  6
CONTINUOUS
 62
    7
 10
-223.50747649999994
 20
781.29998799999998
 11
-225.40747050000004
 21
781.29998799999998
  0
ARC
  8
_0-0_0
  6
CONTINUOUS
 62
    7
 10
-225.40747050000004
 20
781.79998799999998
 40
0.5
 50
180.00000900000003
 51
269.99999700000001
  0
LINE
  8
_0-0_0
  6
CONTINUOUS
 62
    7
 10
-225.90747050000004
 20
791.23498500000005
 11
-225.90747050000004
 21
781.79998799999998
  0
LINE
  8
_0-0_0
  6
CONTINUOUS
 62
    7
 10
-225.90747050000004
 20
791.23498500000005
 11
-225.20748950000007
 21
791.23498500000005
  0
LINE
  8
_0-0_0
  6
CONTINUOUS
 62
    7
 10
-209.20748950000007
 20
809.79998799999998
 11
-209.00143449999996
 21
809.79998799999998
  0
LINE
  8
_0-0_0
  6
CONTINUOUS
 62
    7
 10
-209.00143449999996
 20
809.79998799999998
 11
-208.40747050000004
 21
809.20602400000007
  0
LINE
  8
_0-0_0
  6
CONTINUOUS
 62
    7
 10
-208.40747050000004
 20
804.19998199999998
 11
-208.40747050000004
 21
809.20602400000007
  0
LINE
  8
_0-0_0
  6
CONTINUOUS
 62
    7
 10
-208.53677349999998
 20
804.07070899999997
 11
-208.40747050000004
 21
804.19998199999998
  0
ARC
  8
_0-0_0
  6
CONTINUOUS
 62
    7
 10
-208.4660644999999
 20
803.99997000000008
 40
0.1
 50
135
 51
225
  0
LINE
  8
_0-0_0
  6
CONTINUOUS
 62
    7
 10
-208.53677349999998
 20
803.92929099999992
 11
-208.40747050000004
 21
803.79998799999998
  0
LINE
  8
_0-0_0
  6
CONTINUOUS
 62
    7
 10
-208.40747050000004
 20
803.09997599999997
 11
-208.40747050000004
 21
803.79998799999998
  0
LINE
  8
_0-0_0
  6
CONTINUOUS
 62
    7
 10
-208.53677349999998
 20
802.97070299999996
 11
-208.40747050000004
 21
803.09997599999997
  0
ARC
  8
_0-0_0
  6
CONTINUOUS
 62
    7
 10
-208.4660644999999
 20
802.89999399999999
 40
0.1
 50
135
 51
225
  0
LINE
  8
_0-0_0
  6
CONTINUOUS
 62
    7
 10
-208.53677349999998
 20
802.82928500000003
 11
-208.40747050000004
 21
802.69998199999998
  0
LINE
  8
_0-0_0
  6
CONTINUOUS
 62
    7
 10
-208.40747050000004
 20
801.99997000000008
 11
-208.40747050000004
 21
802.69998199999998
  0
LINE
  8
_0-0_0
  6
CONTINUOUS
 62
    7
 10
-208.53677349999998
 20
801.87069700000006
 11
-208.40747050000004
 21
801.99997000000008
  0
ARC
  8
_0-0_0
  6
CONTINUOUS
 62
    7
 10
-208.4660644999999
 20
801.79998799999998
 40
0.1
 50
135
 51
225
  0
LINE
  8
_0-0_0
  6
CONTINUOUS
 62
    7
 10
-208.53677349999998
 20
801.72927900000002
 11
-208.40747050000004
 21
801.59997599999997
  0
LINE
  8
_0-0_0
  6
CONTINUOUS
 62
    7
 10
-208.40747050000004
 20
800.89999399999999
 11
-208.40747050000004
 21
801.59997599999997
  0
LINE
  8
_0-0_0
  6
CONTINUOUS
 62
    7
 10
-208.53677349999998
 20
800.77069099999994
 11
-208.40747050000004
 21
800.89999399999999
  0
ARC
  8
_0-0_0
  6
CONTINUOUS
 62
    7
 10
-208.4660644999999
 20
800.69998199999998
 40
0.1
 50
135
 51
225
  0
LINE
  8
_0-0_0
  6
CONTINUOUS
 62
    7
 10
-208.53677349999998
 20
800.62927300000001
 11
-208.40747050000004
 21
800.49997000000008
  0
LINE
  8
_0-0_0
  6
CONTINUOUS
 62
    7
 10
-208.40747050000004
 20
799.79998799999998
 11
-208.40747050000004
 21
800.49997000000008
  0
LINE
  8
_0-0_0
  6
CONTINUOUS
 62
    7
 10
-208.53677349999998
 20
799.67068500000005
 11
-208.40747050000004
 21
799.79998799999998
  0
ARC
  8
_0-0_0
  6
CONTINUOUS
 62
    7
 10
-208.4660644999999
 20
799.59997599999997
 40
0.1
 50
135
 51
225
  0
LINE
  8
_0-0_0
  6
CONTINUOUS
 62
    7
 10
-208.53677349999998
 20
799.52926600000001
 11
-208.40747050000004
 21
799.39999399999999
  0
LINE
  8
_0-0_0
  6
CONTINUOUS
 62
    7
 10
-208.40747050000004
 20
798.69998199999998
 11
-208.40747050000004
 21
799.39999399999999
  0
LINE
  8
_0-0_0
  6
CONTINUOUS
 62
    7
 10
-208.53677349999998
 20
798.57070899999997
 11
-208.40747050000004
 21
798.69998199999998
  0
ARC
  8
_0-0_0
  6
CONTINUOUS
 62
    7
 10
-208.4660644999999
 20
798.49997000000008
 40
0.1
 50
135
 51
225
  0
LINE
  8
_0-0_0
  6
CONTINUOUS
 62
    7
 10
-208.53677349999998
 20
798.42929099999992
 11
-208.40747050000004
 21
798.29998799999998
  0
LINE
  8
_0-0_0
  6
CONTINUOUS
 62
    7
 10
-208.40747050000004
 20
797.59997599999997
 11
-208.40747050000004
 21
798.29998799999998
  0
LINE
  8
_0-0_0
  6
CONTINUOUS
 62
    7
 10
-208.53677349999998
 20
797.47070299999996
 11
-208.40747050000004
 21
797.59997599999997
  0
ARC
  8
_0-0_0
  6
CONTINUOUS
 62
    7
 10
-208.4660644999999
 20
797.39999399999999
 40
0.1
 50
135
 51
225
  0
LINE
  8
_0-0_0
  6
CONTINUOUS
 62
    7
 10
-208.53677349999998
 20
797.32928500000003
 11
-208.40747050000004
 21
797.19998199999998
  0
LINE
  8
_0-0_0
  6
CONTINUOUS
 62
    7
 10
-208.40747050000004
 20
796.49997000000008
 11
-208.40747050000004
 21
797.19998199999998
  0
LINE
  8
_0-0_0
  6
CONTINUOUS
 62
    7
 10
-208.53677349999998
 20
796.37069700000006
 11
-208.40747050000004
 21
796.49997000000008
  0
ARC
  8
_0-0_0
  6
CONTINUOUS
 62
    7
 10
-208.4660644999999
 20
796.29998799999998
 40
0.1
 50
135
 51
225
  0
LINE
  8
_0-0_0
  6
CONTINUOUS
 62
    7
 10
-208.53677349999998
 20
796.22927900000002
 11
-208.40747050000004
 21
796.09997599999997
  0
LINE
  8
_0-0_0
  6
CONTINUOUS
 62
    7
 10
-208.40747050000004
 20
795.39999399999999
 11
-208.40747050000004
 21
796.09997599999997
  0
LINE
  8
_0-0_0
  6
CONTINUOUS
 62
    7
 10
-208.53677349999998
 20
795.27069099999994
 11
-208.40747050000004
 21
795.39999399999999
  0
LINE
  8
_0-0_0
  6
CONTINUOUS
 62
    7
 10
-208.40747050000004
 20
787.29998799999998
 11
-208.30746449999992
 21
787.29998799999998
  0
LINE
  8
_0-0_0
  6
CONTINUOUS
 62
    7
 10
-208.30746449999992
 20
786.79998799999998
 11
-208.30746449999992
 21
787.29998799999998
  0
LINE
  8
_0-0_0
  6
CONTINUOUS
 62
    7
 10
-208.30746449999992
 20
786.79998799999998
 11
-208.30746449999992
 21
782.79998799999998
  0
LINE
  8
_0-0_0
  6
CONTINUOUS
 62
    7
 10
-208.40747050000004
 20
782.29998799999998
 11
-208.30746449999992
 21
782.29998799999998
  0
LINE
  8
_0-0_0
  6
CONTINUOUS
 62
    7
 10
-208.30746449999992
 20
782.29998799999998
 11
-208.30746449999992
 21
782.79998799999998
  0
LINE
  8
_0-0_0
  6
CONTINUOUS
 62
    7
 10
-225.90747050000004
 20
791.29998799999998
 11
-225.90747050000004
 21
791.23498500000005
  0
LINE
  8
_0-0_0
  6
CONTINUOUS
 62
    7
 10
-209.40747050000004
 20
810.09997599999997
 11
-209.40747050000004
 21
809.99997000000008
  0
ARC
  8
_0-0_0
  6
CONTINUOUS
 62
    7
 10
-221.90747050000004
 20
810.09997599999997
 40
2.5
 50
90.000003000000007
 51
180.00000900000001
  0
LINE
  8
_0-0_0
  6
CONTINUOUS
 62
    7
 10
-226.00747649999994
 20
791.29998799999998
 11
-225.20748950000007
 21
791.29998799999998
  0
LINE
  8
_0-0_0
  6
CONTINUOUS
 62
    7
 10
-225.50747649999994
 20
813.09997599999997
 11
-225.50747649999994
 21
808.87844900000005
  0
LINE
  8
_0-0_0
  6
CONTINUOUS
 62
    7
 10
-224.40747050000004
 20
813.09997599999997
 11
-224.40747050000004
 21
810.09997599999997
  0
LINE
  8
_0-0_0
  6
CONTINUOUS
 62
    7
 10
-225.50747649999994
 20
808.87844900000005
 11
-225.20748950000007
 21
808.87844900000005
  0
LINE
  8
_0-0_0
  6
CONTINUOUS
 62
    7
 10
-225.50747649999994
 20
818.23989899999992
 11
-224.40747050000004
 21
818.23989899999992
  0
LINE
  8
_0-0_0
  6
CONTINUOUS
 62
    7
 10
-224.40747050000004
 20
813.10040299999991
 11
-224.40747050000004
 21
818.23989899999992
  0
LINE
  8
_0-0_0
  6
CONTINUOUS
 62
    7
 10
-226.00747649999994
 20
812.60079999999994
 11
-226.00747649999994
 21
817.67208899999991
  0
LINE
  8
_0-0_0
  6
CONTINUOUS
 62
    7
 10
-225.50747649999994
 20
818.23989899999992
 11
-226.00747649999994
 21
817.67208899999991
  0
ARC
  8
_0-0_0
  6
CONTINUOUS
 62
    7
 10
-211.90747050000004
 20
810.09997599999997
 40
2.5
 50
0
 51
90.000003000000007
  0
LINE
  8
_0-0_0
  6
CONTINUOUS
 62
    7
 10
-224.40747050000004
 20
810
 11
-224.40747050000004
 21
810.09997599999997
  0
LINE
  8
_0-0_0
  6
CONTINUOUS
 62
    7
 10
-211.90747050000004
 20
812.59997599999997
 11
-221.90747050000004
 21
812.59997599999997
  0
LINE
  8
_0-0_0
  6
CONTINUOUS
 62
    7
 10
-208.20748950000007
 20
782.79998799999998
 11
-208.20748950000007
 21
782.93035899999995
  0
LINE
  8
_0-0_0
  6
CONTINUOUS
 62
    7
 10
-208.20748950000007
 20
786.43035899999995
 11
-208.20748950000007
 21
782.93035899999995
  0
LINE
  8
_0-0_0
  6
CONTINUOUS
 62
    7
 10
-208.30746449999992
 20
786.69998199999998
 11
-208.20748950000007
 21
786.69998199999998
  0
LINE
  8
_0-0_0
  6
CONTINUOUS
 62
    7
 10
-208.20748950000007
 20
786.43035899999995
 11
-208.20748950000007
 21
786.69998199999998
  0
LINE
  8
_0-0_0
  6
CONTINUOUS
 62
    7
 10
-224.40747050000004
 20
820.60000600000001
 11
-224.40747050000004
 21
818.23989899999992
  0
LINE
  8
_0-0_0
  6
CONTINUOUS
 62
    7
 10
-208.60748250000006
 20
809.19998199999998
 11
-209.60748250000006
 21
810.19998199999998
  0
LINE
  8
_0-0_0
  6
CONTINUOUS
 62
    7
 10
-208.60748250000006
 20
781.39999399999999
 11
-208.60748250000006
 21
809.19998199999998
  0
LINE
  8
_0-0_0
  6
CONTINUOUS
 62
    7
 10
-225.20748950000007
 20
781.39999399999999
 11
-208.60748250000006
 21
781.39999399999999
  0
LINE
  8
_0-0_0
  6
CONTINUOUS
 62
    7
 10
-225.20748950000007
 20
809.19998199999998
 11
-225.20748950000007
 21
781.39999399999999
  0
LINE
  8
_0-0_0
  6
CONTINUOUS
 62
    7
 10
-226.00747649999994
 20
791.29998799999998
 11
-226.00747649999994
 21
808.11279300000001
  0
LINE
  8
_0-0_0
  6
CONTINUOUS
 62
    7
 10
-226.00747649999994
 20
812.59997599999997
 11
-226.00747649999994
 21
808.11279300000001
  0
ARC
  8
_0-0_0
  6
CONTINUOUS
 62
    7
 10
-194.55572549999988
 20
788.11779799999999
 40
37.269466000000001
 50
146.14857699999999
 51
147.55443399999999
  0
LINE
  8
_0-0_0
  6
CONTINUOUS
 62
    7
 10
-225.50747649999994
 20
820.60000600000001
 11
-225.50747649999994
 21
818.23989899999992
  0
LINE
  8
_0-0_0
  6
CONTINUOUS
 62
    7
 10
-226.00747649999994
 20
820.10000600000001
 11
-226.00747649999994
 21
817.67208899999991
  0
ARC
  8
_0-0_0
  6
CONTINUOUS
 62
    7
 10
-212.17651350000006
 20
809.79998799999998
 40
2.6000000000000001
 50
8.8498839999999994
 51
90.000002999999992
  0
LINE
  8
_0-0_0
  6
CONTINUOUS
 62
    7
 10
-212.17651350000006
 20
812.39999399999999
 11
-221.63842750000003
 21
812.39999399999999
  0
ARC
  8
_0-0_0
  6
CONTINUOUS
 62
    7
 10
-221.63842750000003
 20
809.79998799999998
 40
2.6000000000000001
 50
90.000003000000007
 51
171.150115
  0
LINE
  8
_0-0_0
  6
CONTINUOUS
 62
    7
 10
-225.20748950000007
 20
809.19998199999998
 11
-224.20748950000007
 21
810.19998199999998
  0
LINE
  8
_0-0_0
  6
CONTINUOUS
 62
    7
 10
-209.60748250000006
 20
808.78576699999996
 11
-208.60748250000006
 21
809.19998199999998
  0
ARC
  8
_0-0_0
  6
CONTINUOUS
 62
    7
 10
-215.15002449999997
 20
820.98611499999993
 40
12.126564999999999
 50
292.155034
 51
297.19674500000002
  0
LINE
  8
_0-0_0
  6
CONTINUOUS
 62
    7
 10
-209.60748250000006
 20
782.39999399999999
 11
-208.60748250000006
 21
781.39999399999999
  0
LINE
  8
_0-0_0
  6
CONTINUOUS
 62
    7
 10
-224.20748950000007
 20
782.39999399999999
 11
-225.20748950000007
 21
781.39999399999999
  0
LINE
  8
_0-0_0
  6
CONTINUOUS
 62
    7
 10
-224.20748950000007
 20
808.78576699999996
 11
-225.20748950000007
 21
809.19998199999998
  0
ARC
  8
_0-0_0
  6
CONTINUOUS
 62
    7
 10
-218.66494749999993
 20
820.98611499999993
 40
12.126567
 50
242.80325699999997
 51
247.84494000000001
  0
CIRCLE
  8
_0-0_0
  6
CONTINUOUS
 62
    7
 10
-216.90747050000004
 20
789.59997599999997
 40
2.0670000000000002
  0
LINE
  8
_0-0_0
  6
CONTINUOUS
 62
    7
 10
-224.40747050000004
 20
813.09997599999997
 11
-225.50747649999994
 21
813.09997599999997
  0
LINE
  8
_0-0_0
  6
CONTINUOUS
 62
    7
 10
-208.30746449999992
 20
782.79998799999998
 11
-208.20748950000007
 21
782.79998799999998
  0
LINE
  8
_0-0_0
  6
CONTINUOUS
 62
    7
 10
-208.30746449999992
 20
782.79998799999998
 11
-208.20748950000007
 21
782.79998799999998
  0
LINE
  8
_0-0_0
  6
CONTINUOUS
 62
    7
 10
-226.00747649999994
 20
812.59997599999997
 11
-225.50747649999994
 21
813.09997599999997
  0
LINE
  8
_0-0_0
  6
CONTINUOUS
 62
    7
 10
-224.40747050000004
 20
820.60000600000001
 11
-225.50747649999994
 21
820.60000600000001
  0
LINE
  8
_0-0_0
  6
CONTINUOUS
 62
    7
 10
-226.00747649999994
 20
820.10000600000001
 11
-225.50747649999994
 21
820.60000600000001
  0
ENDSEC
  0
EOF
