  0
SECTION
  2
HEADER
  9
$ACADVER
  1
AC1009
  9
$INSBASE
 10
0
 20
0
 30
0
  9
$EXTMIN
 10
0
 20
0
  9
$EXTMAX
 10
841
 20
594
  9
$LIMMIN
 10
0
 20
0
  9
$LIMMAX
 10
841
 20
594
  9
$LTSCALE
 40
1
  0
ENDSEC
  0
SECTION
  2
TABLES
  0
TABLE
  2
LTYPE
 70
     9
  0
LTYPE
  2
CONTINUOUS
 70
    64
  3
実線
 72
    65
 73
     0
 40
0.0
  0
LTYPE
  2
DASHED1
 70
    64
  3
--  --  --  --  --  --  --  --  
 72
    65
 73
     2
 40
2.5
 49
1.25
 49
-1.25
  0
LTYPE
  2
DASHED2
 70
    64
  3
----    ----    ----    ----    
 72
    65
 73
     2
 40
5.0
 49
2.5
 49
-2.5
  0
LTYPE
  2
DASHED3
 70
    64
  3
------  ------  ------  ------  
 72
    65
 73
     2
 40
5.0
 49
3.75
 49
-1.25
  0
LTYPE
  2
CENTER1
 70
    64
  3
----- - ----- - ----- - ----- - 
 72
    65
 73
     4
 40
10.0
 49
6.25
 49
-1.25
 49
1.25
 49
-1.25
  0
LTYPE
  2
CENTER2
 70
    64
  3
----------  --  ----------  --  
 72
    65
 73
     4
 40
20.0
 49
12.5
 49
-2.5
 49
2.5
 49
-2.5
  0
LTYPE
  2
PHANTOM1
 70
    64
  3
--- - - --- - - --- - - --- - - 
 72
    65
 73
     6
 40
10.0
 49
3.25
 49
-1.25
 49
1.25
 49
-1.25
 49
1.25
 49
-1.25
  0
LTYPE
  2
PHANTOM2
 70
    64
  3
--------  -  -  --------  -  -  
 72
    65
 73
     6
 40
20.0
 49
10.0
 49
-2.5
 49
1.25
 49
-2.5
 49
1.25
 49
-2.5
  0
LTYPE
  2
DOT
 70
    64
  3
-   -   -   -   -   -   -   -   
 72
    65
 73
     2
 40
2.5
 49
0.625
 49
-1.875
  0
LTYPE
  2
DUMMY
 70
    64
  3
ダミー
 72
    65
 73
     0
 40
0.0
  0
LTYPE
  2
RAND1
 70
    64
  3
ランダム線1
 72
    65
 73
     4
 40
10.0
 49
1.0
 49
-2.0
 49
3.0
 49
-4.0
  0
LTYPE
  2
RAND2
 70
    64
  3
ランダム線2
 72
    65
 73
     4
 40
14.0
 49
2.0
 49
-3.0
 49
4.0
 49
-5.0
  0
LTYPE
  2
RAND3
 70
    64
  3
ランダム線3
 72
    65
 73
     4
 40
18.0
 49
3.0
 49
-4.0
 49
5.0
 49
-6.0
  0
LTYPE
  2
RAND4
 70
    64
  3
ランダム線4
 72
    65
 73
     4
 40
22.0
 49
4.0
 49
-5.0
 49
6.0
 49
-7.0
  0
LTYPE
  2
RAND5
 70
    64
  3
ランダム線5
 72
    65
 73
     4
 40
26.0
 49
5.0
 49
-6.0
 49
7.0
 49
-8.0
  0
LTYPE
  2
LONG1
 70
    64
  3
----------  --  ----------  --  
 72
    65
 73
     4
 40
40.0
 49
32.5
 49
-2.5
 49
2.5
 49
-2.5
  0
LTYPE
  2
LONG2
 70
    64
  3
--------  -  -  --------  -  -  
 72
    65
 73
     6
 40
40.0
 49
30.0
 49
-2.5
 49
1.25
 49
-2.5
 49
1.25
 49
-2.5
  0
LTYPE
  2
LONG3
 70
    64
  3
+++++++++++++++..+++++++++++++++
 72
    65
 73
     2
 40
40.0
 49
37.5
 49
-2.5
  0
LTYPE
  2
LONG4
 70
    64
  3
+++++++++++++++..+++++++++++++++
 72
    65
 73
     2
 40
80.0
 49
75.0
 49
-5.0
  0
LTYPE
  2
LONG5
 70
    64
  3
----------  --  ----------  --  
 72
    65
 73
     4
 40
60.0
 49
37.5
 49
-7.5
 49
7.5
 49
-7.5
  0
LTYPE
  2
dashed
 70
   64
  3
-------   -------------   ------
 72
   65
 73
    2
 40
7.5
 49
6
 49
-1.5
  0
LTYPE
  2
dashed_spaced
 70
   64
  3
----        --------        ----
 72
   65
 73
    2
 40
12
 49
6
 49
-6
  0
LTYPE
  2
long_dashed_dotted
 70
   64
  3
------------- --- --------------
 72
   65
 73
    4
 40
15.25
 49
12
 49
-1.5
 49
0.25
 49
-1.5
  0
LTYPE
  2
long_dashed_double-dotted
 70
   64
  3
----------- --- --- ------------
 72
   65
 73
    6
 40
17
 49
12
 49
-1.5
 49
0.25
 49
-1.5
 49
0.25
 49
-1.5
  0
LTYPE
  2
long_dashed_triplicate-dotted
 70
   64
  3
--------- --- --- --- ----------
 72
   65
 73
    8
 40
18.75
 49
12
 49
-1.5
 49
0.25
 49
-1.5
 49
0.25
 49
-1.5
 49
0.25
 49
-1.5
  0
LTYPE
  2
dotted
 70
   64
  3
   -       -       -       -    
 72
   65
 73
    2
 40
1.75
 49
0.25
 49
-1.5
  0
LTYPE
  2
chain
 70
   64
  3
-------------- -- --------------
 72
   65
 73
    4
 40
18.5
 49
12
 49
-1.5
 49
3.5
 49
-1.5
  0
LTYPE
  2
chain_double_dash
 70
   64
  3
------------ -- -- -------------
 72
   65
 73
    6
 40
23.5
 49
12
 49
-1.5
 49
3.5
 49
-1.5
 49
3.5
 49
-1.5
  0
LTYPE
  2
dashed_dotted
 70
   64
  3
-----------     -     ----------
 72
   65
 73
    4
 40
9.25
 49
6
 49
-1.5
 49
0.25
 49
-1.5
  0
LTYPE
  2
double-dashed_dotted
 70
   64
  3
------   -----------   -   -----
 72
   65
 73
    6
 40
16.75
 49
6
 49
-1.5
 49
6
 49
-1.5
 49
0.25
 49
-1.5
  0
LTYPE
  2
dashed_double-dotted
 70
   64
  3
---------    -    -    ---------
 72
   65
 73
    6
 40
11
 49
6
 49
-1.5
 49
0.25
 49
-1.5
 49
0.25
 49
-1.5
  0
LTYPE
  2
double-dashed_double-dotted
 70
   64
  3
-----   ---------   -   -   ----
 72
   65
 73
    8
 40
18.5
 49
6
 49
-1.5
 49
6
 49
-1.5
 49
0.25
 49
-1.5
 49
0.25
 49
-1.5
  0
LTYPE
  2
dashed_triplicate-dotted
 70
   64
  3
-------    -    -    -    ------
 72
   65
 73
    8
 40
12.75
 49
6
 49
-1.5
 49
0.25
 49
-1.5
 49
0.25
 49
-1.5
 49
0.25
 49
-1.5
  0
LTYPE
  2
double-dashed_triplicate-dotted
 70
   64
  3
-----  ---------  -  -  -  -----
 72
   65
 73
   10
 40
20.25
 49
6
 49
-1.5
 49
6
 49
-1.5
 49
0.25
 49
-1.5
 49
0.25
 49
-1.5
 49
0.25
 49
-1.5
  0
LTYPE
  2
undefined
 70
   64
  3
--------------------------------
 72
   65
 73
    0
 40
0
  0
ENDTAB
  0
TABLE
  2
STYLE
  5
3
100
AcDbSymbolTable
 70
     1
  0
STYLE
  5
10
100
AcDbSymbolTableRecord
100
AcDbTextStyleTableRecord
  2
STANDARD
 70
     0
 40
0.0
 41
1.0
 50
0.0
 71
     0
 42
0.2
  3
txt
  4
bigfont.shx
  0
STYLE
  5
26
100
AcDbSymbolTableRecord
100
AcDbTextStyleTableRecord
  2
TATEGAKI
 70
    68
 40
0.0
 41
1.0
 50
0.0
 71
     0
 42
1.0
  3
txt
  4
bigfont.shx
  0
ENDTAB
  0
TABLE
  2
LAYER
 70
    2
  0
LAYER
  2
_0-0_0
 70
   64
 62
    7
  6
CONTINUOUS
  0
LAYER
  2
ADD_LINE
 70
   64
 62
    7
  6
CONTINUOUS
  0
ENDTAB
  0
ENDSEC
  0
SECTION
  2
BLOCKS
  0
ENDSEC
  0
SECTION
  2
ENTITIES
  0
POINT
  8
_0-0_0
 62
    7
 10
-133.14823850000005
 20
472.17948849999999
  0
LINE
  8
_0-0_0
  6
CONTINUOUS
 62
    7
 10
-240.14823850000005
 20
513.17997749999995
 11
-240.14823850000005
 21
513.17897049999999
  0
LINE
  8
_0-0_0
  6
CONTINUOUS
 62
    7
 10
-213.64823850000005
 20
478.83448750000002
 11
-213.64823850000005
 21
481.07948249999998
  0
LINE
  8
_0-0_0
  6
CONTINUOUS
 62
    7
 10
-213.64823850000005
 20
481.07948249999998
 11
-213.64823850000005
 21
483.07948249999998
  0
LINE
  8
_0-0_0
  6
CONTINUOUS
 62
    7
 10
-213.64823850000005
 20
483.07948249999998
 11
-213.64823850000005
 21
483.57948249999998
  0
LINE
  8
_0-0_0
  6
CONTINUOUS
 62
    7
 10
-213.64823850000005
 20
483.57948249999998
 11
-213.64823850000005
 21
484.57948249999998
  0
LINE
  8
_0-0_0
  6
CONTINUOUS
 62
    7
 10
-213.64823850000005
 20
460.47947649999998
 11
-213.64823850000005
 21
478.83448750000002
  0
LINE
  8
_0-0_0
  6
CONTINUOUS
 62
    7
 10
-117.14823850000005
 20
482.57948249999998
 11
-117.14823850000005
 21
483.07948249999998
  0
LINE
  8
_0-0_0
  6
CONTINUOUS
 62
    7
 10
-117.14823850000005
 20
483.57948249999998
 11
-117.14823850000005
 21
484.57948249999998
  0
LINE
  8
_0-0_0
  6
CONTINUOUS
 62
    7
 10
-117.14823850000005
 20
483.07948249999998
 11
-117.14823850000005
 21
483.57948249999998
  0
ARC
  8
_0-0_0
  6
CONTINUOUS
 62
    7
 10
-131.14823850000005
 20
478.83448750000002
 40
0.5
 50
0
 51
123.74898500000002
  0
ARC
  8
_0-0_0
  6
CONTINUOUS
 62
    7
 10
-132.64823850000005
 20
481.07948249999998
 40
2.2000000000000002
 50
180.00000900000003
 51
303.74900400000001
  0
LINE
  8
_0-0_0
  6
CONTINUOUS
 62
    7
 10
-134.84823549999999
 20
481.07948249999998
 11
-134.84823549999999
 21
482.57948249999998
  0
LINE
  8
_0-0_0
  6
CONTINUOUS
 62
    7
 10
-209.4482385
 20
482.57948249999998
 11
-134.84823549999999
 21
482.57948249999998
  0
LINE
  8
_0-0_0
  6
CONTINUOUS
 62
    7
 10
-209.4482385
 20
482.57948249999998
 11
-209.4482385
 21
481.07948249999998
  0
ARC
  8
_0-0_0
  6
CONTINUOUS
 62
    7
 10
-211.64823850000005
 20
481.07948249999998
 40
2.2000000000000002
 50
236.25102899999999
 51
0
  0
ARC
  8
_0-0_0
  6
CONTINUOUS
 62
    7
 10
-213.14823850000005
 20
478.83448750000002
 40
0.5
 50
56.251010000000008
 51
180.00000900000001
  0
ARC
  8
_0-0_0
  6
CONTINUOUS
 62
    7
 10
-211.64823850000005
 20
460.47947649999998
 40
2
 50
180.00000900000003
 51
269.99999700000001
  0
LINE
  8
_0-0_0
  6
CONTINUOUS
 62
    7
 10
-211.64823850000005
 20
458.47947649999998
 11
-210.64823850000005
 21
458.47947649999998
  0
LINE
  8
_0-0_0
  6
CONTINUOUS
 62
    7
 10
-210.64823850000005
 20
458.47947649999998
 11
-210.64823850000005
 21
460.07948249999998
  0
ARC
  8
_0-0_0
  6
CONTINUOUS
 62
    7
 10
-210.14823950000005
 20
460.07948249999998
 40
0.5
 50
90.000003000000007
 51
180.00000900000001
  0
LINE
  8
_0-0_0
  6
CONTINUOUS
 62
    7
 10
-209.9482385
 20
460.57948249999998
 11
-210.14823950000005
 21
460.57948249999998
  0
ARC
  8
_0-0_0
  6
CONTINUOUS
 62
    7
 10
-209.9482385
 20
460.07948249999998
 40
0.5
 50
90.000003000000007
 51
180.00000900000001
  0
LINE
  8
_0-0_0
  6
CONTINUOUS
 62
    7
 10
-210.4482385
 20
458.57948249999998
 11
-210.4482385
 21
460.07948249999998
  0
LINE
  8
_0-0_0
  6
CONTINUOUS
 62
    7
 10
-140.84823549999999
 20
458.57948249999998
 11
-210.4482385
 21
458.57948249999998
  0
LINE
  8
_0-0_0
  6
CONTINUOUS
 62
    7
 10
-140.84823549999999
 20
458.57948249999998
 11
-140.84823549999999
 21
460.07948249999998
  0
ARC
  8
_0-0_0
  6
CONTINUOUS
 62
    7
 10
-141.34823549999999
 20
460.07948249999998
 40
0.5
 50
0
 51
90.000003000000007
  0
LINE
  8
_0-0_0
  6
CONTINUOUS
 62
    7
 10
-141.14823850000005
 20
460.57948249999998
 11
-141.34823549999999
 21
460.57948249999998
  0
ARC
  8
_0-0_0
  6
CONTINUOUS
 62
    7
 10
-141.14823850000005
 20
460.07948249999998
 40
0.5
 50
0
 51
90.000003000000007
  0
LINE
  8
_0-0_0
  6
CONTINUOUS
 62
    7
 10
-140.64823850000005
 20
460.07948249999998
 11
-140.64823850000005
 21
458.47947649999998
  0
LINE
  8
_0-0_0
  6
CONTINUOUS
 62
    7
 10
-140.64823850000005
 20
458.47947649999998
 11
-130.64823850000005
 21
458.47947649999998
  0
LINE
  8
_0-0_0
  6
CONTINUOUS
 62
    7
 10
-130.64823850000005
 20
458.47947649999998
 11
-130.64823850000005
 21
459.37947050000002
  0
LINE
  8
_0-0_0
  6
CONTINUOUS
 62
    7
 10
-194.64824250000004
 20
461.98356649999999
 11
-153.24824150000006
 21
461.98356649999999
  0
LINE
  8
_0-0_0
  6
CONTINUOUS
 62
    7
 10
-194.64824250000004
 20
481.57948249999998
 11
-153.24824150000006
 21
481.57948249999998
  0
ARC
  8
_0-0_0
  6
CONTINUOUS
 62
    7
 10
-141.94824249999999
 20
460.77946450000002
 40
0.2
 50
180.00000900000003
 51
269.99999700000001
  0
LINE
  8
_0-0_0
  6
CONTINUOUS
 62
    7
 10
-141.94824249999999
 20
460.57948249999998
 11
-209.34824049999997
 21
460.57948249999998
  0
ARC
  8
_0-0_0
  6
CONTINUOUS
 62
    7
 10
-209.34824049999997
 20
460.77946450000002
 40
0.2
 50
269.99999700000001
 51
0
  0
ARC
  8
_0-0_0
  6
CONTINUOUS
 62
    7
 10
-208.9482385
 20
460.77946450000002
 40
0.2
 50
90.000003000000007
 51
180.00000900000001
  0
LINE
  8
_0-0_0
  6
CONTINUOUS
 62
    7
 10
-208.9482385
 20
460.97947649999998
 11
-142.34823549999999
 21
460.97947649999998
  0
ARC
  8
_0-0_0
  6
CONTINUOUS
 62
    7
 10
-142.34823549999999
 20
460.77946450000002
 40
0.2
 50
0
 51
90.000003000000007
  0
LINE
  8
_0-0_0
  6
CONTINUOUS
 62
    7
 10
-213.64823850000005
 20
483.57948249999998
 11
-117.14823850000005
 21
483.57948249999998
  0
LINE
  8
_0-0_0
  6
CONTINUOUS
 62
    7
 10
-117.64823850000005
 20
482.57948249999998
 11
-117.14823850000005
 21
482.57948249999998
  0
LINE
  8
_0-0_0
  6
CONTINUOUS
 62
    7
 10
-130.64823850000005
 20
460.57948249999998
 11
-130.64823850000005
 21
459.37947050000002
  0
LINE
  8
_0-0_0
  6
CONTINUOUS
 62
    7
 10
-130.64823850000005
 20
460.57948249999998
 11
-130.64823850000005
 21
478.17948849999999
  0
LINE
  8
_0-0_0
  6
CONTINUOUS
 62
    7
 10
-130.64823850000005
 20
480.15684449999998
 11
-130.64823850000005
 21
478.17948849999999
  0
LINE
  8
_0-0_0
  6
CONTINUOUS
 62
    7
 10
-211.64823850000005
 20
467.06916749999999
 11
-211.64823850000005
 21
477.51716549999998
  0
ARC
  8
_0-0_0
  6
CONTINUOUS
 62
    7
 10
-211.64823850000005
 20
481.07948249999998
 40
2.7000000000000002
 50
285.68033600000007
 51
352.23356600000005
  0
LINE
  8
_0-0_0
  6
CONTINUOUS
 62
    7
 10
-134.64823850000005
 20
478.57948249999998
 11
-134.64823850000005
 21
464.97947649999998
  0
LINE
  8
_0-0_0
  6
CONTINUOUS
 62
    7
 10
-209.64823950000005
 20
482.57948249999998
 11
-209.4482385
 21
482.57948249999998
  0
LINE
  8
_0-0_0
  6
CONTINUOUS
 62
    7
 10
-209.64823950000005
 20
482.57948249999998
 11
-209.64823950000005
 21
481.07948249999998
  0
ARC
  8
_0-0_0
  6
CONTINUOUS
 62
    7
 10
-211.64823850000005
 20
481.07948249999998
 40
2
 50
180.00000900000003
 51
0.0000000000000254
  0
LINE
  8
_0-0_0
  6
CONTINUOUS
 62
    7
 10
-117.64823850000005
 20
482.57948249999998
 11
-117.64823850000005
 21
480.87947050000002
  0
LINE
  8
_0-0_0
  6
CONTINUOUS
 62
    7
 10
-130.64823850000005
 20
458.57948249999998
 11
-118.64823850000005
 21
458.57948249999998
  0
LINE
  8
_0-0_0
  6
CONTINUOUS
 62
    7
 10
-118.64823850000005
 20
458.57948249999998
 11
-113.97279350000008
 21
458.57948249999998
  0
LINE
  8
_0-0_0
  6
CONTINUOUS
 62
    7
 10
-118.64823850000005
 20
464.07948249999998
 11
-118.64823850000005
 21
461.07948249999998
  0
LINE
  8
_0-0_0
  6
CONTINUOUS
 62
    7
 10
-118.64823850000005
 20
461.07948249999998
 11
-118.64823850000005
 21
460.57948249999998
  0
LINE
  8
_0-0_0
  6
CONTINUOUS
 62
    7
 10
-118.64823850000005
 20
464.07948249999998
 11
-118.64823850000005
 21
464.57948249999998
  0
ARC
  8
_0-0_0
  6
CONTINUOUS
 62
    7
 10
-124.64825450000001
 20
463.8795015
 40
0.500016
 50
180.00117
 51
359.995611
  0
LINE
  8
_0-0_0
  6
CONTINUOUS
 62
    7
 10
-124.14823850000005
 20
463.87947050000002
 11
-124.14823850000005
 21
475.87947050000002
  0
ARC
  8
_0-0_0
  6
CONTINUOUS
 62
    7
 10
-124.64825450000001
 20
475.87947050000002
 40
0.500016
 50
0.001164
 51
179.99560600000004
  0
LINE
  8
_0-0_0
  6
CONTINUOUS
 62
    7
 10
-125.14823850000005
 20
463.87947050000002
 11
-125.14823850000005
 21
475.87947050000002
  0
ARC
  8
_0-0_0
  6
CONTINUOUS
 62
    7
 10
-123.14825450000001
 20
463.8795015
 40
0.500016
 50
180.00117
 51
359.995611
  0
LINE
  8
_0-0_0
  6
CONTINUOUS
 62
    7
 10
-122.64823850000005
 20
463.87947050000002
 11
-122.64823850000005
 21
475.87947050000002
  0
ARC
  8
_0-0_0
  6
CONTINUOUS
 62
    7
 10
-123.14825450000001
 20
475.87947050000002
 40
0.500016
 50
0.001164
 51
179.99560600000004
  0
LINE
  8
_0-0_0
  6
CONTINUOUS
 62
    7
 10
-123.64823850000005
 20
463.87947050000002
 11
-123.64823850000005
 21
475.87947050000002
  0
ARC
  8
_0-0_0
  6
CONTINUOUS
 62
    7
 10
-121.64825450000001
 20
463.8795015
 40
0.500016
 50
180.00117
 51
359.995611
  0
LINE
  8
_0-0_0
  6
CONTINUOUS
 62
    7
 10
-121.14823850000005
 20
463.87947050000002
 11
-121.14823850000005
 21
475.87947050000002
  0
ARC
  8
_0-0_0
  6
CONTINUOUS
 62
    7
 10
-121.64825450000001
 20
475.87947050000002
 40
0.500016
 50
0.001164
 51
179.99560600000004
  0
LINE
  8
_0-0_0
  6
CONTINUOUS
 62
    7
 10
-122.14823850000005
 20
463.87947050000002
 11
-122.14823850000005
 21
475.87947050000002
  0
ARC
  8
_0-0_0
  6
CONTINUOUS
 62
    7
 10
-120.14825450000001
 20
463.8795015
 40
0.500016
 50
180.00117
 51
359.995611
  0
LINE
  8
_0-0_0
  6
CONTINUOUS
 62
    7
 10
-119.64823850000005
 20
463.87947050000002
 11
-119.64823850000005
 21
475.87947050000002
  0
ARC
  8
_0-0_0
  6
CONTINUOUS
 62
    7
 10
-120.14825450000001
 20
475.87947050000002
 40
0.500016
 50
0.001164
 51
179.99560600000004
  0
LINE
  8
_0-0_0
  6
CONTINUOUS
 62
    7
 10
-120.64823850000005
 20
463.87947050000002
 11
-120.64823850000005
 21
475.87947050000002
  0
LINE
  8
_0-0_0
  6
CONTINUOUS
 62
    7
 10
-130.64823850000005
 20
480.87947050000002
 11
-130.64823850000005
 21
480.15684449999998
  0
LINE
  8
_0-0_0
  6
CONTINUOUS
 62
    7
 10
-117.64823850000005
 20
480.87947050000002
 11
-130.64823850000005
 21
480.87947050000002
  0
LINE
  8
_0-0_0
  6
CONTINUOUS
 62
    7
 10
-130.64823850000005
 20
482.57948249999998
 11
-117.64823850000005
 21
482.57948249999998
  0
LINE
  8
_0-0_0
  6
CONTINUOUS
 62
    7
 10
-130.64823850000005
 20
482.57948249999998
 11
-130.64823850000005
 21
480.87947050000002
  0
LINE
  8
_0-0_0
  6
CONTINUOUS
 62
    7
 10
-141.19824249999999
 20
460.5564425
 11
-141.19824249999999
 21
460.57948249999998
  0
ARC
  8
_0-0_0
  6
CONTINUOUS
 62
    7
 10
-113.97279350000008
 20
460.57948249999998
 40
2
 50
269.99999700000001
 51
288.43501300000003
  0
LINE
  8
_0-0_0
  6
CONTINUOUS
 62
    7
 10
-134.84823549999999
 20
482.57948249999998
 11
-134.64823850000005
 21
482.57948249999998
  0
ARC
  8
_0-0_0
  6
CONTINUOUS
 62
    7
 10
-132.64823850000005
 20
481.07948249999998
 40
2
 50
180.00000900000003
 51
0.0000000000000254
  0
LINE
  8
_0-0_0
  6
CONTINUOUS
 62
    7
 10
-134.64823850000005
 20
481.07948249999998
 11
-134.64823850000005
 21
482.57948249999998
  0
LINE
  8
_0-0_0
  6
CONTINUOUS
 62
    7
 10
-112.89825450000001
 20
458.82948249999998
 11
-113.34034750000001
 21
458.68211350000001
  0
ARC
  8
_0-0_0
  6
CONTINUOUS
 62
    7
 10
-143.64823550000006
 20
474.17948849999999
 40
2.25
 50
269.99999700000001
 51
90.000002999999992
  0
LINE
  8
_0-0_0
  6
CONTINUOUS
 62
    7
 10
-147.64824250000004
 20
471.92948849999999
 11
-143.64823550000006
 21
471.92948849999999
  0
ARC
  8
_0-0_0
  6
CONTINUOUS
 62
    7
 10
-147.64824250000004
 20
474.17948849999999
 40
2.25
 50
90.000003000000007
 51
269.99999700000006
  0
ARC
  8
_0-0_0
  6
CONTINUOUS
 62
    7
 10
-199.64824350000004
 20
474.17948849999999
 40
2.25
 50
269.99999700000001
 51
90.000002999999992
  0
LINE
  8
_0-0_0
  6
CONTINUOUS
 62
    7
 10
-203.64824350000004
 20
471.92948849999999
 11
-199.64824350000004
 21
471.92948849999999
  0
ARC
  8
_0-0_0
  6
CONTINUOUS
 62
    7
 10
-203.64824350000004
 20
474.17948849999999
 40
2.25
 50
90.000003000000007
 51
269.99999700000006
  0
LINE
  8
_0-0_0
  6
CONTINUOUS
 62
    7
 10
-147.64824250000004
 20
476.42948849999999
 11
-143.64823550000006
 21
476.42948849999999
  0
LINE
  8
_0-0_0
  6
CONTINUOUS
 62
    7
 10
-203.64824350000004
 20
476.42948849999999
 11
-199.64824350000004
 21
476.42948849999999
  0
LINE
  8
_0-0_0
  6
CONTINUOUS
 62
    7
 10
-141.40763850000008
 20
470.17948849999999
 11
-149.88884350000001
 21
470.17948849999999
  0
LINE
  8
_0-0_0
  6
CONTINUOUS
 62
    7
 10
-141.40763850000008
 20
470.17948849999999
 11
-139.09823549999999
 21
474.17948849999999
  0
LINE
  8
_0-0_0
  6
CONTINUOUS
 62
    7
 10
-139.09823549999999
 20
474.17948849999999
 11
-141.40763850000008
 21
478.17948849999999
  0
LINE
  8
_0-0_0
  6
CONTINUOUS
 62
    7
 10
-149.88884350000001
 20
478.17948849999999
 11
-141.40763850000008
 21
478.17948849999999
  0
LINE
  8
_0-0_0
  6
CONTINUOUS
 62
    7
 10
-152.19824549999998
 20
474.17948849999999
 11
-149.88884350000001
 21
478.17948849999999
  0
LINE
  8
_0-0_0
  6
CONTINUOUS
 62
    7
 10
-149.88884350000001
 20
470.17948849999999
 11
-152.19824549999998
 21
474.17948849999999
  0
LINE
  8
_0-0_0
  6
CONTINUOUS
 62
    7
 10
-197.40764250000007
 20
470.17948849999999
 11
-205.88883650000002
 21
470.17948849999999
  0
LINE
  8
_0-0_0
  6
CONTINUOUS
 62
    7
 10
-195.09823949999998
 20
474.17948849999999
 11
-197.40764250000007
 21
470.17948849999999
  0
LINE
  8
_0-0_0
  6
CONTINUOUS
 62
    7
 10
-195.09823949999998
 20
474.17948849999999
 11
-197.40764250000007
 21
478.17948849999999
  0
LINE
  8
_0-0_0
  6
CONTINUOUS
 62
    7
 10
-205.88883650000002
 20
478.17948849999999
 11
-197.40764250000007
 21
478.17948849999999
  0
LINE
  8
_0-0_0
  6
CONTINUOUS
 62
    7
 10
-208.1982385
 20
474.17948849999999
 11
-205.88883650000002
 21
478.17948849999999
  0
LINE
  8
_0-0_0
  6
CONTINUOUS
 62
    7
 10
-208.1982385
 20
474.17948849999999
 11
-205.88883650000002
 21
470.17948849999999
  0
CIRCLE
  8
_0-0_0
  6
CONTINUOUS
 62
    7
 10
-132.64823850000005
 20
481.07948249999998
 40
1.4750000000000001
  0
CIRCLE
  8
_0-0_0
  6
CONTINUOUS
 62
    7
 10
-211.64823850000005
 20
481.07948249999998
 40
1.4750000000000001
  0
LINE
  8
_0-0_0
  6
CONTINUOUS
 62
    7
 10
-132.19824249999999
 20
480.87947050000002
 11
-131.5482485
 21
480.87947050000002
  0
ARC
  8
_0-0_0
  6
CONTINUOUS
 62
    7
 10
-132.19824249999999
 20
480.62947050000002
 40
0.25
 50
90.000003000000007
 51
180.00000900000001
  0
LINE
  8
_0-0_0
  6
CONTINUOUS
 62
    7
 10
-132.44824249999999
 20
480.62947050000002
 11
-132.44824249999999
 21
479.97947649999998
  0
LINE
  8
_0-0_0
  6
CONTINUOUS
 62
    7
 10
-132.84823549999999
 20
479.97947649999998
 11
-132.44824249999999
 21
479.97947649999998
  0
LINE
  8
_0-0_0
  6
CONTINUOUS
 62
    7
 10
-132.84823549999999
 20
479.97947649999998
 11
-132.84823549999999
 21
480.62947050000002
  0
ARC
  8
_0-0_0
  6
CONTINUOUS
 62
    7
 10
-133.09823549999999
 20
480.62947050000002
 40
0.25
 50
0
 51
90.000003000000007
  0
LINE
  8
_0-0_0
  6
CONTINUOUS
 62
    7
 10
-133.74824550000005
 20
480.87947050000002
 11
-133.09823549999999
 21
480.87947050000002
  0
LINE
  8
_0-0_0
  6
CONTINUOUS
 62
    7
 10
-133.74824550000005
 20
480.87947050000002
 11
-133.74824550000005
 21
481.2794955
  0
LINE
  8
_0-0_0
  6
CONTINUOUS
 62
    7
 10
-133.09823549999999
 20
481.2794955
 11
-133.74824550000005
 21
481.2794955
  0
ARC
  8
_0-0_0
  6
CONTINUOUS
 62
    7
 10
-133.09823549999999
 20
481.5294955
 40
0.25
 50
269.99999700000001
 51
0
  0
LINE
  8
_0-0_0
  6
CONTINUOUS
 62
    7
 10
-132.84823549999999
 20
481.5294955
 11
-132.84823549999999
 21
482.17948849999999
  0
LINE
  8
_0-0_0
  6
CONTINUOUS
 62
    7
 10
-132.44824249999999
 20
482.17948849999999
 11
-132.84823549999999
 21
482.17948849999999
  0
LINE
  8
_0-0_0
  6
CONTINUOUS
 62
    7
 10
-132.44824249999999
 20
482.17948849999999
 11
-132.44824249999999
 21
481.5294955
  0
ARC
  8
_0-0_0
  6
CONTINUOUS
 62
    7
 10
-132.19824249999999
 20
481.5294955
 40
0.25
 50
180.00000900000003
 51
269.99999700000001
  0
LINE
  8
_0-0_0
  6
CONTINUOUS
 62
    7
 10
-131.5482485
 20
481.2794955
 11
-132.19824249999999
 21
481.2794955
  0
LINE
  8
_0-0_0
  6
CONTINUOUS
 62
    7
 10
-131.5482485
 20
481.2794955
 11
-131.5482485
 21
480.87947050000002
  0
LINE
  8
_0-0_0
  6
CONTINUOUS
 62
    7
 10
-211.1982385
 20
480.87947050000002
 11
-210.54824050000002
 21
480.87947050000002
  0
ARC
  8
_0-0_0
  6
CONTINUOUS
 62
    7
 10
-211.1982385
 20
480.62947050000002
 40
0.25
 50
90.000003000000007
 51
180.00000900000001
  0
LINE
  8
_0-0_0
  6
CONTINUOUS
 62
    7
 10
-211.4482385
 20
480.62947050000002
 11
-211.4482385
 21
479.97947649999998
  0
LINE
  8
_0-0_0
  6
CONTINUOUS
 62
    7
 10
-211.84824049999997
 20
479.97947649999998
 11
-211.4482385
 21
479.97947649999998
  0
LINE
  8
_0-0_0
  6
CONTINUOUS
 62
    7
 10
-211.84824049999997
 20
479.97947649999998
 11
-211.84824049999997
 21
480.62947050000002
  0
ARC
  8
_0-0_0
  6
CONTINUOUS
 62
    7
 10
-212.09824049999997
 20
480.62947050000002
 40
0.25
 50
0
 51
90.000003000000007
  0
LINE
  8
_0-0_0
  6
CONTINUOUS
 62
    7
 10
-212.74824150000006
 20
480.87947050000002
 11
-212.09824049999997
 21
480.87947050000002
  0
LINE
  8
_0-0_0
  6
CONTINUOUS
 62
    7
 10
-212.74824150000006
 20
480.87947050000002
 11
-212.74824150000006
 21
481.2794955
  0
LINE
  8
_0-0_0
  6
CONTINUOUS
 62
    7
 10
-212.09824049999997
 20
481.2794955
 11
-212.74824150000006
 21
481.2794955
  0
ARC
  8
_0-0_0
  6
CONTINUOUS
 62
    7
 10
-212.09824049999997
 20
481.5294955
 40
0.25
 50
269.99999700000001
 51
0
  0
LINE
  8
_0-0_0
  6
CONTINUOUS
 62
    7
 10
-211.84824049999997
 20
481.5294955
 11
-211.84824049999997
 21
482.17948849999999
  0
LINE
  8
_0-0_0
  6
CONTINUOUS
 62
    7
 10
-211.4482385
 20
482.17948849999999
 11
-211.84824049999997
 21
482.17948849999999
  0
LINE
  8
_0-0_0
  6
CONTINUOUS
 62
    7
 10
-211.4482385
 20
482.17948849999999
 11
-211.4482385
 21
481.5294955
  0
ARC
  8
_0-0_0
  6
CONTINUOUS
 62
    7
 10
-211.1982385
 20
481.5294955
 40
0.25
 50
180.00000900000003
 51
269.99999700000001
  0
LINE
  8
_0-0_0
  6
CONTINUOUS
 62
    7
 10
-210.54824050000002
 20
481.2794955
 11
-211.1982385
 21
481.2794955
  0
LINE
  8
_0-0_0
  6
CONTINUOUS
 62
    7
 10
-210.54824050000002
 20
481.2794955
 11
-210.54824050000002
 21
480.87947050000002
  0
LINE
  8
_0-0_0
  6
CONTINUOUS
 62
    7
 10
-210.09824049999997
 20
460.5564425
 11
-210.09824049999997
 21
460.57948249999998
  0
LINE
  8
_0-0_0
  6
CONTINUOUS
 62
    7
 10
-191.64824250000004
 20
478.57948249999998
 11
-191.64824250000004
 21
465.62248249999999
  0
ARC
  8
_0-0_0
  6
CONTINUOUS
 62
    7
 10
-194.64824250000004
 20
478.57948249999998
 40
3
 50
0
 51
90.000003000000007
  0
LINE
  8
_0-0_0
  6
CONTINUOUS
 62
    7
 10
-155.64824250000004
 20
464.97947649999998
 11
-155.64824250000004
 21
478.57948249999998
  0
LINE
  8
_0-0_0
  6
CONTINUOUS
 62
    7
 10
-172.16075450000005
 20
474.74913049999998
 11
-173.4607585
 21
478.24913049999998
  0
ARC
  8
_0-0_0
  6
CONTINUOUS
 62
    7
 10
-174.9482385
 20
474.67948849999999
 40
0.2
 50
159.62357
 51
269.99999700000001
  0
LINE
  8
_0-0_0
  6
CONTINUOUS
 62
    7
 10
-130.64823850000005
 20
480.17948849999999
 11
-113.97279350000008
 21
480.17948849999999
  0
ARC
  8
_0-0_0
  6
CONTINUOUS
 62
    7
 10
-113.97279350000008
 20
478.17948849999999
 40
2
 50
71.565000999999995
 51
90.000003000000007
  0
LINE
  8
_0-0_0
  6
CONTINUOUS
 62
    7
 10
-113.34033150000005
 20
480.07685850000001
 11
-113.45983850000005
 21
480.11247250000002
  0
LINE
  8
_0-0_0
  6
CONTINUOUS
 62
    7
 10
-113.45983850000005
 20
480.11247250000002
 11
-113.5813905
 21
480.14033449999999
  0
LINE
  8
_0-0_0
  6
CONTINUOUS
 62
    7
 10
-113.5813905
 20
480.14033449999999
 11
-113.70451350000008
 21
480.16038450000002
  0
LINE
  8
_0-0_0
  6
CONTINUOUS
 62
    7
 10
-113.70451350000008
 20
480.16038450000002
 11
-113.82873549999999
 21
480.17250050000001
  0
LINE
  8
_0-0_0
  6
CONTINUOUS
 62
    7
 10
-113.82873549999999
 20
480.17250050000001
 11
-113.95356749999996
 21
480.17662050000001
  0
LINE
  8
_0-0_0
  6
CONTINUOUS
 62
    7
 10
-113.95356749999996
 20
480.17662050000001
 11
-113.97279350000008
 21
480.1765595
  0
LINE
  8
_0-0_0
  6
CONTINUOUS
 62
    7
 10
-109.01579250000009
 20
478.63533050000001
 11
-113.34034750000001
 21
480.07685850000001
  0
LINE
  8
_0-0_0
  6
CONTINUOUS
 62
    7
 10
-109.17390450000005
 20
464.07948249999998
 11
-108.48054450000006
 21
464.07948249999998
  0
LINE
  8
_0-0_0
  6
CONTINUOUS
 62
    7
 10
-109.17390450000005
 20
464.07948249999998
 11
-113.49845849999997
 21
464.07948249999998
  0
LINE
  8
_0-0_0
  6
CONTINUOUS
 62
    7
 10
-113.97279350000008
 20
464.07948249999998
 11
-113.49845849999997
 21
464.07948249999998
  0
LINE
  8
_0-0_0
  6
CONTINUOUS
 62
    7
 10
-118.64823850000005
 20
464.07948249999998
 11
-113.97279350000008
 21
464.07948249999998
  0
LINE
  8
_0-0_0
  6
CONTINUOUS
 62
    7
 10
-107.64823850000005
 20
463.3294525
 11
-107.64823850000005
 21
464.45045449999998
  0
LINE
  8
_0-0_0
  6
CONTINUOUS
 62
    7
 10
-107.64823850000005
 20
465.3717805
 11
-107.64823850000005
 21
464.45045449999998
  0
LINE
  8
_0-0_0
  6
CONTINUOUS
 62
    7
 10
-96.648238500000048
 20
464.12947050000002
 11
-96.648238500000048
 21
472.11103850000001
  0
ARC
  8
_0-0_0
  6
CONTINUOUS
 62
    7
 10
-102.82212849999996
 20
472.63035550000001
 40
4.9238749999999998
 50
352.49423299999995
 51
1.5359699999999901
  0
LINE
  8
_0-0_0
  6
CONTINUOUS
 62
    7
 10
-97.940414500000088
 20
466.77177449999999
 11
-97.846084500000075
 21
467.0184175
  0
LINE
  8
_0-0_0
  6
CONTINUOUS
 62
    7
 10
-97.846084500000075
 20
467.0184175
 11
-97.762130500000012
 21
467.2583765
  0
LINE
  8
_0-0_0
  6
CONTINUOUS
 62
    7
 10
-97.762130500000012
 20
467.2583765
 11
-97.687972500000001
 21
467.49250749999999
  0
LINE
  8
_0-0_0
  6
CONTINUOUS
 62
    7
 10
-97.687972500000001
 20
467.49250749999999
 11
-97.623092499999984
 21
467.7215425
  0
LINE
  8
_0-0_0
  6
CONTINUOUS
 62
    7
 10
-97.623092499999984
 20
467.7215425
 11
-97.56704650000006
 21
467.9462125
  0
LINE
  8
_0-0_0
  6
CONTINUOUS
 62
    7
 10
-97.56704650000006
 20
467.9462125
 11
-97.519485499999973
 21
468.1671905
  0
LINE
  8
_0-0_0
  6
CONTINUOUS
 62
    7
 10
-97.519485499999973
 20
468.1671905
 11
-97.480087500000081
 21
468.38511649999998
  0
LINE
  8
_0-0_0
  6
CONTINUOUS
 62
    7
 10
-97.480087500000081
 20
468.38511649999998
 11
-97.448592500000018
 21
468.60054050000002
  0
LINE
  8
_0-0_0
  6
CONTINUOUS
 62
    7
 10
-97.448592500000018
 20
468.60054050000002
 11
-97.424819500000012
 21
468.81407150000001
  0
LINE
  8
_0-0_0
  6
CONTINUOUS
 62
    7
 10
-97.424819500000012
 20
468.81407150000001
 11
-97.408889499999987
 21
469.02180449999997
  0
LINE
  8
_0-0_0
  6
CONTINUOUS
 62
    7
 10
-97.408889499999987
 20
469.02180449999997
 11
-97.400131500000043
 21
469.22865250000001
  0
LINE
  8
_0-0_0
  6
CONTINUOUS
 62
    7
 10
-97.400131500000043
 20
469.22865250000001
 11
-97.398498500000073
 21
469.43510450000002
  0
LINE
  8
_0-0_0
  6
CONTINUOUS
 62
    7
 10
-97.398498500000073
 20
469.43510450000002
 11
-97.403961500000037
 21
469.64170849999999
  0
LINE
  8
_0-0_0
  6
CONTINUOUS
 62
    7
 10
-97.403961500000037
 20
469.64170849999999
 11
-97.416580500000009
 21
469.84889249999998
  0
LINE
  8
_0-0_0
  6
CONTINUOUS
 62
    7
 10
-97.416580500000009
 20
469.84889249999998
 11
-97.436385500000029
 21
470.05717449999997
  0
LINE
  8
_0-0_0
  6
CONTINUOUS
 62
    7
 10
-97.436385500000029
 20
470.05717449999997
 11
-97.463531500000045
 21
470.26710450000002
  0
LINE
  8
_0-0_0
  6
CONTINUOUS
 62
    7
 10
-97.463531500000045
 20
470.26710450000002
 11
-97.498184499999979
 21
470.47917150000001
  0
LINE
  8
_0-0_0
  6
CONTINUOUS
 62
    7
 10
-97.498184499999979
 20
470.47917150000001
 11
-97.540527500000053
 21
470.69392349999998
  0
LINE
  8
_0-0_0
  6
CONTINUOUS
 62
    7
 10
-97.540527500000053
 20
470.69392349999998
 11
-97.590850499999988
 21
470.91191049999998
  0
LINE
  8
_0-0_0
  6
CONTINUOUS
 62
    7
 10
-97.590850499999988
 20
470.91191049999998
 11
-97.645095500000025
 21
471.11820949999998
  0
LINE
  8
_0-0_0
  6
CONTINUOUS
 62
    7
 10
-97.645095500000025
 20
471.11820949999998
 11
-97.706802499999981
 21
471.32832350000001
  0
LINE
  8
_0-0_0
  6
CONTINUOUS
 62
    7
 10
-97.706802499999981
 20
471.32832350000001
 11
-97.776321499999995
 21
471.54277050000002
  0
LINE
  8
_0-0_0
  6
CONTINUOUS
 62
    7
 10
-97.776321499999995
 20
471.54277050000002
 11
-97.854034500000012
 21
471.76219149999997
  0
LINE
  8
_0-0_0
  6
CONTINUOUS
 62
    7
 10
-97.854034500000012
 20
471.76219149999997
 11
-97.940414500000088
 21
471.9871675
  0
ARC
  8
_0-0_0
  6
CONTINUOUS
 62
    7
 10
-102.81196550000004
 20
466.12947050000002
 40
4.9136889999999998
 50
352.48898799999995
 51
7.5110139999999577
  0
LINE
  8
_0-0_0
  6
CONTINUOUS
 62
    7
 10
-97.940414500000088
 20
465.4871675
 11
-97.885925499999985
 21
465.41725150000002
  0
LINE
  8
_0-0_0
  6
CONTINUOUS
 62
    7
 10
-97.885925499999985
 20
465.41725150000002
 11
-97.834823500000084
 21
465.34840350000002
  0
LINE
  8
_0-0_0
  6
CONTINUOUS
 62
    7
 10
-97.834823500000084
 20
465.34840350000002
 11
-97.787185500000078
 21
465.28089849999998
  0
LINE
  8
_0-0_0
  6
CONTINUOUS
 62
    7
 10
-97.787185500000078
 20
465.28089849999998
 11
-97.742690499999981
 21
465.21437049999997
  0
LINE
  8
_0-0_0
  6
CONTINUOUS
 62
    7
 10
-97.742690499999981
 20
465.21437049999997
 11
-97.687972500000001
 21
465.12681550000002
  0
LINE
  8
_0-0_0
  6
CONTINUOUS
 62
    7
 10
-97.687972500000001
 20
465.12681550000002
 11
-97.63845850000007
 21
465.04072550000001
  0
LINE
  8
_0-0_0
  6
CONTINUOUS
 62
    7
 10
-97.63845850000007
 20
465.04072550000001
 11
-97.59399350000001
 21
464.95588650000002
  0
LINE
  8
_0-0_0
  6
CONTINUOUS
 62
    7
 10
-97.59399350000001
 20
464.95588650000002
 11
-97.547027500000013
 21
464.85557549999999
  0
LINE
  8
_0-0_0
  6
CONTINUOUS
 62
    7
 10
-97.547027500000013
 20
464.85557549999999
 11
-97.506820500000003
 21
464.75663750000001
  0
LINE
  8
_0-0_0
  6
CONTINUOUS
 62
    7
 10
-97.506820500000003
 20
464.75663750000001
 11
-97.473159500000065
 21
464.65888949999999
  0
LINE
  8
_0-0_0
  6
CONTINUOUS
 62
    7
 10
-97.473159500000065
 20
464.65888949999999
 11
-97.445861499999978
 21
464.56208750000002
  0
LINE
  8
_0-0_0
  6
CONTINUOUS
 62
    7
 10
-97.445861499999978
 20
464.56208750000002
 11
-97.424819500000012
 21
464.46601850000002
  0
LINE
  8
_0-0_0
  6
CONTINUOUS
 62
    7
 10
-97.424819500000012
 20
464.46601850000002
 11
-97.408889499999987
 21
464.3621675
  0
LINE
  8
_0-0_0
  6
CONTINUOUS
 62
    7
 10
-97.408889499999987
 20
464.3621675
 11
-97.400131500000043
 21
464.25874349999998
  0
LINE
  8
_0-0_0
  6
CONTINUOUS
 62
    7
 10
-97.400131500000043
 20
464.25874349999998
 11
-97.398498500000073
 21
464.15550250000001
  0
LINE
  8
_0-0_0
  6
CONTINUOUS
 62
    7
 10
-97.398498500000073
 20
464.15550250000001
 11
-97.403961500000037
 21
464.05223050000001
  0
LINE
  8
_0-0_0
  6
CONTINUOUS
 62
    7
 10
-97.403961500000037
 20
464.05223050000001
 11
-97.416580500000009
 21
463.9486235
  0
LINE
  8
_0-0_0
  6
CONTINUOUS
 62
    7
 10
-97.416580500000009
 20
463.9486235
 11
-97.436385500000029
 21
463.84446750000001
  0
LINE
  8
_0-0_0
  6
CONTINUOUS
 62
    7
 10
-97.436385500000029
 20
463.84446750000001
 11
-97.463531500000045
 21
463.73951749999998
  0
LINE
  8
_0-0_0
  6
CONTINUOUS
 62
    7
 10
-97.463531500000045
 20
463.73951749999998
 11
-97.498184499999979
 21
463.63349849999997
  0
LINE
  8
_0-0_0
  6
CONTINUOUS
 62
    7
 10
-97.498184499999979
 20
463.63349849999997
 11
-97.540527500000053
 21
463.52610750000002
  0
LINE
  8
_0-0_0
  6
CONTINUOUS
 62
    7
 10
-97.540527500000053
 20
463.52610750000002
 11
-97.590850499999988
 21
463.41709850000001
  0
LINE
  8
_0-0_0
  6
CONTINUOUS
 62
    7
 10
-97.590850499999988
 20
463.41709850000001
 11
-97.636535500000036
 21
463.3294525
  0
LINE
  8
_0-0_0
  6
CONTINUOUS
 62
    7
 10
-107.64823850000005
 20
473.27177449999999
 11
-97.940414500000088
 21
473.27177449999999
  0
LINE
  8
_0-0_0
  6
CONTINUOUS
 62
    7
 10
-107.64823850000005
 20
471.9871675
 11
-107.64823850000005
 21
473.27177449999999
  0
LINE
  8
_0-0_0
  6
CONTINUOUS
 62
    7
 10
-107.64823850000005
 20
471.9871675
 11
-97.940414500000088
 21
471.9871675
  0
ARC
  8
_0-0_0
  6
CONTINUOUS
 62
    7
 10
-102.86015350000002
 20
472.62541149999998
 40
4.9620009999999999
 50
1.5813010000000001
 51
7.4847919999999997
  0
LINE
  8
_0-0_0
  6
CONTINUOUS
 62
    7
 10
-107.94824249999999
 20
467.16746549999999
 11
-108.03170750000004
 21
467.54612750000001
  0
LINE
  8
_0-0_0
  6
CONTINUOUS
 62
    7
 10
-108.03170750000004
 20
467.54612750000001
 11
-108.07179250000002
 21
467.73765550000002
  0
LINE
  8
_0-0_0
  6
CONTINUOUS
 62
    7
 10
-108.07179250000002
 20
467.73765550000002
 11
-108.12788350000005
 21
468.0276945
  0
LINE
  8
_0-0_0
  6
CONTINUOUS
 62
    7
 10
-108.12788350000005
 20
468.0276945
 11
-108.16548150000006
 21
468.24726850000002
  0
LINE
  8
_0-0_0
  6
CONTINUOUS
 62
    7
 10
-108.16548150000006
 20
468.24726850000002
 11
-108.19811950000008
 21
468.46852050000001
  0
LINE
  8
_0-0_0
  6
CONTINUOUS
 62
    7
 10
-108.19811950000008
 20
468.46852050000001
 11
-108.22528050000005
 21
468.69532750000002
  0
LINE
  8
_0-0_0
  6
CONTINUOUS
 62
    7
 10
-108.22528050000005
 20
468.69532750000002
 11
-108.24534549999998
 21
468.92271449999998
  0
LINE
  8
_0-0_0
  6
CONTINUOUS
 62
    7
 10
-108.24534549999998
 20
468.92271449999998
 11
-108.25250249999999
 21
469.03645349999999
  0
LINE
  8
_0-0_0
  6
CONTINUOUS
 62
    7
 10
-108.25250249999999
 20
469.03645349999999
 11
-108.25765950000005
 21
469.15013149999999
  0
LINE
  8
_0-0_0
  6
CONTINUOUS
 62
    7
 10
-108.25765950000005
 20
469.15013149999999
 11
-108.26138250000008
 21
469.3015595
  0
LINE
  8
_0-0_0
  6
CONTINUOUS
 62
    7
 10
-108.26138250000008
 20
469.3015595
 11
-108.26144350000004
 21
469.45283449999999
  0
LINE
  8
_0-0_0
  6
CONTINUOUS
 62
    7
 10
-108.26144350000004
 20
469.45283449999999
 11
-108.2578585
 21
469.60386649999998
  0
LINE
  8
_0-0_0
  6
CONTINUOUS
 62
    7
 10
-108.2578585
 20
469.60386649999998
 11
-108.24835150000001
 21
469.79243450000001
  0
LINE
  8
_0-0_0
  6
CONTINUOUS
 62
    7
 10
-108.24835150000001
 20
469.79243450000001
 11
-108.23348950000002
 21
469.98066649999998
  0
LINE
  8
_0-0_0
  6
CONTINUOUS
 62
    7
 10
-108.23348950000002
 20
469.98066649999998
 11
-108.21356149999997
 21
470.16862450000002
  0
LINE
  8
_0-0_0
  6
CONTINUOUS
 62
    7
 10
-108.21356149999997
 20
470.16862450000002
 11
-108.19717349999996
 21
470.29750050000001
  0
LINE
  8
_0-0_0
  6
CONTINUOUS
 62
    7
 10
-108.19717349999996
 20
470.29750050000001
 11
-108.17877150000004
 21
470.42613249999999
  0
LINE
  8
_0-0_0
  6
CONTINUOUS
 62
    7
 10
-108.17877150000004
 20
470.42613249999999
 11
-108.15460150000001
 21
470.5780795
  0
LINE
  8
_0-0_0
  6
CONTINUOUS
 62
    7
 10
-108.15460150000001
 20
470.5780795
 11
-108.12820450000004
 21
470.72941550000002
  0
LINE
  8
_0-0_0
  6
CONTINUOUS
 62
    7
 10
-108.12820450000004
 20
470.72941550000002
 11
-108.07203649999997
 21
471.02003450000001
  0
LINE
  8
_0-0_0
  6
CONTINUOUS
 62
    7
 10
-108.07203649999997
 20
471.02003450000001
 11
-108.03187550000007
 21
471.21199050000001
  0
LINE
  8
_0-0_0
  6
CONTINUOUS
 62
    7
 10
-108.03187550000007
 20
471.21199050000001
 11
-107.94824249999999
 21
471.5914765
  0
LINE
  8
_0-0_0
  6
CONTINUOUS
 62
    7
 10
-107.64823850000005
 20
467.81742850000001
 11
-107.64823850000005
 21
470.94154350000002
  0
LINE
  8
_0-0_0
  6
CONTINUOUS
 62
    7
 10
-82.898238500000048
 20
459.85404949999997
 11
-83.148238500000048
 21
459.82948249999998
  0
LINE
  8
_0-0_0
  6
CONTINUOUS
 62
    7
 10
-83.148238500000048
 20
459.82948249999998
 11
-92.398238500000048
 21
459.82948249999998
  0
LINE
  8
_0-0_0
  6
CONTINUOUS
 62
    7
 10
-92.648238500000048
 20
459.85404949999997
 11
-92.398238500000048
 21
459.82948249999998
  0
LINE
  8
_0-0_0
  6
CONTINUOUS
 62
    7
 10
-82.898238500000048
 20
462.82804850000002
 11
-83.148238500000048
 21
463.1020355
  0
LINE
  8
_0-0_0
  6
CONTINUOUS
 62
    7
 10
-82.898238500000048
 20
462.82804850000002
 11
-83.148238500000048
 21
462.93733149999997
  0
LINE
  8
_0-0_0
  6
CONTINUOUS
 62
    7
 10
-82.898238500000048
 20
462.6704555
 11
-83.148238500000048
 21
462.93733149999997
  0
LINE
  8
_0-0_0
  6
CONTINUOUS
 62
    7
 10
-82.898238500000048
 20
462.6704555
 11
-83.148238500000048
 21
462.75230349999998
  0
LINE
  8
_0-0_0
  6
CONTINUOUS
 62
    7
 10
-82.898238500000048
 20
462.49546750000002
 11
-83.148238500000048
 21
462.75230349999998
  0
LINE
  8
_0-0_0
  6
CONTINUOUS
 62
    7
 10
-82.898238500000048
 20
462.49546750000002
 11
-83.148238500000048
 21
462.54893449999997
  0
LINE
  8
_0-0_0
  6
CONTINUOUS
 62
    7
 10
-82.898238500000048
 20
462.30491649999999
 11
-83.148238500000048
 21
462.54893449999997
  0
LINE
  8
_0-0_0
  6
CONTINUOUS
 62
    7
 10
-82.898238500000048
 20
462.30491649999999
 11
-83.148238500000048
 21
462.32948249999998
  0
LINE
  8
_0-0_0
  6
CONTINUOUS
 62
    7
 10
-82.898238500000048
 20
462.10096750000002
 11
-83.148238500000048
 21
462.32948249999998
  0
LINE
  8
_0-0_0
  6
CONTINUOUS
 62
    7
 10
-82.898238500000048
 20
462.10096750000002
 11
-83.148238500000048
 21
462.09632849999997
  0
LINE
  8
_0-0_0
  6
CONTINUOUS
 62
    7
 10
-82.898238500000048
 20
461.88581849999997
 11
-83.148238500000048
 21
462.09632849999997
  0
LINE
  8
_0-0_0
  6
CONTINUOUS
 62
    7
 10
-82.898238500000048
 20
461.88581849999997
 11
-83.148238500000048
 21
461.8520355
  0
LINE
  8
_0-0_0
  6
CONTINUOUS
 62
    7
 10
-82.898238500000048
 20
461.66181949999998
 11
-83.148238500000048
 21
461.8520355
  0
LINE
  8
_0-0_0
  6
CONTINUOUS
 62
    7
 10
-82.898238500000048
 20
461.66181949999998
 11
-83.148238500000048
 21
461.59925850000002
  0
LINE
  8
_0-0_0
  6
CONTINUOUS
 62
    7
 10
-82.898238500000048
 20
461.43147249999998
 11
-83.148238500000048
 21
461.59925850000002
  0
LINE
  8
_0-0_0
  6
CONTINUOUS
 62
    7
 10
-82.898238500000048
 20
461.43147249999998
 11
-83.148238500000048
 21
461.34080449999999
  0
LINE
  8
_0-0_0
  6
CONTINUOUS
 62
    7
 10
-82.898238500000048
 20
461.1972505
 11
-83.148238500000048
 21
461.34080449999999
  0
LINE
  8
_0-0_0
  6
CONTINUOUS
 62
    7
 10
-82.898238500000048
 20
461.1972505
 11
-83.148238500000048
 21
461.07948249999998
  0
LINE
  8
_0-0_0
  6
CONTINUOUS
 62
    7
 10
-82.898238500000048
 20
460.96171549999997
 11
-83.148238500000048
 21
461.07948249999998
  0
LINE
  8
_0-0_0
  6
CONTINUOUS
 62
    7
 10
-82.898238500000048
 20
460.96171549999997
 11
-83.148238500000048
 21
460.81816049999998
  0
LINE
  8
_0-0_0
  6
CONTINUOUS
 62
    7
 10
-82.898238500000048
 20
460.72749349999998
 11
-83.148238500000048
 21
460.81816049999998
  0
LINE
  8
_0-0_0
  6
CONTINUOUS
 62
    7
 10
-82.898238500000048
 20
460.72749349999998
 11
-83.148238500000048
 21
460.5597075
  0
LINE
  8
_0-0_0
  6
CONTINUOUS
 62
    7
 10
-82.898238500000048
 20
460.49714649999999
 11
-83.148238500000048
 21
460.5597075
  0
LINE
  8
_0-0_0
  6
CONTINUOUS
 62
    7
 10
-82.898238500000048
 20
460.49714649999999
 11
-83.148238500000048
 21
460.30693050000002
  0
LINE
  8
_0-0_0
  6
CONTINUOUS
 62
    7
 10
-82.898238500000048
 20
460.27314749999999
 11
-83.148238500000048
 21
460.30693050000002
  0
LINE
  8
_0-0_0
  6
CONTINUOUS
 62
    7
 10
-82.898238500000048
 20
460.27314749999999
 11
-83.148238500000048
 21
460.06263749999999
  0
LINE
  8
_0-0_0
  6
CONTINUOUS
 62
    7
 10
-82.898238500000048
 20
460.0579985
 11
-83.148238500000048
 21
460.06263749999999
  0
LINE
  8
_0-0_0
  6
CONTINUOUS
 62
    7
 10
-82.898238500000048
 20
460.0579985
 11
-83.148238500000048
 21
459.82948249999998
  0
LINE
  8
_0-0_0
  6
CONTINUOUS
 62
    7
 10
-82.898238500000048
 20
459.85404949999997
 11
-83.148238500000048
 21
459.61003049999999
  0
LINE
  8
_0-0_0
  6
CONTINUOUS
 62
    7
 10
-82.898238500000048
 20
459.66349750000001
 11
-83.148238500000048
 21
459.61003049999999
  0
LINE
  8
_0-0_0
  6
CONTINUOUS
 62
    7
 10
-82.898238500000048
 20
459.66349750000001
 11
-83.148238500000048
 21
459.40666149999998
  0
LINE
  8
_0-0_0
  6
CONTINUOUS
 62
    7
 10
-82.898238500000048
 20
459.48847949999998
 11
-83.148238500000048
 21
459.40666149999998
  0
LINE
  8
_0-0_0
  6
CONTINUOUS
 62
    7
 10
-82.898238500000048
 20
459.48847949999998
 11
-83.148238500000048
 21
459.22160350000001
  0
LINE
  8
_0-0_0
  6
CONTINUOUS
 62
    7
 10
-82.898238500000048
 20
459.3309175
 11
-83.148238500000048
 21
459.22160350000001
  0
LINE
  8
_0-0_0
  6
CONTINUOUS
 62
    7
 10
-82.898238500000048
 20
459.3309175
 11
-83.148238500000048
 21
459.05693050000002
  0
LINE
  8
_0-0_0
  6
CONTINUOUS
 62
    7
 10
-82.898238500000048
 20
459.19248950000002
 11
-83.148238500000048
 21
459.05693050000002
  0
LINE
  8
_0-0_0
  6
CONTINUOUS
 62
    7
 10
-82.898238500000048
 20
459.19248950000002
 11
-83.148238500000048
 21
458.91441350000002
  0
LINE
  8
_0-0_0
  6
CONTINUOUS
 62
    7
 10
-82.898238500000048
 20
459.07472250000001
 11
-83.148238500000048
 21
458.91441350000002
  0
LINE
  8
_0-0_0
  6
CONTINUOUS
 62
    7
 10
-82.898238500000048
 20
459.07472250000001
 11
-83.148238500000048
 21
458.79560850000001
  0
LINE
  8
_0-0_0
  6
CONTINUOUS
 62
    7
 10
-82.898238500000048
 20
458.9789275
 11
-83.148238500000048
 21
458.79560850000001
  0
LINE
  8
_0-0_0
  6
CONTINUOUS
 62
    7
 10
-82.898238500000048
 20
458.9789275
 11
-83.148238500000048
 21
458.70182749999998
  0
LINE
  8
_0-0_0
  6
CONTINUOUS
 62
    7
 10
-82.898238500000048
 20
458.90614349999998
 11
-83.148238500000048
 21
458.70182749999998
  0
LINE
  8
_0-0_0
  6
CONTINUOUS
 62
    7
 10
-82.898238500000048
 20
458.90614349999998
 11
-83.148238500000048
 21
458.63410950000002
  0
LINE
  8
_0-0_0
  6
CONTINUOUS
 62
    7
 10
-82.898238500000048
 20
458.8571925
 11
-83.148238500000048
 21
458.63410950000002
  0
LINE
  8
_0-0_0
  6
CONTINUOUS
 62
    7
 10
-82.898238500000048
 20
458.8571925
 11
-83.148238500000048
 21
458.5931855
  0
LINE
  8
_0-0_0
  6
CONTINUOUS
 62
    7
 10
-82.898238500000048
 20
458.83256549999999
 11
-83.148238500000048
 21
458.5931855
  0
LINE
  8
_0-0_0
  6
CONTINUOUS
 62
    7
 10
-82.898238500000048
 20
458.83256549999999
 11
-83.148238500000048
 21
458.57948249999998
  0
LINE
  8
_0-0_0
  6
CONTINUOUS
 62
    7
 10
-82.648238500000048
 20
459.07948249999998
 11
-82.648238500000048
 21
462.83464049999998
  0
LINE
  8
_0-0_0
  6
CONTINUOUS
 62
    7
 10
-83.02819850000003
 20
463.16810550000002
 11
-83.148238500000048
 21
463.2445525
  0
LINE
  8
_0-0_0
  6
CONTINUOUS
 62
    7
 10
-82.898238500000048
 20
462.9664765
 11
-83.148238500000048
 21
463.2445525
  0
LINE
  8
_0-0_0
  6
CONTINUOUS
 62
    7
 10
-82.898238500000048
 20
462.9664765
 11
-83.148238500000048
 21
463.1020355
  0
LINE
  8
_0-0_0
  6
CONTINUOUS
 62
    7
 10
-83.148238500000048
 20
462.93733149999997
 11
-92.398238500000048
 21
462.93733149999997
  0
LINE
  8
_0-0_0
  6
CONTINUOUS
 62
    7
 10
-92.648238500000048
 20
462.82804850000002
 11
-92.398238500000048
 21
462.93733149999997
  0
LINE
  8
_0-0_0
  6
CONTINUOUS
 62
    7
 10
-83.148238500000048
 20
462.75230349999998
 11
-92.398238500000048
 21
462.75230349999998
  0
LINE
  8
_0-0_0
  6
CONTINUOUS
 62
    7
 10
-92.648238500000048
 20
462.6704555
 11
-92.398238500000048
 21
462.75230349999998
  0
LINE
  8
_0-0_0
  6
CONTINUOUS
 62
    7
 10
-83.148238500000048
 20
462.54893449999997
 11
-92.398238500000048
 21
462.54893449999997
  0
LINE
  8
_0-0_0
  6
CONTINUOUS
 62
    7
 10
-92.648238500000048
 20
462.49546750000002
 11
-92.398238500000048
 21
462.54893449999997
  0
LINE
  8
_0-0_0
  6
CONTINUOUS
 62
    7
 10
-83.148238500000048
 20
462.32948249999998
 11
-92.398238500000048
 21
462.32948249999998
  0
LINE
  8
_0-0_0
  6
CONTINUOUS
 62
    7
 10
-92.648238500000048
 20
462.30491649999999
 11
-92.398238500000048
 21
462.32948249999998
  0
LINE
  8
_0-0_0
  6
CONTINUOUS
 62
    7
 10
-83.148238500000048
 20
462.09632849999997
 11
-92.398238500000048
 21
462.09632849999997
  0
LINE
  8
_0-0_0
  6
CONTINUOUS
 62
    7
 10
-82.898238500000048
 20
462.10096750000002
 11
-92.648238500000048
 21
462.10096750000002
  0
LINE
  8
_0-0_0
  6
CONTINUOUS
 62
    7
 10
-92.648238500000048
 20
462.10096750000002
 11
-92.398238500000048
 21
462.09632849999997
  0
LINE
  8
_0-0_0
  6
CONTINUOUS
 62
    7
 10
-83.148238500000048
 20
461.8520355
 11
-92.398238500000048
 21
461.8520355
  0
LINE
  8
_0-0_0
  6
CONTINUOUS
 62
    7
 10
-82.898238500000048
 20
461.88581849999997
 11
-92.648238500000048
 21
461.88581849999997
  0
LINE
  8
_0-0_0
  6
CONTINUOUS
 62
    7
 10
-92.648238500000048
 20
461.88581849999997
 11
-92.398238500000048
 21
461.8520355
  0
LINE
  8
_0-0_0
  6
CONTINUOUS
 62
    7
 10
-83.148238500000048
 20
461.59925850000002
 11
-92.398238500000048
 21
461.59925850000002
  0
LINE
  8
_0-0_0
  6
CONTINUOUS
 62
    7
 10
-82.898238500000048
 20
461.66181949999998
 11
-92.648238500000048
 21
461.66181949999998
  0
LINE
  8
_0-0_0
  6
CONTINUOUS
 62
    7
 10
-92.648238500000048
 20
461.66181949999998
 11
-92.398238500000048
 21
461.59925850000002
  0
LINE
  8
_0-0_0
  6
CONTINUOUS
 62
    7
 10
-83.148238500000048
 20
461.34080449999999
 11
-92.398238500000048
 21
461.34080449999999
  0
LINE
  8
_0-0_0
  6
CONTINUOUS
 62
    7
 10
-82.898238500000048
 20
461.43147249999998
 11
-92.648238500000048
 21
461.43147249999998
  0
LINE
  8
_0-0_0
  6
CONTINUOUS
 62
    7
 10
-92.648238500000048
 20
461.43147249999998
 11
-92.398238500000048
 21
461.34080449999999
  0
LINE
  8
_0-0_0
  6
CONTINUOUS
 62
    7
 10
-83.148238500000048
 20
461.07948249999998
 11
-92.398238500000048
 21
461.07948249999998
  0
LINE
  8
_0-0_0
  6
CONTINUOUS
 62
    7
 10
-82.898238500000048
 20
461.1972505
 11
-92.648238500000048
 21
461.1972505
  0
LINE
  8
_0-0_0
  6
CONTINUOUS
 62
    7
 10
-92.648238500000048
 20
461.1972505
 11
-92.398238500000048
 21
461.07948249999998
  0
LINE
  8
_0-0_0
  6
CONTINUOUS
 62
    7
 10
-83.148238500000048
 20
460.81816049999998
 11
-92.398238500000048
 21
460.81816049999998
  0
LINE
  8
_0-0_0
  6
CONTINUOUS
 62
    7
 10
-82.898238500000048
 20
460.96171549999997
 11
-92.648238500000048
 21
460.96171549999997
  0
LINE
  8
_0-0_0
  6
CONTINUOUS
 62
    7
 10
-92.648238500000048
 20
460.96171549999997
 11
-92.398238500000048
 21
460.81816049999998
  0
LINE
  8
_0-0_0
  6
CONTINUOUS
 62
    7
 10
-83.148238500000048
 20
460.5597075
 11
-92.398238500000048
 21
460.5597075
  0
LINE
  8
_0-0_0
  6
CONTINUOUS
 62
    7
 10
-82.898238500000048
 20
460.72749349999998
 11
-92.648238500000048
 21
460.72749349999998
  0
LINE
  8
_0-0_0
  6
CONTINUOUS
 62
    7
 10
-92.648238500000048
 20
460.72749349999998
 11
-92.398238500000048
 21
460.5597075
  0
LINE
  8
_0-0_0
  6
CONTINUOUS
 62
    7
 10
-83.148238500000048
 20
460.30693050000002
 11
-92.398238500000048
 21
460.30693050000002
  0
LINE
  8
_0-0_0
  6
CONTINUOUS
 62
    7
 10
-82.898238500000048
 20
460.49714649999999
 11
-92.648238500000048
 21
460.49714649999999
  0
LINE
  8
_0-0_0
  6
CONTINUOUS
 62
    7
 10
-92.648238500000048
 20
460.49714649999999
 11
-92.398238500000048
 21
460.30693050000002
  0
LINE
  8
_0-0_0
  6
CONTINUOUS
 62
    7
 10
-83.148238500000048
 20
460.06263749999999
 11
-92.398238500000048
 21
460.06263749999999
  0
LINE
  8
_0-0_0
  6
CONTINUOUS
 62
    7
 10
-82.898238500000048
 20
460.27314749999999
 11
-92.648238500000048
 21
460.27314749999999
  0
LINE
  8
_0-0_0
  6
CONTINUOUS
 62
    7
 10
-92.648238500000048
 20
460.27314749999999
 11
-92.398238500000048
 21
460.06263749999999
  0
LINE
  8
_0-0_0
  6
CONTINUOUS
 62
    7
 10
-83.148238500000048
 20
459.40666149999998
 11
-92.398238500000048
 21
459.40666149999998
  0
LINE
  8
_0-0_0
  6
CONTINUOUS
 62
    7
 10
-92.648238500000048
 20
459.66349750000001
 11
-92.398238500000048
 21
459.40666149999998
  0
LINE
  8
_0-0_0
  6
CONTINUOUS
 62
    7
 10
-83.148238500000048
 20
459.22160350000001
 11
-92.398238500000048
 21
459.22160350000001
  0
LINE
  8
_0-0_0
  6
CONTINUOUS
 62
    7
 10
-92.648238500000048
 20
459.48847949999998
 11
-92.398238500000048
 21
459.22160350000001
  0
LINE
  8
_0-0_0
  6
CONTINUOUS
 62
    7
 10
-83.148238500000048
 20
459.05693050000002
 11
-92.398238500000048
 21
459.05693050000002
  0
LINE
  8
_0-0_0
  6
CONTINUOUS
 62
    7
 10
-92.648238500000048
 20
459.3309175
 11
-92.398238500000048
 21
459.05693050000002
  0
LINE
  8
_0-0_0
  6
CONTINUOUS
 62
    7
 10
-83.148238500000048
 20
458.91441350000002
 11
-92.398238500000048
 21
458.91441350000002
  0
LINE
  8
_0-0_0
  6
CONTINUOUS
 62
    7
 10
-92.648238500000048
 20
459.19248950000002
 11
-92.398238500000048
 21
458.91441350000002
  0
LINE
  8
_0-0_0
  6
CONTINUOUS
 62
    7
 10
-83.148238500000048
 20
458.79560850000001
 11
-92.398238500000048
 21
458.79560850000001
  0
LINE
  8
_0-0_0
  6
CONTINUOUS
 62
    7
 10
-92.648238500000048
 20
459.07472250000001
 11
-92.398238500000048
 21
458.79560850000001
  0
LINE
  8
_0-0_0
  6
CONTINUOUS
 62
    7
 10
-83.148238500000048
 20
458.70182749999998
 11
-92.398238500000048
 21
458.70182749999998
  0
LINE
  8
_0-0_0
  6
CONTINUOUS
 62
    7
 10
-92.648238500000048
 20
458.9789275
 11
-92.398238500000048
 21
458.70182749999998
  0
LINE
  8
_0-0_0
  6
CONTINUOUS
 62
    7
 10
-83.148238500000048
 20
458.63410950000002
 11
-92.398238500000048
 21
458.63410950000002
  0
LINE
  8
_0-0_0
  6
CONTINUOUS
 62
    7
 10
-92.648238500000048
 20
458.90614349999998
 11
-92.398238500000048
 21
458.63410950000002
  0
LINE
  8
_0-0_0
  6
CONTINUOUS
 62
    7
 10
-83.148238500000048
 20
458.5931855
 11
-92.398238500000048
 21
458.5931855
  0
LINE
  8
_0-0_0
  6
CONTINUOUS
 62
    7
 10
-92.648238500000048
 20
458.8571925
 11
-92.398238500000048
 21
458.5931855
  0
LINE
  8
_0-0_0
  6
CONTINUOUS
 62
    7
 10
-83.148238500000048
 20
458.57948249999998
 11
-92.398238500000048
 21
458.57948249999998
  0
LINE
  8
_0-0_0
  6
CONTINUOUS
 62
    7
 10
-92.648238500000048
 20
458.83256549999999
 11
-92.398238500000048
 21
458.57948249999998
  0
LINE
  8
_0-0_0
  6
CONTINUOUS
 62
    7
 10
-83.148238500000048
 20
463.2445525
 11
-92.398238500000048
 21
463.2445525
  0
LINE
  8
_0-0_0
  6
CONTINUOUS
 62
    7
 10
-82.898238500000048
 20
463.08424350000001
 11
-83.02819850000003
 21
463.16810550000002
  0
LINE
  8
_0-0_0
  6
CONTINUOUS
 62
    7
 10
-92.648238500000048
 20
463.08424350000001
 11
-92.518264499999987
 21
463.16810550000002
  0
LINE
  8
_0-0_0
  6
CONTINUOUS
 62
    7
 10
-92.518264499999987
 20
463.16810550000002
 11
-92.398238500000048
 21
463.2445525
  0
LINE
  8
_0-0_0
  6
CONTINUOUS
 62
    7
 10
-83.148238500000048
 20
463.1020355
 11
-92.398238500000048
 21
463.1020355
  0
LINE
  8
_0-0_0
  6
CONTINUOUS
 62
    7
 10
-92.648238500000048
 20
462.9664765
 11
-92.398238500000048
 21
463.1020355
  0
LINE
  8
_0-0_0
  6
CONTINUOUS
 62
    7
 10
-82.898238500000048
 20
463.08424350000001
 11
-83.148238500000048
 21
463.36335750000001
  0
LINE
  8
_0-0_0
  6
CONTINUOUS
 62
    7
 10
-83.148238500000048
 20
463.36335750000001
 11
-92.398238500000048
 21
463.36335750000001
  0
LINE
  8
_0-0_0
  6
CONTINUOUS
 62
    7
 10
-92.648238500000048
 20
463.08424350000001
 11
-92.398238500000048
 21
463.36335750000001
  0
LINE
  8
_0-0_0
  6
CONTINUOUS
 62
    7
 10
-82.898238500000048
 20
463.18003850000002
 11
-83.148238500000048
 21
463.36335750000001
  0
LINE
  8
_0-0_0
  6
CONTINUOUS
 62
    7
 10
-92.648238500000048
 20
463.18003850000002
 11
-92.398238500000048
 21
463.36335750000001
  0
LINE
  8
_0-0_0
  6
CONTINUOUS
 62
    7
 10
-82.898238500000048
 20
463.18003850000002
 11
-83.148238500000048
 21
463.45713749999999
  0
LINE
  8
_0-0_0
  6
CONTINUOUS
 62
    7
 10
-83.148238500000048
 20
463.45713749999999
 11
-92.398238500000048
 21
463.45713749999999
  0
LINE
  8
_0-0_0
  6
CONTINUOUS
 62
    7
 10
-92.648238500000048
 20
463.18003850000002
 11
-92.398238500000048
 21
463.45713749999999
  0
LINE
  8
_0-0_0
  6
CONTINUOUS
 62
    7
 10
-82.898238500000048
 20
463.25282249999998
 11
-83.148238500000048
 21
463.45713749999999
  0
LINE
  8
_0-0_0
  6
CONTINUOUS
 62
    7
 10
-92.648238500000048
 20
463.25282249999998
 11
-92.398238500000048
 21
463.45713749999999
  0
LINE
  8
_0-0_0
  6
CONTINUOUS
 62
    7
 10
-82.898238500000048
 20
463.25282249999998
 11
-83.148238500000048
 21
463.5248565
  0
LINE
  8
_0-0_0
  6
CONTINUOUS
 62
    7
 10
-83.148238500000048
 20
463.5248565
 11
-92.398238500000048
 21
463.5248565
  0
LINE
  8
_0-0_0
  6
CONTINUOUS
 62
    7
 10
-92.648238500000048
 20
463.25282249999998
 11
-92.398238500000048
 21
463.5248565
  0
LINE
  8
_0-0_0
  6
CONTINUOUS
 62
    7
 10
-82.898238500000048
 20
463.30177249999997
 11
-83.148238500000048
 21
463.5248565
  0
LINE
  8
_0-0_0
  6
CONTINUOUS
 62
    7
 10
-92.648238500000048
 20
463.30177249999997
 11
-92.398238500000048
 21
463.5248565
  0
LINE
  8
_0-0_0
  6
CONTINUOUS
 62
    7
 10
-82.898238500000048
 20
463.30177249999997
 11
-83.148238500000048
 21
463.56578050000002
  0
LINE
  8
_0-0_0
  6
CONTINUOUS
 62
    7
 10
-83.148238500000048
 20
463.56578050000002
 11
-92.398238500000048
 21
463.56578050000002
  0
LINE
  8
_0-0_0
  6
CONTINUOUS
 62
    7
 10
-92.648238500000048
 20
463.30177249999997
 11
-92.398238500000048
 21
463.56578050000002
  0
LINE
  8
_0-0_0
  6
CONTINUOUS
 62
    7
 10
-82.898238500000048
 20
463.32640049999998
 11
-83.148238500000048
 21
463.56578050000002
  0
LINE
  8
_0-0_0
  6
CONTINUOUS
 62
    7
 10
-92.648238500000048
 20
463.32640049999998
 11
-92.398238500000048
 21
463.56578050000002
  0
LINE
  8
_0-0_0
  6
CONTINUOUS
 62
    7
 10
-82.898238500000048
 20
463.32640049999998
 11
-83.148238500000048
 21
463.57948249999998
  0
LINE
  8
_0-0_0
  6
CONTINUOUS
 62
    7
 10
-83.148238500000048
 20
463.57948249999998
 11
-92.398238500000048
 21
463.57948249999998
  0
LINE
  8
_0-0_0
  6
CONTINUOUS
 62
    7
 10
-92.648238500000048
 20
463.32640049999998
 11
-92.398238500000048
 21
463.57948249999998
  0
LINE
  8
_0-0_0
  6
CONTINUOUS
 62
    7
 10
-82.898238500000048
 20
476.45405549999998
 11
-83.148238500000048
 21
476.42948849999999
  0
LINE
  8
_0-0_0
  6
CONTINUOUS
 62
    7
 10
-83.148238500000048
 20
476.42948849999999
 11
-92.398238500000048
 21
476.42948849999999
  0
LINE
  8
_0-0_0
  6
CONTINUOUS
 62
    7
 10
-92.648238500000048
 20
476.45405549999998
 11
-92.398238500000048
 21
476.42948849999999
  0
LINE
  8
_0-0_0
  6
CONTINUOUS
 62
    7
 10
-82.898238500000048
 20
479.42805449999997
 11
-83.148238500000048
 21
479.70201049999997
  0
LINE
  8
_0-0_0
  6
CONTINUOUS
 62
    7
 10
-82.898238500000048
 20
479.42805449999997
 11
-83.148238500000048
 21
479.53733849999998
  0
LINE
  8
_0-0_0
  6
CONTINUOUS
 62
    7
 10
-82.898238500000048
 20
479.27046150000001
 11
-83.148238500000048
 21
479.53733849999998
  0
LINE
  8
_0-0_0
  6
CONTINUOUS
 62
    7
 10
-82.898238500000048
 20
479.27046150000001
 11
-83.148238500000048
 21
479.35231049999999
  0
LINE
  8
_0-0_0
  6
CONTINUOUS
 62
    7
 10
-82.898238500000048
 20
479.09544349999999
 11
-83.148238500000048
 21
479.35231049999999
  0
LINE
  8
_0-0_0
  6
CONTINUOUS
 62
    7
 10
-82.898238500000048
 20
479.09544349999999
 11
-83.148238500000048
 21
479.14894049999998
  0
LINE
  8
_0-0_0
  6
CONTINUOUS
 62
    7
 10
-82.898238500000048
 20
478.9049225
 11
-83.148238500000048
 21
479.14894049999998
  0
LINE
  8
_0-0_0
  6
CONTINUOUS
 62
    7
 10
-82.898238500000048
 20
478.9049225
 11
-83.148238500000048
 21
478.92948849999999
  0
LINE
  8
_0-0_0
  6
CONTINUOUS
 62
    7
 10
-82.898238500000048
 20
478.70097349999998
 11
-83.148238500000048
 21
478.92948849999999
  0
LINE
  8
_0-0_0
  6
CONTINUOUS
 62
    7
 10
-82.898238500000048
 20
478.70097349999998
 11
-83.148238500000048
 21
478.69633449999998
  0
LINE
  8
_0-0_0
  6
CONTINUOUS
 62
    7
 10
-82.898238500000048
 20
478.48582449999998
 11
-83.148238500000048
 21
478.69633449999998
  0
LINE
  8
_0-0_0
  6
CONTINUOUS
 62
    7
 10
-82.898238500000048
 20
478.48582449999998
 11
-83.148238500000048
 21
478.45201049999997
  0
LINE
  8
_0-0_0
  6
CONTINUOUS
 62
    7
 10
-82.898238500000048
 20
478.26182549999999
 11
-83.148238500000048
 21
478.45201049999997
  0
LINE
  8
_0-0_0
  6
CONTINUOUS
 62
    7
 10
-82.898238500000048
 20
478.26182549999999
 11
-83.148238500000048
 21
478.19926449999997
  0
LINE
  8
_0-0_0
  6
CONTINUOUS
 62
    7
 10
-82.898238500000048
 20
478.03144850000001
 11
-83.148238500000048
 21
478.19926449999997
  0
LINE
  8
_0-0_0
  6
CONTINUOUS
 62
    7
 10
-82.898238500000048
 20
478.03144850000001
 11
-83.148238500000048
 21
477.9408115
  0
LINE
  8
_0-0_0
  6
CONTINUOUS
 62
    7
 10
-82.898238500000048
 20
477.79722550000002
 11
-83.148238500000048
 21
477.9408115
  0
LINE
  8
_0-0_0
  6
CONTINUOUS
 62
    7
 10
-82.898238500000048
 20
477.79722550000002
 11
-83.148238500000048
 21
477.67948849999999
  0
LINE
  8
_0-0_0
  6
CONTINUOUS
 62
    7
 10
-82.898238500000048
 20
477.56172149999998
 11
-83.148238500000048
 21
477.67948849999999
  0
LINE
  8
_0-0_0
  6
CONTINUOUS
 62
    7
 10
-82.898238500000048
 20
477.56172149999998
 11
-83.148238500000048
 21
477.41816649999998
  0
LINE
  8
_0-0_0
  6
CONTINUOUS
 62
    7
 10
-82.898238500000048
 20
477.32749949999999
 11
-83.148238500000048
 21
477.41816649999998
  0
LINE
  8
_0-0_0
  6
CONTINUOUS
 62
    7
 10
-82.898238500000048
 20
477.32749949999999
 11
-83.148238500000048
 21
477.15971350000001
  0
LINE
  8
_0-0_0
  6
CONTINUOUS
 62
    7
 10
-82.898238500000048
 20
477.09715249999999
 11
-83.148238500000048
 21
477.15971350000001
  0
LINE
  8
_0-0_0
  6
CONTINUOUS
 62
    7
 10
-82.898238500000048
 20
477.09715249999999
 11
-83.148238500000048
 21
476.90693649999997
  0
LINE
  8
_0-0_0
  6
CONTINUOUS
 62
    7
 10
-82.898238500000048
 20
476.8731535
 11
-83.148238500000048
 21
476.90693649999997
  0
LINE
  8
_0-0_0
  6
CONTINUOUS
 62
    7
 10
-82.898238500000048
 20
476.8731535
 11
-83.148238500000048
 21
476.6626435
  0
LINE
  8
_0-0_0
  6
CONTINUOUS
 62
    7
 10
-82.898238500000048
 20
476.6580045
 11
-83.148238500000048
 21
476.6626435
  0
LINE
  8
_0-0_0
  6
CONTINUOUS
 62
    7
 10
-82.898238500000048
 20
476.6580045
 11
-83.148238500000048
 21
476.42948849999999
  0
LINE
  8
_0-0_0
  6
CONTINUOUS
 62
    7
 10
-82.898238500000048
 20
476.45405549999998
 11
-83.148238500000048
 21
476.21000650000002
  0
LINE
  8
_0-0_0
  6
CONTINUOUS
 62
    7
 10
-82.898238500000048
 20
476.26350350000001
 11
-83.148238500000048
 21
476.21000650000002
  0
LINE
  8
_0-0_0
  6
CONTINUOUS
 62
    7
 10
-82.898238500000048
 20
476.26350350000001
 11
-83.148238500000048
 21
476.00666749999999
  0
LINE
  8
_0-0_0
  6
CONTINUOUS
 62
    7
 10
-82.898238500000048
 20
476.08848549999999
 11
-83.148238500000048
 21
476.00666749999999
  0
LINE
  8
_0-0_0
  6
CONTINUOUS
 62
    7
 10
-82.898238500000048
 20
476.08848549999999
 11
-83.148238500000048
 21
475.82160950000002
  0
LINE
  8
_0-0_0
  6
CONTINUOUS
 62
    7
 10
-82.898238500000048
 20
475.93089249999997
 11
-83.148238500000048
 21
475.82160950000002
  0
LINE
  8
_0-0_0
  6
CONTINUOUS
 62
    7
 10
-82.898238500000048
 20
475.93089249999997
 11
-83.148238500000048
 21
475.65693649999997
  0
LINE
  8
_0-0_0
  6
CONTINUOUS
 62
    7
 10
-82.898238500000048
 20
475.79246549999999
 11
-83.148238500000048
 21
475.65693649999997
  0
LINE
  8
_0-0_0
  6
CONTINUOUS
 62
    7
 10
-82.898238500000048
 20
475.79246549999999
 11
-83.148238500000048
 21
475.51441949999997
  0
LINE
  8
_0-0_0
  6
CONTINUOUS
 62
    7
 10
-82.898238500000048
 20
475.67472850000001
 11
-83.148238500000048
 21
475.51441949999997
  0
LINE
  8
_0-0_0
  6
CONTINUOUS
 62
    7
 10
-82.898238500000048
 20
475.67472850000001
 11
-83.148238500000048
 21
475.39561450000002
  0
LINE
  8
_0-0_0
  6
CONTINUOUS
 62
    7
 10
-82.898238500000048
 20
475.57893350000001
 11
-83.148238500000048
 21
475.39561450000002
  0
LINE
  8
_0-0_0
  6
CONTINUOUS
 62
    7
 10
-82.898238500000048
 20
475.57893350000001
 11
-83.148238500000048
 21
475.30183349999999
  0
LINE
  8
_0-0_0
  6
CONTINUOUS
 62
    7
 10
-82.898238500000048
 20
475.50614949999999
 11
-83.148238500000048
 21
475.30183349999999
  0
LINE
  8
_0-0_0
  6
CONTINUOUS
 62
    7
 10
-82.898238500000048
 20
475.50614949999999
 11
-83.148238500000048
 21
475.23411549999997
  0
LINE
  8
_0-0_0
  6
CONTINUOUS
 62
    7
 10
-82.898238500000048
 20
475.45716850000002
 11
-83.148238500000048
 21
475.23411549999997
  0
LINE
  8
_0-0_0
  6
CONTINUOUS
 62
    7
 10
-82.898238500000048
 20
475.45716850000002
 11
-83.148238500000048
 21
475.19316049999998
  0
LINE
  8
_0-0_0
  6
CONTINUOUS
 62
    7
 10
-82.898238500000048
 20
475.43257149999999
 11
-83.148238500000048
 21
475.19316049999998
  0
LINE
  8
_0-0_0
  6
CONTINUOUS
 62
    7
 10
-82.898238500000048
 20
475.43257149999999
 11
-83.148238500000048
 21
475.17948849999999
  0
LINE
  8
_0-0_0
  6
CONTINUOUS
 62
    7
 10
-82.648238500000048
 20
475.67948849999999
 11
-82.648238500000048
 21
479.43464649999999
  0
LINE
  8
_0-0_0
  6
CONTINUOUS
 62
    7
 10
-83.02819850000003
 20
479.76811249999997
 11
-83.148238500000048
 21
479.84455850000001
  0
LINE
  8
_0-0_0
  6
CONTINUOUS
 62
    7
 10
-82.898238500000048
 20
479.56648250000001
 11
-83.148238500000048
 21
479.84455850000001
  0
LINE
  8
_0-0_0
  6
CONTINUOUS
 62
    7
 10
-82.898238500000048
 20
479.56648250000001
 11
-83.148238500000048
 21
479.70201049999997
  0
LINE
  8
_0-0_0
  6
CONTINUOUS
 62
    7
 10
-83.148238500000048
 20
479.53733849999998
 11
-92.398238500000048
 21
479.53733849999998
  0
LINE
  8
_0-0_0
  6
CONTINUOUS
 62
    7
 10
-92.648238500000048
 20
479.42805449999997
 11
-92.398238500000048
 21
479.53733849999998
  0
LINE
  8
_0-0_0
  6
CONTINUOUS
 62
    7
 10
-83.148238500000048
 20
479.35231049999999
 11
-92.398238500000048
 21
479.35231049999999
  0
LINE
  8
_0-0_0
  6
CONTINUOUS
 62
    7
 10
-92.648238500000048
 20
479.27046150000001
 11
-92.398238500000048
 21
479.35231049999999
  0
LINE
  8
_0-0_0
  6
CONTINUOUS
 62
    7
 10
-83.148238500000048
 20
479.14894049999998
 11
-92.398238500000048
 21
479.14894049999998
  0
LINE
  8
_0-0_0
  6
CONTINUOUS
 62
    7
 10
-92.648238500000048
 20
479.09544349999999
 11
-92.398238500000048
 21
479.14894049999998
  0
LINE
  8
_0-0_0
  6
CONTINUOUS
 62
    7
 10
-83.148238500000048
 20
478.92948849999999
 11
-92.398238500000048
 21
478.92948849999999
  0
LINE
  8
_0-0_0
  6
CONTINUOUS
 62
    7
 10
-92.648238500000048
 20
478.9049225
 11
-92.398238500000048
 21
478.92948849999999
  0
LINE
  8
_0-0_0
  6
CONTINUOUS
 62
    7
 10
-83.148238500000048
 20
478.69633449999998
 11
-92.398238500000048
 21
478.69633449999998
  0
LINE
  8
_0-0_0
  6
CONTINUOUS
 62
    7
 10
-82.898238500000048
 20
478.70097349999998
 11
-92.648238500000048
 21
478.70097349999998
  0
LINE
  8
_0-0_0
  6
CONTINUOUS
 62
    7
 10
-92.648238500000048
 20
478.70097349999998
 11
-92.398238500000048
 21
478.69633449999998
  0
LINE
  8
_0-0_0
  6
CONTINUOUS
 62
    7
 10
-83.148238500000048
 20
478.45201049999997
 11
-92.398238500000048
 21
478.45201049999997
  0
LINE
  8
_0-0_0
  6
CONTINUOUS
 62
    7
 10
-82.898238500000048
 20
478.48582449999998
 11
-92.648238500000048
 21
478.48582449999998
  0
LINE
  8
_0-0_0
  6
CONTINUOUS
 62
    7
 10
-92.648238500000048
 20
478.48582449999998
 11
-92.398238500000048
 21
478.45201049999997
  0
LINE
  8
_0-0_0
  6
CONTINUOUS
 62
    7
 10
-83.148238500000048
 20
478.19926449999997
 11
-92.398238500000048
 21
478.19926449999997
  0
LINE
  8
_0-0_0
  6
CONTINUOUS
 62
    7
 10
-82.898238500000048
 20
478.26182549999999
 11
-92.648238500000048
 21
478.26182549999999
  0
LINE
  8
_0-0_0
  6
CONTINUOUS
 62
    7
 10
-92.648238500000048
 20
478.26182549999999
 11
-92.398238500000048
 21
478.19926449999997
  0
LINE
  8
_0-0_0
  6
CONTINUOUS
 62
    7
 10
-83.148238500000048
 20
477.9408115
 11
-92.398238500000048
 21
477.9408115
  0
LINE
  8
_0-0_0
  6
CONTINUOUS
 62
    7
 10
-82.898238500000048
 20
478.03144850000001
 11
-92.648238500000048
 21
478.03144850000001
  0
LINE
  8
_0-0_0
  6
CONTINUOUS
 62
    7
 10
-92.648238500000048
 20
478.03144850000001
 11
-92.398238500000048
 21
477.9408115
  0
LINE
  8
_0-0_0
  6
CONTINUOUS
 62
    7
 10
-83.148238500000048
 20
477.67948849999999
 11
-92.398238500000048
 21
477.67948849999999
  0
LINE
  8
_0-0_0
  6
CONTINUOUS
 62
    7
 10
-82.898238500000048
 20
477.79722550000002
 11
-92.648238500000048
 21
477.79722550000002
  0
LINE
  8
_0-0_0
  6
CONTINUOUS
 62
    7
 10
-92.648238500000048
 20
477.79722550000002
 11
-92.398238500000048
 21
477.67948849999999
  0
LINE
  8
_0-0_0
  6
CONTINUOUS
 62
    7
 10
-83.148238500000048
 20
477.41816649999998
 11
-92.398238500000048
 21
477.41816649999998
  0
LINE
  8
_0-0_0
  6
CONTINUOUS
 62
    7
 10
-82.898238500000048
 20
477.56172149999998
 11
-92.648238500000048
 21
477.56172149999998
  0
LINE
  8
_0-0_0
  6
CONTINUOUS
 62
    7
 10
-92.648238500000048
 20
477.56172149999998
 11
-92.398238500000048
 21
477.41816649999998
  0
LINE
  8
_0-0_0
  6
CONTINUOUS
 62
    7
 10
-83.148238500000048
 20
477.15971350000001
 11
-92.398238500000048
 21
477.15971350000001
  0
LINE
  8
_0-0_0
  6
CONTINUOUS
 62
    7
 10
-82.898238500000048
 20
477.32749949999999
 11
-92.648238500000048
 21
477.32749949999999
  0
LINE
  8
_0-0_0
  6
CONTINUOUS
 62
    7
 10
-92.648238500000048
 20
477.32749949999999
 11
-92.398238500000048
 21
477.15971350000001
  0
LINE
  8
_0-0_0
  6
CONTINUOUS
 62
    7
 10
-83.148238500000048
 20
476.90693649999997
 11
-92.398238500000048
 21
476.90693649999997
  0
LINE
  8
_0-0_0
  6
CONTINUOUS
 62
    7
 10
-82.898238500000048
 20
477.09715249999999
 11
-92.648238500000048
 21
477.09715249999999
  0
LINE
  8
_0-0_0
  6
CONTINUOUS
 62
    7
 10
-92.648238500000048
 20
477.09715249999999
 11
-92.398238500000048
 21
476.90693649999997
  0
LINE
  8
_0-0_0
  6
CONTINUOUS
 62
    7
 10
-83.148238500000048
 20
476.6626435
 11
-92.398238500000048
 21
476.6626435
  0
LINE
  8
_0-0_0
  6
CONTINUOUS
 62
    7
 10
-82.898238500000048
 20
476.8731535
 11
-92.648238500000048
 21
476.8731535
  0
LINE
  8
_0-0_0
  6
CONTINUOUS
 62
    7
 10
-92.648238500000048
 20
476.8731535
 11
-92.398238500000048
 21
476.6626435
  0
LINE
  8
_0-0_0
  6
CONTINUOUS
 62
    7
 10
-83.148238500000048
 20
476.00666749999999
 11
-92.398238500000048
 21
476.00666749999999
  0
LINE
  8
_0-0_0
  6
CONTINUOUS
 62
    7
 10
-92.648238500000048
 20
476.26350350000001
 11
-92.398238500000048
 21
476.00666749999999
  0
LINE
  8
_0-0_0
  6
CONTINUOUS
 62
    7
 10
-83.148238500000048
 20
475.82160950000002
 11
-92.398238500000048
 21
475.82160950000002
  0
LINE
  8
_0-0_0
  6
CONTINUOUS
 62
    7
 10
-92.648238500000048
 20
476.08848549999999
 11
-92.398238500000048
 21
475.82160950000002
  0
LINE
  8
_0-0_0
  6
CONTINUOUS
 62
    7
 10
-83.148238500000048
 20
475.65693649999997
 11
-92.398238500000048
 21
475.65693649999997
  0
LINE
  8
_0-0_0
  6
CONTINUOUS
 62
    7
 10
-92.648238500000048
 20
475.93089249999997
 11
-92.398238500000048
 21
475.65693649999997
  0
LINE
  8
_0-0_0
  6
CONTINUOUS
 62
    7
 10
-83.148238500000048
 20
475.51441949999997
 11
-92.398238500000048
 21
475.51441949999997
  0
LINE
  8
_0-0_0
  6
CONTINUOUS
 62
    7
 10
-92.648238500000048
 20
475.79246549999999
 11
-92.398238500000048
 21
475.51441949999997
  0
LINE
  8
_0-0_0
  6
CONTINUOUS
 62
    7
 10
-83.148238500000048
 20
475.39561450000002
 11
-92.398238500000048
 21
475.39561450000002
  0
LINE
  8
_0-0_0
  6
CONTINUOUS
 62
    7
 10
-92.648238500000048
 20
475.67472850000001
 11
-92.398238500000048
 21
475.39561450000002
  0
LINE
  8
_0-0_0
  6
CONTINUOUS
 62
    7
 10
-83.148238500000048
 20
475.30183349999999
 11
-92.398238500000048
 21
475.30183349999999
  0
LINE
  8
_0-0_0
  6
CONTINUOUS
 62
    7
 10
-92.648238500000048
 20
475.57893350000001
 11
-92.398238500000048
 21
475.30183349999999
  0
LINE
  8
_0-0_0
  6
CONTINUOUS
 62
    7
 10
-83.148238500000048
 20
475.23411549999997
 11
-92.398238500000048
 21
475.23411549999997
  0
LINE
  8
_0-0_0
  6
CONTINUOUS
 62
    7
 10
-92.648238500000048
 20
475.50614949999999
 11
-92.398238500000048
 21
475.23411549999997
  0
LINE
  8
_0-0_0
  6
CONTINUOUS
 62
    7
 10
-83.148238500000048
 20
475.19316049999998
 11
-92.398238500000048
 21
475.19316049999998
  0
LINE
  8
_0-0_0
  6
CONTINUOUS
 62
    7
 10
-92.648238500000048
 20
475.45716850000002
 11
-92.398238500000048
 21
475.19316049999998
  0
LINE
  8
_0-0_0
  6
CONTINUOUS
 62
    7
 10
-83.148238500000048
 20
475.17948849999999
 11
-92.398238500000048
 21
475.17948849999999
  0
LINE
  8
_0-0_0
  6
CONTINUOUS
 62
    7
 10
-92.648238500000048
 20
475.43257149999999
 11
-92.398238500000048
 21
475.17948849999999
  0
LINE
  8
_0-0_0
  6
CONTINUOUS
 62
    7
 10
-83.148238500000048
 20
479.84455850000001
 11
-92.398238500000048
 21
479.84455850000001
  0
LINE
  8
_0-0_0
  6
CONTINUOUS
 62
    7
 10
-82.898238500000048
 20
479.68424950000002
 11
-83.02819850000003
 21
479.76811249999997
  0
LINE
  8
_0-0_0
  6
CONTINUOUS
 62
    7
 10
-92.648238500000048
 20
479.68424950000002
 11
-92.518264499999987
 21
479.76811249999997
  0
LINE
  8
_0-0_0
  6
CONTINUOUS
 62
    7
 10
-92.518264499999987
 20
479.76811249999997
 11
-92.398238500000048
 21
479.84455850000001
  0
LINE
  8
_0-0_0
  6
CONTINUOUS
 62
    7
 10
-83.148238500000048
 20
479.70201049999997
 11
-92.398238500000048
 21
479.70201049999997
  0
LINE
  8
_0-0_0
  6
CONTINUOUS
 62
    7
 10
-92.648238500000048
 20
479.56648250000001
 11
-92.398238500000048
 21
479.70201049999997
  0
LINE
  8
_0-0_0
  6
CONTINUOUS
 62
    7
 10
-82.898238500000048
 20
479.68424950000002
 11
-83.148238500000048
 21
479.96333249999998
  0
LINE
  8
_0-0_0
  6
CONTINUOUS
 62
    7
 10
-83.148238500000048
 20
479.96333249999998
 11
-92.398238500000048
 21
479.96333249999998
  0
LINE
  8
_0-0_0
  6
CONTINUOUS
 62
    7
 10
-92.648238500000048
 20
479.68424950000002
 11
-92.398238500000048
 21
479.96333249999998
  0
LINE
  8
_0-0_0
  6
CONTINUOUS
 62
    7
 10
-82.898238500000048
 20
479.78004449999997
 11
-83.148238500000048
 21
479.96333249999998
  0
LINE
  8
_0-0_0
  6
CONTINUOUS
 62
    7
 10
-92.648238500000048
 20
479.78004449999997
 11
-92.398238500000048
 21
479.96333249999998
  0
LINE
  8
_0-0_0
  6
CONTINUOUS
 62
    7
 10
-82.898238500000048
 20
479.78004449999997
 11
-83.148238500000048
 21
480.05711350000001
  0
LINE
  8
_0-0_0
  6
CONTINUOUS
 62
    7
 10
-83.148238500000048
 20
480.05711350000001
 11
-92.398238500000048
 21
480.05711350000001
  0
LINE
  8
_0-0_0
  6
CONTINUOUS
 62
    7
 10
-92.648238500000048
 20
479.78004449999997
 11
-92.398238500000048
 21
480.05711350000001
  0
LINE
  8
_0-0_0
  6
CONTINUOUS
 62
    7
 10
-82.898238500000048
 20
479.85282849999999
 11
-83.148238500000048
 21
480.05711350000001
  0
LINE
  8
_0-0_0
  6
CONTINUOUS
 62
    7
 10
-92.648238500000048
 20
479.85282849999999
 11
-92.398238500000048
 21
480.05711350000001
  0
LINE
  8
_0-0_0
  6
CONTINUOUS
 62
    7
 10
-82.898238500000048
 20
479.85282849999999
 11
-83.148238500000048
 21
480.12486250000001
  0
LINE
  8
_0-0_0
  6
CONTINUOUS
 62
    7
 10
-83.148238500000048
 20
480.12486250000001
 11
-92.398238500000048
 21
480.12486250000001
  0
LINE
  8
_0-0_0
  6
CONTINUOUS
 62
    7
 10
-92.648238500000048
 20
479.85282849999999
 11
-92.398238500000048
 21
480.12486250000001
  0
LINE
  8
_0-0_0
  6
CONTINUOUS
 62
    7
 10
-82.898238500000048
 20
479.90177949999998
 11
-83.148238500000048
 21
480.12486250000001
  0
LINE
  8
_0-0_0
  6
CONTINUOUS
 62
    7
 10
-92.648238500000048
 20
479.90177949999998
 11
-92.398238500000048
 21
480.12486250000001
  0
LINE
  8
_0-0_0
  6
CONTINUOUS
 62
    7
 10
-82.898238500000048
 20
479.90177949999998
 11
-83.148238500000048
 21
480.16578650000002
  0
LINE
  8
_0-0_0
  6
CONTINUOUS
 62
    7
 10
-83.148238500000048
 20
480.16578650000002
 11
-92.398238500000048
 21
480.16578650000002
  0
LINE
  8
_0-0_0
  6
CONTINUOUS
 62
    7
 10
-92.648238500000048
 20
479.90177949999998
 11
-92.398238500000048
 21
480.16578650000002
  0
LINE
  8
_0-0_0
  6
CONTINUOUS
 62
    7
 10
-82.898238500000048
 20
479.92640649999998
 11
-83.148238500000048
 21
480.16578650000002
  0
LINE
  8
_0-0_0
  6
CONTINUOUS
 62
    7
 10
-92.648238500000048
 20
479.92640649999998
 11
-92.398238500000048
 21
480.16578650000002
  0
LINE
  8
_0-0_0
  6
CONTINUOUS
 62
    7
 10
-82.898238500000048
 20
479.92640649999998
 11
-83.148238500000048
 21
480.17948849999999
  0
LINE
  8
_0-0_0
  6
CONTINUOUS
 62
    7
 10
-83.148238500000048
 20
480.17948849999999
 11
-92.398238500000048
 21
480.17948849999999
  0
LINE
  8
_0-0_0
  6
CONTINUOUS
 62
    7
 10
-92.648238500000048
 20
479.92640649999998
 11
-92.398238500000048
 21
480.17948849999999
  0
LINE
  8
_0-0_0
  6
CONTINUOUS
 62
    7
 10
-37.448226500000033
 20
465.37947050000002
 11
-37.448226500000033
 21
465.38084349999997
  0
LINE
  8
_0-0_0
  6
CONTINUOUS
 62
    7
 10
-37.448226500000033
 20
465.38084349999997
 11
-37.448226500000033
 21
473.37947050000002
  0
LINE
  8
_0-0_0
  6
CONTINUOUS
 62
    7
 10
-92.648238500000048
 20
479.56648250000001
 11
-92.398238500000048
 21
479.84455850000001
  0
LINE
  8
_0-0_0
  6
CONTINUOUS
 62
    7
 10
-82.648238500000048
 20
479.43464649999999
 11
-82.648238500000048
 21
479.67948849999999
  0
LINE
  8
_0-0_0
  6
CONTINUOUS
 62
    7
 10
-92.648238500000048
 20
475.43257149999999
 11
-92.398238500000048
 21
475.19316049999998
  0
LINE
  8
_0-0_0
  6
CONTINUOUS
 62
    7
 10
-92.648238500000048
 20
475.45716850000002
 11
-92.398238500000048
 21
475.23411549999997
  0
LINE
  8
_0-0_0
  6
CONTINUOUS
 62
    7
 10
-92.648238500000048
 20
475.50614949999999
 11
-92.398238500000048
 21
475.30183349999999
  0
LINE
  8
_0-0_0
  6
CONTINUOUS
 62
    7
 10
-92.648238500000048
 20
475.57893350000001
 11
-92.398238500000048
 21
475.39561450000002
  0
LINE
  8
_0-0_0
  6
CONTINUOUS
 62
    7
 10
-92.648238500000048
 20
475.67472850000001
 11
-92.398238500000048
 21
475.51441949999997
  0
LINE
  8
_0-0_0
  6
CONTINUOUS
 62
    7
 10
-92.648238500000048
 20
475.79246549999999
 11
-92.398238500000048
 21
475.65693649999997
  0
LINE
  8
_0-0_0
  6
CONTINUOUS
 62
    7
 10
-92.648238500000048
 20
475.93089249999997
 11
-92.398238500000048
 21
475.82160950000002
  0
LINE
  8
_0-0_0
  6
CONTINUOUS
 62
    7
 10
-92.648238500000048
 20
476.08848549999999
 11
-92.398238500000048
 21
476.00666749999999
  0
LINE
  8
_0-0_0
  6
CONTINUOUS
 62
    7
 10
-83.148238500000048
 20
476.21000650000002
 11
-92.398238500000048
 21
476.21000650000002
  0
LINE
  8
_0-0_0
  6
CONTINUOUS
 62
    7
 10
-92.648238500000048
 20
476.26350350000001
 11
-92.398238500000048
 21
476.21000650000002
  0
LINE
  8
_0-0_0
  6
CONTINUOUS
 62
    7
 10
-92.648238500000048
 20
476.6580045
 11
-92.398238500000048
 21
476.6626435
  0
LINE
  8
_0-0_0
  6
CONTINUOUS
 62
    7
 10
-82.898238500000048
 20
476.6580045
 11
-92.648238500000048
 21
476.6580045
  0
LINE
  8
_0-0_0
  6
CONTINUOUS
 62
    7
 10
-92.648238500000048
 20
476.8731535
 11
-92.398238500000048
 21
476.90693649999997
  0
LINE
  8
_0-0_0
  6
CONTINUOUS
 62
    7
 10
-92.648238500000048
 20
477.09715249999999
 11
-92.398238500000048
 21
477.15971350000001
  0
LINE
  8
_0-0_0
  6
CONTINUOUS
 62
    7
 10
-92.648238500000048
 20
477.32749949999999
 11
-92.398238500000048
 21
477.41816649999998
  0
LINE
  8
_0-0_0
  6
CONTINUOUS
 62
    7
 10
-92.648238500000048
 20
477.56172149999998
 11
-92.398238500000048
 21
477.67948849999999
  0
LINE
  8
_0-0_0
  6
CONTINUOUS
 62
    7
 10
-92.648238500000048
 20
477.79722550000002
 11
-92.398238500000048
 21
477.9408115
  0
LINE
  8
_0-0_0
  6
CONTINUOUS
 62
    7
 10
-92.648238500000048
 20
478.03144850000001
 11
-92.398238500000048
 21
478.19926449999997
  0
LINE
  8
_0-0_0
  6
CONTINUOUS
 62
    7
 10
-92.648238500000048
 20
478.26182549999999
 11
-92.398238500000048
 21
478.45201049999997
  0
LINE
  8
_0-0_0
  6
CONTINUOUS
 62
    7
 10
-92.648238500000048
 20
478.48582449999998
 11
-92.398238500000048
 21
478.69633449999998
  0
LINE
  8
_0-0_0
  6
CONTINUOUS
 62
    7
 10
-92.648238500000048
 20
478.70097349999998
 11
-92.398238500000048
 21
478.92948849999999
  0
LINE
  8
_0-0_0
  6
CONTINUOUS
 62
    7
 10
-92.648238500000048
 20
478.9049225
 11
-92.398238500000048
 21
479.14894049999998
  0
LINE
  8
_0-0_0
  6
CONTINUOUS
 62
    7
 10
-92.648238500000048
 20
479.09544349999999
 11
-92.398238500000048
 21
479.35231049999999
  0
LINE
  8
_0-0_0
  6
CONTINUOUS
 62
    7
 10
-92.648238500000048
 20
479.27046150000001
 11
-92.398238500000048
 21
479.53733849999998
  0
LINE
  8
_0-0_0
  6
CONTINUOUS
 62
    7
 10
-92.648238500000048
 20
479.42805449999997
 11
-92.398238500000048
 21
479.70201049999997
  0
LINE
  8
_0-0_0
  6
CONTINUOUS
 62
    7
 10
-92.648238500000048
 20
476.45405549999998
 11
-92.398238500000048
 21
476.21000650000002
  0
LINE
  8
_0-0_0
  6
CONTINUOUS
 62
    7
 10
-92.648238500000048
 20
476.6580045
 11
-92.398238500000048
 21
476.42948849999999
  0
LINE
  8
_0-0_0
  6
CONTINUOUS
 62
    7
 10
-92.648238500000048
 20
462.9664765
 11
-92.398238500000048
 21
463.2445525
  0
LINE
  8
_0-0_0
  6
CONTINUOUS
 62
    7
 10
-82.648238500000048
 20
462.83464049999998
 11
-82.648238500000048
 21
463.07948249999998
  0
LINE
  8
_0-0_0
  6
CONTINUOUS
 62
    7
 10
-92.648238500000048
 20
458.83256549999999
 11
-92.398238500000048
 21
458.5931855
  0
LINE
  8
_0-0_0
  6
CONTINUOUS
 62
    7
 10
-92.648238500000048
 20
458.8571925
 11
-92.398238500000048
 21
458.63410950000002
  0
LINE
  8
_0-0_0
  6
CONTINUOUS
 62
    7
 10
-92.648238500000048
 20
458.90614349999998
 11
-92.398238500000048
 21
458.70182749999998
  0
LINE
  8
_0-0_0
  6
CONTINUOUS
 62
    7
 10
-92.648238500000048
 20
458.9789275
 11
-92.398238500000048
 21
458.79560850000001
  0
LINE
  8
_0-0_0
  6
CONTINUOUS
 62
    7
 10
-92.648238500000048
 20
459.07472250000001
 11
-92.398238500000048
 21
458.91441350000002
  0
LINE
  8
_0-0_0
  6
CONTINUOUS
 62
    7
 10
-92.648238500000048
 20
459.19248950000002
 11
-92.398238500000048
 21
459.05693050000002
  0
LINE
  8
_0-0_0
  6
CONTINUOUS
 62
    7
 10
-92.648238500000048
 20
459.3309175
 11
-92.398238500000048
 21
459.22160350000001
  0
LINE
  8
_0-0_0
  6
CONTINUOUS
 62
    7
 10
-92.648238500000048
 20
459.48847949999998
 11
-92.398238500000048
 21
459.40666149999998
  0
LINE
  8
_0-0_0
  6
CONTINUOUS
 62
    7
 10
-83.148238500000048
 20
459.61003049999999
 11
-92.398238500000048
 21
459.61003049999999
  0
LINE
  8
_0-0_0
  6
CONTINUOUS
 62
    7
 10
-92.648238500000048
 20
459.66349750000001
 11
-92.398238500000048
 21
459.61003049999999
  0
LINE
  8
_0-0_0
  6
CONTINUOUS
 62
    7
 10
-92.648238500000048
 20
460.0579985
 11
-92.398238500000048
 21
460.06263749999999
  0
LINE
  8
_0-0_0
  6
CONTINUOUS
 62
    7
 10
-82.898238500000048
 20
460.0579985
 11
-92.648238500000048
 21
460.0579985
  0
LINE
  8
_0-0_0
  6
CONTINUOUS
 62
    7
 10
-92.648238500000048
 20
460.27314749999999
 11
-92.398238500000048
 21
460.30693050000002
  0
LINE
  8
_0-0_0
  6
CONTINUOUS
 62
    7
 10
-92.648238500000048
 20
460.49714649999999
 11
-92.398238500000048
 21
460.5597075
  0
LINE
  8
_0-0_0
  6
CONTINUOUS
 62
    7
 10
-92.648238500000048
 20
460.72749349999998
 11
-92.398238500000048
 21
460.81816049999998
  0
LINE
  8
_0-0_0
  6
CONTINUOUS
 62
    7
 10
-92.648238500000048
 20
460.96171549999997
 11
-92.398238500000048
 21
461.07948249999998
  0
LINE
  8
_0-0_0
  6
CONTINUOUS
 62
    7
 10
-92.648238500000048
 20
461.1972505
 11
-92.398238500000048
 21
461.34080449999999
  0
LINE
  8
_0-0_0
  6
CONTINUOUS
 62
    7
 10
-92.648238500000048
 20
461.43147249999998
 11
-92.398238500000048
 21
461.59925850000002
  0
LINE
  8
_0-0_0
  6
CONTINUOUS
 62
    7
 10
-92.648238500000048
 20
461.66181949999998
 11
-92.398238500000048
 21
461.8520355
  0
LINE
  8
_0-0_0
  6
CONTINUOUS
 62
    7
 10
-92.648238500000048
 20
461.88581849999997
 11
-92.398238500000048
 21
462.09632849999997
  0
LINE
  8
_0-0_0
  6
CONTINUOUS
 62
    7
 10
-92.648238500000048
 20
462.10096750000002
 11
-92.398238500000048
 21
462.32948249999998
  0
LINE
  8
_0-0_0
  6
CONTINUOUS
 62
    7
 10
-92.648238500000048
 20
462.30491649999999
 11
-92.398238500000048
 21
462.54893449999997
  0
LINE
  8
_0-0_0
  6
CONTINUOUS
 62
    7
 10
-92.648238500000048
 20
462.49546750000002
 11
-92.398238500000048
 21
462.75230349999998
  0
LINE
  8
_0-0_0
  6
CONTINUOUS
 62
    7
 10
-92.648238500000048
 20
462.6704555
 11
-92.398238500000048
 21
462.93733149999997
  0
LINE
  8
_0-0_0
  6
CONTINUOUS
 62
    7
 10
-92.648238500000048
 20
462.82804850000002
 11
-92.398238500000048
 21
463.1020355
  0
LINE
  8
_0-0_0
  6
CONTINUOUS
 62
    7
 10
-92.648238500000048
 20
459.85404949999997
 11
-92.398238500000048
 21
459.61003049999999
  0
LINE
  8
_0-0_0
  6
CONTINUOUS
 62
    7
 10
-92.648238500000048
 20
460.0579985
 11
-92.398238500000048
 21
459.82948249999998
  0
LINE
  8
_0-0_0
  6
CONTINUOUS
 62
    7
 10
-95.448242499999992
 20
464.84135450000002
 11
-95.448242499999992
 21
467.11042750000001
  0
LINE
  8
_0-0_0
  6
CONTINUOUS
 62
    7
 10
-95.448242499999992
 20
467.11042750000001
 11
-95.448242499999992
 21
473.91758750000002
  0
LINE
  8
_0-0_0
  6
CONTINUOUS
 62
    7
 10
-92.648238500000048
 20
476.6580045
 11
-92.648238500000048
 21
476.8731535
  0
LINE
  8
_0-0_0
  6
CONTINUOUS
 62
    7
 10
-92.648238500000048
 20
476.8731535
 11
-92.648238500000048
 21
477.09715249999999
  0
LINE
  8
_0-0_0
  6
CONTINUOUS
 62
    7
 10
-92.648238500000048
 20
477.09715249999999
 11
-92.648238500000048
 21
477.32749949999999
  0
LINE
  8
_0-0_0
  6
CONTINUOUS
 62
    7
 10
-92.648238500000048
 20
477.32749949999999
 11
-92.648238500000048
 21
477.56172149999998
  0
LINE
  8
_0-0_0
  6
CONTINUOUS
 62
    7
 10
-92.648238500000048
 20
477.56172149999998
 11
-92.648238500000048
 21
477.79722550000002
  0
LINE
  8
_0-0_0
  6
CONTINUOUS
 62
    7
 10
-92.648238500000048
 20
477.79722550000002
 11
-92.648238500000048
 21
478.03144850000001
  0
LINE
  8
_0-0_0
  6
CONTINUOUS
 62
    7
 10
-92.648238500000048
 20
478.03144850000001
 11
-92.648238500000048
 21
478.26182549999999
  0
LINE
  8
_0-0_0
  6
CONTINUOUS
 62
    7
 10
-92.648238500000048
 20
478.26182549999999
 11
-92.648238500000048
 21
478.48582449999998
  0
LINE
  8
_0-0_0
  6
CONTINUOUS
 62
    7
 10
-92.648238500000048
 20
478.48582449999998
 11
-92.648238500000048
 21
478.70097349999998
  0
LINE
  8
_0-0_0
  6
CONTINUOUS
 62
    7
 10
-92.648238500000048
 20
478.70097349999998
 11
-92.648238500000048
 21
478.9049225
  0
LINE
  8
_0-0_0
  6
CONTINUOUS
 62
    7
 10
-92.648238500000048
 20
478.9049225
 11
-92.648238500000048
 21
479.09544349999999
  0
LINE
  8
_0-0_0
  6
CONTINUOUS
 62
    7
 10
-92.648238500000048
 20
479.09544349999999
 11
-92.648238500000048
 21
479.27046150000001
  0
LINE
  8
_0-0_0
  6
CONTINUOUS
 62
    7
 10
-92.648238500000048
 20
479.27046150000001
 11
-92.648238500000048
 21
479.42805449999997
  0
LINE
  8
_0-0_0
  6
CONTINUOUS
 62
    7
 10
-92.648238500000048
 20
479.42805449999997
 11
-92.648238500000048
 21
479.56648250000001
  0
LINE
  8
_0-0_0
  6
CONTINUOUS
 62
    7
 10
-92.648238500000048
 20
479.56648250000001
 11
-92.648238500000048
 21
479.65403750000002
  0
LINE
  8
_0-0_0
  6
CONTINUOUS
 62
    7
 10
-92.648238500000048
 20
479.65403750000002
 11
-92.648238500000048
 21
479.68424950000002
  0
LINE
  8
_0-0_0
  6
CONTINUOUS
 62
    7
 10
-92.648238500000048
 20
479.68424950000002
 11
-92.648238500000048
 21
479.78004449999997
  0
LINE
  8
_0-0_0
  6
CONTINUOUS
 62
    7
 10
-92.648238500000048
 20
479.78004449999997
 11
-92.648238500000048
 21
479.85282849999999
  0
LINE
  8
_0-0_0
  6
CONTINUOUS
 62
    7
 10
-92.648238500000048
 20
479.85282849999999
 11
-92.648238500000048
 21
479.90177949999998
  0
LINE
  8
_0-0_0
  6
CONTINUOUS
 62
    7
 10
-92.648238500000048
 20
479.90177949999998
 11
-92.648238500000048
 21
479.92640649999998
  0
LINE
  8
_0-0_0
  6
CONTINUOUS
 62
    7
 10
-92.648238500000048
 20
479.92640649999998
 11
-92.648238500000048
 21
479.92948849999999
  0
LINE
  8
_0-0_0
  6
CONTINUOUS
 62
    7
 10
-92.648238500000048
 20
475.42948849999999
 11
-92.648238500000048
 21
475.43257149999999
  0
LINE
  8
_0-0_0
  6
CONTINUOUS
 62
    7
 10
-92.648238500000048
 20
475.43257149999999
 11
-92.648238500000048
 21
475.45716850000002
  0
LINE
  8
_0-0_0
  6
CONTINUOUS
 62
    7
 10
-92.648238500000048
 20
475.45716850000002
 11
-92.648238500000048
 21
475.50614949999999
  0
LINE
  8
_0-0_0
  6
CONTINUOUS
 62
    7
 10
-92.648238500000048
 20
475.50614949999999
 11
-92.648238500000048
 21
475.57893350000001
  0
LINE
  8
_0-0_0
  6
CONTINUOUS
 62
    7
 10
-92.648238500000048
 20
475.57893350000001
 11
-92.648238500000048
 21
475.67472850000001
  0
LINE
  8
_0-0_0
  6
CONTINUOUS
 62
    7
 10
-92.648238500000048
 20
475.67472850000001
 11
-92.648238500000048
 21
475.79246549999999
  0
LINE
  8
_0-0_0
  6
CONTINUOUS
 62
    7
 10
-92.648238500000048
 20
475.79246549999999
 11
-92.648238500000048
 21
475.93089249999997
  0
LINE
  8
_0-0_0
  6
CONTINUOUS
 62
    7
 10
-92.648238500000048
 20
475.93089249999997
 11
-92.648238500000048
 21
476.08848549999999
  0
LINE
  8
_0-0_0
  6
CONTINUOUS
 62
    7
 10
-92.648238500000048
 20
476.08848549999999
 11
-92.648238500000048
 21
476.26350350000001
  0
LINE
  8
_0-0_0
  6
CONTINUOUS
 62
    7
 10
-92.648238500000048
 20
476.26350350000001
 11
-92.648238500000048
 21
476.45405549999998
  0
LINE
  8
_0-0_0
  6
CONTINUOUS
 62
    7
 10
-92.648238500000048
 20
476.60078449999997
 11
-92.648238500000048
 21
476.6580045
  0
LINE
  8
_0-0_0
  6
CONTINUOUS
 62
    7
 10
-92.648238500000048
 20
476.45405549999998
 11
-92.648238500000048
 21
476.60078449999997
  0
LINE
  8
_0-0_0
  6
CONTINUOUS
 62
    7
 10
-92.648238500000048
 20
460.0579985
 11
-92.648238500000048
 21
460.27314749999999
  0
LINE
  8
_0-0_0
  6
CONTINUOUS
 62
    7
 10
-92.648238500000048
 20
460.27314749999999
 11
-92.648238500000048
 21
460.49714649999999
  0
LINE
  8
_0-0_0
  6
CONTINUOUS
 62
    7
 10
-92.648238500000048
 20
460.49714649999999
 11
-92.648238500000048
 21
460.72749349999998
  0
LINE
  8
_0-0_0
  6
CONTINUOUS
 62
    7
 10
-92.648238500000048
 20
460.72749349999998
 11
-92.648238500000048
 21
460.96171549999997
  0
LINE
  8
_0-0_0
  6
CONTINUOUS
 62
    7
 10
-92.648238500000048
 20
460.96171549999997
 11
-92.648238500000048
 21
461.1972505
  0
LINE
  8
_0-0_0
  6
CONTINUOUS
 62
    7
 10
-92.648238500000048
 20
461.1972505
 11
-92.648238500000048
 21
461.43147249999998
  0
LINE
  8
_0-0_0
  6
CONTINUOUS
 62
    7
 10
-92.648238500000048
 20
461.43147249999998
 11
-92.648238500000048
 21
461.66181949999998
  0
LINE
  8
_0-0_0
  6
CONTINUOUS
 62
    7
 10
-92.648238500000048
 20
461.66181949999998
 11
-92.648238500000048
 21
461.88581849999997
  0
LINE
  8
_0-0_0
  6
CONTINUOUS
 62
    7
 10
-92.648238500000048
 20
461.88581849999997
 11
-92.648238500000048
 21
462.10096750000002
  0
LINE
  8
_0-0_0
  6
CONTINUOUS
 62
    7
 10
-92.648238500000048
 20
462.10096750000002
 11
-92.648238500000048
 21
462.30491649999999
  0
LINE
  8
_0-0_0
  6
CONTINUOUS
 62
    7
 10
-92.648238500000048
 20
462.30491649999999
 11
-92.648238500000048
 21
462.49546750000002
  0
LINE
  8
_0-0_0
  6
CONTINUOUS
 62
    7
 10
-92.648238500000048
 20
462.49546750000002
 11
-92.648238500000048
 21
462.6704555
  0
LINE
  8
_0-0_0
  6
CONTINUOUS
 62
    7
 10
-92.648238500000048
 20
462.6704555
 11
-92.648238500000048
 21
462.82804850000002
  0
LINE
  8
_0-0_0
  6
CONTINUOUS
 62
    7
 10
-92.648238500000048
 20
462.82804850000002
 11
-92.648238500000048
 21
462.9664765
  0
LINE
  8
_0-0_0
  6
CONTINUOUS
 62
    7
 10
-92.648238500000048
 20
462.9664765
 11
-92.648238500000048
 21
463.05403150000001
  0
LINE
  8
_0-0_0
  6
CONTINUOUS
 62
    7
 10
-92.648238500000048
 20
463.05403150000001
 11
-92.648238500000048
 21
463.08424350000001
  0
LINE
  8
_0-0_0
  6
CONTINUOUS
 62
    7
 10
-92.648238500000048
 20
463.08424350000001
 11
-92.648238500000048
 21
463.18003850000002
  0
LINE
  8
_0-0_0
  6
CONTINUOUS
 62
    7
 10
-92.648238500000048
 20
463.18003850000002
 11
-92.648238500000048
 21
463.25282249999998
  0
LINE
  8
_0-0_0
  6
CONTINUOUS
 62
    7
 10
-92.648238500000048
 20
463.25282249999998
 11
-92.648238500000048
 21
463.30177249999997
  0
LINE
  8
_0-0_0
  6
CONTINUOUS
 62
    7
 10
-92.648238500000048
 20
463.30177249999997
 11
-92.648238500000048
 21
463.32948249999998
  0
LINE
  8
_0-0_0
  6
CONTINUOUS
 62
    7
 10
-92.648238500000048
 20
463.32640049999998
 11
-92.648238500000048
 21
463.32948249999998
  0
LINE
  8
_0-0_0
  6
CONTINUOUS
 62
    7
 10
-92.648238500000048
 20
458.82948249999998
 11
-92.648238500000048
 21
458.83256549999999
  0
LINE
  8
_0-0_0
  6
CONTINUOUS
 62
    7
 10
-92.648238500000048
 20
458.83256549999999
 11
-92.648238500000048
 21
458.8571925
  0
LINE
  8
_0-0_0
  6
CONTINUOUS
 62
    7
 10
-92.648238500000048
 20
458.8571925
 11
-92.648238500000048
 21
458.90614349999998
  0
LINE
  8
_0-0_0
  6
CONTINUOUS
 62
    7
 10
-92.648238500000048
 20
458.90614349999998
 11
-92.648238500000048
 21
458.9789275
  0
LINE
  8
_0-0_0
  6
CONTINUOUS
 62
    7
 10
-92.648238500000048
 20
458.82948249999998
 11
-92.648238500000048
 21
459.07472250000001
  0
LINE
  8
_0-0_0
  6
CONTINUOUS
 62
    7
 10
-92.648238500000048
 20
459.07472250000001
 11
-92.648238500000048
 21
459.19248950000002
  0
LINE
  8
_0-0_0
  6
CONTINUOUS
 62
    7
 10
-92.648238500000048
 20
459.19248950000002
 11
-92.648238500000048
 21
459.3309175
  0
LINE
  8
_0-0_0
  6
CONTINUOUS
 62
    7
 10
-92.648238500000048
 20
459.3309175
 11
-92.648238500000048
 21
459.48847949999998
  0
LINE
  8
_0-0_0
  6
CONTINUOUS
 62
    7
 10
-92.648238500000048
 20
459.48847949999998
 11
-92.648238500000048
 21
459.66349750000001
  0
LINE
  8
_0-0_0
  6
CONTINUOUS
 62
    7
 10
-92.648238500000048
 20
459.66349750000001
 11
-92.648238500000048
 21
459.85404949999997
  0
LINE
  8
_0-0_0
  6
CONTINUOUS
 62
    7
 10
-92.648238500000048
 20
460.00077850000002
 11
-92.648238500000048
 21
460.0579985
  0
LINE
  8
_0-0_0
  6
CONTINUOUS
 62
    7
 10
-92.648238500000048
 20
459.85404949999997
 11
-92.648238500000048
 21
460.00077850000002
  0
LINE
  8
_0-0_0
  6
CONTINUOUS
 62
    7
 10
-96.248245500000053
 20
466.87947050000002
 11
-96.248245500000053
 21
474.37947050000002
  0
LINE
  8
_0-0_0
  6
CONTINUOUS
 62
    7
 10
-96.248245500000053
 20
464.37947050000002
 11
-96.248245500000053
 21
466.87947050000002
  0
LINE
  8
_0-0_0
  6
CONTINUOUS
 62
    7
 10
-107.64823850000005
 20
475.87947050000002
 11
-97.940414500000088
 21
475.87947050000002
  0
LINE
  8
_0-0_0
  6
CONTINUOUS
 62
    7
 10
-97.898238500000048
 20
475.87947050000002
 11
-97.940414500000088
 21
475.87947050000002
  0
LINE
  8
_0-0_0
  6
CONTINUOUS
 62
    7
 10
-107.94824249999999
 20
467.16746549999999
 11
-107.88943449999999
 21
466.92060850000001
  0
LINE
  8
_0-0_0
  6
CONTINUOUS
 62
    7
 10
-107.88943449999999
 20
466.92060850000001
 11
-107.8396755
 21
466.72828650000002
  0
LINE
  8
_0-0_0
  6
CONTINUOUS
 62
    7
 10
-107.8396755
 20
466.72828650000002
 11
-107.76855450000005
 21
466.46253949999999
  0
LINE
  8
_0-0_0
  6
CONTINUOUS
 62
    7
 10
-107.76855450000005
 20
466.46253949999999
 11
-107.73559550000004
 21
466.33583049999999
  0
LINE
  8
_0-0_0
  6
CONTINUOUS
 62
    7
 10
-107.73559550000004
 20
466.33583049999999
 11
-107.71034250000002
 21
466.23240650000002
  0
LINE
  8
_0-0_0
  6
CONTINUOUS
 62
    7
 10
-107.71034250000002
 20
466.23240650000002
 11
-107.68830850000006
 21
466.1324305
  0
LINE
  8
_0-0_0
  6
CONTINUOUS
 62
    7
 10
-107.68830850000006
 20
466.1324305
 11
-107.66691550000007
 21
466.0147245
  0
LINE
  8
_0-0_0
  6
CONTINUOUS
 62
    7
 10
-107.66691550000007
 20
466.0147245
 11
-107.65835549999997
 21
465.95259049999999
  0
LINE
  8
_0-0_0
  6
CONTINUOUS
 62
    7
 10
-107.65835549999997
 20
465.95259049999999
 11
-107.65226749999999
 21
465.89198249999998
  0
LINE
  8
_0-0_0
  6
CONTINUOUS
 62
    7
 10
-107.65226749999999
 20
465.89198249999998
 11
-107.64926149999997
 21
465.8427585
  0
LINE
  8
_0-0_0
  6
CONTINUOUS
 62
    7
 10
-107.64926149999997
 20
465.8427585
 11
-107.64823850000005
 21
465.79454049999998
  0
LINE
  8
_0-0_0
  6
CONTINUOUS
 62
    7
 10
-107.94824249999999
 20
471.5914765
 11
-107.88944950000007
 21
471.8383025
  0
LINE
  8
_0-0_0
  6
CONTINUOUS
 62
    7
 10
-107.88944950000007
 20
471.8383025
 11
-107.8396755
 21
472.03065449999997
  0
LINE
  8
_0-0_0
  6
CONTINUOUS
 62
    7
 10
-107.8396755
 20
472.03065449999997
 11
-107.76855450000005
 21
472.29643249999998
  0
LINE
  8
_0-0_0
  6
CONTINUOUS
 62
    7
 10
-107.76855450000005
 20
472.29643249999998
 11
-107.73559550000004
 21
472.42317150000002
  0
LINE
  8
_0-0_0
  6
CONTINUOUS
 62
    7
 10
-107.73559550000004
 20
472.42317150000002
 11
-107.71032650000006
 21
472.5265655
  0
LINE
  8
_0-0_0
  6
CONTINUOUS
 62
    7
 10
-107.71032650000006
 20
472.5265655
 11
-107.68830850000006
 21
472.62651049999999
  0
LINE
  8
_0-0_0
  6
CONTINUOUS
 62
    7
 10
-107.68830850000006
 20
472.62651049999999
 11
-107.66693050000003
 21
472.74421649999999
  0
LINE
  8
_0-0_0
  6
CONTINUOUS
 62
    7
 10
-107.66693050000003
 20
472.74421649999999
 11
-107.65835549999997
 21
472.80635050000001
  0
LINE
  8
_0-0_0
  6
CONTINUOUS
 62
    7
 10
-107.65835549999997
 20
472.80635050000001
 11
-107.65226749999999
 21
472.86695850000001
  0
LINE
  8
_0-0_0
  6
CONTINUOUS
 62
    7
 10
-107.65226749999999
 20
472.86695850000001
 11
-107.64926149999997
 21
472.91621349999997
  0
LINE
  8
_0-0_0
  6
CONTINUOUS
 62
    7
 10
-107.64926149999997
 20
472.91621349999997
 11
-107.64823850000005
 21
472.96443149999999
  0
LINE
  8
_0-0_0
  6
CONTINUOUS
 62
    7
 10
-107.64823850000005
 20
467.81742850000001
 11
-107.64823850000005
 21
466.77177449999999
  0
LINE
  8
_0-0_0
  6
CONTINUOUS
 62
    7
 10
-107.64823850000005
 20
465.4871675
 11
-107.64823850000005
 21
466.77177449999999
  0
LINE
  8
_0-0_0
  6
CONTINUOUS
 62
    7
 10
-107.64823850000005
 20
465.3717805
 11
-107.64823850000005
 21
465.4871675
  0
ARC
  8
_0-0_0
  6
CONTINUOUS
 62
    7
 10
-109.64823850000005
 20
476.73796049999999
 40
2
 50
0
 51
71.565000999999995
  0
LINE
  8
_0-0_0
  6
CONTINUOUS
 62
    7
 10
-97.940414500000088
 20
475.87947050000002
 11
-97.885925499999985
 21
475.80955449999999
  0
LINE
  8
_0-0_0
  6
CONTINUOUS
 62
    7
 10
-97.885925499999985
 20
475.80955449999999
 11
-97.834823500000084
 21
475.74070749999998
  0
LINE
  8
_0-0_0
  6
CONTINUOUS
 62
    7
 10
-97.834823500000084
 20
475.74070749999998
 11
-97.787185500000078
 21
475.6732025
  0
LINE
  8
_0-0_0
  6
CONTINUOUS
 62
    7
 10
-97.787185500000078
 20
475.6732025
 11
-97.742690499999981
 21
475.6066745
  0
LINE
  8
_0-0_0
  6
CONTINUOUS
 62
    7
 10
-97.742690499999981
 20
475.6066745
 11
-97.687972500000001
 21
475.51911949999999
  0
LINE
  8
_0-0_0
  6
CONTINUOUS
 62
    7
 10
-97.687972500000001
 20
475.51911949999999
 11
-97.63845850000007
 21
475.43302949999998
  0
LINE
  8
_0-0_0
  6
CONTINUOUS
 62
    7
 10
-97.63845850000007
 20
475.43302949999998
 11
-97.59399350000001
 21
475.34819049999999
  0
LINE
  8
_0-0_0
  6
CONTINUOUS
 62
    7
 10
-97.59399350000001
 20
475.34819049999999
 11
-97.547027500000013
 21
475.24787850000001
  0
LINE
  8
_0-0_0
  6
CONTINUOUS
 62
    7
 10
-97.547027500000013
 20
475.24787850000001
 11
-97.506820500000003
 21
475.14894049999998
  0
LINE
  8
_0-0_0
  6
CONTINUOUS
 62
    7
 10
-97.506820500000003
 20
475.14894049999998
 11
-97.473159500000065
 21
475.05119350000001
  0
LINE
  8
_0-0_0
  6
CONTINUOUS
 62
    7
 10
-97.473159500000065
 20
475.05119350000001
 11
-97.445861499999978
 21
474.95439149999999
  0
LINE
  8
_0-0_0
  6
CONTINUOUS
 62
    7
 10
-97.445861499999978
 20
474.95439149999999
 11
-97.424819500000012
 21
474.85832149999999
  0
LINE
  8
_0-0_0
  6
CONTINUOUS
 62
    7
 10
-97.424819500000012
 20
474.85832149999999
 11
-97.408889499999987
 21
474.75447050000002
  0
LINE
  8
_0-0_0
  6
CONTINUOUS
 62
    7
 10
-97.408889499999987
 20
474.75447050000002
 11
-97.400131500000043
 21
474.65104650000001
  0
LINE
  8
_0-0_0
  6
CONTINUOUS
 62
    7
 10
-97.400131500000043
 20
474.65104650000001
 11
-97.398498500000073
 21
474.54780549999998
  0
LINE
  8
_0-0_0
  6
CONTINUOUS
 62
    7
 10
-97.398498500000073
 20
474.54780549999998
 11
-97.403961500000037
 21
474.44453449999997
  0
LINE
  8
_0-0_0
  6
CONTINUOUS
 62
    7
 10
-97.403961500000037
 20
474.44453449999997
 11
-97.416580500000009
 21
474.34092650000002
  0
LINE
  8
_0-0_0
  6
CONTINUOUS
 62
    7
 10
-97.416580500000009
 20
474.34092650000002
 11
-97.436385500000029
 21
474.23677049999998
  0
LINE
  8
_0-0_0
  6
CONTINUOUS
 62
    7
 10
-97.436385500000029
 20
474.23677049999998
 11
-97.463531500000045
 21
474.1318205
  0
LINE
  8
_0-0_0
  6
CONTINUOUS
 62
    7
 10
-97.463531500000045
 20
474.1318205
 11
-97.498184499999979
 21
474.0258025
  0
LINE
  8
_0-0_0
  6
CONTINUOUS
 62
    7
 10
-97.498184499999979
 20
474.0258025
 11
-97.540527500000053
 21
473.91841149999999
  0
LINE
  8
_0-0_0
  6
CONTINUOUS
 62
    7
 10
-97.540527500000053
 20
473.91841149999999
 11
-97.590850499999988
 21
473.80940249999998
  0
LINE
  8
_0-0_0
  6
CONTINUOUS
 62
    7
 10
-97.590850499999988
 20
473.80940249999998
 11
-97.645095500000025
 21
473.70628349999998
  0
LINE
  8
_0-0_0
  6
CONTINUOUS
 62
    7
 10
-97.645095500000025
 20
473.70628349999998
 11
-97.706802499999981
 21
473.60121149999998
  0
LINE
  8
_0-0_0
  6
CONTINUOUS
 62
    7
 10
-97.706802499999981
 20
473.60121149999998
 11
-97.776321499999995
 21
473.49397249999998
  0
LINE
  8
_0-0_0
  6
CONTINUOUS
 62
    7
 10
-97.776321499999995
 20
473.49397249999998
 11
-97.854034500000012
 21
473.38426149999998
  0
LINE
  8
_0-0_0
  6
CONTINUOUS
 62
    7
 10
-97.854034500000012
 20
473.38426149999998
 11
-97.940414500000088
 21
473.27177449999999
  0
LINE
  8
_0-0_0
  6
CONTINUOUS
 62
    7
 10
-107.64823850000005
 20
473.38716149999999
 11
-107.64823850000005
 21
473.27177449999999
  0
LINE
  8
_0-0_0
  6
CONTINUOUS
 62
    7
 10
-107.64823850000005
 20
471.9871675
 11
-107.64823850000005
 21
470.94154350000002
  0
LINE
  8
_0-0_0
  6
CONTINUOUS
 62
    7
 10
-107.64823850000005
 20
466.77177449999999
 11
-97.940414500000088
 21
466.77177449999999
  0
LINE
  8
_0-0_0
  6
CONTINUOUS
 62
    7
 10
-107.64823850000005
 20
465.4871675
 11
-97.940414500000088
 21
465.4871675
  0
LINE
  8
_0-0_0
  6
CONTINUOUS
 62
    7
 10
-96.648238500000048
 20
472.11103850000001
 11
-96.648238500000048
 21
474.62947050000002
  0
LINE
  8
_0-0_0
  6
CONTINUOUS
 62
    7
 10
-107.64823850000005
 20
476.73796049999999
 11
-107.64823850000005
 21
473.38716149999999
  0
LINE
  8
_0-0_0
  6
CONTINUOUS
 62
    7
 10
-118.64823850000005
 20
458.57948249999998
 11
-118.64823850000005
 21
458.8295435
  0
LINE
  8
_0-0_0
  6
CONTINUOUS
 62
    7
 10
-143.14823550000006
 20
478.67948849999999
 11
-148.14824250000004
 21
478.67948849999999
  0
ARC
  8
_0-0_0
  6
CONTINUOUS
 62
    7
 10
-148.14824250000004
 20
474.17948849999999
 40
4.5
 50
90.000003000000007
 51
269.99999700000006
  0
LINE
  8
_0-0_0
  6
CONTINUOUS
 62
    7
 10
-143.14823550000006
 20
469.67948849999999
 11
-148.14824250000004
 21
469.67948849999999
  0
ARC
  8
_0-0_0
  6
CONTINUOUS
 62
    7
 10
-143.14823550000006
 20
474.17948849999999
 40
4.5
 50
269.99999700000001
 51
90.000002999999992
  0
LINE
  8
_0-0_0
  6
CONTINUOUS
 62
    7
 10
-199.14824350000004
 20
478.67948849999999
 11
-204.14824350000004
 21
478.67948849999999
  0
ARC
  8
_0-0_0
  6
CONTINUOUS
 62
    7
 10
-204.14824350000004
 20
474.17948849999999
 40
4.5
 50
90.000003000000007
 51
269.99999700000006
  0
LINE
  8
_0-0_0
  6
CONTINUOUS
 62
    7
 10
-199.14824350000004
 20
469.67948849999999
 11
-204.14824350000004
 21
469.67948849999999
  0
ARC
  8
_0-0_0
  6
CONTINUOUS
 62
    7
 10
-199.14824350000004
 20
474.17948849999999
 40
4.5
 50
269.99999700000001
 51
90.000002999999992
  0
LINE
  8
_0-0_0
  6
CONTINUOUS
 62
    7
 10
-173.83572750000008
 20
478.24913049999998
 11
-175.13572250000004
 21
474.74913049999998
  0
LINE
  8
_0-0_0
  6
CONTINUOUS
 62
    7
 10
-174.9482385
 20
474.47947649999998
 11
-172.34823949999998
 21
474.47947649999998
  0
ARC
  8
_0-0_0
  6
CONTINUOUS
 62
    7
 10
-172.34823949999998
 20
474.67948849999999
 40
0.2
 50
269.99999700000001
 51
20.376435000000019
  0
ARC
  8
_0-0_0
  6
CONTINUOUS
 62
    7
 10
-173.64824250000004
 20
478.17948849999999
 40
0.2
 50
20.376434999999997
 51
159.62357000000003
  0
LINE
  8
_0-0_0
  6
CONTINUOUS
 62
    7
 10
-118.64823850000005
 20
458.57948249999998
 11
-118.64823850000005
 21
460.57948249999998
  0
ARC
  8
_0-0_0
  6
CONTINUOUS
 62
    7
 10
-152.64824250000004
 20
464.97947649999998
 40
3
 50
180.00000900000003
 51
269.99999700000001
  0
LINE
  8
_0-0_0
  6
CONTINUOUS
 62
    7
 10
-152.64824250000004
 20
461.97947649999998
 11
-137.64823850000005
 21
461.97947649999998
  0
ARC
  8
_0-0_0
  6
CONTINUOUS
 62
    7
 10
-137.64823850000005
 20
464.97947649999998
 40
3
 50
269.99999700000001
 51
0
  0
ARC
  8
_0-0_0
  6
CONTINUOUS
 62
    7
 10
-137.64823850000005
 20
478.57948249999998
 40
3
 50
0
 51
90.000003000000007
  0
LINE
  8
_0-0_0
  6
CONTINUOUS
 62
    7
 10
-137.64823850000005
 20
481.57948249999998
 11
-152.64824250000004
 21
481.57948249999998
  0
ARC
  8
_0-0_0
  6
CONTINUOUS
 62
    7
 10
-152.64824250000004
 20
478.57948249999998
 40
3
 50
90.000003000000007
 51
180.00000900000001
  0
ARC
  8
_0-0_0
  6
CONTINUOUS
 62
    7
 10
-206.5585595
 20
467.06916749999999
 40
5.089683
 50
180.00000900000003
 51
269.99999700000001
  0
LINE
  8
_0-0_0
  6
CONTINUOUS
 62
    7
 10
-206.5585595
 20
461.97947649999998
 11
-195.29123249999998
 21
461.97947649999998
  0
ARC
  8
_0-0_0
  6
CONTINUOUS
 62
    7
 10
-195.29123249999998
 20
465.62248249999999
 40
3.6429879999999999
 50
269.99999700000001
 51
0.0000099999999886
  0
LINE
  8
_0-0_0
  6
CONTINUOUS
 62
    7
 10
-194.64824250000004
 20
481.57948249999998
 11
-207.98218150000002
 21
481.57948249999998
  0
ARC
  8
_0-0_0
  6
CONTINUOUS
 62
    7
 10
-207.98218150000002
 20
480.57948249999998
 40
1
 50
90.000003000000007
 51
172.23356100000001
  0
ARC
  8
_0-0_0
  6
CONTINUOUS
 62
    7
 10
-210.64823850000005
 20
477.51716549999998
 40
1
 50
105.68034800000001
 51
180.00000900000001
  0
LINE
  8
_0-0_0
  6
CONTINUOUS
 62
    7
 10
-153.24824150000006
 20
481.57948249999998
 11
-153.24824150000006
 21
481.51887449999998
  0
LINE
  8
_0-0_0
  6
CONTINUOUS
 62
    7
 10
-194.64824250000004
 20
462.03666650000002
 11
-194.64824250000004
 21
461.98356649999999
  0
LINE
  8
_0-0_0
  6
CONTINUOUS
 62
    7
 10
-153.24824150000006
 20
462.04008449999998
 11
-153.24824150000006
 21
461.98356649999999
  0
LINE
  8
_0-0_0
  6
CONTINUOUS
 62
    7
 10
-96.648238500000048
 20
464.12947050000002
 11
-97.448242499999992
 21
463.32948249999998
  0
LINE
  8
_0-0_0
  6
CONTINUOUS
 62
    7
 10
-82.648238500000048
 20
459.07948249999998
 11
-83.148071500000015
 21
458.57963549999999
  0
LINE
  8
_0-0_0
  6
CONTINUOUS
 62
    7
 10
-82.648238500000048
 20
475.67948849999999
 11
-83.148071500000015
 21
475.1796415
  0
LINE
  8
_0-0_0
  6
CONTINUOUS
 62
    7
 10
-95.448242499999992
 20
473.37947050000002
 11
-37.448226500000033
 21
473.37947050000002
  0
LINE
  8
_0-0_0
  6
CONTINUOUS
 62
    7
 10
-95.448242499999992
 20
465.37947050000002
 11
-37.448226500000033
 21
465.37947050000002
  0
LINE
  8
_0-0_0
  6
CONTINUOUS
 62
    7
 10
-82.648238500000048
 20
479.67948849999999
 11
-83.148071500000015
 21
480.17933649999998
  0
LINE
  8
_0-0_0
  6
CONTINUOUS
 62
    7
 10
-82.648238500000048
 20
463.07948249999998
 11
-83.148071500000015
 21
463.57933049999997
  0
LINE
  8
_0-0_0
  6
CONTINUOUS
 62
    7
 10
-92.648238500000048
 20
479.92948849999999
 11
-92.398238500000048
 21
480.17948849999999
  0
LINE
  8
_0-0_0
  6
CONTINUOUS
 62
    7
 10
-92.648238500000048
 20
475.42948849999999
 11
-92.398238500000048
 21
475.17948849999999
  0
LINE
  8
_0-0_0
  6
CONTINUOUS
 62
    7
 10
-92.648238500000048
 20
463.32948249999998
 11
-92.398238500000048
 21
463.57948249999998
  0
LINE
  8
_0-0_0
  6
CONTINUOUS
 62
    7
 10
-92.648238500000048
 20
458.82948249999998
 11
-92.398238500000048
 21
458.57948249999998
  0
LINE
  8
_0-0_0
  6
CONTINUOUS
 62
    7
 10
-95.448242499999992
 20
473.91758750000002
 11
-96.248245500000053
 21
474.37947050000002
  0
LINE
  8
_0-0_0
  6
CONTINUOUS
 62
    7
 10
-95.448242499999992
 20
464.84135450000002
 11
-96.248245500000053
 21
464.37947050000002
  0
LINE
  8
_0-0_0
  6
CONTINUOUS
 62
    7
 10
-112.89828450000005
 20
479.92948849999999
 11
-92.648238500000048
 21
479.92948849999999
  0
LINE
  8
_0-0_0
  6
CONTINUOUS
 62
    7
 10
-97.448242499999992
 20
475.42948849999999
 11
-92.648238500000048
 21
475.42948849999999
  0
LINE
  8
_0-0_0
  6
CONTINUOUS
 62
    7
 10
-118.64823850000005
 20
463.32948249999998
 11
-92.648238500000048
 21
463.32948249999998
  0
LINE
  8
_0-0_0
  6
CONTINUOUS
 62
    7
 10
-118.64823850000005
 20
458.82948249999998
 11
-92.648238500000048
 21
458.82948249999998
  0
LINE
  8
_0-0_0
  6
CONTINUOUS
 62
    7
 10
-96.648238500000048
 20
474.37947050000002
 11
-96.248245500000053
 21
474.37947050000002
  0
LINE
  8
_0-0_0
  6
CONTINUOUS
 62
    7
 10
-96.648238500000048
 20
464.37947050000002
 11
-96.248245500000053
 21
464.37947050000002
  0
LINE
  8
_0-0_0
  6
CONTINUOUS
 62
    7
 10
-96.648238500000048
 20
474.62947050000002
 11
-97.898238500000048
 21
475.87947050000002
  0
ARC
  8
_0-0_0
  6
CONTINUOUS
 62
    7
 10
-218.64823850000005
 20
502.87947050000002
 40
8
 50
215.099627
 51
324.90037799999999
  0
LINE
  8
_0-0_0
  6
CONTINUOUS
 62
    7
 10
-227.64823850000005
 20
498.27946450000002
 11
-225.1934665
 21
498.27946450000002
  0
LINE
  8
_0-0_0
  6
CONTINUOUS
 62
    7
 10
-227.64823850000005
 20
485.07948249999998
 11
-227.64823850000005
 21
498.27946450000002
  0
LINE
  8
_0-0_0
  6
CONTINUOUS
 62
    7
 10
1045.3518675
 20
485.07948249999998
 11
1045.3518675
 21
498.27946450000002
  0
LINE
  8
_0-0_0
  6
CONTINUOUS
 62
    7
 10
1042.8971555000001
 20
498.27946450000002
 11
1045.3518675
 21
498.27946450000002
  0
ARC
  8
_0-0_0
  6
CONTINUOUS
 62
    7
 10
1036.3518675
 20
502.87947050000002
 40
8
 50
215.099627
 51
324.90037799999999
  0
LINE
  8
_0-0_0
  6
CONTINUOUS
 62
    7
 10
-212.10301149999998
 20
498.27946450000002
 11
1029.8065795
 21
498.27946450000002
  0
LINE
  8
_0-0_0
  6
CONTINUOUS
 62
    7
 10
-212.10301149999998
 20
498.27946450000002
 11
-212.0140255
 21
498.40876750000001
  0
LINE
  8
_0-0_0
  6
CONTINUOUS
 62
    7
 10
1029.8065795
 20
498.27946450000002
 11
1029.7177125000001
 21
498.40876750000001
  0
LINE
  8
_0-0_0
  6
CONTINUOUS
 62
    7
 10
1043.0791624999999
 20
498.5501865
 11
1043.1607054999999
 21
498.67948849999999
  0
ARC
  8
_0-0_0
  6
CONTINUOUS
 62
    7
 10
1036.3518675
 20
502.87947050000002
 40
8
 50
328.33175599999993
 51
334.05550899999992
  0
LINE
  8
_0-0_0
  6
CONTINUOUS
 62
    7
 10
1043.5455935
 20
499.37947050000002
 11
1043.6395875000001
 21
499.57948249999998
  0
LINE
  8
_0-0_0
  6
CONTINUOUS
 62
    7
 10
1043.6395875000001
 20
499.57948249999998
 11
1043.7268675
 21
499.77946450000002
  0
ARC
  8
_0-0_0
  6
CONTINUOUS
 62
    7
 10
1036.3518675
 20
502.87947050000002
 40
8
 50
337.20097500000003
 51
342.54240199999998
  0
LINE
  8
_0-0_0
  6
CONTINUOUS
 62
    7
 10
1043.9833375000001
 20
500.47947649999998
 11
1044.0433965
 21
500.67948849999999
  0
LINE
  8
_0-0_0
  6
CONTINUOUS
 62
    7
 10
1044.0433965
 20
500.67948849999999
 11
1044.0978395
 21
500.87947050000002
  0
ARC
  8
_0-0_0
  6
CONTINUOUS
 62
    7
 10
1036.3518675
 20
502.87947050000002
 40
8
 50
345.52249499999999
 51
350.64797900000002
  0
LINE
  8
_0-0_0
  6
CONTINUOUS
 62
    7
 10
1044.2455445000001
 20
501.57948249999998
 11
1044.2759404999999
 21
501.77946450000002
  0
LINE
  8
_0-0_0
  6
CONTINUOUS
 62
    7
 10
1044.2759404999999
 20
501.77946450000002
 11
1044.3010864999999
 21
501.97947649999998
  0
ARC
  8
_0-0_0
  6
CONTINUOUS
 62
    7
 10
1036.3518675
 20
502.87947050000002
 40
8
 50
353.54056400000002
 51
358.56744600000002
  0
LINE
  8
_0-0_0
  6
CONTINUOUS
 62
    7
 10
1044.3494264999999
 20
502.67948849999999
 11
1044.3518675
 21
502.87947050000002
  0
LINE
  8
_0-0_0
  6
CONTINUOUS
 62
    7
 10
1028.3543095
 20
502.67948849999999
 11
1028.3518675
 21
502.87947050000002
  0
ARC
  8
_0-0_0
  6
CONTINUOUS
 62
    7
 10
1036.3518675
 20
502.87947050000002
 40
8
 50
181.432545
 51
186.45945499999999
  0
LINE
  8
_0-0_0
  6
CONTINUOUS
 62
    7
 10
1028.4277955
 20
501.77946450000002
 11
1028.4026495000001
 21
501.97947649999998
  0
LINE
  8
_0-0_0
  6
CONTINUOUS
 62
    7
 10
1028.4581914999999
 20
501.57948249999998
 11
1028.4277955
 21
501.77946450000002
  0
ARC
  8
_0-0_0
  6
CONTINUOUS
 62
    7
 10
1036.3518675
 20
502.87947050000002
 40
8
 50
189.35203999999999
 51
194.47751
  0
LINE
  8
_0-0_0
  6
CONTINUOUS
 62
    7
 10
1028.6603395
 20
500.67948849999999
 11
1028.6058965
 21
500.87947050000002
  0
LINE
  8
_0-0_0
  6
CONTINUOUS
 62
    7
 10
1028.7203984999999
 20
500.47947649999998
 11
1028.6603395
 21
500.67948849999999
  0
ARC
  8
_0-0_0
  6
CONTINUOUS
 62
    7
 10
1036.3518675
 20
502.87947050000002
 40
8
 50
197.45760300000001
 51
202.79902999999999
  0
LINE
  8
_0-0_0
  6
CONTINUOUS
 62
    7
 10
1029.0641484999999
 20
499.57948249999998
 11
1028.9768675
 21
499.77946450000002
  0
LINE
  8
_0-0_0
  6
CONTINUOUS
 62
    7
 10
1029.1581424999999
 20
499.37947050000002
 11
1029.0641484999999
 21
499.57948249999998
  0
ARC
  8
_0-0_0
  6
CONTINUOUS
 62
    7
 10
1036.3518675
 20
502.87947050000002
 40
8
 50
205.94448199999999
 51
211.66823500000001
  0
LINE
  8
_0-0_0
  6
CONTINUOUS
 62
    7
 10
1029.6245724999999
 20
498.5501865
 11
1029.5430294999999
 21
498.67948849999999
  0
LINE
  8
_0-0_0
  6
CONTINUOUS
 62
    7
 10
1029.6245724999999
 20
498.5501865
 11
1029.7177125000001
 21
498.40876750000001
  0
LINE
  8
_0-0_0
  6
CONTINUOUS
 62
    7
 10
1042.8971555000001
 20
498.27946450000002
 11
1042.9860234999999
 21
498.40876750000001
  0
LINE
  8
_0-0_0
  6
CONTINUOUS
 62
    7
 10
1043.0791624999999
 20
498.5501865
 11
1042.9860234999999
 21
498.40876750000001
  0
LINE
  8
_0-0_0
  6
CONTINUOUS
 62
    7
 10
1045.3518675
 20
498.40876750000001
 11
1045.3518675
 21
498.27946450000002
  0
LINE
  8
_0-0_0
  6
CONTINUOUS
 62
    7
 10
1045.3518675
 20
507.20878549999998
 11
1045.3518675
 21
507.35020450000002
  0
LINE
  8
_0-0_0
  6
CONTINUOUS
 62
    7
 10
1045.3518675
 20
507.20878549999998
 11
1045.3518675
 21
507.07948249999998
  0
LINE
  8
_0-0_0
  6
CONTINUOUS
 62
    7
 10
1045.3518675
 20
506.37947050000002
 11
1045.3518675
 21
507.07948249999998
  0
LINE
  8
_0-0_0
  6
CONTINUOUS
 62
    7
 10
1045.3518675
 20
506.17948849999999
 11
1045.3518675
 21
506.37947050000002
  0
LINE
  8
_0-0_0
  6
CONTINUOUS
 62
    7
 10
1045.3518675
 20
506.17948849999999
 11
1045.3518675
 21
505.97947649999998
  0
LINE
  8
_0-0_0
  6
CONTINUOUS
 62
    7
 10
1045.3518675
 20
505.27946450000002
 11
1045.3518675
 21
505.97947649999998
  0
LINE
  8
_0-0_0
  6
CONTINUOUS
 62
    7
 10
1045.3518675
 20
505.07948249999998
 11
1045.3518675
 21
505.27946450000002
  0
LINE
  8
_0-0_0
  6
CONTINUOUS
 62
    7
 10
1045.3518675
 20
505.07948249999998
 11
1045.3518675
 21
504.87947050000002
  0
LINE
  8
_0-0_0
  6
CONTINUOUS
 62
    7
 10
1045.3518675
 20
504.17948849999999
 11
1045.3518675
 21
504.87947050000002
  0
LINE
  8
_0-0_0
  6
CONTINUOUS
 62
    7
 10
1045.3518675
 20
503.97947649999998
 11
1045.3518675
 21
504.17948849999999
  0
LINE
  8
_0-0_0
  6
CONTINUOUS
 62
    7
 10
1045.3518675
 20
503.97947649999998
 11
1045.3518675
 21
503.77946450000002
  0
LINE
  8
_0-0_0
  6
CONTINUOUS
 62
    7
 10
1045.3518675
 20
503.07948249999998
 11
1045.3518675
 21
503.77946450000002
  0
LINE
  8
_0-0_0
  6
CONTINUOUS
 62
    7
 10
1045.3518675
 20
502.87947050000002
 11
1045.3518675
 21
503.07948249999998
  0
LINE
  8
_0-0_0
  6
CONTINUOUS
 62
    7
 10
1045.3518675
 20
502.87947050000002
 11
1045.3518675
 21
502.67948849999999
  0
LINE
  8
_0-0_0
  6
CONTINUOUS
 62
    7
 10
1045.3518675
 20
501.97947649999998
 11
1045.3518675
 21
502.67948849999999
  0
LINE
  8
_0-0_0
  6
CONTINUOUS
 62
    7
 10
1045.3518675
 20
501.77946450000002
 11
1045.3518675
 21
501.97947649999998
  0
LINE
  8
_0-0_0
  6
CONTINUOUS
 62
    7
 10
1045.3518675
 20
501.77946450000002
 11
1045.3518675
 21
501.57948249999998
  0
LINE
  8
_0-0_0
  6
CONTINUOUS
 62
    7
 10
1045.3518675
 20
500.87947050000002
 11
1045.3518675
 21
501.57948249999998
  0
LINE
  8
_0-0_0
  6
CONTINUOUS
 62
    7
 10
1045.3518675
 20
500.67948849999999
 11
1045.3518675
 21
500.87947050000002
  0
LINE
  8
_0-0_0
  6
CONTINUOUS
 62
    7
 10
1045.3518675
 20
500.67948849999999
 11
1045.3518675
 21
500.47947649999998
  0
LINE
  8
_0-0_0
  6
CONTINUOUS
 62
    7
 10
1045.3518675
 20
499.77946450000002
 11
1045.3518675
 21
500.47947649999998
  0
LINE
  8
_0-0_0
  6
CONTINUOUS
 62
    7
 10
1045.3518675
 20
499.57948249999998
 11
1045.3518675
 21
499.77946450000002
  0
LINE
  8
_0-0_0
  6
CONTINUOUS
 62
    7
 10
1045.3518675
 20
499.57948249999998
 11
1045.3518675
 21
499.37947050000002
  0
LINE
  8
_0-0_0
  6
CONTINUOUS
 62
    7
 10
1045.3518675
 20
498.67948849999999
 11
1045.3518675
 21
499.37947050000002
  0
LINE
  8
_0-0_0
  6
CONTINUOUS
 62
    7
 10
1045.3518675
 20
498.5501865
 11
1045.3518675
 21
498.67948849999999
  0
LINE
  8
_0-0_0
  6
CONTINUOUS
 62
    7
 10
1045.3518675
 20
498.40876750000001
 11
1045.3518675
 21
498.5501865
  0
LINE
  8
_0-0_0
  6
CONTINUOUS
 62
    7
 10
1045.3518675
 20
484.57948249999998
 11
1045.3518675
 21
485.07948249999998
  0
LINE
  8
_0-0_0
  6
CONTINUOUS
 62
    7
 10
1045.3518675
 20
513.07948250000004
 11
1045.3518675
 21
512.48551950000001
  0
LINE
  8
_0-0_0
  6
CONTINUOUS
 62
    7
 10
1045.3518675
 20
507.47947649999998
 11
1045.3518675
 21
512.48551950000001
  0
LINE
  8
_0-0_0
  6
CONTINUOUS
 62
    7
 10
1045.3518675
 20
507.35020450000002
 11
1045.3518675
 21
507.47947649999998
  0
LINE
  8
_0-0_0
  6
CONTINUOUS
 62
    7
 10
-227.64823850000005
 20
484.57948249999998
 11
-227.64823850000005
 21
485.07948249999998
  0
LINE
  8
_0-0_0
  6
CONTINUOUS
 62
    7
 10
-227.64823850000005
 20
484.57948249999998
 11
1045.3518675
 21
484.57948249999998
  0
LINE
  8
_0-0_0
  6
CONTINUOUS
 62
    7
 10
-227.64823850000005
 20
498.40876750000001
 11
-227.64823850000005
 21
498.5501865
  0
LINE
  8
_0-0_0
  6
CONTINUOUS
 62
    7
 10
-227.64823850000005
 20
498.40876750000001
 11
-227.64823850000005
 21
498.27946450000002
  0
LINE
  8
_0-0_0
  6
CONTINUOUS
 62
    7
 10
-227.64823850000005
 20
513.07948250000004
 11
-227.64823850000005
 21
512.48551950000001
  0
LINE
  8
_0-0_0
  6
CONTINUOUS
 62
    7
 10
-227.64823850000005
 20
507.47947649999998
 11
-227.64823850000005
 21
512.48551950000001
  0
LINE
  8
_0-0_0
  6
CONTINUOUS
 62
    7
 10
-227.64823850000005
 20
507.35020450000002
 11
-227.64823850000005
 21
507.47947649999998
  0
LINE
  8
_0-0_0
  6
CONTINUOUS
 62
    7
 10
-227.64823850000005
 20
507.20878549999998
 11
-227.64823850000005
 21
507.35020450000002
  0
LINE
  8
_0-0_0
  6
CONTINUOUS
 62
    7
 10
-227.64823850000005
 20
507.20878549999998
 11
-227.64823850000005
 21
507.07948249999998
  0
LINE
  8
_0-0_0
  6
CONTINUOUS
 62
    7
 10
-227.64823850000005
 20
506.37947050000002
 11
-227.64823850000005
 21
507.07948249999998
  0
LINE
  8
_0-0_0
  6
CONTINUOUS
 62
    7
 10
-227.64823850000005
 20
506.25019850000001
 11
-227.64823850000005
 21
506.37947050000002
  0
LINE
  8
_0-0_0
  6
CONTINUOUS
 62
    7
 10
-227.64823850000005
 20
506.10877949999997
 11
-227.64823850000005
 21
506.25019850000001
  0
LINE
  8
_0-0_0
  6
CONTINUOUS
 62
    7
 10
-227.64823850000005
 20
506.10877949999997
 11
-227.64823850000005
 21
505.97947649999998
  0
LINE
  8
_0-0_0
  6
CONTINUOUS
 62
    7
 10
-227.64823850000005
 20
505.27946450000002
 11
-227.64823850000005
 21
505.97947649999998
  0
LINE
  8
_0-0_0
  6
CONTINUOUS
 62
    7
 10
-227.64823850000005
 20
505.1501925
 11
-227.64823850000005
 21
505.27946450000002
  0
LINE
  8
_0-0_0
  6
CONTINUOUS
 62
    7
 10
-227.64823850000005
 20
505.00877350000002
 11
-227.64823850000005
 21
505.1501925
  0
LINE
  8
_0-0_0
  6
CONTINUOUS
 62
    7
 10
-227.64823850000005
 20
505.00877350000002
 11
-227.64823850000005
 21
504.87947050000002
  0
LINE
  8
_0-0_0
  6
CONTINUOUS
 62
    7
 10
-227.64823850000005
 20
504.17948849999999
 11
-227.64823850000005
 21
504.87947050000002
  0
LINE
  8
_0-0_0
  6
CONTINUOUS
 62
    7
 10
-227.64823850000005
 20
504.0501865
 11
-227.64823850000005
 21
504.17948849999999
  0
LINE
  8
_0-0_0
  6
CONTINUOUS
 62
    7
 10
-227.64823850000005
 20
503.90876750000001
 11
-227.64823850000005
 21
504.0501865
  0
LINE
  8
_0-0_0
  6
CONTINUOUS
 62
    7
 10
-227.64823850000005
 20
503.90876750000001
 11
-227.64823850000005
 21
503.77946450000002
  0
LINE
  8
_0-0_0
  6
CONTINUOUS
 62
    7
 10
-227.64823850000005
 20
503.07948249999998
 11
-227.64823850000005
 21
503.77946450000002
  0
LINE
  8
_0-0_0
  6
CONTINUOUS
 62
    7
 10
-227.64823850000005
 20
502.95017949999999
 11
-227.64823850000005
 21
503.07948249999998
  0
LINE
  8
_0-0_0
  6
CONTINUOUS
 62
    7
 10
-227.64823850000005
 20
502.8087615
 11
-227.64823850000005
 21
502.95017949999999
  0
LINE
  8
_0-0_0
  6
CONTINUOUS
 62
    7
 10
-227.64823850000005
 20
502.8087615
 11
-227.64823850000005
 21
502.67948849999999
  0
LINE
  8
_0-0_0
  6
CONTINUOUS
 62
    7
 10
-227.64823850000005
 20
501.97947649999998
 11
-227.64823850000005
 21
502.67948849999999
  0
LINE
  8
_0-0_0
  6
CONTINUOUS
 62
    7
 10
-227.64823850000005
 20
501.85020450000002
 11
-227.64823850000005
 21
501.97947649999998
  0
LINE
  8
_0-0_0
  6
CONTINUOUS
 62
    7
 10
-227.64823850000005
 20
501.70878549999998
 11
-227.64823850000005
 21
501.85020450000002
  0
LINE
  8
_0-0_0
  6
CONTINUOUS
 62
    7
 10
-227.64823850000005
 20
501.70878549999998
 11
-227.64823850000005
 21
501.57948249999998
  0
LINE
  8
_0-0_0
  6
CONTINUOUS
 62
    7
 10
-227.64823850000005
 20
500.87947050000002
 11
-227.64823850000005
 21
501.57948249999998
  0
LINE
  8
_0-0_0
  6
CONTINUOUS
 62
    7
 10
-227.64823850000005
 20
500.75019850000001
 11
-227.64823850000005
 21
500.87947050000002
  0
LINE
  8
_0-0_0
  6
CONTINUOUS
 62
    7
 10
-227.64823850000005
 20
500.60877949999997
 11
-227.64823850000005
 21
500.75019850000001
  0
LINE
  8
_0-0_0
  6
CONTINUOUS
 62
    7
 10
-227.64823850000005
 20
500.60877949999997
 11
-227.64823850000005
 21
500.47947649999998
  0
LINE
  8
_0-0_0
  6
CONTINUOUS
 62
    7
 10
-227.64823850000005
 20
499.77946450000002
 11
-227.64823850000005
 21
500.47947649999998
  0
LINE
  8
_0-0_0
  6
CONTINUOUS
 62
    7
 10
-227.64823850000005
 20
499.6501925
 11
-227.64823850000005
 21
499.77946450000002
  0
LINE
  8
_0-0_0
  6
CONTINUOUS
 62
    7
 10
-227.64823850000005
 20
499.50877350000002
 11
-227.64823850000005
 21
499.6501925
  0
LINE
  8
_0-0_0
  6
CONTINUOUS
 62
    7
 10
-227.64823850000005
 20
499.50877350000002
 11
-227.64823850000005
 21
499.37947050000002
  0
LINE
  8
_0-0_0
  6
CONTINUOUS
 62
    7
 10
-227.64823850000005
 20
498.67948849999999
 11
-227.64823850000005
 21
499.37947050000002
  0
LINE
  8
_0-0_0
  6
CONTINUOUS
 62
    7
 10
-227.64823850000005
 20
498.5501865
 11
-227.64823850000005
 21
498.67948849999999
  0
LINE
  8
_0-0_0
  6
CONTINUOUS
 62
    7
 10
-225.1934665
 20
498.27946450000002
 11
-225.28244749999999
 21
498.40876750000001
  0
LINE
  8
_0-0_0
  6
CONTINUOUS
 62
    7
 10
-211.92088750000005
 20
498.5501865
 11
-212.0140255
 21
498.40876750000001
  0
LINE
  8
_0-0_0
  6
CONTINUOUS
 62
    7
 10
-211.92088750000005
 20
498.5501865
 11
-211.83942050000007
 21
498.67948849999999
  0
ARC
  8
_0-0_0
  6
CONTINUOUS
 62
    7
 10
-218.64823850000005
 20
502.87947050000002
 40
8
 50
328.33175599999993
 51
334.05550899999992
  0
LINE
  8
_0-0_0
  6
CONTINUOUS
 62
    7
 10
-211.45449050000002
 20
499.37947050000002
 11
-211.36057549999998
 21
499.57948249999998
  0
LINE
  8
_0-0_0
  6
CONTINUOUS
 62
    7
 10
-211.36057549999998
 20
499.57948249999998
 11
-211.27328050000006
 21
499.77946450000002
  0
ARC
  8
_0-0_0
  6
CONTINUOUS
 62
    7
 10
-218.64823850000005
 20
502.87947050000002
 40
8
 50
337.20097500000003
 51
342.54240199999998
  0
LINE
  8
_0-0_0
  6
CONTINUOUS
 62
    7
 10
-211.01672250000001
 20
500.47947649999998
 11
-210.95668350000005
 21
500.67948849999999
  0
LINE
  8
_0-0_0
  6
CONTINUOUS
 62
    7
 10
-210.95668350000005
 20
500.67948849999999
 11
-210.90227149999998
 21
500.87947050000002
  0
ARC
  8
_0-0_0
  6
CONTINUOUS
 62
    7
 10
-218.64823850000005
 20
502.87947050000002
 40
8
 50
345.52249499999999
 51
350.64797900000002
  0
LINE
  8
_0-0_0
  6
CONTINUOUS
 62
    7
 10
-210.7545705
 20
501.57948249999998
 11
-210.72422349999999
 21
501.77946450000002
  0
LINE
  8
_0-0_0
  6
CONTINUOUS
 62
    7
 10
-210.72422349999999
 20
501.77946450000002
 11
-210.69902450000006
 21
501.97947649999998
  0
ARC
  8
_0-0_0
  6
CONTINUOUS
 62
    7
 10
-218.64823850000005
 20
502.87947050000002
 40
8
 50
353.54056400000002
 51
358.56744600000002
  0
LINE
  8
_0-0_0
  6
CONTINUOUS
 62
    7
 10
-210.65073749999999
 20
502.67948849999999
 11
-210.64823850000005
 21
502.87947050000002
  0
LINE
  8
_0-0_0
  6
CONTINUOUS
 62
    7
 10
-226.64792650000004
 20
502.8087615
 11
-226.64823850000005
 21
502.87947050000002
  0
LINE
  8
_0-0_0
  6
CONTINUOUS
 62
    7
 10
-226.64574049999999
 20
502.67948849999999
 11
-226.64792650000004
 21
502.8087615
  0
ARC
  8
_0-0_0
  6
CONTINUOUS
 62
    7
 10
-218.64823850000005
 20
502.87947050000002
 40
8
 50
181.432545
 51
186.45945499999999
  0
LINE
  8
_0-0_0
  6
CONTINUOUS
 62
    7
 10
-226.5817485
 20
501.85020450000002
 11
-226.59745350000003
 21
501.97947649999998
  0
LINE
  8
_0-0_0
  6
CONTINUOUS
 62
    7
 10
-226.5817485
 20
501.85020450000002
 11
-226.56211450000001
 21
501.70878549999998
  0
LINE
  8
_0-0_0
  6
CONTINUOUS
 62
    7
 10
-226.54190849999998
 20
501.57948249999998
 11
-226.56211450000001
 21
501.70878549999998
  0
ARC
  8
_0-0_0
  6
CONTINUOUS
 62
    7
 10
-218.64823850000005
 20
502.87947050000002
 40
8
 50
189.35203999999999
 51
194.47751
  0
LINE
  8
_0-0_0
  6
CONTINUOUS
 62
    7
 10
-226.3596685
 20
500.75019850000001
 11
-226.3942065
 21
500.87947050000002
  0
LINE
  8
_0-0_0
  6
CONTINUOUS
 62
    7
 10
-226.3596685
 20
500.75019850000001
 11
-226.31921350000005
 21
500.60877949999997
  0
LINE
  8
_0-0_0
  6
CONTINUOUS
 62
    7
 10
-226.27975049999998
 20
500.47947649999998
 11
-226.31921350000005
 21
500.60877949999997
  0
ARC
  8
_0-0_0
  6
CONTINUOUS
 62
    7
 10
-218.64823850000005
 20
502.87947050000002
 40
8
 50
197.45760300000001
 51
202.79902999999999
  0
LINE
  8
_0-0_0
  6
CONTINUOUS
 62
    7
 10
-225.96750650000001
 20
499.6501925
 11
-226.02319650000004
 21
499.77946450000002
  0
LINE
  8
_0-0_0
  6
CONTINUOUS
 62
    7
 10
-225.96750650000001
 20
499.6501925
 11
-225.90346550000004
 21
499.50877350000002
  0
LINE
  8
_0-0_0
  6
CONTINUOUS
 62
    7
 10
-225.84198750000007
 20
499.37947050000002
 11
-225.90346550000004
 21
499.50877350000002
  0
ARC
  8
_0-0_0
  6
CONTINUOUS
 62
    7
 10
-218.64823850000005
 20
502.87947050000002
 40
8
 50
205.94448199999999
 51
211.66823500000001
  0
LINE
  8
_0-0_0
  6
CONTINUOUS
 62
    7
 10
-225.37559150000004
 20
498.5501865
 11
-225.45705750000002
 21
498.67948849999999
  0
LINE
  8
_0-0_0
  6
CONTINUOUS
 62
    7
 10
-225.37559150000004
 20
498.5501865
 11
-225.28244749999999
 21
498.40876750000001
  0
LINE
  8
_0-0_0
  6
CONTINUOUS
 62
    7
 10
962.85186750000003
 20
490.57948249999998
 11
969.85186750000003
 21
490.57948249999998
  0
ARC
  8
_0-0_0
  6
CONTINUOUS
 62
    7
 10
962.85186750000003
 20
490.07948249999998
 40
0.5
 50
90.000003000000007
 51
180.00000900000001
  0
LINE
  8
_0-0_0
  6
CONTINUOUS
 62
    7
 10
962.35186750000003
 20
490.07948249999998
 11
962.35186750000003
 21
486.07948249999998
  0
ARC
  8
_0-0_0
  6
CONTINUOUS
 62
    7
 10
962.85186750000003
 20
486.07948249999998
 40
0.5
 50
180.00000900000003
 51
269.99999700000001
  0
LINE
  8
_0-0_0
  6
CONTINUOUS
 62
    7
 10
969.85186750000003
 20
485.57948249999998
 11
962.85186750000003
 21
485.57948249999998
  0
ARC
  8
_0-0_0
  6
CONTINUOUS
 62
    7
 10
969.85186750000003
 20
486.07948249999998
 40
0.5
 50
269.99999700000001
 51
0
  0
LINE
  8
_0-0_0
  6
CONTINUOUS
 62
    7
 10
970.35186750000003
 20
486.07948249999998
 11
970.35186750000003
 21
490.07948249999998
  0
ARC
  8
_0-0_0
  6
CONTINUOUS
 62
    7
 10
969.85186750000003
 20
490.07948249999998
 40
0.5
 50
0
 51
90.000003000000007
  0
ARC
  8
_0-0_0
  6
CONTINUOUS
 62
    7
 10
-177.14824250000004
 20
490.07948249999998
 40
0.5
 50
90.000003000000007
 51
180.00000900000001
  0
LINE
  8
_0-0_0
  6
CONTINUOUS
 62
    7
 10
-177.64824250000004
 20
490.07948249999998
 11
-177.64824250000004
 21
486.07948249999998
  0
ARC
  8
_0-0_0
  6
CONTINUOUS
 62
    7
 10
-177.14824250000004
 20
486.07948249999998
 40
0.5
 50
180.00000900000003
 51
269.99999700000001
  0
LINE
  8
_0-0_0
  6
CONTINUOUS
 62
    7
 10
-170.14824250000004
 20
485.57948249999998
 11
-177.14824250000004
 21
485.57948249999998
  0
ARC
  8
_0-0_0
  6
CONTINUOUS
 62
    7
 10
-170.14824250000004
 20
486.07948249999998
 40
0.5
 50
269.99999700000001
 51
0
  0
LINE
  8
_0-0_0
  6
CONTINUOUS
 62
    7
 10
-169.64824250000004
 20
486.07948249999998
 11
-169.64824250000004
 21
490.07948249999998
  0
ARC
  8
_0-0_0
  6
CONTINUOUS
 62
    7
 10
-170.14824250000004
 20
490.07948249999998
 40
0.5
 50
0
 51
90.000003000000007
  0
LINE
  8
_0-0_0
  6
CONTINUOUS
 62
    7
 10
-177.14824250000004
 20
490.57948249999998
 11
-170.14824250000004
 21
490.57948249999998
  0
LINE
  8
_0-0_0
  6
CONTINUOUS
 62
    7
 10
-211.83942050000007
 20
498.67948849999999
 11
1029.5430294999999
 21
498.67948849999999
  0
LINE
  8
_0-0_0
  6
CONTINUOUS
 62
    7
 10
-211.45449050000002
 20
499.37947050000002
 11
1029.1581424999999
 21
499.37947050000002
  0
LINE
  8
_0-0_0
  6
CONTINUOUS
 62
    7
 10
-211.36057549999998
 20
499.57948249999998
 11
1029.0641484999999
 21
499.57948249999998
  0
LINE
  8
_0-0_0
  6
CONTINUOUS
 62
    7
 10
-211.27328050000006
 20
499.77946450000002
 11
1028.9768675
 21
499.77946450000002
  0
LINE
  8
_0-0_0
  6
CONTINUOUS
 62
    7
 10
-211.01672250000001
 20
500.47947649999998
 11
1028.7203984999999
 21
500.47947649999998
  0
LINE
  8
_0-0_0
  6
CONTINUOUS
 62
    7
 10
-210.95668350000005
 20
500.67948849999999
 11
1028.6603395
 21
500.67948849999999
  0
LINE
  8
_0-0_0
  6
CONTINUOUS
 62
    7
 10
-210.90227149999998
 20
500.87947050000002
 11
1028.6058965
 21
500.87947050000002
  0
LINE
  8
_0-0_0
  6
CONTINUOUS
 62
    7
 10
-210.7545705
 20
501.57948249999998
 11
1028.4581914999999
 21
501.57948249999998
  0
LINE
  8
_0-0_0
  6
CONTINUOUS
 62
    7
 10
-210.72422349999999
 20
501.77946450000002
 11
1028.4277955
 21
501.77946450000002
  0
LINE
  8
_0-0_0
  6
CONTINUOUS
 62
    7
 10
-210.69902450000006
 20
501.97947649999998
 11
1028.4026495000001
 21
501.97947649999998
  0
LINE
  8
_0-0_0
  6
CONTINUOUS
 62
    7
 10
-210.65073749999999
 20
502.67948849999999
 11
1028.3543095
 21
502.67948849999999
  0
LINE
  8
_0-0_0
  6
CONTINUOUS
 62
    7
 10
-210.64823850000005
 20
502.87947050000002
 11
1028.3518675
 21
502.87947050000002
  0
LINE
  8
_0-0_0
  6
CONTINUOUS
 62
    7
 10
1042.8971555000001
 20
507.47947649999998
 11
1042.9860234999999
 21
507.35020450000002
  0
ARC
  8
_0-0_0
  6
CONTINUOUS
 62
    7
 10
1036.3518675
 20
502.87947050000002
 40
8
 50
35.099632
 51
144.900373
  0
LINE
  8
_0-0_0
  6
CONTINUOUS
 62
    7
 10
1029.8065795
 20
507.47947649999998
 11
1029.7177125000001
 21
507.35020450000002
  0
LINE
  8
_0-0_0
  6
CONTINUOUS
 62
    7
 10
1029.6245724999999
 20
507.20878549999998
 11
1029.7177125000001
 21
507.35020450000002
  0
LINE
  8
_0-0_0
  6
CONTINUOUS
 62
    7
 10
1029.6245724999999
 20
507.20878549999998
 11
1029.5430294999999
 21
507.07948249999998
  0
ARC
  8
_0-0_0
  6
CONTINUOUS
 62
    7
 10
1036.3518675
 20
502.87947050000002
 40
8
 50
148.33176499999999
 51
154.05551800000001
  0
LINE
  8
_0-0_0
  6
CONTINUOUS
 62
    7
 10
1029.1581424999999
 20
506.37947050000002
 11
1029.0641484999999
 21
506.17948849999999
  0
LINE
  8
_0-0_0
  6
CONTINUOUS
 62
    7
 10
1029.0641484999999
 20
506.17948849999999
 11
1028.9768675
 21
505.97947649999998
  0
ARC
  8
_0-0_0
  6
CONTINUOUS
 62
    7
 10
1036.3518675
 20
502.87947050000002
 40
8
 50
157.20097000000001
 51
162.54239699999999
  0
LINE
  8
_0-0_0
  6
CONTINUOUS
 62
    7
 10
1028.7203984999999
 20
505.27946450000002
 11
1028.6603395
 21
505.07948249999998
  0
LINE
  8
_0-0_0
  6
CONTINUOUS
 62
    7
 10
1028.6603395
 20
505.07948249999998
 11
1028.6058965
 21
504.87947050000002
  0
ARC
  8
_0-0_0
  6
CONTINUOUS
 62
    7
 10
1036.3518675
 20
502.87947050000002
 40
8
 50
165.52249
 51
170.64796000000001
  0
LINE
  8
_0-0_0
  6
CONTINUOUS
 62
    7
 10
1028.4581914999999
 20
504.17948849999999
 11
1028.4277955
 21
503.97947649999998
  0
LINE
  8
_0-0_0
  6
CONTINUOUS
 62
    7
 10
1028.4277955
 20
503.97947649999998
 11
1028.4026495000001
 21
503.77946450000002
  0
ARC
  8
_0-0_0
  6
CONTINUOUS
 62
    7
 10
1036.3518675
 20
502.87947050000002
 40
8
 50
173.54054500000001
 51
178.567455
  0
LINE
  8
_0-0_0
  6
CONTINUOUS
 62
    7
 10
1028.3543095
 20
503.07948249999998
 11
1028.3518675
 21
502.87947050000002
  0
LINE
  8
_0-0_0
  6
CONTINUOUS
 62
    7
 10
1044.3494264999999
 20
503.07948249999998
 11
1044.3518675
 21
502.87947050000002
  0
ARC
  8
_0-0_0
  6
CONTINUOUS
 62
    7
 10
1036.3518675
 20
502.87947050000002
 40
8
 50
1.432544
 51
6.4594489999999993
  0
LINE
  8
_0-0_0
  6
CONTINUOUS
 62
    7
 10
1044.2759404999999
 20
503.97947649999998
 11
1044.3010864999999
 21
503.77946450000002
  0
LINE
  8
_0-0_0
  6
CONTINUOUS
 62
    7
 10
1044.2455445000001
 20
504.17948849999999
 11
1044.2759404999999
 21
503.97947649999998
  0
ARC
  8
_0-0_0
  6
CONTINUOUS
 62
    7
 10
1036.3518675
 20
502.87947050000002
 40
8
 50
9.3520350000000008
 51
14.477510999999998
  0
LINE
  8
_0-0_0
  6
CONTINUOUS
 62
    7
 10
1044.0433965
 20
505.07948249999998
 11
1044.0978395
 21
504.87947050000002
  0
LINE
  8
_0-0_0
  6
CONTINUOUS
 62
    7
 10
1043.9833375000001
 20
505.27946450000002
 11
1044.0433965
 21
505.07948249999998
  0
ARC
  8
_0-0_0
  6
CONTINUOUS
 62
    7
 10
1036.3518675
 20
502.87947050000002
 40
8
 50
17.457602999999999
 51
22.799030999999999
  0
LINE
  8
_0-0_0
  6
CONTINUOUS
 62
    7
 10
1043.6395875000001
 20
506.17948849999999
 11
1043.7268675
 21
505.97947649999998
  0
LINE
  8
_0-0_0
  6
CONTINUOUS
 62
    7
 10
1043.5455935
 20
506.37947050000002
 11
1043.6395875000001
 21
506.17948849999999
  0
ARC
  8
_0-0_0
  6
CONTINUOUS
 62
    7
 10
1036.3518675
 20
502.87947050000002
 40
8
 50
25.944476999999999
 51
31.668240000000001
  0
LINE
  8
_0-0_0
  6
CONTINUOUS
 62
    7
 10
1043.0791624999999
 20
507.20878549999998
 11
1043.1607054999999
 21
507.07948249999998
  0
LINE
  8
_0-0_0
  6
CONTINUOUS
 62
    7
 10
1043.0791624999999
 20
507.20878549999998
 11
1042.9860234999999
 21
507.35020450000002
  0
CIRCLE
  8
_0-0_0
  6
CONTINUOUS
 62
    7
 10
1036.3518675
 20
502.87947050000002
 40
7.5
  0
LINE
  8
_0-0_0
  6
CONTINUOUS
 62
    7
 10
1044.3494264999999
 20
502.67948849999999
 11
1045.3518675
 21
502.67948849999999
  0
LINE
  8
_0-0_0
  6
CONTINUOUS
 62
    7
 10
1044.3518675
 20
502.87947050000002
 11
1045.3518675
 21
502.87947050000002
  0
LINE
  8
_0-0_0
  6
CONTINUOUS
 62
    7
 10
1044.3010864999999
 20
501.97947649999998
 11
1045.3518675
 21
501.97947649999998
  0
LINE
  8
_0-0_0
  6
CONTINUOUS
 62
    7
 10
1044.2759404999999
 20
501.77946450000002
 11
1045.3518675
 21
501.77946450000002
  0
LINE
  8
_0-0_0
  6
CONTINUOUS
 62
    7
 10
1044.2455445000001
 20
501.57948249999998
 11
1045.3518675
 21
501.57948249999998
  0
LINE
  8
_0-0_0
  6
CONTINUOUS
 62
    7
 10
1044.0978395
 20
500.87947050000002
 11
1045.3518675
 21
500.87947050000002
  0
LINE
  8
_0-0_0
  6
CONTINUOUS
 62
    7
 10
1044.0433965
 20
500.67948849999999
 11
1045.3518675
 21
500.67948849999999
  0
LINE
  8
_0-0_0
  6
CONTINUOUS
 62
    7
 10
1043.9833375000001
 20
500.47947649999998
 11
1045.3518675
 21
500.47947649999998
  0
LINE
  8
_0-0_0
  6
CONTINUOUS
 62
    7
 10
1043.7268675
 20
499.77946450000002
 11
1045.3518675
 21
499.77946450000002
  0
LINE
  8
_0-0_0
  6
CONTINUOUS
 62
    7
 10
1043.6395875000001
 20
499.57948249999998
 11
1045.3518675
 21
499.57948249999998
  0
LINE
  8
_0-0_0
  6
CONTINUOUS
 62
    7
 10
1043.5455935
 20
499.37947050000002
 11
1045.3518675
 21
499.37947050000002
  0
LINE
  8
_0-0_0
  6
CONTINUOUS
 62
    7
 10
1043.1607054999999
 20
498.67948849999999
 11
1045.3518675
 21
498.67948849999999
  0
LINE
  8
_0-0_0
  6
CONTINUOUS
 62
    7
 10
1043.1607054999999
 20
507.07948249999998
 11
1045.3518675
 21
507.07948249999998
  0
LINE
  8
_0-0_0
  6
CONTINUOUS
 62
    7
 10
1043.5455935
 20
506.37947050000002
 11
1045.3518675
 21
506.37947050000002
  0
LINE
  8
_0-0_0
  6
CONTINUOUS
 62
    7
 10
1043.6395875000001
 20
506.17948849999999
 11
1045.3518675
 21
506.17948849999999
  0
LINE
  8
_0-0_0
  6
CONTINUOUS
 62
    7
 10
1043.7268675
 20
505.97947649999998
 11
1045.3518675
 21
505.97947649999998
  0
LINE
  8
_0-0_0
  6
CONTINUOUS
 62
    7
 10
1043.9833375000001
 20
505.27946450000002
 11
1045.3518675
 21
505.27946450000002
  0
LINE
  8
_0-0_0
  6
CONTINUOUS
 62
    7
 10
1044.0433965
 20
505.07948249999998
 11
1045.3518675
 21
505.07948249999998
  0
LINE
  8
_0-0_0
  6
CONTINUOUS
 62
    7
 10
1044.0978395
 20
504.87947050000002
 11
1045.3518675
 21
504.87947050000002
  0
LINE
  8
_0-0_0
  6
CONTINUOUS
 62
    7
 10
1044.2455445000001
 20
504.17948849999999
 11
1045.3518675
 21
504.17948849999999
  0
LINE
  8
_0-0_0
  6
CONTINUOUS
 62
    7
 10
1044.2759404999999
 20
503.97947649999998
 11
1045.3518675
 21
503.97947649999998
  0
LINE
  8
_0-0_0
  6
CONTINUOUS
 62
    7
 10
1044.3010864999999
 20
503.77946450000002
 11
1045.3518675
 21
503.77946450000002
  0
LINE
  8
_0-0_0
  6
CONTINUOUS
 62
    7
 10
1044.3494264999999
 20
503.07948249999998
 11
1045.3518675
 21
503.07948249999998
  0
LINE
  8
_0-0_0
  6
CONTINUOUS
 62
    7
 10
1045.8518675
 20
486.37947050000002
 11
1045.3518675
 21
486.37947050000002
  0
LINE
  8
_0-0_0
  6
CONTINUOUS
 62
    7
 10
1045.8518675
 20
488.57948249999998
 11
1045.3518675
 21
488.57948249999998
  0
LINE
  8
_0-0_0
  6
CONTINUOUS
 62
    7
 10
1045.8518675
 20
490.87947050000002
 11
1045.3518675
 21
490.87947050000002
  0
LINE
  8
_0-0_0
  6
CONTINUOUS
 62
    7
 10
-227.64823850000005
 20
490.87947050000002
 11
-228.14823850000005
 21
490.87947050000002
  0
LINE
  8
_0-0_0
  6
CONTINUOUS
 62
    7
 10
1045.3518675
 20
493.17948849999999
 11
1045.8518675
 21
493.17948849999999
  0
LINE
  8
_0-0_0
  6
CONTINUOUS
 62
    7
 10
1045.8518675
 20
513.37947050000002
 11
1045.8518675
 21
513.27946450000002
  0
LINE
  8
_0-0_0
  6
CONTINUOUS
 62
    7
 10
-228.14823850000005
 20
513.37947050000002
 11
-228.14823850000005
 21
513.27946450000002
  0
LINE
  8
_0-0_0
  6
CONTINUOUS
 62
    7
 10
-228.14823850000005
 20
493.17948849999999
 11
-227.64823850000005
 21
493.17948849999999
  0
LINE
  8
_0-0_0
  6
CONTINUOUS
 62
    7
 10
-227.64823850000005
 20
513.07948250000004
 11
1045.3518675
 21
513.07948250000004
  0
LINE
  8
_0-0_0
  6
CONTINUOUS
 62
    7
 10
-227.64823850000005
 20
512.48551950000001
 11
1045.3518675
 21
512.48551950000001
  0
LINE
  8
_0-0_0
  6
CONTINUOUS
 62
    7
 10
1042.8971555000001
 20
507.47947649999998
 11
1045.3518675
 21
507.47947649999998
  0
LINE
  8
_0-0_0
  6
CONTINUOUS
 62
    7
 10
-227.64823850000005
 20
507.47947649999998
 11
-225.1934665
 21
507.47947649999998
  0
ARC
  8
_0-0_0
  6
CONTINUOUS
 62
    7
 10
-218.64823850000005
 20
502.87947050000002
 40
8
 50
35.099632
 51
144.900373
  0
LINE
  8
_0-0_0
  6
CONTINUOUS
 62
    7
 10
-212.10301149999998
 20
507.47947649999998
 11
1029.8065795
 21
507.47947649999998
  0
LINE
  8
_0-0_0
  6
CONTINUOUS
 62
    7
 10
-228.14823850000005
 20
486.37947050000002
 11
-227.64824250000004
 21
486.37947050000002
  0
LINE
  8
_0-0_0
  6
CONTINUOUS
 62
    7
 10
-227.64823850000005
 20
488.57948249999998
 11
-228.14823850000005
 21
488.57948249999998
  0
LINE
  8
_0-0_0
  6
CONTINUOUS
 62
    7
 10
-225.1934665
 20
507.47947649999998
 11
-225.28244749999999
 21
507.35020450000002
  0
LINE
  8
_0-0_0
  6
CONTINUOUS
 62
    7
 10
-225.37559150000004
 20
507.20878549999998
 11
-225.28244749999999
 21
507.35020450000002
  0
LINE
  8
_0-0_0
  6
CONTINUOUS
 62
    7
 10
-227.64823850000005
 20
507.07948249999998
 11
-225.45705750000002
 21
507.07948249999998
  0
LINE
  8
_0-0_0
  6
CONTINUOUS
 62
    7
 10
-225.37559150000004
 20
507.20878549999998
 11
-225.45705750000002
 21
507.07948249999998
  0
ARC
  8
_0-0_0
  6
CONTINUOUS
 62
    7
 10
-218.64823850000005
 20
502.87947050000002
 40
8
 50
148.33176499999999
 51
154.05551800000001
  0
LINE
  8
_0-0_0
  6
CONTINUOUS
 62
    7
 10
-227.64823850000005
 20
506.37947050000002
 11
-225.84198750000007
 21
506.37947050000002
  0
LINE
  8
_0-0_0
  6
CONTINUOUS
 62
    7
 10
-225.84198750000007
 20
506.37947050000002
 11
-225.90346550000004
 21
506.25019850000001
  0
LINE
  8
_0-0_0
  6
CONTINUOUS
 62
    7
 10
-225.96750650000001
 20
506.10877949999997
 11
-225.90346550000004
 21
506.25019850000001
  0
LINE
  8
_0-0_0
  6
CONTINUOUS
 62
    7
 10
-227.64823850000005
 20
505.97947649999998
 11
-226.02319650000004
 21
505.97947649999998
  0
LINE
  8
_0-0_0
  6
CONTINUOUS
 62
    7
 10
-225.96750650000001
 20
506.10877949999997
 11
-226.02319650000004
 21
505.97947649999998
  0
ARC
  8
_0-0_0
  6
CONTINUOUS
 62
    7
 10
-218.64823850000005
 20
502.87947050000002
 40
8
 50
157.20097000000001
 51
162.54239699999999
  0
LINE
  8
_0-0_0
  6
CONTINUOUS
 62
    7
 10
-227.64823850000005
 20
505.27946450000002
 11
-226.27975049999998
 21
505.27946450000002
  0
LINE
  8
_0-0_0
  6
CONTINUOUS
 62
    7
 10
-226.27975049999998
 20
505.27946450000002
 11
-226.31921350000005
 21
505.1501925
  0
LINE
  8
_0-0_0
  6
CONTINUOUS
 62
    7
 10
-226.3596685
 20
505.00877350000002
 11
-226.31921350000005
 21
505.1501925
  0
LINE
  8
_0-0_0
  6
CONTINUOUS
 62
    7
 10
-227.64823850000005
 20
504.87947050000002
 11
-226.3942065
 21
504.87947050000002
  0
LINE
  8
_0-0_0
  6
CONTINUOUS
 62
    7
 10
-226.3596685
 20
505.00877350000002
 11
-226.3942065
 21
504.87947050000002
  0
ARC
  8
_0-0_0
  6
CONTINUOUS
 62
    7
 10
-218.64823850000005
 20
502.87947050000002
 40
8
 50
165.52249
 51
170.64796000000001
  0
LINE
  8
_0-0_0
  6
CONTINUOUS
 62
    7
 10
-227.64823850000005
 20
504.17948849999999
 11
-226.54190849999998
 21
504.17948849999999
  0
LINE
  8
_0-0_0
  6
CONTINUOUS
 62
    7
 10
-226.54190849999998
 20
504.17948849999999
 11
-226.56211450000001
 21
504.0501865
  0
LINE
  8
_0-0_0
  6
CONTINUOUS
 62
    7
 10
-226.5817485
 20
503.90876750000001
 11
-226.56211450000001
 21
504.0501865
  0
LINE
  8
_0-0_0
  6
CONTINUOUS
 62
    7
 10
-227.64823850000005
 20
503.77946450000002
 11
-226.59745350000003
 21
503.77946450000002
  0
LINE
  8
_0-0_0
  6
CONTINUOUS
 62
    7
 10
-226.5817485
 20
503.90876750000001
 11
-226.59745350000003
 21
503.77946450000002
  0
ARC
  8
_0-0_0
  6
CONTINUOUS
 62
    7
 10
-218.64823850000005
 20
502.87947050000002
 40
8
 50
173.54054500000001
 51
178.567455
  0
LINE
  8
_0-0_0
  6
CONTINUOUS
 62
    7
 10
-227.64823850000005
 20
503.07948249999998
 11
-226.64574049999999
 21
503.07948249999998
  0
LINE
  8
_0-0_0
  6
CONTINUOUS
 62
    7
 10
-226.64574049999999
 20
503.07948249999998
 11
-226.64792650000004
 21
502.95017949999999
  0
LINE
  8
_0-0_0
  6
CONTINUOUS
 62
    7
 10
-226.64823850000005
 20
502.87947050000002
 11
-226.64792650000004
 21
502.95017949999999
  0
LINE
  8
_0-0_0
  6
CONTINUOUS
 62
    7
 10
-227.64823850000005
 20
502.67948849999999
 11
-226.64574049999999
 21
502.67948849999999
  0
LINE
  8
_0-0_0
  6
CONTINUOUS
 62
    7
 10
-227.64823850000005
 20
501.97947649999998
 11
-226.59745350000003
 21
501.97947649999998
  0
LINE
  8
_0-0_0
  6
CONTINUOUS
 62
    7
 10
-227.64823850000005
 20
501.57948249999998
 11
-226.54190849999998
 21
501.57948249999998
  0
LINE
  8
_0-0_0
  6
CONTINUOUS
 62
    7
 10
-227.64823850000005
 20
500.87947050000002
 11
-226.3942065
 21
500.87947050000002
  0
LINE
  8
_0-0_0
  6
CONTINUOUS
 62
    7
 10
-227.64823850000005
 20
500.47947649999998
 11
-226.27975049999998
 21
500.47947649999998
  0
LINE
  8
_0-0_0
  6
CONTINUOUS
 62
    7
 10
-227.64823850000005
 20
499.77946450000002
 11
-226.02319650000004
 21
499.77946450000002
  0
LINE
  8
_0-0_0
  6
CONTINUOUS
 62
    7
 10
-227.64823850000005
 20
499.37947050000002
 11
-225.84198750000007
 21
499.37947050000002
  0
LINE
  8
_0-0_0
  6
CONTINUOUS
 62
    7
 10
-227.64823850000005
 20
498.67948849999999
 11
-225.45705750000002
 21
498.67948849999999
  0
LINE
  8
_0-0_0
  6
CONTINUOUS
 62
    7
 10
-210.65073749999999
 20
503.07948249999998
 11
-210.64823850000005
 21
502.87947050000002
  0
ARC
  8
_0-0_0
  6
CONTINUOUS
 62
    7
 10
-218.64823850000005
 20
502.87947050000002
 40
8
 50
1.432544
 51
6.4594489999999993
  0
LINE
  8
_0-0_0
  6
CONTINUOUS
 62
    7
 10
-210.72422349999999
 20
503.97947649999998
 11
-210.69902450000006
 21
503.77946450000002
  0
LINE
  8
_0-0_0
  6
CONTINUOUS
 62
    7
 10
-210.7545705
 20
504.17948849999999
 11
-210.72422349999999
 21
503.97947649999998
  0
ARC
  8
_0-0_0
  6
CONTINUOUS
 62
    7
 10
-218.64823850000005
 20
502.87947050000002
 40
8
 50
9.3520350000000008
 51
14.477510999999998
  0
LINE
  8
_0-0_0
  6
CONTINUOUS
 62
    7
 10
-210.95668350000005
 20
505.07948249999998
 11
-210.90227149999998
 21
504.87947050000002
  0
LINE
  8
_0-0_0
  6
CONTINUOUS
 62
    7
 10
-211.01672250000001
 20
505.27946450000002
 11
-210.95668350000005
 21
505.07948249999998
  0
ARC
  8
_0-0_0
  6
CONTINUOUS
 62
    7
 10
-218.64823850000005
 20
502.87947050000002
 40
8
 50
17.457602999999999
 51
22.799030999999999
  0
LINE
  8
_0-0_0
  6
CONTINUOUS
 62
    7
 10
-211.36057549999998
 20
506.17948849999999
 11
-211.27328050000006
 21
505.97947649999998
  0
LINE
  8
_0-0_0
  6
CONTINUOUS
 62
    7
 10
-211.45449050000002
 20
506.37947050000002
 11
-211.36057549999998
 21
506.17948849999999
  0
ARC
  8
_0-0_0
  6
CONTINUOUS
 62
    7
 10
-218.64823850000005
 20
502.87947050000002
 40
8
 50
25.944476999999999
 51
31.668240000000001
  0
LINE
  8
_0-0_0
  6
CONTINUOUS
 62
    7
 10
-211.92088750000005
 20
507.20878549999998
 11
-211.83942050000007
 21
507.07948249999998
  0
LINE
  8
_0-0_0
  6
CONTINUOUS
 62
    7
 10
-211.92088750000005
 20
507.20878549999998
 11
-212.0140255
 21
507.35020450000002
  0
LINE
  8
_0-0_0
  6
CONTINUOUS
 62
    7
 10
-212.10301149999998
 20
507.47947649999998
 11
-212.0140255
 21
507.35020450000002
  0
CIRCLE
  8
_0-0_0
  6
CONTINUOUS
 62
    7
 10
-218.64823850000005
 20
502.87947050000002
 40
7.5
  0
LINE
  8
_0-0_0
  6
CONTINUOUS
 62
    7
 10
-210.65073749999999
 20
503.07948249999998
 11
1028.3543095
 21
503.07948249999998
  0
LINE
  8
_0-0_0
  6
CONTINUOUS
 62
    7
 10
-210.69902450000006
 20
503.77946450000002
 11
1028.4026495000001
 21
503.77946450000002
  0
LINE
  8
_0-0_0
  6
CONTINUOUS
 62
    7
 10
-210.72422349999999
 20
503.97947649999998
 11
1028.4277955
 21
503.97947649999998
  0
LINE
  8
_0-0_0
  6
CONTINUOUS
 62
    7
 10
-210.7545705
 20
504.17948849999999
 11
1028.4581914999999
 21
504.17948849999999
  0
LINE
  8
_0-0_0
  6
CONTINUOUS
 62
    7
 10
-210.90227149999998
 20
504.87947050000002
 11
1028.6058965
 21
504.87947050000002
  0
LINE
  8
_0-0_0
  6
CONTINUOUS
 62
    7
 10
-210.95668350000005
 20
505.07948249999998
 11
1028.6603395
 21
505.07948249999998
  0
LINE
  8
_0-0_0
  6
CONTINUOUS
 62
    7
 10
-211.01672250000001
 20
505.27946450000002
 11
1028.7203984999999
 21
505.27946450000002
  0
LINE
  8
_0-0_0
  6
CONTINUOUS
 62
    7
 10
-211.27328050000006
 20
505.97947649999998
 11
1028.9768675
 21
505.97947649999998
  0
LINE
  8
_0-0_0
  6
CONTINUOUS
 62
    7
 10
-211.36057549999998
 20
506.17948849999999
 11
1029.0641484999999
 21
506.17948849999999
  0
LINE
  8
_0-0_0
  6
CONTINUOUS
 62
    7
 10
-211.45449050000002
 20
506.37947050000002
 11
1029.1581424999999
 21
506.37947050000002
  0
LINE
  8
_0-0_0
  6
CONTINUOUS
 62
    7
 10
-211.83942050000007
 20
507.07948249999998
 11
1029.5430294999999
 21
507.07948249999998
  0
LINE
  8
_0-0_0
  6
CONTINUOUS
 62
    7
 10
1045.8518675
 20
484.87947050000002
 11
1045.3518675
 21
484.87947050000002
  0
LINE
  8
_0-0_0
  6
CONTINUOUS
 62
    7
 10
1045.8518675
 20
512.47947649999992
 11
1045.8518675
 21
513.27946450000002
  0
LINE
  8
_0-0_0
  6
CONTINUOUS
 62
    7
 10
1045.8518675
 20
484.67948849999999
 11
1045.8518675
 21
512.47947649999992
  0
ARC
  8
_0-0_0
  6
CONTINUOUS
 62
    7
 10
1036.3518675
 20
503.57948249999998
 40
12.800000000000001
 50
73.932597000000001
 51
106.06740099999999
  0
LINE
  8
_0-0_0
  6
CONTINUOUS
 62
    7
 10
-228.14823850000005
 20
512.47947649999992
 11
-228.14823850000005
 21
513.27946450000002
  0
LINE
  8
_0-0_0
  6
CONTINUOUS
 62
    7
 10
-228.14823850000005
 20
484.67948849999999
 11
-228.14823850000005
 21
512.47947649999992
  0
ARC
  8
_0-0_0
  6
CONTINUOUS
 62
    7
 10
-218.64823850000005
 20
503.57948249999998
 40
12.800000000000001
 50
73.932597000000001
 51
106.06740099999999
  0
LINE
  8
_0-0_0
  6
CONTINUOUS
 62
    7
 10
399.35174549999999
 20
515.87947050000002
 11
399.35174549999999
 21
521.51939349999998
  0
LINE
  8
_0-0_0
  6
CONTINUOUS
 62
    7
 10
418.35174549999999
 20
521.51939349999998
 11
418.35174549999999
 21
515.87947050000002
  0
LINE
  8
_0-0_0
  6
CONTINUOUS
 62
    7
 10
1045.8518675
 20
513.37947050000002
 11
1045.8518675
 21
515.87947050000002
  0
LINE
  8
_0-0_0
  6
CONTINUOUS
 62
    7
 10
-228.14823850000005
 20
515.87947050000002
 11
1045.8518675
 21
515.87947050000002
  0
LINE
  8
_0-0_0
  6
CONTINUOUS
 62
    7
 10
-228.14823850000005
 20
513.37947050000002
 11
-228.14823850000005
 21
515.87947050000002
  0
LINE
  8
_0-0_0
  6
CONTINUOUS
 62
    7
 10
-228.14823850000005
 20
484.87947050000002
 11
-227.64824250000004
 21
484.87947050000002
  0
ARC
  8
_0-0_0
  6
CONTINUOUS
 62
    7
 10
967.65191649999997
 20
489.77946450000002
 40
0.2
 50
339.62356199999999
 51
90.000002999999978
  0
LINE
  8
_0-0_0
  6
CONTINUOUS
 62
    7
 10
967.83929450000005
 20
489.70985350000001
 11
966.53936750000003
 21
486.20985350000001
  0
ARC
  8
_0-0_0
  6
CONTINUOUS
 62
    7
 10
966.35186750000003
 20
486.27946450000002
 40
0.2
 50
200.37643
 51
339.62356199999999
  0
LINE
  8
_0-0_0
  6
CONTINUOUS
 62
    7
 10
964.86444149999988
 20
489.70985350000001
 11
966.16436750000003
 21
486.20985350000001
  0
ARC
  8
_0-0_0
  6
CONTINUOUS
 62
    7
 10
965.05181949999997
 20
489.77946450000002
 40
0.2
 50
90.000003000000007
 51
200.37643
  0
LINE
  8
_0-0_0
  6
CONTINUOUS
 62
    7
 10
965.05181949999997
 20
489.97947649999998
 11
967.65191649999997
 21
489.97947649999998
  0
ARC
  8
_0-0_0
  6
CONTINUOUS
 62
    7
 10
-172.34823949999998
 20
489.77946450000002
 40
0.2
 50
339.62356199999999
 51
90.000002999999978
  0
LINE
  8
_0-0_0
  6
CONTINUOUS
 62
    7
 10
-172.16075450000005
 20
489.70985350000001
 11
-173.4607585
 21
486.20985350000001
  0
ARC
  8
_0-0_0
  6
CONTINUOUS
 62
    7
 10
-173.64824250000004
 20
486.27946450000002
 40
0.2
 50
200.37643
 51
339.62356199999999
  0
LINE
  8
_0-0_0
  6
CONTINUOUS
 62
    7
 10
-175.13572250000004
 20
489.70985350000001
 11
-173.83572750000008
 21
486.20985350000001
  0
ARC
  8
_0-0_0
  6
CONTINUOUS
 62
    7
 10
-174.9482385
 20
489.77946450000002
 40
0.2
 50
90.000003000000007
 51
200.37643
  0
LINE
  8
_0-0_0
  6
CONTINUOUS
 62
    7
 10
-174.9482385
 20
489.97947649999998
 11
-172.34823949999998
 21
489.97947649999998
  0
LINE
  8
_0-0_0
  6
CONTINUOUS
 62
    7
 10
1046.8518675
 20
512.47947649999992
 11
1045.8518675
 21
512.47947649999992
  0
LINE
  8
_0-0_0
  6
CONTINUOUS
 62
    7
 10
1046.8518675
 20
513.51646449999998
 11
1045.8518675
 21
513.51646449999998
  0
LINE
  8
_0-0_0
  6
CONTINUOUS
 62
    7
 10
1046.8518675
 20
484.67948849999999
 11
1045.8518675
 21
484.67948849999999
  0
ARC
  8
_0-0_0
  6
CONTINUOUS
 62
    7
 10
408.85174549999999
 20
503.57948249999998
 40
20.299999
 50
62.096725999999997
 51
117.903272
  0
CIRCLE
  8
_0-0_0
  6
CONTINUOUS
 62
    7
 10
408.85174549999999
 20
519.87947050000002
 40
2.5
  0
LINE
  8
_0-0_0
  6
CONTINUOUS
 62
    7
 10
-229.14823850000005
 20
512.47947649999992
 11
-228.14823850000005
 21
512.47947649999992
  0
LINE
  8
_0-0_0
  6
CONTINUOUS
 62
    7
 10
-229.14823850000005
 20
513.47947649999992
 11
-228.14823850000005
 21
513.47947649999992
  0
LINE
  8
_0-0_0
  6
CONTINUOUS
 62
    7
 10
-229.14823850000005
 20
484.67948849999999
 11
-228.14823850000005
 21
484.67948849999999
  0
LINE
  8
_0-0_0
  6
CONTINUOUS
 62
    7
 10
1046.8518675
 20
515.67948849999993
 11
1045.8518675
 21
515.67948849999993
  0
LINE
  8
_0-0_0
  6
CONTINUOUS
 62
    7
 10
-229.14823850000005
 20
515.67948849999993
 11
-228.14823850000005
 21
515.67948849999993
  0
LINE
  8
_0-0_0
  6
CONTINUOUS
 62
    7
 10
1047.8518675
 20
512.06526150000002
 11
1047.8508915
 21
512.08378549999998
  0
LINE
  8
_0-0_0
  6
CONTINUOUS
 62
    7
 10
1047.8508915
 20
512.08378549999998
 11
1047.8478395
 21
512.10221849999994
  0
LINE
  8
_0-0_0
  6
CONTINUOUS
 62
    7
 10
1047.8478395
 20
512.10221849999994
 11
1047.8425904999999
 21
512.12135250000006
  0
LINE
  8
_0-0_0
  6
CONTINUOUS
 62
    7
 10
1047.8425904999999
 20
512.12135250000006
 11
1047.8352665
 21
512.14036549999992
  0
LINE
  8
_0-0_0
  6
CONTINUOUS
 62
    7
 10
1047.8352665
 20
512.14036549999992
 11
1047.8147584999999
 21
512.17707849999999
  0
LINE
  8
_0-0_0
  6
CONTINUOUS
 62
    7
 10
1047.8147584999999
 20
512.17707849999999
 11
1047.7863164999999
 21
512.21275349999996
  0
LINE
  8
_0-0_0
  6
CONTINUOUS
 62
    7
 10
1047.7863164999999
 20
512.21275349999996
 11
1047.7504274999999
 21
512.24705449999999
  0
LINE
  8
_0-0_0
  6
CONTINUOUS
 62
    7
 10
1047.7504274999999
 20
512.24705449999999
 11
1047.7018435
 21
512.2835235
  0
LINE
  8
_0-0_0
  6
CONTINUOUS
 62
    7
 10
1047.7018435
 20
512.2835235
 11
1047.6450804999999
 21
512.3175195
  0
LINE
  8
_0-0_0
  6
CONTINUOUS
 62
    7
 10
1047.6450804999999
 20
512.3175195
 11
1047.5808715000001
 21
512.3487695
  0
LINE
  8
_0-0_0
  6
CONTINUOUS
 62
    7
 10
1047.5808715000001
 20
512.3487695
 11
1047.5101935
 21
512.37702949999994
  0
LINE
  8
_0-0_0
  6
CONTINUOUS
 62
    7
 10
1047.5101935
 20
512.37702949999994
 11
1047.4620975
 21
512.39338650000002
  0
LINE
  8
_0-0_0
  6
CONTINUOUS
 62
    7
 10
1047.4620975
 20
512.39338650000002
 11
1047.4120485000001
 21
512.40837050000005
  0
LINE
  8
_0-0_0
  6
CONTINUOUS
 62
    7
 10
1047.4120485000001
 20
512.40837050000005
 11
1047.3552855
 21
512.42314149999993
  0
LINE
  8
_0-0_0
  6
CONTINUOUS
 62
    7
 10
1047.3552855
 20
512.42314149999993
 11
1047.2966925000001
 21
512.43623350000007
  0
LINE
  8
_0-0_0
  6
CONTINUOUS
 62
    7
 10
1047.2966925000001
 20
512.43623350000007
 11
1047.1798704999999
 21
512.45655850000003
  0
LINE
  8
_0-0_0
  6
CONTINUOUS
 62
    7
 10
1047.1798704999999
 20
512.45655850000003
 11
1047.0725705
 21
512.46928350000007
  0
LINE
  8
_0-0_0
  6
CONTINUOUS
 62
    7
 10
1047.0725705
 20
512.46928350000007
 11
1046.9627075000001
 21
512.47691350000002
  0
LINE
  8
_0-0_0
  6
CONTINUOUS
 62
    7
 10
1046.9627075000001
 20
512.47691350000002
 11
1046.8518675
 21
512.47947649999992
  0
LINE
  8
_0-0_0
  6
CONTINUOUS
 62
    7
 10
1047.8518675
 20
512.06526150000002
 11
1047.8518675
 21
513.06532249999998
  0
LINE
  8
_0-0_0
  6
CONTINUOUS
 62
    7
 10
1047.8518675
 20
513.06532249999998
 11
1047.8489385
 21
513.09690849999993
  0
LINE
  8
_0-0_0
  6
CONTINUOUS
 62
    7
 10
1047.8489385
 20
513.09690849999993
 11
1047.8402715
 21
513.12898250000001
  0
LINE
  8
_0-0_0
  6
CONTINUOUS
 62
    7
 10
1047.8402715
 20
513.12898250000001
 11
1047.8257444999999
 21
513.16123949999997
  0
LINE
  8
_0-0_0
  6
CONTINUOUS
 62
    7
 10
1047.8257444999999
 20
513.16123949999997
 11
1047.8054815
 21
513.19340450000004
  0
LINE
  8
_0-0_0
  6
CONTINUOUS
 62
    7
 10
1047.8054815
 20
513.19340450000004
 11
1047.7888794999999
 21
513.21464549999996
  0
LINE
  8
_0-0_0
  6
CONTINUOUS
 62
    7
 10
1047.7888794999999
 20
513.21464549999996
 11
1047.7699585
 21
513.23558049999997
  0
LINE
  8
_0-0_0
  6
CONTINUOUS
 62
    7
 10
1047.7699585
 20
513.23558049999997
 11
1047.7251584999999
 21
513.27638249999995
  0
LINE
  8
_0-0_0
  6
CONTINUOUS
 62
    7
 10
1047.7251584999999
 20
513.27638249999995
 11
1047.6719364999999
 21
513.31510950000006
  0
LINE
  8
_0-0_0
  6
CONTINUOUS
 62
    7
 10
1047.6719364999999
 20
513.31510950000006
 11
1047.6220094999999
 21
513.34532149999995
  0
LINE
  8
_0-0_0
  6
CONTINUOUS
 62
    7
 10
1047.6220094999999
 20
513.34532149999995
 11
1047.5673214999999
 21
513.37355049999996
  0
LINE
  8
_0-0_0
  6
CONTINUOUS
 62
    7
 10
1047.5673214999999
 20
513.37355049999996
 11
1047.5083614999999
 21
513.39958150000007
  0
LINE
  8
_0-0_0
  6
CONTINUOUS
 62
    7
 10
1047.5083614999999
 20
513.39958150000007
 11
1047.4616094999999
 21
513.41758750000008
  0
LINE
  8
_0-0_0
  6
CONTINUOUS
 62
    7
 10
1047.4616094999999
 20
513.41758750000008
 11
1047.4129035000001
 21
513.4341885
  0
LINE
  8
_0-0_0
  6
CONTINUOUS
 62
    7
 10
1047.4129035000001
 20
513.4341885
 11
1047.3104865
 21
513.46305849999999
  0
LINE
  8
_0-0_0
  6
CONTINUOUS
 62
    7
 10
1047.3104865
 20
513.46305849999999
 11
1047.2028204999999
 21
513.48588549999999
  0
LINE
  8
_0-0_0
  6
CONTINUOUS
 62
    7
 10
1047.2028204999999
 20
513.48588549999999
 11
1047.0911254999999
 21
513.50248749999992
  0
LINE
  8
_0-0_0
  6
CONTINUOUS
 62
    7
 10
1047.0911254999999
 20
513.50248749999992
 11
1046.9771114999999
 21
513.51267949999999
  0
LINE
  8
_0-0_0
  6
CONTINUOUS
 62
    7
 10
1046.9771114999999
 20
513.51267949999999
 11
1046.8518675
 21
513.51646449999998
  0
ARC
  8
_0-0_0
  6
CONTINUOUS
 62
    7
 10
1046.8518675
 20
485.67948849999999
 40
1
 50
269.99999700000001
 51
0
  0
LINE
  8
_0-0_0
  6
CONTINUOUS
 62
    7
 10
1047.8518675
 20
485.67948849999999
 11
1047.8518675
 21
512.06526150000002
  0
LINE
  8
_0-0_0
  6
CONTINUOUS
 62
    7
 10
-230.14823850000005
 20
512.06526150000002
 11
-230.14723950000007
 21
512.08378549999998
  0
LINE
  8
_0-0_0
  6
CONTINUOUS
 62
    7
 10
-230.14723950000007
 20
512.08378549999998
 11
-230.14424150000002
 21
512.10221849999994
  0
LINE
  8
_0-0_0
  6
CONTINUOUS
 62
    7
 10
-230.14424150000002
 20
512.10221849999994
 11
-230.13900350000006
 21
512.12135250000006
  0
LINE
  8
_0-0_0
  6
CONTINUOUS
 62
    7
 10
-230.13900350000006
 20
512.12135250000006
 11
-230.13162550000004
 21
512.14036549999992
  0
LINE
  8
_0-0_0
  6
CONTINUOUS
 62
    7
 10
-230.13162550000004
 20
512.14036549999992
 11
-230.11107650000008
 21
512.17707849999999
  0
LINE
  8
_0-0_0
  6
CONTINUOUS
 62
    7
 10
-230.11107650000008
 20
512.17707849999999
 11
-230.08267950000004
 21
512.21275349999996
  0
LINE
  8
_0-0_0
  6
CONTINUOUS
 62
    7
 10
-230.08267950000004
 20
512.21275349999996
 11
-230.04679850000002
 21
512.24705449999999
  0
LINE
  8
_0-0_0
  6
CONTINUOUS
 62
    7
 10
-230.04679850000002
 20
512.24705449999999
 11
-229.9981765
 21
512.2835235
  0
LINE
  8
_0-0_0
  6
CONTINUOUS
 62
    7
 10
-229.9981765
 20
512.2835235
 11
-229.9413945
 21
512.3175195
  0
LINE
  8
_0-0_0
  6
CONTINUOUS
 62
    7
 10
-229.9413945
 20
512.3175195
 11
-229.87725050000006
 21
512.3487695
  0
LINE
  8
_0-0_0
  6
CONTINUOUS
 62
    7
 10
-229.87725050000006
 20
512.3487695
 11
-229.80660250000005
 21
512.37702949999994
  0
LINE
  8
_0-0_0
  6
CONTINUOUS
 62
    7
 10
-229.80660250000005
 20
512.37702949999994
 11
-229.75852150000003
 21
512.39338650000002
  0
LINE
  8
_0-0_0
  6
CONTINUOUS
 62
    7
 10
-229.75852150000003
 20
512.39338650000002
 11
-229.70838550000008
 21
512.40837050000005
  0
LINE
  8
_0-0_0
  6
CONTINUOUS
 62
    7
 10
-229.70838550000008
 20
512.40837050000005
 11
-229.65168349999999
 21
512.42314149999993
  0
LINE
  8
_0-0_0
  6
CONTINUOUS
 62
    7
 10
-229.65168349999999
 20
512.42314149999993
 11
-229.59307850000005
 21
512.43623350000007
  0
LINE
  8
_0-0_0
  6
CONTINUOUS
 62
    7
 10
-229.59307850000005
 20
512.43623350000007
 11
-229.47629549999999
 21
512.45655850000003
  0
LINE
  8
_0-0_0
  6
CONTINUOUS
 62
    7
 10
-229.47629549999999
 20
512.45655850000003
 11
-229.36888850000003
 21
512.46928350000007
  0
LINE
  8
_0-0_0
  6
CONTINUOUS
 62
    7
 10
-229.36888850000003
 20
512.46928350000007
 11
-229.25912049999999
 21
512.47691350000002
  0
LINE
  8
_0-0_0
  6
CONTINUOUS
 62
    7
 10
-229.25912049999999
 20
512.47691350000002
 11
-229.14823850000005
 21
512.47947649999992
  0
LINE
  8
_0-0_0
  6
CONTINUOUS
 62
    7
 10
-230.14823850000005
 20
513.03492749999998
 11
-230.14534750000007
 21
513.06584150000003
  0
LINE
  8
_0-0_0
  6
CONTINUOUS
 62
    7
 10
-230.14534750000007
 20
513.06584150000003
 11
-230.13664949999998
 21
513.09727449999991
  0
LINE
  8
_0-0_0
  6
CONTINUOUS
 62
    7
 10
-230.13664949999998
 20
513.09727449999991
 11
-230.12216550000005
 21
513.12895149999997
  0
LINE
  8
_0-0_0
  6
CONTINUOUS
 62
    7
 10
-230.12216550000005
 20
513.12895149999997
 11
-230.10200150000003
 21
513.16053749999992
  0
LINE
  8
_0-0_0
  6
CONTINUOUS
 62
    7
 10
-230.10200150000003
 20
513.16053749999992
 11
-230.08547950000002
 21
513.18141149999997
  0
LINE
  8
_0-0_0
  6
CONTINUOUS
 62
    7
 10
-230.08547950000002
 20
513.18141149999997
 11
-230.0665735
 21
513.20201049999991
  0
LINE
  8
_0-0_0
  6
CONTINUOUS
 62
    7
 10
-230.0665735
 20
513.20201049999991
 11
-230.02193450000004
 21
513.24217249999992
  0
LINE
  8
_0-0_0
  6
CONTINUOUS
 62
    7
 10
-230.02193450000004
 20
513.24217249999992
 11
-229.96880750000003
 21
513.28038049999998
  0
LINE
  8
_0-0_0
  6
CONTINUOUS
 62
    7
 10
-229.96880750000003
 20
513.28038049999998
 11
-229.91891050000004
 21
513.31019549999996
  0
LINE
  8
_0-0_0
  6
CONTINUOUS
 62
    7
 10
-229.91891050000004
 20
513.31019549999996
 11
-229.86423850000006
 21
513.33805849999999
  0
LINE
  8
_0-0_0
  6
CONTINUOUS
 62
    7
 10
-229.86423850000006
 20
513.33805849999999
 11
-229.80526350000002
 21
513.36381549999999
  0
LINE
  8
_0-0_0
  6
CONTINUOUS
 62
    7
 10
-229.80526350000002
 20
513.36381549999999
 11
-229.75850250000008
 21
513.38157649999994
  0
LINE
  8
_0-0_0
  6
CONTINUOUS
 62
    7
 10
-229.75850250000008
 20
513.38157649999994
 11
-229.70980050000003
 21
513.39802550000002
  0
LINE
  8
_0-0_0
  6
CONTINUOUS
 62
    7
 10
-229.70980050000003
 20
513.39802550000002
 11
-229.60736850000001
 21
513.42658949999998
  0
LINE
  8
_0-0_0
  6
CONTINUOUS
 62
    7
 10
-229.60736850000001
 20
513.42658949999998
 11
-229.49954950000006
 21
513.44920350000007
  0
LINE
  8
_0-0_0
  6
CONTINUOUS
 62
    7
 10
-229.49954950000006
 20
513.44920350000007
 11
-229.38786249999998
 21
513.4656215
  0
LINE
  8
_0-0_0
  6
CONTINUOUS
 62
    7
 10
-229.38786249999998
 20
513.4656215
 11
-229.27370450000001
 21
513.47572349999996
  0
LINE
  8
_0-0_0
  6
CONTINUOUS
 62
    7
 10
-229.27370450000001
 20
513.47572349999996
 11
-229.14823850000005
 21
513.47947649999992
  0
LINE
  8
_0-0_0
  6
CONTINUOUS
 62
    7
 10
-230.14823850000005
 20
512.06526150000002
 11
-230.14823850000005
 21
513.03492749999998
  0
ARC
  8
_0-0_0
  6
CONTINUOUS
 62
    7
 10
-229.14823850000005
 20
485.67948849999999
 40
1
 50
180.00000900000003
 51
269.99999700000001
  0
LINE
  8
_0-0_0
  6
CONTINUOUS
 62
    7
 10
-230.14823850000005
 20
485.67948849999999
 11
-230.14823850000005
 21
512.06526150000002
  0
CIRCLE
  8
_0-0_0
  6
CONTINUOUS
 62
    7
 10
-218.64823850000005
 20
502.87947050000002
 40
5
  0
CIRCLE
  8
_0-0_0
  6
CONTINUOUS
 62
    7
 10
1036.3518675
 20
502.87947050000002
 40
5
  0
LINE
  8
_0-0_0
  6
CONTINUOUS
 62
    7
 10
1047.8518675
 20
513.06532249999998
 11
1047.8518675
 21
514.67948849999993
  0
ARC
  8
_0-0_0
  6
CONTINUOUS
 62
    7
 10
1046.8518675
 20
514.67948849999993
 40
1
 50
0
 51
90.000003000000007
  0
ARC
  8
_0-0_0
  6
CONTINUOUS
 62
    7
 10
-229.14823850000005
 20
514.67948849999993
 40
1
 50
90.000003000000007
 51
180.00000900000001
  0
LINE
  8
_0-0_0
  6
CONTINUOUS
 62
    7
 10
-230.14823850000005
 20
513.03492749999998
 11
-230.14823850000005
 21
514.67948849999993
  0
LINE
  8
_0-0_0
  6
CONTINUOUS
 62
    7
 10
-258.0581095
 20
484.67948849999999
 11
-258.0581095
 21
484.07948249999998
  0
LINE
  8
_0-0_0
  6
CONTINUOUS
 62
    7
 10
-255.5581095
 20
478.83448750000002
 11
-255.5581095
 21
481.07948249999998
  0
LINE
  8
_0-0_0
  6
CONTINUOUS
 62
    7
 10
-254.5581095
 20
481.07948249999998
 11
-254.5581095
 21
483.07948249999998
  0
ARC
  8
_0-0_0
  6
CONTINUOUS
 62
    7
 10
-255.0581095
 20
483.07948249999998
 40
0.5
 50
0
 51
90.000003000000007
  0
LINE
  8
_0-0_0
  6
CONTINUOUS
 62
    7
 10
-255.0581095
 20
483.57948249999998
 11
-256.5581095
 21
483.57948249999998
  0
ARC
  8
_0-0_0
  6
CONTINUOUS
 62
    7
 10
-256.5581095
 20
484.57948249999998
 40
1
 50
180.00000900000003
 51
269.99999700000001
  0
LINE
  8
_0-0_0
  6
CONTINUOUS
 62
    7
 10
-257.5581095
 20
484.67948849999999
 11
-257.5581095
 21
484.57948249999998
  0
ARC
  8
_0-0_0
  6
CONTINUOUS
 62
    7
 10
-256.5581095
 20
484.07948249999998
 40
1.5
 50
180.00000900000003
 51
269.99999700000001
  0
LINE
  8
_0-0_0
  6
CONTINUOUS
 62
    7
 10
-256.5581095
 20
482.57948249999998
 11
-257.25810950000005
 21
482.57948249999998
  0
ARC
  8
_0-0_0
  6
CONTINUOUS
 62
    7
 10
-257.25810950000005
 20
483.57948249999998
 40
1
 50
180.00000900000003
 51
269.99999700000001
  0
LINE
  8
_0-0_0
  6
CONTINUOUS
 62
    7
 10
-258.25810950000005
 20
484.57948249999998
 11
-258.25810950000005
 21
483.57948249999998
  0
LINE
  8
_0-0_0
  6
CONTINUOUS
 62
    7
 10
-266.45811049999998
 20
483.57948249999998
 11
-266.45811049999998
 21
484.57948249999998
  0
ARC
  8
_0-0_0
  6
CONTINUOUS
 62
    7
 10
-267.45811049999998
 20
483.57948249999998
 40
1
 50
269.99999700000001
 51
0
  0
LINE
  8
_0-0_0
  6
CONTINUOUS
 62
    7
 10
-267.45811049999998
 20
482.57948249999998
 11
-267.65810750000003
 21
482.57948249999998
  0
ARC
  8
_0-0_0
  6
CONTINUOUS
 62
    7
 10
-267.65810750000003
 20
483.57948249999998
 40
1
 50
269.99999700000001
 51
0
  0
LINE
  8
_0-0_0
  6
CONTINUOUS
 62
    7
 10
-266.65810750000003
 20
483.57948249999998
 11
-266.65810750000003
 21
484.67948849999999
  0
LINE
  8
_0-0_0
  6
CONTINUOUS
 62
    7
 10
-267.15810750000003
 20
484.57948249999998
 11
-267.15810750000003
 21
484.67948849999999
  0
ARC
  8
_0-0_0
  6
CONTINUOUS
 62
    7
 10
-268.15810750000003
 20
484.57948249999998
 40
1
 50
269.99999700000001
 51
0
  0
LINE
  8
_0-0_0
  6
CONTINUOUS
 62
    7
 10
-268.15810750000003
 20
483.57948249999998
 11
-269.65810750000003
 21
483.57948249999998
  0
ARC
  8
_0-0_0
  6
CONTINUOUS
 62
    7
 10
-269.65810750000003
 20
483.07948249999998
 40
0.5
 50
90.000003000000007
 51
180.00000900000001
  0
LINE
  8
_0-0_0
  6
CONTINUOUS
 62
    7
 10
-270.15810750000003
 20
483.07948249999998
 11
-270.15810750000003
 21
481.07948249999998
  0
LINE
  8
_0-0_0
  6
CONTINUOUS
 62
    7
 10
-269.15810750000003
 20
478.83448750000002
 11
-269.15810750000003
 21
481.07948249999998
  0
LINE
  8
_0-0_0
  6
CONTINUOUS
 62
    7
 10
-271.05810550000001
 20
460.47947649999998
 11
-271.05810550000001
 21
478.83448750000002
  0
LINE
  8
_0-0_0
  6
CONTINUOUS
 62
    7
 10
-254.25810950000005
 20
460.47947649999998
 11
-254.25810950000005
 21
478.83448750000002
  0
CIRCLE
  8
_0-0_0
  6
CONTINUOUS
 62
    7
 10
-262.35810850000007
 20
481.07948249999998
 40
2.0499999999999998
  0
LINE
  8
_0-0_0
  6
CONTINUOUS
 62
    7
 10
-254.25810950000005
 20
482.57948249999998
 11
-254.25810950000005
 21
482.55448849999999
  0
LINE
  8
_0-0_0
  6
CONTINUOUS
 62
    7
 10
-254.25810950000005
 20
479.33442650000001
 11
-254.25810950000005
 21
479.60447649999998
  0
LINE
  8
_0-0_0
  6
CONTINUOUS
 62
    7
 10
-254.25810950000005
 20
478.83448750000002
 11
-254.25810950000005
 21
479.33448750000002
  0
LINE
  8
_0-0_0
  6
CONTINUOUS
 62
    7
 10
-254.25810950000005
 20
458.47947649999998
 11
-254.25810950000005
 21
460.47947649999998
  0
LINE
  8
_0-0_0
  6
CONTINUOUS
 62
    7
 10
-271.05810550000001
 20
458.47947649999998
 11
-271.05810550000001
 21
460.47947649999998
  0
LINE
  8
_0-0_0
  6
CONTINUOUS
 62
    7
 10
-271.05810550000001
 20
458.47947649999998
 11
-254.25810950000005
 21
458.47947649999998
  0
LINE
  8
_0-0_0
  6
CONTINUOUS
 62
    7
 10
-271.05810550000001
 20
482.57948249999998
 11
-271.05810550000001
 21
481.07948249999998
  0
LINE
  8
_0-0_0
  6
CONTINUOUS
 62
    7
 10
-271.05810550000001
 20
479.33448750000002
 11
-271.05810550000001
 21
481.07948249999998
  0
LINE
  8
_0-0_0
  6
CONTINUOUS
 62
    7
 10
-271.05810550000001
 20
478.83448750000002
 11
-271.05810550000001
 21
479.33448750000002
  0
LINE
  8
_0-0_0
  6
CONTINUOUS
 62
    7
 10
-270.15810750000003
 20
479.33454849999998
 11
-270.15810750000003
 21
481.07948249999998
  0
ARC
  8
_0-0_0
  6
CONTINUOUS
 62
    7
 10
-255.85811250000006
 20
460.57948249999998
 40
2
 50
323.13010300000002
 51
0.0000000000000127
  0
LINE
  8
_0-0_0
  6
CONTINUOUS
 62
    7
 10
-253.85811250000006
 20
460.57948249999998
 11
-253.85811250000006
 21
461.97953749999999
  0
LINE
  8
_0-0_0
  6
CONTINUOUS
 62
    7
 10
-253.5581095
 20
467.06916749999999
 11
-253.5581095
 21
477.51716549999998
  0
LINE
  8
_0-0_0
  6
CONTINUOUS
 62
    7
 10
-253.5581095
 20
478.47996549999999
 11
-253.5581095
 21
480.71461449999998
  0
LINE
  8
_0-0_0
  6
CONTINUOUS
 62
    7
 10
-271.05810550000001
 20
482.57948249999998
 11
-270.15810750000003
 21
482.57948249999998
  0
LINE
  8
_0-0_0
  6
CONTINUOUS
 62
    7
 10
-271.15811150000002
 20
461.97947649999998
 11
-271.05810550000001
 21
461.97947649999998
  0
LINE
  8
_0-0_0
  6
CONTINUOUS
 62
    7
 10
-271.15811150000002
 20
461.97947649999998
 11
-271.15811150000002
 21
467.06916749999999
  0
LINE
  8
_0-0_0
  6
CONTINUOUS
 62
    7
 10
-271.15811150000002
 20
477.51716549999998
 11
-271.15811150000002
 21
478.47996549999999
  0
LINE
  8
_0-0_0
  6
CONTINUOUS
 62
    7
 10
-271.15811150000002
 20
481.57948249999998
 11
-271.05810550000001
 21
481.57948249999998
  0
LINE
  8
_0-0_0
  6
CONTINUOUS
 62
    7
 10
-271.15811150000002
 20
480.71461449999998
 11
-271.15811150000002
 21
481.57948249999998
  0
LINE
  8
_0-0_0
  6
CONTINUOUS
 62
    7
 10
-271.15811150000002
 20
478.47996549999999
 11
-271.15811150000002
 21
480.71461449999998
  0
LINE
  8
_0-0_0
  6
CONTINUOUS
 62
    7
 10
-271.15811150000002
 20
467.06916749999999
 11
-271.15811150000002
 21
477.51716549999998
  0
LINE
  8
_0-0_0
  6
CONTINUOUS
 62
    7
 10
-270.85810850000007
 20
480.46821549999999
 11
-270.85810850000007
 21
482.35447649999998
  0
LINE
  8
_0-0_0
  6
CONTINUOUS
 62
    7
 10
-270.85810850000007
 20
479.80448849999999
 11
-270.85810850000007
 21
480.46821549999999
  0
LINE
  8
_0-0_0
  6
CONTINUOUS
 62
    7
 10
-253.85811250000006
 20
481.69074949999998
 11
-253.85811250000006
 21
479.80479450000001
  0
LINE
  8
_0-0_0
  6
CONTINUOUS
 62
    7
 10
-253.85811250000006
 20
482.3461145
 11
-253.85811250000006
 21
481.69074949999998
  0
LINE
  8
_0-0_0
  6
CONTINUOUS
 62
    7
 10
-253.5581095
 20
461.97947649999998
 11
-253.5581095
 21
467.06916749999999
  0
LINE
  8
_0-0_0
  6
CONTINUOUS
 62
    7
 10
-253.5581095
 20
480.71461449999998
 11
-253.5581095
 21
481.57948249999998
  0
LINE
  8
_0-0_0
  6
CONTINUOUS
 62
    7
 10
-253.5581095
 20
477.51716549999998
 11
-253.5581095
 21
478.47996549999999
  0
LINE
  8
_0-0_0
  6
CONTINUOUS
 62
    7
 10
-253.5581095
 20
481.57948249999998
 11
-253.85811250000006
 21
481.57948249999998
  0
LINE
  8
_0-0_0
  6
CONTINUOUS
 62
    7
 10
-253.5581095
 20
461.97947649999998
 11
-254.25810950000005
 21
461.97947649999998
  0
LINE
  8
_0-0_0
  6
CONTINUOUS
 62
    7
 10
-254.25810950000005
 20
482.57948249999998
 11
-254.5581095
 21
482.57948249999998
  0
LINE
  8
_0-0_0
  6
CONTINUOUS
 62
    7
 10
-254.5581095
 20
481.07948249999998
 11
-254.5581095
 21
479.33454849999998
  0
LINE
  8
_0-0_0
  6
CONTINUOUS
 62
    7
 10
-258.25810950000005
 20
484.57948249999998
 11
-258.25810950000005
 21
484.6795505
  0
LINE
  8
_0-0_0
  6
CONTINUOUS
 62
    7
 10
-266.45811049999998
 20
484.6795505
 11
-266.45811049999998
 21
484.57948249999998
  0
LINE
  8
_0-0_0
  6
CONTINUOUS
 62
    7
 10
-255.5581095
 20
479.33448750000002
 11
-254.25810950000005
 21
479.33448750000002
  0
ARC
  8
_0-0_0
  6
CONTINUOUS
 62
    7
 10
-270.35811250000006
 20
482.35447649999998
 40
0.2
 50
359.91222800000003
 51
89.999948000000003
  0
ARC
  8
_0-0_0
  6
CONTINUOUS
 62
    7
 10
-270.35821150000004
 20
479.8046415
 40
0.200169
 50
270.02985900000004
 51
2.3526610000000452
  0
LINE
  8
_0-0_0
  6
CONTINUOUS
 62
    7
 10
-270.65810750000003
 20
482.55448849999999
 11
-270.35811250000006
 21
482.55448849999999
  0
LINE
  8
_0-0_0
  6
CONTINUOUS
 62
    7
 10
-270.65810750000003
 20
479.60447649999998
 11
-270.35811250000006
 21
479.60447649999998
  0
ARC
  8
_0-0_0
  6
CONTINUOUS
 62
    7
 10
-270.65800850000005
 20
482.35432450000002
 40
0.200169
 50
90.029849999999996
 51
182.352667
  0
ARC
  8
_0-0_0
  6
CONTINUOUS
 62
    7
 10
-270.65810750000003
 20
479.80448849999999
 40
0.2
 50
179.912237
 51
269.99994299999997
  0
ARC
  8
_0-0_0
  6
CONTINUOUS
 62
    7
 10
-254.35800549999999
 20
479.8046415
 40
0.200169
 50
177.647333
 51
269.97013600000002
  0
ARC
  8
_0-0_0
  6
CONTINUOUS
 62
    7
 10
-254.35810850000007
 20
482.35447649999998
 40
0.2
 50
90.000049999999987
 51
180.08776299999997
  0
LINE
  8
_0-0_0
  6
CONTINUOUS
 62
    7
 10
-254.0581095
 20
479.60447649999998
 11
-254.35811250000006
 21
479.60447649999998
  0
LINE
  8
_0-0_0
  6
CONTINUOUS
 62
    7
 10
-254.0581095
 20
482.55448849999999
 11
-254.35811250000006
 21
482.55448849999999
  0
ARC
  8
_0-0_0
  6
CONTINUOUS
 62
    7
 10
-254.0581095
 20
479.80448849999999
 40
0.2
 50
270.00005199999998
 51
0.0877600000000175
  0
ARC
  8
_0-0_0
  6
CONTINUOUS
 62
    7
 10
-254.05821550000007
 20
482.35432450000002
 40
0.200169
 50
357.64733799999999
 51
89.970147999999995
  0
LINE
  8
_0-0_0
  6
CONTINUOUS
 62
    7
 10
-271.05810550000001
 20
479.33448750000002
 11
-269.15810750000003
 21
479.33448750000002
  0
LINE
  8
_0-0_0
  6
CONTINUOUS
 62
    7
 10
-253.5581095
 20
485.07948249999998
 11
-253.5581095
 21
498.27946450000002
  0
ARC
  8
_0-0_0
  6
CONTINUOUS
 62
    7
 10
-254.0581095
 20
485.07948249999998
 40
0.5
 50
269.99999700000001
 51
0
  0
ARC
  8
_0-0_0
  6
CONTINUOUS
 62
    7
 10
-253.61668750000001
 20
498.47947649999998
 40
0.1
 50
135
 51
225
  0
LINE
  8
_0-0_0
  6
CONTINUOUS
 62
    7
 10
-253.68739649999998
 20
498.40876750000001
 11
-253.5581095
 21
498.27946450000002
  0
LINE
  8
_0-0_0
  6
CONTINUOUS
 62
    7
 10
-254.0581095
 20
484.57948249999998
 11
-255.95811049999998
 21
484.57948249999998
  0
ARC
  8
_0-0_0
  6
CONTINUOUS
 62
    7
 10
-255.95811049999998
 20
485.07948249999998
 40
0.5
 50
233.12990600000001
 51
269.99999700000001
  0
ARC
  8
_0-0_0
  6
CONTINUOUS
 62
    7
 10
-268.65810750000003
 20
485.07948249999998
 40
0.5
 50
269.99999700000001
 51
306.87009999999998
  0
LINE
  8
_0-0_0
  6
CONTINUOUS
 62
    7
 10
-268.65810750000003
 20
484.57948249999998
 11
-270.5581095
 21
484.57948249999998
  0
ARC
  8
_0-0_0
  6
CONTINUOUS
 62
    7
 10
-270.5581095
 20
485.07948249999998
 40
0.5
 50
180.00000900000003
 51
269.99999700000001
  0
LINE
  8
_0-0_0
  6
CONTINUOUS
 62
    7
 10
-271.05810550000001
 20
494.51448049999999
 11
-271.05810550000001
 21
485.07948249999998
  0
LINE
  8
_0-0_0
  6
CONTINUOUS
 62
    7
 10
-271.05810550000001
 20
494.51448049999999
 11
-270.35811250000006
 21
494.51448049999999
  0
LINE
  8
_0-0_0
  6
CONTINUOUS
 62
    7
 10
-254.35810850000007
 20
513.07948250000004
 11
-254.15208050000001
 21
513.07948250000004
  0
LINE
  8
_0-0_0
  6
CONTINUOUS
 62
    7
 10
-254.15208050000001
 20
513.07948250000004
 11
-253.5581095
 21
512.48551950000001
  0
LINE
  8
_0-0_0
  6
CONTINUOUS
 62
    7
 10
-253.5581095
 20
507.47947649999998
 11
-253.5581095
 21
512.48551950000001
  0
LINE
  8
_0-0_0
  6
CONTINUOUS
 62
    7
 10
-253.68739649999998
 20
507.35020450000002
 11
-253.5581095
 21
507.47947649999998
  0
ARC
  8
_0-0_0
  6
CONTINUOUS
 62
    7
 10
-253.61668750000001
 20
507.27946450000002
 40
0.1
 50
135
 51
225
  0
LINE
  8
_0-0_0
  6
CONTINUOUS
 62
    7
 10
-253.68739649999998
 20
507.20878549999998
 11
-253.5581095
 21
507.07948249999998
  0
LINE
  8
_0-0_0
  6
CONTINUOUS
 62
    7
 10
-253.5581095
 20
506.37947050000002
 11
-253.5581095
 21
507.07948249999998
  0
LINE
  8
_0-0_0
  6
CONTINUOUS
 62
    7
 10
-253.68739649999998
 20
506.25019850000001
 11
-253.5581095
 21
506.37947050000002
  0
ARC
  8
_0-0_0
  6
CONTINUOUS
 62
    7
 10
-253.61668750000001
 20
506.17948849999999
 40
0.1
 50
135
 51
225
  0
LINE
  8
_0-0_0
  6
CONTINUOUS
 62
    7
 10
-253.68739649999998
 20
506.10877949999997
 11
-253.5581095
 21
505.97947649999998
  0
LINE
  8
_0-0_0
  6
CONTINUOUS
 62
    7
 10
-253.5581095
 20
505.27946450000002
 11
-253.5581095
 21
505.97947649999998
  0
LINE
  8
_0-0_0
  6
CONTINUOUS
 62
    7
 10
-253.68739649999998
 20
505.1501925
 11
-253.5581095
 21
505.27946450000002
  0
ARC
  8
_0-0_0
  6
CONTINUOUS
 62
    7
 10
-253.61668750000001
 20
505.07948249999998
 40
0.1
 50
135
 51
225
  0
LINE
  8
_0-0_0
  6
CONTINUOUS
 62
    7
 10
-253.68739649999998
 20
505.00877350000002
 11
-253.5581095
 21
504.87947050000002
  0
LINE
  8
_0-0_0
  6
CONTINUOUS
 62
    7
 10
-253.5581095
 20
504.17948849999999
 11
-253.5581095
 21
504.87947050000002
  0
LINE
  8
_0-0_0
  6
CONTINUOUS
 62
    7
 10
-253.68739649999998
 20
504.0501865
 11
-253.5581095
 21
504.17948849999999
  0
ARC
  8
_0-0_0
  6
CONTINUOUS
 62
    7
 10
-253.61668750000001
 20
503.97947649999998
 40
0.1
 50
135
 51
225
  0
LINE
  8
_0-0_0
  6
CONTINUOUS
 62
    7
 10
-253.68739649999998
 20
503.90876750000001
 11
-253.5581095
 21
503.77946450000002
  0
LINE
  8
_0-0_0
  6
CONTINUOUS
 62
    7
 10
-253.5581095
 20
503.07948249999998
 11
-253.5581095
 21
503.77946450000002
  0
LINE
  8
_0-0_0
  6
CONTINUOUS
 62
    7
 10
-253.68739649999998
 20
502.95017949999999
 11
-253.5581095
 21
503.07948249999998
  0
ARC
  8
_0-0_0
  6
CONTINUOUS
 62
    7
 10
-253.61668750000001
 20
502.87947050000002
 40
0.1
 50
135
 51
225
  0
LINE
  8
_0-0_0
  6
CONTINUOUS
 62
    7
 10
-253.68739649999998
 20
502.8087615
 11
-253.5581095
 21
502.67948849999999
  0
LINE
  8
_0-0_0
  6
CONTINUOUS
 62
    7
 10
-253.5581095
 20
501.97947649999998
 11
-253.5581095
 21
502.67948849999999
  0
LINE
  8
_0-0_0
  6
CONTINUOUS
 62
    7
 10
-253.68739649999998
 20
501.85020450000002
 11
-253.5581095
 21
501.97947649999998
  0
ARC
  8
_0-0_0
  6
CONTINUOUS
 62
    7
 10
-253.61668750000001
 20
501.77946450000002
 40
0.1
 50
135
 51
225
  0
LINE
  8
_0-0_0
  6
CONTINUOUS
 62
    7
 10
-253.68739649999998
 20
501.70878549999998
 11
-253.5581095
 21
501.57948249999998
  0
LINE
  8
_0-0_0
  6
CONTINUOUS
 62
    7
 10
-253.5581095
 20
500.87947050000002
 11
-253.5581095
 21
501.57948249999998
  0
LINE
  8
_0-0_0
  6
CONTINUOUS
 62
    7
 10
-253.68739649999998
 20
500.75019850000001
 11
-253.5581095
 21
500.87947050000002
  0
ARC
  8
_0-0_0
  6
CONTINUOUS
 62
    7
 10
-253.61668750000001
 20
500.67948849999999
 40
0.1
 50
135
 51
225
  0
LINE
  8
_0-0_0
  6
CONTINUOUS
 62
    7
 10
-253.68739649999998
 20
500.60877949999997
 11
-253.5581095
 21
500.47947649999998
  0
LINE
  8
_0-0_0
  6
CONTINUOUS
 62
    7
 10
-253.5581095
 20
499.77946450000002
 11
-253.5581095
 21
500.47947649999998
  0
LINE
  8
_0-0_0
  6
CONTINUOUS
 62
    7
 10
-253.68739649999998
 20
499.6501925
 11
-253.5581095
 21
499.77946450000002
  0
ARC
  8
_0-0_0
  6
CONTINUOUS
 62
    7
 10
-253.61668750000001
 20
499.57948249999998
 40
0.1
 50
135
 51
225
  0
LINE
  8
_0-0_0
  6
CONTINUOUS
 62
    7
 10
-253.68739649999998
 20
499.50877350000002
 11
-253.5581095
 21
499.37947050000002
  0
LINE
  8
_0-0_0
  6
CONTINUOUS
 62
    7
 10
-253.5581095
 20
498.67948849999999
 11
-253.5581095
 21
499.37947050000002
  0
LINE
  8
_0-0_0
  6
CONTINUOUS
 62
    7
 10
-253.68739649999998
 20
498.5501865
 11
-253.5581095
 21
498.67948849999999
  0
LINE
  8
_0-0_0
  6
CONTINUOUS
 62
    7
 10
-253.5581095
 20
490.57948249999998
 11
-253.45811049999998
 21
490.57948249999998
  0
LINE
  8
_0-0_0
  6
CONTINUOUS
 62
    7
 10
-253.45811049999998
 20
490.07948249999998
 11
-253.45811049999998
 21
490.57948249999998
  0
LINE
  8
_0-0_0
  6
CONTINUOUS
 62
    7
 10
-253.45811049999998
 20
490.07948249999998
 11
-253.45811049999998
 21
486.07948249999998
  0
LINE
  8
_0-0_0
  6
CONTINUOUS
 62
    7
 10
-253.5581095
 20
485.57948249999998
 11
-253.45811049999998
 21
485.57948249999998
  0
LINE
  8
_0-0_0
  6
CONTINUOUS
 62
    7
 10
-253.45811049999998
 20
485.57948249999998
 11
-253.45811049999998
 21
486.07948249999998
  0
LINE
  8
_0-0_0
  6
CONTINUOUS
 62
    7
 10
-271.05810550000001
 20
494.57948249999998
 11
-271.05810550000001
 21
494.51448049999999
  0
LINE
  8
_0-0_0
  6
CONTINUOUS
 62
    7
 10
-254.5581095
 20
513.37947050000002
 11
-254.5581095
 21
513.27946450000002
  0
ARC
  8
_0-0_0
  6
CONTINUOUS
 62
    7
 10
-267.0581095
 20
513.37947050000002
 40
2.5
 50
90.000003000000007
 51
180.00000900000001
  0
LINE
  8
_0-0_0
  6
CONTINUOUS
 62
    7
 10
-271.15811150000002
 20
494.57948249999998
 11
-270.35811250000006
 21
494.57948249999998
  0
LINE
  8
_0-0_0
  6
CONTINUOUS
 62
    7
 10
-270.65810750000003
 20
516.37947050000002
 11
-270.65810750000003
 21
512.15794349999999
  0
LINE
  8
_0-0_0
  6
CONTINUOUS
 62
    7
 10
-269.5581095
 20
516.37947050000002
 11
-269.5581095
 21
513.37947050000002
  0
LINE
  8
_0-0_0
  6
CONTINUOUS
 62
    7
 10
-270.65810750000003
 20
512.15794349999999
 11
-270.35811250000006
 21
512.15794349999999
  0
LINE
  8
_0-0_0
  6
CONTINUOUS
 62
    7
 10
-270.65810750000003
 20
521.51939349999998
 11
-269.5581095
 21
521.51939349999998
  0
LINE
  8
_0-0_0
  6
CONTINUOUS
 62
    7
 10
-269.5581095
 20
516.37992850000001
 11
-269.5581095
 21
521.51939349999998
  0
LINE
  8
_0-0_0
  6
CONTINUOUS
 62
    7
 10
-271.15811150000002
 20
515.88035549999995
 11
-271.15811150000002
 21
520.95158349999997
  0
LINE
  8
_0-0_0
  6
CONTINUOUS
 62
    7
 10
-270.65810750000003
 20
521.51939349999998
 11
-271.15811150000002
 21
520.95158349999997
  0
ARC
  8
_0-0_0
  6
CONTINUOUS
 62
    7
 10
-257.0581095
 20
513.37947050000002
 40
2.5
 50
0
 51
90.000003000000007
  0
LINE
  8
_0-0_0
  6
CONTINUOUS
 62
    7
 10
-269.5581095
 20
513.27949549999994
 11
-269.5581095
 21
513.37947050000002
  0
LINE
  8
_0-0_0
  6
CONTINUOUS
 62
    7
 10
-257.0581095
 20
515.87947050000002
 11
-267.0581095
 21
515.87947050000002
  0
LINE
  8
_0-0_0
  6
CONTINUOUS
 62
    7
 10
-253.35811250000006
 20
486.07948249999998
 11
-253.35811250000006
 21
486.20985350000001
  0
LINE
  8
_0-0_0
  6
CONTINUOUS
 62
    7
 10
-253.35811250000006
 20
489.70985350000001
 11
-253.35811250000006
 21
486.20985350000001
  0
LINE
  8
_0-0_0
  6
CONTINUOUS
 62
    7
 10
-253.45811049999998
 20
489.97947649999998
 11
-253.35811250000006
 21
489.97947649999998
  0
LINE
  8
_0-0_0
  6
CONTINUOUS
 62
    7
 10
-253.35811250000006
 20
489.70985350000001
 11
-253.35811250000006
 21
489.97947649999998
  0
LINE
  8
_0-0_0
  6
CONTINUOUS
 62
    7
 10
-269.5581095
 20
523.87950150000006
 11
-269.5581095
 21
521.51939349999998
  0
LINE
  8
_0-0_0
  6
CONTINUOUS
 62
    7
 10
-253.75810650000005
 20
512.47947649999992
 11
-254.75810650000005
 21
513.47947649999992
  0
LINE
  8
_0-0_0
  6
CONTINUOUS
 62
    7
 10
-253.75810950000005
 20
484.67948849999999
 11
-253.75810650000005
 21
512.47947649999992
  0
LINE
  8
_0-0_0
  6
CONTINUOUS
 62
    7
 10
-270.35811250000006
 20
484.67948849999999
 11
-253.75810950000005
 21
484.67948849999999
  0
LINE
  8
_0-0_0
  6
CONTINUOUS
 62
    7
 10
-270.35811250000006
 20
512.47947649999992
 11
-270.35811250000006
 21
484.67948849999999
  0
LINE
  8
_0-0_0
  6
CONTINUOUS
 62
    7
 10
-271.15811150000002
 20
494.57948249999998
 11
-271.15811150000002
 21
511.39228850000001
  0
LINE
  8
_0-0_0
  6
CONTINUOUS
 62
    7
 10
-271.15811150000002
 20
515.87947050000002
 11
-271.15811150000002
 21
511.39228850000001
  0
ARC
  8
_0-0_0
  6
CONTINUOUS
 62
    7
 10
-239.70636750000006
 20
491.39729249999999
 40
37.269466000000001
 50
146.14857699999999
 51
147.55443399999999
  0
LINE
  8
_0-0_0
  6
CONTINUOUS
 62
    7
 10
-270.65810750000003
 20
523.87950150000006
 11
-270.65810750000003
 21
521.51939349999998
  0
LINE
  8
_0-0_0
  6
CONTINUOUS
 62
    7
 10
-271.15811150000002
 20
523.37950150000006
 11
-271.15811150000002
 21
520.95158349999997
  0
ARC
  8
_0-0_0
  6
CONTINUOUS
 62
    7
 10
-257.3271555
 20
513.07948250000004
 40
2.6000000000000001
 50
8.8498839999999994
 51
90.000002999999992
  0
LINE
  8
_0-0_0
  6
CONTINUOUS
 62
    7
 10
-257.3271555
 20
515.67948849999993
 11
-266.7890625
 21
515.67948849999993
  0
ARC
  8
_0-0_0
  6
CONTINUOUS
 62
    7
 10
-266.7890625
 20
513.07948250000004
 40
2.6000000000000001
 50
90.000003000000007
 51
171.150115
  0
LINE
  8
_0-0_0
  6
CONTINUOUS
 62
    7
 10
-270.35811250000006
 20
512.47947649999992
 11
-269.35810850000007
 21
513.47947649999992
  0
LINE
  8
_0-0_0
  6
CONTINUOUS
 62
    7
 10
-254.75810650000005
 20
512.06526150000002
 11
-253.75810650000005
 21
512.47947649999992
  0
ARC
  8
_0-0_0
  6
CONTINUOUS
 62
    7
 10
-260.30064749999997
 20
524.26560949999998
 40
12.126564999999999
 50
292.155034
 51
297.19674500000002
  0
LINE
  8
_0-0_0
  6
CONTINUOUS
 62
    7
 10
-254.75810950000005
 20
485.67948849999999
 11
-253.75810950000005
 21
484.67948849999999
  0
LINE
  8
_0-0_0
  6
CONTINUOUS
 62
    7
 10
-269.35810850000007
 20
485.67948849999999
 11
-270.35811250000006
 21
484.67948849999999
  0
LINE
  8
_0-0_0
  6
CONTINUOUS
 62
    7
 10
-269.35810850000007
 20
512.06526150000002
 11
-270.35811250000006
 21
512.47947649999992
  0
ARC
  8
_0-0_0
  6
CONTINUOUS
 62
    7
 10
-263.81557050000004
 20
524.26560949999998
 40
12.126567
 50
242.80325699999997
 51
247.84494000000001
  0
CIRCLE
  8
_0-0_0
  6
CONTINUOUS
 62
    7
 10
-262.0581095
 20
492.87947050000002
 40
2.0670000000000002
  0
LINE
  8
_0-0_0
  6
CONTINUOUS
 62
    7
 10
-269.5581095
 20
516.37947050000002
 11
-270.65810750000003
 21
516.37947050000002
  0
LINE
  8
_0-0_0
  6
CONTINUOUS
 62
    7
 10
-253.45811049999998
 20
486.07948249999998
 11
-253.35811250000006
 21
486.07948249999998
  0
LINE
  8
_0-0_0
  6
CONTINUOUS
 62
    7
 10
-253.45811049999998
 20
486.07948249999998
 11
-253.35811250000006
 21
486.07948249999998
  0
LINE
  8
_0-0_0
  6
CONTINUOUS
 62
    7
 10
-271.15811150000002
 20
515.87947050000002
 11
-270.65810750000003
 21
516.37947050000002
  0
LINE
  8
_0-0_0
  6
CONTINUOUS
 62
    7
 10
-269.5581095
 20
523.87950150000006
 11
-270.65810750000003
 21
523.87950150000006
  0
LINE
  8
_0-0_0
  6
CONTINUOUS
 62
    7
 10
-271.15811150000002
 20
523.37950150000006
 11
-270.65810750000003
 21
523.87950150000006
  0
ENDSEC
  0
EOF
