  0
SECTION
  2
HEADER
  9
$ACADVER
  1
AC1009
  9
$INSBASE
 10
0
 20
0
 30
0
  9
$EXTMIN
 10
0
 20
0
  9
$EXTMAX
 10
841
 20
594
  9
$LIMMIN
 10
0
 20
0
  9
$LIMMAX
 10
841
 20
594
  9
$LTSCALE
 40
1
  0
ENDSEC
  0
SECTION
  2
TABLES
  0
TABLE
  2
LTYPE
 70
     9
  0
LTYPE
  2
CONTINUOUS
 70
    64
  3
実線
 72
    65
 73
     0
 40
0.0
  0
LTYPE
  2
DASHED1
 70
    64
  3
--  --  --  --  --  --  --  --  
 72
    65
 73
     2
 40
2.5
 49
1.25
 49
-1.25
  0
LTYPE
  2
DASHED2
 70
    64
  3
----    ----    ----    ----    
 72
    65
 73
     2
 40
5.0
 49
2.5
 49
-2.5
  0
LTYPE
  2
DASHED3
 70
    64
  3
------  ------  ------  ------  
 72
    65
 73
     2
 40
5.0
 49
3.75
 49
-1.25
  0
LTYPE
  2
CENTER1
 70
    64
  3
----- - ----- - ----- - ----- - 
 72
    65
 73
     4
 40
10.0
 49
6.25
 49
-1.25
 49
1.25
 49
-1.25
  0
LTYPE
  2
CENTER2
 70
    64
  3
----------  --  ----------  --  
 72
    65
 73
     4
 40
20.0
 49
12.5
 49
-2.5
 49
2.5
 49
-2.5
  0
LTYPE
  2
PHANTOM1
 70
    64
  3
--- - - --- - - --- - - --- - - 
 72
    65
 73
     6
 40
10.0
 49
3.25
 49
-1.25
 49
1.25
 49
-1.25
 49
1.25
 49
-1.25
  0
LTYPE
  2
PHANTOM2
 70
    64
  3
--------  -  -  --------  -  -  
 72
    65
 73
     6
 40
20.0
 49
10.0
 49
-2.5
 49
1.25
 49
-2.5
 49
1.25
 49
-2.5
  0
LTYPE
  2
DOT
 70
    64
  3
-   -   -   -   -   -   -   -   
 72
    65
 73
     2
 40
2.5
 49
0.625
 49
-1.875
  0
LTYPE
  2
DUMMY
 70
    64
  3
ダミー
 72
    65
 73
     0
 40
0.0
  0
LTYPE
  2
RAND1
 70
    64
  3
ランダム線1
 72
    65
 73
     4
 40
10.0
 49
1.0
 49
-2.0
 49
3.0
 49
-4.0
  0
LTYPE
  2
RAND2
 70
    64
  3
ランダム線2
 72
    65
 73
     4
 40
14.0
 49
2.0
 49
-3.0
 49
4.0
 49
-5.0
  0
LTYPE
  2
RAND3
 70
    64
  3
ランダム線3
 72
    65
 73
     4
 40
18.0
 49
3.0
 49
-4.0
 49
5.0
 49
-6.0
  0
LTYPE
  2
RAND4
 70
    64
  3
ランダム線4
 72
    65
 73
     4
 40
22.0
 49
4.0
 49
-5.0
 49
6.0
 49
-7.0
  0
LTYPE
  2
RAND5
 70
    64
  3
ランダム線5
 72
    65
 73
     4
 40
26.0
 49
5.0
 49
-6.0
 49
7.0
 49
-8.0
  0
LTYPE
  2
LONG1
 70
    64
  3
----------  --  ----------  --  
 72
    65
 73
     4
 40
40.0
 49
32.5
 49
-2.5
 49
2.5
 49
-2.5
  0
LTYPE
  2
LONG2
 70
    64
  3
--------  -  -  --------  -  -  
 72
    65
 73
     6
 40
40.0
 49
30.0
 49
-2.5
 49
1.25
 49
-2.5
 49
1.25
 49
-2.5
  0
LTYPE
  2
LONG3
 70
    64
  3
+++++++++++++++..+++++++++++++++
 72
    65
 73
     2
 40
40.0
 49
37.5
 49
-2.5
  0
LTYPE
  2
LONG4
 70
    64
  3
+++++++++++++++..+++++++++++++++
 72
    65
 73
     2
 40
80.0
 49
75.0
 49
-5.0
  0
LTYPE
  2
LONG5
 70
    64
  3
----------  --  ----------  --  
 72
    65
 73
     4
 40
60.0
 49
37.5
 49
-7.5
 49
7.5
 49
-7.5
  0
LTYPE
  2
dashed
 70
   64
  3
-------   -------------   ------
 72
   65
 73
    2
 40
7.5
 49
6
 49
-1.5
  0
LTYPE
  2
dashed_spaced
 70
   64
  3
----        --------        ----
 72
   65
 73
    2
 40
12
 49
6
 49
-6
  0
LTYPE
  2
long_dashed_dotted
 70
   64
  3
------------- --- --------------
 72
   65
 73
    4
 40
15.25
 49
12
 49
-1.5
 49
0.25
 49
-1.5
  0
LTYPE
  2
long_dashed_double-dotted
 70
   64
  3
----------- --- --- ------------
 72
   65
 73
    6
 40
17
 49
12
 49
-1.5
 49
0.25
 49
-1.5
 49
0.25
 49
-1.5
  0
LTYPE
  2
long_dashed_triplicate-dotted
 70
   64
  3
--------- --- --- --- ----------
 72
   65
 73
    8
 40
18.75
 49
12
 49
-1.5
 49
0.25
 49
-1.5
 49
0.25
 49
-1.5
 49
0.25
 49
-1.5
  0
LTYPE
  2
dotted
 70
   64
  3
   -       -       -       -    
 72
   65
 73
    2
 40
1.75
 49
0.25
 49
-1.5
  0
LTYPE
  2
chain
 70
   64
  3
-------------- -- --------------
 72
   65
 73
    4
 40
18.5
 49
12
 49
-1.5
 49
3.5
 49
-1.5
  0
LTYPE
  2
chain_double_dash
 70
   64
  3
------------ -- -- -------------
 72
   65
 73
    6
 40
23.5
 49
12
 49
-1.5
 49
3.5
 49
-1.5
 49
3.5
 49
-1.5
  0
LTYPE
  2
dashed_dotted
 70
   64
  3
-----------     -     ----------
 72
   65
 73
    4
 40
9.25
 49
6
 49
-1.5
 49
0.25
 49
-1.5
  0
LTYPE
  2
double-dashed_dotted
 70
   64
  3
------   -----------   -   -----
 72
   65
 73
    6
 40
16.75
 49
6
 49
-1.5
 49
6
 49
-1.5
 49
0.25
 49
-1.5
  0
LTYPE
  2
dashed_double-dotted
 70
   64
  3
---------    -    -    ---------
 72
   65
 73
    6
 40
11
 49
6
 49
-1.5
 49
0.25
 49
-1.5
 49
0.25
 49
-1.5
  0
LTYPE
  2
double-dashed_double-dotted
 70
   64
  3
-----   ---------   -   -   ----
 72
   65
 73
    8
 40
18.5
 49
6
 49
-1.5
 49
6
 49
-1.5
 49
0.25
 49
-1.5
 49
0.25
 49
-1.5
  0
LTYPE
  2
dashed_triplicate-dotted
 70
   64
  3
-------    -    -    -    ------
 72
   65
 73
    8
 40
12.75
 49
6
 49
-1.5
 49
0.25
 49
-1.5
 49
0.25
 49
-1.5
 49
0.25
 49
-1.5
  0
LTYPE
  2
double-dashed_triplicate-dotted
 70
   64
  3
-----  ---------  -  -  -  -----
 72
   65
 73
   10
 40
20.25
 49
6
 49
-1.5
 49
6
 49
-1.5
 49
0.25
 49
-1.5
 49
0.25
 49
-1.5
 49
0.25
 49
-1.5
  0
LTYPE
  2
undefined
 70
   64
  3
--------------------------------
 72
   65
 73
    0
 40
0
  0
ENDTAB
  0
TABLE
  2
STYLE
  5
3
100
AcDbSymbolTable
 70
     1
  0
STYLE
  5
10
100
AcDbSymbolTableRecord
100
AcDbTextStyleTableRecord
  2
STANDARD
 70
     0
 40
0.0
 41
1.0
 50
0.0
 71
     0
 42
0.2
  3
txt
  4
bigfont.shx
  0
STYLE
  5
26
100
AcDbSymbolTableRecord
100
AcDbTextStyleTableRecord
  2
TATEGAKI
 70
    68
 40
0.0
 41
1.0
 50
0.0
 71
     0
 42
1.0
  3
txt
  4
bigfont.shx
  0
ENDTAB
  0
TABLE
  2
LAYER
 70
    2
  0
LAYER
  2
_0-0_0
 70
   64
 62
    7
  6
CONTINUOUS
  0
LAYER
  2
ADD_LINE
 70
   64
 62
    7
  6
CONTINUOUS
  0
ENDTAB
  0
ENDSEC
  0
SECTION
  2
BLOCKS
  0
ENDSEC
  0
SECTION
  2
ENTITIES
  0
POINT
  8
_0-0_0
 62
    7
 10
-43.497589500000004
 20
471.89999399999999
  0
LINE
  8
_0-0_0
  6
CONTINUOUS
 62
    7
 10
-150.49760249999997
 20
512.90048200000001
 11
-150.49760249999997
 21
512.89947499999994
  0
LINE
  8
_0-0_0
  6
CONTINUOUS
 62
    7
 10
-123.99760449999997
 20
478.55499299999997
 11
-123.99760449999997
 21
480.79998799999998
  0
LINE
  8
_0-0_0
  6
CONTINUOUS
 62
    7
 10
-123.99760449999997
 20
480.79998799999998
 11
-123.99760449999997
 21
482.79998799999998
  0
LINE
  8
_0-0_0
  6
CONTINUOUS
 62
    7
 10
-123.99760449999997
 20
482.79998799999998
 11
-123.99760449999997
 21
483.29998799999998
  0
LINE
  8
_0-0_0
  6
CONTINUOUS
 62
    7
 10
-123.99760449999997
 20
483.29998799999998
 11
-123.99760449999997
 21
484.29998799999998
  0
LINE
  8
_0-0_0
  6
CONTINUOUS
 62
    7
 10
-123.99760449999997
 20
460.19998199999998
 11
-123.99760449999997
 21
478.55499299999997
  0
LINE
  8
_0-0_0
  6
CONTINUOUS
 62
    7
 10
-27.497589500000004
 20
482.29998799999998
 11
-27.497589500000004
 21
482.79998799999998
  0
LINE
  8
_0-0_0
  6
CONTINUOUS
 62
    7
 10
-27.497589500000004
 20
483.29998799999998
 11
-27.497589500000004
 21
484.29998799999998
  0
LINE
  8
_0-0_0
  6
CONTINUOUS
 62
    7
 10
-27.497589500000004
 20
482.79998799999998
 11
-27.497589500000004
 21
483.29998799999998
  0
ARC
  8
_0-0_0
  6
CONTINUOUS
 62
    7
 10
-41.497589500000004
 20
478.55499299999997
 40
0.5
 50
0
 51
123.74898500000002
  0
ARC
  8
_0-0_0
  6
CONTINUOUS
 62
    7
 10
-42.997589500000004
 20
480.79998799999998
 40
2.2000000000000002
 50
180.00000900000003
 51
303.74900400000001
  0
LINE
  8
_0-0_0
  6
CONTINUOUS
 62
    7
 10
-45.1975865
 20
480.79998799999998
 11
-45.1975865
 21
482.29998799999998
  0
LINE
  8
_0-0_0
  6
CONTINUOUS
 62
    7
 10
-119.79760350000004
 20
482.29998799999998
 11
-45.1975865
 21
482.29998799999998
  0
LINE
  8
_0-0_0
  6
CONTINUOUS
 62
    7
 10
-119.79760350000004
 20
482.29998799999998
 11
-119.79760350000004
 21
480.79998799999998
  0
ARC
  8
_0-0_0
  6
CONTINUOUS
 62
    7
 10
-121.99760449999997
 20
480.79998799999998
 40
2.2000000000000002
 50
236.25102899999999
 51
0
  0
ARC
  8
_0-0_0
  6
CONTINUOUS
 62
    7
 10
-123.49760449999997
 20
478.55499299999997
 40
0.5
 50
56.251010000000008
 51
180.00000900000001
  0
ARC
  8
_0-0_0
  6
CONTINUOUS
 62
    7
 10
-121.99760449999997
 20
460.19998199999998
 40
2
 50
180.00000900000003
 51
269.99999700000001
  0
LINE
  8
_0-0_0
  6
CONTINUOUS
 62
    7
 10
-121.99760449999997
 20
458.19998199999998
 11
-120.99760449999997
 21
458.19998199999998
  0
LINE
  8
_0-0_0
  6
CONTINUOUS
 62
    7
 10
-120.99760449999997
 20
458.19998199999998
 11
-120.99760449999997
 21
459.79998799999998
  0
ARC
  8
_0-0_0
  6
CONTINUOUS
 62
    7
 10
-120.49760449999997
 20
459.79998799999998
 40
0.5
 50
90.000003000000007
 51
180.00000900000001
  0
LINE
  8
_0-0_0
  6
CONTINUOUS
 62
    7
 10
-120.29760350000004
 20
460.29998799999998
 11
-120.49760449999997
 21
460.29998799999998
  0
ARC
  8
_0-0_0
  6
CONTINUOUS
 62
    7
 10
-120.29760350000004
 20
459.79998799999998
 40
0.5
 50
90.000003000000007
 51
180.00000900000001
  0
LINE
  8
_0-0_0
  6
CONTINUOUS
 62
    7
 10
-120.79760350000004
 20
458.29998799999998
 11
-120.79760350000004
 21
459.79998799999998
  0
LINE
  8
_0-0_0
  6
CONTINUOUS
 62
    7
 10
-51.197593499999982
 20
458.29998799999998
 11
-120.79760350000004
 21
458.29998799999998
  0
LINE
  8
_0-0_0
  6
CONTINUOUS
 62
    7
 10
-51.197593499999982
 20
458.29998799999998
 11
-51.197593499999982
 21
459.79998799999998
  0
ARC
  8
_0-0_0
  6
CONTINUOUS
 62
    7
 10
-51.697593499999982
 20
459.79998799999998
 40
0.5
 50
0
 51
90.000003000000007
  0
LINE
  8
_0-0_0
  6
CONTINUOUS
 62
    7
 10
-51.497596499999986
 20
460.29998799999998
 11
-51.697593499999982
 21
460.29998799999998
  0
ARC
  8
_0-0_0
  6
CONTINUOUS
 62
    7
 10
-51.497596499999986
 20
459.79998799999998
 40
0.5
 50
0
 51
90.000003000000007
  0
LINE
  8
_0-0_0
  6
CONTINUOUS
 62
    7
 10
-50.997596499999986
 20
459.79998799999998
 11
-50.997596499999986
 21
458.19998199999998
  0
LINE
  8
_0-0_0
  6
CONTINUOUS
 62
    7
 10
-50.997596499999986
 20
458.19998199999998
 11
-40.997589500000004
 21
458.19998199999998
  0
LINE
  8
_0-0_0
  6
CONTINUOUS
 62
    7
 10
-40.997589500000004
 20
458.19998199999998
 11
-40.997589500000004
 21
459.09997599999997
  0
LINE
  8
_0-0_0
  6
CONTINUOUS
 62
    7
 10
-104.99760449999997
 20
461.704071
 11
-63.597602499999994
 21
461.704071
  0
LINE
  8
_0-0_0
  6
CONTINUOUS
 62
    7
 10
-104.99760449999997
 20
481.29998799999998
 11
-63.597602499999994
 21
481.29998799999998
  0
ARC
  8
_0-0_0
  6
CONTINUOUS
 62
    7
 10
-52.29759949999999
 20
460.49997000000002
 40
0.2
 50
180.00000900000003
 51
269.99999700000001
  0
LINE
  8
_0-0_0
  6
CONTINUOUS
 62
    7
 10
-52.29759949999999
 20
460.29998799999998
 11
-119.69760550000001
 21
460.29998799999998
  0
ARC
  8
_0-0_0
  6
CONTINUOUS
 62
    7
 10
-119.69760550000001
 20
460.49997000000002
 40
0.2
 50
269.99999700000001
 51
0
  0
ARC
  8
_0-0_0
  6
CONTINUOUS
 62
    7
 10
-119.29760350000004
 20
460.49997000000002
 40
0.2
 50
90.000003000000007
 51
180.00000900000001
  0
LINE
  8
_0-0_0
  6
CONTINUOUS
 62
    7
 10
-119.29760350000004
 20
460.69998199999998
 11
-52.697593499999982
 21
460.69998199999998
  0
ARC
  8
_0-0_0
  6
CONTINUOUS
 62
    7
 10
-52.697593499999982
 20
460.49997000000002
 40
0.2
 50
0
 51
90.000003000000007
  0
LINE
  8
_0-0_0
  6
CONTINUOUS
 62
    7
 10
-123.99760449999997
 20
483.29998799999998
 11
-27.497589500000004
 21
483.29998799999998
  0
LINE
  8
_0-0_0
  6
CONTINUOUS
 62
    7
 10
-27.997589500000004
 20
482.29998799999998
 11
-27.497589500000004
 21
482.29998799999998
  0
LINE
  8
_0-0_0
  6
CONTINUOUS
 62
    7
 10
-40.997589500000004
 20
460.29998799999998
 11
-40.997589500000004
 21
459.09997599999997
  0
LINE
  8
_0-0_0
  6
CONTINUOUS
 62
    7
 10
-40.997589500000004
 20
460.29998799999998
 11
-40.997589500000004
 21
477.89999399999999
  0
LINE
  8
_0-0_0
  6
CONTINUOUS
 62
    7
 10
-40.997589500000004
 20
479.87734999999998
 11
-40.997589500000004
 21
477.89999399999999
  0
LINE
  8
_0-0_0
  6
CONTINUOUS
 62
    7
 10
-121.99760449999997
 20
466.78967299999999
 11
-121.99760449999997
 21
477.23767099999998
  0
ARC
  8
_0-0_0
  6
CONTINUOUS
 62
    7
 10
-121.99760449999997
 20
480.79998799999998
 40
2.7000000000000002
 50
285.68033600000007
 51
352.23356600000005
  0
LINE
  8
_0-0_0
  6
CONTINUOUS
 62
    7
 10
-44.997589500000004
 20
478.29998799999998
 11
-44.997589500000004
 21
464.69998199999998
  0
LINE
  8
_0-0_0
  6
CONTINUOUS
 62
    7
 10
-119.99760449999997
 20
482.29998799999998
 11
-119.79760350000004
 21
482.29998799999998
  0
LINE
  8
_0-0_0
  6
CONTINUOUS
 62
    7
 10
-119.99760449999997
 20
482.29998799999998
 11
-119.99760449999997
 21
480.79998799999998
  0
ARC
  8
_0-0_0
  6
CONTINUOUS
 62
    7
 10
-121.99760449999997
 20
480.79998799999998
 40
2
 50
180.00000900000003
 51
0.0000000000000254
  0
LINE
  8
_0-0_0
  6
CONTINUOUS
 62
    7
 10
-27.997589500000004
 20
482.29998799999998
 11
-27.997589500000004
 21
480.59997599999997
  0
LINE
  8
_0-0_0
  6
CONTINUOUS
 62
    7
 10
-40.997589500000004
 20
458.29998799999998
 11
-28.997589500000004
 21
458.29998799999998
  0
LINE
  8
_0-0_0
  6
CONTINUOUS
 62
    7
 10
-28.997589500000004
 20
458.29998799999998
 11
-24.322143499999981
 21
458.29998799999998
  0
LINE
  8
_0-0_0
  6
CONTINUOUS
 62
    7
 10
-28.997589500000004
 20
463.79998799999998
 11
-28.997589500000004
 21
460.79998799999998
  0
LINE
  8
_0-0_0
  6
CONTINUOUS
 62
    7
 10
-28.997589500000004
 20
460.79998799999998
 11
-28.997589500000004
 21
460.29998799999998
  0
LINE
  8
_0-0_0
  6
CONTINUOUS
 62
    7
 10
-28.997589500000004
 20
463.79998799999998
 11
-28.997589500000004
 21
464.29998799999998
  0
ARC
  8
_0-0_0
  6
CONTINUOUS
 62
    7
 10
-34.997604499999966
 20
463.60000600000001
 40
0.500016
 50
180.00117
 51
359.995611
  0
LINE
  8
_0-0_0
  6
CONTINUOUS
 62
    7
 10
-34.497589500000004
 20
463.59997599999997
 11
-34.497589500000004
 21
475.59997599999997
  0
ARC
  8
_0-0_0
  6
CONTINUOUS
 62
    7
 10
-34.997604499999966
 20
475.59997599999997
 40
0.500016
 50
0.001164
 51
179.99560600000004
  0
LINE
  8
_0-0_0
  6
CONTINUOUS
 62
    7
 10
-35.497589500000004
 20
463.59997599999997
 11
-35.497589500000004
 21
475.59997599999997
  0
ARC
  8
_0-0_0
  6
CONTINUOUS
 62
    7
 10
-33.497604499999966
 20
463.60000600000001
 40
0.500016
 50
180.00117
 51
359.995611
  0
LINE
  8
_0-0_0
  6
CONTINUOUS
 62
    7
 10
-32.997589500000004
 20
463.59997599999997
 11
-32.997589500000004
 21
475.59997599999997
  0
ARC
  8
_0-0_0
  6
CONTINUOUS
 62
    7
 10
-33.497604499999966
 20
475.59997599999997
 40
0.500016
 50
0.001164
 51
179.99560600000004
  0
LINE
  8
_0-0_0
  6
CONTINUOUS
 62
    7
 10
-33.997589500000004
 20
463.59997599999997
 11
-33.997589500000004
 21
475.59997599999997
  0
ARC
  8
_0-0_0
  6
CONTINUOUS
 62
    7
 10
-31.997604499999966
 20
463.60000600000001
 40
0.500016
 50
180.00117
 51
359.995611
  0
LINE
  8
_0-0_0
  6
CONTINUOUS
 62
    7
 10
-31.497589500000004
 20
463.59997599999997
 11
-31.497589500000004
 21
475.59997599999997
  0
ARC
  8
_0-0_0
  6
CONTINUOUS
 62
    7
 10
-31.997604499999966
 20
475.59997599999997
 40
0.500016
 50
0.001164
 51
179.99560600000004
  0
LINE
  8
_0-0_0
  6
CONTINUOUS
 62
    7
 10
-32.497589500000004
 20
463.59997599999997
 11
-32.497589500000004
 21
475.59997599999997
  0
ARC
  8
_0-0_0
  6
CONTINUOUS
 62
    7
 10
-30.497604499999966
 20
463.60000600000001
 40
0.500016
 50
180.00117
 51
359.995611
  0
LINE
  8
_0-0_0
  6
CONTINUOUS
 62
    7
 10
-29.997589500000004
 20
463.59997599999997
 11
-29.997589500000004
 21
475.59997599999997
  0
ARC
  8
_0-0_0
  6
CONTINUOUS
 62
    7
 10
-30.497604499999966
 20
475.59997599999997
 40
0.500016
 50
0.001164
 51
179.99560600000004
  0
LINE
  8
_0-0_0
  6
CONTINUOUS
 62
    7
 10
-30.997589500000004
 20
463.59997599999997
 11
-30.997589500000004
 21
475.59997599999997
  0
LINE
  8
_0-0_0
  6
CONTINUOUS
 62
    7
 10
-40.997589500000004
 20
480.59997599999997
 11
-40.997589500000004
 21
479.87734999999998
  0
LINE
  8
_0-0_0
  6
CONTINUOUS
 62
    7
 10
-27.997589500000004
 20
480.59997599999997
 11
-40.997589500000004
 21
480.59997599999997
  0
LINE
  8
_0-0_0
  6
CONTINUOUS
 62
    7
 10
-40.997589500000004
 20
482.29998799999998
 11
-27.997589500000004
 21
482.29998799999998
  0
LINE
  8
_0-0_0
  6
CONTINUOUS
 62
    7
 10
-40.997589500000004
 20
482.29998799999998
 11
-40.997589500000004
 21
480.59997599999997
  0
LINE
  8
_0-0_0
  6
CONTINUOUS
 62
    7
 10
-51.54759949999999
 20
460.27694700000001
 11
-51.54759949999999
 21
460.29998799999998
  0
ARC
  8
_0-0_0
  6
CONTINUOUS
 62
    7
 10
-24.322143499999981
 20
460.29998799999998
 40
2
 50
269.99999700000001
 51
288.43501300000003
  0
LINE
  8
_0-0_0
  6
CONTINUOUS
 62
    7
 10
-45.1975865
 20
482.29998799999998
 11
-44.997589500000004
 21
482.29998799999998
  0
ARC
  8
_0-0_0
  6
CONTINUOUS
 62
    7
 10
-42.997589500000004
 20
480.79998799999998
 40
2
 50
180.00000900000003
 51
0.0000000000000254
  0
LINE
  8
_0-0_0
  6
CONTINUOUS
 62
    7
 10
-44.997589500000004
 20
480.79998799999998
 11
-44.997589500000004
 21
482.29998799999998
  0
LINE
  8
_0-0_0
  6
CONTINUOUS
 62
    7
 10
-23.247604499999966
 20
458.54998799999998
 11
-23.689697499999966
 21
458.40261900000002
  0
ARC
  8
_0-0_0
  6
CONTINUOUS
 62
    7
 10
-53.997596499999986
 20
473.89999399999999
 40
2.25
 50
269.99999700000001
 51
90.000002999999992
  0
LINE
  8
_0-0_0
  6
CONTINUOUS
 62
    7
 10
-57.997604499999966
 20
471.64999399999999
 11
-53.997596499999986
 21
471.64999399999999
  0
ARC
  8
_0-0_0
  6
CONTINUOUS
 62
    7
 10
-57.997604499999966
 20
473.89999399999999
 40
2.25
 50
90.000003000000007
 51
269.99999700000006
  0
ARC
  8
_0-0_0
  6
CONTINUOUS
 62
    7
 10
-109.99760449999997
 20
473.89999399999999
 40
2.25
 50
269.99999700000001
 51
90.000002999999992
  0
LINE
  8
_0-0_0
  6
CONTINUOUS
 62
    7
 10
-113.99760849999996
 20
471.64999399999999
 11
-109.99760449999997
 21
471.64999399999999
  0
ARC
  8
_0-0_0
  6
CONTINUOUS
 62
    7
 10
-113.99760849999996
 20
473.89999399999999
 40
2.25
 50
90.000003000000007
 51
269.99999700000006
  0
LINE
  8
_0-0_0
  6
CONTINUOUS
 62
    7
 10
-57.997604499999966
 20
476.14999399999999
 11
-53.997596499999986
 21
476.14999399999999
  0
LINE
  8
_0-0_0
  6
CONTINUOUS
 62
    7
 10
-113.99760849999996
 20
476.14999399999999
 11
-109.99760449999997
 21
476.14999399999999
  0
LINE
  8
_0-0_0
  6
CONTINUOUS
 62
    7
 10
-51.756996500000014
 20
469.89999399999999
 11
-60.238205499999992
 21
469.89999399999999
  0
LINE
  8
_0-0_0
  6
CONTINUOUS
 62
    7
 10
-51.756996500000014
 20
469.89999399999999
 11
-49.447593499999982
 21
473.89999399999999
  0
LINE
  8
_0-0_0
  6
CONTINUOUS
 62
    7
 10
-49.447593499999982
 20
473.89999399999999
 11
-51.756996500000014
 21
477.89999399999999
  0
LINE
  8
_0-0_0
  6
CONTINUOUS
 62
    7
 10
-60.238205499999992
 20
477.89999399999999
 11
-51.756996500000014
 21
477.89999399999999
  0
LINE
  8
_0-0_0
  6
CONTINUOUS
 62
    7
 10
-62.547607500000026
 20
473.89999399999999
 11
-60.238205499999992
 21
477.89999399999999
  0
LINE
  8
_0-0_0
  6
CONTINUOUS
 62
    7
 10
-60.238205499999992
 20
469.89999399999999
 11
-62.547607500000026
 21
473.89999399999999
  0
LINE
  8
_0-0_0
  6
CONTINUOUS
 62
    7
 10
-107.7570035
 20
469.89999399999999
 11
-116.23820149999995
 21
469.89999399999999
  0
LINE
  8
_0-0_0
  6
CONTINUOUS
 62
    7
 10
-105.44760150000002
 20
473.89999399999999
 11
-107.7570035
 21
469.89999399999999
  0
LINE
  8
_0-0_0
  6
CONTINUOUS
 62
    7
 10
-105.44760150000002
 20
473.89999399999999
 11
-107.7570035
 21
477.89999399999999
  0
LINE
  8
_0-0_0
  6
CONTINUOUS
 62
    7
 10
-116.23820149999995
 20
477.89999399999999
 11
-107.7570035
 21
477.89999399999999
  0
LINE
  8
_0-0_0
  6
CONTINUOUS
 62
    7
 10
-118.54760350000004
 20
473.89999399999999
 11
-116.23820149999995
 21
477.89999399999999
  0
LINE
  8
_0-0_0
  6
CONTINUOUS
 62
    7
 10
-118.54760350000004
 20
473.89999399999999
 11
-116.23820149999995
 21
469.89999399999999
  0
CIRCLE
  8
_0-0_0
  6
CONTINUOUS
 62
    7
 10
-42.997589500000004
 20
480.79998799999998
 40
1.4750000000000001
  0
CIRCLE
  8
_0-0_0
  6
CONTINUOUS
 62
    7
 10
-121.99760449999997
 20
480.79998799999998
 40
1.4750000000000001
  0
LINE
  8
_0-0_0
  6
CONTINUOUS
 62
    7
 10
-42.547592499999951
 20
480.59997599999997
 11
-41.897598499999958
 21
480.59997599999997
  0
ARC
  8
_0-0_0
  6
CONTINUOUS
 62
    7
 10
-42.547592499999951
 20
480.34997599999997
 40
0.25
 50
90.000003000000007
 51
180.00000900000001
  0
LINE
  8
_0-0_0
  6
CONTINUOUS
 62
    7
 10
-42.797592499999951
 20
480.34997599999997
 11
-42.797592499999951
 21
479.69998199999998
  0
LINE
  8
_0-0_0
  6
CONTINUOUS
 62
    7
 10
-43.1975865
 20
479.69998199999998
 11
-42.797592499999951
 21
479.69998199999998
  0
LINE
  8
_0-0_0
  6
CONTINUOUS
 62
    7
 10
-43.1975865
 20
479.69998199999998
 11
-43.1975865
 21
480.34997599999997
  0
ARC
  8
_0-0_0
  6
CONTINUOUS
 62
    7
 10
-43.4475865
 20
480.34997599999997
 40
0.25
 50
0
 51
90.000003000000007
  0
LINE
  8
_0-0_0
  6
CONTINUOUS
 62
    7
 10
-44.097595500000011
 20
480.59997599999997
 11
-43.4475865
 21
480.59997599999997
  0
LINE
  8
_0-0_0
  6
CONTINUOUS
 62
    7
 10
-44.097595500000011
 20
480.59997599999997
 11
-44.097595500000011
 21
481
  0
LINE
  8
_0-0_0
  6
CONTINUOUS
 62
    7
 10
-43.4475865
 20
481
 11
-44.097595500000011
 21
481
  0
ARC
  8
_0-0_0
  6
CONTINUOUS
 62
    7
 10
-43.4475865
 20
481.25
 40
0.25
 50
269.99999700000001
 51
0
  0
LINE
  8
_0-0_0
  6
CONTINUOUS
 62
    7
 10
-43.1975865
 20
481.25
 11
-43.1975865
 21
481.89999399999999
  0
LINE
  8
_0-0_0
  6
CONTINUOUS
 62
    7
 10
-42.797592499999951
 20
481.89999399999999
 11
-43.1975865
 21
481.89999399999999
  0
LINE
  8
_0-0_0
  6
CONTINUOUS
 62
    7
 10
-42.797592499999951
 20
481.89999399999999
 11
-42.797592499999951
 21
481.25
  0
ARC
  8
_0-0_0
  6
CONTINUOUS
 62
    7
 10
-42.547592499999951
 20
481.25
 40
0.25
 50
180.00000900000003
 51
269.99999700000001
  0
LINE
  8
_0-0_0
  6
CONTINUOUS
 62
    7
 10
-41.897598499999958
 20
481
 11
-42.547592499999951
 21
481
  0
LINE
  8
_0-0_0
  6
CONTINUOUS
 62
    7
 10
-41.897598499999958
 20
481
 11
-41.897598499999958
 21
480.59997599999997
  0
LINE
  8
_0-0_0
  6
CONTINUOUS
 62
    7
 10
-121.54760350000004
 20
480.59997599999997
 11
-120.89760549999994
 21
480.59997599999997
  0
ARC
  8
_0-0_0
  6
CONTINUOUS
 62
    7
 10
-121.54760350000004
 20
480.34997599999997
 40
0.25
 50
90.000003000000007
 51
180.00000900000001
  0
LINE
  8
_0-0_0
  6
CONTINUOUS
 62
    7
 10
-121.79760350000004
 20
480.34997599999997
 11
-121.79760350000004
 21
479.69998199999998
  0
LINE
  8
_0-0_0
  6
CONTINUOUS
 62
    7
 10
-122.19760550000001
 20
479.69998199999998
 11
-121.79760350000004
 21
479.69998199999998
  0
LINE
  8
_0-0_0
  6
CONTINUOUS
 62
    7
 10
-122.19760550000001
 20
479.69998199999998
 11
-122.19760550000001
 21
480.34997599999997
  0
ARC
  8
_0-0_0
  6
CONTINUOUS
 62
    7
 10
-122.44760550000001
 20
480.34997599999997
 40
0.25
 50
0
 51
90.000003000000007
  0
LINE
  8
_0-0_0
  6
CONTINUOUS
 62
    7
 10
-123.09760649999998
 20
480.59997599999997
 11
-122.44760550000001
 21
480.59997599999997
  0
LINE
  8
_0-0_0
  6
CONTINUOUS
 62
    7
 10
-123.09760649999998
 20
480.59997599999997
 11
-123.09760649999998
 21
481
  0
LINE
  8
_0-0_0
  6
CONTINUOUS
 62
    7
 10
-122.44760550000001
 20
481
 11
-123.09760649999998
 21
481
  0
ARC
  8
_0-0_0
  6
CONTINUOUS
 62
    7
 10
-122.44760550000001
 20
481.25
 40
0.25
 50
269.99999700000001
 51
0
  0
LINE
  8
_0-0_0
  6
CONTINUOUS
 62
    7
 10
-122.19760550000001
 20
481.25
 11
-122.19760550000001
 21
481.89999399999999
  0
LINE
  8
_0-0_0
  6
CONTINUOUS
 62
    7
 10
-121.79760350000004
 20
481.89999399999999
 11
-122.19760550000001
 21
481.89999399999999
  0
LINE
  8
_0-0_0
  6
CONTINUOUS
 62
    7
 10
-121.79760350000004
 20
481.89999399999999
 11
-121.79760350000004
 21
481.25
  0
ARC
  8
_0-0_0
  6
CONTINUOUS
 62
    7
 10
-121.54760350000004
 20
481.25
 40
0.25
 50
180.00000900000003
 51
269.99999700000001
  0
LINE
  8
_0-0_0
  6
CONTINUOUS
 62
    7
 10
-120.89760549999994
 20
481
 11
-121.54760350000004
 21
481
  0
LINE
  8
_0-0_0
  6
CONTINUOUS
 62
    7
 10
-120.89760549999994
 20
481
 11
-120.89760549999994
 21
480.59997599999997
  0
LINE
  8
_0-0_0
  6
CONTINUOUS
 62
    7
 10
-120.44760550000001
 20
460.27694700000001
 11
-120.44760550000001
 21
460.29998799999998
  0
LINE
  8
_0-0_0
  6
CONTINUOUS
 62
    7
 10
-101.99760449999997
 20
478.29998799999998
 11
-101.99760449999997
 21
465.34298699999999
  0
ARC
  8
_0-0_0
  6
CONTINUOUS
 62
    7
 10
-104.99760449999997
 20
478.29998799999998
 40
3
 50
0
 51
90.000003000000007
  0
LINE
  8
_0-0_0
  6
CONTINUOUS
 62
    7
 10
-65.997604499999966
 20
464.69998199999998
 11
-65.997604499999966
 21
478.29998799999998
  0
LINE
  8
_0-0_0
  6
CONTINUOUS
 62
    7
 10
-82.510116499999981
 20
474.46963499999998
 11
-83.810119499999985
 21
477.96963499999998
  0
ARC
  8
_0-0_0
  6
CONTINUOUS
 62
    7
 10
-85.29759949999999
 20
474.39999399999999
 40
0.2
 50
159.62357
 51
269.99999700000001
  0
LINE
  8
_0-0_0
  6
CONTINUOUS
 62
    7
 10
-40.997589500000004
 20
479.89999399999999
 11
-24.322143499999981
 21
479.89999399999999
  0
ARC
  8
_0-0_0
  6
CONTINUOUS
 62
    7
 10
-24.322143499999981
 20
477.89999399999999
 40
2
 50
71.565000999999995
 51
90.000003000000007
  0
LINE
  8
_0-0_0
  6
CONTINUOUS
 62
    7
 10
-23.689682500000004
 20
479.79736300000002
 11
-23.809188500000005
 21
479.83297699999997
  0
LINE
  8
_0-0_0
  6
CONTINUOUS
 62
    7
 10
-23.809188500000005
 20
479.83297699999997
 11
-23.930740499999956
 21
479.86084
  0
LINE
  8
_0-0_0
  6
CONTINUOUS
 62
    7
 10
-23.930740499999956
 20
479.86084
 11
-24.053863500000034
 21
479.88088999999997
  0
LINE
  8
_0-0_0
  6
CONTINUOUS
 62
    7
 10
-24.053863500000034
 20
479.88088999999997
 11
-24.178085499999952
 21
479.89300500000002
  0
LINE
  8
_0-0_0
  6
CONTINUOUS
 62
    7
 10
-24.178085499999952
 20
479.89300500000002
 11
-24.302917499999978
 21
479.89712500000002
  0
LINE
  8
_0-0_0
  6
CONTINUOUS
 62
    7
 10
-24.302917499999978
 20
479.89712500000002
 11
-24.322143499999981
 21
479.897064
  0
LINE
  8
_0-0_0
  6
CONTINUOUS
 62
    7
 10
-19.36514249999999
 20
478.35583500000001
 11
-23.689697499999966
 21
479.79736300000002
  0
LINE
  8
_0-0_0
  6
CONTINUOUS
 62
    7
 10
-19.523254500000007
 20
463.79998799999998
 11
-18.829895500000021
 21
463.79998799999998
  0
LINE
  8
_0-0_0
  6
CONTINUOUS
 62
    7
 10
-19.523254500000007
 20
463.79998799999998
 11
-23.847808499999985
 21
463.79998799999998
  0
LINE
  8
_0-0_0
  6
CONTINUOUS
 62
    7
 10
-24.322143499999981
 20
463.79998799999998
 11
-23.847808499999985
 21
463.79998799999998
  0
LINE
  8
_0-0_0
  6
CONTINUOUS
 62
    7
 10
-28.997589500000004
 20
463.79998799999998
 11
-24.322143499999981
 21
463.79998799999998
  0
LINE
  8
_0-0_0
  6
CONTINUOUS
 62
    7
 10
-17.997589500000004
 20
463.04995700000001
 11
-17.997589500000004
 21
464.17095999999998
  0
LINE
  8
_0-0_0
  6
CONTINUOUS
 62
    7
 10
-17.997589500000004
 20
465.092285
 11
-17.997589500000004
 21
464.17095999999998
  0
LINE
  8
_0-0_0
  6
CONTINUOUS
 62
    7
 10
-6.9975895000000037
 20
463.84997599999997
 11
-6.9975895000000037
 21
471.83154300000001
  0
ARC
  8
_0-0_0
  6
CONTINUOUS
 62
    7
 10
-13.171478499999978
 20
472.35086100000001
 40
4.9238749999999998
 50
352.49423299999995
 51
1.5359699999999901
  0
LINE
  8
_0-0_0
  6
CONTINUOUS
 62
    7
 10
-8.2897644999999898
 20
466.492279
 11
-8.195434500000033
 21
466.738922
  0
LINE
  8
_0-0_0
  6
CONTINUOUS
 62
    7
 10
-8.195434500000033
 20
466.738922
 11
-8.1114804999999706
 21
466.978882
  0
LINE
  8
_0-0_0
  6
CONTINUOUS
 62
    7
 10
-8.1114804999999706
 20
466.978882
 11
-8.0373234999999568
 21
467.21301299999999
  0
LINE
  8
_0-0_0
  6
CONTINUOUS
 62
    7
 10
-8.0373234999999568
 20
467.21301299999999
 11
-7.9724424999999997
 21
467.442047
  0
LINE
  8
_0-0_0
  6
CONTINUOUS
 62
    7
 10
-7.9724424999999997
 20
467.442047
 11
-7.9163975000000164
 21
467.666718
  0
LINE
  8
_0-0_0
  6
CONTINUOUS
 62
    7
 10
-7.9163975000000164
 20
467.666718
 11
-7.8688354999999888
 21
467.88769500000001
  0
LINE
  8
_0-0_0
  6
CONTINUOUS
 62
    7
 10
-7.8688354999999888
 20
467.88769500000001
 11
-7.8294374999999832
 21
468.10562099999999
  0
LINE
  8
_0-0_0
  6
CONTINUOUS
 62
    7
 10
-7.8294374999999832
 20
468.10562099999999
 11
-7.7979434999999739
 21
468.32104499999997
  0
LINE
  8
_0-0_0
  6
CONTINUOUS
 62
    7
 10
-7.7979434999999739
 20
468.32104499999997
 11
-7.7741694999999709
 21
468.53457700000001
  0
LINE
  8
_0-0_0
  6
CONTINUOUS
 62
    7
 10
-7.7741694999999709
 20
468.53457700000001
 11
-7.758239500000002
 21
468.74230999999997
  0
LINE
  8
_0-0_0
  6
CONTINUOUS
 62
    7
 10
-7.758239500000002
 20
468.74230999999997
 11
-7.7494815000000017
 21
468.94915800000001
  0
LINE
  8
_0-0_0
  6
CONTINUOUS
 62
    7
 10
-7.7494815000000017
 20
468.94915800000001
 11
-7.7478485000000319
 21
469.15560899999997
  0
LINE
  8
_0-0_0
  6
CONTINUOUS
 62
    7
 10
-7.7478485000000319
 20
469.15560899999997
 11
-7.7533114999999952
 21
469.362213
  0
LINE
  8
_0-0_0
  6
CONTINUOUS
 62
    7
 10
-7.7533114999999952
 20
469.362213
 11
-7.7659304999999677
 21
469.56939699999998
  0
LINE
  8
_0-0_0
  6
CONTINUOUS
 62
    7
 10
-7.7659304999999677
 20
469.56939699999998
 11
-7.7857364999999845
 21
469.77767999999998
  0
LINE
  8
_0-0_0
  6
CONTINUOUS
 62
    7
 10
-7.7857364999999845
 20
469.77767999999998
 11
-7.8128815000000031
 21
469.98761000000002
  0
LINE
  8
_0-0_0
  6
CONTINUOUS
 62
    7
 10
-7.8128815000000031
 20
469.98761000000002
 11
-7.8475344999999948
 21
470.19967700000001
  0
LINE
  8
_0-0_0
  6
CONTINUOUS
 62
    7
 10
-7.8475344999999948
 20
470.19967700000001
 11
-7.8898775000000114
 21
470.41442899999998
  0
LINE
  8
_0-0_0
  6
CONTINUOUS
 62
    7
 10
-7.8898775000000114
 20
470.41442899999998
 11
-7.9402005000000031
 21
470.63241599999998
  0
LINE
  8
_0-0_0
  6
CONTINUOUS
 62
    7
 10
-7.9402005000000031
 20
470.63241599999998
 11
-7.9944454999999834
 21
470.83871499999998
  0
LINE
  8
_0-0_0
  6
CONTINUOUS
 62
    7
 10
-7.9944454999999834
 20
470.83871499999998
 11
-8.0561524999999961
 21
471.04882800000001
  0
LINE
  8
_0-0_0
  6
CONTINUOUS
 62
    7
 10
-8.0561524999999961
 20
471.04882800000001
 11
-8.1256714999999531
 21
471.26327499999996
  0
LINE
  8
_0-0_0
  6
CONTINUOUS
 62
    7
 10
-8.1256714999999531
 20
471.26327499999996
 11
-8.2033844999999701
 21
471.48269699999997
  0
LINE
  8
_0-0_0
  6
CONTINUOUS
 62
    7
 10
-8.2033844999999701
 20
471.48269699999997
 11
-8.2897644999999898
 21
471.707672
  0
ARC
  8
_0-0_0
  6
CONTINUOUS
 62
    7
 10
-13.161315500000001
 20
465.84997599999997
 40
4.9136889999999998
 50
352.48898799999995
 51
7.5110139999999577
  0
LINE
  8
_0-0_0
  6
CONTINUOUS
 62
    7
 10
-8.2897644999999898
 20
465.207672
 11
-8.2352755000000002
 21
465.13775599999997
  0
LINE
  8
_0-0_0
  6
CONTINUOUS
 62
    7
 10
-8.2352755000000002
 20
465.13775599999997
 11
-8.1841734999999858
 21
465.06890900000002
  0
LINE
  8
_0-0_0
  6
CONTINUOUS
 62
    7
 10
-8.1841734999999858
 20
465.06890900000002
 11
-8.1365354999999795
 21
465.00140399999998
  0
LINE
  8
_0-0_0
  6
CONTINUOUS
 62
    7
 10
-8.1365354999999795
 20
465.00140399999998
 11
-8.0920414999999934
 21
464.93487599999997
  0
LINE
  8
_0-0_0
  6
CONTINUOUS
 62
    7
 10
-8.0920414999999934
 20
464.93487599999997
 11
-8.0373234999999568
 21
464.84732099999997
  0
LINE
  8
_0-0_0
  6
CONTINUOUS
 62
    7
 10
-8.0373234999999568
 20
464.84732099999997
 11
-7.9878085000000283
 21
464.76123100000001
  0
LINE
  8
_0-0_0
  6
CONTINUOUS
 62
    7
 10
-7.9878085000000283
 20
464.76123100000001
 11
-7.9433444999999665
 21
464.67639199999996
  0
LINE
  8
_0-0_0
  6
CONTINUOUS
 62
    7
 10
-7.9433444999999665
 20
464.67639199999996
 11
-7.8963774999999714
 21
464.57607999999999
  0
LINE
  8
_0-0_0
  6
CONTINUOUS
 62
    7
 10
-7.8963774999999714
 20
464.57607999999999
 11
-7.856170499999962
 21
464.47714200000001
  0
LINE
  8
_0-0_0
  6
CONTINUOUS
 62
    7
 10
-7.856170499999962
 20
464.47714200000001
 11
-7.8225095000000238
 21
464.37939499999999
  0
LINE
  8
_0-0_0
  6
CONTINUOUS
 62
    7
 10
-7.8225095000000238
 20
464.37939499999999
 11
-7.7952114999999935
 21
464.28259300000002
  0
LINE
  8
_0-0_0
  6
CONTINUOUS
 62
    7
 10
-7.7952114999999935
 20
464.28259300000002
 11
-7.7741694999999709
 21
464.18652400000002
  0
LINE
  8
_0-0_0
  6
CONTINUOUS
 62
    7
 10
-7.7741694999999709
 20
464.18652400000002
 11
-7.758239500000002
 21
464.082672
  0
LINE
  8
_0-0_0
  6
CONTINUOUS
 62
    7
 10
-7.758239500000002
 20
464.082672
 11
-7.7494815000000017
 21
463.97924799999998
  0
LINE
  8
_0-0_0
  6
CONTINUOUS
 62
    7
 10
-7.7494815000000017
 20
463.97924799999998
 11
-7.7478485000000319
 21
463.87600700000002
  0
LINE
  8
_0-0_0
  6
CONTINUOUS
 62
    7
 10
-7.7478485000000319
 20
463.87600700000002
 11
-7.7533114999999952
 21
463.77273600000001
  0
LINE
  8
_0-0_0
  6
CONTINUOUS
 62
    7
 10
-7.7533114999999952
 20
463.77273600000001
 11
-7.7659304999999677
 21
463.669129
  0
LINE
  8
_0-0_0
  6
CONTINUOUS
 62
    7
 10
-7.7659304999999677
 20
463.669129
 11
-7.7857364999999845
 21
463.56497200000001
  0
LINE
  8
_0-0_0
  6
CONTINUOUS
 62
    7
 10
-7.7857364999999845
 20
463.56497200000001
 11
-7.8128815000000031
 21
463.46002199999998
  0
LINE
  8
_0-0_0
  6
CONTINUOUS
 62
    7
 10
-7.8128815000000031
 20
463.46002199999998
 11
-7.8475344999999948
 21
463.35400399999997
  0
LINE
  8
_0-0_0
  6
CONTINUOUS
 62
    7
 10
-7.8475344999999948
 20
463.35400399999997
 11
-7.8898775000000114
 21
463.24661299999997
  0
LINE
  8
_0-0_0
  6
CONTINUOUS
 62
    7
 10
-7.8898775000000114
 20
463.24661299999997
 11
-7.9402005000000031
 21
463.13760400000001
  0
LINE
  8
_0-0_0
  6
CONTINUOUS
 62
    7
 10
-7.9402005000000031
 20
463.13760400000001
 11
-7.9858854999999949
 21
463.04995700000001
  0
LINE
  8
_0-0_0
  6
CONTINUOUS
 62
    7
 10
-17.997589500000004
 20
472.992279
 11
-8.2897644999999898
 21
472.992279
  0
LINE
  8
_0-0_0
  6
CONTINUOUS
 62
    7
 10
-17.997589500000004
 20
471.707672
 11
-17.997589500000004
 21
472.992279
  0
LINE
  8
_0-0_0
  6
CONTINUOUS
 62
    7
 10
-17.997589500000004
 20
471.707672
 11
-8.2897644999999898
 21
471.707672
  0
ARC
  8
_0-0_0
  6
CONTINUOUS
 62
    7
 10
-13.209503499999983
 20
472.34591699999999
 40
4.9620009999999999
 50
1.5813010000000001
 51
7.4847919999999997
  0
LINE
  8
_0-0_0
  6
CONTINUOUS
 62
    7
 10
-18.297592499999951
 20
466.88797
 11
-18.381057499999997
 21
467.26663200000002
  0
LINE
  8
_0-0_0
  6
CONTINUOUS
 62
    7
 10
-18.381057499999997
 20
467.26663200000002
 11
-18.421142499999974
 21
467.45816100000002
  0
LINE
  8
_0-0_0
  6
CONTINUOUS
 62
    7
 10
-18.421142499999974
 20
467.45816100000002
 11
-18.477233500000011
 21
467.7482
  0
LINE
  8
_0-0_0
  6
CONTINUOUS
 62
    7
 10
-18.477233500000011
 20
467.7482
 11
-18.514831500000014
 21
467.96777400000002
  0
LINE
  8
_0-0_0
  6
CONTINUOUS
 62
    7
 10
-18.514831500000014
 20
467.96777400000002
 11
-18.547470500000031
 21
468.18902600000001
  0
LINE
  8
_0-0_0
  6
CONTINUOUS
 62
    7
 10
-18.547470500000031
 20
468.18902600000001
 11
-18.574630500000012
 21
468.41583300000002
  0
LINE
  8
_0-0_0
  6
CONTINUOUS
 62
    7
 10
-18.574630500000012
 20
468.41583300000002
 11
-18.594696499999998
 21
468.64321899999999
  0
LINE
  8
_0-0_0
  6
CONTINUOUS
 62
    7
 10
-18.594696499999998
 20
468.64321899999999
 11
-18.60185249999995
 21
468.756958
  0
LINE
  8
_0-0_0
  6
CONTINUOUS
 62
    7
 10
-18.60185249999995
 20
468.756958
 11
-18.607009500000004
 21
468.87063599999999
  0
LINE
  8
_0-0_0
  6
CONTINUOUS
 62
    7
 10
-18.607009500000004
 20
468.87063599999999
 11
-18.610733499999981
 21
469.022064
  0
LINE
  8
_0-0_0
  6
CONTINUOUS
 62
    7
 10
-18.610733499999981
 20
469.022064
 11
-18.610794499999997
 21
469.17334
  0
LINE
  8
_0-0_0
  6
CONTINUOUS
 62
    7
 10
-18.610794499999997
 20
469.17334
 11
-18.607208499999956
 21
469.32437099999999
  0
LINE
  8
_0-0_0
  6
CONTINUOUS
 62
    7
 10
-18.607208499999956
 20
469.32437099999999
 11
-18.597702499999968
 21
469.51294000000001
  0
LINE
  8
_0-0_0
  6
CONTINUOUS
 62
    7
 10
-18.597702499999968
 20
469.51294000000001
 11
-18.582840499999975
 21
469.70117199999999
  0
LINE
  8
_0-0_0
  6
CONTINUOUS
 62
    7
 10
-18.582840499999975
 20
469.70117199999999
 11
-18.562912499999982
 21
469.88912999999997
  0
LINE
  8
_0-0_0
  6
CONTINUOUS
 62
    7
 10
-18.562912499999982
 20
469.88912999999997
 11
-18.546524500000032
 21
470.01800500000002
  0
LINE
  8
_0-0_0
  6
CONTINUOUS
 62
    7
 10
-18.546524500000032
 20
470.01800500000002
 11
-18.528122499999995
 21
470.146637
  0
LINE
  8
_0-0_0
  6
CONTINUOUS
 62
    7
 10
-18.528122499999995
 20
470.146637
 11
-18.503952499999968
 21
470.29858400000001
  0
LINE
  8
_0-0_0
  6
CONTINUOUS
 62
    7
 10
-18.503952499999968
 20
470.29858400000001
 11
-18.477554499999997
 21
470.44992100000002
  0
LINE
  8
_0-0_0
  6
CONTINUOUS
 62
    7
 10
-18.477554499999997
 20
470.44992100000002
 11
-18.421386499999983
 21
470.74054000000001
  0
LINE
  8
_0-0_0
  6
CONTINUOUS
 62
    7
 10
-18.421386499999983
 20
470.74054000000001
 11
-18.381225500000028
 21
470.93249500000002
  0
LINE
  8
_0-0_0
  6
CONTINUOUS
 62
    7
 10
-18.381225500000028
 20
470.93249500000002
 11
-18.297592499999951
 21
471.311981
  0
LINE
  8
_0-0_0
  6
CONTINUOUS
 62
    7
 10
-17.997589500000004
 20
467.53793300000001
 11
-17.997589500000004
 21
470.66204799999997
  0
LINE
  8
_0-0_0
  6
CONTINUOUS
 62
    7
 10
6.7524104999999963
 20
459.57455499999998
 11
6.5024104999999963
 21
459.54998799999998
  0
LINE
  8
_0-0_0
  6
CONTINUOUS
 62
    7
 10
6.5024104999999963
 20
459.54998799999998
 11
-2.7475895000000037
 21
459.54998799999998
  0
LINE
  8
_0-0_0
  6
CONTINUOUS
 62
    7
 10
-2.9975895000000037
 20
459.57455499999998
 11
-2.7475895000000037
 21
459.54998799999998
  0
LINE
  8
_0-0_0
  6
CONTINUOUS
 62
    7
 10
6.7524104999999963
 20
462.54855399999997
 11
6.5024104999999963
 21
462.82254
  0
LINE
  8
_0-0_0
  6
CONTINUOUS
 62
    7
 10
6.7524104999999963
 20
462.54855399999997
 11
6.5024104999999963
 21
462.65783699999997
  0
LINE
  8
_0-0_0
  6
CONTINUOUS
 62
    7
 10
6.7524104999999963
 20
462.390961
 11
6.5024104999999963
 21
462.65783699999997
  0
LINE
  8
_0-0_0
  6
CONTINUOUS
 62
    7
 10
6.7524104999999963
 20
462.390961
 11
6.5024104999999963
 21
462.47280899999998
  0
LINE
  8
_0-0_0
  6
CONTINUOUS
 62
    7
 10
6.7524104999999963
 20
462.21597300000002
 11
6.5024104999999963
 21
462.47280899999998
  0
LINE
  8
_0-0_0
  6
CONTINUOUS
 62
    7
 10
6.7524104999999963
 20
462.21597300000002
 11
6.5024104999999963
 21
462.26943999999997
  0
LINE
  8
_0-0_0
  6
CONTINUOUS
 62
    7
 10
6.7524104999999963
 20
462.02542099999999
 11
6.5024104999999963
 21
462.26943999999997
  0
LINE
  8
_0-0_0
  6
CONTINUOUS
 62
    7
 10
6.7524104999999963
 20
462.02542099999999
 11
6.5024104999999963
 21
462.04998799999998
  0
LINE
  8
_0-0_0
  6
CONTINUOUS
 62
    7
 10
6.7524104999999963
 20
461.82147199999997
 11
6.5024104999999963
 21
462.04998799999998
  0
LINE
  8
_0-0_0
  6
CONTINUOUS
 62
    7
 10
6.7524104999999963
 20
461.82147199999997
 11
6.5024104999999963
 21
461.81683399999997
  0
LINE
  8
_0-0_0
  6
CONTINUOUS
 62
    7
 10
6.7524104999999963
 20
461.60632299999997
 11
6.5024104999999963
 21
461.81683399999997
  0
LINE
  8
_0-0_0
  6
CONTINUOUS
 62
    7
 10
6.7524104999999963
 20
461.60632299999997
 11
6.5024104999999963
 21
461.57254
  0
LINE
  8
_0-0_0
  6
CONTINUOUS
 62
    7
 10
6.7524104999999963
 20
461.38232399999998
 11
6.5024104999999963
 21
461.57254
  0
LINE
  8
_0-0_0
  6
CONTINUOUS
 62
    7
 10
6.7524104999999963
 20
461.38232399999998
 11
6.5024104999999963
 21
461.31976299999997
  0
LINE
  8
_0-0_0
  6
CONTINUOUS
 62
    7
 10
6.7524104999999963
 20
461.15197799999999
 11
6.5024104999999963
 21
461.31976299999997
  0
LINE
  8
_0-0_0
  6
CONTINUOUS
 62
    7
 10
6.7524104999999963
 20
461.15197799999999
 11
6.5024104999999963
 21
461.06130999999999
  0
LINE
  8
_0-0_0
  6
CONTINUOUS
 62
    7
 10
6.7524104999999963
 20
460.917755
 11
6.5024104999999963
 21
461.06130999999999
  0
LINE
  8
_0-0_0
  6
CONTINUOUS
 62
    7
 10
6.7524104999999963
 20
460.917755
 11
6.5024104999999963
 21
460.79998799999998
  0
LINE
  8
_0-0_0
  6
CONTINUOUS
 62
    7
 10
6.7524104999999963
 20
460.68222099999997
 11
6.5024104999999963
 21
460.79998799999998
  0
LINE
  8
_0-0_0
  6
CONTINUOUS
 62
    7
 10
6.7524104999999963
 20
460.68222099999997
 11
6.5024104999999963
 21
460.53866599999998
  0
LINE
  8
_0-0_0
  6
CONTINUOUS
 62
    7
 10
6.7524104999999963
 20
460.44799799999998
 11
6.5024104999999963
 21
460.53866599999998
  0
LINE
  8
_0-0_0
  6
CONTINUOUS
 62
    7
 10
6.7524104999999963
 20
460.44799799999998
 11
6.5024104999999963
 21
460.280213
  0
LINE
  8
_0-0_0
  6
CONTINUOUS
 62
    7
 10
6.7524104999999963
 20
460.21765099999999
 11
6.5024104999999963
 21
460.280213
  0
LINE
  8
_0-0_0
  6
CONTINUOUS
 62
    7
 10
6.7524104999999963
 20
460.21765099999999
 11
6.5024104999999963
 21
460.02743499999997
  0
LINE
  8
_0-0_0
  6
CONTINUOUS
 62
    7
 10
6.7524104999999963
 20
459.993652
 11
6.5024104999999963
 21
460.02743499999997
  0
LINE
  8
_0-0_0
  6
CONTINUOUS
 62
    7
 10
6.7524104999999963
 20
459.993652
 11
6.5024104999999963
 21
459.783142
  0
LINE
  8
_0-0_0
  6
CONTINUOUS
 62
    7
 10
6.7524104999999963
 20
459.778504
 11
6.5024104999999963
 21
459.783142
  0
LINE
  8
_0-0_0
  6
CONTINUOUS
 62
    7
 10
6.7524104999999963
 20
459.778504
 11
6.5024104999999963
 21
459.54998799999998
  0
LINE
  8
_0-0_0
  6
CONTINUOUS
 62
    7
 10
6.7524104999999963
 20
459.57455499999998
 11
6.5024104999999963
 21
459.330536
  0
LINE
  8
_0-0_0
  6
CONTINUOUS
 62
    7
 10
6.7524104999999963
 20
459.38400300000001
 11
6.5024104999999963
 21
459.330536
  0
LINE
  8
_0-0_0
  6
CONTINUOUS
 62
    7
 10
6.7524104999999963
 20
459.38400300000001
 11
6.5024104999999963
 21
459.12716699999999
  0
LINE
  8
_0-0_0
  6
CONTINUOUS
 62
    7
 10
6.7524104999999963
 20
459.20898399999999
 11
6.5024104999999963
 21
459.12716699999999
  0
LINE
  8
_0-0_0
  6
CONTINUOUS
 62
    7
 10
6.7524104999999963
 20
459.20898399999999
 11
6.5024104999999963
 21
458.94210800000002
  0
LINE
  8
_0-0_0
  6
CONTINUOUS
 62
    7
 10
6.7524104999999963
 20
459.051422
 11
6.5024104999999963
 21
458.94210800000002
  0
LINE
  8
_0-0_0
  6
CONTINUOUS
 62
    7
 10
6.7524104999999963
 20
459.051422
 11
6.5024104999999963
 21
458.77743499999997
  0
LINE
  8
_0-0_0
  6
CONTINUOUS
 62
    7
 10
6.7524104999999963
 20
458.91299399999997
 11
6.5024104999999963
 21
458.77743499999997
  0
LINE
  8
_0-0_0
  6
CONTINUOUS
 62
    7
 10
6.7524104999999963
 20
458.91299399999997
 11
6.5024104999999963
 21
458.63491799999997
  0
LINE
  8
_0-0_0
  6
CONTINUOUS
 62
    7
 10
6.7524104999999963
 20
458.79522700000001
 11
6.5024104999999963
 21
458.63491799999997
  0
LINE
  8
_0-0_0
  6
CONTINUOUS
 62
    7
 10
6.7524104999999963
 20
458.79522700000001
 11
6.5024104999999963
 21
458.51611300000002
  0
LINE
  8
_0-0_0
  6
CONTINUOUS
 62
    7
 10
6.7524104999999963
 20
458.699432
 11
6.5024104999999963
 21
458.51611300000002
  0
LINE
  8
_0-0_0
  6
CONTINUOUS
 62
    7
 10
6.7524104999999963
 20
458.699432
 11
6.5024104999999963
 21
458.42233299999998
  0
LINE
  8
_0-0_0
  6
CONTINUOUS
 62
    7
 10
6.7524104999999963
 20
458.62664799999999
 11
6.5024104999999963
 21
458.42233299999998
  0
LINE
  8
_0-0_0
  6
CONTINUOUS
 62
    7
 10
6.7524104999999963
 20
458.62664799999999
 11
6.5024104999999963
 21
458.35461399999997
  0
LINE
  8
_0-0_0
  6
CONTINUOUS
 62
    7
 10
6.7524104999999963
 20
458.577698
 11
6.5024104999999963
 21
458.35461399999997
  0
LINE
  8
_0-0_0
  6
CONTINUOUS
 62
    7
 10
6.7524104999999963
 20
458.577698
 11
6.5024104999999963
 21
458.31369000000001
  0
LINE
  8
_0-0_0
  6
CONTINUOUS
 62
    7
 10
6.7524104999999963
 20
458.55306999999999
 11
6.5024104999999963
 21
458.31369000000001
  0
LINE
  8
_0-0_0
  6
CONTINUOUS
 62
    7
 10
6.7524104999999963
 20
458.55306999999999
 11
6.5024104999999963
 21
458.29998799999998
  0
LINE
  8
_0-0_0
  6
CONTINUOUS
 62
    7
 10
7.0024104999999963
 20
458.79998799999998
 11
7.0024104999999963
 21
462.55514499999998
  0
LINE
  8
_0-0_0
  6
CONTINUOUS
 62
    7
 10
6.622451500000011
 20
462.88861099999997
 11
6.5024104999999963
 21
462.965057
  0
LINE
  8
_0-0_0
  6
CONTINUOUS
 62
    7
 10
6.7524104999999963
 20
462.686981
 11
6.5024104999999963
 21
462.965057
  0
LINE
  8
_0-0_0
  6
CONTINUOUS
 62
    7
 10
6.7524104999999963
 20
462.686981
 11
6.5024104999999963
 21
462.82254
  0
LINE
  8
_0-0_0
  6
CONTINUOUS
 62
    7
 10
6.5024104999999963
 20
462.65783699999997
 11
-2.7475895000000037
 21
462.65783699999997
  0
LINE
  8
_0-0_0
  6
CONTINUOUS
 62
    7
 10
-2.9975895000000037
 20
462.54855399999997
 11
-2.7475895000000037
 21
462.65783699999997
  0
LINE
  8
_0-0_0
  6
CONTINUOUS
 62
    7
 10
6.5024104999999963
 20
462.47280899999998
 11
-2.7475895000000037
 21
462.47280899999998
  0
LINE
  8
_0-0_0
  6
CONTINUOUS
 62
    7
 10
-2.9975895000000037
 20
462.390961
 11
-2.7475895000000037
 21
462.47280899999998
  0
LINE
  8
_0-0_0
  6
CONTINUOUS
 62
    7
 10
6.5024104999999963
 20
462.26943999999997
 11
-2.7475895000000037
 21
462.26943999999997
  0
LINE
  8
_0-0_0
  6
CONTINUOUS
 62
    7
 10
-2.9975895000000037
 20
462.21597300000002
 11
-2.7475895000000037
 21
462.26943999999997
  0
LINE
  8
_0-0_0
  6
CONTINUOUS
 62
    7
 10
6.5024104999999963
 20
462.04998799999998
 11
-2.7475895000000037
 21
462.04998799999998
  0
LINE
  8
_0-0_0
  6
CONTINUOUS
 62
    7
 10
-2.9975895000000037
 20
462.02542099999999
 11
-2.7475895000000037
 21
462.04998799999998
  0
LINE
  8
_0-0_0
  6
CONTINUOUS
 62
    7
 10
6.5024104999999963
 20
461.81683399999997
 11
-2.7475895000000037
 21
461.81683399999997
  0
LINE
  8
_0-0_0
  6
CONTINUOUS
 62
    7
 10
6.7524104999999963
 20
461.82147199999997
 11
-2.9975895000000037
 21
461.82147199999997
  0
LINE
  8
_0-0_0
  6
CONTINUOUS
 62
    7
 10
-2.9975895000000037
 20
461.82147199999997
 11
-2.7475895000000037
 21
461.81683399999997
  0
LINE
  8
_0-0_0
  6
CONTINUOUS
 62
    7
 10
6.5024104999999963
 20
461.57254
 11
-2.7475895000000037
 21
461.57254
  0
LINE
  8
_0-0_0
  6
CONTINUOUS
 62
    7
 10
6.7524104999999963
 20
461.60632299999997
 11
-2.9975895000000037
 21
461.60632299999997
  0
LINE
  8
_0-0_0
  6
CONTINUOUS
 62
    7
 10
-2.9975895000000037
 20
461.60632299999997
 11
-2.7475895000000037
 21
461.57254
  0
LINE
  8
_0-0_0
  6
CONTINUOUS
 62
    7
 10
6.5024104999999963
 20
461.31976299999997
 11
-2.7475895000000037
 21
461.31976299999997
  0
LINE
  8
_0-0_0
  6
CONTINUOUS
 62
    7
 10
6.7524104999999963
 20
461.38232399999998
 11
-2.9975895000000037
 21
461.38232399999998
  0
LINE
  8
_0-0_0
  6
CONTINUOUS
 62
    7
 10
-2.9975895000000037
 20
461.38232399999998
 11
-2.7475895000000037
 21
461.31976299999997
  0
LINE
  8
_0-0_0
  6
CONTINUOUS
 62
    7
 10
6.5024104999999963
 20
461.06130999999999
 11
-2.7475895000000037
 21
461.06130999999999
  0
LINE
  8
_0-0_0
  6
CONTINUOUS
 62
    7
 10
6.7524104999999963
 20
461.15197799999999
 11
-2.9975895000000037
 21
461.15197799999999
  0
LINE
  8
_0-0_0
  6
CONTINUOUS
 62
    7
 10
-2.9975895000000037
 20
461.15197799999999
 11
-2.7475895000000037
 21
461.06130999999999
  0
LINE
  8
_0-0_0
  6
CONTINUOUS
 62
    7
 10
6.5024104999999963
 20
460.79998799999998
 11
-2.7475895000000037
 21
460.79998799999998
  0
LINE
  8
_0-0_0
  6
CONTINUOUS
 62
    7
 10
6.7524104999999963
 20
460.917755
 11
-2.9975895000000037
 21
460.917755
  0
LINE
  8
_0-0_0
  6
CONTINUOUS
 62
    7
 10
-2.9975895000000037
 20
460.917755
 11
-2.7475895000000037
 21
460.79998799999998
  0
LINE
  8
_0-0_0
  6
CONTINUOUS
 62
    7
 10
6.5024104999999963
 20
460.53866599999998
 11
-2.7475895000000037
 21
460.53866599999998
  0
LINE
  8
_0-0_0
  6
CONTINUOUS
 62
    7
 10
6.7524104999999963
 20
460.68222099999997
 11
-2.9975895000000037
 21
460.68222099999997
  0
LINE
  8
_0-0_0
  6
CONTINUOUS
 62
    7
 10
-2.9975895000000037
 20
460.68222099999997
 11
-2.7475895000000037
 21
460.53866599999998
  0
LINE
  8
_0-0_0
  6
CONTINUOUS
 62
    7
 10
6.5024104999999963
 20
460.280213
 11
-2.7475895000000037
 21
460.280213
  0
LINE
  8
_0-0_0
  6
CONTINUOUS
 62
    7
 10
6.7524104999999963
 20
460.44799799999998
 11
-2.9975895000000037
 21
460.44799799999998
  0
LINE
  8
_0-0_0
  6
CONTINUOUS
 62
    7
 10
-2.9975895000000037
 20
460.44799799999998
 11
-2.7475895000000037
 21
460.280213
  0
LINE
  8
_0-0_0
  6
CONTINUOUS
 62
    7
 10
6.5024104999999963
 20
460.02743499999997
 11
-2.7475895000000037
 21
460.02743499999997
  0
LINE
  8
_0-0_0
  6
CONTINUOUS
 62
    7
 10
6.7524104999999963
 20
460.21765099999999
 11
-2.9975895000000037
 21
460.21765099999999
  0
LINE
  8
_0-0_0
  6
CONTINUOUS
 62
    7
 10
-2.9975895000000037
 20
460.21765099999999
 11
-2.7475895000000037
 21
460.02743499999997
  0
LINE
  8
_0-0_0
  6
CONTINUOUS
 62
    7
 10
6.5024104999999963
 20
459.783142
 11
-2.7475895000000037
 21
459.783142
  0
LINE
  8
_0-0_0
  6
CONTINUOUS
 62
    7
 10
6.7524104999999963
 20
459.993652
 11
-2.9975895000000037
 21
459.993652
  0
LINE
  8
_0-0_0
  6
CONTINUOUS
 62
    7
 10
-2.9975895000000037
 20
459.993652
 11
-2.7475895000000037
 21
459.783142
  0
LINE
  8
_0-0_0
  6
CONTINUOUS
 62
    7
 10
6.5024104999999963
 20
459.12716699999999
 11
-2.7475895000000037
 21
459.12716699999999
  0
LINE
  8
_0-0_0
  6
CONTINUOUS
 62
    7
 10
-2.9975895000000037
 20
459.38400300000001
 11
-2.7475895000000037
 21
459.12716699999999
  0
LINE
  8
_0-0_0
  6
CONTINUOUS
 62
    7
 10
6.5024104999999963
 20
458.94210800000002
 11
-2.7475895000000037
 21
458.94210800000002
  0
LINE
  8
_0-0_0
  6
CONTINUOUS
 62
    7
 10
-2.9975895000000037
 20
459.20898399999999
 11
-2.7475895000000037
 21
458.94210800000002
  0
LINE
  8
_0-0_0
  6
CONTINUOUS
 62
    7
 10
6.5024104999999963
 20
458.77743499999997
 11
-2.7475895000000037
 21
458.77743499999997
  0
LINE
  8
_0-0_0
  6
CONTINUOUS
 62
    7
 10
-2.9975895000000037
 20
459.051422
 11
-2.7475895000000037
 21
458.77743499999997
  0
LINE
  8
_0-0_0
  6
CONTINUOUS
 62
    7
 10
6.5024104999999963
 20
458.63491799999997
 11
-2.7475895000000037
 21
458.63491799999997
  0
LINE
  8
_0-0_0
  6
CONTINUOUS
 62
    7
 10
-2.9975895000000037
 20
458.91299399999997
 11
-2.7475895000000037
 21
458.63491799999997
  0
LINE
  8
_0-0_0
  6
CONTINUOUS
 62
    7
 10
6.5024104999999963
 20
458.51611300000002
 11
-2.7475895000000037
 21
458.51611300000002
  0
LINE
  8
_0-0_0
  6
CONTINUOUS
 62
    7
 10
-2.9975895000000037
 20
458.79522700000001
 11
-2.7475895000000037
 21
458.51611300000002
  0
LINE
  8
_0-0_0
  6
CONTINUOUS
 62
    7
 10
6.5024104999999963
 20
458.42233299999998
 11
-2.7475895000000037
 21
458.42233299999998
  0
LINE
  8
_0-0_0
  6
CONTINUOUS
 62
    7
 10
-2.9975895000000037
 20
458.699432
 11
-2.7475895000000037
 21
458.42233299999998
  0
LINE
  8
_0-0_0
  6
CONTINUOUS
 62
    7
 10
6.5024104999999963
 20
458.35461399999997
 11
-2.7475895000000037
 21
458.35461399999997
  0
LINE
  8
_0-0_0
  6
CONTINUOUS
 62
    7
 10
-2.9975895000000037
 20
458.62664799999999
 11
-2.7475895000000037
 21
458.35461399999997
  0
LINE
  8
_0-0_0
  6
CONTINUOUS
 62
    7
 10
6.5024104999999963
 20
458.31369000000001
 11
-2.7475895000000037
 21
458.31369000000001
  0
LINE
  8
_0-0_0
  6
CONTINUOUS
 62
    7
 10
-2.9975895000000037
 20
458.577698
 11
-2.7475895000000037
 21
458.31369000000001
  0
LINE
  8
_0-0_0
  6
CONTINUOUS
 62
    7
 10
6.5024104999999963
 20
458.29998799999998
 11
-2.7475895000000037
 21
458.29998799999998
  0
LINE
  8
_0-0_0
  6
CONTINUOUS
 62
    7
 10
-2.9975895000000037
 20
458.55306999999999
 11
-2.7475895000000037
 21
458.29998799999998
  0
LINE
  8
_0-0_0
  6
CONTINUOUS
 62
    7
 10
6.5024104999999963
 20
462.965057
 11
-2.7475895000000037
 21
462.965057
  0
LINE
  8
_0-0_0
  6
CONTINUOUS
 62
    7
 10
6.7524104999999963
 20
462.80474900000002
 11
6.622451500000011
 21
462.88861099999997
  0
LINE
  8
_0-0_0
  6
CONTINUOUS
 62
    7
 10
-2.9975895000000037
 20
462.80474900000002
 11
-2.867614500000002
 21
462.88861099999997
  0
LINE
  8
_0-0_0
  6
CONTINUOUS
 62
    7
 10
-2.867614500000002
 20
462.88861099999997
 11
-2.7475895000000037
 21
462.965057
  0
LINE
  8
_0-0_0
  6
CONTINUOUS
 62
    7
 10
6.5024104999999963
 20
462.82254
 11
-2.7475895000000037
 21
462.82254
  0
LINE
  8
_0-0_0
  6
CONTINUOUS
 62
    7
 10
-2.9975895000000037
 20
462.686981
 11
-2.7475895000000037
 21
462.82254
  0
LINE
  8
_0-0_0
  6
CONTINUOUS
 62
    7
 10
6.7524104999999963
 20
462.80474900000002
 11
6.5024104999999963
 21
463.08386200000001
  0
LINE
  8
_0-0_0
  6
CONTINUOUS
 62
    7
 10
6.5024104999999963
 20
463.08386200000001
 11
-2.7475895000000037
 21
463.08386200000001
  0
LINE
  8
_0-0_0
  6
CONTINUOUS
 62
    7
 10
-2.9975895000000037
 20
462.80474900000002
 11
-2.7475895000000037
 21
463.08386200000001
  0
LINE
  8
_0-0_0
  6
CONTINUOUS
 62
    7
 10
6.7524104999999963
 20
462.90054299999997
 11
6.5024104999999963
 21
463.08386200000001
  0
LINE
  8
_0-0_0
  6
CONTINUOUS
 62
    7
 10
-2.9975895000000037
 20
462.90054299999997
 11
-2.7475895000000037
 21
463.08386200000001
  0
LINE
  8
_0-0_0
  6
CONTINUOUS
 62
    7
 10
6.7524104999999963
 20
462.90054299999997
 11
6.5024104999999963
 21
463.17764299999999
  0
LINE
  8
_0-0_0
  6
CONTINUOUS
 62
    7
 10
6.5024104999999963
 20
463.17764299999999
 11
-2.7475895000000037
 21
463.17764299999999
  0
LINE
  8
_0-0_0
  6
CONTINUOUS
 62
    7
 10
-2.9975895000000037
 20
462.90054299999997
 11
-2.7475895000000037
 21
463.17764299999999
  0
LINE
  8
_0-0_0
  6
CONTINUOUS
 62
    7
 10
6.7524104999999963
 20
462.97332799999998
 11
6.5024104999999963
 21
463.17764299999999
  0
LINE
  8
_0-0_0
  6
CONTINUOUS
 62
    7
 10
-2.9975895000000037
 20
462.97332799999998
 11
-2.7475895000000037
 21
463.17764299999999
  0
LINE
  8
_0-0_0
  6
CONTINUOUS
 62
    7
 10
6.7524104999999963
 20
462.97332799999998
 11
6.5024104999999963
 21
463.245361
  0
LINE
  8
_0-0_0
  6
CONTINUOUS
 62
    7
 10
6.5024104999999963
 20
463.245361
 11
-2.7475895000000037
 21
463.245361
  0
LINE
  8
_0-0_0
  6
CONTINUOUS
 62
    7
 10
-2.9975895000000037
 20
462.97332799999998
 11
-2.7475895000000037
 21
463.245361
  0
LINE
  8
_0-0_0
  6
CONTINUOUS
 62
    7
 10
6.7524104999999963
 20
463.02227799999997
 11
6.5024104999999963
 21
463.245361
  0
LINE
  8
_0-0_0
  6
CONTINUOUS
 62
    7
 10
-2.9975895000000037
 20
463.02227799999997
 11
-2.7475895000000037
 21
463.245361
  0
LINE
  8
_0-0_0
  6
CONTINUOUS
 62
    7
 10
6.7524104999999963
 20
463.02227799999997
 11
6.5024104999999963
 21
463.28628600000002
  0
LINE
  8
_0-0_0
  6
CONTINUOUS
 62
    7
 10
6.5024104999999963
 20
463.28628600000002
 11
-2.7475895000000037
 21
463.28628600000002
  0
LINE
  8
_0-0_0
  6
CONTINUOUS
 62
    7
 10
-2.9975895000000037
 20
463.02227799999997
 11
-2.7475895000000037
 21
463.28628600000002
  0
LINE
  8
_0-0_0
  6
CONTINUOUS
 62
    7
 10
6.7524104999999963
 20
463.04690599999998
 11
6.5024104999999963
 21
463.28628600000002
  0
LINE
  8
_0-0_0
  6
CONTINUOUS
 62
    7
 10
-2.9975895000000037
 20
463.04690599999998
 11
-2.7475895000000037
 21
463.28628600000002
  0
LINE
  8
_0-0_0
  6
CONTINUOUS
 62
    7
 10
6.7524104999999963
 20
463.04690599999998
 11
6.5024104999999963
 21
463.29998799999998
  0
LINE
  8
_0-0_0
  6
CONTINUOUS
 62
    7
 10
6.5024104999999963
 20
463.29998799999998
 11
-2.7475895000000037
 21
463.29998799999998
  0
LINE
  8
_0-0_0
  6
CONTINUOUS
 62
    7
 10
-2.9975895000000037
 20
463.04690599999998
 11
-2.7475895000000037
 21
463.29998799999998
  0
LINE
  8
_0-0_0
  6
CONTINUOUS
 62
    7
 10
6.7524104999999963
 20
476.17456099999998
 11
6.5024104999999963
 21
476.14999399999999
  0
LINE
  8
_0-0_0
  6
CONTINUOUS
 62
    7
 10
6.5024104999999963
 20
476.14999399999999
 11
-2.7475895000000037
 21
476.14999399999999
  0
LINE
  8
_0-0_0
  6
CONTINUOUS
 62
    7
 10
-2.9975895000000037
 20
476.17456099999998
 11
-2.7475895000000037
 21
476.14999399999999
  0
LINE
  8
_0-0_0
  6
CONTINUOUS
 62
    7
 10
6.7524104999999963
 20
479.14855999999997
 11
6.5024104999999963
 21
479.42251599999997
  0
LINE
  8
_0-0_0
  6
CONTINUOUS
 62
    7
 10
6.7524104999999963
 20
479.14855999999997
 11
6.5024104999999963
 21
479.25784299999998
  0
LINE
  8
_0-0_0
  6
CONTINUOUS
 62
    7
 10
6.7524104999999963
 20
478.99096700000001
 11
6.5024104999999963
 21
479.25784299999998
  0
LINE
  8
_0-0_0
  6
CONTINUOUS
 62
    7
 10
6.7524104999999963
 20
478.99096700000001
 11
6.5024104999999963
 21
479.07281499999999
  0
LINE
  8
_0-0_0
  6
CONTINUOUS
 62
    7
 10
6.7524104999999963
 20
478.81594899999999
 11
6.5024104999999963
 21
479.07281499999999
  0
LINE
  8
_0-0_0
  6
CONTINUOUS
 62
    7
 10
6.7524104999999963
 20
478.81594899999999
 11
6.5024104999999963
 21
478.86944599999998
  0
LINE
  8
_0-0_0
  6
CONTINUOUS
 62
    7
 10
6.7524104999999963
 20
478.625427
 11
6.5024104999999963
 21
478.86944599999998
  0
LINE
  8
_0-0_0
  6
CONTINUOUS
 62
    7
 10
6.7524104999999963
 20
478.625427
 11
6.5024104999999963
 21
478.64999399999999
  0
LINE
  8
_0-0_0
  6
CONTINUOUS
 62
    7
 10
6.7524104999999963
 20
478.42147799999998
 11
6.5024104999999963
 21
478.64999399999999
  0
LINE
  8
_0-0_0
  6
CONTINUOUS
 62
    7
 10
6.7524104999999963
 20
478.42147799999998
 11
6.5024104999999963
 21
478.41683999999998
  0
LINE
  8
_0-0_0
  6
CONTINUOUS
 62
    7
 10
6.7524104999999963
 20
478.20632899999998
 11
6.5024104999999963
 21
478.41683999999998
  0
LINE
  8
_0-0_0
  6
CONTINUOUS
 62
    7
 10
6.7524104999999963
 20
478.20632899999998
 11
6.5024104999999963
 21
478.17251599999997
  0
LINE
  8
_0-0_0
  6
CONTINUOUS
 62
    7
 10
6.7524104999999963
 20
477.98232999999999
 11
6.5024104999999963
 21
478.17251599999997
  0
LINE
  8
_0-0_0
  6
CONTINUOUS
 62
    7
 10
6.7524104999999963
 20
477.98232999999999
 11
6.5024104999999963
 21
477.91976899999997
  0
LINE
  8
_0-0_0
  6
CONTINUOUS
 62
    7
 10
6.7524104999999963
 20
477.75195300000001
 11
6.5024104999999963
 21
477.91976899999997
  0
LINE
  8
_0-0_0
  6
CONTINUOUS
 62
    7
 10
6.7524104999999963
 20
477.75195300000001
 11
6.5024104999999963
 21
477.661316
  0
LINE
  8
_0-0_0
  6
CONTINUOUS
 62
    7
 10
6.7524104999999963
 20
477.51773099999997
 11
6.5024104999999963
 21
477.661316
  0
LINE
  8
_0-0_0
  6
CONTINUOUS
 62
    7
 10
6.7524104999999963
 20
477.51773099999997
 11
6.5024104999999963
 21
477.39999399999999
  0
LINE
  8
_0-0_0
  6
CONTINUOUS
 62
    7
 10
6.7524104999999963
 20
477.28222699999998
 11
6.5024104999999963
 21
477.39999399999999
  0
LINE
  8
_0-0_0
  6
CONTINUOUS
 62
    7
 10
6.7524104999999963
 20
477.28222699999998
 11
6.5024104999999963
 21
477.13867199999999
  0
LINE
  8
_0-0_0
  6
CONTINUOUS
 62
    7
 10
6.7524104999999963
 20
477.04800399999999
 11
6.5024104999999963
 21
477.13867199999999
  0
LINE
  8
_0-0_0
  6
CONTINUOUS
 62
    7
 10
6.7524104999999963
 20
477.04800399999999
 11
6.5024104999999963
 21
476.88021900000001
  0
LINE
  8
_0-0_0
  6
CONTINUOUS
 62
    7
 10
6.7524104999999963
 20
476.81765799999999
 11
6.5024104999999963
 21
476.88021900000001
  0
LINE
  8
_0-0_0
  6
CONTINUOUS
 62
    7
 10
6.7524104999999963
 20
476.81765799999999
 11
6.5024104999999963
 21
476.62744199999997
  0
LINE
  8
_0-0_0
  6
CONTINUOUS
 62
    7
 10
6.7524104999999963
 20
476.593659
 11
6.5024104999999963
 21
476.62744199999997
  0
LINE
  8
_0-0_0
  6
CONTINUOUS
 62
    7
 10
6.7524104999999963
 20
476.593659
 11
6.5024104999999963
 21
476.38314800000001
  0
LINE
  8
_0-0_0
  6
CONTINUOUS
 62
    7
 10
6.7524104999999963
 20
476.37851000000001
 11
6.5024104999999963
 21
476.38314800000001
  0
LINE
  8
_0-0_0
  6
CONTINUOUS
 62
    7
 10
6.7524104999999963
 20
476.37851000000001
 11
6.5024104999999963
 21
476.14999399999999
  0
LINE
  8
_0-0_0
  6
CONTINUOUS
 62
    7
 10
6.7524104999999963
 20
476.17456099999998
 11
6.5024104999999963
 21
475.93051199999996
  0
LINE
  8
_0-0_0
  6
CONTINUOUS
 62
    7
 10
6.7524104999999963
 20
475.98400900000001
 11
6.5024104999999963
 21
475.93051199999996
  0
LINE
  8
_0-0_0
  6
CONTINUOUS
 62
    7
 10
6.7524104999999963
 20
475.98400900000001
 11
6.5024104999999963
 21
475.72717299999999
  0
LINE
  8
_0-0_0
  6
CONTINUOUS
 62
    7
 10
6.7524104999999963
 20
475.80899099999999
 11
6.5024104999999963
 21
475.72717299999999
  0
LINE
  8
_0-0_0
  6
CONTINUOUS
 62
    7
 10
6.7524104999999963
 20
475.80899099999999
 11
6.5024104999999963
 21
475.54211399999997
  0
LINE
  8
_0-0_0
  6
CONTINUOUS
 62
    7
 10
6.7524104999999963
 20
475.65139799999997
 11
6.5024104999999963
 21
475.54211399999997
  0
LINE
  8
_0-0_0
  6
CONTINUOUS
 62
    7
 10
6.7524104999999963
 20
475.65139799999997
 11
6.5024104999999963
 21
475.37744199999997
  0
LINE
  8
_0-0_0
  6
CONTINUOUS
 62
    7
 10
6.7524104999999963
 20
475.51297
 11
6.5024104999999963
 21
475.37744199999997
  0
LINE
  8
_0-0_0
  6
CONTINUOUS
 62
    7
 10
6.7524104999999963
 20
475.51297
 11
6.5024104999999963
 21
475.23492399999998
  0
LINE
  8
_0-0_0
  6
CONTINUOUS
 62
    7
 10
6.7524104999999963
 20
475.39523300000002
 11
6.5024104999999963
 21
475.23492399999998
  0
LINE
  8
_0-0_0
  6
CONTINUOUS
 62
    7
 10
6.7524104999999963
 20
475.39523300000002
 11
6.5024104999999963
 21
475.11611899999997
  0
LINE
  8
_0-0_0
  6
CONTINUOUS
 62
    7
 10
6.7524104999999963
 20
475.29943900000001
 11
6.5024104999999963
 21
475.11611899999997
  0
LINE
  8
_0-0_0
  6
CONTINUOUS
 62
    7
 10
6.7524104999999963
 20
475.29943900000001
 11
6.5024104999999963
 21
475.02233899999999
  0
LINE
  8
_0-0_0
  6
CONTINUOUS
 62
    7
 10
6.7524104999999963
 20
475.226654
 11
6.5024104999999963
 21
475.02233899999999
  0
LINE
  8
_0-0_0
  6
CONTINUOUS
 62
    7
 10
6.7524104999999963
 20
475.226654
 11
6.5024104999999963
 21
474.95461999999998
  0
LINE
  8
_0-0_0
  6
CONTINUOUS
 62
    7
 10
6.7524104999999963
 20
475.17767299999997
 11
6.5024104999999963
 21
474.95461999999998
  0
LINE
  8
_0-0_0
  6
CONTINUOUS
 62
    7
 10
6.7524104999999963
 20
475.17767299999997
 11
6.5024104999999963
 21
474.91366599999998
  0
LINE
  8
_0-0_0
  6
CONTINUOUS
 62
    7
 10
6.7524104999999963
 20
475.153076
 11
6.5024104999999963
 21
474.91366599999998
  0
LINE
  8
_0-0_0
  6
CONTINUOUS
 62
    7
 10
6.7524104999999963
 20
475.153076
 11
6.5024104999999963
 21
474.89999399999999
  0
LINE
  8
_0-0_0
  6
CONTINUOUS
 62
    7
 10
7.0024104999999963
 20
475.39999399999999
 11
7.0024104999999963
 21
479.15515099999999
  0
LINE
  8
_0-0_0
  6
CONTINUOUS
 62
    7
 10
6.622451500000011
 20
479.48861699999998
 11
6.5024104999999963
 21
479.56506400000001
  0
LINE
  8
_0-0_0
  6
CONTINUOUS
 62
    7
 10
6.7524104999999963
 20
479.28698700000001
 11
6.5024104999999963
 21
479.56506400000001
  0
LINE
  8
_0-0_0
  6
CONTINUOUS
 62
    7
 10
6.7524104999999963
 20
479.28698700000001
 11
6.5024104999999963
 21
479.42251599999997
  0
LINE
  8
_0-0_0
  6
CONTINUOUS
 62
    7
 10
6.5024104999999963
 20
479.25784299999998
 11
-2.7475895000000037
 21
479.25784299999998
  0
LINE
  8
_0-0_0
  6
CONTINUOUS
 62
    7
 10
-2.9975895000000037
 20
479.14855999999997
 11
-2.7475895000000037
 21
479.25784299999998
  0
LINE
  8
_0-0_0
  6
CONTINUOUS
 62
    7
 10
6.5024104999999963
 20
479.07281499999999
 11
-2.7475895000000037
 21
479.07281499999999
  0
LINE
  8
_0-0_0
  6
CONTINUOUS
 62
    7
 10
-2.9975895000000037
 20
478.99096700000001
 11
-2.7475895000000037
 21
479.07281499999999
  0
LINE
  8
_0-0_0
  6
CONTINUOUS
 62
    7
 10
6.5024104999999963
 20
478.86944599999998
 11
-2.7475895000000037
 21
478.86944599999998
  0
LINE
  8
_0-0_0
  6
CONTINUOUS
 62
    7
 10
-2.9975895000000037
 20
478.81594899999999
 11
-2.7475895000000037
 21
478.86944599999998
  0
LINE
  8
_0-0_0
  6
CONTINUOUS
 62
    7
 10
6.5024104999999963
 20
478.64999399999999
 11
-2.7475895000000037
 21
478.64999399999999
  0
LINE
  8
_0-0_0
  6
CONTINUOUS
 62
    7
 10
-2.9975895000000037
 20
478.625427
 11
-2.7475895000000037
 21
478.64999399999999
  0
LINE
  8
_0-0_0
  6
CONTINUOUS
 62
    7
 10
6.5024104999999963
 20
478.41683999999998
 11
-2.7475895000000037
 21
478.41683999999998
  0
LINE
  8
_0-0_0
  6
CONTINUOUS
 62
    7
 10
6.7524104999999963
 20
478.42147799999998
 11
-2.9975895000000037
 21
478.42147799999998
  0
LINE
  8
_0-0_0
  6
CONTINUOUS
 62
    7
 10
-2.9975895000000037
 20
478.42147799999998
 11
-2.7475895000000037
 21
478.41683999999998
  0
LINE
  8
_0-0_0
  6
CONTINUOUS
 62
    7
 10
6.5024104999999963
 20
478.17251599999997
 11
-2.7475895000000037
 21
478.17251599999997
  0
LINE
  8
_0-0_0
  6
CONTINUOUS
 62
    7
 10
6.7524104999999963
 20
478.20632899999998
 11
-2.9975895000000037
 21
478.20632899999998
  0
LINE
  8
_0-0_0
  6
CONTINUOUS
 62
    7
 10
-2.9975895000000037
 20
478.20632899999998
 11
-2.7475895000000037
 21
478.17251599999997
  0
LINE
  8
_0-0_0
  6
CONTINUOUS
 62
    7
 10
6.5024104999999963
 20
477.91976899999997
 11
-2.7475895000000037
 21
477.91976899999997
  0
LINE
  8
_0-0_0
  6
CONTINUOUS
 62
    7
 10
6.7524104999999963
 20
477.98232999999999
 11
-2.9975895000000037
 21
477.98232999999999
  0
LINE
  8
_0-0_0
  6
CONTINUOUS
 62
    7
 10
-2.9975895000000037
 20
477.98232999999999
 11
-2.7475895000000037
 21
477.91976899999997
  0
LINE
  8
_0-0_0
  6
CONTINUOUS
 62
    7
 10
6.5024104999999963
 20
477.661316
 11
-2.7475895000000037
 21
477.661316
  0
LINE
  8
_0-0_0
  6
CONTINUOUS
 62
    7
 10
6.7524104999999963
 20
477.75195300000001
 11
-2.9975895000000037
 21
477.75195300000001
  0
LINE
  8
_0-0_0
  6
CONTINUOUS
 62
    7
 10
-2.9975895000000037
 20
477.75195300000001
 11
-2.7475895000000037
 21
477.661316
  0
LINE
  8
_0-0_0
  6
CONTINUOUS
 62
    7
 10
6.5024104999999963
 20
477.39999399999999
 11
-2.7475895000000037
 21
477.39999399999999
  0
LINE
  8
_0-0_0
  6
CONTINUOUS
 62
    7
 10
6.7524104999999963
 20
477.51773099999997
 11
-2.9975895000000037
 21
477.51773099999997
  0
LINE
  8
_0-0_0
  6
CONTINUOUS
 62
    7
 10
-2.9975895000000037
 20
477.51773099999997
 11
-2.7475895000000037
 21
477.39999399999999
  0
LINE
  8
_0-0_0
  6
CONTINUOUS
 62
    7
 10
6.5024104999999963
 20
477.13867199999999
 11
-2.7475895000000037
 21
477.13867199999999
  0
LINE
  8
_0-0_0
  6
CONTINUOUS
 62
    7
 10
6.7524104999999963
 20
477.28222699999998
 11
-2.9975895000000037
 21
477.28222699999998
  0
LINE
  8
_0-0_0
  6
CONTINUOUS
 62
    7
 10
-2.9975895000000037
 20
477.28222699999998
 11
-2.7475895000000037
 21
477.13867199999999
  0
LINE
  8
_0-0_0
  6
CONTINUOUS
 62
    7
 10
6.5024104999999963
 20
476.88021900000001
 11
-2.7475895000000037
 21
476.88021900000001
  0
LINE
  8
_0-0_0
  6
CONTINUOUS
 62
    7
 10
6.7524104999999963
 20
477.04800399999999
 11
-2.9975895000000037
 21
477.04800399999999
  0
LINE
  8
_0-0_0
  6
CONTINUOUS
 62
    7
 10
-2.9975895000000037
 20
477.04800399999999
 11
-2.7475895000000037
 21
476.88021900000001
  0
LINE
  8
_0-0_0
  6
CONTINUOUS
 62
    7
 10
6.5024104999999963
 20
476.62744199999997
 11
-2.7475895000000037
 21
476.62744199999997
  0
LINE
  8
_0-0_0
  6
CONTINUOUS
 62
    7
 10
6.7524104999999963
 20
476.81765799999999
 11
-2.9975895000000037
 21
476.81765799999999
  0
LINE
  8
_0-0_0
  6
CONTINUOUS
 62
    7
 10
-2.9975895000000037
 20
476.81765799999999
 11
-2.7475895000000037
 21
476.62744199999997
  0
LINE
  8
_0-0_0
  6
CONTINUOUS
 62
    7
 10
6.5024104999999963
 20
476.38314800000001
 11
-2.7475895000000037
 21
476.38314800000001
  0
LINE
  8
_0-0_0
  6
CONTINUOUS
 62
    7
 10
6.7524104999999963
 20
476.593659
 11
-2.9975895000000037
 21
476.593659
  0
LINE
  8
_0-0_0
  6
CONTINUOUS
 62
    7
 10
-2.9975895000000037
 20
476.593659
 11
-2.7475895000000037
 21
476.38314800000001
  0
LINE
  8
_0-0_0
  6
CONTINUOUS
 62
    7
 10
6.5024104999999963
 20
475.72717299999999
 11
-2.7475895000000037
 21
475.72717299999999
  0
LINE
  8
_0-0_0
  6
CONTINUOUS
 62
    7
 10
-2.9975895000000037
 20
475.98400900000001
 11
-2.7475895000000037
 21
475.72717299999999
  0
LINE
  8
_0-0_0
  6
CONTINUOUS
 62
    7
 10
6.5024104999999963
 20
475.54211399999997
 11
-2.7475895000000037
 21
475.54211399999997
  0
LINE
  8
_0-0_0
  6
CONTINUOUS
 62
    7
 10
-2.9975895000000037
 20
475.80899099999999
 11
-2.7475895000000037
 21
475.54211399999997
  0
LINE
  8
_0-0_0
  6
CONTINUOUS
 62
    7
 10
6.5024104999999963
 20
475.37744199999997
 11
-2.7475895000000037
 21
475.37744199999997
  0
LINE
  8
_0-0_0
  6
CONTINUOUS
 62
    7
 10
-2.9975895000000037
 20
475.65139799999997
 11
-2.7475895000000037
 21
475.37744199999997
  0
LINE
  8
_0-0_0
  6
CONTINUOUS
 62
    7
 10
6.5024104999999963
 20
475.23492399999998
 11
-2.7475895000000037
 21
475.23492399999998
  0
LINE
  8
_0-0_0
  6
CONTINUOUS
 62
    7
 10
-2.9975895000000037
 20
475.51297
 11
-2.7475895000000037
 21
475.23492399999998
  0
LINE
  8
_0-0_0
  6
CONTINUOUS
 62
    7
 10
6.5024104999999963
 20
475.11611899999997
 11
-2.7475895000000037
 21
475.11611899999997
  0
LINE
  8
_0-0_0
  6
CONTINUOUS
 62
    7
 10
-2.9975895000000037
 20
475.39523300000002
 11
-2.7475895000000037
 21
475.11611899999997
  0
LINE
  8
_0-0_0
  6
CONTINUOUS
 62
    7
 10
6.5024104999999963
 20
475.02233899999999
 11
-2.7475895000000037
 21
475.02233899999999
  0
LINE
  8
_0-0_0
  6
CONTINUOUS
 62
    7
 10
-2.9975895000000037
 20
475.29943900000001
 11
-2.7475895000000037
 21
475.02233899999999
  0
LINE
  8
_0-0_0
  6
CONTINUOUS
 62
    7
 10
6.5024104999999963
 20
474.95461999999998
 11
-2.7475895000000037
 21
474.95461999999998
  0
LINE
  8
_0-0_0
  6
CONTINUOUS
 62
    7
 10
-2.9975895000000037
 20
475.226654
 11
-2.7475895000000037
 21
474.95461999999998
  0
LINE
  8
_0-0_0
  6
CONTINUOUS
 62
    7
 10
6.5024104999999963
 20
474.91366599999998
 11
-2.7475895000000037
 21
474.91366599999998
  0
LINE
  8
_0-0_0
  6
CONTINUOUS
 62
    7
 10
-2.9975895000000037
 20
475.17767299999997
 11
-2.7475895000000037
 21
474.91366599999998
  0
LINE
  8
_0-0_0
  6
CONTINUOUS
 62
    7
 10
6.5024104999999963
 20
474.89999399999999
 11
-2.7475895000000037
 21
474.89999399999999
  0
LINE
  8
_0-0_0
  6
CONTINUOUS
 62
    7
 10
-2.9975895000000037
 20
475.153076
 11
-2.7475895000000037
 21
474.89999399999999
  0
LINE
  8
_0-0_0
  6
CONTINUOUS
 62
    7
 10
6.5024104999999963
 20
479.56506400000001
 11
-2.7475895000000037
 21
479.56506400000001
  0
LINE
  8
_0-0_0
  6
CONTINUOUS
 62
    7
 10
6.7524104999999963
 20
479.40475499999997
 11
6.622451500000011
 21
479.48861699999998
  0
LINE
  8
_0-0_0
  6
CONTINUOUS
 62
    7
 10
-2.9975895000000037
 20
479.40475499999997
 11
-2.867614500000002
 21
479.48861699999998
  0
LINE
  8
_0-0_0
  6
CONTINUOUS
 62
    7
 10
-2.867614500000002
 20
479.48861699999998
 11
-2.7475895000000037
 21
479.56506400000001
  0
LINE
  8
_0-0_0
  6
CONTINUOUS
 62
    7
 10
6.5024104999999963
 20
479.42251599999997
 11
-2.7475895000000037
 21
479.42251599999997
  0
LINE
  8
_0-0_0
  6
CONTINUOUS
 62
    7
 10
-2.9975895000000037
 20
479.28698700000001
 11
-2.7475895000000037
 21
479.42251599999997
  0
LINE
  8
_0-0_0
  6
CONTINUOUS
 62
    7
 10
6.7524104999999963
 20
479.40475499999997
 11
6.5024104999999963
 21
479.68383799999998
  0
LINE
  8
_0-0_0
  6
CONTINUOUS
 62
    7
 10
6.5024104999999963
 20
479.68383799999998
 11
-2.7475895000000037
 21
479.68383799999998
  0
LINE
  8
_0-0_0
  6
CONTINUOUS
 62
    7
 10
-2.9975895000000037
 20
479.40475499999997
 11
-2.7475895000000037
 21
479.68383799999998
  0
LINE
  8
_0-0_0
  6
CONTINUOUS
 62
    7
 10
6.7524104999999963
 20
479.50054899999998
 11
6.5024104999999963
 21
479.68383799999998
  0
LINE
  8
_0-0_0
  6
CONTINUOUS
 62
    7
 10
-2.9975895000000037
 20
479.50054899999998
 11
-2.7475895000000037
 21
479.68383799999998
  0
LINE
  8
_0-0_0
  6
CONTINUOUS
 62
    7
 10
6.7524104999999963
 20
479.50054899999998
 11
6.5024104999999963
 21
479.77761900000002
  0
LINE
  8
_0-0_0
  6
CONTINUOUS
 62
    7
 10
6.5024104999999963
 20
479.77761900000002
 11
-2.7475895000000037
 21
479.77761900000002
  0
LINE
  8
_0-0_0
  6
CONTINUOUS
 62
    7
 10
-2.9975895000000037
 20
479.50054899999998
 11
-2.7475895000000037
 21
479.77761900000002
  0
LINE
  8
_0-0_0
  6
CONTINUOUS
 62
    7
 10
6.7524104999999963
 20
479.57333399999999
 11
6.5024104999999963
 21
479.77761900000002
  0
LINE
  8
_0-0_0
  6
CONTINUOUS
 62
    7
 10
-2.9975895000000037
 20
479.57333399999999
 11
-2.7475895000000037
 21
479.77761900000002
  0
LINE
  8
_0-0_0
  6
CONTINUOUS
 62
    7
 10
6.7524104999999963
 20
479.57333399999999
 11
6.5024104999999963
 21
479.84536800000001
  0
LINE
  8
_0-0_0
  6
CONTINUOUS
 62
    7
 10
6.5024104999999963
 20
479.84536800000001
 11
-2.7475895000000037
 21
479.84536800000001
  0
LINE
  8
_0-0_0
  6
CONTINUOUS
 62
    7
 10
-2.9975895000000037
 20
479.57333399999999
 11
-2.7475895000000037
 21
479.84536800000001
  0
LINE
  8
_0-0_0
  6
CONTINUOUS
 62
    7
 10
6.7524104999999963
 20
479.62228399999998
 11
6.5024104999999963
 21
479.84536800000001
  0
LINE
  8
_0-0_0
  6
CONTINUOUS
 62
    7
 10
-2.9975895000000037
 20
479.62228399999998
 11
-2.7475895000000037
 21
479.84536800000001
  0
LINE
  8
_0-0_0
  6
CONTINUOUS
 62
    7
 10
6.7524104999999963
 20
479.62228399999998
 11
6.5024104999999963
 21
479.88629199999997
  0
LINE
  8
_0-0_0
  6
CONTINUOUS
 62
    7
 10
6.5024104999999963
 20
479.88629199999997
 11
-2.7475895000000037
 21
479.88629199999997
  0
LINE
  8
_0-0_0
  6
CONTINUOUS
 62
    7
 10
-2.9975895000000037
 20
479.62228399999998
 11
-2.7475895000000037
 21
479.88629199999997
  0
LINE
  8
_0-0_0
  6
CONTINUOUS
 62
    7
 10
6.7524104999999963
 20
479.64691199999999
 11
6.5024104999999963
 21
479.88629199999997
  0
LINE
  8
_0-0_0
  6
CONTINUOUS
 62
    7
 10
-2.9975895000000037
 20
479.64691199999999
 11
-2.7475895000000037
 21
479.88629199999997
  0
LINE
  8
_0-0_0
  6
CONTINUOUS
 62
    7
 10
6.7524104999999963
 20
479.64691199999999
 11
6.5024104999999963
 21
479.89999399999999
  0
LINE
  8
_0-0_0
  6
CONTINUOUS
 62
    7
 10
6.5024104999999963
 20
479.89999399999999
 11
-2.7475895000000037
 21
479.89999399999999
  0
LINE
  8
_0-0_0
  6
CONTINUOUS
 62
    7
 10
-2.9975895000000037
 20
479.64691199999999
 11
-2.7475895000000037
 21
479.89999399999999
  0
LINE
  8
_0-0_0
  6
CONTINUOUS
 62
    7
 10
52.202407500000049
 20
465.09997599999997
 11
52.202407500000049
 21
465.10134899999997
  0
LINE
  8
_0-0_0
  6
CONTINUOUS
 62
    7
 10
52.202407500000049
 20
465.10134899999997
 11
52.202407500000049
 21
473.09997599999997
  0
LINE
  8
_0-0_0
  6
CONTINUOUS
 62
    7
 10
-2.9975895000000037
 20
479.28698700000001
 11
-2.7475895000000037
 21
479.56506400000001
  0
LINE
  8
_0-0_0
  6
CONTINUOUS
 62
    7
 10
7.0024104999999963
 20
479.15515099999999
 11
7.0024104999999963
 21
479.39999399999999
  0
LINE
  8
_0-0_0
  6
CONTINUOUS
 62
    7
 10
-2.9975895000000037
 20
475.153076
 11
-2.7475895000000037
 21
474.91366599999998
  0
LINE
  8
_0-0_0
  6
CONTINUOUS
 62
    7
 10
-2.9975895000000037
 20
475.17767299999997
 11
-2.7475895000000037
 21
474.95461999999998
  0
LINE
  8
_0-0_0
  6
CONTINUOUS
 62
    7
 10
-2.9975895000000037
 20
475.226654
 11
-2.7475895000000037
 21
475.02233899999999
  0
LINE
  8
_0-0_0
  6
CONTINUOUS
 62
    7
 10
-2.9975895000000037
 20
475.29943900000001
 11
-2.7475895000000037
 21
475.11611899999997
  0
LINE
  8
_0-0_0
  6
CONTINUOUS
 62
    7
 10
-2.9975895000000037
 20
475.39523300000002
 11
-2.7475895000000037
 21
475.23492399999998
  0
LINE
  8
_0-0_0
  6
CONTINUOUS
 62
    7
 10
-2.9975895000000037
 20
475.51297
 11
-2.7475895000000037
 21
475.37744199999997
  0
LINE
  8
_0-0_0
  6
CONTINUOUS
 62
    7
 10
-2.9975895000000037
 20
475.65139799999997
 11
-2.7475895000000037
 21
475.54211399999997
  0
LINE
  8
_0-0_0
  6
CONTINUOUS
 62
    7
 10
-2.9975895000000037
 20
475.80899099999999
 11
-2.7475895000000037
 21
475.72717299999999
  0
LINE
  8
_0-0_0
  6
CONTINUOUS
 62
    7
 10
6.5024104999999963
 20
475.93051199999996
 11
-2.7475895000000037
 21
475.93051199999996
  0
LINE
  8
_0-0_0
  6
CONTINUOUS
 62
    7
 10
-2.9975895000000037
 20
475.98400900000001
 11
-2.7475895000000037
 21
475.93051199999996
  0
LINE
  8
_0-0_0
  6
CONTINUOUS
 62
    7
 10
-2.9975895000000037
 20
476.37851000000001
 11
-2.7475895000000037
 21
476.38314800000001
  0
LINE
  8
_0-0_0
  6
CONTINUOUS
 62
    7
 10
6.7524104999999963
 20
476.37851000000001
 11
-2.9975895000000037
 21
476.37851000000001
  0
LINE
  8
_0-0_0
  6
CONTINUOUS
 62
    7
 10
-2.9975895000000037
 20
476.593659
 11
-2.7475895000000037
 21
476.62744199999997
  0
LINE
  8
_0-0_0
  6
CONTINUOUS
 62
    7
 10
-2.9975895000000037
 20
476.81765799999999
 11
-2.7475895000000037
 21
476.88021900000001
  0
LINE
  8
_0-0_0
  6
CONTINUOUS
 62
    7
 10
-2.9975895000000037
 20
477.04800399999999
 11
-2.7475895000000037
 21
477.13867199999999
  0
LINE
  8
_0-0_0
  6
CONTINUOUS
 62
    7
 10
-2.9975895000000037
 20
477.28222699999998
 11
-2.7475895000000037
 21
477.39999399999999
  0
LINE
  8
_0-0_0
  6
CONTINUOUS
 62
    7
 10
-2.9975895000000037
 20
477.51773099999997
 11
-2.7475895000000037
 21
477.661316
  0
LINE
  8
_0-0_0
  6
CONTINUOUS
 62
    7
 10
-2.9975895000000037
 20
477.75195300000001
 11
-2.7475895000000037
 21
477.91976899999997
  0
LINE
  8
_0-0_0
  6
CONTINUOUS
 62
    7
 10
-2.9975895000000037
 20
477.98232999999999
 11
-2.7475895000000037
 21
478.17251599999997
  0
LINE
  8
_0-0_0
  6
CONTINUOUS
 62
    7
 10
-2.9975895000000037
 20
478.20632899999998
 11
-2.7475895000000037
 21
478.41683999999998
  0
LINE
  8
_0-0_0
  6
CONTINUOUS
 62
    7
 10
-2.9975895000000037
 20
478.42147799999998
 11
-2.7475895000000037
 21
478.64999399999999
  0
LINE
  8
_0-0_0
  6
CONTINUOUS
 62
    7
 10
-2.9975895000000037
 20
478.625427
 11
-2.7475895000000037
 21
478.86944599999998
  0
LINE
  8
_0-0_0
  6
CONTINUOUS
 62
    7
 10
-2.9975895000000037
 20
478.81594899999999
 11
-2.7475895000000037
 21
479.07281499999999
  0
LINE
  8
_0-0_0
  6
CONTINUOUS
 62
    7
 10
-2.9975895000000037
 20
478.99096700000001
 11
-2.7475895000000037
 21
479.25784299999998
  0
LINE
  8
_0-0_0
  6
CONTINUOUS
 62
    7
 10
-2.9975895000000037
 20
479.14855999999997
 11
-2.7475895000000037
 21
479.42251599999997
  0
LINE
  8
_0-0_0
  6
CONTINUOUS
 62
    7
 10
-2.9975895000000037
 20
476.17456099999998
 11
-2.7475895000000037
 21
475.93051199999996
  0
LINE
  8
_0-0_0
  6
CONTINUOUS
 62
    7
 10
-2.9975895000000037
 20
476.37851000000001
 11
-2.7475895000000037
 21
476.14999399999999
  0
LINE
  8
_0-0_0
  6
CONTINUOUS
 62
    7
 10
-2.9975895000000037
 20
462.686981
 11
-2.7475895000000037
 21
462.965057
  0
LINE
  8
_0-0_0
  6
CONTINUOUS
 62
    7
 10
7.0024104999999963
 20
462.55514499999998
 11
7.0024104999999963
 21
462.79998799999998
  0
LINE
  8
_0-0_0
  6
CONTINUOUS
 62
    7
 10
-2.9975895000000037
 20
458.55306999999999
 11
-2.7475895000000037
 21
458.31369000000001
  0
LINE
  8
_0-0_0
  6
CONTINUOUS
 62
    7
 10
-2.9975895000000037
 20
458.577698
 11
-2.7475895000000037
 21
458.35461399999997
  0
LINE
  8
_0-0_0
  6
CONTINUOUS
 62
    7
 10
-2.9975895000000037
 20
458.62664799999999
 11
-2.7475895000000037
 21
458.42233299999998
  0
LINE
  8
_0-0_0
  6
CONTINUOUS
 62
    7
 10
-2.9975895000000037
 20
458.699432
 11
-2.7475895000000037
 21
458.51611300000002
  0
LINE
  8
_0-0_0
  6
CONTINUOUS
 62
    7
 10
-2.9975895000000037
 20
458.79522700000001
 11
-2.7475895000000037
 21
458.63491799999997
  0
LINE
  8
_0-0_0
  6
CONTINUOUS
 62
    7
 10
-2.9975895000000037
 20
458.91299399999997
 11
-2.7475895000000037
 21
458.77743499999997
  0
LINE
  8
_0-0_0
  6
CONTINUOUS
 62
    7
 10
-2.9975895000000037
 20
459.051422
 11
-2.7475895000000037
 21
458.94210800000002
  0
LINE
  8
_0-0_0
  6
CONTINUOUS
 62
    7
 10
-2.9975895000000037
 20
459.20898399999999
 11
-2.7475895000000037
 21
459.12716699999999
  0
LINE
  8
_0-0_0
  6
CONTINUOUS
 62
    7
 10
6.5024104999999963
 20
459.330536
 11
-2.7475895000000037
 21
459.330536
  0
LINE
  8
_0-0_0
  6
CONTINUOUS
 62
    7
 10
-2.9975895000000037
 20
459.38400300000001
 11
-2.7475895000000037
 21
459.330536
  0
LINE
  8
_0-0_0
  6
CONTINUOUS
 62
    7
 10
-2.9975895000000037
 20
459.778504
 11
-2.7475895000000037
 21
459.783142
  0
LINE
  8
_0-0_0
  6
CONTINUOUS
 62
    7
 10
6.7524104999999963
 20
459.778504
 11
-2.9975895000000037
 21
459.778504
  0
LINE
  8
_0-0_0
  6
CONTINUOUS
 62
    7
 10
-2.9975895000000037
 20
459.993652
 11
-2.7475895000000037
 21
460.02743499999997
  0
LINE
  8
_0-0_0
  6
CONTINUOUS
 62
    7
 10
-2.9975895000000037
 20
460.21765099999999
 11
-2.7475895000000037
 21
460.280213
  0
LINE
  8
_0-0_0
  6
CONTINUOUS
 62
    7
 10
-2.9975895000000037
 20
460.44799799999998
 11
-2.7475895000000037
 21
460.53866599999998
  0
LINE
  8
_0-0_0
  6
CONTINUOUS
 62
    7
 10
-2.9975895000000037
 20
460.68222099999997
 11
-2.7475895000000037
 21
460.79998799999998
  0
LINE
  8
_0-0_0
  6
CONTINUOUS
 62
    7
 10
-2.9975895000000037
 20
460.917755
 11
-2.7475895000000037
 21
461.06130999999999
  0
LINE
  8
_0-0_0
  6
CONTINUOUS
 62
    7
 10
-2.9975895000000037
 20
461.15197799999999
 11
-2.7475895000000037
 21
461.31976299999997
  0
LINE
  8
_0-0_0
  6
CONTINUOUS
 62
    7
 10
-2.9975895000000037
 20
461.38232399999998
 11
-2.7475895000000037
 21
461.57254
  0
LINE
  8
_0-0_0
  6
CONTINUOUS
 62
    7
 10
-2.9975895000000037
 20
461.60632299999997
 11
-2.7475895000000037
 21
461.81683399999997
  0
LINE
  8
_0-0_0
  6
CONTINUOUS
 62
    7
 10
-2.9975895000000037
 20
461.82147199999997
 11
-2.7475895000000037
 21
462.04998799999998
  0
LINE
  8
_0-0_0
  6
CONTINUOUS
 62
    7
 10
-2.9975895000000037
 20
462.02542099999999
 11
-2.7475895000000037
 21
462.26943999999997
  0
LINE
  8
_0-0_0
  6
CONTINUOUS
 62
    7
 10
-2.9975895000000037
 20
462.21597300000002
 11
-2.7475895000000037
 21
462.47280899999998
  0
LINE
  8
_0-0_0
  6
CONTINUOUS
 62
    7
 10
-2.9975895000000037
 20
462.390961
 11
-2.7475895000000037
 21
462.65783699999997
  0
LINE
  8
_0-0_0
  6
CONTINUOUS
 62
    7
 10
-2.9975895000000037
 20
462.54855399999997
 11
-2.7475895000000037
 21
462.82254
  0
LINE
  8
_0-0_0
  6
CONTINUOUS
 62
    7
 10
-2.9975895000000037
 20
459.57455499999998
 11
-2.7475895000000037
 21
459.330536
  0
LINE
  8
_0-0_0
  6
CONTINUOUS
 62
    7
 10
-2.9975895000000037
 20
459.778504
 11
-2.7475895000000037
 21
459.54998799999998
  0
LINE
  8
_0-0_0
  6
CONTINUOUS
 62
    7
 10
-5.7975924999999506
 20
464.56185899999997
 11
-5.7975924999999506
 21
466.83093300000002
  0
LINE
  8
_0-0_0
  6
CONTINUOUS
 62
    7
 10
-5.7975924999999506
 20
466.83093300000002
 11
-5.7975924999999506
 21
473.63809199999997
  0
LINE
  8
_0-0_0
  6
CONTINUOUS
 62
    7
 10
-2.9975895000000037
 20
476.37851000000001
 11
-2.9975895000000037
 21
476.593659
  0
LINE
  8
_0-0_0
  6
CONTINUOUS
 62
    7
 10
-2.9975895000000037
 20
476.593659
 11
-2.9975895000000037
 21
476.81765799999999
  0
LINE
  8
_0-0_0
  6
CONTINUOUS
 62
    7
 10
-2.9975895000000037
 20
476.81765799999999
 11
-2.9975895000000037
 21
477.04800399999999
  0
LINE
  8
_0-0_0
  6
CONTINUOUS
 62
    7
 10
-2.9975895000000037
 20
477.04800399999999
 11
-2.9975895000000037
 21
477.28222699999998
  0
LINE
  8
_0-0_0
  6
CONTINUOUS
 62
    7
 10
-2.9975895000000037
 20
477.28222699999998
 11
-2.9975895000000037
 21
477.51773099999997
  0
LINE
  8
_0-0_0
  6
CONTINUOUS
 62
    7
 10
-2.9975895000000037
 20
477.51773099999997
 11
-2.9975895000000037
 21
477.75195300000001
  0
LINE
  8
_0-0_0
  6
CONTINUOUS
 62
    7
 10
-2.9975895000000037
 20
477.75195300000001
 11
-2.9975895000000037
 21
477.98232999999999
  0
LINE
  8
_0-0_0
  6
CONTINUOUS
 62
    7
 10
-2.9975895000000037
 20
477.98232999999999
 11
-2.9975895000000037
 21
478.20632899999998
  0
LINE
  8
_0-0_0
  6
CONTINUOUS
 62
    7
 10
-2.9975895000000037
 20
478.20632899999998
 11
-2.9975895000000037
 21
478.42147799999998
  0
LINE
  8
_0-0_0
  6
CONTINUOUS
 62
    7
 10
-2.9975895000000037
 20
478.42147799999998
 11
-2.9975895000000037
 21
478.625427
  0
LINE
  8
_0-0_0
  6
CONTINUOUS
 62
    7
 10
-2.9975895000000037
 20
478.625427
 11
-2.9975895000000037
 21
478.81594899999999
  0
LINE
  8
_0-0_0
  6
CONTINUOUS
 62
    7
 10
-2.9975895000000037
 20
478.81594899999999
 11
-2.9975895000000037
 21
478.99096700000001
  0
LINE
  8
_0-0_0
  6
CONTINUOUS
 62
    7
 10
-2.9975895000000037
 20
478.99096700000001
 11
-2.9975895000000037
 21
479.14855999999997
  0
LINE
  8
_0-0_0
  6
CONTINUOUS
 62
    7
 10
-2.9975895000000037
 20
479.14855999999997
 11
-2.9975895000000037
 21
479.28698700000001
  0
LINE
  8
_0-0_0
  6
CONTINUOUS
 62
    7
 10
-2.9975895000000037
 20
479.28698700000001
 11
-2.9975895000000037
 21
479.37454200000002
  0
LINE
  8
_0-0_0
  6
CONTINUOUS
 62
    7
 10
-2.9975895000000037
 20
479.37454200000002
 11
-2.9975895000000037
 21
479.40475499999997
  0
LINE
  8
_0-0_0
  6
CONTINUOUS
 62
    7
 10
-2.9975895000000037
 20
479.40475499999997
 11
-2.9975895000000037
 21
479.50054899999998
  0
LINE
  8
_0-0_0
  6
CONTINUOUS
 62
    7
 10
-2.9975895000000037
 20
479.50054899999998
 11
-2.9975895000000037
 21
479.57333399999999
  0
LINE
  8
_0-0_0
  6
CONTINUOUS
 62
    7
 10
-2.9975895000000037
 20
479.57333399999999
 11
-2.9975895000000037
 21
479.64999399999999
  0
LINE
  8
_0-0_0
  6
CONTINUOUS
 62
    7
 10
-2.9975895000000037
 20
479.62228399999998
 11
-2.9975895000000037
 21
479.64691199999999
  0
LINE
  8
_0-0_0
  6
CONTINUOUS
 62
    7
 10
-2.9975895000000037
 20
479.64691199999999
 11
-2.9975895000000037
 21
479.64999399999999
  0
LINE
  8
_0-0_0
  6
CONTINUOUS
 62
    7
 10
-2.9975895000000037
 20
475.14999399999999
 11
-2.9975895000000037
 21
475.153076
  0
LINE
  8
_0-0_0
  6
CONTINUOUS
 62
    7
 10
-2.9975895000000037
 20
475.153076
 11
-2.9975895000000037
 21
475.17767299999997
  0
LINE
  8
_0-0_0
  6
CONTINUOUS
 62
    7
 10
-2.9975895000000037
 20
475.17767299999997
 11
-2.9975895000000037
 21
475.226654
  0
LINE
  8
_0-0_0
  6
CONTINUOUS
 62
    7
 10
-2.9975895000000037
 20
475.226654
 11
-2.9975895000000037
 21
475.29943900000001
  0
LINE
  8
_0-0_0
  6
CONTINUOUS
 62
    7
 10
-2.9975895000000037
 20
475.14999399999999
 11
-2.9975895000000037
 21
475.39523300000002
  0
LINE
  8
_0-0_0
  6
CONTINUOUS
 62
    7
 10
-2.9975895000000037
 20
475.39523300000002
 11
-2.9975895000000037
 21
475.51297
  0
LINE
  8
_0-0_0
  6
CONTINUOUS
 62
    7
 10
-2.9975895000000037
 20
475.51297
 11
-2.9975895000000037
 21
475.65139799999997
  0
LINE
  8
_0-0_0
  6
CONTINUOUS
 62
    7
 10
-2.9975895000000037
 20
475.65139799999997
 11
-2.9975895000000037
 21
475.80899099999999
  0
LINE
  8
_0-0_0
  6
CONTINUOUS
 62
    7
 10
-2.9975895000000037
 20
475.80899099999999
 11
-2.9975895000000037
 21
475.98400900000001
  0
LINE
  8
_0-0_0
  6
CONTINUOUS
 62
    7
 10
-2.9975895000000037
 20
475.98400900000001
 11
-2.9975895000000037
 21
476.17456099999998
  0
LINE
  8
_0-0_0
  6
CONTINUOUS
 62
    7
 10
-2.9975895000000037
 20
476.32128899999998
 11
-2.9975895000000037
 21
476.37851000000001
  0
LINE
  8
_0-0_0
  6
CONTINUOUS
 62
    7
 10
-2.9975895000000037
 20
476.17456099999998
 11
-2.9975895000000037
 21
476.32128899999998
  0
LINE
  8
_0-0_0
  6
CONTINUOUS
 62
    7
 10
-2.9975895000000037
 20
459.778504
 11
-2.9975895000000037
 21
459.993652
  0
LINE
  8
_0-0_0
  6
CONTINUOUS
 62
    7
 10
-2.9975895000000037
 20
459.993652
 11
-2.9975895000000037
 21
460.21765099999999
  0
LINE
  8
_0-0_0
  6
CONTINUOUS
 62
    7
 10
-2.9975895000000037
 20
460.21765099999999
 11
-2.9975895000000037
 21
460.44799799999998
  0
LINE
  8
_0-0_0
  6
CONTINUOUS
 62
    7
 10
-2.9975895000000037
 20
460.44799799999998
 11
-2.9975895000000037
 21
460.68222099999997
  0
LINE
  8
_0-0_0
  6
CONTINUOUS
 62
    7
 10
-2.9975895000000037
 20
460.68222099999997
 11
-2.9975895000000037
 21
460.917755
  0
LINE
  8
_0-0_0
  6
CONTINUOUS
 62
    7
 10
-2.9975895000000037
 20
460.917755
 11
-2.9975895000000037
 21
461.15197799999999
  0
LINE
  8
_0-0_0
  6
CONTINUOUS
 62
    7
 10
-2.9975895000000037
 20
461.15197799999999
 11
-2.9975895000000037
 21
461.38232399999998
  0
LINE
  8
_0-0_0
  6
CONTINUOUS
 62
    7
 10
-2.9975895000000037
 20
461.38232399999998
 11
-2.9975895000000037
 21
461.60632299999997
  0
LINE
  8
_0-0_0
  6
CONTINUOUS
 62
    7
 10
-2.9975895000000037
 20
461.60632299999997
 11
-2.9975895000000037
 21
461.82147199999997
  0
LINE
  8
_0-0_0
  6
CONTINUOUS
 62
    7
 10
-2.9975895000000037
 20
461.82147199999997
 11
-2.9975895000000037
 21
462.02542099999999
  0
LINE
  8
_0-0_0
  6
CONTINUOUS
 62
    7
 10
-2.9975895000000037
 20
462.02542099999999
 11
-2.9975895000000037
 21
462.21597300000002
  0
LINE
  8
_0-0_0
  6
CONTINUOUS
 62
    7
 10
-2.9975895000000037
 20
462.21597300000002
 11
-2.9975895000000037
 21
462.390961
  0
LINE
  8
_0-0_0
  6
CONTINUOUS
 62
    7
 10
-2.9975895000000037
 20
462.390961
 11
-2.9975895000000037
 21
462.54855399999997
  0
LINE
  8
_0-0_0
  6
CONTINUOUS
 62
    7
 10
-2.9975895000000037
 20
462.54855399999997
 11
-2.9975895000000037
 21
462.686981
  0
LINE
  8
_0-0_0
  6
CONTINUOUS
 62
    7
 10
-2.9975895000000037
 20
462.686981
 11
-2.9975895000000037
 21
462.77453600000001
  0
LINE
  8
_0-0_0
  6
CONTINUOUS
 62
    7
 10
-2.9975895000000037
 20
462.77453600000001
 11
-2.9975895000000037
 21
462.80474900000002
  0
LINE
  8
_0-0_0
  6
CONTINUOUS
 62
    7
 10
-2.9975895000000037
 20
462.80474900000002
 11
-2.9975895000000037
 21
462.90054299999997
  0
LINE
  8
_0-0_0
  6
CONTINUOUS
 62
    7
 10
-2.9975895000000037
 20
462.90054299999997
 11
-2.9975895000000037
 21
462.97332799999998
  0
LINE
  8
_0-0_0
  6
CONTINUOUS
 62
    7
 10
-2.9975895000000037
 20
462.97332799999998
 11
-2.9975895000000037
 21
463.02227799999997
  0
LINE
  8
_0-0_0
  6
CONTINUOUS
 62
    7
 10
-2.9975895000000037
 20
463.02227799999997
 11
-2.9975895000000037
 21
463.04998799999998
  0
LINE
  8
_0-0_0
  6
CONTINUOUS
 62
    7
 10
-2.9975895000000037
 20
463.04690599999998
 11
-2.9975895000000037
 21
463.04998799999998
  0
LINE
  8
_0-0_0
  6
CONTINUOUS
 62
    7
 10
-2.9975895000000037
 20
458.54998799999998
 11
-2.9975895000000037
 21
458.55306999999999
  0
LINE
  8
_0-0_0
  6
CONTINUOUS
 62
    7
 10
-2.9975895000000037
 20
458.55306999999999
 11
-2.9975895000000037
 21
458.577698
  0
LINE
  8
_0-0_0
  6
CONTINUOUS
 62
    7
 10
-2.9975895000000037
 20
458.54998799999998
 11
-2.9975895000000037
 21
458.62664799999999
  0
LINE
  8
_0-0_0
  6
CONTINUOUS
 62
    7
 10
-2.9975895000000037
 20
458.62664799999999
 11
-2.9975895000000037
 21
458.699432
  0
LINE
  8
_0-0_0
  6
CONTINUOUS
 62
    7
 10
-2.9975895000000037
 20
458.699432
 11
-2.9975895000000037
 21
458.79522700000001
  0
LINE
  8
_0-0_0
  6
CONTINUOUS
 62
    7
 10
-2.9975895000000037
 20
458.79522700000001
 11
-2.9975895000000037
 21
458.91299399999997
  0
LINE
  8
_0-0_0
  6
CONTINUOUS
 62
    7
 10
-2.9975895000000037
 20
458.91299399999997
 11
-2.9975895000000037
 21
459.051422
  0
LINE
  8
_0-0_0
  6
CONTINUOUS
 62
    7
 10
-2.9975895000000037
 20
459.051422
 11
-2.9975895000000037
 21
459.20898399999999
  0
LINE
  8
_0-0_0
  6
CONTINUOUS
 62
    7
 10
-2.9975895000000037
 20
459.20898399999999
 11
-2.9975895000000037
 21
459.38400300000001
  0
LINE
  8
_0-0_0
  6
CONTINUOUS
 62
    7
 10
-2.9975895000000037
 20
459.38400300000001
 11
-2.9975895000000037
 21
459.57455499999998
  0
LINE
  8
_0-0_0
  6
CONTINUOUS
 62
    7
 10
-2.9975895000000037
 20
459.72128299999997
 11
-2.9975895000000037
 21
459.778504
  0
LINE
  8
_0-0_0
  6
CONTINUOUS
 62
    7
 10
-2.9975895000000037
 20
459.57455499999998
 11
-2.9975895000000037
 21
459.72128299999997
  0
LINE
  8
_0-0_0
  6
CONTINUOUS
 62
    7
 10
-6.5975955000000113
 20
466.59997599999997
 11
-6.5975955000000113
 21
474.09997599999997
  0
LINE
  8
_0-0_0
  6
CONTINUOUS
 62
    7
 10
-6.5975955000000113
 20
464.09997599999997
 11
-6.5975955000000113
 21
466.59997599999997
  0
LINE
  8
_0-0_0
  6
CONTINUOUS
 62
    7
 10
-17.997589500000004
 20
475.59997599999997
 11
-8.2897644999999898
 21
475.59997599999997
  0
LINE
  8
_0-0_0
  6
CONTINUOUS
 62
    7
 10
-8.2475895000000037
 20
475.59997599999997
 11
-8.2897644999999898
 21
475.59997599999997
  0
LINE
  8
_0-0_0
  6
CONTINUOUS
 62
    7
 10
-18.297592499999951
 20
466.88797
 11
-18.238784499999952
 21
466.64111300000002
  0
LINE
  8
_0-0_0
  6
CONTINUOUS
 62
    7
 10
-18.238784499999952
 20
466.64111300000002
 11
-18.189025499999957
 21
466.44879199999997
  0
LINE
  8
_0-0_0
  6
CONTINUOUS
 62
    7
 10
-18.189025499999957
 20
466.44879199999997
 11
-18.117904500000009
 21
466.18304499999999
  0
LINE
  8
_0-0_0
  6
CONTINUOUS
 62
    7
 10
-18.117904500000009
 20
466.18304499999999
 11
-18.084945500000003
 21
466.05633599999999
  0
LINE
  8
_0-0_0
  6
CONTINUOUS
 62
    7
 10
-18.084945500000003
 20
466.05633599999999
 11
-18.059692499999983
 21
465.95291099999997
  0
LINE
  8
_0-0_0
  6
CONTINUOUS
 62
    7
 10
-18.059692499999983
 20
465.95291099999997
 11
-18.03765850000002
 21
465.852936
  0
LINE
  8
_0-0_0
  6
CONTINUOUS
 62
    7
 10
-18.03765850000002
 20
465.852936
 11
-18.016265500000031
 21
465.73523
  0
LINE
  8
_0-0_0
  6
CONTINUOUS
 62
    7
 10
-18.016265500000031
 20
465.73523
 11
-18.007705499999986
 21
465.67309599999999
  0
LINE
  8
_0-0_0
  6
CONTINUOUS
 62
    7
 10
-18.007705499999986
 20
465.67309599999999
 11
-18.001617499999952
 21
465.61248799999998
  0
LINE
  8
_0-0_0
  6
CONTINUOUS
 62
    7
 10
-18.001617499999952
 20
465.61248799999998
 11
-17.998611499999981
 21
465.56326300000001
  0
LINE
  8
_0-0_0
  6
CONTINUOUS
 62
    7
 10
-17.998611499999981
 20
465.56326300000001
 11
-17.997589500000004
 21
465.51504499999999
  0
LINE
  8
_0-0_0
  6
CONTINUOUS
 62
    7
 10
-18.297592499999951
 20
471.311981
 11
-18.238800500000025
 21
471.558807
  0
LINE
  8
_0-0_0
  6
CONTINUOUS
 62
    7
 10
-18.238800500000025
 20
471.558807
 11
-18.189025499999957
 21
471.75115999999997
  0
LINE
  8
_0-0_0
  6
CONTINUOUS
 62
    7
 10
-18.189025499999957
 20
471.75115999999997
 11
-18.117904500000009
 21
472.01693699999998
  0
LINE
  8
_0-0_0
  6
CONTINUOUS
 62
    7
 10
-18.117904500000009
 20
472.01693699999998
 11
-18.084945500000003
 21
472.14367699999997
  0
LINE
  8
_0-0_0
  6
CONTINUOUS
 62
    7
 10
-18.084945500000003
 20
472.14367699999997
 11
-18.059677500000021
 21
472.24707000000001
  0
LINE
  8
_0-0_0
  6
CONTINUOUS
 62
    7
 10
-18.059677500000021
 20
472.24707000000001
 11
-18.03765850000002
 21
472.347015
  0
LINE
  8
_0-0_0
  6
CONTINUOUS
 62
    7
 10
-18.03765850000002
 20
472.347015
 11
-18.016281499999991
 21
472.46472199999999
  0
LINE
  8
_0-0_0
  6
CONTINUOUS
 62
    7
 10
-18.016281499999991
 20
472.46472199999999
 11
-18.007705499999986
 21
472.52685600000001
  0
LINE
  8
_0-0_0
  6
CONTINUOUS
 62
    7
 10
-18.007705499999986
 20
472.52685600000001
 11
-18.001617499999952
 21
472.58746300000001
  0
LINE
  8
_0-0_0
  6
CONTINUOUS
 62
    7
 10
-18.001617499999952
 20
472.58746300000001
 11
-17.998611499999981
 21
472.63671899999997
  0
LINE
  8
_0-0_0
  6
CONTINUOUS
 62
    7
 10
-17.998611499999981
 20
472.63671899999997
 11
-17.997589500000004
 21
472.68493699999999
  0
LINE
  8
_0-0_0
  6
CONTINUOUS
 62
    7
 10
-17.997589500000004
 20
467.53793300000001
 11
-17.997589500000004
 21
466.492279
  0
LINE
  8
_0-0_0
  6
CONTINUOUS
 62
    7
 10
-17.997589500000004
 20
465.207672
 11
-17.997589500000004
 21
466.492279
  0
LINE
  8
_0-0_0
  6
CONTINUOUS
 62
    7
 10
-17.997589500000004
 20
465.092285
 11
-17.997589500000004
 21
465.207672
  0
ARC
  8
_0-0_0
  6
CONTINUOUS
 62
    7
 10
-19.997589500000004
 20
476.45846599999999
 40
2
 50
0
 51
71.565000999999995
  0
LINE
  8
_0-0_0
  6
CONTINUOUS
 62
    7
 10
-8.2897644999999898
 20
475.59997599999997
 11
-8.2352755000000002
 21
475.53005999999999
  0
LINE
  8
_0-0_0
  6
CONTINUOUS
 62
    7
 10
-8.2352755000000002
 20
475.53005999999999
 11
-8.1841734999999858
 21
475.46121199999999
  0
LINE
  8
_0-0_0
  6
CONTINUOUS
 62
    7
 10
-8.1841734999999858
 20
475.46121199999999
 11
-8.1365354999999795
 21
475.39370700000001
  0
LINE
  8
_0-0_0
  6
CONTINUOUS
 62
    7
 10
-8.1365354999999795
 20
475.39370700000001
 11
-8.0920414999999934
 21
475.327179
  0
LINE
  8
_0-0_0
  6
CONTINUOUS
 62
    7
 10
-8.0920414999999934
 20
475.327179
 11
-8.0373234999999568
 21
475.23962399999999
  0
LINE
  8
_0-0_0
  6
CONTINUOUS
 62
    7
 10
-8.0373234999999568
 20
475.23962399999999
 11
-7.9878085000000283
 21
475.15353399999998
  0
LINE
  8
_0-0_0
  6
CONTINUOUS
 62
    7
 10
-7.9878085000000283
 20
475.15353399999998
 11
-7.9433444999999665
 21
475.06869499999999
  0
LINE
  8
_0-0_0
  6
CONTINUOUS
 62
    7
 10
-7.9433444999999665
 20
475.06869499999999
 11
-7.8963774999999714
 21
474.96838400000001
  0
LINE
  8
_0-0_0
  6
CONTINUOUS
 62
    7
 10
-7.8963774999999714
 20
474.96838400000001
 11
-7.856170499999962
 21
474.86944599999998
  0
LINE
  8
_0-0_0
  6
CONTINUOUS
 62
    7
 10
-7.856170499999962
 20
474.86944599999998
 11
-7.8225095000000238
 21
474.77169800000001
  0
LINE
  8
_0-0_0
  6
CONTINUOUS
 62
    7
 10
-7.8225095000000238
 20
474.77169800000001
 11
-7.7952114999999935
 21
474.67489599999999
  0
LINE
  8
_0-0_0
  6
CONTINUOUS
 62
    7
 10
-7.7952114999999935
 20
474.67489599999999
 11
-7.7741694999999709
 21
474.57882699999999
  0
LINE
  8
_0-0_0
  6
CONTINUOUS
 62
    7
 10
-7.7741694999999709
 20
474.57882699999999
 11
-7.758239500000002
 21
474.47497599999997
  0
LINE
  8
_0-0_0
  6
CONTINUOUS
 62
    7
 10
-7.758239500000002
 20
474.47497599999997
 11
-7.7494815000000017
 21
474.37155200000001
  0
LINE
  8
_0-0_0
  6
CONTINUOUS
 62
    7
 10
-7.7494815000000017
 20
474.37155200000001
 11
-7.7478485000000319
 21
474.26831099999998
  0
LINE
  8
_0-0_0
  6
CONTINUOUS
 62
    7
 10
-7.7478485000000319
 20
474.26831099999998
 11
-7.7533114999999952
 21
474.16503899999998
  0
LINE
  8
_0-0_0
  6
CONTINUOUS
 62
    7
 10
-7.7533114999999952
 20
474.16503899999998
 11
-7.7659304999999677
 21
474.06143199999997
  0
LINE
  8
_0-0_0
  6
CONTINUOUS
 62
    7
 10
-7.7659304999999677
 20
474.06143199999997
 11
-7.7857364999999845
 21
473.95727499999998
  0
LINE
  8
_0-0_0
  6
CONTINUOUS
 62
    7
 10
-7.7857364999999845
 20
473.95727499999998
 11
-7.8128815000000031
 21
473.85232600000001
  0
LINE
  8
_0-0_0
  6
CONTINUOUS
 62
    7
 10
-7.8128815000000031
 20
473.85232600000001
 11
-7.8475344999999948
 21
473.746307
  0
LINE
  8
_0-0_0
  6
CONTINUOUS
 62
    7
 10
-7.8475344999999948
 20
473.746307
 11
-7.8898775000000114
 21
473.63891599999999
  0
LINE
  8
_0-0_0
  6
CONTINUOUS
 62
    7
 10
-7.8898775000000114
 20
473.63891599999999
 11
-7.9402005000000031
 21
473.52990699999998
  0
LINE
  8
_0-0_0
  6
CONTINUOUS
 62
    7
 10
-7.9402005000000031
 20
473.52990699999998
 11
-7.9944454999999834
 21
473.42678799999999
  0
LINE
  8
_0-0_0
  6
CONTINUOUS
 62
    7
 10
-7.9944454999999834
 20
473.42678799999999
 11
-8.0561524999999961
 21
473.32171599999998
  0
LINE
  8
_0-0_0
  6
CONTINUOUS
 62
    7
 10
-8.0561524999999961
 20
473.32171599999998
 11
-8.1256714999999531
 21
473.21447799999999
  0
LINE
  8
_0-0_0
  6
CONTINUOUS
 62
    7
 10
-8.1256714999999531
 20
473.21447799999999
 11
-8.2033844999999701
 21
473.10476699999998
  0
LINE
  8
_0-0_0
  6
CONTINUOUS
 62
    7
 10
-8.2033844999999701
 20
473.10476699999998
 11
-8.2897644999999898
 21
472.992279
  0
LINE
  8
_0-0_0
  6
CONTINUOUS
 62
    7
 10
-17.997589500000004
 20
473.10766599999999
 11
-17.997589500000004
 21
472.992279
  0
LINE
  8
_0-0_0
  6
CONTINUOUS
 62
    7
 10
-17.997589500000004
 20
471.707672
 11
-17.997589500000004
 21
470.66204799999997
  0
LINE
  8
_0-0_0
  6
CONTINUOUS
 62
    7
 10
-17.997589500000004
 20
466.492279
 11
-8.2897644999999898
 21
466.492279
  0
LINE
  8
_0-0_0
  6
CONTINUOUS
 62
    7
 10
-17.997589500000004
 20
465.207672
 11
-8.2897644999999898
 21
465.207672
  0
LINE
  8
_0-0_0
  6
CONTINUOUS
 62
    7
 10
-6.9975895000000037
 20
471.83154300000001
 11
-6.9975895000000037
 21
474.34997599999997
  0
LINE
  8
_0-0_0
  6
CONTINUOUS
 62
    7
 10
-17.997589500000004
 20
476.45846599999999
 11
-17.997589500000004
 21
473.10766599999999
  0
LINE
  8
_0-0_0
  6
CONTINUOUS
 62
    7
 10
-28.997589500000004
 20
458.29998799999998
 11
-28.997589500000004
 21
458.550049
  0
LINE
  8
_0-0_0
  6
CONTINUOUS
 62
    7
 10
-53.497596499999986
 20
478.39999399999999
 11
-58.497604499999966
 21
478.39999399999999
  0
ARC
  8
_0-0_0
  6
CONTINUOUS
 62
    7
 10
-58.497604499999966
 20
473.89999399999999
 40
4.5
 50
90.000003000000007
 51
269.99999700000006
  0
LINE
  8
_0-0_0
  6
CONTINUOUS
 62
    7
 10
-53.497596499999986
 20
469.39999399999999
 11
-58.497604499999966
 21
469.39999399999999
  0
ARC
  8
_0-0_0
  6
CONTINUOUS
 62
    7
 10
-53.497596499999986
 20
473.89999399999999
 40
4.5
 50
269.99999700000001
 51
90.000002999999992
  0
LINE
  8
_0-0_0
  6
CONTINUOUS
 62
    7
 10
-109.49760449999997
 20
478.39999399999999
 11
-114.49760849999996
 21
478.39999399999999
  0
ARC
  8
_0-0_0
  6
CONTINUOUS
 62
    7
 10
-114.49760849999996
 20
473.89999399999999
 40
4.5
 50
90.000003000000007
 51
269.99999700000006
  0
LINE
  8
_0-0_0
  6
CONTINUOUS
 62
    7
 10
-109.49760449999997
 20
469.39999399999999
 11
-114.49760849999996
 21
469.39999399999999
  0
ARC
  8
_0-0_0
  6
CONTINUOUS
 62
    7
 10
-109.49760449999997
 20
473.89999399999999
 40
4.5
 50
269.99999700000001
 51
90.000002999999992
  0
LINE
  8
_0-0_0
  6
CONTINUOUS
 62
    7
 10
-84.185089500000004
 20
477.96963499999998
 11
-85.485084499999971
 21
474.46963499999998
  0
LINE
  8
_0-0_0
  6
CONTINUOUS
 62
    7
 10
-85.29759949999999
 20
474.19998199999998
 11
-82.697601500000019
 21
474.19998199999998
  0
ARC
  8
_0-0_0
  6
CONTINUOUS
 62
    7
 10
-82.697601500000019
 20
474.39999399999999
 40
0.2
 50
269.99999700000001
 51
20.376435000000019
  0
ARC
  8
_0-0_0
  6
CONTINUOUS
 62
    7
 10
-83.997604499999966
 20
477.89999399999999
 40
0.2
 50
20.376434999999997
 51
159.62357000000003
  0
LINE
  8
_0-0_0
  6
CONTINUOUS
 62
    7
 10
-28.997589500000004
 20
458.29998799999998
 11
-28.997589500000004
 21
460.29998799999998
  0
ARC
  8
_0-0_0
  6
CONTINUOUS
 62
    7
 10
-62.997604499999966
 20
464.69998199999998
 40
3
 50
180.00000900000003
 51
269.99999700000001
  0
LINE
  8
_0-0_0
  6
CONTINUOUS
 62
    7
 10
-62.997604499999966
 20
461.69998199999998
 11
-47.997589500000004
 21
461.69998199999998
  0
ARC
  8
_0-0_0
  6
CONTINUOUS
 62
    7
 10
-47.997589500000004
 20
464.69998199999998
 40
3
 50
269.99999700000001
 51
0
  0
ARC
  8
_0-0_0
  6
CONTINUOUS
 62
    7
 10
-47.997589500000004
 20
478.29998799999998
 40
3
 50
0
 51
90.000003000000007
  0
LINE
  8
_0-0_0
  6
CONTINUOUS
 62
    7
 10
-47.997589500000004
 20
481.29998799999998
 11
-62.997604499999966
 21
481.29998799999998
  0
ARC
  8
_0-0_0
  6
CONTINUOUS
 62
    7
 10
-62.997604499999966
 20
478.29998799999998
 40
3
 50
90.000003000000007
 51
180.00000900000001
  0
ARC
  8
_0-0_0
  6
CONTINUOUS
 62
    7
 10
-116.90792450000004
 20
466.78967299999999
 40
5.089683
 50
180.00000900000003
 51
269.99999700000001
  0
LINE
  8
_0-0_0
  6
CONTINUOUS
 62
    7
 10
-116.90792450000004
 20
461.69998199999998
 11
-105.64059450000002
 21
461.69998199999998
  0
ARC
  8
_0-0_0
  6
CONTINUOUS
 62
    7
 10
-105.64059450000002
 20
465.34298699999999
 40
3.6429879999999999
 50
269.99999700000001
 51
0.0000099999999886
  0
LINE
  8
_0-0_0
  6
CONTINUOUS
 62
    7
 10
-104.99760449999997
 20
481.29998799999998
 11
-118.33154649999994
 21
481.29998799999998
  0
ARC
  8
_0-0_0
  6
CONTINUOUS
 62
    7
 10
-118.33154649999994
 20
480.29998799999998
 40
1
 50
90.000003000000007
 51
172.23356100000001
  0
ARC
  8
_0-0_0
  6
CONTINUOUS
 62
    7
 10
-120.99760449999997
 20
477.23767099999998
 40
1
 50
105.68034800000001
 51
180.00000900000001
  0
LINE
  8
_0-0_0
  6
CONTINUOUS
 62
    7
 10
-63.597602499999994
 20
481.29998799999998
 11
-63.597602499999994
 21
481.23937999999998
  0
LINE
  8
_0-0_0
  6
CONTINUOUS
 62
    7
 10
-104.99760449999997
 20
461.75717199999997
 11
-104.99760449999997
 21
461.704071
  0
LINE
  8
_0-0_0
  6
CONTINUOUS
 62
    7
 10
-63.597602499999994
 20
461.76058999999998
 11
-63.597602499999994
 21
461.704071
  0
LINE
  8
_0-0_0
  6
CONTINUOUS
 62
    7
 10
-6.9975895000000037
 20
463.84997599999997
 11
-7.7975924999999506
 21
463.04998799999998
  0
LINE
  8
_0-0_0
  6
CONTINUOUS
 62
    7
 10
7.0024104999999963
 20
458.79998799999998
 11
6.5025785000000269
 21
458.30014
  0
LINE
  8
_0-0_0
  6
CONTINUOUS
 62
    7
 10
7.0024104999999963
 20
475.39999399999999
 11
6.5025785000000269
 21
474.900147
  0
LINE
  8
_0-0_0
  6
CONTINUOUS
 62
    7
 10
-5.7975924999999506
 20
473.09997599999997
 11
52.202407500000049
 21
473.09997599999997
  0
LINE
  8
_0-0_0
  6
CONTINUOUS
 62
    7
 10
-5.7975924999999506
 20
465.09997599999997
 11
52.202407500000049
 21
465.09997599999997
  0
LINE
  8
_0-0_0
  6
CONTINUOUS
 62
    7
 10
7.0024104999999963
 20
479.39999399999999
 11
6.5025785000000269
 21
479.89984099999998
  0
LINE
  8
_0-0_0
  6
CONTINUOUS
 62
    7
 10
7.0024104999999963
 20
462.79998799999998
 11
6.5025785000000269
 21
463.29983499999997
  0
LINE
  8
_0-0_0
  6
CONTINUOUS
 62
    7
 10
-2.9975895000000037
 20
479.64999399999999
 11
-2.7475895000000037
 21
479.89999399999999
  0
LINE
  8
_0-0_0
  6
CONTINUOUS
 62
    7
 10
-2.9975895000000037
 20
475.14999399999999
 11
-2.7475895000000037
 21
474.89999399999999
  0
LINE
  8
_0-0_0
  6
CONTINUOUS
 62
    7
 10
-2.9975895000000037
 20
463.04998799999998
 11
-2.7475895000000037
 21
463.29998799999998
  0
LINE
  8
_0-0_0
  6
CONTINUOUS
 62
    7
 10
-2.9975895000000037
 20
458.54998799999998
 11
-2.7475895000000037
 21
458.29998799999998
  0
LINE
  8
_0-0_0
  6
CONTINUOUS
 62
    7
 10
-5.7975924999999506
 20
473.63809199999997
 11
-6.5975955000000113
 21
474.09997599999997
  0
LINE
  8
_0-0_0
  6
CONTINUOUS
 62
    7
 10
-5.7975924999999506
 20
464.56185899999997
 11
-6.5975955000000113
 21
464.09997599999997
  0
LINE
  8
_0-0_0
  6
CONTINUOUS
 62
    7
 10
-23.247634500000004
 20
479.64999399999999
 11
-2.9975895000000037
 21
479.64999399999999
  0
LINE
  8
_0-0_0
  6
CONTINUOUS
 62
    7
 10
-7.7975924999999506
 20
475.14999399999999
 11
-2.9975895000000037
 21
475.14999399999999
  0
LINE
  8
_0-0_0
  6
CONTINUOUS
 62
    7
 10
-28.997589500000004
 20
463.04998799999998
 11
-2.9975895000000037
 21
463.04998799999998
  0
LINE
  8
_0-0_0
  6
CONTINUOUS
 62
    7
 10
-28.997589500000004
 20
458.54998799999998
 11
-2.9975895000000037
 21
458.54998799999998
  0
LINE
  8
_0-0_0
  6
CONTINUOUS
 62
    7
 10
-6.9975895000000037
 20
474.09997599999997
 11
-6.5975955000000113
 21
474.09997599999997
  0
LINE
  8
_0-0_0
  6
CONTINUOUS
 62
    7
 10
-6.9975895000000037
 20
464.09997599999997
 11
-6.5975955000000113
 21
464.09997599999997
  0
LINE
  8
_0-0_0
  6
CONTINUOUS
 62
    7
 10
-6.9975895000000037
 20
474.34997599999997
 11
-8.2475895000000037
 21
475.59997599999997
  0
ARC
  8
_0-0_0
  6
CONTINUOUS
 62
    7
 10
-128.99760449999997
 20
502.59997599999997
 40
8
 50
215.099627
 51
324.90037799999999
  0
LINE
  8
_0-0_0
  6
CONTINUOUS
 62
    7
 10
-137.99760449999997
 20
497.99997000000002
 11
-135.54283150000003
 21
497.99997000000002
  0
LINE
  8
_0-0_0
  6
CONTINUOUS
 62
    7
 10
-137.99760449999997
 20
484.79998799999998
 11
-137.99760449999997
 21
497.99997000000002
  0
LINE
  8
_0-0_0
  6
CONTINUOUS
 62
    7
 10
1015.0025025
 20
484.79998799999998
 11
1015.0025025
 21
497.99997000000002
  0
LINE
  8
_0-0_0
  6
CONTINUOUS
 62
    7
 10
1012.5477905
 20
497.99997000000002
 11
1015.0025025
 21
497.99997000000002
  0
ARC
  8
_0-0_0
  6
CONTINUOUS
 62
    7
 10
1006.0025025
 20
502.59997599999997
 40
8
 50
215.099627
 51
324.90037799999999
  0
LINE
  8
_0-0_0
  6
CONTINUOUS
 62
    7
 10
-122.45237750000001
 20
497.99997000000002
 11
999.45721449999996
 21
497.99997000000002
  0
LINE
  8
_0-0_0
  6
CONTINUOUS
 62
    7
 10
-122.45237750000001
 20
497.99997000000002
 11
-122.36339150000003
 21
498.12927300000001
  0
LINE
  8
_0-0_0
  6
CONTINUOUS
 62
    7
 10
999.45721449999996
 20
497.99997000000002
 11
999.36834750000003
 21
498.12927300000001
  0
LINE
  8
_0-0_0
  6
CONTINUOUS
 62
    7
 10
1012.7297974999999
 20
498.270691
 11
1012.8113404999999
 21
498.39999399999999
  0
ARC
  8
_0-0_0
  6
CONTINUOUS
 62
    7
 10
1006.0025025
 20
502.59997599999997
 40
8
 50
328.33175599999993
 51
334.05550899999992
  0
LINE
  8
_0-0_0
  6
CONTINUOUS
 62
    7
 10
1013.1962275000001
 20
499.09997599999997
 11
1013.2902225
 21
499.29998799999998
  0
LINE
  8
_0-0_0
  6
CONTINUOUS
 62
    7
 10
1013.2902225
 20
499.29998799999998
 11
1013.3775025
 21
499.49997000000002
  0
ARC
  8
_0-0_0
  6
CONTINUOUS
 62
    7
 10
1006.0025025
 20
502.59997599999997
 40
8
 50
337.20097500000003
 51
342.54240199999998
  0
LINE
  8
_0-0_0
  6
CONTINUOUS
 62
    7
 10
1013.6339725
 20
500.19998199999998
 11
1013.6940305000001
 21
500.39999399999999
  0
LINE
  8
_0-0_0
  6
CONTINUOUS
 62
    7
 10
1013.6940305000001
 20
500.39999399999999
 11
1013.7484744999999
 21
500.59997599999997
  0
ARC
  8
_0-0_0
  6
CONTINUOUS
 62
    7
 10
1006.0025025
 20
502.59997599999997
 40
8
 50
345.52249499999999
 51
350.64797900000002
  0
LINE
  8
_0-0_0
  6
CONTINUOUS
 62
    7
 10
1013.8961795
 20
501.29998799999998
 11
1013.9265745
 21
501.49997000000002
  0
LINE
  8
_0-0_0
  6
CONTINUOUS
 62
    7
 10
1013.9265745
 20
501.49997000000002
 11
1013.9517215000001
 21
501.69998199999998
  0
ARC
  8
_0-0_0
  6
CONTINUOUS
 62
    7
 10
1006.0025025
 20
502.59997599999997
 40
8
 50
353.54056400000002
 51
358.56744600000002
  0
LINE
  8
_0-0_0
  6
CONTINUOUS
 62
    7
 10
1014.0000605
 20
502.39999399999999
 11
1014.0025025
 21
502.59997599999997
  0
LINE
  8
_0-0_0
  6
CONTINUOUS
 62
    7
 10
998.00494350000008
 20
502.39999399999999
 11
998.00250249999999
 21
502.59997599999997
  0
ARC
  8
_0-0_0
  6
CONTINUOUS
 62
    7
 10
1006.0025025
 20
502.59997599999997
 40
8
 50
181.432545
 51
186.45945499999999
  0
LINE
  8
_0-0_0
  6
CONTINUOUS
 62
    7
 10
998.07843049999997
 20
501.49997000000002
 11
998.05328349999991
 21
501.69998199999998
  0
LINE
  8
_0-0_0
  6
CONTINUOUS
 62
    7
 10
998.10882549999997
 20
501.29998799999998
 11
998.07843049999997
 21
501.49997000000002
  0
ARC
  8
_0-0_0
  6
CONTINUOUS
 62
    7
 10
1006.0025025
 20
502.59997599999997
 40
8
 50
189.35203999999999
 51
194.47751
  0
LINE
  8
_0-0_0
  6
CONTINUOUS
 62
    7
 10
998.31097449999993
 20
500.39999399999999
 11
998.25653050000005
 21
500.59997599999997
  0
LINE
  8
_0-0_0
  6
CONTINUOUS
 62
    7
 10
998.37103249999996
 20
500.19998199999998
 11
998.31097449999993
 21
500.39999399999999
  0
ARC
  8
_0-0_0
  6
CONTINUOUS
 62
    7
 10
1006.0025025
 20
502.59997599999997
 40
8
 50
197.45760300000001
 51
202.79902999999999
  0
LINE
  8
_0-0_0
  6
CONTINUOUS
 62
    7
 10
998.71478249999996
 20
499.29998799999998
 11
998.62750249999999
 21
499.49997000000002
  0
LINE
  8
_0-0_0
  6
CONTINUOUS
 62
    7
 10
998.80877650000002
 20
499.09997599999997
 11
998.71478249999996
 21
499.29998799999998
  0
ARC
  8
_0-0_0
  6
CONTINUOUS
 62
    7
 10
1006.0025025
 20
502.59997599999997
 40
8
 50
205.94448199999999
 51
211.66823500000001
  0
LINE
  8
_0-0_0
  6
CONTINUOUS
 62
    7
 10
999.27520750000008
 20
498.270691
 11
999.19366450000007
 21
498.39999399999999
  0
LINE
  8
_0-0_0
  6
CONTINUOUS
 62
    7
 10
999.27520750000008
 20
498.270691
 11
999.36834750000003
 21
498.12927300000001
  0
LINE
  8
_0-0_0
  6
CONTINUOUS
 62
    7
 10
1012.5477905
 20
497.99997000000002
 11
1012.6366575
 21
498.12927300000001
  0
LINE
  8
_0-0_0
  6
CONTINUOUS
 62
    7
 10
1012.7297974999999
 20
498.270691
 11
1012.6366575
 21
498.12927300000001
  0
LINE
  8
_0-0_0
  6
CONTINUOUS
 62
    7
 10
1015.0025025
 20
498.12927300000001
 11
1015.0025025
 21
497.99997000000002
  0
LINE
  8
_0-0_0
  6
CONTINUOUS
 62
    7
 10
1015.0025025
 20
506.92929099999998
 11
1015.0025025
 21
507.07070899999997
  0
LINE
  8
_0-0_0
  6
CONTINUOUS
 62
    7
 10
1015.0025025
 20
506.92929099999998
 11
1015.0025025
 21
506.79998799999998
  0
LINE
  8
_0-0_0
  6
CONTINUOUS
 62
    7
 10
1015.0025025
 20
506.09997599999997
 11
1015.0025025
 21
506.79998799999998
  0
LINE
  8
_0-0_0
  6
CONTINUOUS
 62
    7
 10
1015.0025025
 20
505.89999399999999
 11
1015.0025025
 21
506.09997599999997
  0
LINE
  8
_0-0_0
  6
CONTINUOUS
 62
    7
 10
1015.0025025
 20
505.89999399999999
 11
1015.0025025
 21
505.69998199999998
  0
LINE
  8
_0-0_0
  6
CONTINUOUS
 62
    7
 10
1015.0025025
 20
504.99997000000002
 11
1015.0025025
 21
505.69998199999998
  0
LINE
  8
_0-0_0
  6
CONTINUOUS
 62
    7
 10
1015.0025025
 20
504.79998799999998
 11
1015.0025025
 21
504.99997000000002
  0
LINE
  8
_0-0_0
  6
CONTINUOUS
 62
    7
 10
1015.0025025
 20
504.79998799999998
 11
1015.0025025
 21
504.59997599999997
  0
LINE
  8
_0-0_0
  6
CONTINUOUS
 62
    7
 10
1015.0025025
 20
503.89999399999999
 11
1015.0025025
 21
504.59997599999997
  0
LINE
  8
_0-0_0
  6
CONTINUOUS
 62
    7
 10
1015.0025025
 20
503.69998199999998
 11
1015.0025025
 21
503.89999399999999
  0
LINE
  8
_0-0_0
  6
CONTINUOUS
 62
    7
 10
1015.0025025
 20
503.69998199999998
 11
1015.0025025
 21
503.49997000000002
  0
LINE
  8
_0-0_0
  6
CONTINUOUS
 62
    7
 10
1015.0025025
 20
502.79998799999998
 11
1015.0025025
 21
503.49997000000002
  0
LINE
  8
_0-0_0
  6
CONTINUOUS
 62
    7
 10
1015.0025025
 20
502.59997599999997
 11
1015.0025025
 21
502.79998799999998
  0
LINE
  8
_0-0_0
  6
CONTINUOUS
 62
    7
 10
1015.0025025
 20
502.59997599999997
 11
1015.0025025
 21
502.39999399999999
  0
LINE
  8
_0-0_0
  6
CONTINUOUS
 62
    7
 10
1015.0025025
 20
501.69998199999998
 11
1015.0025025
 21
502.39999399999999
  0
LINE
  8
_0-0_0
  6
CONTINUOUS
 62
    7
 10
1015.0025025
 20
501.49997000000002
 11
1015.0025025
 21
501.69998199999998
  0
LINE
  8
_0-0_0
  6
CONTINUOUS
 62
    7
 10
1015.0025025
 20
501.49997000000002
 11
1015.0025025
 21
501.29998799999998
  0
LINE
  8
_0-0_0
  6
CONTINUOUS
 62
    7
 10
1015.0025025
 20
500.59997599999997
 11
1015.0025025
 21
501.29998799999998
  0
LINE
  8
_0-0_0
  6
CONTINUOUS
 62
    7
 10
1015.0025025
 20
500.39999399999999
 11
1015.0025025
 21
500.59997599999997
  0
LINE
  8
_0-0_0
  6
CONTINUOUS
 62
    7
 10
1015.0025025
 20
500.39999399999999
 11
1015.0025025
 21
500.19998199999998
  0
LINE
  8
_0-0_0
  6
CONTINUOUS
 62
    7
 10
1015.0025025
 20
499.49997000000002
 11
1015.0025025
 21
500.19998199999998
  0
LINE
  8
_0-0_0
  6
CONTINUOUS
 62
    7
 10
1015.0025025
 20
499.29998799999998
 11
1015.0025025
 21
499.49997000000002
  0
LINE
  8
_0-0_0
  6
CONTINUOUS
 62
    7
 10
1015.0025025
 20
499.29998799999998
 11
1015.0025025
 21
499.09997599999997
  0
LINE
  8
_0-0_0
  6
CONTINUOUS
 62
    7
 10
1015.0025025
 20
498.39999399999999
 11
1015.0025025
 21
499.09997599999997
  0
LINE
  8
_0-0_0
  6
CONTINUOUS
 62
    7
 10
1015.0025025
 20
498.270691
 11
1015.0025025
 21
498.39999399999999
  0
LINE
  8
_0-0_0
  6
CONTINUOUS
 62
    7
 10
1015.0025025
 20
498.12927300000001
 11
1015.0025025
 21
498.270691
  0
LINE
  8
_0-0_0
  6
CONTINUOUS
 62
    7
 10
1015.0025025
 20
484.29998799999998
 11
1015.0025025
 21
484.79998799999998
  0
LINE
  8
_0-0_0
  6
CONTINUOUS
 62
    7
 10
1015.0025025
 20
512.79998799999998
 11
1015.0025025
 21
512.20602400000007
  0
LINE
  8
_0-0_0
  6
CONTINUOUS
 62
    7
 10
1015.0025025
 20
507.19998199999998
 11
1015.0025025
 21
512.20602400000007
  0
LINE
  8
_0-0_0
  6
CONTINUOUS
 62
    7
 10
1015.0025025
 20
507.07070899999997
 11
1015.0025025
 21
507.19998199999998
  0
LINE
  8
_0-0_0
  6
CONTINUOUS
 62
    7
 10
-137.99760449999997
 20
484.29998799999998
 11
-137.99760449999997
 21
484.79998799999998
  0
LINE
  8
_0-0_0
  6
CONTINUOUS
 62
    7
 10
-137.99760449999997
 20
484.29998799999998
 11
1015.0025025
 21
484.29998799999998
  0
LINE
  8
_0-0_0
  6
CONTINUOUS
 62
    7
 10
-137.99760449999997
 20
498.12927300000001
 11
-137.99760449999997
 21
498.270691
  0
LINE
  8
_0-0_0
  6
CONTINUOUS
 62
    7
 10
-137.99760449999997
 20
498.12927300000001
 11
-137.99760449999997
 21
497.99997000000002
  0
LINE
  8
_0-0_0
  6
CONTINUOUS
 62
    7
 10
-137.99760449999997
 20
512.79998799999998
 11
-137.99760449999997
 21
512.20602400000007
  0
LINE
  8
_0-0_0
  6
CONTINUOUS
 62
    7
 10
-137.99760449999997
 20
507.19998199999998
 11
-137.99760449999997
 21
512.20602400000007
  0
LINE
  8
_0-0_0
  6
CONTINUOUS
 62
    7
 10
-137.99760449999997
 20
507.07070899999997
 11
-137.99760449999997
 21
507.19998199999998
  0
LINE
  8
_0-0_0
  6
CONTINUOUS
 62
    7
 10
-137.99760449999997
 20
506.92929099999998
 11
-137.99760449999997
 21
507.07070899999997
  0
LINE
  8
_0-0_0
  6
CONTINUOUS
 62
    7
 10
-137.99760449999997
 20
506.92929099999998
 11
-137.99760449999997
 21
506.79998799999998
  0
LINE
  8
_0-0_0
  6
CONTINUOUS
 62
    7
 10
-137.99760449999997
 20
506.09997599999997
 11
-137.99760449999997
 21
506.79998799999998
  0
LINE
  8
_0-0_0
  6
CONTINUOUS
 62
    7
 10
-137.99760449999997
 20
505.97070300000001
 11
-137.99760449999997
 21
506.09997599999997
  0
LINE
  8
_0-0_0
  6
CONTINUOUS
 62
    7
 10
-137.99760449999997
 20
505.82928499999997
 11
-137.99760449999997
 21
505.97070300000001
  0
LINE
  8
_0-0_0
  6
CONTINUOUS
 62
    7
 10
-137.99760449999997
 20
505.82928499999997
 11
-137.99760449999997
 21
505.69998199999998
  0
LINE
  8
_0-0_0
  6
CONTINUOUS
 62
    7
 10
-137.99760449999997
 20
504.99997000000002
 11
-137.99760449999997
 21
505.69998199999998
  0
LINE
  8
_0-0_0
  6
CONTINUOUS
 62
    7
 10
-137.99760449999997
 20
504.87069700000001
 11
-137.99760449999997
 21
504.99997000000002
  0
LINE
  8
_0-0_0
  6
CONTINUOUS
 62
    7
 10
-137.99760449999997
 20
504.72927900000002
 11
-137.99760449999997
 21
504.87069700000001
  0
LINE
  8
_0-0_0
  6
CONTINUOUS
 62
    7
 10
-137.99760449999997
 20
504.72927900000002
 11
-137.99760449999997
 21
504.59997599999997
  0
LINE
  8
_0-0_0
  6
CONTINUOUS
 62
    7
 10
-137.99760449999997
 20
503.89999399999999
 11
-137.99760449999997
 21
504.59997599999997
  0
LINE
  8
_0-0_0
  6
CONTINUOUS
 62
    7
 10
-137.99760449999997
 20
503.770691
 11
-137.99760449999997
 21
503.89999399999999
  0
LINE
  8
_0-0_0
  6
CONTINUOUS
 62
    7
 10
-137.99760449999997
 20
503.62927300000001
 11
-137.99760449999997
 21
503.770691
  0
LINE
  8
_0-0_0
  6
CONTINUOUS
 62
    7
 10
-137.99760449999997
 20
503.62927300000001
 11
-137.99760449999997
 21
503.49997000000002
  0
LINE
  8
_0-0_0
  6
CONTINUOUS
 62
    7
 10
-137.99760449999997
 20
502.79998799999998
 11
-137.99760449999997
 21
503.49997000000002
  0
LINE
  8
_0-0_0
  6
CONTINUOUS
 62
    7
 10
-137.99760449999997
 20
502.67068499999999
 11
-137.99760449999997
 21
502.79998799999998
  0
LINE
  8
_0-0_0
  6
CONTINUOUS
 62
    7
 10
-137.99760449999997
 20
502.52926600000001
 11
-137.99760449999997
 21
502.67068499999999
  0
LINE
  8
_0-0_0
  6
CONTINUOUS
 62
    7
 10
-137.99760449999997
 20
502.52926600000001
 11
-137.99760449999997
 21
502.39999399999999
  0
LINE
  8
_0-0_0
  6
CONTINUOUS
 62
    7
 10
-137.99760449999997
 20
501.69998199999998
 11
-137.99760449999997
 21
502.39999399999999
  0
LINE
  8
_0-0_0
  6
CONTINUOUS
 62
    7
 10
-137.99760449999997
 20
501.57070899999997
 11
-137.99760449999997
 21
501.69998199999998
  0
LINE
  8
_0-0_0
  6
CONTINUOUS
 62
    7
 10
-137.99760449999997
 20
501.42929099999998
 11
-137.99760449999997
 21
501.57070899999997
  0
LINE
  8
_0-0_0
  6
CONTINUOUS
 62
    7
 10
-137.99760449999997
 20
501.42929099999998
 11
-137.99760449999997
 21
501.29998799999998
  0
LINE
  8
_0-0_0
  6
CONTINUOUS
 62
    7
 10
-137.99760449999997
 20
500.59997599999997
 11
-137.99760449999997
 21
501.29998799999998
  0
LINE
  8
_0-0_0
  6
CONTINUOUS
 62
    7
 10
-137.99760449999997
 20
500.47070300000001
 11
-137.99760449999997
 21
500.59997599999997
  0
LINE
  8
_0-0_0
  6
CONTINUOUS
 62
    7
 10
-137.99760449999997
 20
500.32928499999997
 11
-137.99760449999997
 21
500.47070300000001
  0
LINE
  8
_0-0_0
  6
CONTINUOUS
 62
    7
 10
-137.99760449999997
 20
500.32928499999997
 11
-137.99760449999997
 21
500.19998199999998
  0
LINE
  8
_0-0_0
  6
CONTINUOUS
 62
    7
 10
-137.99760449999997
 20
499.49997000000002
 11
-137.99760449999997
 21
500.19998199999998
  0
LINE
  8
_0-0_0
  6
CONTINUOUS
 62
    7
 10
-137.99760449999997
 20
499.37069700000001
 11
-137.99760449999997
 21
499.49997000000002
  0
LINE
  8
_0-0_0
  6
CONTINUOUS
 62
    7
 10
-137.99760449999997
 20
499.22927900000002
 11
-137.99760449999997
 21
499.37069700000001
  0
LINE
  8
_0-0_0
  6
CONTINUOUS
 62
    7
 10
-137.99760449999997
 20
499.22927900000002
 11
-137.99760449999997
 21
499.09997599999997
  0
LINE
  8
_0-0_0
  6
CONTINUOUS
 62
    7
 10
-137.99760449999997
 20
498.39999399999999
 11
-137.99760449999997
 21
499.09997599999997
  0
LINE
  8
_0-0_0
  6
CONTINUOUS
 62
    7
 10
-137.99760449999997
 20
498.270691
 11
-137.99760449999997
 21
498.39999399999999
  0
LINE
  8
_0-0_0
  6
CONTINUOUS
 62
    7
 10
-135.54283150000003
 20
497.99997000000002
 11
-135.63181350000002
 21
498.12927300000001
  0
LINE
  8
_0-0_0
  6
CONTINUOUS
 62
    7
 10
-122.27025249999997
 20
498.270691
 11
-122.36339150000003
 21
498.12927300000001
  0
LINE
  8
_0-0_0
  6
CONTINUOUS
 62
    7
 10
-122.27025249999997
 20
498.270691
 11
-122.18878549999999
 21
498.39999399999999
  0
ARC
  8
_0-0_0
  6
CONTINUOUS
 62
    7
 10
-128.99760449999997
 20
502.59997599999997
 40
8
 50
328.33175599999993
 51
334.05550899999992
  0
LINE
  8
_0-0_0
  6
CONTINUOUS
 62
    7
 10
-121.80385549999994
 20
499.09997599999997
 11
-121.70994150000001
 21
499.29998799999998
  0
LINE
  8
_0-0_0
  6
CONTINUOUS
 62
    7
 10
-121.70994150000001
 20
499.29998799999998
 11
-121.62264649999997
 21
499.49997000000002
  0
ARC
  8
_0-0_0
  6
CONTINUOUS
 62
    7
 10
-128.99760449999997
 20
502.59997599999997
 40
8
 50
337.20097500000003
 51
342.54240199999998
  0
LINE
  8
_0-0_0
  6
CONTINUOUS
 62
    7
 10
-121.36608849999993
 20
500.19998199999998
 11
-121.30604949999997
 21
500.39999399999999
  0
LINE
  8
_0-0_0
  6
CONTINUOUS
 62
    7
 10
-121.30604949999997
 20
500.39999399999999
 11
-121.25163650000002
 21
500.59997599999997
  0
ARC
  8
_0-0_0
  6
CONTINUOUS
 62
    7
 10
-128.99760449999997
 20
502.59997599999997
 40
8
 50
345.52249499999999
 51
350.64797900000002
  0
LINE
  8
_0-0_0
  6
CONTINUOUS
 62
    7
 10
-121.10393550000003
 20
501.29998799999998
 11
-121.07358950000003
 21
501.49997000000002
  0
LINE
  8
_0-0_0
  6
CONTINUOUS
 62
    7
 10
-121.07358950000003
 20
501.49997000000002
 11
-121.04838949999998
 21
501.69998199999998
  0
ARC
  8
_0-0_0
  6
CONTINUOUS
 62
    7
 10
-128.99760449999997
 20
502.59997599999997
 40
8
 50
353.54056400000002
 51
358.56744600000002
  0
LINE
  8
_0-0_0
  6
CONTINUOUS
 62
    7
 10
-121.00010350000002
 20
502.39999399999999
 11
-120.99760449999997
 21
502.59997599999997
  0
LINE
  8
_0-0_0
  6
CONTINUOUS
 62
    7
 10
-136.99729149999996
 20
502.52926600000001
 11
-136.99760449999997
 21
502.59997599999997
  0
LINE
  8
_0-0_0
  6
CONTINUOUS
 62
    7
 10
-136.99510550000002
 20
502.39999399999999
 11
-136.99729149999996
 21
502.52926600000001
  0
ARC
  8
_0-0_0
  6
CONTINUOUS
 62
    7
 10
-128.99760449999997
 20
502.59997599999997
 40
8
 50
181.432545
 51
186.45945499999999
  0
LINE
  8
_0-0_0
  6
CONTINUOUS
 62
    7
 10
-136.93111450000004
 20
501.57070899999997
 11
-136.94681949999995
 21
501.69998199999998
  0
LINE
  8
_0-0_0
  6
CONTINUOUS
 62
    7
 10
-136.93111450000004
 20
501.57070899999997
 11
-136.91148050000004
 21
501.42929099999998
  0
LINE
  8
_0-0_0
  6
CONTINUOUS
 62
    7
 10
-136.89127350000001
 20
501.29998799999998
 11
-136.91148050000004
 21
501.42929099999998
  0
ARC
  8
_0-0_0
  6
CONTINUOUS
 62
    7
 10
-128.99760449999997
 20
502.59997599999997
 40
8
 50
189.35203999999999
 51
194.47751
  0
LINE
  8
_0-0_0
  6
CONTINUOUS
 62
    7
 10
-136.70903450000003
 20
500.47070300000001
 11
-136.74357250000003
 21
500.59997599999997
  0
LINE
  8
_0-0_0
  6
CONTINUOUS
 62
    7
 10
-136.70903450000003
 20
500.47070300000001
 11
-136.66857949999996
 21
500.32928499999997
  0
LINE
  8
_0-0_0
  6
CONTINUOUS
 62
    7
 10
-136.62911650000001
 20
500.19998199999998
 11
-136.66857949999996
 21
500.32928499999997
  0
ARC
  8
_0-0_0
  6
CONTINUOUS
 62
    7
 10
-128.99760449999997
 20
502.59997599999997
 40
8
 50
197.45760300000001
 51
202.79902999999999
  0
LINE
  8
_0-0_0
  6
CONTINUOUS
 62
    7
 10
-136.31687149999993
 20
499.37069700000001
 11
-136.37256249999996
 21
499.49997000000002
  0
LINE
  8
_0-0_0
  6
CONTINUOUS
 62
    7
 10
-136.31687149999993
 20
499.37069700000001
 11
-136.25283049999996
 21
499.22927900000002
  0
LINE
  8
_0-0_0
  6
CONTINUOUS
 62
    7
 10
-136.19135249999999
 20
499.09997599999997
 11
-136.25283049999996
 21
499.22927900000002
  0
ARC
  8
_0-0_0
  6
CONTINUOUS
 62
    7
 10
-128.99760449999997
 20
502.59997599999997
 40
8
 50
205.94448199999999
 51
211.66823500000001
  0
LINE
  8
_0-0_0
  6
CONTINUOUS
 62
    7
 10
-135.72495649999996
 20
498.270691
 11
-135.80642349999994
 21
498.39999399999999
  0
LINE
  8
_0-0_0
  6
CONTINUOUS
 62
    7
 10
-135.72495649999996
 20
498.270691
 11
-135.63181350000002
 21
498.12927300000001
  0
LINE
  8
_0-0_0
  6
CONTINUOUS
 62
    7
 10
932.50250249999999
 20
490.29998799999998
 11
939.50250249999999
 21
490.29998799999998
  0
ARC
  8
_0-0_0
  6
CONTINUOUS
 62
    7
 10
932.50250249999999
 20
489.79998799999998
 40
0.5
 50
90.000003000000007
 51
180.00000900000001
  0
LINE
  8
_0-0_0
  6
CONTINUOUS
 62
    7
 10
932.00250249999999
 20
489.79998799999998
 11
932.00250249999999
 21
485.79998799999998
  0
ARC
  8
_0-0_0
  6
CONTINUOUS
 62
    7
 10
932.50250249999999
 20
485.79998799999998
 40
0.5
 50
180.00000900000003
 51
269.99999700000001
  0
LINE
  8
_0-0_0
  6
CONTINUOUS
 62
    7
 10
939.50250249999999
 20
485.29998799999998
 11
932.50250249999999
 21
485.29998799999998
  0
ARC
  8
_0-0_0
  6
CONTINUOUS
 62
    7
 10
939.50250249999999
 20
485.79998799999998
 40
0.5
 50
269.99999700000001
 51
0
  0
LINE
  8
_0-0_0
  6
CONTINUOUS
 62
    7
 10
940.00250249999999
 20
485.79998799999998
 11
940.00250249999999
 21
489.79998799999998
  0
ARC
  8
_0-0_0
  6
CONTINUOUS
 62
    7
 10
939.50250249999999
 20
489.79998799999998
 40
0.5
 50
0
 51
90.000003000000007
  0
ARC
  8
_0-0_0
  6
CONTINUOUS
 62
    7
 10
-87.497604499999966
 20
489.79998799999998
 40
0.5
 50
90.000003000000007
 51
180.00000900000001
  0
LINE
  8
_0-0_0
  6
CONTINUOUS
 62
    7
 10
-87.997604499999966
 20
489.79998799999998
 11
-87.997604499999966
 21
485.79998799999998
  0
ARC
  8
_0-0_0
  6
CONTINUOUS
 62
    7
 10
-87.497604499999966
 20
485.79998799999998
 40
0.5
 50
180.00000900000003
 51
269.99999700000001
  0
LINE
  8
_0-0_0
  6
CONTINUOUS
 62
    7
 10
-80.497604499999966
 20
485.29998799999998
 11
-87.497604499999966
 21
485.29998799999998
  0
ARC
  8
_0-0_0
  6
CONTINUOUS
 62
    7
 10
-80.497604499999966
 20
485.79998799999998
 40
0.5
 50
269.99999700000001
 51
0
  0
LINE
  8
_0-0_0
  6
CONTINUOUS
 62
    7
 10
-79.997604499999966
 20
485.79998799999998
 11
-79.997604499999966
 21
489.79998799999998
  0
ARC
  8
_0-0_0
  6
CONTINUOUS
 62
    7
 10
-80.497604499999966
 20
489.79998799999998
 40
0.5
 50
0
 51
90.000003000000007
  0
LINE
  8
_0-0_0
  6
CONTINUOUS
 62
    7
 10
-87.497604499999966
 20
490.29998799999998
 11
-80.497604499999966
 21
490.29998799999998
  0
LINE
  8
_0-0_0
  6
CONTINUOUS
 62
    7
 10
-122.18878549999999
 20
498.39999399999999
 11
999.19366450000007
 21
498.39999399999999
  0
LINE
  8
_0-0_0
  6
CONTINUOUS
 62
    7
 10
-121.80385549999994
 20
499.09997599999997
 11
998.80877650000002
 21
499.09997599999997
  0
LINE
  8
_0-0_0
  6
CONTINUOUS
 62
    7
 10
-121.70994150000001
 20
499.29998799999998
 11
998.71478249999996
 21
499.29998799999998
  0
LINE
  8
_0-0_0
  6
CONTINUOUS
 62
    7
 10
-121.62264649999997
 20
499.49997000000002
 11
998.62750249999999
 21
499.49997000000002
  0
LINE
  8
_0-0_0
  6
CONTINUOUS
 62
    7
 10
-121.36608849999993
 20
500.19998199999998
 11
998.37103249999996
 21
500.19998199999998
  0
LINE
  8
_0-0_0
  6
CONTINUOUS
 62
    7
 10
-121.30604949999997
 20
500.39999399999999
 11
998.31097449999993
 21
500.39999399999999
  0
LINE
  8
_0-0_0
  6
CONTINUOUS
 62
    7
 10
-121.25163650000002
 20
500.59997599999997
 11
998.25653050000005
 21
500.59997599999997
  0
LINE
  8
_0-0_0
  6
CONTINUOUS
 62
    7
 10
-121.10393550000003
 20
501.29998799999998
 11
998.10882549999997
 21
501.29998799999998
  0
LINE
  8
_0-0_0
  6
CONTINUOUS
 62
    7
 10
-121.07358950000003
 20
501.49997000000002
 11
998.07843049999997
 21
501.49997000000002
  0
LINE
  8
_0-0_0
  6
CONTINUOUS
 62
    7
 10
-121.04838949999998
 20
501.69998199999998
 11
998.05328349999991
 21
501.69998199999998
  0
LINE
  8
_0-0_0
  6
CONTINUOUS
 62
    7
 10
-121.00010350000002
 20
502.39999399999999
 11
998.00494350000008
 21
502.39999399999999
  0
LINE
  8
_0-0_0
  6
CONTINUOUS
 62
    7
 10
-120.99760449999997
 20
502.59997599999997
 11
998.00250249999999
 21
502.59997599999997
  0
LINE
  8
_0-0_0
  6
CONTINUOUS
 62
    7
 10
1012.5477905
 20
507.19998199999998
 11
1012.6366575
 21
507.07070899999997
  0
ARC
  8
_0-0_0
  6
CONTINUOUS
 62
    7
 10
1006.0025025
 20
502.59997599999997
 40
8
 50
35.099632
 51
144.900373
  0
LINE
  8
_0-0_0
  6
CONTINUOUS
 62
    7
 10
999.45721449999996
 20
507.19998199999998
 11
999.36834750000003
 21
507.07070899999997
  0
LINE
  8
_0-0_0
  6
CONTINUOUS
 62
    7
 10
999.27520750000008
 20
506.92929099999998
 11
999.36834750000003
 21
507.07070899999997
  0
LINE
  8
_0-0_0
  6
CONTINUOUS
 62
    7
 10
999.27520750000008
 20
506.92929099999998
 11
999.19366450000007
 21
506.79998799999998
  0
ARC
  8
_0-0_0
  6
CONTINUOUS
 62
    7
 10
1006.0025025
 20
502.59997599999997
 40
8
 50
148.33176499999999
 51
154.05551800000001
  0
LINE
  8
_0-0_0
  6
CONTINUOUS
 62
    7
 10
998.80877650000002
 20
506.09997599999997
 11
998.71478249999996
 21
505.89999399999999
  0
LINE
  8
_0-0_0
  6
CONTINUOUS
 62
    7
 10
998.71478249999996
 20
505.89999399999999
 11
998.62750249999999
 21
505.69998199999998
  0
ARC
  8
_0-0_0
  6
CONTINUOUS
 62
    7
 10
1006.0025025
 20
502.59997599999997
 40
8
 50
157.20097000000001
 51
162.54239699999999
  0
LINE
  8
_0-0_0
  6
CONTINUOUS
 62
    7
 10
998.37103249999996
 20
504.99997000000002
 11
998.31097449999993
 21
504.79998799999998
  0
LINE
  8
_0-0_0
  6
CONTINUOUS
 62
    7
 10
998.31097449999993
 20
504.79998799999998
 11
998.25653050000005
 21
504.59997599999997
  0
ARC
  8
_0-0_0
  6
CONTINUOUS
 62
    7
 10
1006.0025025
 20
502.59997599999997
 40
8
 50
165.52249
 51
170.64796000000001
  0
LINE
  8
_0-0_0
  6
CONTINUOUS
 62
    7
 10
998.10882549999997
 20
503.89999399999999
 11
998.07843049999997
 21
503.69998199999998
  0
LINE
  8
_0-0_0
  6
CONTINUOUS
 62
    7
 10
998.07843049999997
 20
503.69998199999998
 11
998.05328349999991
 21
503.49997000000002
  0
ARC
  8
_0-0_0
  6
CONTINUOUS
 62
    7
 10
1006.0025025
 20
502.59997599999997
 40
8
 50
173.54054500000001
 51
178.567455
  0
LINE
  8
_0-0_0
  6
CONTINUOUS
 62
    7
 10
998.00494350000008
 20
502.79998799999998
 11
998.00250249999999
 21
502.59997599999997
  0
LINE
  8
_0-0_0
  6
CONTINUOUS
 62
    7
 10
1014.0000605
 20
502.79998799999998
 11
1014.0025025
 21
502.59997599999997
  0
ARC
  8
_0-0_0
  6
CONTINUOUS
 62
    7
 10
1006.0025025
 20
502.59997599999997
 40
8
 50
1.432544
 51
6.4594489999999993
  0
LINE
  8
_0-0_0
  6
CONTINUOUS
 62
    7
 10
1013.9265745
 20
503.69998199999998
 11
1013.9517215000001
 21
503.49997000000002
  0
LINE
  8
_0-0_0
  6
CONTINUOUS
 62
    7
 10
1013.8961795
 20
503.89999399999999
 11
1013.9265745
 21
503.69998199999998
  0
ARC
  8
_0-0_0
  6
CONTINUOUS
 62
    7
 10
1006.0025025
 20
502.59997599999997
 40
8
 50
9.3520350000000008
 51
14.477510999999998
  0
LINE
  8
_0-0_0
  6
CONTINUOUS
 62
    7
 10
1013.6940305000001
 20
504.79998799999998
 11
1013.7484744999999
 21
504.59997599999997
  0
LINE
  8
_0-0_0
  6
CONTINUOUS
 62
    7
 10
1013.6339725
 20
504.99997000000002
 11
1013.6940305000001
 21
504.79998799999998
  0
ARC
  8
_0-0_0
  6
CONTINUOUS
 62
    7
 10
1006.0025025
 20
502.59997599999997
 40
8
 50
17.457602999999999
 51
22.799030999999999
  0
LINE
  8
_0-0_0
  6
CONTINUOUS
 62
    7
 10
1013.2902225
 20
505.89999399999999
 11
1013.3775025
 21
505.69998199999998
  0
LINE
  8
_0-0_0
  6
CONTINUOUS
 62
    7
 10
1013.1962275000001
 20
506.09997599999997
 11
1013.2902225
 21
505.89999399999999
  0
ARC
  8
_0-0_0
  6
CONTINUOUS
 62
    7
 10
1006.0025025
 20
502.59997599999997
 40
8
 50
25.944476999999999
 51
31.668240000000001
  0
LINE
  8
_0-0_0
  6
CONTINUOUS
 62
    7
 10
1012.7297974999999
 20
506.92929099999998
 11
1012.8113404999999
 21
506.79998799999998
  0
LINE
  8
_0-0_0
  6
CONTINUOUS
 62
    7
 10
1012.7297974999999
 20
506.92929099999998
 11
1012.6366575
 21
507.07070899999997
  0
CIRCLE
  8
_0-0_0
  6
CONTINUOUS
 62
    7
 10
1006.0025025
 20
502.59997599999997
 40
7.5
  0
LINE
  8
_0-0_0
  6
CONTINUOUS
 62
    7
 10
1014.0000605
 20
502.39999399999999
 11
1015.0025025
 21
502.39999399999999
  0
LINE
  8
_0-0_0
  6
CONTINUOUS
 62
    7
 10
1014.0025025
 20
502.59997599999997
 11
1015.0025025
 21
502.59997599999997
  0
LINE
  8
_0-0_0
  6
CONTINUOUS
 62
    7
 10
1013.9517215000001
 20
501.69998199999998
 11
1015.0025025
 21
501.69998199999998
  0
LINE
  8
_0-0_0
  6
CONTINUOUS
 62
    7
 10
1013.9265745
 20
501.49997000000002
 11
1015.0025025
 21
501.49997000000002
  0
LINE
  8
_0-0_0
  6
CONTINUOUS
 62
    7
 10
1013.8961795
 20
501.29998799999998
 11
1015.0025025
 21
501.29998799999998
  0
LINE
  8
_0-0_0
  6
CONTINUOUS
 62
    7
 10
1013.7484744999999
 20
500.59997599999997
 11
1015.0025025
 21
500.59997599999997
  0
LINE
  8
_0-0_0
  6
CONTINUOUS
 62
    7
 10
1013.6940305000001
 20
500.39999399999999
 11
1015.0025025
 21
500.39999399999999
  0
LINE
  8
_0-0_0
  6
CONTINUOUS
 62
    7
 10
1013.6339725
 20
500.19998199999998
 11
1015.0025025
 21
500.19998199999998
  0
LINE
  8
_0-0_0
  6
CONTINUOUS
 62
    7
 10
1013.3775025
 20
499.49997000000002
 11
1015.0025025
 21
499.49997000000002
  0
LINE
  8
_0-0_0
  6
CONTINUOUS
 62
    7
 10
1013.2902225
 20
499.29998799999998
 11
1015.0025025
 21
499.29998799999998
  0
LINE
  8
_0-0_0
  6
CONTINUOUS
 62
    7
 10
1013.1962275000001
 20
499.09997599999997
 11
1015.0025025
 21
499.09997599999997
  0
LINE
  8
_0-0_0
  6
CONTINUOUS
 62
    7
 10
1012.8113404999999
 20
498.39999399999999
 11
1015.0025025
 21
498.39999399999999
  0
LINE
  8
_0-0_0
  6
CONTINUOUS
 62
    7
 10
1012.8113404999999
 20
506.79998799999998
 11
1015.0025025
 21
506.79998799999998
  0
LINE
  8
_0-0_0
  6
CONTINUOUS
 62
    7
 10
1013.1962275000001
 20
506.09997599999997
 11
1015.0025025
 21
506.09997599999997
  0
LINE
  8
_0-0_0
  6
CONTINUOUS
 62
    7
 10
1013.2902225
 20
505.89999399999999
 11
1015.0025025
 21
505.89999399999999
  0
LINE
  8
_0-0_0
  6
CONTINUOUS
 62
    7
 10
1013.3775025
 20
505.69998199999998
 11
1015.0025025
 21
505.69998199999998
  0
LINE
  8
_0-0_0
  6
CONTINUOUS
 62
    7
 10
1013.6339725
 20
504.99997000000002
 11
1015.0025025
 21
504.99997000000002
  0
LINE
  8
_0-0_0
  6
CONTINUOUS
 62
    7
 10
1013.6940305000001
 20
504.79998799999998
 11
1015.0025025
 21
504.79998799999998
  0
LINE
  8
_0-0_0
  6
CONTINUOUS
 62
    7
 10
1013.7484744999999
 20
504.59997599999997
 11
1015.0025025
 21
504.59997599999997
  0
LINE
  8
_0-0_0
  6
CONTINUOUS
 62
    7
 10
1013.8961795
 20
503.89999399999999
 11
1015.0025025
 21
503.89999399999999
  0
LINE
  8
_0-0_0
  6
CONTINUOUS
 62
    7
 10
1013.9265745
 20
503.69998199999998
 11
1015.0025025
 21
503.69998199999998
  0
LINE
  8
_0-0_0
  6
CONTINUOUS
 62
    7
 10
1013.9517215000001
 20
503.49997000000002
 11
1015.0025025
 21
503.49997000000002
  0
LINE
  8
_0-0_0
  6
CONTINUOUS
 62
    7
 10
1014.0000605
 20
502.79998799999998
 11
1015.0025025
 21
502.79998799999998
  0
LINE
  8
_0-0_0
  6
CONTINUOUS
 62
    7
 10
1015.5025025
 20
486.09997599999997
 11
1015.0025025
 21
486.09997599999997
  0
LINE
  8
_0-0_0
  6
CONTINUOUS
 62
    7
 10
1015.5025025
 20
488.29998799999998
 11
1015.0025025
 21
488.29998799999998
  0
LINE
  8
_0-0_0
  6
CONTINUOUS
 62
    7
 10
1015.5025025
 20
490.59997599999997
 11
1015.0025025
 21
490.59997599999997
  0
LINE
  8
_0-0_0
  6
CONTINUOUS
 62
    7
 10
-137.99760449999997
 20
490.59997599999997
 11
-138.49760449999997
 21
490.59997599999997
  0
LINE
  8
_0-0_0
  6
CONTINUOUS
 62
    7
 10
1015.0025025
 20
492.89999399999999
 11
1015.5025025
 21
492.89999399999999
  0
LINE
  8
_0-0_0
  6
CONTINUOUS
 62
    7
 10
1015.5025025
 20
513.09997599999997
 11
1015.5025025
 21
512.99997000000008
  0
LINE
  8
_0-0_0
  6
CONTINUOUS
 62
    7
 10
-138.49760449999997
 20
513.09997599999997
 11
-138.49760449999997
 21
512.99997000000008
  0
LINE
  8
_0-0_0
  6
CONTINUOUS
 62
    7
 10
-138.49760449999997
 20
492.89999399999999
 11
-137.99760449999997
 21
492.89999399999999
  0
LINE
  8
_0-0_0
  6
CONTINUOUS
 62
    7
 10
-137.99760449999997
 20
512.79998799999998
 11
1015.0025025
 21
512.79998799999998
  0
LINE
  8
_0-0_0
  6
CONTINUOUS
 62
    7
 10
-137.99760449999997
 20
512.20602400000007
 11
1015.0025025
 21
512.20602400000007
  0
LINE
  8
_0-0_0
  6
CONTINUOUS
 62
    7
 10
1012.5477905
 20
507.19998199999998
 11
1015.0025025
 21
507.19998199999998
  0
LINE
  8
_0-0_0
  6
CONTINUOUS
 62
    7
 10
-137.99760449999997
 20
507.19998199999998
 11
-135.54283150000003
 21
507.19998199999998
  0
ARC
  8
_0-0_0
  6
CONTINUOUS
 62
    7
 10
-128.99760449999997
 20
502.59997599999997
 40
8
 50
35.099632
 51
144.900373
  0
LINE
  8
_0-0_0
  6
CONTINUOUS
 62
    7
 10
-122.45237750000001
 20
507.19998199999998
 11
999.45721449999996
 21
507.19998199999998
  0
LINE
  8
_0-0_0
  6
CONTINUOUS
 62
    7
 10
-138.49760449999997
 20
486.09997599999997
 11
-137.99760849999996
 21
486.09997599999997
  0
LINE
  8
_0-0_0
  6
CONTINUOUS
 62
    7
 10
-137.99760449999997
 20
488.29998799999998
 11
-138.49760449999997
 21
488.29998799999998
  0
LINE
  8
_0-0_0
  6
CONTINUOUS
 62
    7
 10
-135.54283150000003
 20
507.19998199999998
 11
-135.63181350000002
 21
507.07070899999997
  0
LINE
  8
_0-0_0
  6
CONTINUOUS
 62
    7
 10
-135.72495649999996
 20
506.92929099999998
 11
-135.63181350000002
 21
507.07070899999997
  0
LINE
  8
_0-0_0
  6
CONTINUOUS
 62
    7
 10
-137.99760449999997
 20
506.79998799999998
 11
-135.80642349999994
 21
506.79998799999998
  0
LINE
  8
_0-0_0
  6
CONTINUOUS
 62
    7
 10
-135.72495649999996
 20
506.92929099999998
 11
-135.80642349999994
 21
506.79998799999998
  0
ARC
  8
_0-0_0
  6
CONTINUOUS
 62
    7
 10
-128.99760449999997
 20
502.59997599999997
 40
8
 50
148.33176499999999
 51
154.05551800000001
  0
LINE
  8
_0-0_0
  6
CONTINUOUS
 62
    7
 10
-137.99760449999997
 20
506.09997599999997
 11
-136.19135249999999
 21
506.09997599999997
  0
LINE
  8
_0-0_0
  6
CONTINUOUS
 62
    7
 10
-136.19135249999999
 20
506.09997599999997
 11
-136.25283049999996
 21
505.97070300000001
  0
LINE
  8
_0-0_0
  6
CONTINUOUS
 62
    7
 10
-136.31687149999993
 20
505.82928499999997
 11
-136.25283049999996
 21
505.97070300000001
  0
LINE
  8
_0-0_0
  6
CONTINUOUS
 62
    7
 10
-137.99760449999997
 20
505.69998199999998
 11
-136.37256249999996
 21
505.69998199999998
  0
LINE
  8
_0-0_0
  6
CONTINUOUS
 62
    7
 10
-136.31687149999993
 20
505.82928499999997
 11
-136.37256249999996
 21
505.69998199999998
  0
ARC
  8
_0-0_0
  6
CONTINUOUS
 62
    7
 10
-128.99760449999997
 20
502.59997599999997
 40
8
 50
157.20097000000001
 51
162.54239699999999
  0
LINE
  8
_0-0_0
  6
CONTINUOUS
 62
    7
 10
-137.99760449999997
 20
504.99997000000002
 11
-136.62911650000001
 21
504.99997000000002
  0
LINE
  8
_0-0_0
  6
CONTINUOUS
 62
    7
 10
-136.62911650000001
 20
504.99997000000002
 11
-136.66857949999996
 21
504.87069700000001
  0
LINE
  8
_0-0_0
  6
CONTINUOUS
 62
    7
 10
-136.70903450000003
 20
504.72927900000002
 11
-136.66857949999996
 21
504.87069700000001
  0
LINE
  8
_0-0_0
  6
CONTINUOUS
 62
    7
 10
-137.99760449999997
 20
504.59997599999997
 11
-136.74357250000003
 21
504.59997599999997
  0
LINE
  8
_0-0_0
  6
CONTINUOUS
 62
    7
 10
-136.70903450000003
 20
504.72927900000002
 11
-136.74357250000003
 21
504.59997599999997
  0
ARC
  8
_0-0_0
  6
CONTINUOUS
 62
    7
 10
-128.99760449999997
 20
502.59997599999997
 40
8
 50
165.52249
 51
170.64796000000001
  0
LINE
  8
_0-0_0
  6
CONTINUOUS
 62
    7
 10
-137.99760449999997
 20
503.89999399999999
 11
-136.89127350000001
 21
503.89999399999999
  0
LINE
  8
_0-0_0
  6
CONTINUOUS
 62
    7
 10
-136.89127350000001
 20
503.89999399999999
 11
-136.91148050000004
 21
503.770691
  0
LINE
  8
_0-0_0
  6
CONTINUOUS
 62
    7
 10
-136.93111450000004
 20
503.62927300000001
 11
-136.91148050000004
 21
503.770691
  0
LINE
  8
_0-0_0
  6
CONTINUOUS
 62
    7
 10
-137.99760449999997
 20
503.49997000000002
 11
-136.94681949999995
 21
503.49997000000002
  0
LINE
  8
_0-0_0
  6
CONTINUOUS
 62
    7
 10
-136.93111450000004
 20
503.62927300000001
 11
-136.94681949999995
 21
503.49997000000002
  0
ARC
  8
_0-0_0
  6
CONTINUOUS
 62
    7
 10
-128.99760449999997
 20
502.59997599999997
 40
8
 50
173.54054500000001
 51
178.567455
  0
LINE
  8
_0-0_0
  6
CONTINUOUS
 62
    7
 10
-137.99760449999997
 20
502.79998799999998
 11
-136.99510550000002
 21
502.79998799999998
  0
LINE
  8
_0-0_0
  6
CONTINUOUS
 62
    7
 10
-136.99510550000002
 20
502.79998799999998
 11
-136.99729149999996
 21
502.67068499999999
  0
LINE
  8
_0-0_0
  6
CONTINUOUS
 62
    7
 10
-136.99760449999997
 20
502.59997599999997
 11
-136.99729149999996
 21
502.67068499999999
  0
LINE
  8
_0-0_0
  6
CONTINUOUS
 62
    7
 10
-137.99760449999997
 20
502.39999399999999
 11
-136.99510550000002
 21
502.39999399999999
  0
LINE
  8
_0-0_0
  6
CONTINUOUS
 62
    7
 10
-137.99760449999997
 20
501.69998199999998
 11
-136.94681949999995
 21
501.69998199999998
  0
LINE
  8
_0-0_0
  6
CONTINUOUS
 62
    7
 10
-137.99760449999997
 20
501.29998799999998
 11
-136.89127350000001
 21
501.29998799999998
  0
LINE
  8
_0-0_0
  6
CONTINUOUS
 62
    7
 10
-137.99760449999997
 20
500.59997599999997
 11
-136.74357250000003
 21
500.59997599999997
  0
LINE
  8
_0-0_0
  6
CONTINUOUS
 62
    7
 10
-137.99760449999997
 20
500.19998199999998
 11
-136.62911650000001
 21
500.19998199999998
  0
LINE
  8
_0-0_0
  6
CONTINUOUS
 62
    7
 10
-137.99760449999997
 20
499.49997000000002
 11
-136.37256249999996
 21
499.49997000000002
  0
LINE
  8
_0-0_0
  6
CONTINUOUS
 62
    7
 10
-137.99760449999997
 20
499.09997599999997
 11
-136.19135249999999
 21
499.09997599999997
  0
LINE
  8
_0-0_0
  6
CONTINUOUS
 62
    7
 10
-137.99760449999997
 20
498.39999399999999
 11
-135.80642349999994
 21
498.39999399999999
  0
LINE
  8
_0-0_0
  6
CONTINUOUS
 62
    7
 10
-121.00010350000002
 20
502.79998799999998
 11
-120.99760449999997
 21
502.59997599999997
  0
ARC
  8
_0-0_0
  6
CONTINUOUS
 62
    7
 10
-128.99760449999997
 20
502.59997599999997
 40
8
 50
1.432544
 51
6.4594489999999993
  0
LINE
  8
_0-0_0
  6
CONTINUOUS
 62
    7
 10
-121.07358950000003
 20
503.69998199999998
 11
-121.04838949999998
 21
503.49997000000002
  0
LINE
  8
_0-0_0
  6
CONTINUOUS
 62
    7
 10
-121.10393550000003
 20
503.89999399999999
 11
-121.07358950000003
 21
503.69998199999998
  0
ARC
  8
_0-0_0
  6
CONTINUOUS
 62
    7
 10
-128.99760449999997
 20
502.59997599999997
 40
8
 50
9.3520350000000008
 51
14.477510999999998
  0
LINE
  8
_0-0_0
  6
CONTINUOUS
 62
    7
 10
-121.30604949999997
 20
504.79998799999998
 11
-121.25163650000002
 21
504.59997599999997
  0
LINE
  8
_0-0_0
  6
CONTINUOUS
 62
    7
 10
-121.36608849999993
 20
504.99997000000002
 11
-121.30604949999997
 21
504.79998799999998
  0
ARC
  8
_0-0_0
  6
CONTINUOUS
 62
    7
 10
-128.99760449999997
 20
502.59997599999997
 40
8
 50
17.457602999999999
 51
22.799030999999999
  0
LINE
  8
_0-0_0
  6
CONTINUOUS
 62
    7
 10
-121.70994150000001
 20
505.89999399999999
 11
-121.62264649999997
 21
505.69998199999998
  0
LINE
  8
_0-0_0
  6
CONTINUOUS
 62
    7
 10
-121.80385549999994
 20
506.09997599999997
 11
-121.70994150000001
 21
505.89999399999999
  0
ARC
  8
_0-0_0
  6
CONTINUOUS
 62
    7
 10
-128.99760449999997
 20
502.59997599999997
 40
8
 50
25.944476999999999
 51
31.668240000000001
  0
LINE
  8
_0-0_0
  6
CONTINUOUS
 62
    7
 10
-122.27025249999997
 20
506.92929099999998
 11
-122.18878549999999
 21
506.79998799999998
  0
LINE
  8
_0-0_0
  6
CONTINUOUS
 62
    7
 10
-122.27025249999997
 20
506.92929099999998
 11
-122.36339150000003
 21
507.07070899999997
  0
LINE
  8
_0-0_0
  6
CONTINUOUS
 62
    7
 10
-122.45237750000001
 20
507.19998199999998
 11
-122.36339150000003
 21
507.07070899999997
  0
CIRCLE
  8
_0-0_0
  6
CONTINUOUS
 62
    7
 10
-128.99760449999997
 20
502.59997599999997
 40
7.5
  0
LINE
  8
_0-0_0
  6
CONTINUOUS
 62
    7
 10
-121.00010350000002
 20
502.79998799999998
 11
998.00494350000008
 21
502.79998799999998
  0
LINE
  8
_0-0_0
  6
CONTINUOUS
 62
    7
 10
-121.04838949999998
 20
503.49997000000002
 11
998.05328349999991
 21
503.49997000000002
  0
LINE
  8
_0-0_0
  6
CONTINUOUS
 62
    7
 10
-121.07358950000003
 20
503.69998199999998
 11
998.07843049999997
 21
503.69998199999998
  0
LINE
  8
_0-0_0
  6
CONTINUOUS
 62
    7
 10
-121.10393550000003
 20
503.89999399999999
 11
998.10882549999997
 21
503.89999399999999
  0
LINE
  8
_0-0_0
  6
CONTINUOUS
 62
    7
 10
-121.25163650000002
 20
504.59997599999997
 11
998.25653050000005
 21
504.59997599999997
  0
LINE
  8
_0-0_0
  6
CONTINUOUS
 62
    7
 10
-121.30604949999997
 20
504.79998799999998
 11
998.31097449999993
 21
504.79998799999998
  0
LINE
  8
_0-0_0
  6
CONTINUOUS
 62
    7
 10
-121.36608849999993
 20
504.99997000000002
 11
998.37103249999996
 21
504.99997000000002
  0
LINE
  8
_0-0_0
  6
CONTINUOUS
 62
    7
 10
-121.62264649999997
 20
505.69998199999998
 11
998.62750249999999
 21
505.69998199999998
  0
LINE
  8
_0-0_0
  6
CONTINUOUS
 62
    7
 10
-121.70994150000001
 20
505.89999399999999
 11
998.71478249999996
 21
505.89999399999999
  0
LINE
  8
_0-0_0
  6
CONTINUOUS
 62
    7
 10
-121.80385549999994
 20
506.09997599999997
 11
998.80877650000002
 21
506.09997599999997
  0
LINE
  8
_0-0_0
  6
CONTINUOUS
 62
    7
 10
-122.18878549999999
 20
506.79998799999998
 11
999.19366450000007
 21
506.79998799999998
  0
LINE
  8
_0-0_0
  6
CONTINUOUS
 62
    7
 10
1015.5025025
 20
484.59997599999997
 11
1015.0025025
 21
484.59997599999997
  0
LINE
  8
_0-0_0
  6
CONTINUOUS
 62
    7
 10
1015.5025025
 20
512.19998199999998
 11
1015.5025025
 21
512.99997000000008
  0
LINE
  8
_0-0_0
  6
CONTINUOUS
 62
    7
 10
1015.5025025
 20
484.39999399999999
 11
1015.5025025
 21
512.19998199999998
  0
ARC
  8
_0-0_0
  6
CONTINUOUS
 62
    7
 10
1006.0025025
 20
503.29998799999998
 40
12.800000000000001
 50
73.932597000000001
 51
106.06740099999999
  0
LINE
  8
_0-0_0
  6
CONTINUOUS
 62
    7
 10
-138.49760449999997
 20
512.19998199999998
 11
-138.49760449999997
 21
512.99997000000008
  0
LINE
  8
_0-0_0
  6
CONTINUOUS
 62
    7
 10
-138.49760449999997
 20
484.39999399999999
 11
-138.49760449999997
 21
512.19998199999998
  0
ARC
  8
_0-0_0
  6
CONTINUOUS
 62
    7
 10
-128.99760449999997
 20
503.29998799999998
 40
12.800000000000001
 50
73.932597000000001
 51
106.06740099999999
  0
LINE
  8
_0-0_0
  6
CONTINUOUS
 62
    7
 10
429.00238049999996
 20
515.59997599999997
 11
429.00238049999996
 21
521.23989899999992
  0
LINE
  8
_0-0_0
  6
CONTINUOUS
 62
    7
 10
448.00238049999996
 20
521.23989899999992
 11
448.00238049999996
 21
515.59997599999997
  0
LINE
  8
_0-0_0
  6
CONTINUOUS
 62
    7
 10
1015.5025025
 20
513.09997599999997
 11
1015.5025025
 21
515.59997599999997
  0
LINE
  8
_0-0_0
  6
CONTINUOUS
 62
    7
 10
-138.49760449999997
 20
515.59997599999997
 11
1015.5025025
 21
515.59997599999997
  0
LINE
  8
_0-0_0
  6
CONTINUOUS
 62
    7
 10
-138.49760449999997
 20
513.09997599999997
 11
-138.49760449999997
 21
515.59997599999997
  0
LINE
  8
_0-0_0
  6
CONTINUOUS
 62
    7
 10
-138.49760449999997
 20
484.59997599999997
 11
-137.99760849999996
 21
484.59997599999997
  0
ARC
  8
_0-0_0
  6
CONTINUOUS
 62
    7
 10
937.30255149999994
 20
489.49997000000002
 40
0.2
 50
339.62356199999999
 51
90.000002999999978
  0
LINE
  8
_0-0_0
  6
CONTINUOUS
 62
    7
 10
937.48992950000002
 20
489.43035900000001
 11
936.19000249999999
 21
485.93035900000001
  0
ARC
  8
_0-0_0
  6
CONTINUOUS
 62
    7
 10
936.00250249999999
 20
485.99997000000002
 40
0.2
 50
200.37643
 51
339.62356199999999
  0
LINE
  8
_0-0_0
  6
CONTINUOUS
 62
    7
 10
934.51507549999997
 20
489.43035900000001
 11
935.81500249999999
 21
485.93035900000001
  0
ARC
  8
_0-0_0
  6
CONTINUOUS
 62
    7
 10
934.70245350000005
 20
489.49997000000002
 40
0.2
 50
90.000003000000007
 51
200.37643
  0
LINE
  8
_0-0_0
  6
CONTINUOUS
 62
    7
 10
934.70245350000005
 20
489.69998199999998
 11
937.30255149999994
 21
489.69998199999998
  0
ARC
  8
_0-0_0
  6
CONTINUOUS
 62
    7
 10
-82.697601500000019
 20
489.49997000000002
 40
0.2
 50
339.62356199999999
 51
90.000002999999978
  0
LINE
  8
_0-0_0
  6
CONTINUOUS
 62
    7
 10
-82.510116499999981
 20
489.43035900000001
 11
-83.810119499999985
 21
485.93035900000001
  0
ARC
  8
_0-0_0
  6
CONTINUOUS
 62
    7
 10
-83.997604499999966
 20
485.99997000000002
 40
0.2
 50
200.37643
 51
339.62356199999999
  0
LINE
  8
_0-0_0
  6
CONTINUOUS
 62
    7
 10
-85.485084499999971
 20
489.43035900000001
 11
-84.185089500000004
 21
485.93035900000001
  0
ARC
  8
_0-0_0
  6
CONTINUOUS
 62
    7
 10
-85.29759949999999
 20
489.49997000000002
 40
0.2
 50
90.000003000000007
 51
200.37643
  0
LINE
  8
_0-0_0
  6
CONTINUOUS
 62
    7
 10
-85.29759949999999
 20
489.69998199999998
 11
-82.697601500000019
 21
489.69998199999998
  0
LINE
  8
_0-0_0
  6
CONTINUOUS
 62
    7
 10
1016.5025025
 20
512.19998199999998
 11
1015.5025025
 21
512.19998199999998
  0
LINE
  8
_0-0_0
  6
CONTINUOUS
 62
    7
 10
1016.5025025
 20
513.23696900000004
 11
1015.5025025
 21
513.23696900000004
  0
LINE
  8
_0-0_0
  6
CONTINUOUS
 62
    7
 10
1016.5025025
 20
484.39999399999999
 11
1015.5025025
 21
484.39999399999999
  0
ARC
  8
_0-0_0
  6
CONTINUOUS
 62
    7
 10
438.50238049999996
 20
503.29998799999998
 40
20.299999
 50
62.096725999999997
 51
117.903272
  0
CIRCLE
  8
_0-0_0
  6
CONTINUOUS
 62
    7
 10
438.50238049999996
 20
519.59997599999997
 40
2.5
  0
LINE
  8
_0-0_0
  6
CONTINUOUS
 62
    7
 10
-139.49760449999997
 20
512.19998199999998
 11
-138.49760449999997
 21
512.19998199999998
  0
LINE
  8
_0-0_0
  6
CONTINUOUS
 62
    7
 10
-139.49760449999997
 20
513.19998199999998
 11
-138.49760449999997
 21
513.19998199999998
  0
LINE
  8
_0-0_0
  6
CONTINUOUS
 62
    7
 10
-139.49760449999997
 20
484.39999399999999
 11
-138.49760449999997
 21
484.39999399999999
  0
LINE
  8
_0-0_0
  6
CONTINUOUS
 62
    7
 10
1016.5025025
 20
515.39999399999999
 11
1015.5025025
 21
515.39999399999999
  0
LINE
  8
_0-0_0
  6
CONTINUOUS
 62
    7
 10
-139.49760449999997
 20
515.39999399999999
 11
-138.49760449999997
 21
515.39999399999999
  0
LINE
  8
_0-0_0
  6
CONTINUOUS
 62
    7
 10
1017.5025025
 20
511.78576699999996
 11
1017.5015255000001
 21
511.80429099999998
  0
LINE
  8
_0-0_0
  6
CONTINUOUS
 62
    7
 10
1017.5015255000001
 20
511.80429099999998
 11
1017.4984744999999
 21
511.822723
  0
LINE
  8
_0-0_0
  6
CONTINUOUS
 62
    7
 10
1017.4984744999999
 20
511.822723
 11
1017.4932255000001
 21
511.841858
  0
LINE
  8
_0-0_0
  6
CONTINUOUS
 62
    7
 10
1017.4932255000001
 20
511.841858
 11
1017.4859005000001
 21
511.86086999999998
  0
LINE
  8
_0-0_0
  6
CONTINUOUS
 62
    7
 10
1017.4859005000001
 20
511.86086999999998
 11
1017.4653935000001
 21
511.897583
  0
LINE
  8
_0-0_0
  6
CONTINUOUS
 62
    7
 10
1017.4653935000001
 20
511.897583
 11
1017.4369505
 21
511.93325799999997
  0
LINE
  8
_0-0_0
  6
CONTINUOUS
 62
    7
 10
1017.4369505
 20
511.93325799999997
 11
1017.4010615
 21
511.96755999999999
  0
LINE
  8
_0-0_0
  6
CONTINUOUS
 62
    7
 10
1017.4010615
 20
511.96755999999999
 11
1017.3524775000001
 21
512.00402800000006
  0
LINE
  8
_0-0_0
  6
CONTINUOUS
 62
    7
 10
1017.3524775000001
 20
512.00402800000006
 11
1017.2957154999999
 21
512.03802500000006
  0
LINE
  8
_0-0_0
  6
CONTINUOUS
 62
    7
 10
1017.2957154999999
 20
512.03802500000006
 11
1017.2315065
 21
512.06927500000006
  0
LINE
  8
_0-0_0
  6
CONTINUOUS
 62
    7
 10
1017.2315065
 20
512.06927500000006
 11
1017.1608275000001
 21
512.097534
  0
LINE
  8
_0-0_0
  6
CONTINUOUS
 62
    7
 10
1017.1608275000001
 20
512.097534
 11
1017.1127315000001
 21
512.11389199999996
  0
LINE
  8
_0-0_0
  6
CONTINUOUS
 62
    7
 10
1017.1127315000001
 20
512.11389199999996
 11
1017.0626835
 21
512.12887599999999
  0
LINE
  8
_0-0_0
  6
CONTINUOUS
 62
    7
 10
1017.0626835
 20
512.12887599999999
 11
1017.0059205
 21
512.14364599999999
  0
LINE
  8
_0-0_0
  6
CONTINUOUS
 62
    7
 10
1017.0059205
 20
512.14364599999999
 11
1016.9473264999999
 21
512.15673800000002
  0
LINE
  8
_0-0_0
  6
CONTINUOUS
 62
    7
 10
1016.9473264999999
 20
512.15673800000002
 11
1016.8305055000001
 21
512.17706299999998
  0
LINE
  8
_0-0_0
  6
CONTINUOUS
 62
    7
 10
1016.8305055000001
 20
512.17706299999998
 11
1016.7232054999999
 21
512.18978900000002
  0
LINE
  8
_0-0_0
  6
CONTINUOUS
 62
    7
 10
1016.7232054999999
 20
512.18978900000002
 11
1016.6133425
 21
512.19741799999997
  0
LINE
  8
_0-0_0
  6
CONTINUOUS
 62
    7
 10
1016.6133425
 20
512.19741799999997
 11
1016.5025025
 21
512.19998199999998
  0
LINE
  8
_0-0_0
  6
CONTINUOUS
 62
    7
 10
1017.5025025
 20
511.78576699999996
 11
1017.5025025
 21
512.78582800000004
  0
LINE
  8
_0-0_0
  6
CONTINUOUS
 62
    7
 10
1017.5025025
 20
512.78582800000004
 11
1017.4995725000001
 21
512.81741299999999
  0
LINE
  8
_0-0_0
  6
CONTINUOUS
 62
    7
 10
1017.4995725000001
 20
512.81741299999999
 11
1017.4909055000001
 21
512.84948699999995
  0
LINE
  8
_0-0_0
  6
CONTINUOUS
 62
    7
 10
1017.4909055000001
 20
512.84948699999995
 11
1017.4763795000001
 21
512.88174400000003
  0
LINE
  8
_0-0_0
  6
CONTINUOUS
 62
    7
 10
1017.4763795000001
 20
512.88174400000003
 11
1017.4561154999999
 21
512.91390999999999
  0
LINE
  8
_0-0_0
  6
CONTINUOUS
 62
    7
 10
1017.4561154999999
 20
512.91390999999999
 11
1017.4395145000001
 21
512.93515000000002
  0
LINE
  8
_0-0_0
  6
CONTINUOUS
 62
    7
 10
1017.4395145000001
 20
512.93515000000002
 11
1017.4205935
 21
512.95608500000003
  0
LINE
  8
_0-0_0
  6
CONTINUOUS
 62
    7
 10
1017.4205935
 20
512.95608500000003
 11
1017.3757935000001
 21
512.99688700000002
  0
LINE
  8
_0-0_0
  6
CONTINUOUS
 62
    7
 10
1017.3757935000001
 20
512.99688700000002
 11
1017.3225705
 21
513.03561400000001
  0
LINE
  8
_0-0_0
  6
CONTINUOUS
 62
    7
 10
1017.3225705
 20
513.03561400000001
 11
1017.2726435
 21
513.06582700000001
  0
LINE
  8
_0-0_0
  6
CONTINUOUS
 62
    7
 10
1017.2726435
 20
513.06582700000001
 11
1017.2179564999999
 21
513.09405500000003
  0
LINE
  8
_0-0_0
  6
CONTINUOUS
 62
    7
 10
1017.2179564999999
 20
513.09405500000003
 11
1017.1589965000001
 21
513.12008700000001
  0
LINE
  8
_0-0_0
  6
CONTINUOUS
 62
    7
 10
1017.1589965000001
 20
513.12008700000001
 11
1017.1122435
 21
513.13809199999992
  0
LINE
  8
_0-0_0
  6
CONTINUOUS
 62
    7
 10
1017.1122435
 20
513.13809199999992
 11
1017.0635374999999
 21
513.15469400000006
  0
LINE
  8
_0-0_0
  6
CONTINUOUS
 62
    7
 10
1017.0635374999999
 20
513.15469400000006
 11
1016.9611205000001
 21
513.18356300000005
  0
LINE
  8
_0-0_0
  6
CONTINUOUS
 62
    7
 10
1016.9611205000001
 20
513.18356300000005
 11
1016.8534545
 21
513.20639000000006
  0
LINE
  8
_0-0_0
  6
CONTINUOUS
 62
    7
 10
1016.8534545
 20
513.20639000000006
 11
1016.7417605000001
 21
513.22299199999998
  0
LINE
  8
_0-0_0
  6
CONTINUOUS
 62
    7
 10
1016.7417605000001
 20
513.22299199999998
 11
1016.6277465000001
 21
513.23318500000005
  0
LINE
  8
_0-0_0
  6
CONTINUOUS
 62
    7
 10
1016.6277465000001
 20
513.23318500000005
 11
1016.5025025
 21
513.23696900000004
  0
ARC
  8
_0-0_0
  6
CONTINUOUS
 62
    7
 10
1016.5025025
 20
485.39999399999999
 40
1
 50
269.99999700000001
 51
0
  0
LINE
  8
_0-0_0
  6
CONTINUOUS
 62
    7
 10
1017.5025025
 20
485.39999399999999
 11
1017.5025025
 21
511.78576699999996
  0
LINE
  8
_0-0_0
  6
CONTINUOUS
 62
    7
 10
-140.49760449999997
 20
511.78576699999996
 11
-140.49660449999999
 21
511.80429099999998
  0
LINE
  8
_0-0_0
  6
CONTINUOUS
 62
    7
 10
-140.49660449999999
 20
511.80429099999998
 11
-140.49360649999994
 21
511.822723
  0
LINE
  8
_0-0_0
  6
CONTINUOUS
 62
    7
 10
-140.49360649999994
 20
511.822723
 11
-140.48836949999998
 21
511.841858
  0
LINE
  8
_0-0_0
  6
CONTINUOUS
 62
    7
 10
-140.48836949999998
 20
511.841858
 11
-140.48099149999996
 21
511.86086999999998
  0
LINE
  8
_0-0_0
  6
CONTINUOUS
 62
    7
 10
-140.48099149999996
 20
511.86086999999998
 11
-140.4604415
 21
511.897583
  0
LINE
  8
_0-0_0
  6
CONTINUOUS
 62
    7
 10
-140.4604415
 20
511.897583
 11
-140.43204549999996
 21
511.93325799999997
  0
LINE
  8
_0-0_0
  6
CONTINUOUS
 62
    7
 10
-140.43204549999996
 20
511.93325799999997
 11
-140.39616349999994
 21
511.96755999999999
  0
LINE
  8
_0-0_0
  6
CONTINUOUS
 62
    7
 10
-140.39616349999994
 20
511.96755999999999
 11
-140.34754150000003
 21
512.00402800000006
  0
LINE
  8
_0-0_0
  6
CONTINUOUS
 62
    7
 10
-140.34754150000003
 20
512.00402800000006
 11
-140.29076050000003
 21
512.03802500000006
  0
LINE
  8
_0-0_0
  6
CONTINUOUS
 62
    7
 10
-140.29076050000003
 20
512.03802500000006
 11
-140.22661549999998
 21
512.06927500000006
  0
LINE
  8
_0-0_0
  6
CONTINUOUS
 62
    7
 10
-140.22661549999998
 20
512.06927500000006
 11
-140.15596749999997
 21
512.097534
  0
LINE
  8
_0-0_0
  6
CONTINUOUS
 62
    7
 10
-140.15596749999997
 20
512.097534
 11
-140.10788749999995
 21
512.11389199999996
  0
LINE
  8
_0-0_0
  6
CONTINUOUS
 62
    7
 10
-140.10788749999995
 20
512.11389199999996
 11
-140.0577505
 21
512.12887599999999
  0
LINE
  8
_0-0_0
  6
CONTINUOUS
 62
    7
 10
-140.0577505
 20
512.12887599999999
 11
-140.00104950000002
 21
512.14364599999999
  0
LINE
  8
_0-0_0
  6
CONTINUOUS
 62
    7
 10
-140.00104950000002
 20
512.14364599999999
 11
-139.94244349999997
 21
512.15673800000002
  0
LINE
  8
_0-0_0
  6
CONTINUOUS
 62
    7
 10
-139.94244349999997
 20
512.15673800000002
 11
-139.82566050000003
 21
512.17706299999998
  0
LINE
  8
_0-0_0
  6
CONTINUOUS
 62
    7
 10
-139.82566050000003
 20
512.17706299999998
 11
-139.71825449999994
 21
512.18978900000002
  0
LINE
  8
_0-0_0
  6
CONTINUOUS
 62
    7
 10
-139.71825449999994
 20
512.18978900000002
 11
-139.60848650000003
 21
512.19741799999997
  0
LINE
  8
_0-0_0
  6
CONTINUOUS
 62
    7
 10
-139.60848650000003
 20
512.19741799999997
 11
-139.49760449999997
 21
512.19998199999998
  0
LINE
  8
_0-0_0
  6
CONTINUOUS
 62
    7
 10
-140.49760449999997
 20
512.75543199999993
 11
-140.49471249999999
 21
512.78634699999998
  0
LINE
  8
_0-0_0
  6
CONTINUOUS
 62
    7
 10
-140.49471249999999
 20
512.78634699999998
 11
-140.48601550000001
 21
512.81777999999997
  0
LINE
  8
_0-0_0
  6
CONTINUOUS
 62
    7
 10
-140.48601550000001
 20
512.81777999999997
 11
-140.47153049999997
 21
512.84945700000003
  0
LINE
  8
_0-0_0
  6
CONTINUOUS
 62
    7
 10
-140.47153049999997
 20
512.84945700000003
 11
-140.45136649999995
 21
512.88104299999998
  0
LINE
  8
_0-0_0
  6
CONTINUOUS
 62
    7
 10
-140.45136649999995
 20
512.88104299999998
 11
-140.43484549999994
 21
512.90191699999991
  0
LINE
  8
_0-0_0
  6
CONTINUOUS
 62
    7
 10
-140.43484549999994
 20
512.90191699999991
 11
-140.41593950000004
 21
512.92251599999997
  0
LINE
  8
_0-0_0
  6
CONTINUOUS
 62
    7
 10
-140.41593950000004
 20
512.92251599999997
 11
-140.37129949999996
 21
512.96267699999999
  0
LINE
  8
_0-0_0
  6
CONTINUOUS
 62
    7
 10
-140.37129949999996
 20
512.96267699999999
 11
-140.31817249999995
 21
513.00088499999993
  0
LINE
  8
_0-0_0
  6
CONTINUOUS
 62
    7
 10
-140.31817249999995
 20
513.00088499999993
 11
-140.26827649999996
 21
513.03070099999991
  0
LINE
  8
_0-0_0
  6
CONTINUOUS
 62
    7
 10
-140.26827649999996
 20
513.03070099999991
 11
-140.21360449999997
 21
513.05856300000005
  0
LINE
  8
_0-0_0
  6
CONTINUOUS
 62
    7
 10
-140.21360449999997
 20
513.05856300000005
 11
-140.15462849999994
 21
513.08431999999993
  0
LINE
  8
_0-0_0
  6
CONTINUOUS
 62
    7
 10
-140.15462849999994
 20
513.08431999999993
 11
-140.1078685
 21
513.102081
  0
LINE
  8
_0-0_0
  6
CONTINUOUS
 62
    7
 10
-140.1078685
 20
513.102081
 11
-140.05916649999995
 21
513.11852999999996
  0
LINE
  8
_0-0_0
  6
CONTINUOUS
 62
    7
 10
-140.05916649999995
 20
513.11852999999996
 11
-139.95673350000004
 21
513.14709500000004
  0
LINE
  8
_0-0_0
  6
CONTINUOUS
 62
    7
 10
-139.95673350000004
 20
513.14709500000004
 11
-139.84891549999998
 21
513.16970800000001
  0
LINE
  8
_0-0_0
  6
CONTINUOUS
 62
    7
 10
-139.84891549999998
 20
513.16970800000001
 11
-139.73722850000001
 21
513.18612699999994
  0
LINE
  8
_0-0_0
  6
CONTINUOUS
 62
    7
 10
-139.73722850000001
 20
513.18612699999994
 11
-139.62306950000004
 21
513.19622800000002
  0
LINE
  8
_0-0_0
  6
CONTINUOUS
 62
    7
 10
-139.62306950000004
 20
513.19622800000002
 11
-139.49760449999997
 21
513.19998199999998
  0
LINE
  8
_0-0_0
  6
CONTINUOUS
 62
    7
 10
-140.49760449999997
 20
511.78576699999996
 11
-140.49760449999997
 21
512.75543199999993
  0
ARC
  8
_0-0_0
  6
CONTINUOUS
 62
    7
 10
-139.49760449999997
 20
485.39999399999999
 40
1
 50
180.00000900000003
 51
269.99999700000001
  0
LINE
  8
_0-0_0
  6
CONTINUOUS
 62
    7
 10
-140.49760449999997
 20
485.39999399999999
 11
-140.49760449999997
 21
511.78576699999996
  0
CIRCLE
  8
_0-0_0
  6
CONTINUOUS
 62
    7
 10
-128.99760449999997
 20
502.59997599999997
 40
5
  0
CIRCLE
  8
_0-0_0
  6
CONTINUOUS
 62
    7
 10
1006.0025025
 20
502.59997599999997
 40
5
  0
LINE
  8
_0-0_0
  6
CONTINUOUS
 62
    7
 10
1017.5025025
 20
512.78582800000004
 11
1017.5025025
 21
514.39999399999999
  0
ARC
  8
_0-0_0
  6
CONTINUOUS
 62
    7
 10
1016.5025025
 20
514.39999399999999
 40
1
 50
0
 51
90.000003000000007
  0
ARC
  8
_0-0_0
  6
CONTINUOUS
 62
    7
 10
-139.49760449999997
 20
514.39999399999999
 40
1
 50
90.000003000000007
 51
180.00000900000001
  0
LINE
  8
_0-0_0
  6
CONTINUOUS
 62
    7
 10
-140.49760449999997
 20
512.75543199999993
 11
-140.49760449999997
 21
514.39999399999999
  0
LINE
  8
_0-0_0
  6
CONTINUOUS
 62
    7
 10
-168.40747150000004
 20
484.39999399999999
 11
-168.40747150000004
 21
483.79998799999998
  0
LINE
  8
_0-0_0
  6
CONTINUOUS
 62
    7
 10
-165.90747150000004
 20
478.55499299999997
 11
-165.90747150000004
 21
480.79998799999998
  0
LINE
  8
_0-0_0
  6
CONTINUOUS
 62
    7
 10
-164.90747150000004
 20
480.79998799999998
 11
-164.90747150000004
 21
482.79998799999998
  0
ARC
  8
_0-0_0
  6
CONTINUOUS
 62
    7
 10
-165.40747150000004
 20
482.79998799999998
 40
0.5
 50
0
 51
90.000003000000007
  0
LINE
  8
_0-0_0
  6
CONTINUOUS
 62
    7
 10
-165.40747150000004
 20
483.29998799999998
 11
-166.90747150000004
 21
483.29998799999998
  0
ARC
  8
_0-0_0
  6
CONTINUOUS
 62
    7
 10
-166.90747150000004
 20
484.29998799999998
 40
1
 50
180.00000900000003
 51
269.99999700000001
  0
LINE
  8
_0-0_0
  6
CONTINUOUS
 62
    7
 10
-167.90747150000004
 20
484.39999399999999
 11
-167.90747150000004
 21
484.29998799999998
  0
ARC
  8
_0-0_0
  6
CONTINUOUS
 62
    7
 10
-166.90747150000004
 20
483.79998799999998
 40
1.5
 50
180.00000900000003
 51
269.99999700000001
  0
LINE
  8
_0-0_0
  6
CONTINUOUS
 62
    7
 10
-166.90747150000004
 20
482.29998799999998
 11
-167.60747249999997
 21
482.29998799999998
  0
ARC
  8
_0-0_0
  6
CONTINUOUS
 62
    7
 10
-167.60747249999997
 20
483.29998799999998
 40
1
 50
180.00000900000003
 51
269.99999700000001
  0
LINE
  8
_0-0_0
  6
CONTINUOUS
 62
    7
 10
-168.60747149999997
 20
484.29998799999998
 11
-168.60747149999997
 21
483.29998799999998
  0
LINE
  8
_0-0_0
  6
CONTINUOUS
 62
    7
 10
-176.80747250000002
 20
483.29998799999998
 11
-176.80747250000002
 21
484.29998799999998
  0
ARC
  8
_0-0_0
  6
CONTINUOUS
 62
    7
 10
-177.80747250000002
 20
483.29998799999998
 40
1
 50
269.99999700000001
 51
0
  0
LINE
  8
_0-0_0
  6
CONTINUOUS
 62
    7
 10
-177.80747250000002
 20
482.29998799999998
 11
-178.00747149999995
 21
482.29998799999998
  0
ARC
  8
_0-0_0
  6
CONTINUOUS
 62
    7
 10
-178.00747149999995
 20
483.29998799999998
 40
1
 50
269.99999700000001
 51
0
  0
LINE
  8
_0-0_0
  6
CONTINUOUS
 62
    7
 10
-177.00747149999995
 20
483.29998799999998
 11
-177.00747149999995
 21
484.39999399999999
  0
LINE
  8
_0-0_0
  6
CONTINUOUS
 62
    7
 10
-177.50747149999995
 20
484.29998799999998
 11
-177.50747149999995
 21
484.39999399999999
  0
ARC
  8
_0-0_0
  6
CONTINUOUS
 62
    7
 10
-178.50747149999995
 20
484.29998799999998
 40
1
 50
269.99999700000001
 51
0
  0
LINE
  8
_0-0_0
  6
CONTINUOUS
 62
    7
 10
-178.50747149999995
 20
483.29998799999998
 11
-180.00747149999995
 21
483.29998799999998
  0
ARC
  8
_0-0_0
  6
CONTINUOUS
 62
    7
 10
-180.00747149999995
 20
482.79998799999998
 40
0.5
 50
90.000003000000007
 51
180.00000900000001
  0
LINE
  8
_0-0_0
  6
CONTINUOUS
 62
    7
 10
-180.50747249999995
 20
482.79998799999998
 11
-180.50747249999995
 21
480.79998799999998
  0
LINE
  8
_0-0_0
  6
CONTINUOUS
 62
    7
 10
-179.50747149999995
 20
478.55499299999997
 11
-179.50747149999995
 21
480.79998799999998
  0
LINE
  8
_0-0_0
  6
CONTINUOUS
 62
    7
 10
-181.40747250000004
 20
460.19998199999998
 11
-181.40747250000004
 21
478.55499299999997
  0
LINE
  8
_0-0_0
  6
CONTINUOUS
 62
    7
 10
-164.60747249999997
 20
460.19998199999998
 11
-164.60747249999997
 21
478.55499299999997
  0
CIRCLE
  8
_0-0_0
  6
CONTINUOUS
 62
    7
 10
-172.70747249999999
 20
480.79998799999998
 40
2.0499999999999998
  0
LINE
  8
_0-0_0
  6
CONTINUOUS
 62
    7
 10
-164.60747249999997
 20
482.29998799999998
 11
-164.60747249999997
 21
482.27499399999999
  0
LINE
  8
_0-0_0
  6
CONTINUOUS
 62
    7
 10
-164.60747249999997
 20
479.05493200000001
 11
-164.60747249999997
 21
479.32498199999998
  0
LINE
  8
_0-0_0
  6
CONTINUOUS
 62
    7
 10
-164.60747249999997
 20
478.55499299999997
 11
-164.60747249999997
 21
479.05499299999997
  0
LINE
  8
_0-0_0
  6
CONTINUOUS
 62
    7
 10
-164.60747249999997
 20
458.19998199999998
 11
-164.60747249999997
 21
460.19998199999998
  0
LINE
  8
_0-0_0
  6
CONTINUOUS
 62
    7
 10
-181.40747250000004
 20
458.19998199999998
 11
-181.40747250000004
 21
460.19998199999998
  0
LINE
  8
_0-0_0
  6
CONTINUOUS
 62
    7
 10
-181.40747250000004
 20
458.19998199999998
 11
-164.60747249999997
 21
458.19998199999998
  0
LINE
  8
_0-0_0
  6
CONTINUOUS
 62
    7
 10
-181.40747250000004
 20
482.29998799999998
 11
-181.40747250000004
 21
480.79998799999998
  0
LINE
  8
_0-0_0
  6
CONTINUOUS
 62
    7
 10
-181.40747250000004
 20
479.05499299999997
 11
-181.40747250000004
 21
480.79998799999998
  0
LINE
  8
_0-0_0
  6
CONTINUOUS
 62
    7
 10
-181.40747250000004
 20
478.55499299999997
 11
-181.40747250000004
 21
479.05499299999997
  0
LINE
  8
_0-0_0
  6
CONTINUOUS
 62
    7
 10
-180.50747249999995
 20
479.05505399999998
 11
-180.50747249999995
 21
480.79998799999998
  0
ARC
  8
_0-0_0
  6
CONTINUOUS
 62
    7
 10
-166.20747249999999
 20
460.29998799999998
 40
2
 50
323.13010300000002
 51
0.0000000000000127
  0
LINE
  8
_0-0_0
  6
CONTINUOUS
 62
    7
 10
-164.20747249999999
 20
460.29998799999998
 11
-164.20747249999999
 21
461.70004299999999
  0
LINE
  8
_0-0_0
  6
CONTINUOUS
 62
    7
 10
-163.90747150000004
 20
466.78967299999999
 11
-163.90747150000004
 21
477.23767099999998
  0
LINE
  8
_0-0_0
  6
CONTINUOUS
 62
    7
 10
-163.90747150000004
 20
478.20047
 11
-163.90747150000004
 21
480.43511999999998
  0
LINE
  8
_0-0_0
  6
CONTINUOUS
 62
    7
 10
-181.40747250000004
 20
482.29998799999998
 11
-180.50747249999995
 21
482.29998799999998
  0
LINE
  8
_0-0_0
  6
CONTINUOUS
 62
    7
 10
-181.50747249999995
 20
461.69998199999998
 11
-181.40747250000004
 21
461.69998199999998
  0
LINE
  8
_0-0_0
  6
CONTINUOUS
 62
    7
 10
-181.50747249999995
 20
461.69998199999998
 11
-181.50747249999995
 21
466.78967299999999
  0
LINE
  8
_0-0_0
  6
CONTINUOUS
 62
    7
 10
-181.50747249999995
 20
477.23767099999998
 11
-181.50747249999995
 21
478.20047
  0
LINE
  8
_0-0_0
  6
CONTINUOUS
 62
    7
 10
-181.50747249999995
 20
481.29998799999998
 11
-181.40747250000004
 21
481.29998799999998
  0
LINE
  8
_0-0_0
  6
CONTINUOUS
 62
    7
 10
-181.50747249999995
 20
480.43511999999998
 11
-181.50747249999995
 21
481.29998799999998
  0
LINE
  8
_0-0_0
  6
CONTINUOUS
 62
    7
 10
-181.50747249999995
 20
478.20047
 11
-181.50747249999995
 21
480.43511999999998
  0
LINE
  8
_0-0_0
  6
CONTINUOUS
 62
    7
 10
-181.50747249999995
 20
466.78967299999999
 11
-181.50747249999995
 21
477.23767099999998
  0
LINE
  8
_0-0_0
  6
CONTINUOUS
 62
    7
 10
-181.2074715
 20
480.18872099999999
 11
-181.2074715
 21
482.07498199999998
  0
LINE
  8
_0-0_0
  6
CONTINUOUS
 62
    7
 10
-181.2074715
 20
479.52499399999999
 11
-181.2074715
 21
480.18872099999999
  0
LINE
  8
_0-0_0
  6
CONTINUOUS
 62
    7
 10
-164.20747249999999
 20
481.41125499999998
 11
-164.20747249999999
 21
479.52529900000002
  0
LINE
  8
_0-0_0
  6
CONTINUOUS
 62
    7
 10
-164.20747249999999
 20
482.06662
 11
-164.20747249999999
 21
481.41125499999998
  0
LINE
  8
_0-0_0
  6
CONTINUOUS
 62
    7
 10
-163.90747150000004
 20
461.69998199999998
 11
-163.90747150000004
 21
466.78967299999999
  0
LINE
  8
_0-0_0
  6
CONTINUOUS
 62
    7
 10
-163.90747150000004
 20
480.43511999999998
 11
-163.90747150000004
 21
481.29998799999998
  0
LINE
  8
_0-0_0
  6
CONTINUOUS
 62
    7
 10
-163.90747150000004
 20
477.23767099999998
 11
-163.90747150000004
 21
478.20047
  0
LINE
  8
_0-0_0
  6
CONTINUOUS
 62
    7
 10
-163.90747150000004
 20
481.29998799999998
 11
-164.20747449999999
 21
481.29998799999998
  0
LINE
  8
_0-0_0
  6
CONTINUOUS
 62
    7
 10
-163.90747150000004
 20
461.69998199999998
 11
-164.60747249999997
 21
461.69998199999998
  0
LINE
  8
_0-0_0
  6
CONTINUOUS
 62
    7
 10
-164.60747249999997
 20
482.29998799999998
 11
-164.90747150000004
 21
482.29998799999998
  0
LINE
  8
_0-0_0
  6
CONTINUOUS
 62
    7
 10
-164.90747150000004
 20
480.79998799999998
 11
-164.90747150000004
 21
479.05505399999998
  0
LINE
  8
_0-0_0
  6
CONTINUOUS
 62
    7
 10
-168.60747149999997
 20
484.29998799999998
 11
-168.60747149999997
 21
484.40005500000001
  0
LINE
  8
_0-0_0
  6
CONTINUOUS
 62
    7
 10
-176.80747250000002
 20
484.40005500000001
 11
-176.80747250000002
 21
484.29998799999998
  0
LINE
  8
_0-0_0
  6
CONTINUOUS
 62
    7
 10
-165.90747150000004
 20
479.05499299999997
 11
-164.60747249999997
 21
479.05499299999997
  0
ARC
  8
_0-0_0
  6
CONTINUOUS
 62
    7
 10
-180.7074715
 20
482.07498199999998
 40
0.2
 50
359.91222800000003
 51
89.999948000000003
  0
ARC
  8
_0-0_0
  6
CONTINUOUS
 62
    7
 10
-180.70757549999996
 20
479.525147
 40
0.200169
 50
270.02985900000004
 51
2.3526610000000452
  0
LINE
  8
_0-0_0
  6
CONTINUOUS
 62
    7
 10
-181.00747249999995
 20
482.27499399999999
 11
-180.7074715
 21
482.27499399999999
  0
LINE
  8
_0-0_0
  6
CONTINUOUS
 62
    7
 10
-181.00747249999995
 20
479.32498199999998
 11
-180.7074715
 21
479.32498199999998
  0
ARC
  8
_0-0_0
  6
CONTINUOUS
 62
    7
 10
-181.00736949999998
 20
482.07482899999997
 40
0.200169
 50
90.029849999999996
 51
182.352667
  0
ARC
  8
_0-0_0
  6
CONTINUOUS
 62
    7
 10
-181.00747249999995
 20
479.52499399999999
 40
0.2
 50
179.912237
 51
269.99994299999997
  0
ARC
  8
_0-0_0
  6
CONTINUOUS
 62
    7
 10
-164.70736750000003
 20
479.525147
 40
0.200169
 50
177.647333
 51
269.97013600000002
  0
ARC
  8
_0-0_0
  6
CONTINUOUS
 62
    7
 10
-164.7074705
 20
482.07498199999998
 40
0.2
 50
90.000049999999987
 51
180.08776299999997
  0
LINE
  8
_0-0_0
  6
CONTINUOUS
 62
    7
 10
-164.40747150000004
 20
479.32498199999998
 11
-164.70747249999999
 21
479.32498199999998
  0
LINE
  8
_0-0_0
  6
CONTINUOUS
 62
    7
 10
-164.40747150000004
 20
482.27499399999999
 11
-164.70747249999999
 21
482.27499399999999
  0
ARC
  8
_0-0_0
  6
CONTINUOUS
 62
    7
 10
-164.40747150000004
 20
479.52499399999999
 40
0.2
 50
270.00005199999998
 51
0.0877600000000175
  0
ARC
  8
_0-0_0
  6
CONTINUOUS
 62
    7
 10
-164.4075765
 20
482.07482899999997
 40
0.200169
 50
357.64733799999999
 51
89.970147999999995
  0
LINE
  8
_0-0_0
  6
CONTINUOUS
 62
    7
 10
-181.40747250000004
 20
479.05499299999997
 11
-179.50747149999995
 21
479.05499299999997
  0
LINE
  8
_0-0_0
  6
CONTINUOUS
 62
    7
 10
-163.90747150000004
 20
484.79998799999998
 11
-163.90747150000004
 21
497.99997000000002
  0
ARC
  8
_0-0_0
  6
CONTINUOUS
 62
    7
 10
-164.40747150000004
 20
484.79998799999998
 40
0.5
 50
269.99999700000001
 51
0
  0
ARC
  8
_0-0_0
  6
CONTINUOUS
 62
    7
 10
-163.96605049999994
 20
498.19998199999998
 40
0.1
 50
135
 51
225
  0
LINE
  8
_0-0_0
  6
CONTINUOUS
 62
    7
 10
-164.03676150000001
 20
498.12927300000001
 11
-163.90747150000004
 21
497.99997000000002
  0
LINE
  8
_0-0_0
  6
CONTINUOUS
 62
    7
 10
-164.40747150000004
 20
484.29998799999998
 11
-166.30747150000002
 21
484.29998799999998
  0
ARC
  8
_0-0_0
  6
CONTINUOUS
 62
    7
 10
-166.30747150000002
 20
484.79998799999998
 40
0.5
 50
233.12990600000001
 51
269.99999700000001
  0
ARC
  8
_0-0_0
  6
CONTINUOUS
 62
    7
 10
-179.00747149999995
 20
484.79998799999998
 40
0.5
 50
269.99999700000001
 51
306.87009999999998
  0
LINE
  8
_0-0_0
  6
CONTINUOUS
 62
    7
 10
-179.00747149999995
 20
484.29998799999998
 11
-180.90747250000004
 21
484.29998799999998
  0
ARC
  8
_0-0_0
  6
CONTINUOUS
 62
    7
 10
-180.90747250000004
 20
484.79998799999998
 40
0.5
 50
180.00000900000003
 51
269.99999700000001
  0
LINE
  8
_0-0_0
  6
CONTINUOUS
 62
    7
 10
-181.40747250000004
 20
494.23498499999999
 11
-181.40747250000004
 21
484.79998799999998
  0
LINE
  8
_0-0_0
  6
CONTINUOUS
 62
    7
 10
-181.40747250000004
 20
494.23498499999999
 11
-180.70747249999999
 21
494.23498499999999
  0
LINE
  8
_0-0_0
  6
CONTINUOUS
 62
    7
 10
-164.7074705
 20
512.79998799999998
 11
-164.50144149999994
 21
512.79998799999998
  0
LINE
  8
_0-0_0
  6
CONTINUOUS
 62
    7
 10
-164.50144149999994
 20
512.79998799999998
 11
-163.90747150000004
 21
512.20602400000007
  0
LINE
  8
_0-0_0
  6
CONTINUOUS
 62
    7
 10
-163.90747150000004
 20
507.19998199999998
 11
-163.90747150000004
 21
512.20602400000007
  0
LINE
  8
_0-0_0
  6
CONTINUOUS
 62
    7
 10
-164.03676150000001
 20
507.07070899999997
 11
-163.90747150000004
 21
507.19998199999998
  0
ARC
  8
_0-0_0
  6
CONTINUOUS
 62
    7
 10
-163.96605049999994
 20
506.99997000000002
 40
0.1
 50
135
 51
225
  0
LINE
  8
_0-0_0
  6
CONTINUOUS
 62
    7
 10
-164.03676150000001
 20
506.92929099999998
 11
-163.90747150000004
 21
506.79998799999998
  0
LINE
  8
_0-0_0
  6
CONTINUOUS
 62
    7
 10
-163.90747150000004
 20
506.09997599999997
 11
-163.90747150000004
 21
506.79998799999998
  0
LINE
  8
_0-0_0
  6
CONTINUOUS
 62
    7
 10
-164.03676150000001
 20
505.97070300000001
 11
-163.90747150000004
 21
506.09997599999997
  0
ARC
  8
_0-0_0
  6
CONTINUOUS
 62
    7
 10
-163.96605049999994
 20
505.89999399999999
 40
0.1
 50
135
 51
225
  0
LINE
  8
_0-0_0
  6
CONTINUOUS
 62
    7
 10
-164.03676150000001
 20
505.82928499999997
 11
-163.90747150000004
 21
505.69998199999998
  0
LINE
  8
_0-0_0
  6
CONTINUOUS
 62
    7
 10
-163.90747150000004
 20
504.99997000000002
 11
-163.90747150000004
 21
505.69998199999998
  0
LINE
  8
_0-0_0
  6
CONTINUOUS
 62
    7
 10
-164.03676150000001
 20
504.87069700000001
 11
-163.90747150000004
 21
504.99997000000002
  0
ARC
  8
_0-0_0
  6
CONTINUOUS
 62
    7
 10
-163.96605049999994
 20
504.79998799999998
 40
0.1
 50
135
 51
225
  0
LINE
  8
_0-0_0
  6
CONTINUOUS
 62
    7
 10
-164.03676150000001
 20
504.72927900000002
 11
-163.90747150000004
 21
504.59997599999997
  0
LINE
  8
_0-0_0
  6
CONTINUOUS
 62
    7
 10
-163.90747150000004
 20
503.89999399999999
 11
-163.90747150000004
 21
504.59997599999997
  0
LINE
  8
_0-0_0
  6
CONTINUOUS
 62
    7
 10
-164.03676150000001
 20
503.770691
 11
-163.90747150000004
 21
503.89999399999999
  0
ARC
  8
_0-0_0
  6
CONTINUOUS
 62
    7
 10
-163.96605049999994
 20
503.69998199999998
 40
0.1
 50
135
 51
225
  0
LINE
  8
_0-0_0
  6
CONTINUOUS
 62
    7
 10
-164.03676150000001
 20
503.62927300000001
 11
-163.90747150000004
 21
503.49997000000002
  0
LINE
  8
_0-0_0
  6
CONTINUOUS
 62
    7
 10
-163.90747150000004
 20
502.79998799999998
 11
-163.90747150000004
 21
503.49997000000002
  0
LINE
  8
_0-0_0
  6
CONTINUOUS
 62
    7
 10
-164.03676150000001
 20
502.67068499999999
 11
-163.90747150000004
 21
502.79998799999998
  0
ARC
  8
_0-0_0
  6
CONTINUOUS
 62
    7
 10
-163.96605049999994
 20
502.59997599999997
 40
0.1
 50
135
 51
225
  0
LINE
  8
_0-0_0
  6
CONTINUOUS
 62
    7
 10
-164.03676150000001
 20
502.52926600000001
 11
-163.90747150000004
 21
502.39999399999999
  0
LINE
  8
_0-0_0
  6
CONTINUOUS
 62
    7
 10
-163.90747150000004
 20
501.69998199999998
 11
-163.90747150000004
 21
502.39999399999999
  0
LINE
  8
_0-0_0
  6
CONTINUOUS
 62
    7
 10
-164.03676150000001
 20
501.57070899999997
 11
-163.90747150000004
 21
501.69998199999998
  0
ARC
  8
_0-0_0
  6
CONTINUOUS
 62
    7
 10
-163.96605049999994
 20
501.49997000000002
 40
0.1
 50
135
 51
225
  0
LINE
  8
_0-0_0
  6
CONTINUOUS
 62
    7
 10
-164.03676150000001
 20
501.42929099999998
 11
-163.90747150000004
 21
501.29998799999998
  0
LINE
  8
_0-0_0
  6
CONTINUOUS
 62
    7
 10
-163.90747150000004
 20
500.59997599999997
 11
-163.90747150000004
 21
501.29998799999998
  0
LINE
  8
_0-0_0
  6
CONTINUOUS
 62
    7
 10
-164.03676150000001
 20
500.47070300000001
 11
-163.90747150000004
 21
500.59997599999997
  0
ARC
  8
_0-0_0
  6
CONTINUOUS
 62
    7
 10
-163.96605049999994
 20
500.39999399999999
 40
0.1
 50
135
 51
225
  0
LINE
  8
_0-0_0
  6
CONTINUOUS
 62
    7
 10
-164.03676150000001
 20
500.32928499999997
 11
-163.90747150000004
 21
500.19998199999998
  0
LINE
  8
_0-0_0
  6
CONTINUOUS
 62
    7
 10
-163.90747150000004
 20
499.49997000000002
 11
-163.90747150000004
 21
500.19998199999998
  0
LINE
  8
_0-0_0
  6
CONTINUOUS
 62
    7
 10
-164.03676150000001
 20
499.37069700000001
 11
-163.90747150000004
 21
499.49997000000002
  0
ARC
  8
_0-0_0
  6
CONTINUOUS
 62
    7
 10
-163.96605049999994
 20
499.29998799999998
 40
0.1
 50
135
 51
225
  0
LINE
  8
_0-0_0
  6
CONTINUOUS
 62
    7
 10
-164.03676150000001
 20
499.22927900000002
 11
-163.90747150000004
 21
499.09997599999997
  0
LINE
  8
_0-0_0
  6
CONTINUOUS
 62
    7
 10
-163.90747150000004
 20
498.39999399999999
 11
-163.90747150000004
 21
499.09997599999997
  0
LINE
  8
_0-0_0
  6
CONTINUOUS
 62
    7
 10
-164.03676150000001
 20
498.270691
 11
-163.90747150000004
 21
498.39999399999999
  0
LINE
  8
_0-0_0
  6
CONTINUOUS
 62
    7
 10
-163.90747150000004
 20
490.29998799999998
 11
-163.80747150000002
 21
490.29998799999998
  0
LINE
  8
_0-0_0
  6
CONTINUOUS
 62
    7
 10
-163.80747150000002
 20
489.79998799999998
 11
-163.80747150000002
 21
490.29998799999998
  0
LINE
  8
_0-0_0
  6
CONTINUOUS
 62
    7
 10
-163.80747150000002
 20
489.79998799999998
 11
-163.80747150000002
 21
485.79998799999998
  0
LINE
  8
_0-0_0
  6
CONTINUOUS
 62
    7
 10
-163.90747150000004
 20
485.29998799999998
 11
-163.80747150000002
 21
485.29998799999998
  0
LINE
  8
_0-0_0
  6
CONTINUOUS
 62
    7
 10
-163.80747150000002
 20
485.29998799999998
 11
-163.80747150000002
 21
485.79998799999998
  0
LINE
  8
_0-0_0
  6
CONTINUOUS
 62
    7
 10
-181.40747250000004
 20
494.29998799999998
 11
-181.40747250000004
 21
494.23498499999999
  0
LINE
  8
_0-0_0
  6
CONTINUOUS
 62
    7
 10
-164.90747150000004
 20
513.09997599999997
 11
-164.90747150000004
 21
512.99997000000008
  0
ARC
  8
_0-0_0
  6
CONTINUOUS
 62
    7
 10
-177.40747250000004
 20
513.09997599999997
 40
2.5
 50
90.000003000000007
 51
180.00000900000001
  0
LINE
  8
_0-0_0
  6
CONTINUOUS
 62
    7
 10
-181.50747249999995
 20
494.29998799999998
 11
-180.7074715
 21
494.29998799999998
  0
LINE
  8
_0-0_0
  6
CONTINUOUS
 62
    7
 10
-181.00747249999995
 20
516.09997599999997
 11
-181.00747249999995
 21
511.87844899999999
  0
LINE
  8
_0-0_0
  6
CONTINUOUS
 62
    7
 10
-179.90747250000004
 20
516.09997599999997
 11
-179.90747250000004
 21
513.09997599999997
  0
LINE
  8
_0-0_0
  6
CONTINUOUS
 62
    7
 10
-181.00747249999995
 20
511.87844899999999
 11
-180.7074715
 21
511.87844899999999
  0
LINE
  8
_0-0_0
  6
CONTINUOUS
 62
    7
 10
-181.00747249999995
 20
521.23989899999992
 11
-179.90747250000004
 21
521.23989899999992
  0
LINE
  8
_0-0_0
  6
CONTINUOUS
 62
    7
 10
-179.90747250000004
 20
516.10040299999991
 11
-179.90747250000004
 21
521.23989899999992
  0
LINE
  8
_0-0_0
  6
CONTINUOUS
 62
    7
 10
-181.50747249999995
 20
515.60076900000001
 11
-181.50747249999995
 21
520.67208899999991
  0
LINE
  8
_0-0_0
  6
CONTINUOUS
 62
    7
 10
-181.00747249999995
 20
521.23989899999992
 11
-181.50747249999995
 21
520.67208899999991
  0
ARC
  8
_0-0_0
  6
CONTINUOUS
 62
    7
 10
-167.40747150000004
 20
513.09997599999997
 40
2.5
 50
0
 51
90.000003000000007
  0
LINE
  8
_0-0_0
  6
CONTINUOUS
 62
    7
 10
-179.90747250000004
 20
513
 11
-179.90747250000004
 21
513.09997599999997
  0
LINE
  8
_0-0_0
  6
CONTINUOUS
 62
    7
 10
-167.40747150000004
 20
515.59997599999997
 11
-177.40747250000004
 21
515.59997599999997
  0
LINE
  8
_0-0_0
  6
CONTINUOUS
 62
    7
 10
-163.70747249999999
 20
485.79998799999998
 11
-163.70747249999999
 21
485.93035900000001
  0
LINE
  8
_0-0_0
  6
CONTINUOUS
 62
    7
 10
-163.70747249999999
 20
489.43035900000001
 11
-163.70747249999999
 21
485.93035900000001
  0
LINE
  8
_0-0_0
  6
CONTINUOUS
 62
    7
 10
-163.80747150000002
 20
489.69998199999998
 11
-163.70747249999999
 21
489.69998199999998
  0
LINE
  8
_0-0_0
  6
CONTINUOUS
 62
    7
 10
-163.70747249999999
 20
489.43035900000001
 11
-163.70747249999999
 21
489.69998199999998
  0
LINE
  8
_0-0_0
  6
CONTINUOUS
 62
    7
 10
-179.90747250000004
 20
523.60000600000001
 11
-179.90747250000004
 21
521.23989899999992
  0
LINE
  8
_0-0_0
  6
CONTINUOUS
 62
    7
 10
-164.10747049999998
 20
512.19998199999998
 11
-165.10747049999998
 21
513.19998199999998
  0
LINE
  8
_0-0_0
  6
CONTINUOUS
 62
    7
 10
-164.10747249999997
 20
484.39999399999999
 11
-164.10747049999998
 21
512.19998199999998
  0
LINE
  8
_0-0_0
  6
CONTINUOUS
 62
    7
 10
-180.7074715
 20
484.39999399999999
 11
-164.10747249999997
 21
484.39999399999999
  0
LINE
  8
_0-0_0
  6
CONTINUOUS
 62
    7
 10
-180.7074715
 20
512.19998199999998
 11
-180.7074715
 21
484.39999399999999
  0
LINE
  8
_0-0_0
  6
CONTINUOUS
 62
    7
 10
-181.50747249999995
 20
494.29998799999998
 11
-181.50747249999995
 21
511.11279300000001
  0
LINE
  8
_0-0_0
  6
CONTINUOUS
 62
    7
 10
-181.50747249999995
 20
515.59997599999997
 11
-181.50747249999995
 21
511.11279300000001
  0
ARC
  8
_0-0_0
  6
CONTINUOUS
 62
    7
 10
-150.05573049999998
 20
491.11779799999999
 40
37.269466000000001
 50
146.14857699999999
 51
147.55443399999999
  0
LINE
  8
_0-0_0
  6
CONTINUOUS
 62
    7
 10
-181.00747249999995
 20
523.60000600000001
 11
-181.00747249999995
 21
521.23989899999992
  0
LINE
  8
_0-0_0
  6
CONTINUOUS
 62
    7
 10
-181.50747249999995
 20
523.10000600000001
 11
-181.50747249999995
 21
520.67208899999991
  0
ARC
  8
_0-0_0
  6
CONTINUOUS
 62
    7
 10
-167.67651850000004
 20
512.79998799999998
 40
2.6000000000000001
 50
8.8498839999999994
 51
90.000002999999992
  0
LINE
  8
_0-0_0
  6
CONTINUOUS
 62
    7
 10
-167.67651850000004
 20
515.39999399999999
 11
-177.13842650000004
 21
515.39999399999999
  0
ARC
  8
_0-0_0
  6
CONTINUOUS
 62
    7
 10
-177.13842650000004
 20
512.79998799999998
 40
2.6000000000000001
 50
90.000003000000007
 51
171.150115
  0
LINE
  8
_0-0_0
  6
CONTINUOUS
 62
    7
 10
-180.7074715
 20
512.19998199999998
 11
-179.70747249999999
 21
513.19998199999998
  0
LINE
  8
_0-0_0
  6
CONTINUOUS
 62
    7
 10
-165.10747049999998
 20
511.78576699999996
 11
-164.10747049999998
 21
512.19998199999998
  0
ARC
  8
_0-0_0
  6
CONTINUOUS
 62
    7
 10
-170.6500135
 20
523.98611499999993
 40
12.126564999999999
 50
292.155034
 51
297.19674500000002
  0
LINE
  8
_0-0_0
  6
CONTINUOUS
 62
    7
 10
-165.10747249999997
 20
485.39999399999999
 11
-164.10747249999997
 21
484.39999399999999
  0
LINE
  8
_0-0_0
  6
CONTINUOUS
 62
    7
 10
-179.70747249999999
 20
485.39999399999999
 11
-180.7074715
 21
484.39999399999999
  0
LINE
  8
_0-0_0
  6
CONTINUOUS
 62
    7
 10
-179.70747249999999
 20
511.78576699999996
 11
-180.7074715
 21
512.19998199999998
  0
ARC
  8
_0-0_0
  6
CONTINUOUS
 62
    7
 10
-174.16493149999997
 20
523.98611499999993
 40
12.126567
 50
242.80325699999997
 51
247.84494000000001
  0
CIRCLE
  8
_0-0_0
  6
CONTINUOUS
 62
    7
 10
-172.40747250000004
 20
492.59997599999997
 40
2.0670000000000002
  0
LINE
  8
_0-0_0
  6
CONTINUOUS
 62
    7
 10
-179.90747250000004
 20
516.09997599999997
 11
-181.00747249999995
 21
516.09997599999997
  0
LINE
  8
_0-0_0
  6
CONTINUOUS
 62
    7
 10
-163.80747150000002
 20
485.79998799999998
 11
-163.70747249999999
 21
485.79998799999998
  0
LINE
  8
_0-0_0
  6
CONTINUOUS
 62
    7
 10
-163.80747150000002
 20
485.79998799999998
 11
-163.70747249999999
 21
485.79998799999998
  0
LINE
  8
_0-0_0
  6
CONTINUOUS
 62
    7
 10
-181.50747249999995
 20
515.59997599999997
 11
-181.00747249999995
 21
516.09997599999997
  0
LINE
  8
_0-0_0
  6
CONTINUOUS
 62
    7
 10
-179.90747250000004
 20
523.60000600000001
 11
-181.00747249999995
 21
523.60000600000001
  0
LINE
  8
_0-0_0
  6
CONTINUOUS
 62
    7
 10
-181.50747249999995
 20
523.10000600000001
 11
-181.00747249999995
 21
523.60000600000001
  0
ENDSEC
  0
EOF
