  0
SECTION
  2
HEADER
  9
$ACADVER
  1
AC1009
  9
$INSBASE
 10
0
 20
0
 30
0
  9
$EXTMIN
 10
0
 20
0
  9
$EXTMAX
 10
841
 20
594
  9
$LIMMIN
 10
0
 20
0
  9
$LIMMAX
 10
841
 20
594
  9
$LTSCALE
 40
1
  0
ENDSEC
  0
SECTION
  2
TABLES
  0
TABLE
  2
LTYPE
 70
     9
  0
LTYPE
  2
CONTINUOUS
 70
    64
  3
実線
 72
    65
 73
     0
 40
0.0
  0
LTYPE
  2
DASHED1
 70
    64
  3
--  --  --  --  --  --  --  --  
 72
    65
 73
     2
 40
2.5
 49
1.25
 49
-1.25
  0
LTYPE
  2
DASHED2
 70
    64
  3
----    ----    ----    ----    
 72
    65
 73
     2
 40
5.0
 49
2.5
 49
-2.5
  0
LTYPE
  2
DASHED3
 70
    64
  3
------  ------  ------  ------  
 72
    65
 73
     2
 40
5.0
 49
3.75
 49
-1.25
  0
LTYPE
  2
CENTER1
 70
    64
  3
----- - ----- - ----- - ----- - 
 72
    65
 73
     4
 40
10.0
 49
6.25
 49
-1.25
 49
1.25
 49
-1.25
  0
LTYPE
  2
CENTER2
 70
    64
  3
----------  --  ----------  --  
 72
    65
 73
     4
 40
20.0
 49
12.5
 49
-2.5
 49
2.5
 49
-2.5
  0
LTYPE
  2
PHANTOM1
 70
    64
  3
--- - - --- - - --- - - --- - - 
 72
    65
 73
     6
 40
10.0
 49
3.25
 49
-1.25
 49
1.25
 49
-1.25
 49
1.25
 49
-1.25
  0
LTYPE
  2
PHANTOM2
 70
    64
  3
--------  -  -  --------  -  -  
 72
    65
 73
     6
 40
20.0
 49
10.0
 49
-2.5
 49
1.25
 49
-2.5
 49
1.25
 49
-2.5
  0
LTYPE
  2
DOT
 70
    64
  3
-   -   -   -   -   -   -   -   
 72
    65
 73
     2
 40
2.5
 49
0.625
 49
-1.875
  0
LTYPE
  2
DUMMY
 70
    64
  3
ダミー
 72
    65
 73
     0
 40
0.0
  0
LTYPE
  2
RAND1
 70
    64
  3
ランダム線1
 72
    65
 73
     4
 40
10.0
 49
1.0
 49
-2.0
 49
3.0
 49
-4.0
  0
LTYPE
  2
RAND2
 70
    64
  3
ランダム線2
 72
    65
 73
     4
 40
14.0
 49
2.0
 49
-3.0
 49
4.0
 49
-5.0
  0
LTYPE
  2
RAND3
 70
    64
  3
ランダム線3
 72
    65
 73
     4
 40
18.0
 49
3.0
 49
-4.0
 49
5.0
 49
-6.0
  0
LTYPE
  2
RAND4
 70
    64
  3
ランダム線4
 72
    65
 73
     4
 40
22.0
 49
4.0
 49
-5.0
 49
6.0
 49
-7.0
  0
LTYPE
  2
RAND5
 70
    64
  3
ランダム線5
 72
    65
 73
     4
 40
26.0
 49
5.0
 49
-6.0
 49
7.0
 49
-8.0
  0
LTYPE
  2
LONG1
 70
    64
  3
----------  --  ----------  --  
 72
    65
 73
     4
 40
40.0
 49
32.5
 49
-2.5
 49
2.5
 49
-2.5
  0
LTYPE
  2
LONG2
 70
    64
  3
--------  -  -  --------  -  -  
 72
    65
 73
     6
 40
40.0
 49
30.0
 49
-2.5
 49
1.25
 49
-2.5
 49
1.25
 49
-2.5
  0
LTYPE
  2
LONG3
 70
    64
  3
+++++++++++++++..+++++++++++++++
 72
    65
 73
     2
 40
40.0
 49
37.5
 49
-2.5
  0
LTYPE
  2
LONG4
 70
    64
  3
+++++++++++++++..+++++++++++++++
 72
    65
 73
     2
 40
80.0
 49
75.0
 49
-5.0
  0
LTYPE
  2
LONG5
 70
    64
  3
----------  --  ----------  --  
 72
    65
 73
     4
 40
60.0
 49
37.5
 49
-7.5
 49
7.5
 49
-7.5
  0
LTYPE
  2
dashed
 70
   64
  3
-------   -------------   ------
 72
   65
 73
    2
 40
7.5
 49
6
 49
-1.5
  0
LTYPE
  2
dashed_spaced
 70
   64
  3
----        --------        ----
 72
   65
 73
    2
 40
12
 49
6
 49
-6
  0
LTYPE
  2
long_dashed_dotted
 70
   64
  3
------------- --- --------------
 72
   65
 73
    4
 40
15.25
 49
12
 49
-1.5
 49
0.25
 49
-1.5
  0
LTYPE
  2
long_dashed_double-dotted
 70
   64
  3
----------- --- --- ------------
 72
   65
 73
    6
 40
17
 49
12
 49
-1.5
 49
0.25
 49
-1.5
 49
0.25
 49
-1.5
  0
LTYPE
  2
long_dashed_triplicate-dotted
 70
   64
  3
--------- --- --- --- ----------
 72
   65
 73
    8
 40
18.75
 49
12
 49
-1.5
 49
0.25
 49
-1.5
 49
0.25
 49
-1.5
 49
0.25
 49
-1.5
  0
LTYPE
  2
dotted
 70
   64
  3
   -       -       -       -    
 72
   65
 73
    2
 40
1.75
 49
0.25
 49
-1.5
  0
LTYPE
  2
chain
 70
   64
  3
-------------- -- --------------
 72
   65
 73
    4
 40
18.5
 49
12
 49
-1.5
 49
3.5
 49
-1.5
  0
LTYPE
  2
chain_double_dash
 70
   64
  3
------------ -- -- -------------
 72
   65
 73
    6
 40
23.5
 49
12
 49
-1.5
 49
3.5
 49
-1.5
 49
3.5
 49
-1.5
  0
LTYPE
  2
dashed_dotted
 70
   64
  3
-----------     -     ----------
 72
   65
 73
    4
 40
9.25
 49
6
 49
-1.5
 49
0.25
 49
-1.5
  0
LTYPE
  2
double-dashed_dotted
 70
   64
  3
------   -----------   -   -----
 72
   65
 73
    6
 40
16.75
 49
6
 49
-1.5
 49
6
 49
-1.5
 49
0.25
 49
-1.5
  0
LTYPE
  2
dashed_double-dotted
 70
   64
  3
---------    -    -    ---------
 72
   65
 73
    6
 40
11
 49
6
 49
-1.5
 49
0.25
 49
-1.5
 49
0.25
 49
-1.5
  0
LTYPE
  2
double-dashed_double-dotted
 70
   64
  3
-----   ---------   -   -   ----
 72
   65
 73
    8
 40
18.5
 49
6
 49
-1.5
 49
6
 49
-1.5
 49
0.25
 49
-1.5
 49
0.25
 49
-1.5
  0
LTYPE
  2
dashed_triplicate-dotted
 70
   64
  3
-------    -    -    -    ------
 72
   65
 73
    8
 40
12.75
 49
6
 49
-1.5
 49
0.25
 49
-1.5
 49
0.25
 49
-1.5
 49
0.25
 49
-1.5
  0
LTYPE
  2
double-dashed_triplicate-dotted
 70
   64
  3
-----  ---------  -  -  -  -----
 72
   65
 73
   10
 40
20.25
 49
6
 49
-1.5
 49
6
 49
-1.5
 49
0.25
 49
-1.5
 49
0.25
 49
-1.5
 49
0.25
 49
-1.5
  0
LTYPE
  2
undefined
 70
   64
  3
--------------------------------
 72
   65
 73
    0
 40
0
  0
ENDTAB
  0
TABLE
  2
STYLE
  5
3
100
AcDbSymbolTable
 70
     1
  0
STYLE
  5
10
100
AcDbSymbolTableRecord
100
AcDbTextStyleTableRecord
  2
STANDARD
 70
     0
 40
0.0
 41
1.0
 50
0.0
 71
     0
 42
0.2
  3
txt
  4
bigfont.shx
  0
STYLE
  5
26
100
AcDbSymbolTableRecord
100
AcDbTextStyleTableRecord
  2
TATEGAKI
 70
    68
 40
0.0
 41
1.0
 50
0.0
 71
     0
 42
1.0
  3
txt
  4
bigfont.shx
  0
ENDTAB
  0
TABLE
  2
LAYER
 70
    2
  0
LAYER
  2
_0-0_0
 70
   64
 62
    7
  6
CONTINUOUS
  0
LAYER
  2
ADD_LINE
 70
   64
 62
    7
  6
CONTINUOUS
  0
ENDTAB
  0
ENDSEC
  0
SECTION
  2
BLOCKS
  0
ENDSEC
  0
SECTION
  2
ENTITIES
  0
POINT
  8
_0-0_0
 62
    7
 10
181.50253249999997
 20
471.89999399999999
  0
LINE
  8
_0-0_0
  6
CONTINUOUS
 62
    7
 10
74.502548499999989
 20
512.90048200000001
 11
74.502548499999989
 21
512.89947499999994
  0
LINE
  8
_0-0_0
  6
CONTINUOUS
 62
    7
 10
101.00254849999999
 20
478.55499299999997
 11
101.00254849999999
 21
480.79998799999998
  0
LINE
  8
_0-0_0
  6
CONTINUOUS
 62
    7
 10
101.00254849999999
 20
480.79998799999998
 11
101.00254849999999
 21
482.79998799999998
  0
LINE
  8
_0-0_0
  6
CONTINUOUS
 62
    7
 10
101.00254849999999
 20
482.79998799999998
 11
101.00254849999999
 21
483.29998799999998
  0
LINE
  8
_0-0_0
  6
CONTINUOUS
 62
    7
 10
101.00254849999999
 20
483.29998799999998
 11
101.00254849999999
 21
484.29998799999998
  0
LINE
  8
_0-0_0
  6
CONTINUOUS
 62
    7
 10
101.00254849999999
 20
460.19998199999998
 11
101.00254849999999
 21
478.55499299999997
  0
LINE
  8
_0-0_0
  6
CONTINUOUS
 62
    7
 10
197.50253249999997
 20
482.29998799999998
 11
197.50253249999997
 21
482.79998799999998
  0
LINE
  8
_0-0_0
  6
CONTINUOUS
 62
    7
 10
197.50253249999997
 20
483.29998799999998
 11
197.50253249999997
 21
484.29998799999998
  0
LINE
  8
_0-0_0
  6
CONTINUOUS
 62
    7
 10
197.50253249999997
 20
482.79998799999998
 11
197.50253249999997
 21
483.29998799999998
  0
ARC
  8
_0-0_0
  6
CONTINUOUS
 62
    7
 10
183.50253249999997
 20
478.55499299999997
 40
0.5
 50
0
 51
123.74898500000002
  0
ARC
  8
_0-0_0
  6
CONTINUOUS
 62
    7
 10
182.00253249999997
 20
480.79998799999998
 40
2.2000000000000002
 50
180.00000900000003
 51
303.74900400000001
  0
LINE
  8
_0-0_0
  6
CONTINUOUS
 62
    7
 10
179.80255149999999
 20
480.79998799999998
 11
179.80255149999999
 21
482.29998799999998
  0
LINE
  8
_0-0_0
  6
CONTINUOUS
 62
    7
 10
105.20254549999993
 20
482.29998799999998
 11
179.80255149999999
 21
482.29998799999998
  0
LINE
  8
_0-0_0
  6
CONTINUOUS
 62
    7
 10
105.20254549999993
 20
482.29998799999998
 11
105.20254549999993
 21
480.79998799999998
  0
ARC
  8
_0-0_0
  6
CONTINUOUS
 62
    7
 10
103.00254849999999
 20
480.79998799999998
 40
2.2000000000000002
 50
236.25102899999999
 51
0
  0
ARC
  8
_0-0_0
  6
CONTINUOUS
 62
    7
 10
101.50254849999999
 20
478.55499299999997
 40
0.5
 50
56.251010000000008
 51
180.00000900000001
  0
ARC
  8
_0-0_0
  6
CONTINUOUS
 62
    7
 10
103.00254849999999
 20
460.19998199999998
 40
2
 50
180.00000900000003
 51
269.99999700000001
  0
LINE
  8
_0-0_0
  6
CONTINUOUS
 62
    7
 10
103.00254849999999
 20
458.19998199999998
 11
104.00254849999999
 21
458.19998199999998
  0
LINE
  8
_0-0_0
  6
CONTINUOUS
 62
    7
 10
104.00254849999999
 20
458.19998199999998
 11
104.00254849999999
 21
459.79998799999998
  0
ARC
  8
_0-0_0
  6
CONTINUOUS
 62
    7
 10
104.50254849999999
 20
459.79998799999998
 40
0.5
 50
90.000003000000007
 51
180.00000900000001
  0
LINE
  8
_0-0_0
  6
CONTINUOUS
 62
    7
 10
104.70254549999993
 20
460.29998799999998
 11
104.50254849999999
 21
460.29998799999998
  0
ARC
  8
_0-0_0
  6
CONTINUOUS
 62
    7
 10
104.70254549999993
 20
459.79998799999998
 40
0.5
 50
90.000003000000007
 51
180.00000900000001
  0
LINE
  8
_0-0_0
  6
CONTINUOUS
 62
    7
 10
104.20254549999993
 20
458.29998799999998
 11
104.20254549999993
 21
459.79998799999998
  0
LINE
  8
_0-0_0
  6
CONTINUOUS
 62
    7
 10
173.80255149999999
 20
458.29998799999998
 11
104.20254549999993
 21
458.29998799999998
  0
LINE
  8
_0-0_0
  6
CONTINUOUS
 62
    7
 10
173.80255149999999
 20
458.29998799999998
 11
173.80255149999999
 21
459.79998799999998
  0
ARC
  8
_0-0_0
  6
CONTINUOUS
 62
    7
 10
173.30255149999999
 20
459.79998799999998
 40
0.5
 50
0
 51
90.000003000000007
  0
LINE
  8
_0-0_0
  6
CONTINUOUS
 62
    7
 10
173.50253249999997
 20
460.29998799999998
 11
173.30255149999999
 21
460.29998799999998
  0
ARC
  8
_0-0_0
  6
CONTINUOUS
 62
    7
 10
173.50253249999997
 20
459.79998799999998
 40
0.5
 50
0
 51
90.000003000000007
  0
LINE
  8
_0-0_0
  6
CONTINUOUS
 62
    7
 10
174.00253249999997
 20
459.79998799999998
 11
174.00253249999997
 21
458.19998199999998
  0
LINE
  8
_0-0_0
  6
CONTINUOUS
 62
    7
 10
174.00253249999997
 20
458.19998199999998
 11
184.00253249999997
 21
458.19998199999998
  0
LINE
  8
_0-0_0
  6
CONTINUOUS
 62
    7
 10
184.00253249999997
 20
458.19998199999998
 11
184.00253249999997
 21
459.09997599999997
  0
LINE
  8
_0-0_0
  6
CONTINUOUS
 62
    7
 10
120.00253249999997
 20
461.704071
 11
161.40255749999994
 21
461.704071
  0
LINE
  8
_0-0_0
  6
CONTINUOUS
 62
    7
 10
120.00253249999997
 20
481.29998799999998
 11
161.40255749999994
 21
481.29998799999998
  0
ARC
  8
_0-0_0
  6
CONTINUOUS
 62
    7
 10
172.70254549999999
 20
460.49997000000002
 40
0.2
 50
180.00000900000003
 51
269.99999700000001
  0
LINE
  8
_0-0_0
  6
CONTINUOUS
 62
    7
 10
172.70254549999999
 20
460.29998799999998
 11
105.30255149999994
 21
460.29998799999998
  0
ARC
  8
_0-0_0
  6
CONTINUOUS
 62
    7
 10
105.30255149999994
 20
460.49997000000002
 40
0.2
 50
269.99999700000001
 51
0
  0
ARC
  8
_0-0_0
  6
CONTINUOUS
 62
    7
 10
105.70254549999993
 20
460.49997000000002
 40
0.2
 50
90.000003000000007
 51
180.00000900000001
  0
LINE
  8
_0-0_0
  6
CONTINUOUS
 62
    7
 10
105.70254549999993
 20
460.69998199999998
 11
172.30255149999999
 21
460.69998199999998
  0
ARC
  8
_0-0_0
  6
CONTINUOUS
 62
    7
 10
172.30255149999999
 20
460.49997000000002
 40
0.2
 50
0
 51
90.000003000000007
  0
LINE
  8
_0-0_0
  6
CONTINUOUS
 62
    7
 10
101.00254849999999
 20
483.29998799999998
 11
197.50253249999997
 21
483.29998799999998
  0
LINE
  8
_0-0_0
  6
CONTINUOUS
 62
    7
 10
197.00253249999997
 20
482.29998799999998
 11
197.50253249999997
 21
482.29998799999998
  0
LINE
  8
_0-0_0
  6
CONTINUOUS
 62
    7
 10
184.00253249999997
 20
460.29998799999998
 11
184.00253249999997
 21
459.09997599999997
  0
LINE
  8
_0-0_0
  6
CONTINUOUS
 62
    7
 10
184.00253249999997
 20
460.29998799999998
 11
184.00253249999997
 21
477.89999399999999
  0
LINE
  8
_0-0_0
  6
CONTINUOUS
 62
    7
 10
184.00253249999997
 20
479.87734999999998
 11
184.00253249999997
 21
477.89999399999999
  0
LINE
  8
_0-0_0
  6
CONTINUOUS
 62
    7
 10
103.00254849999999
 20
466.78967299999999
 11
103.00254849999999
 21
477.23767099999998
  0
ARC
  8
_0-0_0
  6
CONTINUOUS
 62
    7
 10
103.00254849999999
 20
480.79998799999998
 40
2.7000000000000002
 50
285.68033600000007
 51
352.23356600000005
  0
LINE
  8
_0-0_0
  6
CONTINUOUS
 62
    7
 10
180.00253249999997
 20
478.29998799999998
 11
180.00253249999997
 21
464.69998199999998
  0
LINE
  8
_0-0_0
  6
CONTINUOUS
 62
    7
 10
105.00254849999999
 20
482.29998799999998
 11
105.20254549999993
 21
482.29998799999998
  0
LINE
  8
_0-0_0
  6
CONTINUOUS
 62
    7
 10
105.00254849999999
 20
482.29998799999998
 11
105.00254849999999
 21
480.79998799999998
  0
ARC
  8
_0-0_0
  6
CONTINUOUS
 62
    7
 10
103.00254849999999
 20
480.79998799999998
 40
2
 50
180.00000900000003
 51
0.0000000000000254
  0
LINE
  8
_0-0_0
  6
CONTINUOUS
 62
    7
 10
197.00253249999997
 20
482.29998799999998
 11
197.00253249999997
 21
480.59997599999997
  0
LINE
  8
_0-0_0
  6
CONTINUOUS
 62
    7
 10
184.00253249999997
 20
458.29998799999998
 11
196.00253249999997
 21
458.29998799999998
  0
LINE
  8
_0-0_0
  6
CONTINUOUS
 62
    7
 10
196.00253249999997
 20
458.29998799999998
 11
200.67800849999998
 21
458.29998799999998
  0
LINE
  8
_0-0_0
  6
CONTINUOUS
 62
    7
 10
196.00253249999997
 20
463.79998799999998
 11
196.00253249999997
 21
460.79998799999998
  0
LINE
  8
_0-0_0
  6
CONTINUOUS
 62
    7
 10
196.00253249999997
 20
460.79998799999998
 11
196.00253249999997
 21
460.29998799999998
  0
LINE
  8
_0-0_0
  6
CONTINUOUS
 62
    7
 10
196.00253249999997
 20
463.79998799999998
 11
196.00253249999997
 21
464.29998799999998
  0
ARC
  8
_0-0_0
  6
CONTINUOUS
 62
    7
 10
190.00253249999997
 20
463.60000600000001
 40
0.500016
 50
180.00117
 51
359.995611
  0
LINE
  8
_0-0_0
  6
CONTINUOUS
 62
    7
 10
190.50253249999997
 20
463.59997599999997
 11
190.50253249999997
 21
475.59997599999997
  0
ARC
  8
_0-0_0
  6
CONTINUOUS
 62
    7
 10
190.00253249999997
 20
475.59997599999997
 40
0.500016
 50
0.001164
 51
179.99560600000004
  0
LINE
  8
_0-0_0
  6
CONTINUOUS
 62
    7
 10
189.50253249999997
 20
463.59997599999997
 11
189.50253249999997
 21
475.59997599999997
  0
ARC
  8
_0-0_0
  6
CONTINUOUS
 62
    7
 10
191.50253249999997
 20
463.60000600000001
 40
0.500016
 50
180.00117
 51
359.995611
  0
LINE
  8
_0-0_0
  6
CONTINUOUS
 62
    7
 10
192.00253249999997
 20
463.59997599999997
 11
192.00253249999997
 21
475.59997599999997
  0
ARC
  8
_0-0_0
  6
CONTINUOUS
 62
    7
 10
191.50253249999997
 20
475.59997599999997
 40
0.500016
 50
0.001164
 51
179.99560600000004
  0
LINE
  8
_0-0_0
  6
CONTINUOUS
 62
    7
 10
191.00253249999997
 20
463.59997599999997
 11
191.00253249999997
 21
475.59997599999997
  0
ARC
  8
_0-0_0
  6
CONTINUOUS
 62
    7
 10
193.00253249999997
 20
463.60000600000001
 40
0.500016
 50
180.00117
 51
359.995611
  0
LINE
  8
_0-0_0
  6
CONTINUOUS
 62
    7
 10
193.50253249999997
 20
463.59997599999997
 11
193.50253249999997
 21
475.59997599999997
  0
ARC
  8
_0-0_0
  6
CONTINUOUS
 62
    7
 10
193.00253249999997
 20
475.59997599999997
 40
0.500016
 50
0.001164
 51
179.99560600000004
  0
LINE
  8
_0-0_0
  6
CONTINUOUS
 62
    7
 10
192.50253249999997
 20
463.59997599999997
 11
192.50253249999997
 21
475.59997599999997
  0
ARC
  8
_0-0_0
  6
CONTINUOUS
 62
    7
 10
194.50253249999997
 20
463.60000600000001
 40
0.500016
 50
180.00117
 51
359.995611
  0
LINE
  8
_0-0_0
  6
CONTINUOUS
 62
    7
 10
195.00253249999997
 20
463.59997599999997
 11
195.00253249999997
 21
475.59997599999997
  0
ARC
  8
_0-0_0
  6
CONTINUOUS
 62
    7
 10
194.50253249999997
 20
475.59997599999997
 40
0.500016
 50
0.001164
 51
179.99560600000004
  0
LINE
  8
_0-0_0
  6
CONTINUOUS
 62
    7
 10
194.00253249999997
 20
463.59997599999997
 11
194.00253249999997
 21
475.59997599999997
  0
LINE
  8
_0-0_0
  6
CONTINUOUS
 62
    7
 10
184.00253249999997
 20
480.59997599999997
 11
184.00253249999997
 21
479.87734999999998
  0
LINE
  8
_0-0_0
  6
CONTINUOUS
 62
    7
 10
197.00253249999997
 20
480.59997599999997
 11
184.00253249999997
 21
480.59997599999997
  0
LINE
  8
_0-0_0
  6
CONTINUOUS
 62
    7
 10
184.00253249999997
 20
482.29998799999998
 11
197.00253249999997
 21
482.29998799999998
  0
LINE
  8
_0-0_0
  6
CONTINUOUS
 62
    7
 10
184.00253249999997
 20
482.29998799999998
 11
184.00253249999997
 21
480.59997599999997
  0
LINE
  8
_0-0_0
  6
CONTINUOUS
 62
    7
 10
173.45254549999999
 20
460.27694700000001
 11
173.45254549999999
 21
460.29998799999998
  0
ARC
  8
_0-0_0
  6
CONTINUOUS
 62
    7
 10
200.67800849999998
 20
460.29998799999998
 40
2
 50
269.99999700000001
 51
288.43501300000003
  0
LINE
  8
_0-0_0
  6
CONTINUOUS
 62
    7
 10
179.80255149999999
 20
482.29998799999998
 11
180.00253249999997
 21
482.29998799999998
  0
ARC
  8
_0-0_0
  6
CONTINUOUS
 62
    7
 10
182.00253249999997
 20
480.79998799999998
 40
2
 50
180.00000900000003
 51
0.0000000000000254
  0
LINE
  8
_0-0_0
  6
CONTINUOUS
 62
    7
 10
180.00253249999997
 20
480.79998799999998
 11
180.00253249999997
 21
482.29998799999998
  0
LINE
  8
_0-0_0
  6
CONTINUOUS
 62
    7
 10
201.75253249999997
 20
458.54998799999998
 11
201.31045549999999
 21
458.40261900000002
  0
ARC
  8
_0-0_0
  6
CONTINUOUS
 62
    7
 10
171.00253249999997
 20
473.89999399999999
 40
2.25
 50
269.99999700000001
 51
90.000002999999992
  0
LINE
  8
_0-0_0
  6
CONTINUOUS
 62
    7
 10
167.00253249999997
 20
471.64999399999999
 11
171.00253249999997
 21
471.64999399999999
  0
ARC
  8
_0-0_0
  6
CONTINUOUS
 62
    7
 10
167.00253249999997
 20
473.89999399999999
 40
2.25
 50
90.000003000000007
 51
269.99999700000006
  0
ARC
  8
_0-0_0
  6
CONTINUOUS
 62
    7
 10
115.00253249999997
 20
473.89999399999999
 40
2.25
 50
269.99999700000001
 51
90.000002999999992
  0
LINE
  8
_0-0_0
  6
CONTINUOUS
 62
    7
 10
111.00253249999997
 20
471.64999399999999
 11
115.00253249999997
 21
471.64999399999999
  0
ARC
  8
_0-0_0
  6
CONTINUOUS
 62
    7
 10
111.00253249999997
 20
473.89999399999999
 40
2.25
 50
90.000003000000007
 51
269.99999700000006
  0
LINE
  8
_0-0_0
  6
CONTINUOUS
 62
    7
 10
167.00253249999997
 20
476.14999399999999
 11
171.00253249999997
 21
476.14999399999999
  0
LINE
  8
_0-0_0
  6
CONTINUOUS
 62
    7
 10
111.00253249999997
 20
476.14999399999999
 11
115.00253249999997
 21
476.14999399999999
  0
LINE
  8
_0-0_0
  6
CONTINUOUS
 62
    7
 10
173.24313349999994
 20
469.89999399999999
 11
164.76193249999994
 21
469.89999399999999
  0
LINE
  8
_0-0_0
  6
CONTINUOUS
 62
    7
 10
173.24313349999994
 20
469.89999399999999
 11
175.55255149999999
 21
473.89999399999999
  0
LINE
  8
_0-0_0
  6
CONTINUOUS
 62
    7
 10
175.55255149999999
 20
473.89999399999999
 11
173.24313349999994
 21
477.89999399999999
  0
LINE
  8
_0-0_0
  6
CONTINUOUS
 62
    7
 10
164.76193249999994
 20
477.89999399999999
 11
173.24313349999994
 21
477.89999399999999
  0
LINE
  8
_0-0_0
  6
CONTINUOUS
 62
    7
 10
162.45254549999999
 20
473.89999399999999
 11
164.76193249999994
 21
477.89999399999999
  0
LINE
  8
_0-0_0
  6
CONTINUOUS
 62
    7
 10
164.76193249999994
 20
469.89999399999999
 11
162.45254549999999
 21
473.89999399999999
  0
LINE
  8
_0-0_0
  6
CONTINUOUS
 62
    7
 10
117.2431335
 20
469.89999399999999
 11
108.76194749999996
 21
469.89999399999999
  0
LINE
  8
_0-0_0
  6
CONTINUOUS
 62
    7
 10
119.55255149999994
 20
473.89999399999999
 11
117.2431335
 21
469.89999399999999
  0
LINE
  8
_0-0_0
  6
CONTINUOUS
 62
    7
 10
119.55255149999994
 20
473.89999399999999
 11
117.2431335
 21
477.89999399999999
  0
LINE
  8
_0-0_0
  6
CONTINUOUS
 62
    7
 10
108.76194749999996
 20
477.89999399999999
 11
117.2431335
 21
477.89999399999999
  0
LINE
  8
_0-0_0
  6
CONTINUOUS
 62
    7
 10
106.45254549999993
 20
473.89999399999999
 11
108.76194749999996
 21
477.89999399999999
  0
LINE
  8
_0-0_0
  6
CONTINUOUS
 62
    7
 10
106.45254549999993
 20
473.89999399999999
 11
108.76194749999996
 21
469.89999399999999
  0
CIRCLE
  8
_0-0_0
  6
CONTINUOUS
 62
    7
 10
182.00253249999997
 20
480.79998799999998
 40
1.4750000000000001
  0
CIRCLE
  8
_0-0_0
  6
CONTINUOUS
 62
    7
 10
103.00254849999999
 20
480.79998799999998
 40
1.4750000000000001
  0
LINE
  8
_0-0_0
  6
CONTINUOUS
 62
    7
 10
182.45254549999999
 20
480.59997599999997
 11
183.10253849999998
 21
480.59997599999997
  0
ARC
  8
_0-0_0
  6
CONTINUOUS
 62
    7
 10
182.45254549999999
 20
480.34997599999997
 40
0.25
 50
90.000003000000007
 51
180.00000900000001
  0
LINE
  8
_0-0_0
  6
CONTINUOUS
 62
    7
 10
182.20254549999999
 20
480.34997599999997
 11
182.20254549999999
 21
479.69998199999998
  0
LINE
  8
_0-0_0
  6
CONTINUOUS
 62
    7
 10
181.80255149999999
 20
479.69998199999998
 11
182.20254549999999
 21
479.69998199999998
  0
LINE
  8
_0-0_0
  6
CONTINUOUS
 62
    7
 10
181.80255149999999
 20
479.69998199999998
 11
181.80255149999999
 21
480.34997599999997
  0
ARC
  8
_0-0_0
  6
CONTINUOUS
 62
    7
 10
181.55255149999999
 20
480.34997599999997
 40
0.25
 50
0
 51
90.000003000000007
  0
LINE
  8
_0-0_0
  6
CONTINUOUS
 62
    7
 10
180.90255749999994
 20
480.59997599999997
 11
181.55255149999999
 21
480.59997599999997
  0
LINE
  8
_0-0_0
  6
CONTINUOUS
 62
    7
 10
180.90255749999994
 20
480.59997599999997
 11
180.90255749999994
 21
481
  0
LINE
  8
_0-0_0
  6
CONTINUOUS
 62
    7
 10
181.55255149999999
 20
481
 11
180.90255749999994
 21
481
  0
ARC
  8
_0-0_0
  6
CONTINUOUS
 62
    7
 10
181.55255149999999
 20
481.25
 40
0.25
 50
269.99999700000001
 51
0
  0
LINE
  8
_0-0_0
  6
CONTINUOUS
 62
    7
 10
181.80255149999999
 20
481.25
 11
181.80255149999999
 21
481.89999399999999
  0
LINE
  8
_0-0_0
  6
CONTINUOUS
 62
    7
 10
182.20254549999999
 20
481.89999399999999
 11
181.80255149999999
 21
481.89999399999999
  0
LINE
  8
_0-0_0
  6
CONTINUOUS
 62
    7
 10
182.20254549999999
 20
481.89999399999999
 11
182.20254549999999
 21
481.25
  0
ARC
  8
_0-0_0
  6
CONTINUOUS
 62
    7
 10
182.45254549999999
 20
481.25
 40
0.25
 50
180.00000900000003
 51
269.99999700000001
  0
LINE
  8
_0-0_0
  6
CONTINUOUS
 62
    7
 10
183.10253849999998
 20
481
 11
182.45254549999999
 21
481
  0
LINE
  8
_0-0_0
  6
CONTINUOUS
 62
    7
 10
183.10253849999998
 20
481
 11
183.10253849999998
 21
480.59997599999997
  0
LINE
  8
_0-0_0
  6
CONTINUOUS
 62
    7
 10
103.45254549999993
 20
480.59997599999997
 11
104.10253849999998
 21
480.59997599999997
  0
ARC
  8
_0-0_0
  6
CONTINUOUS
 62
    7
 10
103.45254549999993
 20
480.34997599999997
 40
0.25
 50
90.000003000000007
 51
180.00000900000001
  0
LINE
  8
_0-0_0
  6
CONTINUOUS
 62
    7
 10
103.20254549999993
 20
480.34997599999997
 11
103.20254549999993
 21
479.69998199999998
  0
LINE
  8
_0-0_0
  6
CONTINUOUS
 62
    7
 10
102.80255149999994
 20
479.69998199999998
 11
103.20254549999993
 21
479.69998199999998
  0
LINE
  8
_0-0_0
  6
CONTINUOUS
 62
    7
 10
102.80255149999994
 20
479.69998199999998
 11
102.80255149999994
 21
480.34997599999997
  0
ARC
  8
_0-0_0
  6
CONTINUOUS
 62
    7
 10
102.55255149999994
 20
480.34997599999997
 40
0.25
 50
0
 51
90.000003000000007
  0
LINE
  8
_0-0_0
  6
CONTINUOUS
 62
    7
 10
101.90254249999998
 20
480.59997599999997
 11
102.55255149999994
 21
480.59997599999997
  0
LINE
  8
_0-0_0
  6
CONTINUOUS
 62
    7
 10
101.90254249999998
 20
480.59997599999997
 11
101.90254249999998
 21
481
  0
LINE
  8
_0-0_0
  6
CONTINUOUS
 62
    7
 10
102.55255149999994
 20
481
 11
101.90254249999998
 21
481
  0
ARC
  8
_0-0_0
  6
CONTINUOUS
 62
    7
 10
102.55255149999994
 20
481.25
 40
0.25
 50
269.99999700000001
 51
0
  0
LINE
  8
_0-0_0
  6
CONTINUOUS
 62
    7
 10
102.80255149999994
 20
481.25
 11
102.80255149999994
 21
481.89999399999999
  0
LINE
  8
_0-0_0
  6
CONTINUOUS
 62
    7
 10
103.20254549999993
 20
481.89999399999999
 11
102.80255149999994
 21
481.89999399999999
  0
LINE
  8
_0-0_0
  6
CONTINUOUS
 62
    7
 10
103.20254549999993
 20
481.89999399999999
 11
103.20254549999993
 21
481.25
  0
ARC
  8
_0-0_0
  6
CONTINUOUS
 62
    7
 10
103.45254549999993
 20
481.25
 40
0.25
 50
180.00000900000003
 51
269.99999700000001
  0
LINE
  8
_0-0_0
  6
CONTINUOUS
 62
    7
 10
104.10253849999998
 20
481
 11
103.45254549999993
 21
481
  0
LINE
  8
_0-0_0
  6
CONTINUOUS
 62
    7
 10
104.10253849999998
 20
481
 11
104.10253849999998
 21
480.59997599999997
  0
LINE
  8
_0-0_0
  6
CONTINUOUS
 62
    7
 10
104.55255149999994
 20
460.27694700000001
 11
104.55255149999994
 21
460.29998799999998
  0
LINE
  8
_0-0_0
  6
CONTINUOUS
 62
    7
 10
123.00253249999997
 20
478.29998799999998
 11
123.00253249999997
 21
465.34298699999999
  0
ARC
  8
_0-0_0
  6
CONTINUOUS
 62
    7
 10
120.00253249999997
 20
478.29998799999998
 40
3
 50
0
 51
90.000003000000007
  0
LINE
  8
_0-0_0
  6
CONTINUOUS
 62
    7
 10
159.00253249999997
 20
464.69998199999998
 11
159.00253249999997
 21
478.29998799999998
  0
LINE
  8
_0-0_0
  6
CONTINUOUS
 62
    7
 10
142.49002049999996
 20
474.46963499999998
 11
141.19003249999997
 21
477.96963499999998
  0
ARC
  8
_0-0_0
  6
CONTINUOUS
 62
    7
 10
139.70254549999993
 20
474.39999399999999
 40
0.2
 50
159.62357
 51
269.99999700000001
  0
LINE
  8
_0-0_0
  6
CONTINUOUS
 62
    7
 10
184.00253249999997
 20
479.89999399999999
 11
200.67800849999998
 21
479.89999399999999
  0
ARC
  8
_0-0_0
  6
CONTINUOUS
 62
    7
 10
200.67800849999998
 20
477.89999399999999
 40
2
 50
71.565000999999995
 51
90.000003000000007
  0
LINE
  8
_0-0_0
  6
CONTINUOUS
 62
    7
 10
201.31045549999999
 20
479.79736300000002
 11
201.19094849999999
 21
479.83297699999997
  0
LINE
  8
_0-0_0
  6
CONTINUOUS
 62
    7
 10
201.19094849999999
 20
479.83297699999997
 11
201.06939649999998
 21
479.86084
  0
LINE
  8
_0-0_0
  6
CONTINUOUS
 62
    7
 10
201.06939649999998
 20
479.86084
 11
200.94625849999994
 21
479.88088999999997
  0
LINE
  8
_0-0_0
  6
CONTINUOUS
 62
    7
 10
200.94625849999994
 20
479.88088999999997
 11
200.82205149999999
 21
479.89300500000002
  0
LINE
  8
_0-0_0
  6
CONTINUOUS
 62
    7
 10
200.82205149999999
 20
479.89300500000002
 11
200.69723549999998
 21
479.89712500000002
  0
LINE
  8
_0-0_0
  6
CONTINUOUS
 62
    7
 10
200.69723549999998
 20
479.89712500000002
 11
200.67800849999998
 21
479.897064
  0
LINE
  8
_0-0_0
  6
CONTINUOUS
 62
    7
 10
205.63497949999999
 20
478.35583500000001
 11
201.31045549999999
 21
479.79736300000002
  0
LINE
  8
_0-0_0
  6
CONTINUOUS
 62
    7
 10
205.47689849999995
 20
463.79998799999998
 11
206.17025749999999
 21
463.79998799999998
  0
LINE
  8
_0-0_0
  6
CONTINUOUS
 62
    7
 10
205.47689849999995
 20
463.79998799999998
 11
201.15231349999999
 21
463.79998799999998
  0
LINE
  8
_0-0_0
  6
CONTINUOUS
 62
    7
 10
200.67800849999998
 20
463.79998799999998
 11
201.15231349999999
 21
463.79998799999998
  0
LINE
  8
_0-0_0
  6
CONTINUOUS
 62
    7
 10
196.00253249999997
 20
463.79998799999998
 11
200.67800849999998
 21
463.79998799999998
  0
LINE
  8
_0-0_0
  6
CONTINUOUS
 62
    7
 10
207.00253249999997
 20
463.04995700000001
 11
207.00253249999997
 21
464.17095999999998
  0
LINE
  8
_0-0_0
  6
CONTINUOUS
 62
    7
 10
207.00253249999997
 20
465.092285
 11
207.00253249999997
 21
464.17095999999998
  0
LINE
  8
_0-0_0
  6
CONTINUOUS
 62
    7
 10
218.00253249999997
 20
463.84997599999997
 11
218.00253249999997
 21
471.83154300000001
  0
ARC
  8
_0-0_0
  6
CONTINUOUS
 62
    7
 10
211.82864349999994
 20
472.35086100000001
 40
4.9238749999999998
 50
352.49423299999995
 51
1.5359699999999901
  0
LINE
  8
_0-0_0
  6
CONTINUOUS
 62
    7
 10
216.71035749999999
 20
466.492279
 11
216.80471749999998
 21
466.738922
  0
LINE
  8
_0-0_0
  6
CONTINUOUS
 62
    7
 10
216.80471749999998
 20
466.738922
 11
216.88864149999995
 21
466.978882
  0
LINE
  8
_0-0_0
  6
CONTINUOUS
 62
    7
 10
216.88864149999995
 20
466.978882
 11
216.96279849999996
 21
467.21301299999999
  0
LINE
  8
_0-0_0
  6
CONTINUOUS
 62
    7
 10
216.96279849999996
 20
467.21301299999999
 11
217.02767949999998
 21
467.442047
  0
LINE
  8
_0-0_0
  6
CONTINUOUS
 62
    7
 10
217.02767949999998
 20
467.442047
 11
217.08374049999998
 21
467.666718
  0
LINE
  8
_0-0_0
  6
CONTINUOUS
 62
    7
 10
217.08374049999998
 20
467.666718
 11
217.13131749999997
 21
467.88769500000001
  0
LINE
  8
_0-0_0
  6
CONTINUOUS
 62
    7
 10
217.13131749999997
 20
467.88769500000001
 11
217.17068449999999
 21
468.10562099999999
  0
LINE
  8
_0-0_0
  6
CONTINUOUS
 62
    7
 10
217.17068449999999
 20
468.10562099999999
 11
217.20217849999995
 21
468.32104499999997
  0
LINE
  8
_0-0_0
  6
CONTINUOUS
 62
    7
 10
217.20217849999995
 20
468.32104499999997
 11
217.22598249999999
 21
468.53457700000001
  0
LINE
  8
_0-0_0
  6
CONTINUOUS
 62
    7
 10
217.22598249999999
 20
468.53457700000001
 11
217.24191249999996
 21
468.74230999999997
  0
LINE
  8
_0-0_0
  6
CONTINUOUS
 62
    7
 10
217.24191249999996
 20
468.74230999999997
 11
217.25064049999997
 21
468.94915800000001
  0
LINE
  8
_0-0_0
  6
CONTINUOUS
 62
    7
 10
217.25064049999997
 20
468.94915800000001
 11
217.25228849999996
 21
469.15560899999997
  0
LINE
  8
_0-0_0
  6
CONTINUOUS
 62
    7
 10
217.25228849999996
 20
469.15560899999997
 11
217.24682649999994
 21
469.362213
  0
LINE
  8
_0-0_0
  6
CONTINUOUS
 62
    7
 10
217.24682649999994
 20
469.362213
 11
217.23422249999999
 21
469.56939699999998
  0
LINE
  8
_0-0_0
  6
CONTINUOUS
 62
    7
 10
217.23422249999999
 20
469.56939699999998
 11
217.21438549999999
 21
469.77767999999998
  0
LINE
  8
_0-0_0
  6
CONTINUOUS
 62
    7
 10
217.21438549999999
 20
469.77767999999998
 11
217.18725549999999
 21
469.98761000000002
  0
LINE
  8
_0-0_0
  6
CONTINUOUS
 62
    7
 10
217.18725549999999
 20
469.98761000000002
 11
217.15261849999996
 21
470.19967700000001
  0
LINE
  8
_0-0_0
  6
CONTINUOUS
 62
    7
 10
217.15261849999996
 20
470.19967700000001
 11
217.11025949999998
 21
470.41442899999998
  0
LINE
  8
_0-0_0
  6
CONTINUOUS
 62
    7
 10
217.11025949999998
 20
470.41442899999998
 11
217.05993649999999
 21
470.63241599999998
  0
LINE
  8
_0-0_0
  6
CONTINUOUS
 62
    7
 10
217.05993649999999
 20
470.63241599999998
 11
217.00570649999997
 21
470.83871499999998
  0
LINE
  8
_0-0_0
  6
CONTINUOUS
 62
    7
 10
217.00570649999997
 20
470.83871499999998
 11
216.94400049999996
 21
471.04882800000001
  0
LINE
  8
_0-0_0
  6
CONTINUOUS
 62
    7
 10
216.94400049999996
 20
471.04882800000001
 11
216.87448149999994
 21
471.26327499999996
  0
LINE
  8
_0-0_0
  6
CONTINUOUS
 62
    7
 10
216.87448149999994
 20
471.26327499999996
 11
216.79675249999997
 21
471.48269699999997
  0
LINE
  8
_0-0_0
  6
CONTINUOUS
 62
    7
 10
216.79675249999997
 20
471.48269699999997
 11
216.71035749999999
 21
471.707672
  0
ARC
  8
_0-0_0
  6
CONTINUOUS
 62
    7
 10
211.83883649999996
 20
465.84997599999997
 40
4.9136889999999998
 50
352.48898799999995
 51
7.5110139999999577
  0
LINE
  8
_0-0_0
  6
CONTINUOUS
 62
    7
 10
216.71035749999999
 20
465.207672
 11
216.76486149999999
 21
465.13775599999997
  0
LINE
  8
_0-0_0
  6
CONTINUOUS
 62
    7
 10
216.76486149999999
 20
465.13775599999997
 11
216.81594849999999
 21
465.06890900000002
  0
LINE
  8
_0-0_0
  6
CONTINUOUS
 62
    7
 10
216.81594849999999
 20
465.06890900000002
 11
216.86361649999998
 21
465.00140399999998
  0
LINE
  8
_0-0_0
  6
CONTINUOUS
 62
    7
 10
216.86361649999998
 20
465.00140399999998
 11
216.90811149999996
 21
464.93487599999997
  0
LINE
  8
_0-0_0
  6
CONTINUOUS
 62
    7
 10
216.90811149999996
 20
464.93487599999997
 11
216.96279849999996
 21
464.84732099999997
  0
LINE
  8
_0-0_0
  6
CONTINUOUS
 62
    7
 10
216.96279849999996
 20
464.84732099999997
 11
217.01232949999996
 21
464.76123100000001
  0
LINE
  8
_0-0_0
  6
CONTINUOUS
 62
    7
 10
217.01232949999996
 20
464.76123100000001
 11
217.05679349999997
 21
464.67639199999996
  0
LINE
  8
_0-0_0
  6
CONTINUOUS
 62
    7
 10
217.05679349999997
 20
464.67639199999996
 11
217.10375949999997
 21
464.57607999999999
  0
LINE
  8
_0-0_0
  6
CONTINUOUS
 62
    7
 10
217.10375949999997
 20
464.57607999999999
 11
217.14395149999996
 21
464.47714200000001
  0
LINE
  8
_0-0_0
  6
CONTINUOUS
 62
    7
 10
217.14395149999996
 20
464.47714200000001
 11
217.17764249999999
 21
464.37939499999999
  0
LINE
  8
_0-0_0
  6
CONTINUOUS
 62
    7
 10
217.17764249999999
 20
464.37939499999999
 11
217.20492549999994
 21
464.28259300000002
  0
LINE
  8
_0-0_0
  6
CONTINUOUS
 62
    7
 10
217.20492549999994
 20
464.28259300000002
 11
217.22598249999999
 21
464.18652400000002
  0
LINE
  8
_0-0_0
  6
CONTINUOUS
 62
    7
 10
217.22598249999999
 20
464.18652400000002
 11
217.24191249999996
 21
464.082672
  0
LINE
  8
_0-0_0
  6
CONTINUOUS
 62
    7
 10
217.24191249999996
 20
464.082672
 11
217.25064049999997
 21
463.97924799999998
  0
LINE
  8
_0-0_0
  6
CONTINUOUS
 62
    7
 10
217.25064049999997
 20
463.97924799999998
 11
217.25228849999996
 21
463.87600700000002
  0
LINE
  8
_0-0_0
  6
CONTINUOUS
 62
    7
 10
217.25228849999996
 20
463.87600700000002
 11
217.24682649999994
 21
463.77273600000001
  0
LINE
  8
_0-0_0
  6
CONTINUOUS
 62
    7
 10
217.24682649999994
 20
463.77273600000001
 11
217.23422249999999
 21
463.669129
  0
LINE
  8
_0-0_0
  6
CONTINUOUS
 62
    7
 10
217.23422249999999
 20
463.669129
 11
217.21438549999999
 21
463.56497200000001
  0
LINE
  8
_0-0_0
  6
CONTINUOUS
 62
    7
 10
217.21438549999999
 20
463.56497200000001
 11
217.18725549999999
 21
463.46002199999998
  0
LINE
  8
_0-0_0
  6
CONTINUOUS
 62
    7
 10
217.18725549999999
 20
463.46002199999998
 11
217.15261849999996
 21
463.35400399999997
  0
LINE
  8
_0-0_0
  6
CONTINUOUS
 62
    7
 10
217.15261849999996
 20
463.35400399999997
 11
217.11025949999998
 21
463.24661299999997
  0
LINE
  8
_0-0_0
  6
CONTINUOUS
 62
    7
 10
217.11025949999998
 20
463.24661299999997
 11
217.05993649999999
 21
463.13760400000001
  0
LINE
  8
_0-0_0
  6
CONTINUOUS
 62
    7
 10
217.05993649999999
 20
463.13760400000001
 11
217.01425149999994
 21
463.04995700000001
  0
LINE
  8
_0-0_0
  6
CONTINUOUS
 62
    7
 10
207.00253249999997
 20
472.992279
 11
216.71035749999999
 21
472.992279
  0
LINE
  8
_0-0_0
  6
CONTINUOUS
 62
    7
 10
207.00253249999997
 20
471.707672
 11
207.00253249999997
 21
472.992279
  0
LINE
  8
_0-0_0
  6
CONTINUOUS
 62
    7
 10
207.00253249999997
 20
471.707672
 11
216.71035749999999
 21
471.707672
  0
ARC
  8
_0-0_0
  6
CONTINUOUS
 62
    7
 10
211.79061849999999
 20
472.34591699999999
 40
4.9620009999999999
 50
1.5813010000000001
 51
7.4847919999999997
  0
LINE
  8
_0-0_0
  6
CONTINUOUS
 62
    7
 10
206.70254549999999
 20
466.88797
 11
206.61907949999994
 21
467.26663200000002
  0
LINE
  8
_0-0_0
  6
CONTINUOUS
 62
    7
 10
206.61907949999994
 20
467.26663200000002
 11
206.57900949999998
 21
467.45816100000002
  0
LINE
  8
_0-0_0
  6
CONTINUOUS
 62
    7
 10
206.57900949999998
 20
467.45816100000002
 11
206.52291849999995
 21
467.7482
  0
LINE
  8
_0-0_0
  6
CONTINUOUS
 62
    7
 10
206.52291849999995
 20
467.7482
 11
206.48532049999994
 21
467.96777400000002
  0
LINE
  8
_0-0_0
  6
CONTINUOUS
 62
    7
 10
206.48532049999994
 20
467.96777400000002
 11
206.45266749999996
 21
468.18902600000001
  0
LINE
  8
_0-0_0
  6
CONTINUOUS
 62
    7
 10
206.45266749999996
 20
468.18902600000001
 11
206.42550649999998
 21
468.41583300000002
  0
LINE
  8
_0-0_0
  6
CONTINUOUS
 62
    7
 10
206.42550649999998
 20
468.41583300000002
 11
206.40542549999998
 21
468.64321899999999
  0
LINE
  8
_0-0_0
  6
CONTINUOUS
 62
    7
 10
206.40542549999998
 20
468.64321899999999
 11
206.39828449999999
 21
468.756958
  0
LINE
  8
_0-0_0
  6
CONTINUOUS
 62
    7
 10
206.39828449999999
 20
468.756958
 11
206.39312749999999
 21
468.87063599999999
  0
LINE
  8
_0-0_0
  6
CONTINUOUS
 62
    7
 10
206.39312749999999
 20
468.87063599999999
 11
206.38940449999996
 21
469.022064
  0
LINE
  8
_0-0_0
  6
CONTINUOUS
 62
    7
 10
206.38940449999996
 20
469.022064
 11
206.3893435
 21
469.17334
  0
LINE
  8
_0-0_0
  6
CONTINUOUS
 62
    7
 10
206.3893435
 20
469.17334
 11
206.39291349999996
 21
469.32437099999999
  0
LINE
  8
_0-0_0
  6
CONTINUOUS
 62
    7
 10
206.39291349999996
 20
469.32437099999999
 11
206.40243549999997
 21
469.51294000000001
  0
LINE
  8
_0-0_0
  6
CONTINUOUS
 62
    7
 10
206.40243549999997
 20
469.51294000000001
 11
206.41729749999996
 21
469.70117199999999
  0
LINE
  8
_0-0_0
  6
CONTINUOUS
 62
    7
 10
206.41729749999996
 20
469.70117199999999
 11
206.43722549999995
 21
469.88912999999997
  0
LINE
  8
_0-0_0
  6
CONTINUOUS
 62
    7
 10
206.43722549999995
 20
469.88912999999997
 11
206.45361349999996
 21
470.01800500000002
  0
LINE
  8
_0-0_0
  6
CONTINUOUS
 62
    7
 10
206.45361349999996
 20
470.01800500000002
 11
206.47201549999994
 21
470.146637
  0
LINE
  8
_0-0_0
  6
CONTINUOUS
 62
    7
 10
206.47201549999994
 20
470.146637
 11
206.49618549999997
 21
470.29858400000001
  0
LINE
  8
_0-0_0
  6
CONTINUOUS
 62
    7
 10
206.49618549999997
 20
470.29858400000001
 11
206.52258249999994
 21
470.44992100000002
  0
LINE
  8
_0-0_0
  6
CONTINUOUS
 62
    7
 10
206.52258249999994
 20
470.44992100000002
 11
206.57876549999997
 21
470.74054000000001
  0
LINE
  8
_0-0_0
  6
CONTINUOUS
 62
    7
 10
206.57876549999997
 20
470.74054000000001
 11
206.61892649999999
 21
470.93249500000002
  0
LINE
  8
_0-0_0
  6
CONTINUOUS
 62
    7
 10
206.61892649999999
 20
470.93249500000002
 11
206.70254549999999
 21
471.311981
  0
LINE
  8
_0-0_0
  6
CONTINUOUS
 62
    7
 10
207.00253249999997
 20
467.53793300000001
 11
207.00253249999997
 21
470.66204799999997
  0
LINE
  8
_0-0_0
  6
CONTINUOUS
 62
    7
 10
231.75256349999995
 20
459.57455499999998
 11
231.50256349999995
 21
459.54998799999998
  0
LINE
  8
_0-0_0
  6
CONTINUOUS
 62
    7
 10
231.50256349999995
 20
459.54998799999998
 11
222.25256349999995
 21
459.54998799999998
  0
LINE
  8
_0-0_0
  6
CONTINUOUS
 62
    7
 10
222.00256349999995
 20
459.57455499999998
 11
222.25256349999995
 21
459.54998799999998
  0
LINE
  8
_0-0_0
  6
CONTINUOUS
 62
    7
 10
231.75256349999995
 20
462.54855399999997
 11
231.50256349999995
 21
462.82254
  0
LINE
  8
_0-0_0
  6
CONTINUOUS
 62
    7
 10
231.75256349999995
 20
462.54855399999997
 11
231.50256349999995
 21
462.65783699999997
  0
LINE
  8
_0-0_0
  6
CONTINUOUS
 62
    7
 10
231.75256349999995
 20
462.390961
 11
231.50256349999995
 21
462.65783699999997
  0
LINE
  8
_0-0_0
  6
CONTINUOUS
 62
    7
 10
231.75256349999995
 20
462.390961
 11
231.50256349999995
 21
462.47280899999998
  0
LINE
  8
_0-0_0
  6
CONTINUOUS
 62
    7
 10
231.75256349999995
 20
462.21597300000002
 11
231.50256349999995
 21
462.47280899999998
  0
LINE
  8
_0-0_0
  6
CONTINUOUS
 62
    7
 10
231.75256349999995
 20
462.21597300000002
 11
231.50256349999995
 21
462.26943999999997
  0
LINE
  8
_0-0_0
  6
CONTINUOUS
 62
    7
 10
231.75256349999995
 20
462.02542099999999
 11
231.50256349999995
 21
462.26943999999997
  0
LINE
  8
_0-0_0
  6
CONTINUOUS
 62
    7
 10
231.75256349999995
 20
462.02542099999999
 11
231.50256349999995
 21
462.04998799999998
  0
LINE
  8
_0-0_0
  6
CONTINUOUS
 62
    7
 10
231.75256349999995
 20
461.82147199999997
 11
231.50256349999995
 21
462.04998799999998
  0
LINE
  8
_0-0_0
  6
CONTINUOUS
 62
    7
 10
231.75256349999995
 20
461.82147199999997
 11
231.50256349999995
 21
461.81683399999997
  0
LINE
  8
_0-0_0
  6
CONTINUOUS
 62
    7
 10
231.75256349999995
 20
461.60632299999997
 11
231.50256349999995
 21
461.81683399999997
  0
LINE
  8
_0-0_0
  6
CONTINUOUS
 62
    7
 10
231.75256349999995
 20
461.60632299999997
 11
231.50256349999995
 21
461.57254
  0
LINE
  8
_0-0_0
  6
CONTINUOUS
 62
    7
 10
231.75256349999995
 20
461.38232399999998
 11
231.50256349999995
 21
461.57254
  0
LINE
  8
_0-0_0
  6
CONTINUOUS
 62
    7
 10
231.75256349999995
 20
461.38232399999998
 11
231.50256349999995
 21
461.31976299999997
  0
LINE
  8
_0-0_0
  6
CONTINUOUS
 62
    7
 10
231.75256349999995
 20
461.15197799999999
 11
231.50256349999995
 21
461.31976299999997
  0
LINE
  8
_0-0_0
  6
CONTINUOUS
 62
    7
 10
231.75256349999995
 20
461.15197799999999
 11
231.50256349999995
 21
461.06130999999999
  0
LINE
  8
_0-0_0
  6
CONTINUOUS
 62
    7
 10
231.75256349999995
 20
460.917755
 11
231.50256349999995
 21
461.06130999999999
  0
LINE
  8
_0-0_0
  6
CONTINUOUS
 62
    7
 10
231.75256349999995
 20
460.917755
 11
231.50256349999995
 21
460.79998799999998
  0
LINE
  8
_0-0_0
  6
CONTINUOUS
 62
    7
 10
231.75256349999995
 20
460.68222099999997
 11
231.50256349999995
 21
460.79998799999998
  0
LINE
  8
_0-0_0
  6
CONTINUOUS
 62
    7
 10
231.75256349999995
 20
460.68222099999997
 11
231.50256349999995
 21
460.53866599999998
  0
LINE
  8
_0-0_0
  6
CONTINUOUS
 62
    7
 10
231.75256349999995
 20
460.44799799999998
 11
231.50256349999995
 21
460.53866599999998
  0
LINE
  8
_0-0_0
  6
CONTINUOUS
 62
    7
 10
231.75256349999995
 20
460.44799799999998
 11
231.50256349999995
 21
460.280213
  0
LINE
  8
_0-0_0
  6
CONTINUOUS
 62
    7
 10
231.75256349999995
 20
460.21765099999999
 11
231.50256349999995
 21
460.280213
  0
LINE
  8
_0-0_0
  6
CONTINUOUS
 62
    7
 10
231.75256349999995
 20
460.21765099999999
 11
231.50256349999995
 21
460.02743499999997
  0
LINE
  8
_0-0_0
  6
CONTINUOUS
 62
    7
 10
231.75256349999995
 20
459.993652
 11
231.50256349999995
 21
460.02743499999997
  0
LINE
  8
_0-0_0
  6
CONTINUOUS
 62
    7
 10
231.75256349999995
 20
459.993652
 11
231.50256349999995
 21
459.783142
  0
LINE
  8
_0-0_0
  6
CONTINUOUS
 62
    7
 10
231.75256349999995
 20
459.778504
 11
231.50256349999995
 21
459.783142
  0
LINE
  8
_0-0_0
  6
CONTINUOUS
 62
    7
 10
231.75256349999995
 20
459.778504
 11
231.50256349999995
 21
459.54998799999998
  0
LINE
  8
_0-0_0
  6
CONTINUOUS
 62
    7
 10
231.75256349999995
 20
459.57455499999998
 11
231.50256349999995
 21
459.330536
  0
LINE
  8
_0-0_0
  6
CONTINUOUS
 62
    7
 10
231.75256349999995
 20
459.38400300000001
 11
231.50256349999995
 21
459.330536
  0
LINE
  8
_0-0_0
  6
CONTINUOUS
 62
    7
 10
231.75256349999995
 20
459.38400300000001
 11
231.50256349999995
 21
459.12716699999999
  0
LINE
  8
_0-0_0
  6
CONTINUOUS
 62
    7
 10
231.75256349999995
 20
459.20898399999999
 11
231.50256349999995
 21
459.12716699999999
  0
LINE
  8
_0-0_0
  6
CONTINUOUS
 62
    7
 10
231.75256349999995
 20
459.20898399999999
 11
231.50256349999995
 21
458.94210800000002
  0
LINE
  8
_0-0_0
  6
CONTINUOUS
 62
    7
 10
231.75256349999995
 20
459.051422
 11
231.50256349999995
 21
458.94210800000002
  0
LINE
  8
_0-0_0
  6
CONTINUOUS
 62
    7
 10
231.75256349999995
 20
459.051422
 11
231.50256349999995
 21
458.77743499999997
  0
LINE
  8
_0-0_0
  6
CONTINUOUS
 62
    7
 10
231.75256349999995
 20
458.91299399999997
 11
231.50256349999995
 21
458.77743499999997
  0
LINE
  8
_0-0_0
  6
CONTINUOUS
 62
    7
 10
231.75256349999995
 20
458.91299399999997
 11
231.50256349999995
 21
458.63491799999997
  0
LINE
  8
_0-0_0
  6
CONTINUOUS
 62
    7
 10
231.75256349999995
 20
458.79522700000001
 11
231.50256349999995
 21
458.63491799999997
  0
LINE
  8
_0-0_0
  6
CONTINUOUS
 62
    7
 10
231.75256349999995
 20
458.79522700000001
 11
231.50256349999995
 21
458.51611300000002
  0
LINE
  8
_0-0_0
  6
CONTINUOUS
 62
    7
 10
231.75256349999995
 20
458.699432
 11
231.50256349999995
 21
458.51611300000002
  0
LINE
  8
_0-0_0
  6
CONTINUOUS
 62
    7
 10
231.75256349999995
 20
458.699432
 11
231.50256349999995
 21
458.42233299999998
  0
LINE
  8
_0-0_0
  6
CONTINUOUS
 62
    7
 10
231.75256349999995
 20
458.62664799999999
 11
231.50256349999995
 21
458.42233299999998
  0
LINE
  8
_0-0_0
  6
CONTINUOUS
 62
    7
 10
231.75256349999995
 20
458.62664799999999
 11
231.50256349999995
 21
458.35461399999997
  0
LINE
  8
_0-0_0
  6
CONTINUOUS
 62
    7
 10
231.75256349999995
 20
458.577698
 11
231.50256349999995
 21
458.35461399999997
  0
LINE
  8
_0-0_0
  6
CONTINUOUS
 62
    7
 10
231.75256349999995
 20
458.577698
 11
231.50256349999995
 21
458.31369000000001
  0
LINE
  8
_0-0_0
  6
CONTINUOUS
 62
    7
 10
231.75256349999995
 20
458.55306999999999
 11
231.50256349999995
 21
458.31369000000001
  0
LINE
  8
_0-0_0
  6
CONTINUOUS
 62
    7
 10
231.75256349999995
 20
458.55306999999999
 11
231.50256349999995
 21
458.29998799999998
  0
LINE
  8
_0-0_0
  6
CONTINUOUS
 62
    7
 10
232.00256349999995
 20
458.79998799999998
 11
232.00256349999995
 21
462.55514499999998
  0
LINE
  8
_0-0_0
  6
CONTINUOUS
 62
    7
 10
231.62258949999995
 20
462.88861099999997
 11
231.50256349999995
 21
462.965057
  0
LINE
  8
_0-0_0
  6
CONTINUOUS
 62
    7
 10
231.75256349999995
 20
462.686981
 11
231.50256349999995
 21
462.965057
  0
LINE
  8
_0-0_0
  6
CONTINUOUS
 62
    7
 10
231.75256349999995
 20
462.686981
 11
231.50256349999995
 21
462.82254
  0
LINE
  8
_0-0_0
  6
CONTINUOUS
 62
    7
 10
231.50256349999995
 20
462.65783699999997
 11
222.25256349999995
 21
462.65783699999997
  0
LINE
  8
_0-0_0
  6
CONTINUOUS
 62
    7
 10
222.00256349999995
 20
462.54855399999997
 11
222.25256349999995
 21
462.65783699999997
  0
LINE
  8
_0-0_0
  6
CONTINUOUS
 62
    7
 10
231.50256349999995
 20
462.47280899999998
 11
222.25256349999995
 21
462.47280899999998
  0
LINE
  8
_0-0_0
  6
CONTINUOUS
 62
    7
 10
222.00256349999995
 20
462.390961
 11
222.25256349999995
 21
462.47280899999998
  0
LINE
  8
_0-0_0
  6
CONTINUOUS
 62
    7
 10
231.50256349999995
 20
462.26943999999997
 11
222.25256349999995
 21
462.26943999999997
  0
LINE
  8
_0-0_0
  6
CONTINUOUS
 62
    7
 10
222.00256349999995
 20
462.21597300000002
 11
222.25256349999995
 21
462.26943999999997
  0
LINE
  8
_0-0_0
  6
CONTINUOUS
 62
    7
 10
231.50256349999995
 20
462.04998799999998
 11
222.25256349999995
 21
462.04998799999998
  0
LINE
  8
_0-0_0
  6
CONTINUOUS
 62
    7
 10
222.00256349999995
 20
462.02542099999999
 11
222.25256349999995
 21
462.04998799999998
  0
LINE
  8
_0-0_0
  6
CONTINUOUS
 62
    7
 10
231.50256349999995
 20
461.81683399999997
 11
222.25256349999995
 21
461.81683399999997
  0
LINE
  8
_0-0_0
  6
CONTINUOUS
 62
    7
 10
231.75256349999995
 20
461.82147199999997
 11
222.00256349999995
 21
461.82147199999997
  0
LINE
  8
_0-0_0
  6
CONTINUOUS
 62
    7
 10
222.00256349999995
 20
461.82147199999997
 11
222.25256349999995
 21
461.81683399999997
  0
LINE
  8
_0-0_0
  6
CONTINUOUS
 62
    7
 10
231.50256349999995
 20
461.57254
 11
222.25256349999995
 21
461.57254
  0
LINE
  8
_0-0_0
  6
CONTINUOUS
 62
    7
 10
231.75256349999995
 20
461.60632299999997
 11
222.00256349999995
 21
461.60632299999997
  0
LINE
  8
_0-0_0
  6
CONTINUOUS
 62
    7
 10
222.00256349999995
 20
461.60632299999997
 11
222.25256349999995
 21
461.57254
  0
LINE
  8
_0-0_0
  6
CONTINUOUS
 62
    7
 10
231.50256349999995
 20
461.31976299999997
 11
222.25256349999995
 21
461.31976299999997
  0
LINE
  8
_0-0_0
  6
CONTINUOUS
 62
    7
 10
231.75256349999995
 20
461.38232399999998
 11
222.00256349999995
 21
461.38232399999998
  0
LINE
  8
_0-0_0
  6
CONTINUOUS
 62
    7
 10
222.00256349999995
 20
461.38232399999998
 11
222.25256349999995
 21
461.31976299999997
  0
LINE
  8
_0-0_0
  6
CONTINUOUS
 62
    7
 10
231.50256349999995
 20
461.06130999999999
 11
222.25256349999995
 21
461.06130999999999
  0
LINE
  8
_0-0_0
  6
CONTINUOUS
 62
    7
 10
231.75256349999995
 20
461.15197799999999
 11
222.00256349999995
 21
461.15197799999999
  0
LINE
  8
_0-0_0
  6
CONTINUOUS
 62
    7
 10
222.00256349999995
 20
461.15197799999999
 11
222.25256349999995
 21
461.06130999999999
  0
LINE
  8
_0-0_0
  6
CONTINUOUS
 62
    7
 10
231.50256349999995
 20
460.79998799999998
 11
222.25256349999995
 21
460.79998799999998
  0
LINE
  8
_0-0_0
  6
CONTINUOUS
 62
    7
 10
231.75256349999995
 20
460.917755
 11
222.00256349999995
 21
460.917755
  0
LINE
  8
_0-0_0
  6
CONTINUOUS
 62
    7
 10
222.00256349999995
 20
460.917755
 11
222.25256349999995
 21
460.79998799999998
  0
LINE
  8
_0-0_0
  6
CONTINUOUS
 62
    7
 10
231.50256349999995
 20
460.53866599999998
 11
222.25256349999995
 21
460.53866599999998
  0
LINE
  8
_0-0_0
  6
CONTINUOUS
 62
    7
 10
231.75256349999995
 20
460.68222099999997
 11
222.00256349999995
 21
460.68222099999997
  0
LINE
  8
_0-0_0
  6
CONTINUOUS
 62
    7
 10
222.00256349999995
 20
460.68222099999997
 11
222.25256349999995
 21
460.53866599999998
  0
LINE
  8
_0-0_0
  6
CONTINUOUS
 62
    7
 10
231.50256349999995
 20
460.280213
 11
222.25256349999995
 21
460.280213
  0
LINE
  8
_0-0_0
  6
CONTINUOUS
 62
    7
 10
231.75256349999995
 20
460.44799799999998
 11
222.00256349999995
 21
460.44799799999998
  0
LINE
  8
_0-0_0
  6
CONTINUOUS
 62
    7
 10
222.00256349999995
 20
460.44799799999998
 11
222.25256349999995
 21
460.280213
  0
LINE
  8
_0-0_0
  6
CONTINUOUS
 62
    7
 10
231.50256349999995
 20
460.02743499999997
 11
222.25256349999995
 21
460.02743499999997
  0
LINE
  8
_0-0_0
  6
CONTINUOUS
 62
    7
 10
231.75256349999995
 20
460.21765099999999
 11
222.00256349999995
 21
460.21765099999999
  0
LINE
  8
_0-0_0
  6
CONTINUOUS
 62
    7
 10
222.00256349999995
 20
460.21765099999999
 11
222.25256349999995
 21
460.02743499999997
  0
LINE
  8
_0-0_0
  6
CONTINUOUS
 62
    7
 10
231.50256349999995
 20
459.783142
 11
222.25256349999995
 21
459.783142
  0
LINE
  8
_0-0_0
  6
CONTINUOUS
 62
    7
 10
231.75256349999995
 20
459.993652
 11
222.00256349999995
 21
459.993652
  0
LINE
  8
_0-0_0
  6
CONTINUOUS
 62
    7
 10
222.00256349999995
 20
459.993652
 11
222.25256349999995
 21
459.783142
  0
LINE
  8
_0-0_0
  6
CONTINUOUS
 62
    7
 10
231.50256349999995
 20
459.12716699999999
 11
222.25256349999995
 21
459.12716699999999
  0
LINE
  8
_0-0_0
  6
CONTINUOUS
 62
    7
 10
222.00256349999995
 20
459.38400300000001
 11
222.25256349999995
 21
459.12716699999999
  0
LINE
  8
_0-0_0
  6
CONTINUOUS
 62
    7
 10
231.50256349999995
 20
458.94210800000002
 11
222.25256349999995
 21
458.94210800000002
  0
LINE
  8
_0-0_0
  6
CONTINUOUS
 62
    7
 10
222.00256349999995
 20
459.20898399999999
 11
222.25256349999995
 21
458.94210800000002
  0
LINE
  8
_0-0_0
  6
CONTINUOUS
 62
    7
 10
231.50256349999995
 20
458.77743499999997
 11
222.25256349999995
 21
458.77743499999997
  0
LINE
  8
_0-0_0
  6
CONTINUOUS
 62
    7
 10
222.00256349999995
 20
459.051422
 11
222.25256349999995
 21
458.77743499999997
  0
LINE
  8
_0-0_0
  6
CONTINUOUS
 62
    7
 10
231.50256349999995
 20
458.63491799999997
 11
222.25256349999995
 21
458.63491799999997
  0
LINE
  8
_0-0_0
  6
CONTINUOUS
 62
    7
 10
222.00256349999995
 20
458.91299399999997
 11
222.25256349999995
 21
458.63491799999997
  0
LINE
  8
_0-0_0
  6
CONTINUOUS
 62
    7
 10
231.50256349999995
 20
458.51611300000002
 11
222.25256349999995
 21
458.51611300000002
  0
LINE
  8
_0-0_0
  6
CONTINUOUS
 62
    7
 10
222.00256349999995
 20
458.79522700000001
 11
222.25256349999995
 21
458.51611300000002
  0
LINE
  8
_0-0_0
  6
CONTINUOUS
 62
    7
 10
231.50256349999995
 20
458.42233299999998
 11
222.25256349999995
 21
458.42233299999998
  0
LINE
  8
_0-0_0
  6
CONTINUOUS
 62
    7
 10
222.00256349999995
 20
458.699432
 11
222.25256349999995
 21
458.42233299999998
  0
LINE
  8
_0-0_0
  6
CONTINUOUS
 62
    7
 10
231.50256349999995
 20
458.35461399999997
 11
222.25256349999995
 21
458.35461399999997
  0
LINE
  8
_0-0_0
  6
CONTINUOUS
 62
    7
 10
222.00256349999995
 20
458.62664799999999
 11
222.25256349999995
 21
458.35461399999997
  0
LINE
  8
_0-0_0
  6
CONTINUOUS
 62
    7
 10
231.50256349999995
 20
458.31369000000001
 11
222.25256349999995
 21
458.31369000000001
  0
LINE
  8
_0-0_0
  6
CONTINUOUS
 62
    7
 10
222.00256349999995
 20
458.577698
 11
222.25256349999995
 21
458.31369000000001
  0
LINE
  8
_0-0_0
  6
CONTINUOUS
 62
    7
 10
231.50256349999995
 20
458.29998799999998
 11
222.25256349999995
 21
458.29998799999998
  0
LINE
  8
_0-0_0
  6
CONTINUOUS
 62
    7
 10
222.00256349999995
 20
458.55306999999999
 11
222.25256349999995
 21
458.29998799999998
  0
LINE
  8
_0-0_0
  6
CONTINUOUS
 62
    7
 10
231.50256349999995
 20
462.965057
 11
222.25256349999995
 21
462.965057
  0
LINE
  8
_0-0_0
  6
CONTINUOUS
 62
    7
 10
231.75256349999995
 20
462.80474900000002
 11
231.62258949999995
 21
462.88861099999997
  0
LINE
  8
_0-0_0
  6
CONTINUOUS
 62
    7
 10
222.00256349999995
 20
462.80474900000002
 11
222.13250749999997
 21
462.88861099999997
  0
LINE
  8
_0-0_0
  6
CONTINUOUS
 62
    7
 10
222.13250749999997
 20
462.88861099999997
 11
222.25256349999995
 21
462.965057
  0
LINE
  8
_0-0_0
  6
CONTINUOUS
 62
    7
 10
231.50256349999995
 20
462.82254
 11
222.25256349999995
 21
462.82254
  0
LINE
  8
_0-0_0
  6
CONTINUOUS
 62
    7
 10
222.00256349999995
 20
462.686981
 11
222.25256349999995
 21
462.82254
  0
LINE
  8
_0-0_0
  6
CONTINUOUS
 62
    7
 10
231.75256349999995
 20
462.80474900000002
 11
231.50256349999995
 21
463.08386200000001
  0
LINE
  8
_0-0_0
  6
CONTINUOUS
 62
    7
 10
231.50256349999995
 20
463.08386200000001
 11
222.25256349999995
 21
463.08386200000001
  0
LINE
  8
_0-0_0
  6
CONTINUOUS
 62
    7
 10
222.00256349999995
 20
462.80474900000002
 11
222.25256349999995
 21
463.08386200000001
  0
LINE
  8
_0-0_0
  6
CONTINUOUS
 62
    7
 10
231.75256349999995
 20
462.90054299999997
 11
231.50256349999995
 21
463.08386200000001
  0
LINE
  8
_0-0_0
  6
CONTINUOUS
 62
    7
 10
222.00256349999995
 20
462.90054299999997
 11
222.25256349999995
 21
463.08386200000001
  0
LINE
  8
_0-0_0
  6
CONTINUOUS
 62
    7
 10
231.75256349999995
 20
462.90054299999997
 11
231.50256349999995
 21
463.17764299999999
  0
LINE
  8
_0-0_0
  6
CONTINUOUS
 62
    7
 10
231.50256349999995
 20
463.17764299999999
 11
222.25256349999995
 21
463.17764299999999
  0
LINE
  8
_0-0_0
  6
CONTINUOUS
 62
    7
 10
222.00256349999995
 20
462.90054299999997
 11
222.25256349999995
 21
463.17764299999999
  0
LINE
  8
_0-0_0
  6
CONTINUOUS
 62
    7
 10
231.75256349999995
 20
462.97332799999998
 11
231.50256349999995
 21
463.17764299999999
  0
LINE
  8
_0-0_0
  6
CONTINUOUS
 62
    7
 10
222.00256349999995
 20
462.97332799999998
 11
222.25256349999995
 21
463.17764299999999
  0
LINE
  8
_0-0_0
  6
CONTINUOUS
 62
    7
 10
231.75256349999995
 20
462.97332799999998
 11
231.50256349999995
 21
463.245361
  0
LINE
  8
_0-0_0
  6
CONTINUOUS
 62
    7
 10
231.50256349999995
 20
463.245361
 11
222.25256349999995
 21
463.245361
  0
LINE
  8
_0-0_0
  6
CONTINUOUS
 62
    7
 10
222.00256349999995
 20
462.97332799999998
 11
222.25256349999995
 21
463.245361
  0
LINE
  8
_0-0_0
  6
CONTINUOUS
 62
    7
 10
231.75256349999995
 20
463.02227799999997
 11
231.50256349999995
 21
463.245361
  0
LINE
  8
_0-0_0
  6
CONTINUOUS
 62
    7
 10
222.00256349999995
 20
463.02227799999997
 11
222.25256349999995
 21
463.245361
  0
LINE
  8
_0-0_0
  6
CONTINUOUS
 62
    7
 10
231.75256349999995
 20
463.02227799999997
 11
231.50256349999995
 21
463.28628600000002
  0
LINE
  8
_0-0_0
  6
CONTINUOUS
 62
    7
 10
231.50256349999995
 20
463.28628600000002
 11
222.25256349999995
 21
463.28628600000002
  0
LINE
  8
_0-0_0
  6
CONTINUOUS
 62
    7
 10
222.00256349999995
 20
463.02227799999997
 11
222.25256349999995
 21
463.28628600000002
  0
LINE
  8
_0-0_0
  6
CONTINUOUS
 62
    7
 10
231.75256349999995
 20
463.04690599999998
 11
231.50256349999995
 21
463.28628600000002
  0
LINE
  8
_0-0_0
  6
CONTINUOUS
 62
    7
 10
222.00256349999995
 20
463.04690599999998
 11
222.25256349999995
 21
463.28628600000002
  0
LINE
  8
_0-0_0
  6
CONTINUOUS
 62
    7
 10
231.75256349999995
 20
463.04690599999998
 11
231.50256349999995
 21
463.29998799999998
  0
LINE
  8
_0-0_0
  6
CONTINUOUS
 62
    7
 10
231.50256349999995
 20
463.29998799999998
 11
222.25256349999995
 21
463.29998799999998
  0
LINE
  8
_0-0_0
  6
CONTINUOUS
 62
    7
 10
222.00256349999995
 20
463.04690599999998
 11
222.25256349999995
 21
463.29998799999998
  0
LINE
  8
_0-0_0
  6
CONTINUOUS
 62
    7
 10
231.75256349999995
 20
476.17456099999998
 11
231.50256349999995
 21
476.14999399999999
  0
LINE
  8
_0-0_0
  6
CONTINUOUS
 62
    7
 10
231.50256349999995
 20
476.14999399999999
 11
222.25256349999995
 21
476.14999399999999
  0
LINE
  8
_0-0_0
  6
CONTINUOUS
 62
    7
 10
222.00256349999995
 20
476.17456099999998
 11
222.25256349999995
 21
476.14999399999999
  0
LINE
  8
_0-0_0
  6
CONTINUOUS
 62
    7
 10
231.75256349999995
 20
479.14855999999997
 11
231.50256349999995
 21
479.42251599999997
  0
LINE
  8
_0-0_0
  6
CONTINUOUS
 62
    7
 10
231.75256349999995
 20
479.14855999999997
 11
231.50256349999995
 21
479.25784299999998
  0
LINE
  8
_0-0_0
  6
CONTINUOUS
 62
    7
 10
231.75256349999995
 20
478.99096700000001
 11
231.50256349999995
 21
479.25784299999998
  0
LINE
  8
_0-0_0
  6
CONTINUOUS
 62
    7
 10
231.75256349999995
 20
478.99096700000001
 11
231.50256349999995
 21
479.07281499999999
  0
LINE
  8
_0-0_0
  6
CONTINUOUS
 62
    7
 10
231.75256349999995
 20
478.81594899999999
 11
231.50256349999995
 21
479.07281499999999
  0
LINE
  8
_0-0_0
  6
CONTINUOUS
 62
    7
 10
231.75256349999995
 20
478.81594899999999
 11
231.50256349999995
 21
478.86944599999998
  0
LINE
  8
_0-0_0
  6
CONTINUOUS
 62
    7
 10
231.75256349999995
 20
478.625427
 11
231.50256349999995
 21
478.86944599999998
  0
LINE
  8
_0-0_0
  6
CONTINUOUS
 62
    7
 10
231.75256349999995
 20
478.625427
 11
231.50256349999995
 21
478.64999399999999
  0
LINE
  8
_0-0_0
  6
CONTINUOUS
 62
    7
 10
231.75256349999995
 20
478.42147799999998
 11
231.50256349999995
 21
478.64999399999999
  0
LINE
  8
_0-0_0
  6
CONTINUOUS
 62
    7
 10
231.75256349999995
 20
478.42147799999998
 11
231.50256349999995
 21
478.41683999999998
  0
LINE
  8
_0-0_0
  6
CONTINUOUS
 62
    7
 10
231.75256349999995
 20
478.20632899999998
 11
231.50256349999995
 21
478.41683999999998
  0
LINE
  8
_0-0_0
  6
CONTINUOUS
 62
    7
 10
231.75256349999995
 20
478.20632899999998
 11
231.50256349999995
 21
478.17251599999997
  0
LINE
  8
_0-0_0
  6
CONTINUOUS
 62
    7
 10
231.75256349999995
 20
477.98232999999999
 11
231.50256349999995
 21
478.17251599999997
  0
LINE
  8
_0-0_0
  6
CONTINUOUS
 62
    7
 10
231.75256349999995
 20
477.98232999999999
 11
231.50256349999995
 21
477.91976899999997
  0
LINE
  8
_0-0_0
  6
CONTINUOUS
 62
    7
 10
231.75256349999995
 20
477.75195300000001
 11
231.50256349999995
 21
477.91976899999997
  0
LINE
  8
_0-0_0
  6
CONTINUOUS
 62
    7
 10
231.75256349999995
 20
477.75195300000001
 11
231.50256349999995
 21
477.661316
  0
LINE
  8
_0-0_0
  6
CONTINUOUS
 62
    7
 10
231.75256349999995
 20
477.51773099999997
 11
231.50256349999995
 21
477.661316
  0
LINE
  8
_0-0_0
  6
CONTINUOUS
 62
    7
 10
231.75256349999995
 20
477.51773099999997
 11
231.50256349999995
 21
477.39999399999999
  0
LINE
  8
_0-0_0
  6
CONTINUOUS
 62
    7
 10
231.75256349999995
 20
477.28222699999998
 11
231.50256349999995
 21
477.39999399999999
  0
LINE
  8
_0-0_0
  6
CONTINUOUS
 62
    7
 10
231.75256349999995
 20
477.28222699999998
 11
231.50256349999995
 21
477.13867199999999
  0
LINE
  8
_0-0_0
  6
CONTINUOUS
 62
    7
 10
231.75256349999995
 20
477.04800399999999
 11
231.50256349999995
 21
477.13867199999999
  0
LINE
  8
_0-0_0
  6
CONTINUOUS
 62
    7
 10
231.75256349999995
 20
477.04800399999999
 11
231.50256349999995
 21
476.88021900000001
  0
LINE
  8
_0-0_0
  6
CONTINUOUS
 62
    7
 10
231.75256349999995
 20
476.81765799999999
 11
231.50256349999995
 21
476.88021900000001
  0
LINE
  8
_0-0_0
  6
CONTINUOUS
 62
    7
 10
231.75256349999995
 20
476.81765799999999
 11
231.50256349999995
 21
476.62744199999997
  0
LINE
  8
_0-0_0
  6
CONTINUOUS
 62
    7
 10
231.75256349999995
 20
476.593659
 11
231.50256349999995
 21
476.62744199999997
  0
LINE
  8
_0-0_0
  6
CONTINUOUS
 62
    7
 10
231.75256349999995
 20
476.593659
 11
231.50256349999995
 21
476.38314800000001
  0
LINE
  8
_0-0_0
  6
CONTINUOUS
 62
    7
 10
231.75256349999995
 20
476.37851000000001
 11
231.50256349999995
 21
476.38314800000001
  0
LINE
  8
_0-0_0
  6
CONTINUOUS
 62
    7
 10
231.75256349999995
 20
476.37851000000001
 11
231.50256349999995
 21
476.14999399999999
  0
LINE
  8
_0-0_0
  6
CONTINUOUS
 62
    7
 10
231.75256349999995
 20
476.17456099999998
 11
231.50256349999995
 21
475.93051199999996
  0
LINE
  8
_0-0_0
  6
CONTINUOUS
 62
    7
 10
231.75256349999995
 20
475.98400900000001
 11
231.50256349999995
 21
475.93051199999996
  0
LINE
  8
_0-0_0
  6
CONTINUOUS
 62
    7
 10
231.75256349999995
 20
475.98400900000001
 11
231.50256349999995
 21
475.72717299999999
  0
LINE
  8
_0-0_0
  6
CONTINUOUS
 62
    7
 10
231.75256349999995
 20
475.80899099999999
 11
231.50256349999995
 21
475.72717299999999
  0
LINE
  8
_0-0_0
  6
CONTINUOUS
 62
    7
 10
231.75256349999995
 20
475.80899099999999
 11
231.50256349999995
 21
475.54211399999997
  0
LINE
  8
_0-0_0
  6
CONTINUOUS
 62
    7
 10
231.75256349999995
 20
475.65139799999997
 11
231.50256349999995
 21
475.54211399999997
  0
LINE
  8
_0-0_0
  6
CONTINUOUS
 62
    7
 10
231.75256349999995
 20
475.65139799999997
 11
231.50256349999995
 21
475.37744199999997
  0
LINE
  8
_0-0_0
  6
CONTINUOUS
 62
    7
 10
231.75256349999995
 20
475.51297
 11
231.50256349999995
 21
475.37744199999997
  0
LINE
  8
_0-0_0
  6
CONTINUOUS
 62
    7
 10
231.75256349999995
 20
475.51297
 11
231.50256349999995
 21
475.23492399999998
  0
LINE
  8
_0-0_0
  6
CONTINUOUS
 62
    7
 10
231.75256349999995
 20
475.39523300000002
 11
231.50256349999995
 21
475.23492399999998
  0
LINE
  8
_0-0_0
  6
CONTINUOUS
 62
    7
 10
231.75256349999995
 20
475.39523300000002
 11
231.50256349999995
 21
475.11611899999997
  0
LINE
  8
_0-0_0
  6
CONTINUOUS
 62
    7
 10
231.75256349999995
 20
475.29943900000001
 11
231.50256349999995
 21
475.11611899999997
  0
LINE
  8
_0-0_0
  6
CONTINUOUS
 62
    7
 10
231.75256349999995
 20
475.29943900000001
 11
231.50256349999995
 21
475.02233899999999
  0
LINE
  8
_0-0_0
  6
CONTINUOUS
 62
    7
 10
231.75256349999995
 20
475.226654
 11
231.50256349999995
 21
475.02233899999999
  0
LINE
  8
_0-0_0
  6
CONTINUOUS
 62
    7
 10
231.75256349999995
 20
475.226654
 11
231.50256349999995
 21
474.95461999999998
  0
LINE
  8
_0-0_0
  6
CONTINUOUS
 62
    7
 10
231.75256349999995
 20
475.17767299999997
 11
231.50256349999995
 21
474.95461999999998
  0
LINE
  8
_0-0_0
  6
CONTINUOUS
 62
    7
 10
231.75256349999995
 20
475.17767299999997
 11
231.50256349999995
 21
474.91366599999998
  0
LINE
  8
_0-0_0
  6
CONTINUOUS
 62
    7
 10
231.75256349999995
 20
475.153076
 11
231.50256349999995
 21
474.91366599999998
  0
LINE
  8
_0-0_0
  6
CONTINUOUS
 62
    7
 10
231.75256349999995
 20
475.153076
 11
231.50256349999995
 21
474.89999399999999
  0
LINE
  8
_0-0_0
  6
CONTINUOUS
 62
    7
 10
232.00256349999995
 20
475.39999399999999
 11
232.00256349999995
 21
479.15515099999999
  0
LINE
  8
_0-0_0
  6
CONTINUOUS
 62
    7
 10
231.62258949999995
 20
479.48861699999998
 11
231.50256349999995
 21
479.56506400000001
  0
LINE
  8
_0-0_0
  6
CONTINUOUS
 62
    7
 10
231.75256349999995
 20
479.28698700000001
 11
231.50256349999995
 21
479.56506400000001
  0
LINE
  8
_0-0_0
  6
CONTINUOUS
 62
    7
 10
231.75256349999995
 20
479.28698700000001
 11
231.50256349999995
 21
479.42251599999997
  0
LINE
  8
_0-0_0
  6
CONTINUOUS
 62
    7
 10
231.50256349999995
 20
479.25784299999998
 11
222.25256349999995
 21
479.25784299999998
  0
LINE
  8
_0-0_0
  6
CONTINUOUS
 62
    7
 10
222.00256349999995
 20
479.14855999999997
 11
222.25256349999995
 21
479.25784299999998
  0
LINE
  8
_0-0_0
  6
CONTINUOUS
 62
    7
 10
231.50256349999995
 20
479.07281499999999
 11
222.25256349999995
 21
479.07281499999999
  0
LINE
  8
_0-0_0
  6
CONTINUOUS
 62
    7
 10
222.00256349999995
 20
478.99096700000001
 11
222.25256349999995
 21
479.07281499999999
  0
LINE
  8
_0-0_0
  6
CONTINUOUS
 62
    7
 10
231.50256349999995
 20
478.86944599999998
 11
222.25256349999995
 21
478.86944599999998
  0
LINE
  8
_0-0_0
  6
CONTINUOUS
 62
    7
 10
222.00256349999995
 20
478.81594899999999
 11
222.25256349999995
 21
478.86944599999998
  0
LINE
  8
_0-0_0
  6
CONTINUOUS
 62
    7
 10
231.50256349999995
 20
478.64999399999999
 11
222.25256349999995
 21
478.64999399999999
  0
LINE
  8
_0-0_0
  6
CONTINUOUS
 62
    7
 10
222.00256349999995
 20
478.625427
 11
222.25256349999995
 21
478.64999399999999
  0
LINE
  8
_0-0_0
  6
CONTINUOUS
 62
    7
 10
231.50256349999995
 20
478.41683999999998
 11
222.25256349999995
 21
478.41683999999998
  0
LINE
  8
_0-0_0
  6
CONTINUOUS
 62
    7
 10
231.75256349999995
 20
478.42147799999998
 11
222.00256349999995
 21
478.42147799999998
  0
LINE
  8
_0-0_0
  6
CONTINUOUS
 62
    7
 10
222.00256349999995
 20
478.42147799999998
 11
222.25256349999995
 21
478.41683999999998
  0
LINE
  8
_0-0_0
  6
CONTINUOUS
 62
    7
 10
231.50256349999995
 20
478.17251599999997
 11
222.25256349999995
 21
478.17251599999997
  0
LINE
  8
_0-0_0
  6
CONTINUOUS
 62
    7
 10
231.75256349999995
 20
478.20632899999998
 11
222.00256349999995
 21
478.20632899999998
  0
LINE
  8
_0-0_0
  6
CONTINUOUS
 62
    7
 10
222.00256349999995
 20
478.20632899999998
 11
222.25256349999995
 21
478.17251599999997
  0
LINE
  8
_0-0_0
  6
CONTINUOUS
 62
    7
 10
231.50256349999995
 20
477.91976899999997
 11
222.25256349999995
 21
477.91976899999997
  0
LINE
  8
_0-0_0
  6
CONTINUOUS
 62
    7
 10
231.75256349999995
 20
477.98232999999999
 11
222.00256349999995
 21
477.98232999999999
  0
LINE
  8
_0-0_0
  6
CONTINUOUS
 62
    7
 10
222.00256349999995
 20
477.98232999999999
 11
222.25256349999995
 21
477.91976899999997
  0
LINE
  8
_0-0_0
  6
CONTINUOUS
 62
    7
 10
231.50256349999995
 20
477.661316
 11
222.25256349999995
 21
477.661316
  0
LINE
  8
_0-0_0
  6
CONTINUOUS
 62
    7
 10
231.75256349999995
 20
477.75195300000001
 11
222.00256349999995
 21
477.75195300000001
  0
LINE
  8
_0-0_0
  6
CONTINUOUS
 62
    7
 10
222.00256349999995
 20
477.75195300000001
 11
222.25256349999995
 21
477.661316
  0
LINE
  8
_0-0_0
  6
CONTINUOUS
 62
    7
 10
231.50256349999995
 20
477.39999399999999
 11
222.25256349999995
 21
477.39999399999999
  0
LINE
  8
_0-0_0
  6
CONTINUOUS
 62
    7
 10
231.75256349999995
 20
477.51773099999997
 11
222.00256349999995
 21
477.51773099999997
  0
LINE
  8
_0-0_0
  6
CONTINUOUS
 62
    7
 10
222.00256349999995
 20
477.51773099999997
 11
222.25256349999995
 21
477.39999399999999
  0
LINE
  8
_0-0_0
  6
CONTINUOUS
 62
    7
 10
231.50256349999995
 20
477.13867199999999
 11
222.25256349999995
 21
477.13867199999999
  0
LINE
  8
_0-0_0
  6
CONTINUOUS
 62
    7
 10
231.75256349999995
 20
477.28222699999998
 11
222.00256349999995
 21
477.28222699999998
  0
LINE
  8
_0-0_0
  6
CONTINUOUS
 62
    7
 10
222.00256349999995
 20
477.28222699999998
 11
222.25256349999995
 21
477.13867199999999
  0
LINE
  8
_0-0_0
  6
CONTINUOUS
 62
    7
 10
231.50256349999995
 20
476.88021900000001
 11
222.25256349999995
 21
476.88021900000001
  0
LINE
  8
_0-0_0
  6
CONTINUOUS
 62
    7
 10
231.75256349999995
 20
477.04800399999999
 11
222.00256349999995
 21
477.04800399999999
  0
LINE
  8
_0-0_0
  6
CONTINUOUS
 62
    7
 10
222.00256349999995
 20
477.04800399999999
 11
222.25256349999995
 21
476.88021900000001
  0
LINE
  8
_0-0_0
  6
CONTINUOUS
 62
    7
 10
231.50256349999995
 20
476.62744199999997
 11
222.25256349999995
 21
476.62744199999997
  0
LINE
  8
_0-0_0
  6
CONTINUOUS
 62
    7
 10
231.75256349999995
 20
476.81765799999999
 11
222.00256349999995
 21
476.81765799999999
  0
LINE
  8
_0-0_0
  6
CONTINUOUS
 62
    7
 10
222.00256349999995
 20
476.81765799999999
 11
222.25256349999995
 21
476.62744199999997
  0
LINE
  8
_0-0_0
  6
CONTINUOUS
 62
    7
 10
231.50256349999995
 20
476.38314800000001
 11
222.25256349999995
 21
476.38314800000001
  0
LINE
  8
_0-0_0
  6
CONTINUOUS
 62
    7
 10
231.75256349999995
 20
476.593659
 11
222.00256349999995
 21
476.593659
  0
LINE
  8
_0-0_0
  6
CONTINUOUS
 62
    7
 10
222.00256349999995
 20
476.593659
 11
222.25256349999995
 21
476.38314800000001
  0
LINE
  8
_0-0_0
  6
CONTINUOUS
 62
    7
 10
231.50256349999995
 20
475.72717299999999
 11
222.25256349999995
 21
475.72717299999999
  0
LINE
  8
_0-0_0
  6
CONTINUOUS
 62
    7
 10
222.00256349999995
 20
475.98400900000001
 11
222.25256349999995
 21
475.72717299999999
  0
LINE
  8
_0-0_0
  6
CONTINUOUS
 62
    7
 10
231.50256349999995
 20
475.54211399999997
 11
222.25256349999995
 21
475.54211399999997
  0
LINE
  8
_0-0_0
  6
CONTINUOUS
 62
    7
 10
222.00256349999995
 20
475.80899099999999
 11
222.25256349999995
 21
475.54211399999997
  0
LINE
  8
_0-0_0
  6
CONTINUOUS
 62
    7
 10
231.50256349999995
 20
475.37744199999997
 11
222.25256349999995
 21
475.37744199999997
  0
LINE
  8
_0-0_0
  6
CONTINUOUS
 62
    7
 10
222.00256349999995
 20
475.65139799999997
 11
222.25256349999995
 21
475.37744199999997
  0
LINE
  8
_0-0_0
  6
CONTINUOUS
 62
    7
 10
231.50256349999995
 20
475.23492399999998
 11
222.25256349999995
 21
475.23492399999998
  0
LINE
  8
_0-0_0
  6
CONTINUOUS
 62
    7
 10
222.00256349999995
 20
475.51297
 11
222.25256349999995
 21
475.23492399999998
  0
LINE
  8
_0-0_0
  6
CONTINUOUS
 62
    7
 10
231.50256349999995
 20
475.11611899999997
 11
222.25256349999995
 21
475.11611899999997
  0
LINE
  8
_0-0_0
  6
CONTINUOUS
 62
    7
 10
222.00256349999995
 20
475.39523300000002
 11
222.25256349999995
 21
475.11611899999997
  0
LINE
  8
_0-0_0
  6
CONTINUOUS
 62
    7
 10
231.50256349999995
 20
475.02233899999999
 11
222.25256349999995
 21
475.02233899999999
  0
LINE
  8
_0-0_0
  6
CONTINUOUS
 62
    7
 10
222.00256349999995
 20
475.29943900000001
 11
222.25256349999995
 21
475.02233899999999
  0
LINE
  8
_0-0_0
  6
CONTINUOUS
 62
    7
 10
231.50256349999995
 20
474.95461999999998
 11
222.25256349999995
 21
474.95461999999998
  0
LINE
  8
_0-0_0
  6
CONTINUOUS
 62
    7
 10
222.00256349999995
 20
475.226654
 11
222.25256349999995
 21
474.95461999999998
  0
LINE
  8
_0-0_0
  6
CONTINUOUS
 62
    7
 10
231.50256349999995
 20
474.91366599999998
 11
222.25256349999995
 21
474.91366599999998
  0
LINE
  8
_0-0_0
  6
CONTINUOUS
 62
    7
 10
222.00256349999995
 20
475.17767299999997
 11
222.25256349999995
 21
474.91366599999998
  0
LINE
  8
_0-0_0
  6
CONTINUOUS
 62
    7
 10
231.50256349999995
 20
474.89999399999999
 11
222.25256349999995
 21
474.89999399999999
  0
LINE
  8
_0-0_0
  6
CONTINUOUS
 62
    7
 10
222.00256349999995
 20
475.153076
 11
222.25256349999995
 21
474.89999399999999
  0
LINE
  8
_0-0_0
  6
CONTINUOUS
 62
    7
 10
231.50256349999995
 20
479.56506400000001
 11
222.25256349999995
 21
479.56506400000001
  0
LINE
  8
_0-0_0
  6
CONTINUOUS
 62
    7
 10
231.75256349999995
 20
479.40475499999997
 11
231.62258949999995
 21
479.48861699999998
  0
LINE
  8
_0-0_0
  6
CONTINUOUS
 62
    7
 10
222.00256349999995
 20
479.40475499999997
 11
222.13250749999997
 21
479.48861699999998
  0
LINE
  8
_0-0_0
  6
CONTINUOUS
 62
    7
 10
222.13250749999997
 20
479.48861699999998
 11
222.25256349999995
 21
479.56506400000001
  0
LINE
  8
_0-0_0
  6
CONTINUOUS
 62
    7
 10
231.50256349999995
 20
479.42251599999997
 11
222.25256349999995
 21
479.42251599999997
  0
LINE
  8
_0-0_0
  6
CONTINUOUS
 62
    7
 10
222.00256349999995
 20
479.28698700000001
 11
222.25256349999995
 21
479.42251599999997
  0
LINE
  8
_0-0_0
  6
CONTINUOUS
 62
    7
 10
231.75256349999995
 20
479.40475499999997
 11
231.50256349999995
 21
479.68383799999998
  0
LINE
  8
_0-0_0
  6
CONTINUOUS
 62
    7
 10
231.50256349999995
 20
479.68383799999998
 11
222.25256349999995
 21
479.68383799999998
  0
LINE
  8
_0-0_0
  6
CONTINUOUS
 62
    7
 10
222.00256349999995
 20
479.40475499999997
 11
222.25256349999995
 21
479.68383799999998
  0
LINE
  8
_0-0_0
  6
CONTINUOUS
 62
    7
 10
231.75256349999995
 20
479.50054899999998
 11
231.50256349999995
 21
479.68383799999998
  0
LINE
  8
_0-0_0
  6
CONTINUOUS
 62
    7
 10
222.00256349999995
 20
479.50054899999998
 11
222.25256349999995
 21
479.68383799999998
  0
LINE
  8
_0-0_0
  6
CONTINUOUS
 62
    7
 10
231.75256349999995
 20
479.50054899999998
 11
231.50256349999995
 21
479.77761900000002
  0
LINE
  8
_0-0_0
  6
CONTINUOUS
 62
    7
 10
231.50256349999995
 20
479.77761900000002
 11
222.25256349999995
 21
479.77761900000002
  0
LINE
  8
_0-0_0
  6
CONTINUOUS
 62
    7
 10
222.00256349999995
 20
479.50054899999998
 11
222.25256349999995
 21
479.77761900000002
  0
LINE
  8
_0-0_0
  6
CONTINUOUS
 62
    7
 10
231.75256349999995
 20
479.57333399999999
 11
231.50256349999995
 21
479.77761900000002
  0
LINE
  8
_0-0_0
  6
CONTINUOUS
 62
    7
 10
222.00256349999995
 20
479.57333399999999
 11
222.25256349999995
 21
479.77761900000002
  0
LINE
  8
_0-0_0
  6
CONTINUOUS
 62
    7
 10
231.75256349999995
 20
479.57333399999999
 11
231.50256349999995
 21
479.84536800000001
  0
LINE
  8
_0-0_0
  6
CONTINUOUS
 62
    7
 10
231.50256349999995
 20
479.84536800000001
 11
222.25256349999995
 21
479.84536800000001
  0
LINE
  8
_0-0_0
  6
CONTINUOUS
 62
    7
 10
222.00256349999995
 20
479.57333399999999
 11
222.25256349999995
 21
479.84536800000001
  0
LINE
  8
_0-0_0
  6
CONTINUOUS
 62
    7
 10
231.75256349999995
 20
479.62228399999998
 11
231.50256349999995
 21
479.84536800000001
  0
LINE
  8
_0-0_0
  6
CONTINUOUS
 62
    7
 10
222.00256349999995
 20
479.62228399999998
 11
222.25256349999995
 21
479.84536800000001
  0
LINE
  8
_0-0_0
  6
CONTINUOUS
 62
    7
 10
231.75256349999995
 20
479.62228399999998
 11
231.50256349999995
 21
479.88629199999997
  0
LINE
  8
_0-0_0
  6
CONTINUOUS
 62
    7
 10
231.50256349999995
 20
479.88629199999997
 11
222.25256349999995
 21
479.88629199999997
  0
LINE
  8
_0-0_0
  6
CONTINUOUS
 62
    7
 10
222.00256349999995
 20
479.62228399999998
 11
222.25256349999995
 21
479.88629199999997
  0
LINE
  8
_0-0_0
  6
CONTINUOUS
 62
    7
 10
231.75256349999995
 20
479.64691199999999
 11
231.50256349999995
 21
479.88629199999997
  0
LINE
  8
_0-0_0
  6
CONTINUOUS
 62
    7
 10
222.00256349999995
 20
479.64691199999999
 11
222.25256349999995
 21
479.88629199999997
  0
LINE
  8
_0-0_0
  6
CONTINUOUS
 62
    7
 10
231.75256349999995
 20
479.64691199999999
 11
231.50256349999995
 21
479.89999399999999
  0
LINE
  8
_0-0_0
  6
CONTINUOUS
 62
    7
 10
231.50256349999995
 20
479.89999399999999
 11
222.25256349999995
 21
479.89999399999999
  0
LINE
  8
_0-0_0
  6
CONTINUOUS
 62
    7
 10
222.00256349999995
 20
479.64691199999999
 11
222.25256349999995
 21
479.89999399999999
  0
LINE
  8
_0-0_0
  6
CONTINUOUS
 62
    7
 10
277.20254549999999
 20
465.09997599999997
 11
277.20254549999999
 21
465.10134899999997
  0
LINE
  8
_0-0_0
  6
CONTINUOUS
 62
    7
 10
277.20254549999999
 20
465.10134899999997
 11
277.20254549999999
 21
473.09997599999997
  0
LINE
  8
_0-0_0
  6
CONTINUOUS
 62
    7
 10
222.00256349999995
 20
479.28698700000001
 11
222.25256349999995
 21
479.56506400000001
  0
LINE
  8
_0-0_0
  6
CONTINUOUS
 62
    7
 10
232.00256349999995
 20
479.15515099999999
 11
232.00256349999995
 21
479.39999399999999
  0
LINE
  8
_0-0_0
  6
CONTINUOUS
 62
    7
 10
222.00256349999995
 20
475.153076
 11
222.25256349999995
 21
474.91366599999998
  0
LINE
  8
_0-0_0
  6
CONTINUOUS
 62
    7
 10
222.00256349999995
 20
475.17767299999997
 11
222.25256349999995
 21
474.95461999999998
  0
LINE
  8
_0-0_0
  6
CONTINUOUS
 62
    7
 10
222.00256349999995
 20
475.226654
 11
222.25256349999995
 21
475.02233899999999
  0
LINE
  8
_0-0_0
  6
CONTINUOUS
 62
    7
 10
222.00256349999995
 20
475.29943900000001
 11
222.25256349999995
 21
475.11611899999997
  0
LINE
  8
_0-0_0
  6
CONTINUOUS
 62
    7
 10
222.00256349999995
 20
475.39523300000002
 11
222.25256349999995
 21
475.23492399999998
  0
LINE
  8
_0-0_0
  6
CONTINUOUS
 62
    7
 10
222.00256349999995
 20
475.51297
 11
222.25256349999995
 21
475.37744199999997
  0
LINE
  8
_0-0_0
  6
CONTINUOUS
 62
    7
 10
222.00256349999995
 20
475.65139799999997
 11
222.25256349999995
 21
475.54211399999997
  0
LINE
  8
_0-0_0
  6
CONTINUOUS
 62
    7
 10
222.00256349999995
 20
475.80899099999999
 11
222.25256349999995
 21
475.72717299999999
  0
LINE
  8
_0-0_0
  6
CONTINUOUS
 62
    7
 10
231.50256349999995
 20
475.93051199999996
 11
222.25256349999995
 21
475.93051199999996
  0
LINE
  8
_0-0_0
  6
CONTINUOUS
 62
    7
 10
222.00256349999995
 20
475.98400900000001
 11
222.25256349999995
 21
475.93051199999996
  0
LINE
  8
_0-0_0
  6
CONTINUOUS
 62
    7
 10
222.00256349999995
 20
476.37851000000001
 11
222.25256349999995
 21
476.38314800000001
  0
LINE
  8
_0-0_0
  6
CONTINUOUS
 62
    7
 10
231.75256349999995
 20
476.37851000000001
 11
222.00256349999995
 21
476.37851000000001
  0
LINE
  8
_0-0_0
  6
CONTINUOUS
 62
    7
 10
222.00256349999995
 20
476.593659
 11
222.25256349999995
 21
476.62744199999997
  0
LINE
  8
_0-0_0
  6
CONTINUOUS
 62
    7
 10
222.00256349999995
 20
476.81765799999999
 11
222.25256349999995
 21
476.88021900000001
  0
LINE
  8
_0-0_0
  6
CONTINUOUS
 62
    7
 10
222.00256349999995
 20
477.04800399999999
 11
222.25256349999995
 21
477.13867199999999
  0
LINE
  8
_0-0_0
  6
CONTINUOUS
 62
    7
 10
222.00256349999995
 20
477.28222699999998
 11
222.25256349999995
 21
477.39999399999999
  0
LINE
  8
_0-0_0
  6
CONTINUOUS
 62
    7
 10
222.00256349999995
 20
477.51773099999997
 11
222.25256349999995
 21
477.661316
  0
LINE
  8
_0-0_0
  6
CONTINUOUS
 62
    7
 10
222.00256349999995
 20
477.75195300000001
 11
222.25256349999995
 21
477.91976899999997
  0
LINE
  8
_0-0_0
  6
CONTINUOUS
 62
    7
 10
222.00256349999995
 20
477.98232999999999
 11
222.25256349999995
 21
478.17251599999997
  0
LINE
  8
_0-0_0
  6
CONTINUOUS
 62
    7
 10
222.00256349999995
 20
478.20632899999998
 11
222.25256349999995
 21
478.41683999999998
  0
LINE
  8
_0-0_0
  6
CONTINUOUS
 62
    7
 10
222.00256349999995
 20
478.42147799999998
 11
222.25256349999995
 21
478.64999399999999
  0
LINE
  8
_0-0_0
  6
CONTINUOUS
 62
    7
 10
222.00256349999995
 20
478.625427
 11
222.25256349999995
 21
478.86944599999998
  0
LINE
  8
_0-0_0
  6
CONTINUOUS
 62
    7
 10
222.00256349999995
 20
478.81594899999999
 11
222.25256349999995
 21
479.07281499999999
  0
LINE
  8
_0-0_0
  6
CONTINUOUS
 62
    7
 10
222.00256349999995
 20
478.99096700000001
 11
222.25256349999995
 21
479.25784299999998
  0
LINE
  8
_0-0_0
  6
CONTINUOUS
 62
    7
 10
222.00256349999995
 20
479.14855999999997
 11
222.25256349999995
 21
479.42251599999997
  0
LINE
  8
_0-0_0
  6
CONTINUOUS
 62
    7
 10
222.00256349999995
 20
476.17456099999998
 11
222.25256349999995
 21
475.93051199999996
  0
LINE
  8
_0-0_0
  6
CONTINUOUS
 62
    7
 10
222.00256349999995
 20
476.37851000000001
 11
222.25256349999995
 21
476.14999399999999
  0
LINE
  8
_0-0_0
  6
CONTINUOUS
 62
    7
 10
222.00256349999995
 20
462.686981
 11
222.25256349999995
 21
462.965057
  0
LINE
  8
_0-0_0
  6
CONTINUOUS
 62
    7
 10
232.00256349999995
 20
462.55514499999998
 11
232.00256349999995
 21
462.79998799999998
  0
LINE
  8
_0-0_0
  6
CONTINUOUS
 62
    7
 10
222.00256349999995
 20
458.55306999999999
 11
222.25256349999995
 21
458.31369000000001
  0
LINE
  8
_0-0_0
  6
CONTINUOUS
 62
    7
 10
222.00256349999995
 20
458.577698
 11
222.25256349999995
 21
458.35461399999997
  0
LINE
  8
_0-0_0
  6
CONTINUOUS
 62
    7
 10
222.00256349999995
 20
458.62664799999999
 11
222.25256349999995
 21
458.42233299999998
  0
LINE
  8
_0-0_0
  6
CONTINUOUS
 62
    7
 10
222.00256349999995
 20
458.699432
 11
222.25256349999995
 21
458.51611300000002
  0
LINE
  8
_0-0_0
  6
CONTINUOUS
 62
    7
 10
222.00256349999995
 20
458.79522700000001
 11
222.25256349999995
 21
458.63491799999997
  0
LINE
  8
_0-0_0
  6
CONTINUOUS
 62
    7
 10
222.00256349999995
 20
458.91299399999997
 11
222.25256349999995
 21
458.77743499999997
  0
LINE
  8
_0-0_0
  6
CONTINUOUS
 62
    7
 10
222.00256349999995
 20
459.051422
 11
222.25256349999995
 21
458.94210800000002
  0
LINE
  8
_0-0_0
  6
CONTINUOUS
 62
    7
 10
222.00256349999995
 20
459.20898399999999
 11
222.25256349999995
 21
459.12716699999999
  0
LINE
  8
_0-0_0
  6
CONTINUOUS
 62
    7
 10
231.50256349999995
 20
459.330536
 11
222.25256349999995
 21
459.330536
  0
LINE
  8
_0-0_0
  6
CONTINUOUS
 62
    7
 10
222.00256349999995
 20
459.38400300000001
 11
222.25256349999995
 21
459.330536
  0
LINE
  8
_0-0_0
  6
CONTINUOUS
 62
    7
 10
222.00256349999995
 20
459.778504
 11
222.25256349999995
 21
459.783142
  0
LINE
  8
_0-0_0
  6
CONTINUOUS
 62
    7
 10
231.75256349999995
 20
459.778504
 11
222.00256349999995
 21
459.778504
  0
LINE
  8
_0-0_0
  6
CONTINUOUS
 62
    7
 10
222.00256349999995
 20
459.993652
 11
222.25256349999995
 21
460.02743499999997
  0
LINE
  8
_0-0_0
  6
CONTINUOUS
 62
    7
 10
222.00256349999995
 20
460.21765099999999
 11
222.25256349999995
 21
460.280213
  0
LINE
  8
_0-0_0
  6
CONTINUOUS
 62
    7
 10
222.00256349999995
 20
460.44799799999998
 11
222.25256349999995
 21
460.53866599999998
  0
LINE
  8
_0-0_0
  6
CONTINUOUS
 62
    7
 10
222.00256349999995
 20
460.68222099999997
 11
222.25256349999995
 21
460.79998799999998
  0
LINE
  8
_0-0_0
  6
CONTINUOUS
 62
    7
 10
222.00256349999995
 20
460.917755
 11
222.25256349999995
 21
461.06130999999999
  0
LINE
  8
_0-0_0
  6
CONTINUOUS
 62
    7
 10
222.00256349999995
 20
461.15197799999999
 11
222.25256349999995
 21
461.31976299999997
  0
LINE
  8
_0-0_0
  6
CONTINUOUS
 62
    7
 10
222.00256349999995
 20
461.38232399999998
 11
222.25256349999995
 21
461.57254
  0
LINE
  8
_0-0_0
  6
CONTINUOUS
 62
    7
 10
222.00256349999995
 20
461.60632299999997
 11
222.25256349999995
 21
461.81683399999997
  0
LINE
  8
_0-0_0
  6
CONTINUOUS
 62
    7
 10
222.00256349999995
 20
461.82147199999997
 11
222.25256349999995
 21
462.04998799999998
  0
LINE
  8
_0-0_0
  6
CONTINUOUS
 62
    7
 10
222.00256349999995
 20
462.02542099999999
 11
222.25256349999995
 21
462.26943999999997
  0
LINE
  8
_0-0_0
  6
CONTINUOUS
 62
    7
 10
222.00256349999995
 20
462.21597300000002
 11
222.25256349999995
 21
462.47280899999998
  0
LINE
  8
_0-0_0
  6
CONTINUOUS
 62
    7
 10
222.00256349999995
 20
462.390961
 11
222.25256349999995
 21
462.65783699999997
  0
LINE
  8
_0-0_0
  6
CONTINUOUS
 62
    7
 10
222.00256349999995
 20
462.54855399999997
 11
222.25256349999995
 21
462.82254
  0
LINE
  8
_0-0_0
  6
CONTINUOUS
 62
    7
 10
222.00256349999995
 20
459.57455499999998
 11
222.25256349999995
 21
459.330536
  0
LINE
  8
_0-0_0
  6
CONTINUOUS
 62
    7
 10
222.00256349999995
 20
459.778504
 11
222.25256349999995
 21
459.54998799999998
  0
LINE
  8
_0-0_0
  6
CONTINUOUS
 62
    7
 10
219.20254549999999
 20
464.56185899999997
 11
219.20254549999999
 21
466.83093300000002
  0
LINE
  8
_0-0_0
  6
CONTINUOUS
 62
    7
 10
219.20254549999999
 20
466.83093300000002
 11
219.20254549999999
 21
473.63809199999997
  0
LINE
  8
_0-0_0
  6
CONTINUOUS
 62
    7
 10
222.00256349999995
 20
476.37851000000001
 11
222.00256349999995
 21
476.593659
  0
LINE
  8
_0-0_0
  6
CONTINUOUS
 62
    7
 10
222.00256349999995
 20
476.593659
 11
222.00256349999995
 21
476.81765799999999
  0
LINE
  8
_0-0_0
  6
CONTINUOUS
 62
    7
 10
222.00256349999995
 20
476.81765799999999
 11
222.00256349999995
 21
477.04800399999999
  0
LINE
  8
_0-0_0
  6
CONTINUOUS
 62
    7
 10
222.00256349999995
 20
477.04800399999999
 11
222.00256349999995
 21
477.28222699999998
  0
LINE
  8
_0-0_0
  6
CONTINUOUS
 62
    7
 10
222.00256349999995
 20
477.28222699999998
 11
222.00256349999995
 21
477.51773099999997
  0
LINE
  8
_0-0_0
  6
CONTINUOUS
 62
    7
 10
222.00256349999995
 20
477.51773099999997
 11
222.00256349999995
 21
477.75195300000001
  0
LINE
  8
_0-0_0
  6
CONTINUOUS
 62
    7
 10
222.00256349999995
 20
477.75195300000001
 11
222.00256349999995
 21
477.98232999999999
  0
LINE
  8
_0-0_0
  6
CONTINUOUS
 62
    7
 10
222.00256349999995
 20
477.98232999999999
 11
222.00256349999995
 21
478.20632899999998
  0
LINE
  8
_0-0_0
  6
CONTINUOUS
 62
    7
 10
222.00256349999995
 20
478.20632899999998
 11
222.00256349999995
 21
478.42147799999998
  0
LINE
  8
_0-0_0
  6
CONTINUOUS
 62
    7
 10
222.00256349999995
 20
478.42147799999998
 11
222.00256349999995
 21
478.625427
  0
LINE
  8
_0-0_0
  6
CONTINUOUS
 62
    7
 10
222.00256349999995
 20
478.625427
 11
222.00256349999995
 21
478.81594899999999
  0
LINE
  8
_0-0_0
  6
CONTINUOUS
 62
    7
 10
222.00256349999995
 20
478.81594899999999
 11
222.00256349999995
 21
478.99096700000001
  0
LINE
  8
_0-0_0
  6
CONTINUOUS
 62
    7
 10
222.00256349999995
 20
478.99096700000001
 11
222.00256349999995
 21
479.14855999999997
  0
LINE
  8
_0-0_0
  6
CONTINUOUS
 62
    7
 10
222.00256349999995
 20
479.14855999999997
 11
222.00256349999995
 21
479.28698700000001
  0
LINE
  8
_0-0_0
  6
CONTINUOUS
 62
    7
 10
222.00256349999995
 20
479.28698700000001
 11
222.00256349999995
 21
479.37454200000002
  0
LINE
  8
_0-0_0
  6
CONTINUOUS
 62
    7
 10
222.00256349999995
 20
479.37454200000002
 11
222.00256349999995
 21
479.40475499999997
  0
LINE
  8
_0-0_0
  6
CONTINUOUS
 62
    7
 10
222.00256349999995
 20
479.40475499999997
 11
222.00256349999995
 21
479.50054899999998
  0
LINE
  8
_0-0_0
  6
CONTINUOUS
 62
    7
 10
222.00256349999995
 20
479.50054899999998
 11
222.00256349999995
 21
479.57333399999999
  0
LINE
  8
_0-0_0
  6
CONTINUOUS
 62
    7
 10
222.00256349999995
 20
479.57333399999999
 11
222.00256349999995
 21
479.62228399999998
  0
LINE
  8
_0-0_0
  6
CONTINUOUS
 62
    7
 10
222.00256349999995
 20
479.62228399999998
 11
222.00256349999995
 21
479.64999399999999
  0
LINE
  8
_0-0_0
  6
CONTINUOUS
 62
    7
 10
222.00256349999995
 20
479.64691199999999
 11
222.00256349999995
 21
479.64999399999999
  0
LINE
  8
_0-0_0
  6
CONTINUOUS
 62
    7
 10
222.00256349999995
 20
475.14999399999999
 11
222.00256349999995
 21
475.153076
  0
LINE
  8
_0-0_0
  6
CONTINUOUS
 62
    7
 10
222.00256349999995
 20
475.153076
 11
222.00256349999995
 21
475.17767299999997
  0
LINE
  8
_0-0_0
  6
CONTINUOUS
 62
    7
 10
222.00256349999995
 20
475.17767299999997
 11
222.00256349999995
 21
475.226654
  0
LINE
  8
_0-0_0
  6
CONTINUOUS
 62
    7
 10
222.00256349999995
 20
475.14999399999999
 11
222.00256349999995
 21
475.29943900000001
  0
LINE
  8
_0-0_0
  6
CONTINUOUS
 62
    7
 10
222.00256349999995
 20
475.29943900000001
 11
222.00256349999995
 21
475.39523300000002
  0
LINE
  8
_0-0_0
  6
CONTINUOUS
 62
    7
 10
222.00256349999995
 20
475.39523300000002
 11
222.00256349999995
 21
475.51297
  0
LINE
  8
_0-0_0
  6
CONTINUOUS
 62
    7
 10
222.00256349999995
 20
475.51297
 11
222.00256349999995
 21
475.65139799999997
  0
LINE
  8
_0-0_0
  6
CONTINUOUS
 62
    7
 10
222.00256349999995
 20
475.65139799999997
 11
222.00256349999995
 21
475.80899099999999
  0
LINE
  8
_0-0_0
  6
CONTINUOUS
 62
    7
 10
222.00256349999995
 20
475.80899099999999
 11
222.00256349999995
 21
475.98400900000001
  0
LINE
  8
_0-0_0
  6
CONTINUOUS
 62
    7
 10
222.00256349999995
 20
475.98400900000001
 11
222.00256349999995
 21
476.17456099999998
  0
LINE
  8
_0-0_0
  6
CONTINUOUS
 62
    7
 10
222.00256349999995
 20
476.32128899999998
 11
222.00256349999995
 21
476.37851000000001
  0
LINE
  8
_0-0_0
  6
CONTINUOUS
 62
    7
 10
222.00256349999995
 20
476.17456099999998
 11
222.00256349999995
 21
476.32128899999998
  0
LINE
  8
_0-0_0
  6
CONTINUOUS
 62
    7
 10
222.00256349999995
 20
459.778504
 11
222.00256349999995
 21
459.993652
  0
LINE
  8
_0-0_0
  6
CONTINUOUS
 62
    7
 10
222.00256349999995
 20
459.993652
 11
222.00256349999995
 21
460.21765099999999
  0
LINE
  8
_0-0_0
  6
CONTINUOUS
 62
    7
 10
222.00256349999995
 20
460.21765099999999
 11
222.00256349999995
 21
460.44799799999998
  0
LINE
  8
_0-0_0
  6
CONTINUOUS
 62
    7
 10
222.00256349999995
 20
460.44799799999998
 11
222.00256349999995
 21
460.68222099999997
  0
LINE
  8
_0-0_0
  6
CONTINUOUS
 62
    7
 10
222.00256349999995
 20
460.68222099999997
 11
222.00256349999995
 21
460.917755
  0
LINE
  8
_0-0_0
  6
CONTINUOUS
 62
    7
 10
222.00256349999995
 20
460.917755
 11
222.00256349999995
 21
461.15197799999999
  0
LINE
  8
_0-0_0
  6
CONTINUOUS
 62
    7
 10
222.00256349999995
 20
461.15197799999999
 11
222.00256349999995
 21
461.38232399999998
  0
LINE
  8
_0-0_0
  6
CONTINUOUS
 62
    7
 10
222.00256349999995
 20
461.38232399999998
 11
222.00256349999995
 21
461.60632299999997
  0
LINE
  8
_0-0_0
  6
CONTINUOUS
 62
    7
 10
222.00256349999995
 20
461.60632299999997
 11
222.00256349999995
 21
461.82147199999997
  0
LINE
  8
_0-0_0
  6
CONTINUOUS
 62
    7
 10
222.00256349999995
 20
461.82147199999997
 11
222.00256349999995
 21
462.02542099999999
  0
LINE
  8
_0-0_0
  6
CONTINUOUS
 62
    7
 10
222.00256349999995
 20
462.02542099999999
 11
222.00256349999995
 21
462.21597300000002
  0
LINE
  8
_0-0_0
  6
CONTINUOUS
 62
    7
 10
222.00256349999995
 20
462.21597300000002
 11
222.00256349999995
 21
462.390961
  0
LINE
  8
_0-0_0
  6
CONTINUOUS
 62
    7
 10
222.00256349999995
 20
462.390961
 11
222.00256349999995
 21
462.54855399999997
  0
LINE
  8
_0-0_0
  6
CONTINUOUS
 62
    7
 10
222.00256349999995
 20
462.54855399999997
 11
222.00256349999995
 21
462.686981
  0
LINE
  8
_0-0_0
  6
CONTINUOUS
 62
    7
 10
222.00256349999995
 20
462.686981
 11
222.00256349999995
 21
462.77453600000001
  0
LINE
  8
_0-0_0
  6
CONTINUOUS
 62
    7
 10
222.00256349999995
 20
462.77453600000001
 11
222.00256349999995
 21
462.80474900000002
  0
LINE
  8
_0-0_0
  6
CONTINUOUS
 62
    7
 10
222.00256349999995
 20
462.80474900000002
 11
222.00256349999995
 21
462.90054299999997
  0
LINE
  8
_0-0_0
  6
CONTINUOUS
 62
    7
 10
222.00256349999995
 20
462.90054299999997
 11
222.00256349999995
 21
462.97332799999998
  0
LINE
  8
_0-0_0
  6
CONTINUOUS
 62
    7
 10
222.00256349999995
 20
462.97332799999998
 11
222.00256349999995
 21
463.02227799999997
  0
LINE
  8
_0-0_0
  6
CONTINUOUS
 62
    7
 10
222.00256349999995
 20
463.02227799999997
 11
222.00256349999995
 21
463.04998799999998
  0
LINE
  8
_0-0_0
  6
CONTINUOUS
 62
    7
 10
222.00256349999995
 20
463.04690599999998
 11
222.00256349999995
 21
463.04998799999998
  0
LINE
  8
_0-0_0
  6
CONTINUOUS
 62
    7
 10
222.00256349999995
 20
458.54998799999998
 11
222.00256349999995
 21
458.55306999999999
  0
LINE
  8
_0-0_0
  6
CONTINUOUS
 62
    7
 10
222.00256349999995
 20
458.55306999999999
 11
222.00256349999995
 21
458.577698
  0
LINE
  8
_0-0_0
  6
CONTINUOUS
 62
    7
 10
222.00256349999995
 20
458.54998799999998
 11
222.00256349999995
 21
458.62664799999999
  0
LINE
  8
_0-0_0
  6
CONTINUOUS
 62
    7
 10
222.00256349999995
 20
458.62664799999999
 11
222.00256349999995
 21
458.699432
  0
LINE
  8
_0-0_0
  6
CONTINUOUS
 62
    7
 10
222.00256349999995
 20
458.699432
 11
222.00256349999995
 21
458.79522700000001
  0
LINE
  8
_0-0_0
  6
CONTINUOUS
 62
    7
 10
222.00256349999995
 20
458.79522700000001
 11
222.00256349999995
 21
458.91299399999997
  0
LINE
  8
_0-0_0
  6
CONTINUOUS
 62
    7
 10
222.00256349999995
 20
458.91299399999997
 11
222.00256349999995
 21
459.051422
  0
LINE
  8
_0-0_0
  6
CONTINUOUS
 62
    7
 10
222.00256349999995
 20
459.051422
 11
222.00256349999995
 21
459.20898399999999
  0
LINE
  8
_0-0_0
  6
CONTINUOUS
 62
    7
 10
222.00256349999995
 20
459.20898399999999
 11
222.00256349999995
 21
459.38400300000001
  0
LINE
  8
_0-0_0
  6
CONTINUOUS
 62
    7
 10
222.00256349999995
 20
459.38400300000001
 11
222.00256349999995
 21
459.57455499999998
  0
LINE
  8
_0-0_0
  6
CONTINUOUS
 62
    7
 10
222.00256349999995
 20
459.72128299999997
 11
222.00256349999995
 21
459.778504
  0
LINE
  8
_0-0_0
  6
CONTINUOUS
 62
    7
 10
222.00256349999995
 20
459.57455499999998
 11
222.00256349999995
 21
459.72128299999997
  0
LINE
  8
_0-0_0
  6
CONTINUOUS
 62
    7
 10
218.40255749999994
 20
466.59997599999997
 11
218.40255749999994
 21
474.09997599999997
  0
LINE
  8
_0-0_0
  6
CONTINUOUS
 62
    7
 10
218.40255749999994
 20
464.09997599999997
 11
218.40255749999994
 21
466.59997599999997
  0
LINE
  8
_0-0_0
  6
CONTINUOUS
 62
    7
 10
207.00253249999997
 20
475.59997599999997
 11
216.71035749999999
 21
475.59997599999997
  0
LINE
  8
_0-0_0
  6
CONTINUOUS
 62
    7
 10
216.75253249999997
 20
475.59997599999997
 11
216.71035749999999
 21
475.59997599999997
  0
LINE
  8
_0-0_0
  6
CONTINUOUS
 62
    7
 10
206.70254549999999
 20
466.88797
 11
206.76135249999999
 21
466.64111300000002
  0
LINE
  8
_0-0_0
  6
CONTINUOUS
 62
    7
 10
206.76135249999999
 20
466.64111300000002
 11
206.81112649999994
 21
466.44879199999997
  0
LINE
  8
_0-0_0
  6
CONTINUOUS
 62
    7
 10
206.81112649999994
 20
466.44879199999997
 11
206.88223249999999
 21
466.18304499999999
  0
LINE
  8
_0-0_0
  6
CONTINUOUS
 62
    7
 10
206.88223249999999
 20
466.18304499999999
 11
206.91519149999999
 21
466.05633599999999
  0
LINE
  8
_0-0_0
  6
CONTINUOUS
 62
    7
 10
206.91519149999999
 20
466.05633599999999
 11
206.94046049999997
 21
465.95291099999997
  0
LINE
  8
_0-0_0
  6
CONTINUOUS
 62
    7
 10
206.94046049999997
 20
465.95291099999997
 11
206.96249349999999
 21
465.852936
  0
LINE
  8
_0-0_0
  6
CONTINUOUS
 62
    7
 10
206.96249349999999
 20
465.852936
 11
206.98385649999994
 21
465.73523
  0
LINE
  8
_0-0_0
  6
CONTINUOUS
 62
    7
 10
206.98385649999994
 20
465.73523
 11
206.99243149999995
 21
465.67309599999999
  0
LINE
  8
_0-0_0
  6
CONTINUOUS
 62
    7
 10
206.99243149999995
 20
465.67309599999999
 11
206.99850449999997
 21
465.61248799999998
  0
LINE
  8
_0-0_0
  6
CONTINUOUS
 62
    7
 10
206.99850449999997
 20
465.61248799999998
 11
207.00152549999996
 21
465.56326300000001
  0
LINE
  8
_0-0_0
  6
CONTINUOUS
 62
    7
 10
207.00152549999996
 20
465.56326300000001
 11
207.00253249999997
 21
465.51504499999999
  0
LINE
  8
_0-0_0
  6
CONTINUOUS
 62
    7
 10
206.70254549999999
 20
471.311981
 11
206.76132149999995
 21
471.558807
  0
LINE
  8
_0-0_0
  6
CONTINUOUS
 62
    7
 10
206.76132149999995
 20
471.558807
 11
206.81112649999994
 21
471.75115999999997
  0
LINE
  8
_0-0_0
  6
CONTINUOUS
 62
    7
 10
206.81112649999994
 20
471.75115999999997
 11
206.88223249999999
 21
472.01693699999998
  0
LINE
  8
_0-0_0
  6
CONTINUOUS
 62
    7
 10
206.88223249999999
 20
472.01693699999998
 11
206.91519149999999
 21
472.14367699999997
  0
LINE
  8
_0-0_0
  6
CONTINUOUS
 62
    7
 10
206.91519149999999
 20
472.14367699999997
 11
206.94046049999997
 21
472.24707000000001
  0
LINE
  8
_0-0_0
  6
CONTINUOUS
 62
    7
 10
206.94046049999997
 20
472.24707000000001
 11
206.96249349999999
 21
472.347015
  0
LINE
  8
_0-0_0
  6
CONTINUOUS
 62
    7
 10
206.96249349999999
 20
472.347015
 11
206.98385649999994
 21
472.46472199999999
  0
LINE
  8
_0-0_0
  6
CONTINUOUS
 62
    7
 10
206.98385649999994
 20
472.46472199999999
 11
206.99243149999995
 21
472.52685600000001
  0
LINE
  8
_0-0_0
  6
CONTINUOUS
 62
    7
 10
206.99243149999995
 20
472.52685600000001
 11
206.99850449999997
 21
472.58746300000001
  0
LINE
  8
_0-0_0
  6
CONTINUOUS
 62
    7
 10
206.99850449999997
 20
472.58746300000001
 11
207.00152549999996
 21
472.63671899999997
  0
LINE
  8
_0-0_0
  6
CONTINUOUS
 62
    7
 10
207.00152549999996
 20
472.63671899999997
 11
207.00253249999997
 21
472.68493699999999
  0
LINE
  8
_0-0_0
  6
CONTINUOUS
 62
    7
 10
207.00253249999997
 20
467.53793300000001
 11
207.00253249999997
 21
466.492279
  0
LINE
  8
_0-0_0
  6
CONTINUOUS
 62
    7
 10
207.00253249999997
 20
465.207672
 11
207.00253249999997
 21
466.492279
  0
LINE
  8
_0-0_0
  6
CONTINUOUS
 62
    7
 10
207.00253249999997
 20
465.092285
 11
207.00253249999997
 21
465.207672
  0
ARC
  8
_0-0_0
  6
CONTINUOUS
 62
    7
 10
205.00253249999997
 20
476.45846599999999
 40
2
 50
0
 51
71.565000999999995
  0
LINE
  8
_0-0_0
  6
CONTINUOUS
 62
    7
 10
216.71035749999999
 20
475.59997599999997
 11
216.76486149999999
 21
475.53005999999999
  0
LINE
  8
_0-0_0
  6
CONTINUOUS
 62
    7
 10
216.76486149999999
 20
475.53005999999999
 11
216.81594849999999
 21
475.46121199999999
  0
LINE
  8
_0-0_0
  6
CONTINUOUS
 62
    7
 10
216.81594849999999
 20
475.46121199999999
 11
216.86361649999998
 21
475.39370700000001
  0
LINE
  8
_0-0_0
  6
CONTINUOUS
 62
    7
 10
216.86361649999998
 20
475.39370700000001
 11
216.90811149999996
 21
475.327179
  0
LINE
  8
_0-0_0
  6
CONTINUOUS
 62
    7
 10
216.90811149999996
 20
475.327179
 11
216.96279849999996
 21
475.23962399999999
  0
LINE
  8
_0-0_0
  6
CONTINUOUS
 62
    7
 10
216.96279849999996
 20
475.23962399999999
 11
217.01232949999996
 21
475.15353399999998
  0
LINE
  8
_0-0_0
  6
CONTINUOUS
 62
    7
 10
217.01232949999996
 20
475.15353399999998
 11
217.05679349999997
 21
475.06869499999999
  0
LINE
  8
_0-0_0
  6
CONTINUOUS
 62
    7
 10
217.05679349999997
 20
475.06869499999999
 11
217.10375949999997
 21
474.96838400000001
  0
LINE
  8
_0-0_0
  6
CONTINUOUS
 62
    7
 10
217.10375949999997
 20
474.96838400000001
 11
217.14395149999996
 21
474.86944599999998
  0
LINE
  8
_0-0_0
  6
CONTINUOUS
 62
    7
 10
217.14395149999996
 20
474.86944599999998
 11
217.17764249999999
 21
474.77169800000001
  0
LINE
  8
_0-0_0
  6
CONTINUOUS
 62
    7
 10
217.17764249999999
 20
474.77169800000001
 11
217.20492549999994
 21
474.67489599999999
  0
LINE
  8
_0-0_0
  6
CONTINUOUS
 62
    7
 10
217.20492549999994
 20
474.67489599999999
 11
217.22598249999999
 21
474.57882699999999
  0
LINE
  8
_0-0_0
  6
CONTINUOUS
 62
    7
 10
217.22598249999999
 20
474.57882699999999
 11
217.24191249999996
 21
474.47497599999997
  0
LINE
  8
_0-0_0
  6
CONTINUOUS
 62
    7
 10
217.24191249999996
 20
474.47497599999997
 11
217.25064049999997
 21
474.37155200000001
  0
LINE
  8
_0-0_0
  6
CONTINUOUS
 62
    7
 10
217.25064049999997
 20
474.37155200000001
 11
217.25228849999996
 21
474.26831099999998
  0
LINE
  8
_0-0_0
  6
CONTINUOUS
 62
    7
 10
217.25228849999996
 20
474.26831099999998
 11
217.24682649999994
 21
474.16503899999998
  0
LINE
  8
_0-0_0
  6
CONTINUOUS
 62
    7
 10
217.24682649999994
 20
474.16503899999998
 11
217.23422249999999
 21
474.06143199999997
  0
LINE
  8
_0-0_0
  6
CONTINUOUS
 62
    7
 10
217.23422249999999
 20
474.06143199999997
 11
217.21438549999999
 21
473.95727499999998
  0
LINE
  8
_0-0_0
  6
CONTINUOUS
 62
    7
 10
217.21438549999999
 20
473.95727499999998
 11
217.18725549999999
 21
473.85232600000001
  0
LINE
  8
_0-0_0
  6
CONTINUOUS
 62
    7
 10
217.18725549999999
 20
473.85232600000001
 11
217.15261849999996
 21
473.746307
  0
LINE
  8
_0-0_0
  6
CONTINUOUS
 62
    7
 10
217.15261849999996
 20
473.746307
 11
217.11025949999998
 21
473.63891599999999
  0
LINE
  8
_0-0_0
  6
CONTINUOUS
 62
    7
 10
217.11025949999998
 20
473.63891599999999
 11
217.05993649999999
 21
473.52990699999998
  0
LINE
  8
_0-0_0
  6
CONTINUOUS
 62
    7
 10
217.05993649999999
 20
473.52990699999998
 11
217.00570649999997
 21
473.42678799999999
  0
LINE
  8
_0-0_0
  6
CONTINUOUS
 62
    7
 10
217.00570649999997
 20
473.42678799999999
 11
216.94400049999996
 21
473.32171599999998
  0
LINE
  8
_0-0_0
  6
CONTINUOUS
 62
    7
 10
216.94400049999996
 20
473.32171599999998
 11
216.87448149999994
 21
473.21447799999999
  0
LINE
  8
_0-0_0
  6
CONTINUOUS
 62
    7
 10
216.87448149999994
 20
473.21447799999999
 11
216.79675249999997
 21
473.10476699999998
  0
LINE
  8
_0-0_0
  6
CONTINUOUS
 62
    7
 10
216.79675249999997
 20
473.10476699999998
 11
216.71035749999999
 21
472.992279
  0
LINE
  8
_0-0_0
  6
CONTINUOUS
 62
    7
 10
207.00253249999997
 20
473.10766599999999
 11
207.00253249999997
 21
472.992279
  0
LINE
  8
_0-0_0
  6
CONTINUOUS
 62
    7
 10
207.00253249999997
 20
471.707672
 11
207.00253249999997
 21
470.66204799999997
  0
LINE
  8
_0-0_0
  6
CONTINUOUS
 62
    7
 10
207.00253249999997
 20
466.492279
 11
216.71035749999999
 21
466.492279
  0
LINE
  8
_0-0_0
  6
CONTINUOUS
 62
    7
 10
207.00253249999997
 20
465.207672
 11
216.71035749999999
 21
465.207672
  0
LINE
  8
_0-0_0
  6
CONTINUOUS
 62
    7
 10
218.00253249999997
 20
471.83154300000001
 11
218.00253249999997
 21
474.34997599999997
  0
LINE
  8
_0-0_0
  6
CONTINUOUS
 62
    7
 10
207.00253249999997
 20
476.45846599999999
 11
207.00253249999997
 21
473.10766599999999
  0
LINE
  8
_0-0_0
  6
CONTINUOUS
 62
    7
 10
196.00253249999997
 20
458.29998799999998
 11
196.00253249999997
 21
458.550049
  0
LINE
  8
_0-0_0
  6
CONTINUOUS
 62
    7
 10
171.50253249999997
 20
478.39999399999999
 11
166.50253249999997
 21
478.39999399999999
  0
ARC
  8
_0-0_0
  6
CONTINUOUS
 62
    7
 10
166.50253249999997
 20
473.89999399999999
 40
4.5
 50
90.000003000000007
 51
269.99999700000006
  0
LINE
  8
_0-0_0
  6
CONTINUOUS
 62
    7
 10
171.50253249999997
 20
469.39999399999999
 11
166.50253249999997
 21
469.39999399999999
  0
ARC
  8
_0-0_0
  6
CONTINUOUS
 62
    7
 10
171.50253249999997
 20
473.89999399999999
 40
4.5
 50
269.99999700000001
 51
90.000002999999992
  0
LINE
  8
_0-0_0
  6
CONTINUOUS
 62
    7
 10
115.50253249999997
 20
478.39999399999999
 11
110.50253249999997
 21
478.39999399999999
  0
ARC
  8
_0-0_0
  6
CONTINUOUS
 62
    7
 10
110.50253249999997
 20
473.89999399999999
 40
4.5
 50
90.000003000000007
 51
269.99999700000006
  0
LINE
  8
_0-0_0
  6
CONTINUOUS
 62
    7
 10
115.50253249999997
 20
469.39999399999999
 11
110.50253249999997
 21
469.39999399999999
  0
ARC
  8
_0-0_0
  6
CONTINUOUS
 62
    7
 10
115.50253249999997
 20
473.89999399999999
 40
4.5
 50
269.99999700000001
 51
90.000002999999992
  0
LINE
  8
_0-0_0
  6
CONTINUOUS
 62
    7
 10
140.81506349999995
 20
477.96963499999998
 11
139.5150605
 21
474.46963499999998
  0
LINE
  8
_0-0_0
  6
CONTINUOUS
 62
    7
 10
139.70254549999993
 20
474.19998199999998
 11
142.30255149999994
 21
474.19998199999998
  0
ARC
  8
_0-0_0
  6
CONTINUOUS
 62
    7
 10
142.30255149999994
 20
474.39999399999999
 40
0.2
 50
269.99999700000001
 51
20.376435000000019
  0
ARC
  8
_0-0_0
  6
CONTINUOUS
 62
    7
 10
141.00253249999997
 20
477.89999399999999
 40
0.2
 50
20.376434999999997
 51
159.62357000000003
  0
LINE
  8
_0-0_0
  6
CONTINUOUS
 62
    7
 10
196.00253249999997
 20
458.29998799999998
 11
196.00253249999997
 21
460.29998799999998
  0
ARC
  8
_0-0_0
  6
CONTINUOUS
 62
    7
 10
162.00253249999997
 20
464.69998199999998
 40
3
 50
180.00000900000003
 51
269.99999700000001
  0
LINE
  8
_0-0_0
  6
CONTINUOUS
 62
    7
 10
162.00253249999997
 20
461.69998199999998
 11
177.00253249999997
 21
461.69998199999998
  0
ARC
  8
_0-0_0
  6
CONTINUOUS
 62
    7
 10
177.00253249999997
 20
464.69998199999998
 40
3
 50
269.99999700000001
 51
0
  0
ARC
  8
_0-0_0
  6
CONTINUOUS
 62
    7
 10
177.00253249999997
 20
478.29998799999998
 40
3
 50
0
 51
90.000003000000007
  0
LINE
  8
_0-0_0
  6
CONTINUOUS
 62
    7
 10
177.00253249999997
 20
481.29998799999998
 11
162.00253249999997
 21
481.29998799999998
  0
ARC
  8
_0-0_0
  6
CONTINUOUS
 62
    7
 10
162.00253249999997
 20
478.29998799999998
 40
3
 50
90.000003000000007
 51
180.00000900000001
  0
ARC
  8
_0-0_0
  6
CONTINUOUS
 62
    7
 10
108.09222449999993
 20
466.78967299999999
 40
5.089683
 50
180.00000900000003
 51
269.99999700000001
  0
LINE
  8
_0-0_0
  6
CONTINUOUS
 62
    7
 10
108.09222449999993
 20
461.69998199999998
 11
119.35955849999993
 21
461.69998199999998
  0
ARC
  8
_0-0_0
  6
CONTINUOUS
 62
    7
 10
119.35955849999993
 20
465.34298699999999
 40
3.6429879999999999
 50
269.99999700000001
 51
0.0000099999999886
  0
LINE
  8
_0-0_0
  6
CONTINUOUS
 62
    7
 10
120.00253249999997
 20
481.29998799999998
 11
106.6686095
 21
481.29998799999998
  0
ARC
  8
_0-0_0
  6
CONTINUOUS
 62
    7
 10
106.6686095
 20
480.29998799999998
 40
1
 50
90.000003000000007
 51
172.23356100000001
  0
ARC
  8
_0-0_0
  6
CONTINUOUS
 62
    7
 10
104.00254849999999
 20
477.23767099999998
 40
1
 50
105.68034800000001
 51
180.00000900000001
  0
LINE
  8
_0-0_0
  6
CONTINUOUS
 62
    7
 10
161.40255749999994
 20
481.29998799999998
 11
161.40255749999994
 21
481.23937999999998
  0
LINE
  8
_0-0_0
  6
CONTINUOUS
 62
    7
 10
120.00253249999997
 20
461.75717199999997
 11
120.00253249999997
 21
461.704071
  0
LINE
  8
_0-0_0
  6
CONTINUOUS
 62
    7
 10
161.40255749999994
 20
461.76058999999998
 11
161.40255749999994
 21
461.704071
  0
LINE
  8
_0-0_0
  6
CONTINUOUS
 62
    7
 10
218.00253249999997
 20
463.84997599999997
 11
217.20254549999999
 21
463.04998799999998
  0
LINE
  8
_0-0_0
  6
CONTINUOUS
 62
    7
 10
232.00256349999995
 20
458.79998799999998
 11
231.50271549999997
 21
458.30014
  0
LINE
  8
_0-0_0
  6
CONTINUOUS
 62
    7
 10
232.00256349999995
 20
475.39999399999999
 11
231.50271549999997
 21
474.900147
  0
LINE
  8
_0-0_0
  6
CONTINUOUS
 62
    7
 10
219.20254549999999
 20
473.09997599999997
 11
277.20254549999999
 21
473.09997599999997
  0
LINE
  8
_0-0_0
  6
CONTINUOUS
 62
    7
 10
219.20254549999999
 20
465.09997599999997
 11
277.20254549999999
 21
465.09997599999997
  0
LINE
  8
_0-0_0
  6
CONTINUOUS
 62
    7
 10
232.00256349999995
 20
479.39999399999999
 11
231.50271549999997
 21
479.89984099999998
  0
LINE
  8
_0-0_0
  6
CONTINUOUS
 62
    7
 10
232.00256349999995
 20
462.79998799999998
 11
231.50271549999997
 21
463.29983499999997
  0
LINE
  8
_0-0_0
  6
CONTINUOUS
 62
    7
 10
222.00256349999995
 20
479.64999399999999
 11
222.25256349999995
 21
479.89999399999999
  0
LINE
  8
_0-0_0
  6
CONTINUOUS
 62
    7
 10
222.00256349999995
 20
475.14999399999999
 11
222.25256349999995
 21
474.89999399999999
  0
LINE
  8
_0-0_0
  6
CONTINUOUS
 62
    7
 10
222.00256349999995
 20
463.04998799999998
 11
222.25256349999995
 21
463.29998799999998
  0
LINE
  8
_0-0_0
  6
CONTINUOUS
 62
    7
 10
222.00256349999995
 20
458.54998799999998
 11
222.25256349999995
 21
458.29998799999998
  0
LINE
  8
_0-0_0
  6
CONTINUOUS
 62
    7
 10
219.20254549999999
 20
473.63809199999997
 11
218.40255749999994
 21
474.09997599999997
  0
LINE
  8
_0-0_0
  6
CONTINUOUS
 62
    7
 10
219.20254549999999
 20
464.56185899999997
 11
218.40255749999994
 21
464.09997599999997
  0
LINE
  8
_0-0_0
  6
CONTINUOUS
 62
    7
 10
201.75250249999999
 20
479.64999399999999
 11
222.00256349999995
 21
479.64999399999999
  0
LINE
  8
_0-0_0
  6
CONTINUOUS
 62
    7
 10
217.20254549999999
 20
475.14999399999999
 11
222.00256349999995
 21
475.14999399999999
  0
LINE
  8
_0-0_0
  6
CONTINUOUS
 62
    7
 10
196.00253249999997
 20
463.04998799999998
 11
222.00256349999995
 21
463.04998799999998
  0
LINE
  8
_0-0_0
  6
CONTINUOUS
 62
    7
 10
196.00253249999997
 20
458.54998799999998
 11
222.00256349999995
 21
458.54998799999998
  0
LINE
  8
_0-0_0
  6
CONTINUOUS
 62
    7
 10
218.00253249999997
 20
474.09997599999997
 11
218.40255749999994
 21
474.09997599999997
  0
LINE
  8
_0-0_0
  6
CONTINUOUS
 62
    7
 10
218.00253249999997
 20
464.09997599999997
 11
218.40255749999994
 21
464.09997599999997
  0
LINE
  8
_0-0_0
  6
CONTINUOUS
 62
    7
 10
218.00253249999997
 20
474.34997599999997
 11
216.75253249999997
 21
475.59997599999997
  0
ARC
  8
_0-0_0
  6
CONTINUOUS
 62
    7
 10
96.002548499999989
 20
502.59997599999997
 40
8
 50
215.099627
 51
324.90037799999999
  0
LINE
  8
_0-0_0
  6
CONTINUOUS
 62
    7
 10
87.002548499999989
 20
497.99997000000002
 11
89.457321499999978
 21
497.99997000000002
  0
LINE
  8
_0-0_0
  6
CONTINUOUS
 62
    7
 10
87.002548499999989
 20
484.79998799999998
 11
87.002548499999989
 21
497.99997000000002
  0
LINE
  8
_0-0_0
  6
CONTINUOUS
 62
    7
 10
940.00244150000003
 20
484.79998799999998
 11
940.00244150000003
 21
497.99997000000002
  0
LINE
  8
_0-0_0
  6
CONTINUOUS
 62
    7
 10
937.54772950000006
 20
497.99997000000002
 11
940.00244150000003
 21
497.99997000000002
  0
ARC
  8
_0-0_0
  6
CONTINUOUS
 62
    7
 10
931.00244150000003
 20
502.59997599999997
 40
8
 50
215.099627
 51
324.90037799999999
  0
LINE
  8
_0-0_0
  6
CONTINUOUS
 62
    7
 10
102.54777549999994
 20
497.99997000000002
 11
924.45727549999992
 21
497.99997000000002
  0
LINE
  8
_0-0_0
  6
CONTINUOUS
 62
    7
 10
102.54777549999994
 20
497.99997000000002
 11
102.63674949999995
 21
498.12927300000001
  0
LINE
  8
_0-0_0
  6
CONTINUOUS
 62
    7
 10
924.45727549999992
 20
497.99997000000002
 11
924.36828650000007
 21
498.12927300000001
  0
LINE
  8
_0-0_0
  6
CONTINUOUS
 62
    7
 10
937.72985849999986
 20
498.270691
 11
937.81127949999996
 21
498.39999399999999
  0
ARC
  8
_0-0_0
  6
CONTINUOUS
 62
    7
 10
931.00244150000003
 20
502.59997599999997
 40
8
 50
328.33175599999993
 51
334.05550899999992
  0
LINE
  8
_0-0_0
  6
CONTINUOUS
 62
    7
 10
938.19628850000004
 20
499.09997599999997
 11
938.29016150000007
 21
499.29998799999998
  0
LINE
  8
_0-0_0
  6
CONTINUOUS
 62
    7
 10
938.29016150000007
 20
499.29998799999998
 11
938.37744150000003
 21
499.49997000000002
  0
ARC
  8
_0-0_0
  6
CONTINUOUS
 62
    7
 10
931.00244150000003
 20
502.59997599999997
 40
8
 50
337.20097500000003
 51
342.54240199999998
  0
LINE
  8
_0-0_0
  6
CONTINUOUS
 62
    7
 10
938.63403349999999
 20
500.19998199999998
 11
938.69409150000001
 21
500.39999399999999
  0
LINE
  8
_0-0_0
  6
CONTINUOUS
 62
    7
 10
938.69409150000001
 20
500.39999399999999
 11
938.74853549999989
 21
500.59997599999997
  0
ARC
  8
_0-0_0
  6
CONTINUOUS
 62
    7
 10
931.00244150000003
 20
502.59997599999997
 40
8
 50
345.52249499999999
 51
350.64797900000002
  0
LINE
  8
_0-0_0
  6
CONTINUOUS
 62
    7
 10
938.89624049999998
 20
501.29998799999998
 11
938.92651350000006
 21
501.49997000000002
  0
LINE
  8
_0-0_0
  6
CONTINUOUS
 62
    7
 10
938.92651350000006
 20
501.49997000000002
 11
938.95166049999989
 21
501.69998199999998
  0
ARC
  8
_0-0_0
  6
CONTINUOUS
 62
    7
 10
931.00244150000003
 20
502.59997599999997
 40
8
 50
353.54056400000002
 51
358.56744600000002
  0
LINE
  8
_0-0_0
  6
CONTINUOUS
 62
    7
 10
938.99999950000006
 20
502.39999399999999
 11
939.00244150000003
 21
502.59997599999997
  0
LINE
  8
_0-0_0
  6
CONTINUOUS
 62
    7
 10
923.00500450000004
 20
502.39999399999999
 11
923.00244150000003
 21
502.59997599999997
  0
ARC
  8
_0-0_0
  6
CONTINUOUS
 62
    7
 10
931.00244150000003
 20
502.59997599999997
 40
8
 50
181.432545
 51
186.45945499999999
  0
LINE
  8
_0-0_0
  6
CONTINUOUS
 62
    7
 10
923.07849149999993
 20
501.49997000000002
 11
923.05322249999995
 21
501.69998199999998
  0
LINE
  8
_0-0_0
  6
CONTINUOUS
 62
    7
 10
923.10888649999993
 20
501.29998799999998
 11
923.07849149999993
 21
501.49997000000002
  0
ARC
  8
_0-0_0
  6
CONTINUOUS
 62
    7
 10
931.00244150000003
 20
502.59997599999997
 40
8
 50
189.35203999999999
 51
194.47751
  0
LINE
  8
_0-0_0
  6
CONTINUOUS
 62
    7
 10
923.31103549999989
 20
500.39999399999999
 11
923.25659150000001
 21
500.59997599999997
  0
LINE
  8
_0-0_0
  6
CONTINUOUS
 62
    7
 10
923.3709715
 20
500.19998199999998
 11
923.31103549999989
 21
500.39999399999999
  0
ARC
  8
_0-0_0
  6
CONTINUOUS
 62
    7
 10
931.00244150000003
 20
502.59997599999997
 40
8
 50
197.45760300000001
 51
202.79902999999999
  0
LINE
  8
_0-0_0
  6
CONTINUOUS
 62
    7
 10
923.71484349999992
 20
499.29998799999998
 11
923.62756349999995
 21
499.49997000000002
  0
LINE
  8
_0-0_0
  6
CONTINUOUS
 62
    7
 10
923.80883749999998
 20
499.09997599999997
 11
923.71484349999992
 21
499.29998799999998
  0
ARC
  8
_0-0_0
  6
CONTINUOUS
 62
    7
 10
931.00244150000003
 20
502.59997599999997
 40
8
 50
205.94448199999999
 51
211.66823500000001
  0
LINE
  8
_0-0_0
  6
CONTINUOUS
 62
    7
 10
924.27514649999989
 20
498.270691
 11
924.19360349999988
 21
498.39999399999999
  0
LINE
  8
_0-0_0
  6
CONTINUOUS
 62
    7
 10
924.27514649999989
 20
498.270691
 11
924.36828650000007
 21
498.12927300000001
  0
LINE
  8
_0-0_0
  6
CONTINUOUS
 62
    7
 10
937.54772950000006
 20
497.99997000000002
 11
937.63671849999992
 21
498.12927300000001
  0
LINE
  8
_0-0_0
  6
CONTINUOUS
 62
    7
 10
937.72985849999986
 20
498.270691
 11
937.63671849999992
 21
498.12927300000001
  0
LINE
  8
_0-0_0
  6
CONTINUOUS
 62
    7
 10
940.00244150000003
 20
498.12927300000001
 11
940.00244150000003
 21
497.99997000000002
  0
LINE
  8
_0-0_0
  6
CONTINUOUS
 62
    7
 10
940.00244150000003
 20
506.92929099999998
 11
940.00244150000003
 21
507.07070899999997
  0
LINE
  8
_0-0_0
  6
CONTINUOUS
 62
    7
 10
940.00244150000003
 20
506.92929099999998
 11
940.00244150000003
 21
506.79998799999998
  0
LINE
  8
_0-0_0
  6
CONTINUOUS
 62
    7
 10
940.00244150000003
 20
506.09997599999997
 11
940.00244150000003
 21
506.79998799999998
  0
LINE
  8
_0-0_0
  6
CONTINUOUS
 62
    7
 10
940.00244150000003
 20
505.89999399999999
 11
940.00244150000003
 21
506.09997599999997
  0
LINE
  8
_0-0_0
  6
CONTINUOUS
 62
    7
 10
940.00244150000003
 20
505.89999399999999
 11
940.00244150000003
 21
505.69998199999998
  0
LINE
  8
_0-0_0
  6
CONTINUOUS
 62
    7
 10
940.00244150000003
 20
504.99997000000002
 11
940.00244150000003
 21
505.69998199999998
  0
LINE
  8
_0-0_0
  6
CONTINUOUS
 62
    7
 10
940.00244150000003
 20
504.79998799999998
 11
940.00244150000003
 21
504.99997000000002
  0
LINE
  8
_0-0_0
  6
CONTINUOUS
 62
    7
 10
940.00244150000003
 20
504.79998799999998
 11
940.00244150000003
 21
504.59997599999997
  0
LINE
  8
_0-0_0
  6
CONTINUOUS
 62
    7
 10
940.00244150000003
 20
503.89999399999999
 11
940.00244150000003
 21
504.59997599999997
  0
LINE
  8
_0-0_0
  6
CONTINUOUS
 62
    7
 10
940.00244150000003
 20
503.69998199999998
 11
940.00244150000003
 21
503.89999399999999
  0
LINE
  8
_0-0_0
  6
CONTINUOUS
 62
    7
 10
940.00244150000003
 20
503.69998199999998
 11
940.00244150000003
 21
503.49997000000002
  0
LINE
  8
_0-0_0
  6
CONTINUOUS
 62
    7
 10
940.00244150000003
 20
502.79998799999998
 11
940.00244150000003
 21
503.49997000000002
  0
LINE
  8
_0-0_0
  6
CONTINUOUS
 62
    7
 10
940.00244150000003
 20
502.59997599999997
 11
940.00244150000003
 21
502.79998799999998
  0
LINE
  8
_0-0_0
  6
CONTINUOUS
 62
    7
 10
940.00244150000003
 20
502.59997599999997
 11
940.00244150000003
 21
502.39999399999999
  0
LINE
  8
_0-0_0
  6
CONTINUOUS
 62
    7
 10
940.00244150000003
 20
501.69998199999998
 11
940.00244150000003
 21
502.39999399999999
  0
LINE
  8
_0-0_0
  6
CONTINUOUS
 62
    7
 10
940.00244150000003
 20
501.49997000000002
 11
940.00244150000003
 21
501.69998199999998
  0
LINE
  8
_0-0_0
  6
CONTINUOUS
 62
    7
 10
940.00244150000003
 20
501.49997000000002
 11
940.00244150000003
 21
501.29998799999998
  0
LINE
  8
_0-0_0
  6
CONTINUOUS
 62
    7
 10
940.00244150000003
 20
500.59997599999997
 11
940.00244150000003
 21
501.29998799999998
  0
LINE
  8
_0-0_0
  6
CONTINUOUS
 62
    7
 10
940.00244150000003
 20
500.39999399999999
 11
940.00244150000003
 21
500.59997599999997
  0
LINE
  8
_0-0_0
  6
CONTINUOUS
 62
    7
 10
940.00244150000003
 20
500.39999399999999
 11
940.00244150000003
 21
500.19998199999998
  0
LINE
  8
_0-0_0
  6
CONTINUOUS
 62
    7
 10
940.00244150000003
 20
499.49997000000002
 11
940.00244150000003
 21
500.19998199999998
  0
LINE
  8
_0-0_0
  6
CONTINUOUS
 62
    7
 10
940.00244150000003
 20
499.29998799999998
 11
940.00244150000003
 21
499.49997000000002
  0
LINE
  8
_0-0_0
  6
CONTINUOUS
 62
    7
 10
940.00244150000003
 20
499.29998799999998
 11
940.00244150000003
 21
499.09997599999997
  0
LINE
  8
_0-0_0
  6
CONTINUOUS
 62
    7
 10
940.00244150000003
 20
498.39999399999999
 11
940.00244150000003
 21
499.09997599999997
  0
LINE
  8
_0-0_0
  6
CONTINUOUS
 62
    7
 10
940.00244150000003
 20
498.270691
 11
940.00244150000003
 21
498.39999399999999
  0
LINE
  8
_0-0_0
  6
CONTINUOUS
 62
    7
 10
940.00244150000003
 20
498.12927300000001
 11
940.00244150000003
 21
498.270691
  0
LINE
  8
_0-0_0
  6
CONTINUOUS
 62
    7
 10
940.00244150000003
 20
484.29998799999998
 11
940.00244150000003
 21
484.79998799999998
  0
LINE
  8
_0-0_0
  6
CONTINUOUS
 62
    7
 10
940.00244150000003
 20
512.79998799999998
 11
940.00244150000003
 21
512.20602400000007
  0
LINE
  8
_0-0_0
  6
CONTINUOUS
 62
    7
 10
940.00244150000003
 20
507.19998199999998
 11
940.00244150000003
 21
512.20602400000007
  0
LINE
  8
_0-0_0
  6
CONTINUOUS
 62
    7
 10
940.00244150000003
 20
507.07070899999997
 11
940.00244150000003
 21
507.19998199999998
  0
LINE
  8
_0-0_0
  6
CONTINUOUS
 62
    7
 10
87.002548499999989
 20
484.29998799999998
 11
87.002548499999989
 21
484.79998799999998
  0
LINE
  8
_0-0_0
  6
CONTINUOUS
 62
    7
 10
87.002548499999989
 20
484.29998799999998
 11
940.00244150000003
 21
484.29998799999998
  0
LINE
  8
_0-0_0
  6
CONTINUOUS
 62
    7
 10
87.002548499999989
 20
498.12927300000001
 11
87.002548499999989
 21
498.270691
  0
LINE
  8
_0-0_0
  6
CONTINUOUS
 62
    7
 10
87.002548499999989
 20
498.12927300000001
 11
87.002548499999989
 21
497.99997000000002
  0
LINE
  8
_0-0_0
  6
CONTINUOUS
 62
    7
 10
87.002548499999989
 20
512.79998799999998
 11
87.002548499999989
 21
512.20602400000007
  0
LINE
  8
_0-0_0
  6
CONTINUOUS
 62
    7
 10
87.002548499999989
 20
507.19998199999998
 11
87.002548499999989
 21
512.20602400000007
  0
LINE
  8
_0-0_0
  6
CONTINUOUS
 62
    7
 10
87.002548499999989
 20
507.07070899999997
 11
87.002548499999989
 21
507.19998199999998
  0
LINE
  8
_0-0_0
  6
CONTINUOUS
 62
    7
 10
87.002548499999989
 20
506.92929099999998
 11
87.002548499999989
 21
507.07070899999997
  0
LINE
  8
_0-0_0
  6
CONTINUOUS
 62
    7
 10
87.002548499999989
 20
506.92929099999998
 11
87.002548499999989
 21
506.79998799999998
  0
LINE
  8
_0-0_0
  6
CONTINUOUS
 62
    7
 10
87.002548499999989
 20
506.09997599999997
 11
87.002548499999989
 21
506.79998799999998
  0
LINE
  8
_0-0_0
  6
CONTINUOUS
 62
    7
 10
87.002548499999989
 20
505.97070300000001
 11
87.002548499999989
 21
506.09997599999997
  0
LINE
  8
_0-0_0
  6
CONTINUOUS
 62
    7
 10
87.002548499999989
 20
505.82928499999997
 11
87.002548499999989
 21
505.97070300000001
  0
LINE
  8
_0-0_0
  6
CONTINUOUS
 62
    7
 10
87.002548499999989
 20
505.82928499999997
 11
87.002548499999989
 21
505.69998199999998
  0
LINE
  8
_0-0_0
  6
CONTINUOUS
 62
    7
 10
87.002548499999989
 20
504.99997000000002
 11
87.002548499999989
 21
505.69998199999998
  0
LINE
  8
_0-0_0
  6
CONTINUOUS
 62
    7
 10
87.002548499999989
 20
504.87069700000001
 11
87.002548499999989
 21
504.99997000000002
  0
LINE
  8
_0-0_0
  6
CONTINUOUS
 62
    7
 10
87.002548499999989
 20
504.72927900000002
 11
87.002548499999989
 21
504.87069700000001
  0
LINE
  8
_0-0_0
  6
CONTINUOUS
 62
    7
 10
87.002548499999989
 20
504.72927900000002
 11
87.002548499999989
 21
504.59997599999997
  0
LINE
  8
_0-0_0
  6
CONTINUOUS
 62
    7
 10
87.002548499999989
 20
503.89999399999999
 11
87.002548499999989
 21
504.59997599999997
  0
LINE
  8
_0-0_0
  6
CONTINUOUS
 62
    7
 10
87.002548499999989
 20
503.770691
 11
87.002548499999989
 21
503.89999399999999
  0
LINE
  8
_0-0_0
  6
CONTINUOUS
 62
    7
 10
87.002548499999989
 20
503.62927300000001
 11
87.002548499999989
 21
503.770691
  0
LINE
  8
_0-0_0
  6
CONTINUOUS
 62
    7
 10
87.002548499999989
 20
503.62927300000001
 11
87.002548499999989
 21
503.49997000000002
  0
LINE
  8
_0-0_0
  6
CONTINUOUS
 62
    7
 10
87.002548499999989
 20
502.79998799999998
 11
87.002548499999989
 21
503.49997000000002
  0
LINE
  8
_0-0_0
  6
CONTINUOUS
 62
    7
 10
87.002548499999989
 20
502.67068499999999
 11
87.002548499999989
 21
502.79998799999998
  0
LINE
  8
_0-0_0
  6
CONTINUOUS
 62
    7
 10
87.002548499999989
 20
502.52926600000001
 11
87.002548499999989
 21
502.67068499999999
  0
LINE
  8
_0-0_0
  6
CONTINUOUS
 62
    7
 10
87.002548499999989
 20
502.52926600000001
 11
87.002548499999989
 21
502.39999399999999
  0
LINE
  8
_0-0_0
  6
CONTINUOUS
 62
    7
 10
87.002548499999989
 20
501.69998199999998
 11
87.002548499999989
 21
502.39999399999999
  0
LINE
  8
_0-0_0
  6
CONTINUOUS
 62
    7
 10
87.002548499999989
 20
501.57070899999997
 11
87.002548499999989
 21
501.69998199999998
  0
LINE
  8
_0-0_0
  6
CONTINUOUS
 62
    7
 10
87.002548499999989
 20
501.42929099999998
 11
87.002548499999989
 21
501.57070899999997
  0
LINE
  8
_0-0_0
  6
CONTINUOUS
 62
    7
 10
87.002548499999989
 20
501.42929099999998
 11
87.002548499999989
 21
501.29998799999998
  0
LINE
  8
_0-0_0
  6
CONTINUOUS
 62
    7
 10
87.002548499999989
 20
500.59997599999997
 11
87.002548499999989
 21
501.29998799999998
  0
LINE
  8
_0-0_0
  6
CONTINUOUS
 62
    7
 10
87.002548499999989
 20
500.47070300000001
 11
87.002548499999989
 21
500.59997599999997
  0
LINE
  8
_0-0_0
  6
CONTINUOUS
 62
    7
 10
87.002548499999989
 20
500.32928499999997
 11
87.002548499999989
 21
500.47070300000001
  0
LINE
  8
_0-0_0
  6
CONTINUOUS
 62
    7
 10
87.002548499999989
 20
500.32928499999997
 11
87.002548499999989
 21
500.19998199999998
  0
LINE
  8
_0-0_0
  6
CONTINUOUS
 62
    7
 10
87.002548499999989
 20
499.49997000000002
 11
87.002548499999989
 21
500.19998199999998
  0
LINE
  8
_0-0_0
  6
CONTINUOUS
 62
    7
 10
87.002548499999989
 20
499.37069700000001
 11
87.002548499999989
 21
499.49997000000002
  0
LINE
  8
_0-0_0
  6
CONTINUOUS
 62
    7
 10
87.002548499999989
 20
499.22927900000002
 11
87.002548499999989
 21
499.37069700000001
  0
LINE
  8
_0-0_0
  6
CONTINUOUS
 62
    7
 10
87.002548499999989
 20
499.22927900000002
 11
87.002548499999989
 21
499.09997599999997
  0
LINE
  8
_0-0_0
  6
CONTINUOUS
 62
    7
 10
87.002548499999989
 20
498.39999399999999
 11
87.002548499999989
 21
499.09997599999997
  0
LINE
  8
_0-0_0
  6
CONTINUOUS
 62
    7
 10
87.002548499999989
 20
498.270691
 11
87.002548499999989
 21
498.39999399999999
  0
LINE
  8
_0-0_0
  6
CONTINUOUS
 62
    7
 10
89.457321499999978
 20
497.99997000000002
 11
89.368331499999954
 21
498.12927300000001
  0
LINE
  8
_0-0_0
  6
CONTINUOUS
 62
    7
 10
102.72988849999996
 20
498.270691
 11
102.63674949999995
 21
498.12927300000001
  0
LINE
  8
_0-0_0
  6
CONTINUOUS
 62
    7
 10
102.72988849999996
 20
498.270691
 11
102.81137049999995
 21
498.39999399999999
  0
ARC
  8
_0-0_0
  6
CONTINUOUS
 62
    7
 10
96.002548499999989
 20
502.59997599999997
 40
8
 50
328.33175599999993
 51
334.05550899999992
  0
LINE
  8
_0-0_0
  6
CONTINUOUS
 62
    7
 10
103.19628849999998
 20
499.09997599999997
 11
103.29020649999995
 21
499.29998799999998
  0
LINE
  8
_0-0_0
  6
CONTINUOUS
 62
    7
 10
103.29020649999995
 20
499.29998799999998
 11
103.37750249999999
 21
499.49997000000002
  0
ARC
  8
_0-0_0
  6
CONTINUOUS
 62
    7
 10
96.002548499999989
 20
502.59997599999997
 40
8
 50
337.20097500000003
 51
342.54240199999998
  0
LINE
  8
_0-0_0
  6
CONTINUOUS
 62
    7
 10
103.63406349999997
 20
500.19998199999998
 11
103.69409149999996
 21
500.39999399999999
  0
LINE
  8
_0-0_0
  6
CONTINUOUS
 62
    7
 10
103.69409149999996
 20
500.39999399999999
 11
103.74850449999997
 21
500.59997599999997
  0
ARC
  8
_0-0_0
  6
CONTINUOUS
 62
    7
 10
96.002548499999989
 20
502.59997599999997
 40
8
 50
345.52249499999999
 51
350.64797900000002
  0
LINE
  8
_0-0_0
  6
CONTINUOUS
 62
    7
 10
103.89620949999994
 20
501.29998799999998
 11
103.92655949999994
 21
501.49997000000002
  0
LINE
  8
_0-0_0
  6
CONTINUOUS
 62
    7
 10
103.92655949999994
 20
501.49997000000002
 11
103.9517515
 21
501.69998199999998
  0
ARC
  8
_0-0_0
  6
CONTINUOUS
 62
    7
 10
96.002548499999989
 20
502.59997599999997
 40
8
 50
353.54056400000002
 51
358.56744600000002
  0
LINE
  8
_0-0_0
  6
CONTINUOUS
 62
    7
 10
104.00004549999994
 20
502.39999399999999
 11
104.00254849999999
 21
502.59997599999997
  0
LINE
  8
_0-0_0
  6
CONTINUOUS
 62
    7
 10
88.002853499999958
 20
502.52926600000001
 11
88.002548499999989
 21
502.59997599999997
  0
LINE
  8
_0-0_0
  6
CONTINUOUS
 62
    7
 10
88.005035499999963
 20
502.39999399999999
 11
88.002853499999958
 21
502.52926600000001
  0
ARC
  8
_0-0_0
  6
CONTINUOUS
 62
    7
 10
96.002548499999989
 20
502.59997599999997
 40
8
 50
181.432545
 51
186.45945499999999
  0
LINE
  8
_0-0_0
  6
CONTINUOUS
 62
    7
 10
88.06903049999994
 20
501.57070899999997
 11
88.053329499999961
 21
501.69998199999998
  0
LINE
  8
_0-0_0
  6
CONTINUOUS
 62
    7
 10
88.06903049999994
 20
501.57070899999997
 11
88.088668499999926
 21
501.42929099999998
  0
LINE
  8
_0-0_0
  6
CONTINUOUS
 62
    7
 10
88.108871499999964
 20
501.29998799999998
 11
88.088668499999926
 21
501.42929099999998
  0
ARC
  8
_0-0_0
  6
CONTINUOUS
 62
    7
 10
96.002548499999989
 20
502.59997599999997
 40
8
 50
189.35203999999999
 51
194.47751
  0
LINE
  8
_0-0_0
  6
CONTINUOUS
 62
    7
 10
88.291107499999953
 20
500.47070300000001
 11
88.256576499999937
 21
500.59997599999997
  0
LINE
  8
_0-0_0
  6
CONTINUOUS
 62
    7
 10
88.291107499999953
 20
500.47070300000001
 11
88.33157349999999
 21
500.32928499999997
  0
LINE
  8
_0-0_0
  6
CONTINUOUS
 62
    7
 10
88.371032499999956
 20
500.19998199999998
 11
88.33157349999999
 21
500.32928499999997
  0
ARC
  8
_0-0_0
  6
CONTINUOUS
 62
    7
 10
96.002548499999989
 20
502.59997599999997
 40
8
 50
197.45760300000001
 51
202.79902999999999
  0
LINE
  8
_0-0_0
  6
CONTINUOUS
 62
    7
 10
88.683273499999927
 20
499.37069700000001
 11
88.627593499999989
 21
499.49997000000002
  0
LINE
  8
_0-0_0
  6
CONTINUOUS
 62
    7
 10
88.683273499999927
 20
499.37069700000001
 11
88.747314499999959
 21
499.22927900000002
  0
LINE
  8
_0-0_0
  6
CONTINUOUS
 62
    7
 10
88.808792499999981
 20
499.09997599999997
 11
88.747314499999959
 21
499.22927900000002
  0
ARC
  8
_0-0_0
  6
CONTINUOUS
 62
    7
 10
96.002548499999989
 20
502.59997599999997
 40
8
 50
205.94448199999999
 51
211.66823500000001
  0
LINE
  8
_0-0_0
  6
CONTINUOUS
 62
    7
 10
89.275192500000003
 20
498.270691
 11
89.193725499999971
 21
498.39999399999999
  0
LINE
  8
_0-0_0
  6
CONTINUOUS
 62
    7
 10
89.275192500000003
 20
498.270691
 11
89.368331499999954
 21
498.12927300000001
  0
LINE
  8
_0-0_0
  6
CONTINUOUS
 62
    7
 10
857.50256349999995
 20
490.29998799999998
 11
864.50256349999995
 21
490.29998799999998
  0
ARC
  8
_0-0_0
  6
CONTINUOUS
 62
    7
 10
857.50256349999995
 20
489.79998799999998
 40
0.5
 50
90.000003000000007
 51
180.00000900000001
  0
LINE
  8
_0-0_0
  6
CONTINUOUS
 62
    7
 10
857.00256349999995
 20
489.79998799999998
 11
857.00256349999995
 21
485.79998799999998
  0
ARC
  8
_0-0_0
  6
CONTINUOUS
 62
    7
 10
857.50256349999995
 20
485.79998799999998
 40
0.5
 50
180.00000900000003
 51
269.99999700000001
  0
LINE
  8
_0-0_0
  6
CONTINUOUS
 62
    7
 10
864.50256349999995
 20
485.29998799999998
 11
857.50256349999995
 21
485.29998799999998
  0
ARC
  8
_0-0_0
  6
CONTINUOUS
 62
    7
 10
864.50256349999995
 20
485.79998799999998
 40
0.5
 50
269.99999700000001
 51
0
  0
LINE
  8
_0-0_0
  6
CONTINUOUS
 62
    7
 10
865.00256349999995
 20
485.79998799999998
 11
865.00256349999995
 21
489.79998799999998
  0
ARC
  8
_0-0_0
  6
CONTINUOUS
 62
    7
 10
864.50256349999995
 20
489.79998799999998
 40
0.5
 50
0
 51
90.000003000000007
  0
ARC
  8
_0-0_0
  6
CONTINUOUS
 62
    7
 10
137.50253249999997
 20
489.79998799999998
 40
0.5
 50
90.000003000000007
 51
180.00000900000001
  0
LINE
  8
_0-0_0
  6
CONTINUOUS
 62
    7
 10
137.00253249999997
 20
489.79998799999998
 11
137.00253249999997
 21
485.79998799999998
  0
ARC
  8
_0-0_0
  6
CONTINUOUS
 62
    7
 10
137.50253249999997
 20
485.79998799999998
 40
0.5
 50
180.00000900000003
 51
269.99999700000001
  0
LINE
  8
_0-0_0
  6
CONTINUOUS
 62
    7
 10
144.50253249999997
 20
485.29998799999998
 11
137.50253249999997
 21
485.29998799999998
  0
ARC
  8
_0-0_0
  6
CONTINUOUS
 62
    7
 10
144.50253249999997
 20
485.79998799999998
 40
0.5
 50
269.99999700000001
 51
0
  0
LINE
  8
_0-0_0
  6
CONTINUOUS
 62
    7
 10
145.00253249999997
 20
485.79998799999998
 11
145.00253249999997
 21
489.79998799999998
  0
ARC
  8
_0-0_0
  6
CONTINUOUS
 62
    7
 10
144.50253249999997
 20
489.79998799999998
 40
0.5
 50
0
 51
90.000003000000007
  0
LINE
  8
_0-0_0
  6
CONTINUOUS
 62
    7
 10
137.50253249999997
 20
490.29998799999998
 11
144.50253249999997
 21
490.29998799999998
  0
LINE
  8
_0-0_0
  6
CONTINUOUS
 62
    7
 10
102.81137049999995
 20
498.39999399999999
 11
924.19360349999988
 21
498.39999399999999
  0
LINE
  8
_0-0_0
  6
CONTINUOUS
 62
    7
 10
103.19628849999998
 20
499.09997599999997
 11
923.80883749999998
 21
499.09997599999997
  0
LINE
  8
_0-0_0
  6
CONTINUOUS
 62
    7
 10
103.29020649999995
 20
499.29998799999998
 11
923.71484349999992
 21
499.29998799999998
  0
LINE
  8
_0-0_0
  6
CONTINUOUS
 62
    7
 10
103.37750249999999
 20
499.49997000000002
 11
923.62756349999995
 21
499.49997000000002
  0
LINE
  8
_0-0_0
  6
CONTINUOUS
 62
    7
 10
103.63406349999997
 20
500.19998199999998
 11
923.3709715
 21
500.19998199999998
  0
LINE
  8
_0-0_0
  6
CONTINUOUS
 62
    7
 10
103.69409149999996
 20
500.39999399999999
 11
923.31103549999989
 21
500.39999399999999
  0
LINE
  8
_0-0_0
  6
CONTINUOUS
 62
    7
 10
103.74850449999997
 20
500.59997599999997
 11
923.25659150000001
 21
500.59997599999997
  0
LINE
  8
_0-0_0
  6
CONTINUOUS
 62
    7
 10
103.89620949999994
 20
501.29998799999998
 11
923.10888649999993
 21
501.29998799999998
  0
LINE
  8
_0-0_0
  6
CONTINUOUS
 62
    7
 10
103.92655949999994
 20
501.49997000000002
 11
923.07849149999993
 21
501.49997000000002
  0
LINE
  8
_0-0_0
  6
CONTINUOUS
 62
    7
 10
103.9517515
 20
501.69998199999998
 11
923.05322249999995
 21
501.69998199999998
  0
LINE
  8
_0-0_0
  6
CONTINUOUS
 62
    7
 10
104.00004549999994
 20
502.39999399999999
 11
923.00500450000004
 21
502.39999399999999
  0
LINE
  8
_0-0_0
  6
CONTINUOUS
 62
    7
 10
104.00254849999999
 20
502.59997599999997
 11
923.00244150000003
 21
502.59997599999997
  0
LINE
  8
_0-0_0
  6
CONTINUOUS
 62
    7
 10
937.54772950000006
 20
507.19998199999998
 11
937.63671849999992
 21
507.07070899999997
  0
ARC
  8
_0-0_0
  6
CONTINUOUS
 62
    7
 10
931.00244150000003
 20
502.59997599999997
 40
8
 50
35.099632
 51
144.900373
  0
LINE
  8
_0-0_0
  6
CONTINUOUS
 62
    7
 10
924.45727549999992
 20
507.19998199999998
 11
924.36828650000007
 21
507.07070899999997
  0
LINE
  8
_0-0_0
  6
CONTINUOUS
 62
    7
 10
924.27514649999989
 20
506.92929099999998
 11
924.36828650000007
 21
507.07070899999997
  0
LINE
  8
_0-0_0
  6
CONTINUOUS
 62
    7
 10
924.27514649999989
 20
506.92929099999998
 11
924.19360349999988
 21
506.79998799999998
  0
ARC
  8
_0-0_0
  6
CONTINUOUS
 62
    7
 10
931.00244150000003
 20
502.59997599999997
 40
8
 50
148.33176499999999
 51
154.05551800000001
  0
LINE
  8
_0-0_0
  6
CONTINUOUS
 62
    7
 10
923.80883749999998
 20
506.09997599999997
 11
923.71484349999992
 21
505.89999399999999
  0
LINE
  8
_0-0_0
  6
CONTINUOUS
 62
    7
 10
923.71484349999992
 20
505.89999399999999
 11
923.62756349999995
 21
505.69998199999998
  0
ARC
  8
_0-0_0
  6
CONTINUOUS
 62
    7
 10
931.00244150000003
 20
502.59997599999997
 40
8
 50
157.20097000000001
 51
162.54239699999999
  0
LINE
  8
_0-0_0
  6
CONTINUOUS
 62
    7
 10
923.3709715
 20
504.99997000000002
 11
923.31103549999989
 21
504.79998799999998
  0
LINE
  8
_0-0_0
  6
CONTINUOUS
 62
    7
 10
923.31103549999989
 20
504.79998799999998
 11
923.25659150000001
 21
504.59997599999997
  0
ARC
  8
_0-0_0
  6
CONTINUOUS
 62
    7
 10
931.00244150000003
 20
502.59997599999997
 40
8
 50
165.52249
 51
170.64796000000001
  0
LINE
  8
_0-0_0
  6
CONTINUOUS
 62
    7
 10
923.10888649999993
 20
503.89999399999999
 11
923.07849149999993
 21
503.69998199999998
  0
LINE
  8
_0-0_0
  6
CONTINUOUS
 62
    7
 10
923.07849149999993
 20
503.69998199999998
 11
923.05322249999995
 21
503.49997000000002
  0
ARC
  8
_0-0_0
  6
CONTINUOUS
 62
    7
 10
931.00244150000003
 20
502.59997599999997
 40
8
 50
173.54054500000001
 51
178.567455
  0
LINE
  8
_0-0_0
  6
CONTINUOUS
 62
    7
 10
923.00500450000004
 20
502.79998799999998
 11
923.00244150000003
 21
502.59997599999997
  0
LINE
  8
_0-0_0
  6
CONTINUOUS
 62
    7
 10
938.99999950000006
 20
502.79998799999998
 11
939.00244150000003
 21
502.59997599999997
  0
ARC
  8
_0-0_0
  6
CONTINUOUS
 62
    7
 10
931.00244150000003
 20
502.59997599999997
 40
8
 50
1.432544
 51
6.4594489999999993
  0
LINE
  8
_0-0_0
  6
CONTINUOUS
 62
    7
 10
938.92651350000006
 20
503.69998199999998
 11
938.95166049999989
 21
503.49997000000002
  0
LINE
  8
_0-0_0
  6
CONTINUOUS
 62
    7
 10
938.89624049999998
 20
503.89999399999999
 11
938.92651350000006
 21
503.69998199999998
  0
ARC
  8
_0-0_0
  6
CONTINUOUS
 62
    7
 10
931.00244150000003
 20
502.59997599999997
 40
8
 50
9.3520350000000008
 51
14.477510999999998
  0
LINE
  8
_0-0_0
  6
CONTINUOUS
 62
    7
 10
938.69409150000001
 20
504.79998799999998
 11
938.74853549999989
 21
504.59997599999997
  0
LINE
  8
_0-0_0
  6
CONTINUOUS
 62
    7
 10
938.63403349999999
 20
504.99997000000002
 11
938.69409150000001
 21
504.79998799999998
  0
ARC
  8
_0-0_0
  6
CONTINUOUS
 62
    7
 10
931.00244150000003
 20
502.59997599999997
 40
8
 50
17.457602999999999
 51
22.799030999999999
  0
LINE
  8
_0-0_0
  6
CONTINUOUS
 62
    7
 10
938.29016150000007
 20
505.89999399999999
 11
938.37744150000003
 21
505.69998199999998
  0
LINE
  8
_0-0_0
  6
CONTINUOUS
 62
    7
 10
938.19628850000004
 20
506.09997599999997
 11
938.29016150000007
 21
505.89999399999999
  0
ARC
  8
_0-0_0
  6
CONTINUOUS
 62
    7
 10
931.00244150000003
 20
502.59997599999997
 40
8
 50
25.944476999999999
 51
31.668240000000001
  0
LINE
  8
_0-0_0
  6
CONTINUOUS
 62
    7
 10
937.72985849999986
 20
506.92929099999998
 11
937.81127949999996
 21
506.79998799999998
  0
LINE
  8
_0-0_0
  6
CONTINUOUS
 62
    7
 10
937.72985849999986
 20
506.92929099999998
 11
937.63671849999992
 21
507.07070899999997
  0
CIRCLE
  8
_0-0_0
  6
CONTINUOUS
 62
    7
 10
931.00244150000003
 20
502.59997599999997
 40
7.5
  0
LINE
  8
_0-0_0
  6
CONTINUOUS
 62
    7
 10
938.99999950000006
 20
502.39999399999999
 11
940.00244150000003
 21
502.39999399999999
  0
LINE
  8
_0-0_0
  6
CONTINUOUS
 62
    7
 10
939.00244150000003
 20
502.59997599999997
 11
940.00244150000003
 21
502.59997599999997
  0
LINE
  8
_0-0_0
  6
CONTINUOUS
 62
    7
 10
938.95166049999989
 20
501.69998199999998
 11
940.00244150000003
 21
501.69998199999998
  0
LINE
  8
_0-0_0
  6
CONTINUOUS
 62
    7
 10
938.92651350000006
 20
501.49997000000002
 11
940.00244150000003
 21
501.49997000000002
  0
LINE
  8
_0-0_0
  6
CONTINUOUS
 62
    7
 10
938.89624049999998
 20
501.29998799999998
 11
940.00244150000003
 21
501.29998799999998
  0
LINE
  8
_0-0_0
  6
CONTINUOUS
 62
    7
 10
938.74853549999989
 20
500.59997599999997
 11
940.00244150000003
 21
500.59997599999997
  0
LINE
  8
_0-0_0
  6
CONTINUOUS
 62
    7
 10
938.69409150000001
 20
500.39999399999999
 11
940.00244150000003
 21
500.39999399999999
  0
LINE
  8
_0-0_0
  6
CONTINUOUS
 62
    7
 10
938.63403349999999
 20
500.19998199999998
 11
940.00244150000003
 21
500.19998199999998
  0
LINE
  8
_0-0_0
  6
CONTINUOUS
 62
    7
 10
938.37744150000003
 20
499.49997000000002
 11
940.00244150000003
 21
499.49997000000002
  0
LINE
  8
_0-0_0
  6
CONTINUOUS
 62
    7
 10
938.29016150000007
 20
499.29998799999998
 11
940.00244150000003
 21
499.29998799999998
  0
LINE
  8
_0-0_0
  6
CONTINUOUS
 62
    7
 10
938.19628850000004
 20
499.09997599999997
 11
940.00244150000003
 21
499.09997599999997
  0
LINE
  8
_0-0_0
  6
CONTINUOUS
 62
    7
 10
937.81127949999996
 20
498.39999399999999
 11
940.00244150000003
 21
498.39999399999999
  0
LINE
  8
_0-0_0
  6
CONTINUOUS
 62
    7
 10
937.81127949999996
 20
506.79998799999998
 11
940.00244150000003
 21
506.79998799999998
  0
LINE
  8
_0-0_0
  6
CONTINUOUS
 62
    7
 10
938.19628850000004
 20
506.09997599999997
 11
940.00244150000003
 21
506.09997599999997
  0
LINE
  8
_0-0_0
  6
CONTINUOUS
 62
    7
 10
938.29016150000007
 20
505.89999399999999
 11
940.00244150000003
 21
505.89999399999999
  0
LINE
  8
_0-0_0
  6
CONTINUOUS
 62
    7
 10
938.37744150000003
 20
505.69998199999998
 11
940.00244150000003
 21
505.69998199999998
  0
LINE
  8
_0-0_0
  6
CONTINUOUS
 62
    7
 10
938.63403349999999
 20
504.99997000000002
 11
940.00244150000003
 21
504.99997000000002
  0
LINE
  8
_0-0_0
  6
CONTINUOUS
 62
    7
 10
938.69409150000001
 20
504.79998799999998
 11
940.00244150000003
 21
504.79998799999998
  0
LINE
  8
_0-0_0
  6
CONTINUOUS
 62
    7
 10
938.74853549999989
 20
504.59997599999997
 11
940.00244150000003
 21
504.59997599999997
  0
LINE
  8
_0-0_0
  6
CONTINUOUS
 62
    7
 10
938.89624049999998
 20
503.89999399999999
 11
940.00244150000003
 21
503.89999399999999
  0
LINE
  8
_0-0_0
  6
CONTINUOUS
 62
    7
 10
938.92651350000006
 20
503.69998199999998
 11
940.00244150000003
 21
503.69998199999998
  0
LINE
  8
_0-0_0
  6
CONTINUOUS
 62
    7
 10
938.95166049999989
 20
503.49997000000002
 11
940.00244150000003
 21
503.49997000000002
  0
LINE
  8
_0-0_0
  6
CONTINUOUS
 62
    7
 10
938.99999950000006
 20
502.79998799999998
 11
940.00244150000003
 21
502.79998799999998
  0
LINE
  8
_0-0_0
  6
CONTINUOUS
 62
    7
 10
940.50244150000003
 20
486.09997599999997
 11
940.00244150000003
 21
486.09997599999997
  0
LINE
  8
_0-0_0
  6
CONTINUOUS
 62
    7
 10
940.50244150000003
 20
488.29998799999998
 11
940.00244150000003
 21
488.29998799999998
  0
LINE
  8
_0-0_0
  6
CONTINUOUS
 62
    7
 10
940.50244150000003
 20
490.59997599999997
 11
940.00244150000003
 21
490.59997599999997
  0
LINE
  8
_0-0_0
  6
CONTINUOUS
 62
    7
 10
87.002548499999989
 20
490.59997599999997
 11
86.502548499999989
 21
490.59997599999997
  0
LINE
  8
_0-0_0
  6
CONTINUOUS
 62
    7
 10
940.00244150000003
 20
492.89999399999999
 11
940.50244150000003
 21
492.89999399999999
  0
LINE
  8
_0-0_0
  6
CONTINUOUS
 62
    7
 10
940.50244150000003
 20
513.09997599999997
 11
940.50244150000003
 21
512.99997000000008
  0
LINE
  8
_0-0_0
  6
CONTINUOUS
 62
    7
 10
86.502548499999989
 20
513.09997599999997
 11
86.502548499999989
 21
512.99997000000008
  0
LINE
  8
_0-0_0
  6
CONTINUOUS
 62
    7
 10
86.502548499999989
 20
492.89999399999999
 11
87.002548499999989
 21
492.89999399999999
  0
LINE
  8
_0-0_0
  6
CONTINUOUS
 62
    7
 10
87.002548499999989
 20
512.79998799999998
 11
940.00244150000003
 21
512.79998799999998
  0
LINE
  8
_0-0_0
  6
CONTINUOUS
 62
    7
 10
87.002548499999989
 20
512.20602400000007
 11
940.00244150000003
 21
512.20602400000007
  0
LINE
  8
_0-0_0
  6
CONTINUOUS
 62
    7
 10
937.54772950000006
 20
507.19998199999998
 11
940.00244150000003
 21
507.19998199999998
  0
LINE
  8
_0-0_0
  6
CONTINUOUS
 62
    7
 10
87.002548499999989
 20
507.19998199999998
 11
89.457321499999978
 21
507.19998199999998
  0
ARC
  8
_0-0_0
  6
CONTINUOUS
 62
    7
 10
96.002548499999989
 20
502.59997599999997
 40
8
 50
35.099632
 51
144.900373
  0
LINE
  8
_0-0_0
  6
CONTINUOUS
 62
    7
 10
102.54777549999994
 20
507.19998199999998
 11
924.45727549999992
 21
507.19998199999998
  0
LINE
  8
_0-0_0
  6
CONTINUOUS
 62
    7
 10
86.502548499999989
 20
486.09997599999997
 11
87.002532499999973
 21
486.09997599999997
  0
LINE
  8
_0-0_0
  6
CONTINUOUS
 62
    7
 10
87.002548499999989
 20
488.29998799999998
 11
86.502548499999989
 21
488.29998799999998
  0
LINE
  8
_0-0_0
  6
CONTINUOUS
 62
    7
 10
89.457321499999978
 20
507.19998199999998
 11
89.368331499999954
 21
507.07070899999997
  0
LINE
  8
_0-0_0
  6
CONTINUOUS
 62
    7
 10
89.275192500000003
 20
506.92929099999998
 11
89.368331499999954
 21
507.07070899999997
  0
LINE
  8
_0-0_0
  6
CONTINUOUS
 62
    7
 10
87.002548499999989
 20
506.79998799999998
 11
89.193725499999971
 21
506.79998799999998
  0
LINE
  8
_0-0_0
  6
CONTINUOUS
 62
    7
 10
89.275192500000003
 20
506.92929099999998
 11
89.193725499999971
 21
506.79998799999998
  0
ARC
  8
_0-0_0
  6
CONTINUOUS
 62
    7
 10
96.002548499999989
 20
502.59997599999997
 40
8
 50
148.33176499999999
 51
154.05551800000001
  0
LINE
  8
_0-0_0
  6
CONTINUOUS
 62
    7
 10
87.002548499999989
 20
506.09997599999997
 11
88.808792499999981
 21
506.09997599999997
  0
LINE
  8
_0-0_0
  6
CONTINUOUS
 62
    7
 10
88.808792499999981
 20
506.09997599999997
 11
88.747314499999959
 21
505.97070300000001
  0
LINE
  8
_0-0_0
  6
CONTINUOUS
 62
    7
 10
88.683273499999927
 20
505.82928499999997
 11
88.747314499999959
 21
505.97070300000001
  0
LINE
  8
_0-0_0
  6
CONTINUOUS
 62
    7
 10
87.002548499999989
 20
505.69998199999998
 11
88.627593499999989
 21
505.69998199999998
  0
LINE
  8
_0-0_0
  6
CONTINUOUS
 62
    7
 10
88.683273499999927
 20
505.82928499999997
 11
88.627593499999989
 21
505.69998199999998
  0
ARC
  8
_0-0_0
  6
CONTINUOUS
 62
    7
 10
96.002548499999989
 20
502.59997599999997
 40
8
 50
157.20097000000001
 51
162.54239699999999
  0
LINE
  8
_0-0_0
  6
CONTINUOUS
 62
    7
 10
87.002548499999989
 20
504.99997000000002
 11
88.371032499999956
 21
504.99997000000002
  0
LINE
  8
_0-0_0
  6
CONTINUOUS
 62
    7
 10
88.371032499999956
 20
504.99997000000002
 11
88.33157349999999
 21
504.87069700000001
  0
LINE
  8
_0-0_0
  6
CONTINUOUS
 62
    7
 10
88.291107499999953
 20
504.72927900000002
 11
88.33157349999999
 21
504.87069700000001
  0
LINE
  8
_0-0_0
  6
CONTINUOUS
 62
    7
 10
87.002548499999989
 20
504.59997599999997
 11
88.256576499999937
 21
504.59997599999997
  0
LINE
  8
_0-0_0
  6
CONTINUOUS
 62
    7
 10
88.291107499999953
 20
504.72927900000002
 11
88.256576499999937
 21
504.59997599999997
  0
ARC
  8
_0-0_0
  6
CONTINUOUS
 62
    7
 10
96.002548499999989
 20
502.59997599999997
 40
8
 50
165.52249
 51
170.64796000000001
  0
LINE
  8
_0-0_0
  6
CONTINUOUS
 62
    7
 10
87.002548499999989
 20
503.89999399999999
 11
88.108871499999964
 21
503.89999399999999
  0
LINE
  8
_0-0_0
  6
CONTINUOUS
 62
    7
 10
88.108871499999964
 20
503.89999399999999
 11
88.088668499999926
 21
503.770691
  0
LINE
  8
_0-0_0
  6
CONTINUOUS
 62
    7
 10
88.06903049999994
 20
503.62927300000001
 11
88.088668499999926
 21
503.770691
  0
LINE
  8
_0-0_0
  6
CONTINUOUS
 62
    7
 10
87.002548499999989
 20
503.49997000000002
 11
88.053329499999961
 21
503.49997000000002
  0
LINE
  8
_0-0_0
  6
CONTINUOUS
 62
    7
 10
88.06903049999994
 20
503.62927300000001
 11
88.053329499999961
 21
503.49997000000002
  0
ARC
  8
_0-0_0
  6
CONTINUOUS
 62
    7
 10
96.002548499999989
 20
502.59997599999997
 40
8
 50
173.54054500000001
 51
178.567455
  0
LINE
  8
_0-0_0
  6
CONTINUOUS
 62
    7
 10
87.002548499999989
 20
502.79998799999998
 11
88.005035499999963
 21
502.79998799999998
  0
LINE
  8
_0-0_0
  6
CONTINUOUS
 62
    7
 10
88.005035499999963
 20
502.79998799999998
 11
88.002853499999958
 21
502.67068499999999
  0
LINE
  8
_0-0_0
  6
CONTINUOUS
 62
    7
 10
88.002548499999989
 20
502.59997599999997
 11
88.002853499999958
 21
502.67068499999999
  0
LINE
  8
_0-0_0
  6
CONTINUOUS
 62
    7
 10
87.002548499999989
 20
502.39999399999999
 11
88.005035499999963
 21
502.39999399999999
  0
LINE
  8
_0-0_0
  6
CONTINUOUS
 62
    7
 10
87.002548499999989
 20
501.69998199999998
 11
88.053329499999961
 21
501.69998199999998
  0
LINE
  8
_0-0_0
  6
CONTINUOUS
 62
    7
 10
87.002548499999989
 20
501.29998799999998
 11
88.108871499999964
 21
501.29998799999998
  0
LINE
  8
_0-0_0
  6
CONTINUOUS
 62
    7
 10
87.002548499999989
 20
500.59997599999997
 11
88.256576499999937
 21
500.59997599999997
  0
LINE
  8
_0-0_0
  6
CONTINUOUS
 62
    7
 10
87.002548499999989
 20
500.19998199999998
 11
88.371032499999956
 21
500.19998199999998
  0
LINE
  8
_0-0_0
  6
CONTINUOUS
 62
    7
 10
87.002548499999989
 20
499.49997000000002
 11
88.627593499999989
 21
499.49997000000002
  0
LINE
  8
_0-0_0
  6
CONTINUOUS
 62
    7
 10
87.002548499999989
 20
499.09997599999997
 11
88.808792499999981
 21
499.09997599999997
  0
LINE
  8
_0-0_0
  6
CONTINUOUS
 62
    7
 10
87.002548499999989
 20
498.39999399999999
 11
89.193725499999971
 21
498.39999399999999
  0
LINE
  8
_0-0_0
  6
CONTINUOUS
 62
    7
 10
104.00004549999994
 20
502.79998799999998
 11
104.00254849999999
 21
502.59997599999997
  0
ARC
  8
_0-0_0
  6
CONTINUOUS
 62
    7
 10
96.002548499999989
 20
502.59997599999997
 40
8
 50
1.432544
 51
6.4594489999999993
  0
LINE
  8
_0-0_0
  6
CONTINUOUS
 62
    7
 10
103.92655949999994
 20
503.69998199999998
 11
103.9517515
 21
503.49997000000002
  0
LINE
  8
_0-0_0
  6
CONTINUOUS
 62
    7
 10
103.89620949999994
 20
503.89999399999999
 11
103.92655949999994
 21
503.69998199999998
  0
ARC
  8
_0-0_0
  6
CONTINUOUS
 62
    7
 10
96.002548499999989
 20
502.59997599999997
 40
8
 50
9.3520350000000008
 51
14.477510999999998
  0
LINE
  8
_0-0_0
  6
CONTINUOUS
 62
    7
 10
103.69409149999996
 20
504.79998799999998
 11
103.74850449999997
 21
504.59997599999997
  0
LINE
  8
_0-0_0
  6
CONTINUOUS
 62
    7
 10
103.63406349999997
 20
504.99997000000002
 11
103.69409149999996
 21
504.79998799999998
  0
ARC
  8
_0-0_0
  6
CONTINUOUS
 62
    7
 10
96.002548499999989
 20
502.59997599999997
 40
8
 50
17.457602999999999
 51
22.799030999999999
  0
LINE
  8
_0-0_0
  6
CONTINUOUS
 62
    7
 10
103.29020649999995
 20
505.89999399999999
 11
103.37750249999999
 21
505.69998199999998
  0
LINE
  8
_0-0_0
  6
CONTINUOUS
 62
    7
 10
103.19628849999998
 20
506.09997599999997
 11
103.29020649999995
 21
505.89999399999999
  0
ARC
  8
_0-0_0
  6
CONTINUOUS
 62
    7
 10
96.002548499999989
 20
502.59997599999997
 40
8
 50
25.944476999999999
 51
31.668240000000001
  0
LINE
  8
_0-0_0
  6
CONTINUOUS
 62
    7
 10
102.72988849999996
 20
506.92929099999998
 11
102.81137049999995
 21
506.79998799999998
  0
LINE
  8
_0-0_0
  6
CONTINUOUS
 62
    7
 10
102.72988849999996
 20
506.92929099999998
 11
102.63674949999995
 21
507.07070899999997
  0
LINE
  8
_0-0_0
  6
CONTINUOUS
 62
    7
 10
102.54777549999994
 20
507.19998199999998
 11
102.63674949999995
 21
507.07070899999997
  0
CIRCLE
  8
_0-0_0
  6
CONTINUOUS
 62
    7
 10
96.002548499999989
 20
502.59997599999997
 40
7.5
  0
LINE
  8
_0-0_0
  6
CONTINUOUS
 62
    7
 10
104.00004549999994
 20
502.79998799999998
 11
923.00500450000004
 21
502.79998799999998
  0
LINE
  8
_0-0_0
  6
CONTINUOUS
 62
    7
 10
103.9517515
 20
503.49997000000002
 11
923.05322249999995
 21
503.49997000000002
  0
LINE
  8
_0-0_0
  6
CONTINUOUS
 62
    7
 10
103.92655949999994
 20
503.69998199999998
 11
923.07849149999993
 21
503.69998199999998
  0
LINE
  8
_0-0_0
  6
CONTINUOUS
 62
    7
 10
103.89620949999994
 20
503.89999399999999
 11
923.10888649999993
 21
503.89999399999999
  0
LINE
  8
_0-0_0
  6
CONTINUOUS
 62
    7
 10
103.74850449999997
 20
504.59997599999997
 11
923.25659150000001
 21
504.59997599999997
  0
LINE
  8
_0-0_0
  6
CONTINUOUS
 62
    7
 10
103.69409149999996
 20
504.79998799999998
 11
923.31103549999989
 21
504.79998799999998
  0
LINE
  8
_0-0_0
  6
CONTINUOUS
 62
    7
 10
103.63406349999997
 20
504.99997000000002
 11
923.3709715
 21
504.99997000000002
  0
LINE
  8
_0-0_0
  6
CONTINUOUS
 62
    7
 10
103.37750249999999
 20
505.69998199999998
 11
923.62756349999995
 21
505.69998199999998
  0
LINE
  8
_0-0_0
  6
CONTINUOUS
 62
    7
 10
103.29020649999995
 20
505.89999399999999
 11
923.71484349999992
 21
505.89999399999999
  0
LINE
  8
_0-0_0
  6
CONTINUOUS
 62
    7
 10
103.19628849999998
 20
506.09997599999997
 11
923.80883749999998
 21
506.09997599999997
  0
LINE
  8
_0-0_0
  6
CONTINUOUS
 62
    7
 10
102.81137049999995
 20
506.79998799999998
 11
924.19360349999988
 21
506.79998799999998
  0
LINE
  8
_0-0_0
  6
CONTINUOUS
 62
    7
 10
940.50244150000003
 20
484.59997599999997
 11
940.00244150000003
 21
484.59997599999997
  0
LINE
  8
_0-0_0
  6
CONTINUOUS
 62
    7
 10
940.50244150000003
 20
512.19998199999998
 11
940.50244150000003
 21
512.99997000000008
  0
LINE
  8
_0-0_0
  6
CONTINUOUS
 62
    7
 10
940.50244150000003
 20
484.39999399999999
 11
940.50244150000003
 21
512.19998199999998
  0
ARC
  8
_0-0_0
  6
CONTINUOUS
 62
    7
 10
931.00244150000003
 20
503.29998799999998
 40
12.800000000000001
 50
73.932597000000001
 51
106.06740099999999
  0
LINE
  8
_0-0_0
  6
CONTINUOUS
 62
    7
 10
86.502548499999989
 20
512.19998199999998
 11
86.502548499999989
 21
512.99997000000008
  0
LINE
  8
_0-0_0
  6
CONTINUOUS
 62
    7
 10
86.502548499999989
 20
484.39999399999999
 11
86.502548499999989
 21
512.19998199999998
  0
ARC
  8
_0-0_0
  6
CONTINUOUS
 62
    7
 10
96.002548499999989
 20
503.29998799999998
 40
12.800000000000001
 50
73.932597000000001
 51
106.06740099999999
  0
LINE
  8
_0-0_0
  6
CONTINUOUS
 62
    7
 10
504.00256349999995
 20
515.59997599999997
 11
504.00256349999995
 21
521.23989899999992
  0
LINE
  8
_0-0_0
  6
CONTINUOUS
 62
    7
 10
523.00256349999995
 20
521.23989899999992
 11
523.00256349999995
 21
515.59997599999997
  0
LINE
  8
_0-0_0
  6
CONTINUOUS
 62
    7
 10
940.50244150000003
 20
513.09997599999997
 11
940.50244150000003
 21
515.59997599999997
  0
LINE
  8
_0-0_0
  6
CONTINUOUS
 62
    7
 10
86.502548499999989
 20
515.59997599999997
 11
940.50244150000003
 21
515.59997599999997
  0
LINE
  8
_0-0_0
  6
CONTINUOUS
 62
    7
 10
86.502548499999989
 20
513.09997599999997
 11
86.502548499999989
 21
515.59997599999997
  0
LINE
  8
_0-0_0
  6
CONTINUOUS
 62
    7
 10
86.502548499999989
 20
484.59997599999997
 11
87.002532499999973
 21
484.59997599999997
  0
ARC
  8
_0-0_0
  6
CONTINUOUS
 62
    7
 10
862.30249049999998
 20
489.49997000000002
 40
0.2
 50
339.62356199999999
 51
90.000002999999978
  0
LINE
  8
_0-0_0
  6
CONTINUOUS
 62
    7
 10
862.48999049999998
 20
489.43035900000001
 11
861.19006349999995
 21
485.93035900000001
  0
ARC
  8
_0-0_0
  6
CONTINUOUS
 62
    7
 10
861.00256349999995
 20
485.99997000000002
 40
0.2
 50
200.37643
 51
339.62356199999999
  0
LINE
  8
_0-0_0
  6
CONTINUOUS
 62
    7
 10
859.51501450000001
 20
489.43035900000001
 11
860.81506349999995
 21
485.93035900000001
  0
ARC
  8
_0-0_0
  6
CONTINUOUS
 62
    7
 10
859.70251450000001
 20
489.49997000000002
 40
0.2
 50
90.000003000000007
 51
200.37643
  0
LINE
  8
_0-0_0
  6
CONTINUOUS
 62
    7
 10
859.70251450000001
 20
489.69998199999998
 11
862.30249049999998
 21
489.69998199999998
  0
ARC
  8
_0-0_0
  6
CONTINUOUS
 62
    7
 10
142.30255149999994
 20
489.49997000000002
 40
0.2
 50
339.62356199999999
 51
90.000002999999978
  0
LINE
  8
_0-0_0
  6
CONTINUOUS
 62
    7
 10
142.49002049999996
 20
489.43035900000001
 11
141.19003249999997
 21
485.93035900000001
  0
ARC
  8
_0-0_0
  6
CONTINUOUS
 62
    7
 10
141.00253249999997
 20
485.99997000000002
 40
0.2
 50
200.37643
 51
339.62356199999999
  0
LINE
  8
_0-0_0
  6
CONTINUOUS
 62
    7
 10
139.5150605
 20
489.43035900000001
 11
140.81506349999995
 21
485.93035900000001
  0
ARC
  8
_0-0_0
  6
CONTINUOUS
 62
    7
 10
139.70254549999993
 20
489.49997000000002
 40
0.2
 50
90.000003000000007
 51
200.37643
  0
LINE
  8
_0-0_0
  6
CONTINUOUS
 62
    7
 10
139.70254549999993
 20
489.69998199999998
 11
142.30255149999994
 21
489.69998199999998
  0
LINE
  8
_0-0_0
  6
CONTINUOUS
 62
    7
 10
941.50244150000003
 20
512.19998199999998
 11
940.50244150000003
 21
512.19998199999998
  0
LINE
  8
_0-0_0
  6
CONTINUOUS
 62
    7
 10
941.50244150000003
 20
513.23696900000004
 11
940.50244150000003
 21
513.23696900000004
  0
LINE
  8
_0-0_0
  6
CONTINUOUS
 62
    7
 10
941.50244150000003
 20
484.39999399999999
 11
940.50244150000003
 21
484.39999399999999
  0
ARC
  8
_0-0_0
  6
CONTINUOUS
 62
    7
 10
513.50256349999995
 20
503.29998799999998
 40
20.299999
 50
62.096725999999997
 51
117.903272
  0
CIRCLE
  8
_0-0_0
  6
CONTINUOUS
 62
    7
 10
513.50256349999995
 20
519.59997599999997
 40
2.5
  0
LINE
  8
_0-0_0
  6
CONTINUOUS
 62
    7
 10
85.502548499999989
 20
512.19998199999998
 11
86.502548499999989
 21
512.19998199999998
  0
LINE
  8
_0-0_0
  6
CONTINUOUS
 62
    7
 10
85.502548499999989
 20
513.19998199999998
 11
86.502548499999989
 21
513.19998199999998
  0
LINE
  8
_0-0_0
  6
CONTINUOUS
 62
    7
 10
85.502548499999989
 20
484.39999399999999
 11
86.502548499999989
 21
484.39999399999999
  0
LINE
  8
_0-0_0
  6
CONTINUOUS
 62
    7
 10
941.50244150000003
 20
515.39999399999999
 11
940.50244150000003
 21
515.39999399999999
  0
LINE
  8
_0-0_0
  6
CONTINUOUS
 62
    7
 10
85.502548499999989
 20
515.39999399999999
 11
86.502548499999989
 21
515.39999399999999
  0
LINE
  8
_0-0_0
  6
CONTINUOUS
 62
    7
 10
942.50244150000003
 20
511.78576699999996
 11
942.50146449999988
 21
511.80429099999998
  0
LINE
  8
_0-0_0
  6
CONTINUOUS
 62
    7
 10
942.50146449999988
 20
511.80429099999998
 11
942.49853549999989
 21
511.822723
  0
LINE
  8
_0-0_0
  6
CONTINUOUS
 62
    7
 10
942.49853549999989
 20
511.822723
 11
942.49328650000007
 21
511.841858
  0
LINE
  8
_0-0_0
  6
CONTINUOUS
 62
    7
 10
942.49328650000007
 20
511.841858
 11
942.48583949999988
 21
511.86086999999998
  0
LINE
  8
_0-0_0
  6
CONTINUOUS
 62
    7
 10
942.48583949999988
 20
511.86086999999998
 11
942.46533150000005
 21
511.897583
  0
LINE
  8
_0-0_0
  6
CONTINUOUS
 62
    7
 10
942.46533150000005
 20
511.897583
 11
942.43701149999993
 21
511.93325799999997
  0
LINE
  8
_0-0_0
  6
CONTINUOUS
 62
    7
 10
942.43701149999993
 20
511.93325799999997
 11
942.40112249999993
 21
511.96755999999999
  0
LINE
  8
_0-0_0
  6
CONTINUOUS
 62
    7
 10
942.40112249999993
 20
511.96755999999999
 11
942.35241649999989
 21
512.00402800000006
  0
LINE
  8
_0-0_0
  6
CONTINUOUS
 62
    7
 10
942.35241649999989
 20
512.00402800000006
 11
942.29565449999996
 21
512.03802500000006
  0
LINE
  8
_0-0_0
  6
CONTINUOUS
 62
    7
 10
942.29565449999996
 20
512.03802500000006
 11
942.23144550000006
 21
512.06927500000006
  0
LINE
  8
_0-0_0
  6
CONTINUOUS
 62
    7
 10
942.23144550000006
 20
512.06927500000006
 11
942.16088850000006
 21
512.097534
  0
LINE
  8
_0-0_0
  6
CONTINUOUS
 62
    7
 10
942.16088850000006
 20
512.097534
 11
942.11279250000007
 21
512.11389199999996
  0
LINE
  8
_0-0_0
  6
CONTINUOUS
 62
    7
 10
942.11279250000007
 20
512.11389199999996
 11
942.06262149999998
 21
512.12887599999999
  0
LINE
  8
_0-0_0
  6
CONTINUOUS
 62
    7
 10
942.06262149999998
 20
512.12887599999999
 11
942.00585950000004
 21
512.14364599999999
  0
LINE
  8
_0-0_0
  6
CONTINUOUS
 62
    7
 10
942.00585950000004
 20
512.14364599999999
 11
941.94726549999996
 21
512.15673800000002
  0
LINE
  8
_0-0_0
  6
CONTINUOUS
 62
    7
 10
941.94726549999996
 20
512.15673800000002
 11
941.83056650000003
 21
512.17706299999998
  0
LINE
  8
_0-0_0
  6
CONTINUOUS
 62
    7
 10
941.83056650000003
 20
512.17706299999998
 11
941.72314449999999
 21
512.18978900000002
  0
LINE
  8
_0-0_0
  6
CONTINUOUS
 62
    7
 10
941.72314449999999
 20
512.18978900000002
 11
941.6134035
 21
512.19741799999997
  0
LINE
  8
_0-0_0
  6
CONTINUOUS
 62
    7
 10
941.6134035
 20
512.19741799999997
 11
941.50244150000003
 21
512.19998199999998
  0
LINE
  8
_0-0_0
  6
CONTINUOUS
 62
    7
 10
942.50244150000003
 20
511.78576699999996
 11
942.50244150000003
 21
512.78582800000004
  0
LINE
  8
_0-0_0
  6
CONTINUOUS
 62
    7
 10
942.50244150000003
 20
512.78582800000004
 11
942.49951149999993
 21
512.81741299999999
  0
LINE
  8
_0-0_0
  6
CONTINUOUS
 62
    7
 10
942.49951149999993
 20
512.81741299999999
 11
942.49084449999987
 21
512.84948699999995
  0
LINE
  8
_0-0_0
  6
CONTINUOUS
 62
    7
 10
942.49084449999987
 20
512.84948699999995
 11
942.47631849999993
 21
512.88174400000003
  0
LINE
  8
_0-0_0
  6
CONTINUOUS
 62
    7
 10
942.47631849999993
 20
512.88174400000003
 11
942.45605449999994
 21
512.91390999999999
  0
LINE
  8
_0-0_0
  6
CONTINUOUS
 62
    7
 10
942.45605449999994
 20
512.91390999999999
 11
942.4394534999999
 21
512.93515000000002
  0
LINE
  8
_0-0_0
  6
CONTINUOUS
 62
    7
 10
942.4394534999999
 20
512.93515000000002
 11
942.42053250000004
 21
512.95608500000003
  0
LINE
  8
_0-0_0
  6
CONTINUOUS
 62
    7
 10
942.42053250000004
 20
512.95608500000003
 11
942.37573249999991
 21
512.99688700000002
  0
LINE
  8
_0-0_0
  6
CONTINUOUS
 62
    7
 10
942.37573249999991
 20
512.99688700000002
 11
942.32250950000002
 21
513.03561400000001
  0
LINE
  8
_0-0_0
  6
CONTINUOUS
 62
    7
 10
942.32250950000002
 20
513.03561400000001
 11
942.27270449999992
 21
513.06582700000001
  0
LINE
  8
_0-0_0
  6
CONTINUOUS
 62
    7
 10
942.27270449999992
 20
513.06582700000001
 11
942.21801749999986
 21
513.09405500000003
  0
LINE
  8
_0-0_0
  6
CONTINUOUS
 62
    7
 10
942.21801749999986
 20
513.09405500000003
 11
942.15893549999987
 21
513.12008700000001
  0
LINE
  8
_0-0_0
  6
CONTINUOUS
 62
    7
 10
942.15893549999987
 20
513.12008700000001
 11
942.11230449999994
 21
513.13809199999992
  0
LINE
  8
_0-0_0
  6
CONTINUOUS
 62
    7
 10
942.11230449999994
 20
513.13809199999992
 11
942.06347649999998
 21
513.15469400000006
  0
LINE
  8
_0-0_0
  6
CONTINUOUS
 62
    7
 10
942.06347649999998
 20
513.15469400000006
 11
941.96118150000007
 21
513.18356300000005
  0
LINE
  8
_0-0_0
  6
CONTINUOUS
 62
    7
 10
941.96118150000007
 20
513.18356300000005
 11
941.85339350000004
 21
513.20639000000006
  0
LINE
  8
_0-0_0
  6
CONTINUOUS
 62
    7
 10
941.85339350000004
 20
513.20639000000006
 11
941.74182150000001
 21
513.22299199999998
  0
LINE
  8
_0-0_0
  6
CONTINUOUS
 62
    7
 10
941.74182150000001
 20
513.22299199999998
 11
941.62768549999987
 21
513.23318500000005
  0
LINE
  8
_0-0_0
  6
CONTINUOUS
 62
    7
 10
941.62768549999987
 20
513.23318500000005
 11
941.50244150000003
 21
513.23696900000004
  0
ARC
  8
_0-0_0
  6
CONTINUOUS
 62
    7
 10
941.50244150000003
 20
485.39999399999999
 40
1
 50
269.99999700000001
 51
0
  0
LINE
  8
_0-0_0
  6
CONTINUOUS
 62
    7
 10
942.50244150000003
 20
485.39999399999999
 11
942.50244150000003
 21
511.78576699999996
  0
CIRCLE
  8
_0-0_0
  6
CONTINUOUS
 62
    7
 10
931.00244150000003
 20
502.59997599999997
 40
5
  0
LINE
  8
_0-0_0
  6
CONTINUOUS
 62
    7
 10
84.502548499999989
 20
511.78576699999996
 11
84.503539499999988
 21
511.80429099999998
  0
LINE
  8
_0-0_0
  6
CONTINUOUS
 62
    7
 10
84.503539499999988
 20
511.80429099999998
 11
84.506545499999959
 21
511.822723
  0
LINE
  8
_0-0_0
  6
CONTINUOUS
 62
    7
 10
84.506545499999959
 20
511.822723
 11
84.511779499999989
 21
511.841858
  0
LINE
  8
_0-0_0
  6
CONTINUOUS
 62
    7
 10
84.511779499999989
 20
511.841858
 11
84.519164499999988
 21
511.86086999999998
  0
LINE
  8
_0-0_0
  6
CONTINUOUS
 62
    7
 10
84.519164499999988
 20
511.86086999999998
 11
84.539703499999973
 21
511.897583
  0
LINE
  8
_0-0_0
  6
CONTINUOUS
 62
    7
 10
84.539703499999973
 20
511.897583
 11
84.56809949999996
 21
511.93325799999997
  0
LINE
  8
_0-0_0
  6
CONTINUOUS
 62
    7
 10
84.56809949999996
 20
511.93325799999997
 11
84.603988499999957
 21
511.96755999999999
  0
LINE
  8
_0-0_0
  6
CONTINUOUS
 62
    7
 10
84.603988499999957
 20
511.96755999999999
 11
84.652603499999941
 21
512.00402800000006
  0
LINE
  8
_0-0_0
  6
CONTINUOUS
 62
    7
 10
84.652603499999941
 20
512.00402800000006
 11
84.709381499999949
 21
512.03802500000006
  0
LINE
  8
_0-0_0
  6
CONTINUOUS
 62
    7
 10
84.709381499999949
 20
512.03802500000006
 11
84.773528499999998
 21
512.06927500000006
  0
LINE
  8
_0-0_0
  6
CONTINUOUS
 62
    7
 10
84.773528499999998
 20
512.06927500000006
 11
84.844177500000001
 21
512.097534
  0
LINE
  8
_0-0_0
  6
CONTINUOUS
 62
    7
 10
84.844177500000001
 20
512.097534
 11
84.892257499999971
 21
512.11389199999996
  0
LINE
  8
_0-0_0
  6
CONTINUOUS
 62
    7
 10
84.892257499999971
 20
512.11389199999996
 11
84.94239749999997
 21
512.12887599999999
  0
LINE
  8
_0-0_0
  6
CONTINUOUS
 62
    7
 10
84.94239749999997
 20
512.12887599999999
 11
84.999099499999943
 21
512.14364599999999
  0
LINE
  8
_0-0_0
  6
CONTINUOUS
 62
    7
 10
84.999099499999943
 20
512.14364599999999
 11
85.05770849999999
 21
512.15673800000002
  0
LINE
  8
_0-0_0
  6
CONTINUOUS
 62
    7
 10
85.05770849999999
 20
512.15673800000002
 11
85.174484499999949
 21
512.17706299999998
  0
LINE
  8
_0-0_0
  6
CONTINUOUS
 62
    7
 10
85.174484499999949
 20
512.17706299999998
 11
85.281890499999975
 21
512.18978900000002
  0
LINE
  8
_0-0_0
  6
CONTINUOUS
 62
    7
 10
85.281890499999975
 20
512.18978900000002
 11
85.391662499999939
 21
512.19741799999997
  0
LINE
  8
_0-0_0
  6
CONTINUOUS
 62
    7
 10
85.391662499999939
 20
512.19741799999997
 11
85.502548499999989
 21
512.19998199999998
  0
LINE
  8
_0-0_0
  6
CONTINUOUS
 62
    7
 10
84.502548499999989
 20
512.75543199999993
 11
84.505432499999984
 21
512.78634699999998
  0
LINE
  8
_0-0_0
  6
CONTINUOUS
 62
    7
 10
84.505432499999984
 20
512.78634699999998
 11
84.514129499999967
 21
512.81777999999997
  0
LINE
  8
_0-0_0
  6
CONTINUOUS
 62
    7
 10
84.514129499999967
 20
512.81777999999997
 11
84.528625499999976
 21
512.84945700000003
  0
LINE
  8
_0-0_0
  6
CONTINUOUS
 62
    7
 10
84.528625499999976
 20
512.84945700000003
 11
84.548782499999959
 21
512.88104299999998
  0
LINE
  8
_0-0_0
  6
CONTINUOUS
 62
    7
 10
84.548782499999959
 20
512.88104299999998
 11
84.56530749999996
 21
512.90191699999991
  0
LINE
  8
_0-0_0
  6
CONTINUOUS
 62
    7
 10
84.56530749999996
 20
512.90191699999991
 11
84.584213499999976
 21
512.92251599999997
  0
LINE
  8
_0-0_0
  6
CONTINUOUS
 62
    7
 10
84.584213499999976
 20
512.92251599999997
 11
84.628845499999954
 21
512.96267699999999
  0
LINE
  8
_0-0_0
  6
CONTINUOUS
 62
    7
 10
84.628845499999954
 20
512.96267699999999
 11
84.681976499999962
 21
513.00088499999993
  0
LINE
  8
_0-0_0
  6
CONTINUOUS
 62
    7
 10
84.681976499999962
 20
513.00088499999993
 11
84.731872500000009
 21
513.03070099999991
  0
LINE
  8
_0-0_0
  6
CONTINUOUS
 62
    7
 10
84.731872500000009
 20
513.03070099999991
 11
84.786544499999991
 21
513.05856300000005
  0
LINE
  8
_0-0_0
  6
CONTINUOUS
 62
    7
 10
84.786544499999991
 20
513.05856300000005
 11
84.845519499999966
 21
513.08431999999993
  0
LINE
  8
_0-0_0
  6
CONTINUOUS
 62
    7
 10
84.845519499999966
 20
513.08431999999993
 11
84.89227249999999
 21
513.102081
  0
LINE
  8
_0-0_0
  6
CONTINUOUS
 62
    7
 10
84.89227249999999
 20
513.102081
 11
84.940978499999972
 21
513.11852999999996
  0
LINE
  8
_0-0_0
  6
CONTINUOUS
 62
    7
 10
84.940978499999972
 20
513.11852999999996
 11
85.043411499999934
 21
513.14709500000004
  0
LINE
  8
_0-0_0
  6
CONTINUOUS
 62
    7
 10
85.043411499999934
 20
513.14709500000004
 11
85.151229499999999
 21
513.16970800000001
  0
LINE
  8
_0-0_0
  6
CONTINUOUS
 62
    7
 10
85.151229499999999
 20
513.16970800000001
 11
85.26292449999994
 21
513.18612699999994
  0
LINE
  8
_0-0_0
  6
CONTINUOUS
 62
    7
 10
85.26292449999994
 20
513.18612699999994
 11
85.377075499999933
 21
513.19622800000002
  0
LINE
  8
_0-0_0
  6
CONTINUOUS
 62
    7
 10
85.377075499999933
 20
513.19622800000002
 11
85.502548499999989
 21
513.19998199999998
  0
LINE
  8
_0-0_0
  6
CONTINUOUS
 62
    7
 10
84.502548499999989
 20
511.78576699999996
 11
84.502548499999989
 21
512.75543199999993
  0
ARC
  8
_0-0_0
  6
CONTINUOUS
 62
    7
 10
85.502548499999989
 20
485.39999399999999
 40
1
 50
180.00000900000003
 51
269.99999700000001
  0
LINE
  8
_0-0_0
  6
CONTINUOUS
 62
    7
 10
84.502548499999989
 20
485.39999399999999
 11
84.502548499999989
 21
511.78576699999996
  0
CIRCLE
  8
_0-0_0
  6
CONTINUOUS
 62
    7
 10
96.002548499999989
 20
502.59997599999997
 40
5
  0
LINE
  8
_0-0_0
  6
CONTINUOUS
 62
    7
 10
942.50244150000003
 20
512.78582800000004
 11
942.50244150000003
 21
514.39999399999999
  0
ARC
  8
_0-0_0
  6
CONTINUOUS
 62
    7
 10
941.50244150000003
 20
514.39999399999999
 40
1
 50
0
 51
90.000003000000007
  0
ARC
  8
_0-0_0
  6
CONTINUOUS
 62
    7
 10
85.502548499999989
 20
514.39999399999999
 40
1
 50
90.000003000000007
 51
180.00000900000001
  0
LINE
  8
_0-0_0
  6
CONTINUOUS
 62
    7
 10
84.502548499999989
 20
512.75543199999993
 11
84.502548499999989
 21
514.39999399999999
  0
LINE
  8
_0-0_0
  6
CONTINUOUS
 62
    7
 10
56.592681499999969
 20
484.39999399999999
 11
56.592681499999969
 21
483.79998799999998
  0
LINE
  8
_0-0_0
  6
CONTINUOUS
 62
    7
 10
59.092681499999969
 20
478.55499299999997
 11
59.092681499999969
 21
480.79998799999998
  0
LINE
  8
_0-0_0
  6
CONTINUOUS
 62
    7
 10
60.092681499999969
 20
480.79998799999998
 11
60.092681499999969
 21
482.79998799999998
  0
ARC
  8
_0-0_0
  6
CONTINUOUS
 62
    7
 10
59.592681499999969
 20
482.79998799999998
 40
0.5
 50
0
 51
90.000003000000007
  0
LINE
  8
_0-0_0
  6
CONTINUOUS
 62
    7
 10
59.592681499999969
 20
483.29998799999998
 11
58.092681499999969
 21
483.29998799999998
  0
ARC
  8
_0-0_0
  6
CONTINUOUS
 62
    7
 10
58.092681499999969
 20
484.29998799999998
 40
1
 50
180.00000900000003
 51
269.99999700000001
  0
LINE
  8
_0-0_0
  6
CONTINUOUS
 62
    7
 10
57.092681499999969
 20
484.39999399999999
 11
57.092681499999969
 21
484.29998799999998
  0
ARC
  8
_0-0_0
  6
CONTINUOUS
 62
    7
 10
58.092681499999969
 20
483.79998799999998
 40
1.5
 50
180.00000900000003
 51
269.99999700000001
  0
LINE
  8
_0-0_0
  6
CONTINUOUS
 62
    7
 10
58.092681499999969
 20
482.29998799999998
 11
57.392669500000011
 21
482.29998799999998
  0
ARC
  8
_0-0_0
  6
CONTINUOUS
 62
    7
 10
57.392669500000011
 20
483.29998799999998
 40
1
 50
180.00000900000003
 51
269.99999700000001
  0
LINE
  8
_0-0_0
  6
CONTINUOUS
 62
    7
 10
56.392669500000011
 20
484.29998799999998
 11
56.392669500000011
 21
483.29998799999998
  0
LINE
  8
_0-0_0
  6
CONTINUOUS
 62
    7
 10
48.192672499999958
 20
483.29998799999998
 11
48.192672499999958
 21
484.29998799999998
  0
ARC
  8
_0-0_0
  6
CONTINUOUS
 62
    7
 10
47.192672499999958
 20
483.29998799999998
 40
1
 50
269.99999700000001
 51
0
  0
LINE
  8
_0-0_0
  6
CONTINUOUS
 62
    7
 10
47.192672499999958
 20
482.29998799999998
 11
46.992675499999962
 21
482.29998799999998
  0
ARC
  8
_0-0_0
  6
CONTINUOUS
 62
    7
 10
46.992675499999962
 20
483.29998799999998
 40
1
 50
269.99999700000001
 51
0
  0
LINE
  8
_0-0_0
  6
CONTINUOUS
 62
    7
 10
47.992675499999962
 20
483.29998799999998
 11
47.992675499999962
 21
484.39999399999999
  0
LINE
  8
_0-0_0
  6
CONTINUOUS
 62
    7
 10
47.492675499999962
 20
484.29998799999998
 11
47.492675499999962
 21
484.39999399999999
  0
ARC
  8
_0-0_0
  6
CONTINUOUS
 62
    7
 10
46.492675499999962
 20
484.29998799999998
 40
1
 50
269.99999700000001
 51
0
  0
LINE
  8
_0-0_0
  6
CONTINUOUS
 62
    7
 10
46.492675499999962
 20
483.29998799999998
 11
44.992675499999962
 21
483.29998799999998
  0
ARC
  8
_0-0_0
  6
CONTINUOUS
 62
    7
 10
44.992675499999962
 20
482.79998799999998
 40
0.5
 50
90.000003000000007
 51
180.00000900000001
  0
LINE
  8
_0-0_0
  6
CONTINUOUS
 62
    7
 10
44.492675499999962
 20
482.79998799999998
 11
44.492675499999962
 21
480.79998799999998
  0
LINE
  8
_0-0_0
  6
CONTINUOUS
 62
    7
 10
45.492675499999962
 20
478.55499299999997
 11
45.492675499999962
 21
480.79998799999998
  0
LINE
  8
_0-0_0
  6
CONTINUOUS
 62
    7
 10
43.592681499999969
 20
460.19998199999998
 11
43.592681499999969
 21
478.55499299999997
  0
LINE
  8
_0-0_0
  6
CONTINUOUS
 62
    7
 10
60.392669500000011
 20
460.19998199999998
 11
60.392669500000011
 21
478.55499299999997
  0
CIRCLE
  8
_0-0_0
  6
CONTINUOUS
 62
    7
 10
52.292678499999965
 20
480.79998799999998
 40
2.0499999999999998
  0
LINE
  8
_0-0_0
  6
CONTINUOUS
 62
    7
 10
60.392669500000011
 20
482.29998799999998
 11
60.392669500000011
 21
482.27499399999999
  0
LINE
  8
_0-0_0
  6
CONTINUOUS
 62
    7
 10
60.392669500000011
 20
479.05493200000001
 11
60.392669500000011
 21
479.32498199999998
  0
LINE
  8
_0-0_0
  6
CONTINUOUS
 62
    7
 10
60.392669500000011
 20
478.55499299999997
 11
60.392669500000011
 21
479.05499299999997
  0
LINE
  8
_0-0_0
  6
CONTINUOUS
 62
    7
 10
60.392669500000011
 20
458.19998199999998
 11
60.392669500000011
 21
460.19998199999998
  0
LINE
  8
_0-0_0
  6
CONTINUOUS
 62
    7
 10
43.592681499999969
 20
458.19998199999998
 11
43.592681499999969
 21
460.19998199999998
  0
LINE
  8
_0-0_0
  6
CONTINUOUS
 62
    7
 10
43.592681499999969
 20
458.19998199999998
 11
60.392669500000011
 21
458.19998199999998
  0
LINE
  8
_0-0_0
  6
CONTINUOUS
 62
    7
 10
43.592681499999969
 20
482.29998799999998
 11
43.592681499999969
 21
480.79998799999998
  0
LINE
  8
_0-0_0
  6
CONTINUOUS
 62
    7
 10
43.592681499999969
 20
479.05499299999997
 11
43.592681499999969
 21
480.79998799999998
  0
LINE
  8
_0-0_0
  6
CONTINUOUS
 62
    7
 10
43.592681499999969
 20
478.55499299999997
 11
43.592681499999969
 21
479.05499299999997
  0
LINE
  8
_0-0_0
  6
CONTINUOUS
 62
    7
 10
44.492675499999962
 20
479.05505399999998
 11
44.492675499999962
 21
480.79998799999998
  0
ARC
  8
_0-0_0
  6
CONTINUOUS
 62
    7
 10
58.792678499999965
 20
460.29998799999998
 40
2
 50
323.13010300000002
 51
0.0000000000000127
  0
LINE
  8
_0-0_0
  6
CONTINUOUS
 62
    7
 10
60.792678499999965
 20
460.29998799999998
 11
60.792678499999965
 21
461.70004299999999
  0
LINE
  8
_0-0_0
  6
CONTINUOUS
 62
    7
 10
61.092681499999969
 20
466.78967299999999
 11
61.092681499999969
 21
477.23767099999998
  0
LINE
  8
_0-0_0
  6
CONTINUOUS
 62
    7
 10
61.092681499999969
 20
478.20047
 11
61.092681499999969
 21
480.43511999999998
  0
LINE
  8
_0-0_0
  6
CONTINUOUS
 62
    7
 10
43.592681499999969
 20
482.29998799999998
 11
44.492675499999962
 21
482.29998799999998
  0
LINE
  8
_0-0_0
  6
CONTINUOUS
 62
    7
 10
43.492675499999962
 20
461.69998199999998
 11
43.592681499999969
 21
461.69998199999998
  0
LINE
  8
_0-0_0
  6
CONTINUOUS
 62
    7
 10
43.492675499999962
 20
461.69998199999998
 11
43.492675499999962
 21
466.78967299999999
  0
LINE
  8
_0-0_0
  6
CONTINUOUS
 62
    7
 10
43.492675499999962
 20
477.23767099999998
 11
43.492675499999962
 21
478.20047
  0
LINE
  8
_0-0_0
  6
CONTINUOUS
 62
    7
 10
43.492675499999962
 20
481.29998799999998
 11
43.592681499999969
 21
481.29998799999998
  0
LINE
  8
_0-0_0
  6
CONTINUOUS
 62
    7
 10
43.492675499999962
 20
480.43511999999998
 11
43.492675499999962
 21
481.29998799999998
  0
LINE
  8
_0-0_0
  6
CONTINUOUS
 62
    7
 10
43.492675499999962
 20
478.20047
 11
43.492675499999962
 21
480.43511999999998
  0
LINE
  8
_0-0_0
  6
CONTINUOUS
 62
    7
 10
43.492675499999962
 20
466.78967299999999
 11
43.492675499999962
 21
477.23767099999998
  0
LINE
  8
_0-0_0
  6
CONTINUOUS
 62
    7
 10
43.792678499999965
 20
480.18872099999999
 11
43.792678499999965
 21
482.07498199999998
  0
LINE
  8
_0-0_0
  6
CONTINUOUS
 62
    7
 10
43.792678499999965
 20
479.52499399999999
 11
43.792678499999965
 21
480.18872099999999
  0
LINE
  8
_0-0_0
  6
CONTINUOUS
 62
    7
 10
60.792678499999965
 20
481.41125499999998
 11
60.792678499999965
 21
479.52529900000002
  0
LINE
  8
_0-0_0
  6
CONTINUOUS
 62
    7
 10
60.792678499999965
 20
482.06662
 11
60.792678499999965
 21
481.41125499999998
  0
LINE
  8
_0-0_0
  6
CONTINUOUS
 62
    7
 10
61.092681499999969
 20
461.69998199999998
 11
61.092681499999969
 21
466.78967299999999
  0
LINE
  8
_0-0_0
  6
CONTINUOUS
 62
    7
 10
61.092681499999969
 20
480.43511999999998
 11
61.092681499999969
 21
481.29998799999998
  0
LINE
  8
_0-0_0
  6
CONTINUOUS
 62
    7
 10
61.092681499999969
 20
477.23767099999998
 11
61.092681499999969
 21
478.20047
  0
LINE
  8
_0-0_0
  6
CONTINUOUS
 62
    7
 10
61.092681499999969
 20
481.29998799999998
 11
60.792663500000003
 21
481.29998799999998
  0
LINE
  8
_0-0_0
  6
CONTINUOUS
 62
    7
 10
61.092681499999969
 20
461.69998199999998
 11
60.392669500000011
 21
461.69998199999998
  0
LINE
  8
_0-0_0
  6
CONTINUOUS
 62
    7
 10
60.392669500000011
 20
482.29998799999998
 11
60.092681499999969
 21
482.29998799999998
  0
LINE
  8
_0-0_0
  6
CONTINUOUS
 62
    7
 10
60.092681499999969
 20
480.79998799999998
 11
60.092681499999969
 21
479.05505399999998
  0
LINE
  8
_0-0_0
  6
CONTINUOUS
 62
    7
 10
56.392669500000011
 20
484.29998799999998
 11
56.392669500000011
 21
484.40005500000001
  0
LINE
  8
_0-0_0
  6
CONTINUOUS
 62
    7
 10
48.192672499999958
 20
484.40005500000001
 11
48.192672499999958
 21
484.29998799999998
  0
LINE
  8
_0-0_0
  6
CONTINUOUS
 62
    7
 10
59.092681499999969
 20
479.05499299999997
 11
60.392669500000011
 21
479.05499299999997
  0
ARC
  8
_0-0_0
  6
CONTINUOUS
 62
    7
 10
44.292678499999965
 20
482.07498199999998
 40
0.2
 50
359.91222800000003
 51
89.999948000000003
  0
ARC
  8
_0-0_0
  6
CONTINUOUS
 62
    7
 10
44.292571500000008
 20
479.525147
 40
0.200169
 50
270.02985900000004
 51
2.3526610000000452
  0
LINE
  8
_0-0_0
  6
CONTINUOUS
 62
    7
 10
43.992675499999962
 20
482.27499399999999
 11
44.292678499999965
 21
482.27499399999999
  0
LINE
  8
_0-0_0
  6
CONTINUOUS
 62
    7
 10
43.992675499999962
 20
479.32498199999998
 11
44.292678499999965
 21
479.32498199999998
  0
ARC
  8
_0-0_0
  6
CONTINUOUS
 62
    7
 10
43.992782499999976
 20
482.07482899999997
 40
0.200169
 50
90.029849999999996
 51
182.352667
  0
ARC
  8
_0-0_0
  6
CONTINUOUS
 62
    7
 10
43.992675499999962
 20
479.52499399999999
 40
0.2
 50
179.912237
 51
269.99994299999997
  0
ARC
  8
_0-0_0
  6
CONTINUOUS
 62
    7
 10
60.292785499999979
 20
479.525147
 40
0.200169
 50
177.647333
 51
269.97013600000002
  0
ARC
  8
_0-0_0
  6
CONTINUOUS
 62
    7
 10
60.292678499999965
 20
482.07498199999998
 40
0.2
 50
90.000049999999987
 51
180.08776299999997
  0
LINE
  8
_0-0_0
  6
CONTINUOUS
 62
    7
 10
60.592681499999969
 20
479.32498199999998
 11
60.292678499999965
 21
479.32498199999998
  0
LINE
  8
_0-0_0
  6
CONTINUOUS
 62
    7
 10
60.592681499999969
 20
482.27499399999999
 11
60.292678499999965
 21
482.27499399999999
  0
ARC
  8
_0-0_0
  6
CONTINUOUS
 62
    7
 10
60.592681499999969
 20
479.52499399999999
 40
0.2
 50
270.00005199999998
 51
0.0877600000000175
  0
ARC
  8
_0-0_0
  6
CONTINUOUS
 62
    7
 10
60.592574499999955
 20
482.07482899999997
 40
0.200169
 50
357.64733799999999
 51
89.970147999999995
  0
LINE
  8
_0-0_0
  6
CONTINUOUS
 62
    7
 10
43.592681499999969
 20
479.05499299999997
 11
45.492675499999962
 21
479.05499299999997
  0
LINE
  8
_0-0_0
  6
CONTINUOUS
 62
    7
 10
61.092681499999969
 20
484.79998799999998
 11
61.092681499999969
 21
497.99997000000002
  0
ARC
  8
_0-0_0
  6
CONTINUOUS
 62
    7
 10
60.592681499999969
 20
484.79998799999998
 40
0.5
 50
269.99999700000001
 51
0
  0
ARC
  8
_0-0_0
  6
CONTINUOUS
 62
    7
 10
61.034088499999939
 20
498.19998199999998
 40
0.1
 50
135
 51
225
  0
LINE
  8
_0-0_0
  6
CONTINUOUS
 62
    7
 10
60.963378499999976
 20
498.12927300000001
 11
61.092681499999969
 21
497.99997000000002
  0
LINE
  8
_0-0_0
  6
CONTINUOUS
 62
    7
 10
60.592681499999969
 20
484.29998799999998
 11
58.692672499999958
 21
484.29998799999998
  0
ARC
  8
_0-0_0
  6
CONTINUOUS
 62
    7
 10
58.692672499999958
 20
484.79998799999998
 40
0.5
 50
233.12990600000001
 51
269.99999700000001
  0
ARC
  8
_0-0_0
  6
CONTINUOUS
 62
    7
 10
45.992675499999962
 20
484.79998799999998
 40
0.5
 50
269.99999700000001
 51
306.87009999999998
  0
LINE
  8
_0-0_0
  6
CONTINUOUS
 62
    7
 10
45.992675499999962
 20
484.29998799999998
 11
44.092681499999969
 21
484.29998799999998
  0
ARC
  8
_0-0_0
  6
CONTINUOUS
 62
    7
 10
44.092681499999969
 20
484.79998799999998
 40
0.5
 50
180.00000900000003
 51
269.99999700000001
  0
LINE
  8
_0-0_0
  6
CONTINUOUS
 62
    7
 10
43.592681499999969
 20
494.23498499999999
 11
43.592681499999969
 21
484.79998799999998
  0
LINE
  8
_0-0_0
  6
CONTINUOUS
 62
    7
 10
43.592681499999969
 20
494.23498499999999
 11
44.292678499999965
 21
494.23498499999999
  0
LINE
  8
_0-0_0
  6
CONTINUOUS
 62
    7
 10
60.292678499999965
 20
512.79998799999998
 11
60.498702499999979
 21
512.79998799999998
  0
LINE
  8
_0-0_0
  6
CONTINUOUS
 62
    7
 10
60.498702499999979
 20
512.79998799999998
 11
61.092681499999969
 21
512.20602400000007
  0
LINE
  8
_0-0_0
  6
CONTINUOUS
 62
    7
 10
61.092681499999969
 20
507.19998199999998
 11
61.092681499999969
 21
512.20602400000007
  0
LINE
  8
_0-0_0
  6
CONTINUOUS
 62
    7
 10
60.963378499999976
 20
507.07070899999997
 11
61.092681499999969
 21
507.19998199999998
  0
ARC
  8
_0-0_0
  6
CONTINUOUS
 62
    7
 10
61.034088499999939
 20
506.99997000000002
 40
0.1
 50
135
 51
225
  0
LINE
  8
_0-0_0
  6
CONTINUOUS
 62
    7
 10
60.963378499999976
 20
506.92929099999998
 11
61.092681499999969
 21
506.79998799999998
  0
LINE
  8
_0-0_0
  6
CONTINUOUS
 62
    7
 10
61.092681499999969
 20
506.09997599999997
 11
61.092681499999969
 21
506.79998799999998
  0
LINE
  8
_0-0_0
  6
CONTINUOUS
 62
    7
 10
60.963378499999976
 20
505.97070300000001
 11
61.092681499999969
 21
506.09997599999997
  0
ARC
  8
_0-0_0
  6
CONTINUOUS
 62
    7
 10
61.034088499999939
 20
505.89999399999999
 40
0.1
 50
135
 51
225
  0
LINE
  8
_0-0_0
  6
CONTINUOUS
 62
    7
 10
60.963378499999976
 20
505.82928499999997
 11
61.092681499999969
 21
505.69998199999998
  0
LINE
  8
_0-0_0
  6
CONTINUOUS
 62
    7
 10
61.092681499999969
 20
504.99997000000002
 11
61.092681499999969
 21
505.69998199999998
  0
LINE
  8
_0-0_0
  6
CONTINUOUS
 62
    7
 10
60.963378499999976
 20
504.87069700000001
 11
61.092681499999969
 21
504.99997000000002
  0
ARC
  8
_0-0_0
  6
CONTINUOUS
 62
    7
 10
61.034088499999939
 20
504.79998799999998
 40
0.1
 50
135
 51
225
  0
LINE
  8
_0-0_0
  6
CONTINUOUS
 62
    7
 10
60.963378499999976
 20
504.72927900000002
 11
61.092681499999969
 21
504.59997599999997
  0
LINE
  8
_0-0_0
  6
CONTINUOUS
 62
    7
 10
61.092681499999969
 20
503.89999399999999
 11
61.092681499999969
 21
504.59997599999997
  0
LINE
  8
_0-0_0
  6
CONTINUOUS
 62
    7
 10
60.963378499999976
 20
503.770691
 11
61.092681499999969
 21
503.89999399999999
  0
ARC
  8
_0-0_0
  6
CONTINUOUS
 62
    7
 10
61.034088499999939
 20
503.69998199999998
 40
0.1
 50
135
 51
225
  0
LINE
  8
_0-0_0
  6
CONTINUOUS
 62
    7
 10
60.963378499999976
 20
503.62927300000001
 11
61.092681499999969
 21
503.49997000000002
  0
LINE
  8
_0-0_0
  6
CONTINUOUS
 62
    7
 10
61.092681499999969
 20
502.79998799999998
 11
61.092681499999969
 21
503.49997000000002
  0
LINE
  8
_0-0_0
  6
CONTINUOUS
 62
    7
 10
60.963378499999976
 20
502.67068499999999
 11
61.092681499999969
 21
502.79998799999998
  0
ARC
  8
_0-0_0
  6
CONTINUOUS
 62
    7
 10
61.034088499999939
 20
502.59997599999997
 40
0.1
 50
135
 51
225
  0
LINE
  8
_0-0_0
  6
CONTINUOUS
 62
    7
 10
60.963378499999976
 20
502.52926600000001
 11
61.092681499999969
 21
502.39999399999999
  0
LINE
  8
_0-0_0
  6
CONTINUOUS
 62
    7
 10
61.092681499999969
 20
501.69998199999998
 11
61.092681499999969
 21
502.39999399999999
  0
LINE
  8
_0-0_0
  6
CONTINUOUS
 62
    7
 10
60.963378499999976
 20
501.57070899999997
 11
61.092681499999969
 21
501.69998199999998
  0
ARC
  8
_0-0_0
  6
CONTINUOUS
 62
    7
 10
61.034088499999939
 20
501.49997000000002
 40
0.1
 50
135
 51
225
  0
LINE
  8
_0-0_0
  6
CONTINUOUS
 62
    7
 10
60.963378499999976
 20
501.42929099999998
 11
61.092681499999969
 21
501.29998799999998
  0
LINE
  8
_0-0_0
  6
CONTINUOUS
 62
    7
 10
61.092681499999969
 20
500.59997599999997
 11
61.092681499999969
 21
501.29998799999998
  0
LINE
  8
_0-0_0
  6
CONTINUOUS
 62
    7
 10
60.963378499999976
 20
500.47070300000001
 11
61.092681499999969
 21
500.59997599999997
  0
ARC
  8
_0-0_0
  6
CONTINUOUS
 62
    7
 10
61.034088499999939
 20
500.39999399999999
 40
0.1
 50
135
 51
225
  0
LINE
  8
_0-0_0
  6
CONTINUOUS
 62
    7
 10
60.963378499999976
 20
500.32928499999997
 11
61.092681499999969
 21
500.19998199999998
  0
LINE
  8
_0-0_0
  6
CONTINUOUS
 62
    7
 10
61.092681499999969
 20
499.49997000000002
 11
61.092681499999969
 21
500.19998199999998
  0
LINE
  8
_0-0_0
  6
CONTINUOUS
 62
    7
 10
60.963378499999976
 20
499.37069700000001
 11
61.092681499999969
 21
499.49997000000002
  0
ARC
  8
_0-0_0
  6
CONTINUOUS
 62
    7
 10
61.034088499999939
 20
499.29998799999998
 40
0.1
 50
135
 51
225
  0
LINE
  8
_0-0_0
  6
CONTINUOUS
 62
    7
 10
60.963378499999976
 20
499.22927900000002
 11
61.092681499999969
 21
499.09997599999997
  0
LINE
  8
_0-0_0
  6
CONTINUOUS
 62
    7
 10
61.092681499999969
 20
498.39999399999999
 11
61.092681499999969
 21
499.09997599999997
  0
LINE
  8
_0-0_0
  6
CONTINUOUS
 62
    7
 10
60.963378499999976
 20
498.270691
 11
61.092681499999969
 21
498.39999399999999
  0
LINE
  8
_0-0_0
  6
CONTINUOUS
 62
    7
 10
61.092681499999969
 20
490.29998799999998
 11
61.192672499999958
 21
490.29998799999998
  0
LINE
  8
_0-0_0
  6
CONTINUOUS
 62
    7
 10
61.192672499999958
 20
489.79998799999998
 11
61.192672499999958
 21
490.29998799999998
  0
LINE
  8
_0-0_0
  6
CONTINUOUS
 62
    7
 10
61.192672499999958
 20
489.79998799999998
 11
61.192672499999958
 21
485.79998799999998
  0
LINE
  8
_0-0_0
  6
CONTINUOUS
 62
    7
 10
61.092681499999969
 20
485.29998799999998
 11
61.192672499999958
 21
485.29998799999998
  0
LINE
  8
_0-0_0
  6
CONTINUOUS
 62
    7
 10
61.192672499999958
 20
485.29998799999998
 11
61.192672499999958
 21
485.79998799999998
  0
LINE
  8
_0-0_0
  6
CONTINUOUS
 62
    7
 10
43.592681499999969
 20
494.29998799999998
 11
43.592681499999969
 21
494.23498499999999
  0
LINE
  8
_0-0_0
  6
CONTINUOUS
 62
    7
 10
60.092681499999969
 20
513.09997599999997
 11
60.092681499999969
 21
512.99997000000008
  0
ARC
  8
_0-0_0
  6
CONTINUOUS
 62
    7
 10
47.592681499999969
 20
513.09997599999997
 40
2.5
 50
90.000003000000007
 51
180.00000900000001
  0
LINE
  8
_0-0_0
  6
CONTINUOUS
 62
    7
 10
43.492675499999962
 20
494.29998799999998
 11
44.292678499999965
 21
494.29998799999998
  0
LINE
  8
_0-0_0
  6
CONTINUOUS
 62
    7
 10
43.992675499999962
 20
516.09997599999997
 11
43.992675499999962
 21
511.87844899999999
  0
LINE
  8
_0-0_0
  6
CONTINUOUS
 62
    7
 10
45.092681499999969
 20
516.09997599999997
 11
45.092681499999969
 21
513.09997599999997
  0
LINE
  8
_0-0_0
  6
CONTINUOUS
 62
    7
 10
43.992675499999962
 20
511.87844899999999
 11
44.292678499999965
 21
511.87844899999999
  0
LINE
  8
_0-0_0
  6
CONTINUOUS
 62
    7
 10
43.992675499999962
 20
521.23989899999992
 11
45.092681499999969
 21
521.23989899999992
  0
LINE
  8
_0-0_0
  6
CONTINUOUS
 62
    7
 10
45.092681499999969
 20
516.100281
 11
45.092681499999969
 21
521.23989899999992
  0
LINE
  8
_0-0_0
  6
CONTINUOUS
 62
    7
 10
43.492675499999962
 20
515.60055599999998
 11
43.492675499999962
 21
520.67208899999991
  0
LINE
  8
_0-0_0
  6
CONTINUOUS
 62
    7
 10
43.992675499999962
 20
521.23989899999992
 11
43.492675499999962
 21
520.67208899999991
  0
ARC
  8
_0-0_0
  6
CONTINUOUS
 62
    7
 10
57.592681499999969
 20
513.09997599999997
 40
2.5
 50
0
 51
90.000003000000007
  0
LINE
  8
_0-0_0
  6
CONTINUOUS
 62
    7
 10
45.092681499999969
 20
513
 11
45.092681499999969
 21
513.09997599999997
  0
LINE
  8
_0-0_0
  6
CONTINUOUS
 62
    7
 10
57.592681499999969
 20
515.59997599999997
 11
47.592681499999969
 21
515.59997599999997
  0
LINE
  8
_0-0_0
  6
CONTINUOUS
 62
    7
 10
61.292678499999965
 20
485.79998799999998
 11
61.292678499999965
 21
485.93035900000001
  0
LINE
  8
_0-0_0
  6
CONTINUOUS
 62
    7
 10
61.292678499999965
 20
489.43035900000001
 11
61.292678499999965
 21
485.93035900000001
  0
LINE
  8
_0-0_0
  6
CONTINUOUS
 62
    7
 10
61.192672499999958
 20
489.69998199999998
 11
61.292678499999965
 21
489.69998199999998
  0
LINE
  8
_0-0_0
  6
CONTINUOUS
 62
    7
 10
61.292678499999965
 20
489.43035900000001
 11
61.292678499999965
 21
489.69998199999998
  0
LINE
  8
_0-0_0
  6
CONTINUOUS
 62
    7
 10
45.092681499999969
 20
523.60000600000001
 11
45.092681499999969
 21
521.23989899999992
  0
LINE
  8
_0-0_0
  6
CONTINUOUS
 62
    7
 10
60.892669500000011
 20
512.19998199999998
 11
59.892669500000011
 21
513.19998199999998
  0
LINE
  8
_0-0_0
  6
CONTINUOUS
 62
    7
 10
60.892669500000011
 20
484.39999399999999
 11
60.892669500000011
 21
512.19998199999998
  0
LINE
  8
_0-0_0
  6
CONTINUOUS
 62
    7
 10
44.292678499999965
 20
484.39999399999999
 11
60.892669500000011
 21
484.39999399999999
  0
LINE
  8
_0-0_0
  6
CONTINUOUS
 62
    7
 10
44.292678499999965
 20
512.19998199999998
 11
44.292678499999965
 21
484.39999399999999
  0
LINE
  8
_0-0_0
  6
CONTINUOUS
 62
    7
 10
43.492675499999962
 20
494.29998799999998
 11
43.492675499999962
 21
511.11279300000001
  0
LINE
  8
_0-0_0
  6
CONTINUOUS
 62
    7
 10
43.492675499999962
 20
515.59997599999997
 11
43.492675499999962
 21
511.11279300000001
  0
ARC
  8
_0-0_0
  6
CONTINUOUS
 62
    7
 10
74.944412499999999
 20
491.11779799999999
 40
37.269466000000001
 50
146.14857699999999
 51
147.55443399999999
  0
LINE
  8
_0-0_0
  6
CONTINUOUS
 62
    7
 10
43.992675499999962
 20
523.60000600000001
 11
43.992675499999962
 21
521.23989899999992
  0
LINE
  8
_0-0_0
  6
CONTINUOUS
 62
    7
 10
43.492675499999962
 20
523.10000600000001
 11
43.492675499999962
 21
520.67208899999991
  0
ARC
  8
_0-0_0
  6
CONTINUOUS
 62
    7
 10
57.32362349999994
 20
512.79998799999998
 40
2.6000000000000001
 50
8.8498839999999994
 51
90.000002999999992
  0
LINE
  8
_0-0_0
  6
CONTINUOUS
 62
    7
 10
57.32362349999994
 20
515.39999399999999
 11
47.86172449999998
 21
515.39999399999999
  0
ARC
  8
_0-0_0
  6
CONTINUOUS
 62
    7
 10
47.86172449999998
 20
512.79998799999998
 40
2.6000000000000001
 50
90.000003000000007
 51
171.150115
  0
LINE
  8
_0-0_0
  6
CONTINUOUS
 62
    7
 10
44.292678499999965
 20
512.19998199999998
 11
45.292678499999965
 21
513.19998199999998
  0
LINE
  8
_0-0_0
  6
CONTINUOUS
 62
    7
 10
59.892669500000011
 20
511.78576699999996
 11
60.892669500000011
 21
512.19998199999998
  0
ARC
  8
_0-0_0
  6
CONTINUOUS
 62
    7
 10
54.35044849999997
 20
523.98541299999999
 40
12.125811000000001
 50
292.15487000000002
 51
297.19688200000002
  0
LINE
  8
_0-0_0
  6
CONTINUOUS
 62
    7
 10
59.892669500000011
 20
485.39999399999999
 11
60.892669500000011
 21
484.39999399999999
  0
LINE
  8
_0-0_0
  6
CONTINUOUS
 62
    7
 10
45.292678499999965
 20
485.39999399999999
 11
44.292678499999965
 21
484.39999399999999
  0
LINE
  8
_0-0_0
  6
CONTINUOUS
 62
    7
 10
45.292678499999965
 20
511.78576699999996
 11
44.292678499999965
 21
512.19998199999998
  0
ARC
  8
_0-0_0
  6
CONTINUOUS
 62
    7
 10
50.834899500000006
 20
523.98541299999999
 40
12.125813000000001
 50
242.80312000000004
 51
247.84513800000002
  0
CIRCLE
  8
_0-0_0
  6
CONTINUOUS
 62
    7
 10
52.592681499999969
 20
492.59997599999997
 40
2.0670000000000002
  0
LINE
  8
_0-0_0
  6
CONTINUOUS
 62
    7
 10
45.092681499999969
 20
516.09997599999997
 11
43.992675499999962
 21
516.09997599999997
  0
LINE
  8
_0-0_0
  6
CONTINUOUS
 62
    7
 10
61.192672499999958
 20
485.79998799999998
 11
61.292678499999965
 21
485.79998799999998
  0
LINE
  8
_0-0_0
  6
CONTINUOUS
 62
    7
 10
61.192672499999958
 20
485.79998799999998
 11
61.292678499999965
 21
485.79998799999998
  0
LINE
  8
_0-0_0
  6
CONTINUOUS
 62
    7
 10
43.492675499999962
 20
515.59997599999997
 11
43.992675499999962
 21
516.09997599999997
  0
LINE
  8
_0-0_0
  6
CONTINUOUS
 62
    7
 10
45.092681499999969
 20
523.60000600000001
 11
43.992675499999962
 21
523.60000600000001
  0
LINE
  8
_0-0_0
  6
CONTINUOUS
 62
    7
 10
43.492675499999962
 20
523.10000600000001
 11
43.992675499999962
 21
523.60000600000001
  0
ENDSEC
  0
EOF
