  0
SECTION
  2
HEADER
  9
$ACADVER
  1
AC1009
  9
$INSBASE
 10
0
 20
0
 30
0
  9
$EXTMIN
 10
0
 20
0
  9
$EXTMAX
 10
210.25
 20
148.5
  9
$LIMMIN
 10
0
 20
0
  9
$LIMMAX
 10
210.25
 20
148.5
  9
$LTSCALE
 40
0.25
  0
ENDSEC
  0
SECTION
  2
TABLES
  0
TABLE
  2
LTYPE
 70
     9
  0
LTYPE
  2
CONTINUOUS
 70
    64
  3
実線
 72
    65
 73
     0
 40
0.0
  0
LTYPE
  2
DASHED1
 70
    64
  3
--  --  --  --  --  --  --  --  
 72
    65
 73
     2
 40
2.5
 49
1.25
 49
-1.25
  0
LTYPE
  2
DASHED2
 70
    64
  3
----    ----    ----    ----    
 72
    65
 73
     2
 40
5.0
 49
2.5
 49
-2.5
  0
LTYPE
  2
DASHED3
 70
    64
  3
------  ------  ------  ------  
 72
    65
 73
     2
 40
5.0
 49
3.75
 49
-1.25
  0
LTYPE
  2
CENTER1
 70
    64
  3
----- - ----- - ----- - ----- - 
 72
    65
 73
     4
 40
10.0
 49
6.25
 49
-1.25
 49
1.25
 49
-1.25
  0
LTYPE
  2
CENTER2
 70
    64
  3
----------  --  ----------  --  
 72
    65
 73
     4
 40
20.0
 49
12.5
 49
-2.5
 49
2.5
 49
-2.5
  0
LTYPE
  2
PHANTOM1
 70
    64
  3
--- - - --- - - --- - - --- - - 
 72
    65
 73
     6
 40
10.0
 49
3.25
 49
-1.25
 49
1.25
 49
-1.25
 49
1.25
 49
-1.25
  0
LTYPE
  2
PHANTOM2
 70
    64
  3
--------  -  -  --------  -  -  
 72
    65
 73
     6
 40
20.0
 49
10.0
 49
-2.5
 49
1.25
 49
-2.5
 49
1.25
 49
-2.5
  0
LTYPE
  2
DOT
 70
    64
  3
-   -   -   -   -   -   -   -   
 72
    65
 73
     2
 40
2.5
 49
0.625
 49
-1.875
  0
LTYPE
  2
DUMMY
 70
    64
  3
ダミー
 72
    65
 73
     0
 40
0.0
  0
LTYPE
  2
RAND1
 70
    64
  3
ランダム線1
 72
    65
 73
     4
 40
10.0
 49
1.0
 49
-2.0
 49
3.0
 49
-4.0
  0
LTYPE
  2
RAND2
 70
    64
  3
ランダム線2
 72
    65
 73
     4
 40
14.0
 49
2.0
 49
-3.0
 49
4.0
 49
-5.0
  0
LTYPE
  2
RAND3
 70
    64
  3
ランダム線3
 72
    65
 73
     4
 40
18.0
 49
3.0
 49
-4.0
 49
5.0
 49
-6.0
  0
LTYPE
  2
RAND4
 70
    64
  3
ランダム線4
 72
    65
 73
     4
 40
22.0
 49
4.0
 49
-5.0
 49
6.0
 49
-7.0
  0
LTYPE
  2
RAND5
 70
    64
  3
ランダム線5
 72
    65
 73
     4
 40
26.0
 49
5.0
 49
-6.0
 49
7.0
 49
-8.0
  0
LTYPE
  2
LONG1
 70
    64
  3
----------  --  ----------  --  
 72
    65
 73
     4
 40
40.0
 49
32.5
 49
-2.5
 49
2.5
 49
-2.5
  0
LTYPE
  2
LONG2
 70
    64
  3
--------  -  -  --------  -  -  
 72
    65
 73
     6
 40
40.0
 49
30.0
 49
-2.5
 49
1.25
 49
-2.5
 49
1.25
 49
-2.5
  0
LTYPE
  2
LONG3
 70
    64
  3
+++++++++++++++..+++++++++++++++
 72
    65
 73
     2
 40
40.0
 49
37.5
 49
-2.5
  0
LTYPE
  2
LONG4
 70
    64
  3
+++++++++++++++..+++++++++++++++
 72
    65
 73
     2
 40
80.0
 49
75.0
 49
-5.0
  0
LTYPE
  2
LONG5
 70
    64
  3
----------  --  ----------  --  
 72
    65
 73
     4
 40
60.0
 49
37.5
 49
-7.5
 49
7.5
 49
-7.5
  0
LTYPE
  2
dashed
 70
   64
  3
-------   -------------   ------
 72
   65
 73
    2
 40
7.5
 49
6
 49
-1.5
  0
LTYPE
  2
dashed_spaced
 70
   64
  3
----        --------        ----
 72
   65
 73
    2
 40
12
 49
6
 49
-6
  0
LTYPE
  2
long_dashed_dotted
 70
   64
  3
------------- --- --------------
 72
   65
 73
    4
 40
15.25
 49
12
 49
-1.5
 49
0.25
 49
-1.5
  0
LTYPE
  2
long_dashed_double-dotted
 70
   64
  3
----------- --- --- ------------
 72
   65
 73
    6
 40
17
 49
12
 49
-1.5
 49
0.25
 49
-1.5
 49
0.25
 49
-1.5
  0
LTYPE
  2
long_dashed_triplicate-dotted
 70
   64
  3
--------- --- --- --- ----------
 72
   65
 73
    8
 40
18.75
 49
12
 49
-1.5
 49
0.25
 49
-1.5
 49
0.25
 49
-1.5
 49
0.25
 49
-1.5
  0
LTYPE
  2
dotted
 70
   64
  3
   -       -       -       -    
 72
   65
 73
    2
 40
1.75
 49
0.25
 49
-1.5
  0
LTYPE
  2
chain
 70
   64
  3
-------------- -- --------------
 72
   65
 73
    4
 40
18.5
 49
12
 49
-1.5
 49
3.5
 49
-1.5
  0
LTYPE
  2
chain_double_dash
 70
   64
  3
------------ -- -- -------------
 72
   65
 73
    6
 40
23.5
 49
12
 49
-1.5
 49
3.5
 49
-1.5
 49
3.5
 49
-1.5
  0
LTYPE
  2
dashed_dotted
 70
   64
  3
-----------     -     ----------
 72
   65
 73
    4
 40
9.25
 49
6
 49
-1.5
 49
0.25
 49
-1.5
  0
LTYPE
  2
double-dashed_dotted
 70
   64
  3
------   -----------   -   -----
 72
   65
 73
    6
 40
16.75
 49
6
 49
-1.5
 49
6
 49
-1.5
 49
0.25
 49
-1.5
  0
LTYPE
  2
dashed_double-dotted
 70
   64
  3
---------    -    -    ---------
 72
   65
 73
    6
 40
11
 49
6
 49
-1.5
 49
0.25
 49
-1.5
 49
0.25
 49
-1.5
  0
LTYPE
  2
double-dashed_double-dotted
 70
   64
  3
-----   ---------   -   -   ----
 72
   65
 73
    8
 40
18.5
 49
6
 49
-1.5
 49
6
 49
-1.5
 49
0.25
 49
-1.5
 49
0.25
 49
-1.5
  0
LTYPE
  2
dashed_triplicate-dotted
 70
   64
  3
-------    -    -    -    ------
 72
   65
 73
    8
 40
12.75
 49
6
 49
-1.5
 49
0.25
 49
-1.5
 49
0.25
 49
-1.5
 49
0.25
 49
-1.5
  0
LTYPE
  2
double-dashed_triplicate-dotted
 70
   64
  3
-----  ---------  -  -  -  -----
 72
   65
 73
   10
 40
20.25
 49
6
 49
-1.5
 49
6
 49
-1.5
 49
0.25
 49
-1.5
 49
0.25
 49
-1.5
 49
0.25
 49
-1.5
  0
LTYPE
  2
undefined
 70
   64
  3
--------------------------------
 72
   65
 73
    0
 40
0
  0
ENDTAB
  0
TABLE
  2
STYLE
  5
3
100
AcDbSymbolTable
 70
     1
  0
STYLE
  5
10
100
AcDbSymbolTableRecord
100
AcDbTextStyleTableRecord
  2
STANDARD
 70
     0
 40
0.0
 41
1.0
 50
0.0
 71
     0
 42
0.2
  3
txt
  4
bigfont.shx
  0
STYLE
  5
26
100
AcDbSymbolTableRecord
100
AcDbTextStyleTableRecord
  2
TATEGAKI
 70
    68
 40
0.0
 41
1.0
 50
0.0
 71
     0
 42
1.0
  3
txt
  4
bigfont.shx
  0
ENDTAB
  0
TABLE
  2
LAYER
 70
    2
  0
LAYER
  2
_0-0_0
 70
   64
 62
    7
  6
CONTINUOUS
  0
LAYER
  2
ADD_LINE
 70
   64
 62
    7
  6
CONTINUOUS
  0
ENDTAB
  0
ENDSEC
  0
SECTION
  2
BLOCKS
  0
ENDSEC
  0
SECTION
  2
ENTITIES
  0
POINT
  8
_0-0_0
 62
    7
 10
107.377487
 20
107.0250015
  0
LINE
  8
_0-0_0
  6
CONTINUOUS
 62
    7
 10
0.3774759999999872
 20
148.02550550000001
 11
0.3774759999999872
 21
148.0244975
  0
LINE
  8
_0-0_0
  6
CONTINUOUS
 62
    7
 10
26.877471999999983
 20
113.6800155
 11
26.877471999999983
 21
115.9250105
  0
LINE
  8
_0-0_0
  6
CONTINUOUS
 62
    7
 10
26.877471999999983
 20
115.9250105
 11
26.877471999999983
 21
117.9250105
  0
LINE
  8
_0-0_0
  6
CONTINUOUS
 62
    7
 10
26.877471999999983
 20
117.9250105
 11
26.877471999999983
 21
118.4250105
  0
LINE
  8
_0-0_0
  6
CONTINUOUS
 62
    7
 10
26.877471999999983
 20
118.4250105
 11
26.877471999999983
 21
119.42499550000001
  0
LINE
  8
_0-0_0
  6
CONTINUOUS
 62
    7
 10
26.877471999999983
 20
95.325004500000006
 11
26.877471999999983
 21
113.6800155
  0
LINE
  8
_0-0_0
  6
CONTINUOUS
 62
    7
 10
123.377487
 20
117.4250105
 11
123.377487
 21
117.9250105
  0
LINE
  8
_0-0_0
  6
CONTINUOUS
 62
    7
 10
123.377487
 20
118.4250105
 11
123.377487
 21
119.42499550000001
  0
LINE
  8
_0-0_0
  6
CONTINUOUS
 62
    7
 10
123.377487
 20
117.9250105
 11
123.377487
 21
118.4250105
  0
ARC
  8
_0-0_0
  6
CONTINUOUS
 62
    7
 10
109.377487
 20
113.6800155
 40
0.5
 50
0
 51
123.74898500000002
  0
ARC
  8
_0-0_0
  6
CONTINUOUS
 62
    7
 10
107.877487
 20
115.9250105
 40
2.2000000000000002
 50
180.00000900000003
 51
303.74900400000001
  0
LINE
  8
_0-0_0
  6
CONTINUOUS
 62
    7
 10
105.67748999999998
 20
115.9250105
 11
105.67748999999998
 21
117.4250105
  0
LINE
  8
_0-0_0
  6
CONTINUOUS
 62
    7
 10
31.077468999999994
 20
117.4250105
 11
105.67748999999998
 21
117.4250105
  0
LINE
  8
_0-0_0
  6
CONTINUOUS
 62
    7
 10
31.077468999999994
 20
117.4250105
 11
31.077468999999994
 21
115.9250105
  0
ARC
  8
_0-0_0
  6
CONTINUOUS
 62
    7
 10
28.877471999999983
 20
115.9250105
 40
2.2000000000000002
 50
236.25102899999999
 51
0
  0
ARC
  8
_0-0_0
  6
CONTINUOUS
 62
    7
 10
27.377471999999983
 20
113.6800155
 40
0.5
 50
56.251010000000008
 51
180.00000900000001
  0
ARC
  8
_0-0_0
  6
CONTINUOUS
 62
    7
 10
28.877471999999983
 20
95.325004500000006
 40
2
 50
180.00000900000003
 51
269.99999700000001
  0
LINE
  8
_0-0_0
  6
CONTINUOUS
 62
    7
 10
28.877471999999983
 20
93.325004500000006
 11
29.877471999999983
 21
93.325004500000006
  0
LINE
  8
_0-0_0
  6
CONTINUOUS
 62
    7
 10
29.877471999999983
 20
93.325004500000006
 11
29.877471999999983
 21
94.925010499999999
  0
ARC
  8
_0-0_0
  6
CONTINUOUS
 62
    7
 10
30.377471999999983
 20
94.925010499999999
 40
0.5
 50
90.000003000000007
 51
180.00000900000001
  0
LINE
  8
_0-0_0
  6
CONTINUOUS
 62
    7
 10
30.577468999999994
 20
95.425010499999999
 11
30.377471999999983
 21
95.425010499999999
  0
ARC
  8
_0-0_0
  6
CONTINUOUS
 62
    7
 10
30.577468999999994
 20
94.925010499999999
 40
0.5
 50
90.000003000000007
 51
180.00000900000001
  0
LINE
  8
_0-0_0
  6
CONTINUOUS
 62
    7
 10
30.077468999999994
 20
93.425010499999999
 11
30.077468999999994
 21
94.925010499999999
  0
LINE
  8
_0-0_0
  6
CONTINUOUS
 62
    7
 10
99.677489999999977
 20
93.425010499999999
 11
30.077468999999994
 21
93.425010499999999
  0
LINE
  8
_0-0_0
  6
CONTINUOUS
 62
    7
 10
99.677489999999977
 20
93.425010499999999
 11
99.677489999999977
 21
94.925010499999999
  0
ARC
  8
_0-0_0
  6
CONTINUOUS
 62
    7
 10
99.177489999999977
 20
94.925010499999999
 40
0.5
 50
0
 51
90.000003000000007
  0
LINE
  8
_0-0_0
  6
CONTINUOUS
 62
    7
 10
99.377487000000002
 20
95.425010499999999
 11
99.177489999999977
 21
95.425010499999999
  0
ARC
  8
_0-0_0
  6
CONTINUOUS
 62
    7
 10
99.377487000000002
 20
94.925010499999999
 40
0.5
 50
0
 51
90.000003000000007
  0
LINE
  8
_0-0_0
  6
CONTINUOUS
 62
    7
 10
99.877487000000002
 20
94.925010499999999
 11
99.877487000000002
 21
93.325004500000006
  0
LINE
  8
_0-0_0
  6
CONTINUOUS
 62
    7
 10
99.877487000000002
 20
93.325004500000006
 11
109.877487
 21
93.325004500000006
  0
LINE
  8
_0-0_0
  6
CONTINUOUS
 62
    7
 10
109.877487
 20
93.325004500000006
 11
109.877487
 21
94.224998499999998
  0
LINE
  8
_0-0_0
  6
CONTINUOUS
 62
    7
 10
45.877471999999983
 20
96.829093499999999
 11
87.277480999999995
 21
96.829093499999999
  0
LINE
  8
_0-0_0
  6
CONTINUOUS
 62
    7
 10
45.877471999999983
 20
116.4250105
 11
87.277480999999995
 21
116.4250105
  0
ARC
  8
_0-0_0
  6
CONTINUOUS
 62
    7
 10
98.577483999999998
 20
95.625007499999995
 40
0.2
 50
180.00000900000003
 51
269.99999700000001
  0
LINE
  8
_0-0_0
  6
CONTINUOUS
 62
    7
 10
98.577483999999998
 20
95.425010499999999
 11
31.177474999999987
 21
95.425010499999999
  0
ARC
  8
_0-0_0
  6
CONTINUOUS
 62
    7
 10
31.177474999999987
 20
95.625007499999995
 40
0.2
 50
269.99999700000001
 51
0
  0
ARC
  8
_0-0_0
  6
CONTINUOUS
 62
    7
 10
31.577468999999994
 20
95.625007499999995
 40
0.2
 50
90.000003000000007
 51
180.00000900000001
  0
LINE
  8
_0-0_0
  6
CONTINUOUS
 62
    7
 10
31.577468999999994
 20
95.825004500000006
 11
98.177489999999977
 21
95.825004500000006
  0
ARC
  8
_0-0_0
  6
CONTINUOUS
 62
    7
 10
98.177489999999977
 20
95.625007499999995
 40
0.2
 50
0
 51
90.000003000000007
  0
LINE
  8
_0-0_0
  6
CONTINUOUS
 62
    7
 10
26.877471999999983
 20
118.4250105
 11
123.377487
 21
118.4250105
  0
LINE
  8
_0-0_0
  6
CONTINUOUS
 62
    7
 10
122.877487
 20
117.4250105
 11
123.377487
 21
117.4250105
  0
LINE
  8
_0-0_0
  6
CONTINUOUS
 62
    7
 10
109.877487
 20
95.425010499999999
 11
109.877487
 21
94.224998499999998
  0
LINE
  8
_0-0_0
  6
CONTINUOUS
 62
    7
 10
109.877487
 20
95.425010499999999
 11
109.877487
 21
113.0250015
  0
LINE
  8
_0-0_0
  6
CONTINUOUS
 62
    7
 10
109.877487
 20
115.00237250000001
 11
109.877487
 21
113.0250015
  0
LINE
  8
_0-0_0
  6
CONTINUOUS
 62
    7
 10
28.877471999999983
 20
101.9146805
 11
28.877471999999983
 21
112.36269350000001
  0
ARC
  8
_0-0_0
  6
CONTINUOUS
 62
    7
 10
28.877471999999983
 20
115.9250105
 40
2.7000000000000002
 50
285.68033600000007
 51
352.23356600000005
  0
LINE
  8
_0-0_0
  6
CONTINUOUS
 62
    7
 10
105.877487
 20
113.4250105
 11
105.877487
 21
99.825004500000006
  0
LINE
  8
_0-0_0
  6
CONTINUOUS
 62
    7
 10
30.877471999999983
 20
117.4250105
 11
31.077468999999994
 21
117.4250105
  0
LINE
  8
_0-0_0
  6
CONTINUOUS
 62
    7
 10
30.877471999999983
 20
117.4250105
 11
30.877471999999983
 21
115.9250105
  0
ARC
  8
_0-0_0
  6
CONTINUOUS
 62
    7
 10
28.877471999999983
 20
115.9250105
 40
2
 50
180.00000900000003
 51
0.0000000000000254
  0
LINE
  8
_0-0_0
  6
CONTINUOUS
 62
    7
 10
122.877487
 20
117.4250105
 11
122.877487
 21
115.7249985
  0
LINE
  8
_0-0_0
  6
CONTINUOUS
 62
    7
 10
109.877487
 20
93.425010499999999
 11
121.877487
 21
93.425010499999999
  0
LINE
  8
_0-0_0
  6
CONTINUOUS
 62
    7
 10
121.877487
 20
93.425010499999999
 11
126.552933
 21
93.425010499999999
  0
LINE
  8
_0-0_0
  6
CONTINUOUS
 62
    7
 10
121.877487
 20
98.925010499999999
 11
121.877487
 21
95.925010499999999
  0
LINE
  8
_0-0_0
  6
CONTINUOUS
 62
    7
 10
121.877487
 20
95.925010499999999
 11
121.877487
 21
95.425010499999999
  0
LINE
  8
_0-0_0
  6
CONTINUOUS
 62
    7
 10
121.877487
 20
98.925010499999999
 11
121.877487
 21
99.425010499999999
  0
ARC
  8
_0-0_0
  6
CONTINUOUS
 62
    7
 10
115.87747199999998
 20
98.725013500000003
 40
0.500016
 50
180.00117
 51
359.995611
  0
LINE
  8
_0-0_0
  6
CONTINUOUS
 62
    7
 10
116.377487
 20
98.724998499999998
 11
116.377487
 21
110.7249985
  0
ARC
  8
_0-0_0
  6
CONTINUOUS
 62
    7
 10
115.87747199999998
 20
110.7249985
 40
0.500016
 50
0.001164
 51
179.99560600000004
  0
LINE
  8
_0-0_0
  6
CONTINUOUS
 62
    7
 10
115.377487
 20
98.724998499999998
 11
115.377487
 21
110.7249985
  0
ARC
  8
_0-0_0
  6
CONTINUOUS
 62
    7
 10
117.37747199999998
 20
98.725013500000003
 40
0.500016
 50
180.00117
 51
359.995611
  0
LINE
  8
_0-0_0
  6
CONTINUOUS
 62
    7
 10
117.877487
 20
98.724998499999998
 11
117.877487
 21
110.7249985
  0
ARC
  8
_0-0_0
  6
CONTINUOUS
 62
    7
 10
117.37747199999998
 20
110.7249985
 40
0.500016
 50
0.001164
 51
179.99560600000004
  0
LINE
  8
_0-0_0
  6
CONTINUOUS
 62
    7
 10
116.877487
 20
98.724998499999998
 11
116.877487
 21
110.7249985
  0
ARC
  8
_0-0_0
  6
CONTINUOUS
 62
    7
 10
118.87747199999998
 20
98.725013500000003
 40
0.500016
 50
180.00117
 51
359.995611
  0
LINE
  8
_0-0_0
  6
CONTINUOUS
 62
    7
 10
119.377487
 20
98.724998499999998
 11
119.377487
 21
110.7249985
  0
ARC
  8
_0-0_0
  6
CONTINUOUS
 62
    7
 10
118.87747199999998
 20
110.7249985
 40
0.500016
 50
0.001164
 51
179.99560600000004
  0
LINE
  8
_0-0_0
  6
CONTINUOUS
 62
    7
 10
118.377487
 20
98.724998499999998
 11
118.377487
 21
110.7249985
  0
ARC
  8
_0-0_0
  6
CONTINUOUS
 62
    7
 10
120.37747199999998
 20
98.725013500000003
 40
0.500016
 50
180.00117
 51
359.995611
  0
LINE
  8
_0-0_0
  6
CONTINUOUS
 62
    7
 10
120.877487
 20
98.724998499999998
 11
120.877487
 21
110.7249985
  0
ARC
  8
_0-0_0
  6
CONTINUOUS
 62
    7
 10
120.37747199999998
 20
110.7249985
 40
0.500016
 50
0.001164
 51
179.99560600000004
  0
LINE
  8
_0-0_0
  6
CONTINUOUS
 62
    7
 10
119.877487
 20
98.724998499999998
 11
119.877487
 21
110.7249985
  0
LINE
  8
_0-0_0
  6
CONTINUOUS
 62
    7
 10
109.877487
 20
115.7249985
 11
109.877487
 21
115.00237250000001
  0
LINE
  8
_0-0_0
  6
CONTINUOUS
 62
    7
 10
122.877487
 20
115.7249985
 11
109.877487
 21
115.7249985
  0
LINE
  8
_0-0_0
  6
CONTINUOUS
 62
    7
 10
109.877487
 20
117.4250105
 11
122.877487
 21
117.4250105
  0
LINE
  8
_0-0_0
  6
CONTINUOUS
 62
    7
 10
109.877487
 20
117.4250105
 11
109.877487
 21
115.7249985
  0
LINE
  8
_0-0_0
  6
CONTINUOUS
 62
    7
 10
99.327483999999998
 20
95.401969500000007
 11
99.327483999999998
 21
95.424995500000009
  0
ARC
  8
_0-0_0
  6
CONTINUOUS
 62
    7
 10
126.552933
 20
95.425010499999999
 40
2
 50
269.99999700000001
 51
288.43501300000003
  0
LINE
  8
_0-0_0
  6
CONTINUOUS
 62
    7
 10
105.67748999999998
 20
117.4250105
 11
105.877487
 21
117.4250105
  0
ARC
  8
_0-0_0
  6
CONTINUOUS
 62
    7
 10
107.877487
 20
115.9250105
 40
2
 50
180.00000900000003
 51
0.0000000000000254
  0
LINE
  8
_0-0_0
  6
CONTINUOUS
 62
    7
 10
105.877487
 20
115.9250105
 11
105.877487
 21
117.4250105
  0
LINE
  8
_0-0_0
  6
CONTINUOUS
 62
    7
 10
127.62747199999998
 20
93.674995500000009
 11
127.18537899999998
 21
93.527641500000001
  0
ARC
  8
_0-0_0
  6
CONTINUOUS
 62
    7
 10
96.877487000000002
 20
109.0250015
 40
2.25
 50
269.99999700000001
 51
90.000002999999992
  0
LINE
  8
_0-0_0
  6
CONTINUOUS
 62
    7
 10
92.877471999999983
 20
106.7750015
 11
96.877487000000002
 21
106.7750015
  0
ARC
  8
_0-0_0
  6
CONTINUOUS
 62
    7
 10
92.877471999999983
 20
109.0250015
 40
2.25
 50
90.000003000000007
 51
269.99999700000006
  0
ARC
  8
_0-0_0
  6
CONTINUOUS
 62
    7
 10
40.877471999999983
 20
109.0250015
 40
2.25
 50
269.99999700000001
 51
90.000002999999992
  0
LINE
  8
_0-0_0
  6
CONTINUOUS
 62
    7
 10
36.877471999999983
 20
106.7750015
 11
40.877471999999983
 21
106.7750015
  0
ARC
  8
_0-0_0
  6
CONTINUOUS
 62
    7
 10
36.877471999999983
 20
109.0250015
 40
2.25
 50
90.000003000000007
 51
269.99999700000006
  0
LINE
  8
_0-0_0
  6
CONTINUOUS
 62
    7
 10
92.877471999999983
 20
111.2750015
 11
96.877487000000002
 21
111.2750015
  0
LINE
  8
_0-0_0
  6
CONTINUOUS
 62
    7
 10
36.877471999999983
 20
111.2750015
 11
40.877471999999983
 21
111.2750015
  0
LINE
  8
_0-0_0
  6
CONTINUOUS
 62
    7
 10
99.118088
 20
105.0250015
 11
90.636870999999985
 21
105.0250015
  0
LINE
  8
_0-0_0
  6
CONTINUOUS
 62
    7
 10
99.118088
 20
105.0250015
 11
101.42748999999998
 21
109.0250015
  0
LINE
  8
_0-0_0
  6
CONTINUOUS
 62
    7
 10
101.42748999999998
 20
109.0250015
 11
99.118088
 21
113.0250015
  0
LINE
  8
_0-0_0
  6
CONTINUOUS
 62
    7
 10
90.636870999999985
 20
113.0250015
 11
99.118088
 21
113.0250015
  0
LINE
  8
_0-0_0
  6
CONTINUOUS
 62
    7
 10
88.327468999999979
 20
109.0250015
 11
90.636870999999985
 21
113.0250015
  0
LINE
  8
_0-0_0
  6
CONTINUOUS
 62
    7
 10
90.636870999999985
 20
105.0250015
 11
88.327468999999979
 21
109.0250015
  0
LINE
  8
_0-0_0
  6
CONTINUOUS
 62
    7
 10
43.118071999999984
 20
105.0250015
 11
34.636870999999985
 21
105.0250015
  0
LINE
  8
_0-0_0
  6
CONTINUOUS
 62
    7
 10
45.427474999999987
 20
109.0250015
 11
43.118071999999984
 21
105.0250015
  0
LINE
  8
_0-0_0
  6
CONTINUOUS
 62
    7
 10
45.427474999999987
 20
109.0250015
 11
43.118071999999984
 21
113.0250015
  0
LINE
  8
_0-0_0
  6
CONTINUOUS
 62
    7
 10
34.636870999999985
 20
113.0250015
 11
43.118071999999984
 21
113.0250015
  0
LINE
  8
_0-0_0
  6
CONTINUOUS
 62
    7
 10
32.327468999999994
 20
109.0250015
 11
34.636870999999985
 21
113.0250015
  0
LINE
  8
_0-0_0
  6
CONTINUOUS
 62
    7
 10
32.327468999999994
 20
109.0250015
 11
34.636870999999985
 21
105.0250015
  0
CIRCLE
  8
_0-0_0
  6
CONTINUOUS
 62
    7
 10
107.877487
 20
115.9250105
 40
1.4750000000000001
  0
CIRCLE
  8
_0-0_0
  6
CONTINUOUS
 62
    7
 10
28.877471999999983
 20
115.9250105
 40
1.4750000000000001
  0
LINE
  8
_0-0_0
  6
CONTINUOUS
 62
    7
 10
108.327484
 20
115.7249985
 11
108.97747799999999
 21
115.7249985
  0
ARC
  8
_0-0_0
  6
CONTINUOUS
 62
    7
 10
108.327484
 20
115.4749985
 40
0.25
 50
90.000003000000007
 51
180.00000900000001
  0
LINE
  8
_0-0_0
  6
CONTINUOUS
 62
    7
 10
108.077484
 20
115.4749985
 11
108.077484
 21
114.82500450000001
  0
LINE
  8
_0-0_0
  6
CONTINUOUS
 62
    7
 10
107.67748999999998
 20
114.82500450000001
 11
108.077484
 21
114.82500450000001
  0
LINE
  8
_0-0_0
  6
CONTINUOUS
 62
    7
 10
107.67748999999998
 20
114.82500450000001
 11
107.67748999999998
 21
115.4749985
  0
ARC
  8
_0-0_0
  6
CONTINUOUS
 62
    7
 10
107.42748999999998
 20
115.4749985
 40
0.25
 50
0
 51
90.000003000000007
  0
LINE
  8
_0-0_0
  6
CONTINUOUS
 62
    7
 10
106.77748099999999
 20
115.7249985
 11
107.42748999999998
 21
115.7249985
  0
LINE
  8
_0-0_0
  6
CONTINUOUS
 62
    7
 10
106.77748099999999
 20
115.7249985
 11
106.77748099999999
 21
116.1250075
  0
LINE
  8
_0-0_0
  6
CONTINUOUS
 62
    7
 10
107.42748999999998
 20
116.1250075
 11
106.77748099999999
 21
116.1250075
  0
ARC
  8
_0-0_0
  6
CONTINUOUS
 62
    7
 10
107.42748999999998
 20
116.3750075
 40
0.25
 50
269.99999700000001
 51
0
  0
LINE
  8
_0-0_0
  6
CONTINUOUS
 62
    7
 10
107.67748999999998
 20
116.3750075
 11
107.67748999999998
 21
117.0250015
  0
LINE
  8
_0-0_0
  6
CONTINUOUS
 62
    7
 10
108.077484
 20
117.0250015
 11
107.67748999999998
 21
117.0250015
  0
LINE
  8
_0-0_0
  6
CONTINUOUS
 62
    7
 10
108.077484
 20
117.0250015
 11
108.077484
 21
116.3750075
  0
ARC
  8
_0-0_0
  6
CONTINUOUS
 62
    7
 10
108.327484
 20
116.3750075
 40
0.25
 50
180.00000900000003
 51
269.99999700000001
  0
LINE
  8
_0-0_0
  6
CONTINUOUS
 62
    7
 10
108.97747799999999
 20
116.1250075
 11
108.327484
 21
116.1250075
  0
LINE
  8
_0-0_0
  6
CONTINUOUS
 62
    7
 10
108.97747799999999
 20
116.1250075
 11
108.97747799999999
 21
115.7249985
  0
LINE
  8
_0-0_0
  6
CONTINUOUS
 62
    7
 10
29.327468999999994
 20
115.7249985
 11
29.977477999999991
 21
115.7249985
  0
ARC
  8
_0-0_0
  6
CONTINUOUS
 62
    7
 10
29.327468999999994
 20
115.4749985
 40
0.25
 50
90.000003000000007
 51
180.00000900000001
  0
LINE
  8
_0-0_0
  6
CONTINUOUS
 62
    7
 10
29.077468999999994
 20
115.4749985
 11
29.077468999999994
 21
114.82500450000001
  0
LINE
  8
_0-0_0
  6
CONTINUOUS
 62
    7
 10
28.677474999999987
 20
114.82500450000001
 11
29.077468999999994
 21
114.82500450000001
  0
LINE
  8
_0-0_0
  6
CONTINUOUS
 62
    7
 10
28.677474999999987
 20
114.82500450000001
 11
28.677474999999987
 21
115.4749985
  0
ARC
  8
_0-0_0
  6
CONTINUOUS
 62
    7
 10
28.427474999999987
 20
115.4749985
 40
0.25
 50
0
 51
90.000003000000007
  0
LINE
  8
_0-0_0
  6
CONTINUOUS
 62
    7
 10
27.77746599999999
 20
115.7249985
 11
28.427474999999987
 21
115.7249985
  0
LINE
  8
_0-0_0
  6
CONTINUOUS
 62
    7
 10
27.77746599999999
 20
115.7249985
 11
27.77746599999999
 21
116.1250075
  0
LINE
  8
_0-0_0
  6
CONTINUOUS
 62
    7
 10
28.427474999999987
 20
116.1250075
 11
27.77746599999999
 21
116.1250075
  0
ARC
  8
_0-0_0
  6
CONTINUOUS
 62
    7
 10
28.427474999999987
 20
116.3750075
 40
0.25
 50
269.99999700000001
 51
0
  0
LINE
  8
_0-0_0
  6
CONTINUOUS
 62
    7
 10
28.677474999999987
 20
116.3750075
 11
28.677474999999987
 21
117.0250015
  0
LINE
  8
_0-0_0
  6
CONTINUOUS
 62
    7
 10
29.077468999999994
 20
117.0250015
 11
28.677474999999987
 21
117.0250015
  0
LINE
  8
_0-0_0
  6
CONTINUOUS
 62
    7
 10
29.077468999999994
 20
117.0250015
 11
29.077468999999994
 21
116.3750075
  0
ARC
  8
_0-0_0
  6
CONTINUOUS
 62
    7
 10
29.327468999999994
 20
116.3750075
 40
0.25
 50
180.00000900000003
 51
269.99999700000001
  0
LINE
  8
_0-0_0
  6
CONTINUOUS
 62
    7
 10
29.977477999999991
 20
116.1250075
 11
29.327468999999994
 21
116.1250075
  0
LINE
  8
_0-0_0
  6
CONTINUOUS
 62
    7
 10
29.977477999999991
 20
116.1250075
 11
29.977477999999991
 21
115.7249985
  0
LINE
  8
_0-0_0
  6
CONTINUOUS
 62
    7
 10
30.427474999999987
 20
95.401969500000007
 11
30.427474999999987
 21
95.424995500000009
  0
LINE
  8
_0-0_0
  6
CONTINUOUS
 62
    7
 10
48.877471999999983
 20
113.4250105
 11
48.877471999999983
 21
100.4679945
  0
ARC
  8
_0-0_0
  6
CONTINUOUS
 62
    7
 10
45.877471999999983
 20
113.4250105
 40
3
 50
0
 51
90.000003000000007
  0
LINE
  8
_0-0_0
  6
CONTINUOUS
 62
    7
 10
84.877471999999983
 20
99.825004500000006
 11
84.877471999999983
 21
113.4250105
  0
LINE
  8
_0-0_0
  6
CONTINUOUS
 62
    7
 10
68.364959999999982
 20
109.59464250000001
 11
67.064956999999993
 21
113.09464250000001
  0
ARC
  8
_0-0_0
  6
CONTINUOUS
 62
    7
 10
65.577468999999994
 20
109.5250015
 40
0.2
 50
159.62357
 51
269.99999700000001
  0
LINE
  8
_0-0_0
  6
CONTINUOUS
 62
    7
 10
109.877487
 20
115.0250015
 11
126.552933
 21
115.0250015
  0
ARC
  8
_0-0_0
  6
CONTINUOUS
 62
    7
 10
126.552933
 20
113.0250015
 40
2
 50
71.565000999999995
 51
90.000003000000007
  0
LINE
  8
_0-0_0
  6
CONTINUOUS
 62
    7
 10
127.185394
 20
114.9223705
 11
127.06588699999998
 21
114.95798449999999
  0
LINE
  8
_0-0_0
  6
CONTINUOUS
 62
    7
 10
127.06588699999998
 20
114.95798449999999
 11
126.94433599999999
 21
114.9858625
  0
LINE
  8
_0-0_0
  6
CONTINUOUS
 62
    7
 10
126.94433599999999
 20
114.9858625
 11
126.821213
 21
115.00591250000001
  0
LINE
  8
_0-0_0
  6
CONTINUOUS
 62
    7
 10
126.821213
 20
115.00591250000001
 11
126.696991
 21
115.0180285
  0
LINE
  8
_0-0_0
  6
CONTINUOUS
 62
    7
 10
126.696991
 20
115.0180285
 11
126.572159
 21
115.0221635
  0
LINE
  8
_0-0_0
  6
CONTINUOUS
 62
    7
 10
126.572159
 20
115.0221635
 11
126.552933
 21
115.0220875
  0
LINE
  8
_0-0_0
  6
CONTINUOUS
 62
    7
 10
131.50993299999999
 20
113.48084250000001
 11
127.18537899999998
 21
114.9223705
  0
LINE
  8
_0-0_0
  6
CONTINUOUS
 62
    7
 10
131.351822
 20
98.925010499999999
 11
132.04518099999999
 21
98.925010499999999
  0
LINE
  8
_0-0_0
  6
CONTINUOUS
 62
    7
 10
131.351822
 20
98.925010499999999
 11
127.02726699999999
 21
98.925010499999999
  0
LINE
  8
_0-0_0
  6
CONTINUOUS
 62
    7
 10
126.552933
 20
98.925010499999999
 11
127.02726699999999
 21
98.925010499999999
  0
LINE
  8
_0-0_0
  6
CONTINUOUS
 62
    7
 10
121.877487
 20
98.925010499999999
 11
126.552933
 21
98.925010499999999
  0
LINE
  8
_0-0_0
  6
CONTINUOUS
 62
    7
 10
132.877487
 20
98.174964500000002
 11
132.877487
 21
99.295982500000008
  0
LINE
  8
_0-0_0
  6
CONTINUOUS
 62
    7
 10
132.877487
 20
100.2173085
 11
132.877487
 21
99.295982500000008
  0
LINE
  8
_0-0_0
  6
CONTINUOUS
 62
    7
 10
143.877487
 20
98.974998499999998
 11
143.877487
 21
106.9565655
  0
ARC
  8
_0-0_0
  6
CONTINUOUS
 62
    7
 10
137.703598
 20
107.47588349999999
 40
4.9238749999999998
 50
352.49423299999995
 51
1.5359699999999901
  0
LINE
  8
_0-0_0
  6
CONTINUOUS
 62
    7
 10
142.58531199999999
 20
101.6173015
 11
142.679642
 21
101.8639295
  0
LINE
  8
_0-0_0
  6
CONTINUOUS
 62
    7
 10
142.679642
 20
101.8639295
 11
142.76359599999998
 21
102.1039045
  0
LINE
  8
_0-0_0
  6
CONTINUOUS
 62
    7
 10
142.76359599999998
 20
102.1039045
 11
142.83775299999999
 21
102.3380205
  0
LINE
  8
_0-0_0
  6
CONTINUOUS
 62
    7
 10
142.83775299999999
 20
102.3380205
 11
142.90263399999998
 21
102.5670545
  0
LINE
  8
_0-0_0
  6
CONTINUOUS
 62
    7
 10
142.90263399999998
 20
102.5670545
 11
142.95867899999999
 21
102.7917255
  0
LINE
  8
_0-0_0
  6
CONTINUOUS
 62
    7
 10
142.95867899999999
 20
102.7917255
 11
143.00624099999999
 21
103.0127025
  0
LINE
  8
_0-0_0
  6
CONTINUOUS
 62
    7
 10
143.00624099999999
 20
103.0127025
 11
143.04563899999999
 21
103.23062850000001
  0
LINE
  8
_0-0_0
  6
CONTINUOUS
 62
    7
 10
143.04563899999999
 20
103.23062850000001
 11
143.07713299999998
 21
103.4460675
  0
LINE
  8
_0-0_0
  6
CONTINUOUS
 62
    7
 10
143.07713299999998
 20
103.4460675
 11
143.10090599999998
 21
103.6595995
  0
LINE
  8
_0-0_0
  6
CONTINUOUS
 62
    7
 10
143.10090599999998
 20
103.6595995
 11
143.11683599999998
 21
103.8673175
  0
LINE
  8
_0-0_0
  6
CONTINUOUS
 62
    7
 10
143.11683599999998
 20
103.8673175
 11
143.12559499999998
 21
104.07416550000001
  0
LINE
  8
_0-0_0
  6
CONTINUOUS
 62
    7
 10
143.12559499999998
 20
104.07416550000001
 11
143.127228
 21
104.2806475
  0
LINE
  8
_0-0_0
  6
CONTINUOUS
 62
    7
 10
143.127228
 20
104.2806475
 11
143.12176499999998
 21
104.48722050000001
  0
LINE
  8
_0-0_0
  6
CONTINUOUS
 62
    7
 10
143.12176499999998
 20
104.48722050000001
 11
143.10914599999998
 21
104.6944045
  0
LINE
  8
_0-0_0
  6
CONTINUOUS
 62
    7
 10
143.10914599999998
 20
104.6944045
 11
143.08933999999999
 21
104.9027025
  0
LINE
  8
_0-0_0
  6
CONTINUOUS
 62
    7
 10
143.08933999999999
 20
104.9027025
 11
143.06219499999997
 21
105.1126175
  0
LINE
  8
_0-0_0
  6
CONTINUOUS
 62
    7
 10
143.06219499999997
 20
105.1126175
 11
143.02754199999998
 21
105.3246845
  0
LINE
  8
_0-0_0
  6
CONTINUOUS
 62
    7
 10
143.02754199999998
 20
105.3246845
 11
142.98519899999999
 21
105.5394515
  0
LINE
  8
_0-0_0
  6
CONTINUOUS
 62
    7
 10
142.98519899999999
 20
105.5394515
 11
142.93487499999998
 21
105.7574535
  0
LINE
  8
_0-0_0
  6
CONTINUOUS
 62
    7
 10
142.93487499999998
 20
105.7574535
 11
142.88063
 21
105.96373750000001
  0
LINE
  8
_0-0_0
  6
CONTINUOUS
 62
    7
 10
142.88063
 20
105.96373750000001
 11
142.81892399999998
 21
106.1738355
  0
LINE
  8
_0-0_0
  6
CONTINUOUS
 62
    7
 10
142.81892399999998
 20
106.1738355
 11
142.749405
 21
106.3883135
  0
LINE
  8
_0-0_0
  6
CONTINUOUS
 62
    7
 10
142.749405
 20
106.3883135
 11
142.67169199999998
 21
106.6077195
  0
LINE
  8
_0-0_0
  6
CONTINUOUS
 62
    7
 10
142.67169199999998
 20
106.6077195
 11
142.58531199999999
 21
106.8326945
  0
ARC
  8
_0-0_0
  6
CONTINUOUS
 62
    7
 10
137.71375999999998
 20
100.9749985
 40
4.9136889999999998
 50
352.48898799999995
 51
7.5110139999999577
  0
LINE
  8
_0-0_0
  6
CONTINUOUS
 62
    7
 10
142.58531199999999
 20
100.3326945
 11
142.63980099999998
 21
100.26276350000001
  0
LINE
  8
_0-0_0
  6
CONTINUOUS
 62
    7
 10
142.63980099999998
 20
100.26276350000001
 11
142.69090299999999
 21
100.19393150000001
  0
LINE
  8
_0-0_0
  6
CONTINUOUS
 62
    7
 10
142.69090299999999
 20
100.19393150000001
 11
142.738541
 21
100.12642650000001
  0
LINE
  8
_0-0_0
  6
CONTINUOUS
 62
    7
 10
142.738541
 20
100.12642650000001
 11
142.78303499999998
 21
100.0598835
  0
LINE
  8
_0-0_0
  6
CONTINUOUS
 62
    7
 10
142.78303499999998
 20
100.0598835
 11
142.83775299999999
 21
99.972343500000008
  0
LINE
  8
_0-0_0
  6
CONTINUOUS
 62
    7
 10
142.83775299999999
 20
99.972343500000008
 11
142.88726799999998
 21
99.886238500000005
  0
LINE
  8
_0-0_0
  6
CONTINUOUS
 62
    7
 10
142.88726799999998
 20
99.886238500000005
 11
142.93173199999998
 21
99.801414500000007
  0
LINE
  8
_0-0_0
  6
CONTINUOUS
 62
    7
 10
142.93173199999998
 20
99.801414500000007
 11
142.97869899999998
 21
99.7010875
  0
LINE
  8
_0-0_0
  6
CONTINUOUS
 62
    7
 10
142.97869899999998
 20
99.7010875
 11
143.01890599999999
 21
99.602165499999998
  0
LINE
  8
_0-0_0
  6
CONTINUOUS
 62
    7
 10
143.01890599999999
 20
99.602165499999998
 11
143.05256599999998
 21
99.504402499999998
  0
LINE
  8
_0-0_0
  6
CONTINUOUS
 62
    7
 10
143.05256599999998
 20
99.504402499999998
 11
143.07986399999999
 21
99.407600500000001
  0
LINE
  8
_0-0_0
  6
CONTINUOUS
 62
    7
 10
143.07986399999999
 20
99.407600500000001
 11
143.10090599999998
 21
99.311546500000006
  0
LINE
  8
_0-0_0
  6
CONTINUOUS
 62
    7
 10
143.10090599999998
 20
99.311546500000006
 11
143.11683599999998
 21
99.207694500000002
  0
LINE
  8
_0-0_0
  6
CONTINUOUS
 62
    7
 10
143.11683599999998
 20
99.207694500000002
 11
143.12559499999998
 21
99.104270499999998
  0
LINE
  8
_0-0_0
  6
CONTINUOUS
 62
    7
 10
143.12559499999998
 20
99.104270499999998
 11
143.127228
 21
99.001029500000001
  0
LINE
  8
_0-0_0
  6
CONTINUOUS
 62
    7
 10
143.127228
 20
99.001029500000001
 11
143.12176499999998
 21
98.897743500000004
  0
LINE
  8
_0-0_0
  6
CONTINUOUS
 62
    7
 10
143.12176499999998
 20
98.897743500000004
 11
143.10914599999998
 21
98.794151499999998
  0
LINE
  8
_0-0_0
  6
CONTINUOUS
 62
    7
 10
143.10914599999998
 20
98.794151499999998
 11
143.08933999999999
 21
98.689994499999997
  0
LINE
  8
_0-0_0
  6
CONTINUOUS
 62
    7
 10
143.08933999999999
 20
98.689994499999997
 11
143.06219499999997
 21
98.585044499999995
  0
LINE
  8
_0-0_0
  6
CONTINUOUS
 62
    7
 10
143.06219499999997
 20
98.585044499999995
 11
143.02754199999998
 21
98.479011499999999
  0
LINE
  8
_0-0_0
  6
CONTINUOUS
 62
    7
 10
143.02754199999998
 20
98.479011499999999
 11
142.98519899999999
 21
98.371635499999996
  0
LINE
  8
_0-0_0
  6
CONTINUOUS
 62
    7
 10
142.98519899999999
 20
98.371635499999996
 11
142.93487499999998
 21
98.262626499999996
  0
LINE
  8
_0-0_0
  6
CONTINUOUS
 62
    7
 10
142.93487499999998
 20
98.262626499999996
 11
142.88919099999998
 21
98.174980500000004
  0
LINE
  8
_0-0_0
  6
CONTINUOUS
 62
    7
 10
132.877487
 20
108.1173015
 11
142.58531199999999
 21
108.1173015
  0
LINE
  8
_0-0_0
  6
CONTINUOUS
 62
    7
 10
132.877487
 20
106.8326945
 11
132.877487
 21
108.1173015
  0
LINE
  8
_0-0_0
  6
CONTINUOUS
 62
    7
 10
132.877487
 20
106.8326945
 11
142.58531199999999
 21
106.8326945
  0
ARC
  8
_0-0_0
  6
CONTINUOUS
 62
    7
 10
137.66557299999999
 20
107.4709395
 40
4.9620009999999999
 50
1.5813010000000001
 51
7.4847919999999997
  0
LINE
  8
_0-0_0
  6
CONTINUOUS
 62
    7
 10
132.577484
 20
102.01297750000001
 11
132.49401799999998
 21
102.3916545
  0
LINE
  8
_0-0_0
  6
CONTINUOUS
 62
    7
 10
132.49401799999998
 20
102.3916545
 11
132.45393399999998
 21
102.58319850000001
  0
LINE
  8
_0-0_0
  6
CONTINUOUS
 62
    7
 10
132.45393399999998
 20
102.58319850000001
 11
132.397842
 21
102.87320750000001
  0
LINE
  8
_0-0_0
  6
CONTINUOUS
 62
    7
 10
132.397842
 20
102.87320750000001
 11
132.36024499999999
 21
103.09279650000001
  0
LINE
  8
_0-0_0
  6
CONTINUOUS
 62
    7
 10
132.36024499999999
 20
103.09279650000001
 11
132.32760599999997
 21
103.3140485
  0
LINE
  8
_0-0_0
  6
CONTINUOUS
 62
    7
 10
132.32760599999997
 20
103.3140485
 11
132.300445
 21
103.5408405
  0
LINE
  8
_0-0_0
  6
CONTINUOUS
 62
    7
 10
132.300445
 20
103.5408405
 11
132.28037999999998
 21
103.7682415
  0
LINE
  8
_0-0_0
  6
CONTINUOUS
 62
    7
 10
132.28037999999998
 20
103.7682415
 11
132.273224
 21
103.88196550000001
  0
LINE
  8
_0-0_0
  6
CONTINUOUS
 62
    7
 10
132.273224
 20
103.88196550000001
 11
132.26806599999998
 21
103.9956435
  0
LINE
  8
_0-0_0
  6
CONTINUOUS
 62
    7
 10
132.26806599999998
 20
103.9956435
 11
132.264343
 21
104.1470875
  0
LINE
  8
_0-0_0
  6
CONTINUOUS
 62
    7
 10
132.264343
 20
104.1470875
 11
132.26428199999998
 21
104.29834750000001
  0
LINE
  8
_0-0_0
  6
CONTINUOUS
 62
    7
 10
132.26428199999998
 20
104.29834750000001
 11
132.26786799999999
 21
104.4493945
  0
LINE
  8
_0-0_0
  6
CONTINUOUS
 62
    7
 10
132.26786799999999
 20
104.4493945
 11
132.27737399999998
 21
104.6379475
  0
LINE
  8
_0-0_0
  6
CONTINUOUS
 62
    7
 10
132.27737399999998
 20
104.6379475
 11
132.292236
 21
104.8261945
  0
LINE
  8
_0-0_0
  6
CONTINUOUS
 62
    7
 10
132.292236
 20
104.8261945
 11
132.312164
 21
105.0141375
  0
LINE
  8
_0-0_0
  6
CONTINUOUS
 62
    7
 10
132.312164
 20
105.0141375
 11
132.328552
 21
105.1430125
  0
LINE
  8
_0-0_0
  6
CONTINUOUS
 62
    7
 10
132.328552
 20
105.1430125
 11
132.34695399999998
 21
105.2716595
  0
LINE
  8
_0-0_0
  6
CONTINUOUS
 62
    7
 10
132.34695399999998
 20
105.2716595
 11
132.37112399999998
 21
105.4235915
  0
LINE
  8
_0-0_0
  6
CONTINUOUS
 62
    7
 10
132.37112399999998
 20
105.4235915
 11
132.39752199999998
 21
105.5749285
  0
LINE
  8
_0-0_0
  6
CONTINUOUS
 62
    7
 10
132.39752199999998
 20
105.5749285
 11
132.453689
 21
105.8655625
  0
LINE
  8
_0-0_0
  6
CONTINUOUS
 62
    7
 10
132.453689
 20
105.8655625
 11
132.49385099999998
 21
106.0575175
  0
LINE
  8
_0-0_0
  6
CONTINUOUS
 62
    7
 10
132.49385099999998
 20
106.0575175
 11
132.577484
 21
106.4370045
  0
LINE
  8
_0-0_0
  6
CONTINUOUS
 62
    7
 10
132.877487
 20
102.66295650000001
 11
132.877487
 21
105.78705550000001
  0
LINE
  8
_0-0_0
  6
CONTINUOUS
 62
    7
 10
157.627487
 20
94.699562499999999
 11
157.377487
 21
94.675010499999999
  0
LINE
  8
_0-0_0
  6
CONTINUOUS
 62
    7
 10
157.377487
 20
94.675010499999999
 11
148.127487
 21
94.675010499999999
  0
LINE
  8
_0-0_0
  6
CONTINUOUS
 62
    7
 10
147.877487
 20
94.699562499999999
 11
148.127487
 21
94.675010499999999
  0
LINE
  8
_0-0_0
  6
CONTINUOUS
 62
    7
 10
157.627487
 20
97.673576499999996
 11
157.377487
 21
97.947547499999999
  0
LINE
  8
_0-0_0
  6
CONTINUOUS
 62
    7
 10
157.627487
 20
97.673576499999996
 11
157.377487
 21
97.782859500000001
  0
LINE
  8
_0-0_0
  6
CONTINUOUS
 62
    7
 10
157.627487
 20
97.515998499999995
 11
157.377487
 21
97.782859500000001
  0
LINE
  8
_0-0_0
  6
CONTINUOUS
 62
    7
 10
157.627487
 20
97.515998499999995
 11
157.377487
 21
97.597831499999998
  0
LINE
  8
_0-0_0
  6
CONTINUOUS
 62
    7
 10
157.627487
 20
97.340980500000001
 11
157.377487
 21
97.597831499999998
  0
LINE
  8
_0-0_0
  6
CONTINUOUS
 62
    7
 10
157.627487
 20
97.340980500000001
 11
157.377487
 21
97.394462500000003
  0
LINE
  8
_0-0_0
  6
CONTINUOUS
 62
    7
 10
157.627487
 20
97.150444500000006
 11
157.377487
 21
97.394462500000003
  0
LINE
  8
_0-0_0
  6
CONTINUOUS
 62
    7
 10
157.627487
 20
97.150444500000006
 11
157.377487
 21
97.175010499999999
  0
LINE
  8
_0-0_0
  6
CONTINUOUS
 62
    7
 10
157.627487
 20
96.946479499999995
 11
157.377487
 21
97.175010499999999
  0
LINE
  8
_0-0_0
  6
CONTINUOUS
 62
    7
 10
157.627487
 20
96.946479499999995
 11
157.377487
 21
96.941841499999995
  0
LINE
  8
_0-0_0
  6
CONTINUOUS
 62
    7
 10
157.627487
 20
96.731330499999999
 11
157.377487
 21
96.941841499999995
  0
LINE
  8
_0-0_0
  6
CONTINUOUS
 62
    7
 10
157.627487
 20
96.731330499999999
 11
157.377487
 21
96.697547499999999
  0
LINE
  8
_0-0_0
  6
CONTINUOUS
 62
    7
 10
157.627487
 20
96.507347500000009
 11
157.377487
 21
96.697547499999999
  0
LINE
  8
_0-0_0
  6
CONTINUOUS
 62
    7
 10
157.627487
 20
96.507347500000009
 11
157.377487
 21
96.444786500000006
  0
LINE
  8
_0-0_0
  6
CONTINUOUS
 62
    7
 10
157.627487
 20
96.276985499999995
 11
157.377487
 21
96.444786500000006
  0
LINE
  8
_0-0_0
  6
CONTINUOUS
 62
    7
 10
157.627487
 20
96.276985499999995
 11
157.377487
 21
96.186332500000006
  0
LINE
  8
_0-0_0
  6
CONTINUOUS
 62
    7
 10
157.627487
 20
96.042762499999995
 11
157.377487
 21
96.186332500000006
  0
LINE
  8
_0-0_0
  6
CONTINUOUS
 62
    7
 10
157.627487
 20
96.042762499999995
 11
157.377487
 21
95.925010499999999
  0
LINE
  8
_0-0_0
  6
CONTINUOUS
 62
    7
 10
157.627487
 20
95.807243499999998
 11
157.377487
 21
95.925010499999999
  0
LINE
  8
_0-0_0
  6
CONTINUOUS
 62
    7
 10
157.627487
 20
95.807243499999998
 11
157.377487
 21
95.663688500000006
  0
LINE
  8
_0-0_0
  6
CONTINUOUS
 62
    7
 10
157.627487
 20
95.573020499999998
 11
157.377487
 21
95.663688500000006
  0
LINE
  8
_0-0_0
  6
CONTINUOUS
 62
    7
 10
157.627487
 20
95.573020499999998
 11
157.377487
 21
95.405235500000003
  0
LINE
  8
_0-0_0
  6
CONTINUOUS
 62
    7
 10
157.627487
 20
95.342658499999999
 11
157.377487
 21
95.405235500000003
  0
LINE
  8
_0-0_0
  6
CONTINUOUS
 62
    7
 10
157.627487
 20
95.342658499999999
 11
157.377487
 21
95.152458500000009
  0
LINE
  8
_0-0_0
  6
CONTINUOUS
 62
    7
 10
157.627487
 20
95.118675499999995
 11
157.377487
 21
95.152458500000009
  0
LINE
  8
_0-0_0
  6
CONTINUOUS
 62
    7
 10
157.627487
 20
95.118675499999995
 11
157.377487
 21
94.908164499999998
  0
LINE
  8
_0-0_0
  6
CONTINUOUS
 62
    7
 10
157.627487
 20
94.903526499999998
 11
157.377487
 21
94.908164499999998
  0
LINE
  8
_0-0_0
  6
CONTINUOUS
 62
    7
 10
157.627487
 20
94.903526499999998
 11
157.377487
 21
94.675010499999999
  0
LINE
  8
_0-0_0
  6
CONTINUOUS
 62
    7
 10
157.627487
 20
94.699562499999999
 11
157.377487
 21
94.455543500000005
  0
LINE
  8
_0-0_0
  6
CONTINUOUS
 62
    7
 10
157.627487
 20
94.509025500000007
 11
157.377487
 21
94.455543500000005
  0
LINE
  8
_0-0_0
  6
CONTINUOUS
 62
    7
 10
157.627487
 20
94.509025500000007
 11
157.377487
 21
94.252174499999995
  0
LINE
  8
_0-0_0
  6
CONTINUOUS
 62
    7
 10
157.627487
 20
94.334007499999998
 11
157.377487
 21
94.252174499999995
  0
LINE
  8
_0-0_0
  6
CONTINUOUS
 62
    7
 10
157.627487
 20
94.334007499999998
 11
157.377487
 21
94.067146500000007
  0
LINE
  8
_0-0_0
  6
CONTINUOUS
 62
    7
 10
157.627487
 20
94.176429499999998
 11
157.377487
 21
94.067146500000007
  0
LINE
  8
_0-0_0
  6
CONTINUOUS
 62
    7
 10
157.627487
 20
94.176429499999998
 11
157.377487
 21
93.902458500000009
  0
LINE
  8
_0-0_0
  6
CONTINUOUS
 62
    7
 10
157.627487
 20
94.038001500000007
 11
157.377487
 21
93.902458500000009
  0
LINE
  8
_0-0_0
  6
CONTINUOUS
 62
    7
 10
157.627487
 20
94.038001500000007
 11
157.377487
 21
93.759941499999996
  0
LINE
  8
_0-0_0
  6
CONTINUOUS
 62
    7
 10
157.627487
 20
93.920234500000007
 11
157.377487
 21
93.759941499999996
  0
LINE
  8
_0-0_0
  6
CONTINUOUS
 62
    7
 10
157.627487
 20
93.920234500000007
 11
157.377487
 21
93.641136500000002
  0
LINE
  8
_0-0_0
  6
CONTINUOUS
 62
    7
 10
157.627487
 20
93.824455499999999
 11
157.377487
 21
93.641136500000002
  0
LINE
  8
_0-0_0
  6
CONTINUOUS
 62
    7
 10
157.627487
 20
93.824455499999999
 11
157.377487
 21
93.547355500000009
  0
LINE
  8
_0-0_0
  6
CONTINUOUS
 62
    7
 10
157.627487
 20
93.751670500000003
 11
157.377487
 21
93.547355500000009
  0
LINE
  8
_0-0_0
  6
CONTINUOUS
 62
    7
 10
157.627487
 20
93.751670500000003
 11
157.377487
 21
93.479637499999995
  0
LINE
  8
_0-0_0
  6
CONTINUOUS
 62
    7
 10
157.627487
 20
93.702705500000008
 11
157.377487
 21
93.479637499999995
  0
LINE
  8
_0-0_0
  6
CONTINUOUS
 62
    7
 10
157.627487
 20
93.702705500000008
 11
157.377487
 21
93.438697500000004
  0
LINE
  8
_0-0_0
  6
CONTINUOUS
 62
    7
 10
157.627487
 20
93.678092500000005
 11
157.377487
 21
93.438697500000004
  0
LINE
  8
_0-0_0
  6
CONTINUOUS
 62
    7
 10
157.627487
 20
93.678092500000005
 11
157.377487
 21
93.425010499999999
  0
LINE
  8
_0-0_0
  6
CONTINUOUS
 62
    7
 10
157.877487
 20
93.925010499999999
 11
157.877487
 21
97.680168500000008
  0
LINE
  8
_0-0_0
  6
CONTINUOUS
 62
    7
 10
157.49752799999999
 20
98.013618500000007
 11
157.377487
 21
98.090064499999997
  0
LINE
  8
_0-0_0
  6
CONTINUOUS
 62
    7
 10
157.627487
 20
97.812019500000005
 11
157.377487
 21
98.090064499999997
  0
LINE
  8
_0-0_0
  6
CONTINUOUS
 62
    7
 10
157.627487
 20
97.812019500000005
 11
157.377487
 21
97.947547499999999
  0
LINE
  8
_0-0_0
  6
CONTINUOUS
 62
    7
 10
157.377487
 20
97.782859500000001
 11
148.127487
 21
97.782859500000001
  0
LINE
  8
_0-0_0
  6
CONTINUOUS
 62
    7
 10
147.877487
 20
97.673576499999996
 11
148.127487
 21
97.782859500000001
  0
LINE
  8
_0-0_0
  6
CONTINUOUS
 62
    7
 10
157.377487
 20
97.597831499999998
 11
148.127487
 21
97.597831499999998
  0
LINE
  8
_0-0_0
  6
CONTINUOUS
 62
    7
 10
147.877487
 20
97.515998499999995
 11
148.127487
 21
97.597831499999998
  0
LINE
  8
_0-0_0
  6
CONTINUOUS
 62
    7
 10
157.377487
 20
97.394462500000003
 11
148.127487
 21
97.394462500000003
  0
LINE
  8
_0-0_0
  6
CONTINUOUS
 62
    7
 10
147.877487
 20
97.340980500000001
 11
148.127487
 21
97.394462500000003
  0
LINE
  8
_0-0_0
  6
CONTINUOUS
 62
    7
 10
157.377487
 20
97.175010499999999
 11
148.127487
 21
97.175010499999999
  0
LINE
  8
_0-0_0
  6
CONTINUOUS
 62
    7
 10
147.877487
 20
97.150444500000006
 11
148.127487
 21
97.175010499999999
  0
LINE
  8
_0-0_0
  6
CONTINUOUS
 62
    7
 10
157.377487
 20
96.941841499999995
 11
148.127487
 21
96.941841499999995
  0
LINE
  8
_0-0_0
  6
CONTINUOUS
 62
    7
 10
157.627487
 20
96.946479499999995
 11
147.877487
 21
96.946479499999995
  0
LINE
  8
_0-0_0
  6
CONTINUOUS
 62
    7
 10
147.877487
 20
96.946479499999995
 11
148.127487
 21
96.941841499999995
  0
LINE
  8
_0-0_0
  6
CONTINUOUS
 62
    7
 10
157.377487
 20
96.697547499999999
 11
148.127487
 21
96.697547499999999
  0
LINE
  8
_0-0_0
  6
CONTINUOUS
 62
    7
 10
157.627487
 20
96.731330499999999
 11
147.877487
 21
96.731330499999999
  0
LINE
  8
_0-0_0
  6
CONTINUOUS
 62
    7
 10
147.877487
 20
96.731330499999999
 11
148.127487
 21
96.697547499999999
  0
LINE
  8
_0-0_0
  6
CONTINUOUS
 62
    7
 10
157.377487
 20
96.444786500000006
 11
148.127487
 21
96.444786500000006
  0
LINE
  8
_0-0_0
  6
CONTINUOUS
 62
    7
 10
157.627487
 20
96.507347500000009
 11
147.877487
 21
96.507347500000009
  0
LINE
  8
_0-0_0
  6
CONTINUOUS
 62
    7
 10
147.877487
 20
96.507347500000009
 11
148.127487
 21
96.444786500000006
  0
LINE
  8
_0-0_0
  6
CONTINUOUS
 62
    7
 10
157.377487
 20
96.186332500000006
 11
148.127487
 21
96.186332500000006
  0
LINE
  8
_0-0_0
  6
CONTINUOUS
 62
    7
 10
157.627487
 20
96.276985499999995
 11
147.877487
 21
96.276985499999995
  0
LINE
  8
_0-0_0
  6
CONTINUOUS
 62
    7
 10
147.877487
 20
96.276985499999995
 11
148.127487
 21
96.186332500000006
  0
LINE
  8
_0-0_0
  6
CONTINUOUS
 62
    7
 10
157.377487
 20
95.925010499999999
 11
148.127487
 21
95.925010499999999
  0
LINE
  8
_0-0_0
  6
CONTINUOUS
 62
    7
 10
157.627487
 20
96.042762499999995
 11
147.877487
 21
96.042762499999995
  0
LINE
  8
_0-0_0
  6
CONTINUOUS
 62
    7
 10
147.877487
 20
96.042762499999995
 11
148.127487
 21
95.925010499999999
  0
LINE
  8
_0-0_0
  6
CONTINUOUS
 62
    7
 10
157.377487
 20
95.663688500000006
 11
148.127487
 21
95.663688500000006
  0
LINE
  8
_0-0_0
  6
CONTINUOUS
 62
    7
 10
157.627487
 20
95.807243499999998
 11
147.877487
 21
95.807243499999998
  0
LINE
  8
_0-0_0
  6
CONTINUOUS
 62
    7
 10
147.877487
 20
95.807243499999998
 11
148.127487
 21
95.663688500000006
  0
LINE
  8
_0-0_0
  6
CONTINUOUS
 62
    7
 10
157.377487
 20
95.405235500000003
 11
148.127487
 21
95.405235500000003
  0
LINE
  8
_0-0_0
  6
CONTINUOUS
 62
    7
 10
157.627487
 20
95.573020499999998
 11
147.877487
 21
95.573020499999998
  0
LINE
  8
_0-0_0
  6
CONTINUOUS
 62
    7
 10
147.877487
 20
95.573020499999998
 11
148.127487
 21
95.405235500000003
  0
LINE
  8
_0-0_0
  6
CONTINUOUS
 62
    7
 10
157.377487
 20
95.152458500000009
 11
148.127487
 21
95.152458500000009
  0
LINE
  8
_0-0_0
  6
CONTINUOUS
 62
    7
 10
157.627487
 20
95.342658499999999
 11
147.877487
 21
95.342658499999999
  0
LINE
  8
_0-0_0
  6
CONTINUOUS
 62
    7
 10
147.877487
 20
95.342658499999999
 11
148.127487
 21
95.152458500000009
  0
LINE
  8
_0-0_0
  6
CONTINUOUS
 62
    7
 10
157.377487
 20
94.908164499999998
 11
148.127487
 21
94.908164499999998
  0
LINE
  8
_0-0_0
  6
CONTINUOUS
 62
    7
 10
157.627487
 20
95.118675499999995
 11
147.877487
 21
95.118675499999995
  0
LINE
  8
_0-0_0
  6
CONTINUOUS
 62
    7
 10
147.877487
 20
95.118675499999995
 11
148.127487
 21
94.908164499999998
  0
LINE
  8
_0-0_0
  6
CONTINUOUS
 62
    7
 10
157.377487
 20
94.252174499999995
 11
148.127487
 21
94.252174499999995
  0
LINE
  8
_0-0_0
  6
CONTINUOUS
 62
    7
 10
147.877487
 20
94.509025500000007
 11
148.127487
 21
94.252174499999995
  0
LINE
  8
_0-0_0
  6
CONTINUOUS
 62
    7
 10
157.377487
 20
94.067146500000007
 11
148.127487
 21
94.067146500000007
  0
LINE
  8
_0-0_0
  6
CONTINUOUS
 62
    7
 10
147.877487
 20
94.334007499999998
 11
148.127487
 21
94.067146500000007
  0
LINE
  8
_0-0_0
  6
CONTINUOUS
 62
    7
 10
157.377487
 20
93.902458500000009
 11
148.127487
 21
93.902458500000009
  0
LINE
  8
_0-0_0
  6
CONTINUOUS
 62
    7
 10
147.877487
 20
94.176429499999998
 11
148.127487
 21
93.902458500000009
  0
LINE
  8
_0-0_0
  6
CONTINUOUS
 62
    7
 10
157.377487
 20
93.759941499999996
 11
148.127487
 21
93.759941499999996
  0
LINE
  8
_0-0_0
  6
CONTINUOUS
 62
    7
 10
147.877487
 20
94.038001500000007
 11
148.127487
 21
93.759941499999996
  0
LINE
  8
_0-0_0
  6
CONTINUOUS
 62
    7
 10
157.377487
 20
93.641136500000002
 11
148.127487
 21
93.641136500000002
  0
LINE
  8
_0-0_0
  6
CONTINUOUS
 62
    7
 10
147.877487
 20
93.920234500000007
 11
148.127487
 21
93.641136500000002
  0
LINE
  8
_0-0_0
  6
CONTINUOUS
 62
    7
 10
157.377487
 20
93.547355500000009
 11
148.127487
 21
93.547355500000009
  0
LINE
  8
_0-0_0
  6
CONTINUOUS
 62
    7
 10
147.877487
 20
93.824455499999999
 11
148.127487
 21
93.547355500000009
  0
LINE
  8
_0-0_0
  6
CONTINUOUS
 62
    7
 10
157.377487
 20
93.479637499999995
 11
148.127487
 21
93.479637499999995
  0
LINE
  8
_0-0_0
  6
CONTINUOUS
 62
    7
 10
147.877487
 20
93.751670500000003
 11
148.127487
 21
93.479637499999995
  0
LINE
  8
_0-0_0
  6
CONTINUOUS
 62
    7
 10
157.377487
 20
93.438697500000004
 11
148.127487
 21
93.438697500000004
  0
LINE
  8
_0-0_0
  6
CONTINUOUS
 62
    7
 10
147.877487
 20
93.702705500000008
 11
148.127487
 21
93.438697500000004
  0
LINE
  8
_0-0_0
  6
CONTINUOUS
 62
    7
 10
157.377487
 20
93.425010499999999
 11
148.127487
 21
93.425010499999999
  0
LINE
  8
_0-0_0
  6
CONTINUOUS
 62
    7
 10
147.877487
 20
93.678092500000005
 11
148.127487
 21
93.425010499999999
  0
LINE
  8
_0-0_0
  6
CONTINUOUS
 62
    7
 10
157.377487
 20
98.090064499999997
 11
148.127487
 21
98.090064499999997
  0
LINE
  8
_0-0_0
  6
CONTINUOUS
 62
    7
 10
157.627487
 20
97.929771500000001
 11
157.49752799999999
 21
98.013618500000007
  0
LINE
  8
_0-0_0
  6
CONTINUOUS
 62
    7
 10
147.877487
 20
97.929771500000001
 11
148.00746099999998
 21
98.013618500000007
  0
LINE
  8
_0-0_0
  6
CONTINUOUS
 62
    7
 10
148.00746099999998
 20
98.013618500000007
 11
148.127487
 21
98.090064499999997
  0
LINE
  8
_0-0_0
  6
CONTINUOUS
 62
    7
 10
157.377487
 20
97.947547499999999
 11
148.127487
 21
97.947547499999999
  0
LINE
  8
_0-0_0
  6
CONTINUOUS
 62
    7
 10
147.877487
 20
97.812019500000005
 11
148.127487
 21
97.947547499999999
  0
LINE
  8
_0-0_0
  6
CONTINUOUS
 62
    7
 10
157.627487
 20
97.929771500000001
 11
157.377487
 21
98.208869500000006
  0
LINE
  8
_0-0_0
  6
CONTINUOUS
 62
    7
 10
157.377487
 20
98.208869500000006
 11
148.127487
 21
98.208869500000006
  0
LINE
  8
_0-0_0
  6
CONTINUOUS
 62
    7
 10
147.877487
 20
97.929771500000001
 11
148.127487
 21
98.208869500000006
  0
LINE
  8
_0-0_0
  6
CONTINUOUS
 62
    7
 10
157.627487
 20
98.025566499999996
 11
157.377487
 21
98.208869500000006
  0
LINE
  8
_0-0_0
  6
CONTINUOUS
 62
    7
 10
147.877487
 20
98.025566499999996
 11
148.127487
 21
98.208869500000006
  0
LINE
  8
_0-0_0
  6
CONTINUOUS
 62
    7
 10
157.627487
 20
98.025566499999996
 11
157.377487
 21
98.302650499999999
  0
LINE
  8
_0-0_0
  6
CONTINUOUS
 62
    7
 10
157.377487
 20
98.302650499999999
 11
148.127487
 21
98.302650499999999
  0
LINE
  8
_0-0_0
  6
CONTINUOUS
 62
    7
 10
147.877487
 20
98.025566499999996
 11
148.127487
 21
98.302650499999999
  0
LINE
  8
_0-0_0
  6
CONTINUOUS
 62
    7
 10
157.627487
 20
98.098335500000005
 11
157.377487
 21
98.302650499999999
  0
LINE
  8
_0-0_0
  6
CONTINUOUS
 62
    7
 10
147.877487
 20
98.098335500000005
 11
148.127487
 21
98.302650499999999
  0
LINE
  8
_0-0_0
  6
CONTINUOUS
 62
    7
 10
157.627487
 20
98.098335500000005
 11
157.377487
 21
98.370368499999998
  0
LINE
  8
_0-0_0
  6
CONTINUOUS
 62
    7
 10
157.377487
 20
98.370368499999998
 11
148.127487
 21
98.370368499999998
  0
LINE
  8
_0-0_0
  6
CONTINUOUS
 62
    7
 10
147.877487
 20
98.098335500000005
 11
148.127487
 21
98.370368499999998
  0
LINE
  8
_0-0_0
  6
CONTINUOUS
 62
    7
 10
157.627487
 20
98.1473005
 11
157.377487
 21
98.370368499999998
  0
LINE
  8
_0-0_0
  6
CONTINUOUS
 62
    7
 10
147.877487
 20
98.1473005
 11
148.127487
 21
98.370368499999998
  0
LINE
  8
_0-0_0
  6
CONTINUOUS
 62
    7
 10
157.627487
 20
98.1473005
 11
157.377487
 21
98.411308500000004
  0
LINE
  8
_0-0_0
  6
CONTINUOUS
 62
    7
 10
157.377487
 20
98.411308500000004
 11
148.127487
 21
98.411308500000004
  0
LINE
  8
_0-0_0
  6
CONTINUOUS
 62
    7
 10
147.877487
 20
98.1473005
 11
148.127487
 21
98.411308500000004
  0
LINE
  8
_0-0_0
  6
CONTINUOUS
 62
    7
 10
157.627487
 20
98.171928500000007
 11
157.377487
 21
98.411308500000004
  0
LINE
  8
_0-0_0
  6
CONTINUOUS
 62
    7
 10
147.877487
 20
98.171928500000007
 11
148.127487
 21
98.411308500000004
  0
LINE
  8
_0-0_0
  6
CONTINUOUS
 62
    7
 10
157.627487
 20
98.171928500000007
 11
157.377487
 21
98.425010499999999
  0
LINE
  8
_0-0_0
  6
CONTINUOUS
 62
    7
 10
157.377487
 20
98.425010499999999
 11
148.127487
 21
98.425010499999999
  0
LINE
  8
_0-0_0
  6
CONTINUOUS
 62
    7
 10
147.877487
 20
98.171928500000007
 11
148.127487
 21
98.425010499999999
  0
LINE
  8
_0-0_0
  6
CONTINUOUS
 62
    7
 10
157.627487
 20
111.29956850000001
 11
157.377487
 21
111.2750015
  0
LINE
  8
_0-0_0
  6
CONTINUOUS
 62
    7
 10
157.377487
 20
111.2750015
 11
148.127487
 21
111.2750015
  0
LINE
  8
_0-0_0
  6
CONTINUOUS
 62
    7
 10
147.877487
 20
111.29956850000001
 11
148.127487
 21
111.2750015
  0
LINE
  8
_0-0_0
  6
CONTINUOUS
 62
    7
 10
157.627487
 20
114.2735825
 11
157.377487
 21
114.54755350000001
  0
LINE
  8
_0-0_0
  6
CONTINUOUS
 62
    7
 10
157.627487
 20
114.2735825
 11
157.377487
 21
114.38286550000001
  0
LINE
  8
_0-0_0
  6
CONTINUOUS
 62
    7
 10
157.627487
 20
114.1159895
 11
157.377487
 21
114.38286550000001
  0
LINE
  8
_0-0_0
  6
CONTINUOUS
 62
    7
 10
157.627487
 20
114.1159895
 11
157.377487
 21
114.19783750000001
  0
LINE
  8
_0-0_0
  6
CONTINUOUS
 62
    7
 10
157.627487
 20
113.9409715
 11
157.377487
 21
114.19783750000001
  0
LINE
  8
_0-0_0
  6
CONTINUOUS
 62
    7
 10
157.627487
 20
113.9409715
 11
157.377487
 21
113.9944685
  0
LINE
  8
_0-0_0
  6
CONTINUOUS
 62
    7
 10
157.627487
 20
113.7504345
 11
157.377487
 21
113.9944685
  0
LINE
  8
_0-0_0
  6
CONTINUOUS
 62
    7
 10
157.627487
 20
113.7504345
 11
157.377487
 21
113.7750015
  0
LINE
  8
_0-0_0
  6
CONTINUOUS
 62
    7
 10
157.627487
 20
113.5464855
 11
157.377487
 21
113.7750015
  0
LINE
  8
_0-0_0
  6
CONTINUOUS
 62
    7
 10
157.627487
 20
113.5464855
 11
157.377487
 21
113.5418475
  0
LINE
  8
_0-0_0
  6
CONTINUOUS
 62
    7
 10
157.627487
 20
113.33133650000001
 11
157.377487
 21
113.5418475
  0
LINE
  8
_0-0_0
  6
CONTINUOUS
 62
    7
 10
157.627487
 20
113.33133650000001
 11
157.377487
 21
113.29755350000001
  0
LINE
  8
_0-0_0
  6
CONTINUOUS
 62
    7
 10
157.627487
 20
113.1073535
 11
157.377487
 21
113.29755350000001
  0
LINE
  8
_0-0_0
  6
CONTINUOUS
 62
    7
 10
157.627487
 20
113.1073535
 11
157.377487
 21
113.0447765
  0
LINE
  8
_0-0_0
  6
CONTINUOUS
 62
    7
 10
157.627487
 20
112.8769755
 11
157.377487
 21
113.0447765
  0
LINE
  8
_0-0_0
  6
CONTINUOUS
 62
    7
 10
157.627487
 20
112.8769755
 11
157.377487
 21
112.78632350000001
  0
LINE
  8
_0-0_0
  6
CONTINUOUS
 62
    7
 10
157.627487
 20
112.6427535
 11
157.377487
 21
112.78632350000001
  0
LINE
  8
_0-0_0
  6
CONTINUOUS
 62
    7
 10
157.627487
 20
112.6427535
 11
157.377487
 21
112.5250015
  0
LINE
  8
_0-0_0
  6
CONTINUOUS
 62
    7
 10
157.627487
 20
112.40724950000001
 11
157.377487
 21
112.5250015
  0
LINE
  8
_0-0_0
  6
CONTINUOUS
 62
    7
 10
157.627487
 20
112.40724950000001
 11
157.377487
 21
112.26367949999999
  0
LINE
  8
_0-0_0
  6
CONTINUOUS
 62
    7
 10
157.627487
 20
112.1730275
 11
157.377487
 21
112.26367949999999
  0
LINE
  8
_0-0_0
  6
CONTINUOUS
 62
    7
 10
157.627487
 20
112.1730275
 11
157.377487
 21
112.00522650000001
  0
LINE
  8
_0-0_0
  6
CONTINUOUS
 62
    7
 10
157.627487
 20
111.9426655
 11
157.377487
 21
112.00522650000001
  0
LINE
  8
_0-0_0
  6
CONTINUOUS
 62
    7
 10
157.627487
 20
111.9426655
 11
157.377487
 21
111.7524645
  0
LINE
  8
_0-0_0
  6
CONTINUOUS
 62
    7
 10
157.627487
 20
111.7186815
 11
157.377487
 21
111.7524645
  0
LINE
  8
_0-0_0
  6
CONTINUOUS
 62
    7
 10
157.627487
 20
111.7186815
 11
157.377487
 21
111.5081555
  0
LINE
  8
_0-0_0
  6
CONTINUOUS
 62
    7
 10
157.627487
 20
111.50353250000001
 11
157.377487
 21
111.5081555
  0
LINE
  8
_0-0_0
  6
CONTINUOUS
 62
    7
 10
157.627487
 20
111.50353250000001
 11
157.377487
 21
111.2750015
  0
LINE
  8
_0-0_0
  6
CONTINUOUS
 62
    7
 10
157.627487
 20
111.29956850000001
 11
157.377487
 21
111.05553450000001
  0
LINE
  8
_0-0_0
  6
CONTINUOUS
 62
    7
 10
157.627487
 20
111.1090315
 11
157.377487
 21
111.05553450000001
  0
LINE
  8
_0-0_0
  6
CONTINUOUS
 62
    7
 10
157.627487
 20
111.1090315
 11
157.377487
 21
110.8521805
  0
LINE
  8
_0-0_0
  6
CONTINUOUS
 62
    7
 10
157.627487
 20
110.93401350000001
 11
157.377487
 21
110.8521805
  0
LINE
  8
_0-0_0
  6
CONTINUOUS
 62
    7
 10
157.627487
 20
110.93401350000001
 11
157.377487
 21
110.6671375
  0
LINE
  8
_0-0_0
  6
CONTINUOUS
 62
    7
 10
157.627487
 20
110.7764205
 11
157.377487
 21
110.6671375
  0
LINE
  8
_0-0_0
  6
CONTINUOUS
 62
    7
 10
157.627487
 20
110.7764205
 11
157.377487
 21
110.5024645
  0
LINE
  8
_0-0_0
  6
CONTINUOUS
 62
    7
 10
157.627487
 20
110.6379925
 11
157.377487
 21
110.5024645
  0
LINE
  8
_0-0_0
  6
CONTINUOUS
 62
    7
 10
157.627487
 20
110.6379925
 11
157.377487
 21
110.3599475
  0
LINE
  8
_0-0_0
  6
CONTINUOUS
 62
    7
 10
157.627487
 20
110.5202405
 11
157.377487
 21
110.3599475
  0
LINE
  8
_0-0_0
  6
CONTINUOUS
 62
    7
 10
157.627487
 20
110.5202405
 11
157.377487
 21
110.2411425
  0
LINE
  8
_0-0_0
  6
CONTINUOUS
 62
    7
 10
157.627487
 20
110.4244465
 11
157.377487
 21
110.2411425
  0
LINE
  8
_0-0_0
  6
CONTINUOUS
 62
    7
 10
157.627487
 20
110.4244465
 11
157.377487
 21
110.1473615
  0
LINE
  8
_0-0_0
  6
CONTINUOUS
 62
    7
 10
157.627487
 20
110.3516765
 11
157.377487
 21
110.1473615
  0
LINE
  8
_0-0_0
  6
CONTINUOUS
 62
    7
 10
157.627487
 20
110.3516765
 11
157.377487
 21
110.0796275
  0
LINE
  8
_0-0_0
  6
CONTINUOUS
 62
    7
 10
157.627487
 20
110.3027115
 11
157.377487
 21
110.0796275
  0
LINE
  8
_0-0_0
  6
CONTINUOUS
 62
    7
 10
157.627487
 20
110.3027115
 11
157.377487
 21
110.0387035
  0
LINE
  8
_0-0_0
  6
CONTINUOUS
 62
    7
 10
157.627487
 20
110.27808350000001
 11
157.377487
 21
110.0387035
  0
LINE
  8
_0-0_0
  6
CONTINUOUS
 62
    7
 10
157.627487
 20
110.27808350000001
 11
157.377487
 21
110.0250015
  0
LINE
  8
_0-0_0
  6
CONTINUOUS
 62
    7
 10
157.877487
 20
110.5250015
 11
157.877487
 21
114.2801745
  0
LINE
  8
_0-0_0
  6
CONTINUOUS
 62
    7
 10
157.49752799999999
 20
114.6136245
 11
157.377487
 21
114.6900715
  0
LINE
  8
_0-0_0
  6
CONTINUOUS
 62
    7
 10
157.627487
 20
114.41201050000001
 11
157.377487
 21
114.6900715
  0
LINE
  8
_0-0_0
  6
CONTINUOUS
 62
    7
 10
157.627487
 20
114.41201050000001
 11
157.377487
 21
114.54755350000001
  0
LINE
  8
_0-0_0
  6
CONTINUOUS
 62
    7
 10
157.377487
 20
114.38286550000001
 11
148.127487
 21
114.38286550000001
  0
LINE
  8
_0-0_0
  6
CONTINUOUS
 62
    7
 10
147.877487
 20
114.2735825
 11
148.127487
 21
114.38286550000001
  0
LINE
  8
_0-0_0
  6
CONTINUOUS
 62
    7
 10
157.377487
 20
114.19783750000001
 11
148.127487
 21
114.19783750000001
  0
LINE
  8
_0-0_0
  6
CONTINUOUS
 62
    7
 10
147.877487
 20
114.1159895
 11
148.127487
 21
114.19783750000001
  0
LINE
  8
_0-0_0
  6
CONTINUOUS
 62
    7
 10
157.377487
 20
113.9944685
 11
148.127487
 21
113.9944685
  0
LINE
  8
_0-0_0
  6
CONTINUOUS
 62
    7
 10
147.877487
 20
113.9409715
 11
148.127487
 21
113.9944685
  0
LINE
  8
_0-0_0
  6
CONTINUOUS
 62
    7
 10
157.377487
 20
113.7750015
 11
148.127487
 21
113.7750015
  0
LINE
  8
_0-0_0
  6
CONTINUOUS
 62
    7
 10
147.877487
 20
113.7504345
 11
148.127487
 21
113.7750015
  0
LINE
  8
_0-0_0
  6
CONTINUOUS
 62
    7
 10
157.377487
 20
113.5418475
 11
148.127487
 21
113.5418475
  0
LINE
  8
_0-0_0
  6
CONTINUOUS
 62
    7
 10
157.627487
 20
113.5464855
 11
147.877487
 21
113.5464855
  0
LINE
  8
_0-0_0
  6
CONTINUOUS
 62
    7
 10
147.877487
 20
113.5464855
 11
148.127487
 21
113.5418475
  0
LINE
  8
_0-0_0
  6
CONTINUOUS
 62
    7
 10
157.377487
 20
113.29755350000001
 11
148.127487
 21
113.29755350000001
  0
LINE
  8
_0-0_0
  6
CONTINUOUS
 62
    7
 10
157.627487
 20
113.33133650000001
 11
147.877487
 21
113.33133650000001
  0
LINE
  8
_0-0_0
  6
CONTINUOUS
 62
    7
 10
147.877487
 20
113.33133650000001
 11
148.127487
 21
113.29755350000001
  0
LINE
  8
_0-0_0
  6
CONTINUOUS
 62
    7
 10
157.377487
 20
113.0447765
 11
148.127487
 21
113.0447765
  0
LINE
  8
_0-0_0
  6
CONTINUOUS
 62
    7
 10
157.627487
 20
113.1073535
 11
147.877487
 21
113.1073535
  0
LINE
  8
_0-0_0
  6
CONTINUOUS
 62
    7
 10
147.877487
 20
113.1073535
 11
148.127487
 21
113.0447765
  0
LINE
  8
_0-0_0
  6
CONTINUOUS
 62
    7
 10
157.377487
 20
112.78632350000001
 11
148.127487
 21
112.78632350000001
  0
LINE
  8
_0-0_0
  6
CONTINUOUS
 62
    7
 10
157.627487
 20
112.8769755
 11
147.877487
 21
112.8769755
  0
LINE
  8
_0-0_0
  6
CONTINUOUS
 62
    7
 10
147.877487
 20
112.8769755
 11
148.127487
 21
112.78632350000001
  0
LINE
  8
_0-0_0
  6
CONTINUOUS
 62
    7
 10
157.377487
 20
112.5250015
 11
148.127487
 21
112.5250015
  0
LINE
  8
_0-0_0
  6
CONTINUOUS
 62
    7
 10
157.627487
 20
112.6427535
 11
147.877487
 21
112.6427535
  0
LINE
  8
_0-0_0
  6
CONTINUOUS
 62
    7
 10
147.877487
 20
112.6427535
 11
148.127487
 21
112.5250015
  0
LINE
  8
_0-0_0
  6
CONTINUOUS
 62
    7
 10
157.377487
 20
112.26367949999999
 11
148.127487
 21
112.26367949999999
  0
LINE
  8
_0-0_0
  6
CONTINUOUS
 62
    7
 10
157.627487
 20
112.40724950000001
 11
147.877487
 21
112.40724950000001
  0
LINE
  8
_0-0_0
  6
CONTINUOUS
 62
    7
 10
147.877487
 20
112.40724950000001
 11
148.127487
 21
112.26367949999999
  0
LINE
  8
_0-0_0
  6
CONTINUOUS
 62
    7
 10
157.377487
 20
112.00522650000001
 11
148.127487
 21
112.00522650000001
  0
LINE
  8
_0-0_0
  6
CONTINUOUS
 62
    7
 10
157.627487
 20
112.1730275
 11
147.877487
 21
112.1730275
  0
LINE
  8
_0-0_0
  6
CONTINUOUS
 62
    7
 10
147.877487
 20
112.1730275
 11
148.127487
 21
112.00522650000001
  0
LINE
  8
_0-0_0
  6
CONTINUOUS
 62
    7
 10
157.377487
 20
111.7524645
 11
148.127487
 21
111.7524645
  0
LINE
  8
_0-0_0
  6
CONTINUOUS
 62
    7
 10
157.627487
 20
111.9426655
 11
147.877487
 21
111.9426655
  0
LINE
  8
_0-0_0
  6
CONTINUOUS
 62
    7
 10
147.877487
 20
111.9426655
 11
148.127487
 21
111.7524645
  0
LINE
  8
_0-0_0
  6
CONTINUOUS
 62
    7
 10
157.377487
 20
111.5081555
 11
148.127487
 21
111.5081555
  0
LINE
  8
_0-0_0
  6
CONTINUOUS
 62
    7
 10
157.627487
 20
111.7186815
 11
147.877487
 21
111.7186815
  0
LINE
  8
_0-0_0
  6
CONTINUOUS
 62
    7
 10
147.877487
 20
111.7186815
 11
148.127487
 21
111.5081555
  0
LINE
  8
_0-0_0
  6
CONTINUOUS
 62
    7
 10
157.377487
 20
110.8521805
 11
148.127487
 21
110.8521805
  0
LINE
  8
_0-0_0
  6
CONTINUOUS
 62
    7
 10
147.877487
 20
111.1090315
 11
148.127487
 21
110.8521805
  0
LINE
  8
_0-0_0
  6
CONTINUOUS
 62
    7
 10
157.377487
 20
110.6671375
 11
148.127487
 21
110.6671375
  0
LINE
  8
_0-0_0
  6
CONTINUOUS
 62
    7
 10
147.877487
 20
110.93401350000001
 11
148.127487
 21
110.6671375
  0
LINE
  8
_0-0_0
  6
CONTINUOUS
 62
    7
 10
157.377487
 20
110.5024645
 11
148.127487
 21
110.5024645
  0
LINE
  8
_0-0_0
  6
CONTINUOUS
 62
    7
 10
147.877487
 20
110.7764205
 11
148.127487
 21
110.5024645
  0
LINE
  8
_0-0_0
  6
CONTINUOUS
 62
    7
 10
157.377487
 20
110.3599475
 11
148.127487
 21
110.3599475
  0
LINE
  8
_0-0_0
  6
CONTINUOUS
 62
    7
 10
147.877487
 20
110.6379925
 11
148.127487
 21
110.3599475
  0
LINE
  8
_0-0_0
  6
CONTINUOUS
 62
    7
 10
157.377487
 20
110.2411425
 11
148.127487
 21
110.2411425
  0
LINE
  8
_0-0_0
  6
CONTINUOUS
 62
    7
 10
147.877487
 20
110.5202405
 11
148.127487
 21
110.2411425
  0
LINE
  8
_0-0_0
  6
CONTINUOUS
 62
    7
 10
157.377487
 20
110.1473615
 11
148.127487
 21
110.1473615
  0
LINE
  8
_0-0_0
  6
CONTINUOUS
 62
    7
 10
147.877487
 20
110.4244465
 11
148.127487
 21
110.1473615
  0
LINE
  8
_0-0_0
  6
CONTINUOUS
 62
    7
 10
157.377487
 20
110.0796275
 11
148.127487
 21
110.0796275
  0
LINE
  8
_0-0_0
  6
CONTINUOUS
 62
    7
 10
147.877487
 20
110.3516765
 11
148.127487
 21
110.0796275
  0
LINE
  8
_0-0_0
  6
CONTINUOUS
 62
    7
 10
157.377487
 20
110.0387035
 11
148.127487
 21
110.0387035
  0
LINE
  8
_0-0_0
  6
CONTINUOUS
 62
    7
 10
147.877487
 20
110.3027115
 11
148.127487
 21
110.0387035
  0
LINE
  8
_0-0_0
  6
CONTINUOUS
 62
    7
 10
157.377487
 20
110.0250015
 11
148.127487
 21
110.0250015
  0
LINE
  8
_0-0_0
  6
CONTINUOUS
 62
    7
 10
147.877487
 20
110.27808350000001
 11
148.127487
 21
110.0250015
  0
LINE
  8
_0-0_0
  6
CONTINUOUS
 62
    7
 10
157.377487
 20
114.6900715
 11
148.127487
 21
114.6900715
  0
LINE
  8
_0-0_0
  6
CONTINUOUS
 62
    7
 10
157.627487
 20
114.5297625
 11
157.49752799999999
 21
114.6136245
  0
LINE
  8
_0-0_0
  6
CONTINUOUS
 62
    7
 10
147.877487
 20
114.5297625
 11
148.00746099999998
 21
114.6136245
  0
LINE
  8
_0-0_0
  6
CONTINUOUS
 62
    7
 10
148.00746099999998
 20
114.6136245
 11
148.127487
 21
114.6900715
  0
LINE
  8
_0-0_0
  6
CONTINUOUS
 62
    7
 10
157.377487
 20
114.54755350000001
 11
148.127487
 21
114.54755350000001
  0
LINE
  8
_0-0_0
  6
CONTINUOUS
 62
    7
 10
147.877487
 20
114.41201050000001
 11
148.127487
 21
114.54755350000001
  0
LINE
  8
_0-0_0
  6
CONTINUOUS
 62
    7
 10
157.627487
 20
114.5297625
 11
157.377487
 21
114.80886050000001
  0
LINE
  8
_0-0_0
  6
CONTINUOUS
 62
    7
 10
157.377487
 20
114.80886050000001
 11
148.127487
 21
114.80886050000001
  0
LINE
  8
_0-0_0
  6
CONTINUOUS
 62
    7
 10
147.877487
 20
114.5297625
 11
148.127487
 21
114.80886050000001
  0
LINE
  8
_0-0_0
  6
CONTINUOUS
 62
    7
 10
157.627487
 20
114.6255565
 11
157.377487
 21
114.80886050000001
  0
LINE
  8
_0-0_0
  6
CONTINUOUS
 62
    7
 10
147.877487
 20
114.6255565
 11
148.127487
 21
114.80886050000001
  0
LINE
  8
_0-0_0
  6
CONTINUOUS
 62
    7
 10
157.627487
 20
114.6255565
 11
157.377487
 21
114.9026415
  0
LINE
  8
_0-0_0
  6
CONTINUOUS
 62
    7
 10
157.377487
 20
114.9026415
 11
148.127487
 21
114.9026415
  0
LINE
  8
_0-0_0
  6
CONTINUOUS
 62
    7
 10
147.877487
 20
114.6255565
 11
148.127487
 21
114.9026415
  0
LINE
  8
_0-0_0
  6
CONTINUOUS
 62
    7
 10
157.627487
 20
114.6983415
 11
157.377487
 21
114.9026415
  0
LINE
  8
_0-0_0
  6
CONTINUOUS
 62
    7
 10
147.877487
 20
114.6983415
 11
148.127487
 21
114.9026415
  0
LINE
  8
_0-0_0
  6
CONTINUOUS
 62
    7
 10
157.627487
 20
114.6983415
 11
157.377487
 21
114.9703755
  0
LINE
  8
_0-0_0
  6
CONTINUOUS
 62
    7
 10
157.377487
 20
114.9703755
 11
148.127487
 21
114.9703755
  0
LINE
  8
_0-0_0
  6
CONTINUOUS
 62
    7
 10
147.877487
 20
114.6983415
 11
148.127487
 21
114.9703755
  0
LINE
  8
_0-0_0
  6
CONTINUOUS
 62
    7
 10
157.627487
 20
114.74730650000001
 11
157.377487
 21
114.9703755
  0
LINE
  8
_0-0_0
  6
CONTINUOUS
 62
    7
 10
147.877487
 20
114.74730650000001
 11
148.127487
 21
114.9703755
  0
LINE
  8
_0-0_0
  6
CONTINUOUS
 62
    7
 10
157.627487
 20
114.74730650000001
 11
157.377487
 21
115.0113145
  0
LINE
  8
_0-0_0
  6
CONTINUOUS
 62
    7
 10
157.377487
 20
115.0113145
 11
148.127487
 21
115.0113145
  0
LINE
  8
_0-0_0
  6
CONTINUOUS
 62
    7
 10
147.877487
 20
114.74730650000001
 11
148.127487
 21
115.0113145
  0
LINE
  8
_0-0_0
  6
CONTINUOUS
 62
    7
 10
157.627487
 20
114.7719195
 11
157.377487
 21
115.0113145
  0
LINE
  8
_0-0_0
  6
CONTINUOUS
 62
    7
 10
147.877487
 20
114.7719195
 11
148.127487
 21
115.0113145
  0
LINE
  8
_0-0_0
  6
CONTINUOUS
 62
    7
 10
157.627487
 20
114.7719195
 11
157.377487
 21
115.0250015
  0
LINE
  8
_0-0_0
  6
CONTINUOUS
 62
    7
 10
157.377487
 20
115.0250015
 11
148.127487
 21
115.0250015
  0
LINE
  8
_0-0_0
  6
CONTINUOUS
 62
    7
 10
147.877487
 20
114.7719195
 11
148.127487
 21
115.0250015
  0
LINE
  8
_0-0_0
  6
CONTINUOUS
 62
    7
 10
203.07748399999997
 20
100.2249985
 11
203.07748399999997
 21
100.22635650000001
  0
LINE
  8
_0-0_0
  6
CONTINUOUS
 62
    7
 10
203.07748399999997
 20
100.22635650000001
 11
203.07748399999997
 21
108.2249985
  0
LINE
  8
_0-0_0
  6
CONTINUOUS
 62
    7
 10
147.877487
 20
114.41201050000001
 11
148.127487
 21
114.6900715
  0
LINE
  8
_0-0_0
  6
CONTINUOUS
 62
    7
 10
157.877487
 20
114.2801745
 11
157.877487
 21
114.5250015
  0
LINE
  8
_0-0_0
  6
CONTINUOUS
 62
    7
 10
147.877487
 20
110.27808350000001
 11
148.127487
 21
110.0387035
  0
LINE
  8
_0-0_0
  6
CONTINUOUS
 62
    7
 10
147.877487
 20
110.3027115
 11
148.127487
 21
110.0796275
  0
LINE
  8
_0-0_0
  6
CONTINUOUS
 62
    7
 10
147.877487
 20
110.3516765
 11
148.127487
 21
110.1473615
  0
LINE
  8
_0-0_0
  6
CONTINUOUS
 62
    7
 10
147.877487
 20
110.4244465
 11
148.127487
 21
110.2411425
  0
LINE
  8
_0-0_0
  6
CONTINUOUS
 62
    7
 10
147.877487
 20
110.5202405
 11
148.127487
 21
110.3599475
  0
LINE
  8
_0-0_0
  6
CONTINUOUS
 62
    7
 10
147.877487
 20
110.6379925
 11
148.127487
 21
110.5024645
  0
LINE
  8
_0-0_0
  6
CONTINUOUS
 62
    7
 10
147.877487
 20
110.7764205
 11
148.127487
 21
110.6671375
  0
LINE
  8
_0-0_0
  6
CONTINUOUS
 62
    7
 10
147.877487
 20
110.93401350000001
 11
148.127487
 21
110.8521805
  0
LINE
  8
_0-0_0
  6
CONTINUOUS
 62
    7
 10
157.377487
 20
111.05553450000001
 11
148.127487
 21
111.05553450000001
  0
LINE
  8
_0-0_0
  6
CONTINUOUS
 62
    7
 10
147.877487
 20
111.1090315
 11
148.127487
 21
111.05553450000001
  0
LINE
  8
_0-0_0
  6
CONTINUOUS
 62
    7
 10
147.877487
 20
111.50353250000001
 11
148.127487
 21
111.5081555
  0
LINE
  8
_0-0_0
  6
CONTINUOUS
 62
    7
 10
157.627487
 20
111.50353250000001
 11
147.877487
 21
111.50353250000001
  0
LINE
  8
_0-0_0
  6
CONTINUOUS
 62
    7
 10
147.877487
 20
111.7186815
 11
148.127487
 21
111.7524645
  0
LINE
  8
_0-0_0
  6
CONTINUOUS
 62
    7
 10
147.877487
 20
111.9426655
 11
148.127487
 21
112.00522650000001
  0
LINE
  8
_0-0_0
  6
CONTINUOUS
 62
    7
 10
147.877487
 20
112.1730275
 11
148.127487
 21
112.26367949999999
  0
LINE
  8
_0-0_0
  6
CONTINUOUS
 62
    7
 10
147.877487
 20
112.40724950000001
 11
148.127487
 21
112.5250015
  0
LINE
  8
_0-0_0
  6
CONTINUOUS
 62
    7
 10
147.877487
 20
112.6427535
 11
148.127487
 21
112.78632350000001
  0
LINE
  8
_0-0_0
  6
CONTINUOUS
 62
    7
 10
147.877487
 20
112.8769755
 11
148.127487
 21
113.0447765
  0
LINE
  8
_0-0_0
  6
CONTINUOUS
 62
    7
 10
147.877487
 20
113.1073535
 11
148.127487
 21
113.29755350000001
  0
LINE
  8
_0-0_0
  6
CONTINUOUS
 62
    7
 10
147.877487
 20
113.33133650000001
 11
148.127487
 21
113.5418475
  0
LINE
  8
_0-0_0
  6
CONTINUOUS
 62
    7
 10
147.877487
 20
113.5464855
 11
148.127487
 21
113.7750015
  0
LINE
  8
_0-0_0
  6
CONTINUOUS
 62
    7
 10
147.877487
 20
113.7504345
 11
148.127487
 21
113.9944685
  0
LINE
  8
_0-0_0
  6
CONTINUOUS
 62
    7
 10
147.877487
 20
113.9409715
 11
148.127487
 21
114.19783750000001
  0
LINE
  8
_0-0_0
  6
CONTINUOUS
 62
    7
 10
147.877487
 20
114.1159895
 11
148.127487
 21
114.38286550000001
  0
LINE
  8
_0-0_0
  6
CONTINUOUS
 62
    7
 10
147.877487
 20
114.2735825
 11
148.127487
 21
114.54755350000001
  0
LINE
  8
_0-0_0
  6
CONTINUOUS
 62
    7
 10
147.877487
 20
111.29956850000001
 11
148.127487
 21
111.05553450000001
  0
LINE
  8
_0-0_0
  6
CONTINUOUS
 62
    7
 10
147.877487
 20
111.50353250000001
 11
148.127487
 21
111.2750015
  0
LINE
  8
_0-0_0
  6
CONTINUOUS
 62
    7
 10
147.877487
 20
97.812019500000005
 11
148.127487
 21
98.090064499999997
  0
LINE
  8
_0-0_0
  6
CONTINUOUS
 62
    7
 10
157.877487
 20
97.680168500000008
 11
157.877487
 21
97.925010499999999
  0
LINE
  8
_0-0_0
  6
CONTINUOUS
 62
    7
 10
147.877487
 20
93.678092500000005
 11
148.127487
 21
93.438697500000004
  0
LINE
  8
_0-0_0
  6
CONTINUOUS
 62
    7
 10
147.877487
 20
93.702705500000008
 11
148.127487
 21
93.479637499999995
  0
LINE
  8
_0-0_0
  6
CONTINUOUS
 62
    7
 10
147.877487
 20
93.751670500000003
 11
148.127487
 21
93.547355500000009
  0
LINE
  8
_0-0_0
  6
CONTINUOUS
 62
    7
 10
147.877487
 20
93.824455499999999
 11
148.127487
 21
93.641136500000002
  0
LINE
  8
_0-0_0
  6
CONTINUOUS
 62
    7
 10
147.877487
 20
93.920234500000007
 11
148.127487
 21
93.759941499999996
  0
LINE
  8
_0-0_0
  6
CONTINUOUS
 62
    7
 10
147.877487
 20
94.038001500000007
 11
148.127487
 21
93.902458500000009
  0
LINE
  8
_0-0_0
  6
CONTINUOUS
 62
    7
 10
147.877487
 20
94.176429499999998
 11
148.127487
 21
94.067146500000007
  0
LINE
  8
_0-0_0
  6
CONTINUOUS
 62
    7
 10
147.877487
 20
94.334007499999998
 11
148.127487
 21
94.252174499999995
  0
LINE
  8
_0-0_0
  6
CONTINUOUS
 62
    7
 10
157.377487
 20
94.455543500000005
 11
148.127487
 21
94.455543500000005
  0
LINE
  8
_0-0_0
  6
CONTINUOUS
 62
    7
 10
147.877487
 20
94.509025500000007
 11
148.127487
 21
94.455543500000005
  0
LINE
  8
_0-0_0
  6
CONTINUOUS
 62
    7
 10
147.877487
 20
94.903526499999998
 11
148.127487
 21
94.908164499999998
  0
LINE
  8
_0-0_0
  6
CONTINUOUS
 62
    7
 10
157.627487
 20
94.903526499999998
 11
147.877487
 21
94.903526499999998
  0
LINE
  8
_0-0_0
  6
CONTINUOUS
 62
    7
 10
147.877487
 20
95.118675499999995
 11
148.127487
 21
95.152458500000009
  0
LINE
  8
_0-0_0
  6
CONTINUOUS
 62
    7
 10
147.877487
 20
95.342658499999999
 11
148.127487
 21
95.405235500000003
  0
LINE
  8
_0-0_0
  6
CONTINUOUS
 62
    7
 10
147.877487
 20
95.573020499999998
 11
148.127487
 21
95.663688500000006
  0
LINE
  8
_0-0_0
  6
CONTINUOUS
 62
    7
 10
147.877487
 20
95.807243499999998
 11
148.127487
 21
95.925010499999999
  0
LINE
  8
_0-0_0
  6
CONTINUOUS
 62
    7
 10
147.877487
 20
96.042762499999995
 11
148.127487
 21
96.186332500000006
  0
LINE
  8
_0-0_0
  6
CONTINUOUS
 62
    7
 10
147.877487
 20
96.276985499999995
 11
148.127487
 21
96.444786500000006
  0
LINE
  8
_0-0_0
  6
CONTINUOUS
 62
    7
 10
147.877487
 20
96.507347500000009
 11
148.127487
 21
96.697547499999999
  0
LINE
  8
_0-0_0
  6
CONTINUOUS
 62
    7
 10
147.877487
 20
96.731330499999999
 11
148.127487
 21
96.941841499999995
  0
LINE
  8
_0-0_0
  6
CONTINUOUS
 62
    7
 10
147.877487
 20
96.946479499999995
 11
148.127487
 21
97.175010499999999
  0
LINE
  8
_0-0_0
  6
CONTINUOUS
 62
    7
 10
147.877487
 20
97.150444500000006
 11
148.127487
 21
97.394462500000003
  0
LINE
  8
_0-0_0
  6
CONTINUOUS
 62
    7
 10
147.877487
 20
97.340980500000001
 11
148.127487
 21
97.597831499999998
  0
LINE
  8
_0-0_0
  6
CONTINUOUS
 62
    7
 10
147.877487
 20
97.515998499999995
 11
148.127487
 21
97.782859500000001
  0
LINE
  8
_0-0_0
  6
CONTINUOUS
 62
    7
 10
147.877487
 20
97.673576499999996
 11
148.127487
 21
97.947547499999999
  0
LINE
  8
_0-0_0
  6
CONTINUOUS
 62
    7
 10
147.877487
 20
94.699562499999999
 11
148.127487
 21
94.455543500000005
  0
LINE
  8
_0-0_0
  6
CONTINUOUS
 62
    7
 10
147.877487
 20
94.903526499999998
 11
148.127487
 21
94.675010499999999
  0
LINE
  8
_0-0_0
  6
CONTINUOUS
 62
    7
 10
145.077484
 20
99.686881499999998
 11
145.077484
 21
101.9559405
  0
LINE
  8
_0-0_0
  6
CONTINUOUS
 62
    7
 10
145.077484
 20
101.9559405
 11
145.077484
 21
108.7631305
  0
LINE
  8
_0-0_0
  6
CONTINUOUS
 62
    7
 10
147.877487
 20
111.50353250000001
 11
147.877487
 21
111.7186815
  0
LINE
  8
_0-0_0
  6
CONTINUOUS
 62
    7
 10
147.877487
 20
111.7186815
 11
147.877487
 21
111.9426655
  0
LINE
  8
_0-0_0
  6
CONTINUOUS
 62
    7
 10
147.877487
 20
111.9426655
 11
147.877487
 21
112.1730275
  0
LINE
  8
_0-0_0
  6
CONTINUOUS
 62
    7
 10
147.877487
 20
112.1730275
 11
147.877487
 21
112.40724950000001
  0
LINE
  8
_0-0_0
  6
CONTINUOUS
 62
    7
 10
147.877487
 20
112.40724950000001
 11
147.877487
 21
112.6427535
  0
LINE
  8
_0-0_0
  6
CONTINUOUS
 62
    7
 10
147.877487
 20
112.6427535
 11
147.877487
 21
112.8769755
  0
LINE
  8
_0-0_0
  6
CONTINUOUS
 62
    7
 10
147.877487
 20
112.8769755
 11
147.877487
 21
113.1073535
  0
LINE
  8
_0-0_0
  6
CONTINUOUS
 62
    7
 10
147.877487
 20
113.1073535
 11
147.877487
 21
113.33133650000001
  0
LINE
  8
_0-0_0
  6
CONTINUOUS
 62
    7
 10
147.877487
 20
113.33133650000001
 11
147.877487
 21
113.5464855
  0
LINE
  8
_0-0_0
  6
CONTINUOUS
 62
    7
 10
147.877487
 20
113.5464855
 11
147.877487
 21
113.7504345
  0
LINE
  8
_0-0_0
  6
CONTINUOUS
 62
    7
 10
147.877487
 20
113.7504345
 11
147.877487
 21
113.9409715
  0
LINE
  8
_0-0_0
  6
CONTINUOUS
 62
    7
 10
147.877487
 20
113.9409715
 11
147.877487
 21
114.1159895
  0
LINE
  8
_0-0_0
  6
CONTINUOUS
 62
    7
 10
147.877487
 20
114.1159895
 11
147.877487
 21
114.2735825
  0
LINE
  8
_0-0_0
  6
CONTINUOUS
 62
    7
 10
147.877487
 20
114.2735825
 11
147.877487
 21
114.41201050000001
  0
LINE
  8
_0-0_0
  6
CONTINUOUS
 62
    7
 10
147.877487
 20
114.41201050000001
 11
147.877487
 21
114.4995655
  0
LINE
  8
_0-0_0
  6
CONTINUOUS
 62
    7
 10
147.877487
 20
114.4995655
 11
147.877487
 21
114.5297625
  0
LINE
  8
_0-0_0
  6
CONTINUOUS
 62
    7
 10
147.877487
 20
114.5297625
 11
147.877487
 21
114.6255565
  0
LINE
  8
_0-0_0
  6
CONTINUOUS
 62
    7
 10
147.877487
 20
114.6255565
 11
147.877487
 21
114.6983415
  0
LINE
  8
_0-0_0
  6
CONTINUOUS
 62
    7
 10
147.877487
 20
114.6983415
 11
147.877487
 21
114.74730650000001
  0
LINE
  8
_0-0_0
  6
CONTINUOUS
 62
    7
 10
147.877487
 20
114.74730650000001
 11
147.877487
 21
114.7750015
  0
LINE
  8
_0-0_0
  6
CONTINUOUS
 62
    7
 10
147.877487
 20
114.7719195
 11
147.877487
 21
114.7750015
  0
LINE
  8
_0-0_0
  6
CONTINUOUS
 62
    7
 10
147.877487
 20
110.2750015
 11
147.877487
 21
110.27808350000001
  0
LINE
  8
_0-0_0
  6
CONTINUOUS
 62
    7
 10
147.877487
 20
110.27808350000001
 11
147.877487
 21
110.3027115
  0
LINE
  8
_0-0_0
  6
CONTINUOUS
 62
    7
 10
147.877487
 20
110.2750015
 11
147.877487
 21
110.3516765
  0
LINE
  8
_0-0_0
  6
CONTINUOUS
 62
    7
 10
147.877487
 20
110.3516765
 11
147.877487
 21
110.4244465
  0
LINE
  8
_0-0_0
  6
CONTINUOUS
 62
    7
 10
147.877487
 20
110.4244465
 11
147.877487
 21
110.5202405
  0
LINE
  8
_0-0_0
  6
CONTINUOUS
 62
    7
 10
147.877487
 20
110.5202405
 11
147.877487
 21
110.6379925
  0
LINE
  8
_0-0_0
  6
CONTINUOUS
 62
    7
 10
147.877487
 20
110.6379925
 11
147.877487
 21
110.7764205
  0
LINE
  8
_0-0_0
  6
CONTINUOUS
 62
    7
 10
147.877487
 20
110.7764205
 11
147.877487
 21
110.93401350000001
  0
LINE
  8
_0-0_0
  6
CONTINUOUS
 62
    7
 10
147.877487
 20
110.93401350000001
 11
147.877487
 21
111.1090315
  0
LINE
  8
_0-0_0
  6
CONTINUOUS
 62
    7
 10
147.877487
 20
111.1090315
 11
147.877487
 21
111.29956850000001
  0
LINE
  8
_0-0_0
  6
CONTINUOUS
 62
    7
 10
147.877487
 20
111.4462965
 11
147.877487
 21
111.50353250000001
  0
LINE
  8
_0-0_0
  6
CONTINUOUS
 62
    7
 10
147.877487
 20
111.29956850000001
 11
147.877487
 21
111.4462965
  0
LINE
  8
_0-0_0
  6
CONTINUOUS
 62
    7
 10
147.877487
 20
94.903526499999998
 11
147.877487
 21
95.118675499999995
  0
LINE
  8
_0-0_0
  6
CONTINUOUS
 62
    7
 10
147.877487
 20
95.118675499999995
 11
147.877487
 21
95.342658499999999
  0
LINE
  8
_0-0_0
  6
CONTINUOUS
 62
    7
 10
147.877487
 20
95.342658499999999
 11
147.877487
 21
95.573020499999998
  0
LINE
  8
_0-0_0
  6
CONTINUOUS
 62
    7
 10
147.877487
 20
95.573020499999998
 11
147.877487
 21
95.807243499999998
  0
LINE
  8
_0-0_0
  6
CONTINUOUS
 62
    7
 10
147.877487
 20
95.807243499999998
 11
147.877487
 21
96.042762499999995
  0
LINE
  8
_0-0_0
  6
CONTINUOUS
 62
    7
 10
147.877487
 20
96.042762499999995
 11
147.877487
 21
96.276985499999995
  0
LINE
  8
_0-0_0
  6
CONTINUOUS
 62
    7
 10
147.877487
 20
96.276985499999995
 11
147.877487
 21
96.507347500000009
  0
LINE
  8
_0-0_0
  6
CONTINUOUS
 62
    7
 10
147.877487
 20
96.507347500000009
 11
147.877487
 21
96.731330499999999
  0
LINE
  8
_0-0_0
  6
CONTINUOUS
 62
    7
 10
147.877487
 20
96.731330499999999
 11
147.877487
 21
96.946479499999995
  0
LINE
  8
_0-0_0
  6
CONTINUOUS
 62
    7
 10
147.877487
 20
96.946479499999995
 11
147.877487
 21
97.150444500000006
  0
LINE
  8
_0-0_0
  6
CONTINUOUS
 62
    7
 10
147.877487
 20
97.150444500000006
 11
147.877487
 21
97.340980500000001
  0
LINE
  8
_0-0_0
  6
CONTINUOUS
 62
    7
 10
147.877487
 20
97.340980500000001
 11
147.877487
 21
97.515998499999995
  0
LINE
  8
_0-0_0
  6
CONTINUOUS
 62
    7
 10
147.877487
 20
97.515998499999995
 11
147.877487
 21
97.673576499999996
  0
LINE
  8
_0-0_0
  6
CONTINUOUS
 62
    7
 10
147.877487
 20
97.673576499999996
 11
147.877487
 21
97.812019500000005
  0
LINE
  8
_0-0_0
  6
CONTINUOUS
 62
    7
 10
147.877487
 20
97.812019500000005
 11
147.877487
 21
97.899558499999998
  0
LINE
  8
_0-0_0
  6
CONTINUOUS
 62
    7
 10
147.877487
 20
97.899558499999998
 11
147.877487
 21
97.929771500000001
  0
LINE
  8
_0-0_0
  6
CONTINUOUS
 62
    7
 10
147.877487
 20
97.929771500000001
 11
147.877487
 21
98.025566499999996
  0
LINE
  8
_0-0_0
  6
CONTINUOUS
 62
    7
 10
147.877487
 20
98.025566499999996
 11
147.877487
 21
98.098335500000005
  0
LINE
  8
_0-0_0
  6
CONTINUOUS
 62
    7
 10
147.877487
 20
98.098335500000005
 11
147.877487
 21
98.1473005
  0
LINE
  8
_0-0_0
  6
CONTINUOUS
 62
    7
 10
147.877487
 20
98.1473005
 11
147.877487
 21
98.175010499999999
  0
LINE
  8
_0-0_0
  6
CONTINUOUS
 62
    7
 10
147.877487
 20
98.171928500000007
 11
147.877487
 21
98.175010499999999
  0
LINE
  8
_0-0_0
  6
CONTINUOUS
 62
    7
 10
147.877487
 20
93.675010499999999
 11
147.877487
 21
93.678092500000005
  0
LINE
  8
_0-0_0
  6
CONTINUOUS
 62
    7
 10
147.877487
 20
93.678092500000005
 11
147.877487
 21
93.702705500000008
  0
LINE
  8
_0-0_0
  6
CONTINUOUS
 62
    7
 10
147.877487
 20
93.675010499999999
 11
147.877487
 21
93.751670500000003
  0
LINE
  8
_0-0_0
  6
CONTINUOUS
 62
    7
 10
147.877487
 20
93.751670500000003
 11
147.877487
 21
93.824455499999999
  0
LINE
  8
_0-0_0
  6
CONTINUOUS
 62
    7
 10
147.877487
 20
93.824455499999999
 11
147.877487
 21
93.920234500000007
  0
LINE
  8
_0-0_0
  6
CONTINUOUS
 62
    7
 10
147.877487
 20
93.920234500000007
 11
147.877487
 21
94.038001500000007
  0
LINE
  8
_0-0_0
  6
CONTINUOUS
 62
    7
 10
147.877487
 20
94.038001500000007
 11
147.877487
 21
94.176429499999998
  0
LINE
  8
_0-0_0
  6
CONTINUOUS
 62
    7
 10
147.877487
 20
94.176429499999998
 11
147.877487
 21
94.334007499999998
  0
LINE
  8
_0-0_0
  6
CONTINUOUS
 62
    7
 10
147.877487
 20
94.334007499999998
 11
147.877487
 21
94.509025500000007
  0
LINE
  8
_0-0_0
  6
CONTINUOUS
 62
    7
 10
147.877487
 20
94.509025500000007
 11
147.877487
 21
94.699562499999999
  0
LINE
  8
_0-0_0
  6
CONTINUOUS
 62
    7
 10
147.877487
 20
94.846290499999995
 11
147.877487
 21
94.903526499999998
  0
LINE
  8
_0-0_0
  6
CONTINUOUS
 62
    7
 10
147.877487
 20
94.699562499999999
 11
147.877487
 21
94.846290499999995
  0
LINE
  8
_0-0_0
  6
CONTINUOUS
 62
    7
 10
144.27748099999999
 20
101.7249985
 11
144.27748099999999
 21
109.2249985
  0
LINE
  8
_0-0_0
  6
CONTINUOUS
 62
    7
 10
144.27748099999999
 20
99.224998499999998
 11
144.27748099999999
 21
101.7249985
  0
LINE
  8
_0-0_0
  6
CONTINUOUS
 62
    7
 10
132.877487
 20
110.7249985
 11
142.58531199999999
 21
110.7249985
  0
LINE
  8
_0-0_0
  6
CONTINUOUS
 62
    7
 10
142.627487
 20
110.7249985
 11
142.58531199999999
 21
110.7249985
  0
LINE
  8
_0-0_0
  6
CONTINUOUS
 62
    7
 10
132.577484
 20
102.01297750000001
 11
132.636291
 21
101.7661365
  0
LINE
  8
_0-0_0
  6
CONTINUOUS
 62
    7
 10
132.636291
 20
101.7661365
 11
132.68604999999999
 21
101.5738145
  0
LINE
  8
_0-0_0
  6
CONTINUOUS
 62
    7
 10
132.68604999999999
 20
101.5738145
 11
132.757172
 21
101.30806750000001
  0
LINE
  8
_0-0_0
  6
CONTINUOUS
 62
    7
 10
132.757172
 20
101.30806750000001
 11
132.790131
 21
101.18137350000001
  0
LINE
  8
_0-0_0
  6
CONTINUOUS
 62
    7
 10
132.790131
 20
101.18137350000001
 11
132.81538399999999
 21
101.0779185
  0
LINE
  8
_0-0_0
  6
CONTINUOUS
 62
    7
 10
132.81538399999999
 20
101.0779185
 11
132.83741799999999
 21
100.9779585
  0
LINE
  8
_0-0_0
  6
CONTINUOUS
 62
    7
 10
132.83741799999999
 20
100.9779585
 11
132.85880999999998
 21
100.8602525
  0
LINE
  8
_0-0_0
  6
CONTINUOUS
 62
    7
 10
132.85880999999998
 20
100.8602525
 11
132.86737099999999
 21
100.7981185
  0
LINE
  8
_0-0_0
  6
CONTINUOUS
 62
    7
 10
132.86737099999999
 20
100.7981185
 11
132.873459
 21
100.7375255
  0
LINE
  8
_0-0_0
  6
CONTINUOUS
 62
    7
 10
132.873459
 20
100.7375255
 11
132.876465
 21
100.68828550000001
  0
LINE
  8
_0-0_0
  6
CONTINUOUS
 62
    7
 10
132.876465
 20
100.68828550000001
 11
132.877487
 21
100.6400685
  0
LINE
  8
_0-0_0
  6
CONTINUOUS
 62
    7
 10
132.577484
 20
106.4370045
 11
132.63627599999998
 21
106.6838305
  0
LINE
  8
_0-0_0
  6
CONTINUOUS
 62
    7
 10
132.63627599999998
 20
106.6838305
 11
132.68604999999999
 21
106.87616750000001
  0
LINE
  8
_0-0_0
  6
CONTINUOUS
 62
    7
 10
132.68604999999999
 20
106.87616750000001
 11
132.757172
 21
107.1419755
  0
LINE
  8
_0-0_0
  6
CONTINUOUS
 62
    7
 10
132.757172
 20
107.1419755
 11
132.790131
 21
107.26868450000001
  0
LINE
  8
_0-0_0
  6
CONTINUOUS
 62
    7
 10
132.790131
 20
107.26868450000001
 11
132.81539899999999
 21
107.3721085
  0
LINE
  8
_0-0_0
  6
CONTINUOUS
 62
    7
 10
132.81539899999999
 20
107.3721085
 11
132.83741799999999
 21
107.4720385
  0
LINE
  8
_0-0_0
  6
CONTINUOUS
 62
    7
 10
132.83741799999999
 20
107.4720385
 11
132.85879499999999
 21
107.58974450000001
  0
LINE
  8
_0-0_0
  6
CONTINUOUS
 62
    7
 10
132.85879499999999
 20
107.58974450000001
 11
132.86737099999999
 21
107.6518785
  0
LINE
  8
_0-0_0
  6
CONTINUOUS
 62
    7
 10
132.86737099999999
 20
107.6518785
 11
132.873459
 21
107.7124865
  0
LINE
  8
_0-0_0
  6
CONTINUOUS
 62
    7
 10
132.873459
 20
107.7124865
 11
132.876465
 21
107.76172650000001
  0
LINE
  8
_0-0_0
  6
CONTINUOUS
 62
    7
 10
132.876465
 20
107.76172650000001
 11
132.877487
 21
107.8099445
  0
LINE
  8
_0-0_0
  6
CONTINUOUS
 62
    7
 10
132.877487
 20
102.66295650000001
 11
132.877487
 21
101.6173015
  0
LINE
  8
_0-0_0
  6
CONTINUOUS
 62
    7
 10
132.877487
 20
100.3326945
 11
132.877487
 21
101.6173015
  0
LINE
  8
_0-0_0
  6
CONTINUOUS
 62
    7
 10
132.877487
 20
100.2173085
 11
132.877487
 21
100.3326945
  0
ARC
  8
_0-0_0
  6
CONTINUOUS
 62
    7
 10
130.877487
 20
111.5834885
 40
2
 50
0
 51
71.565000999999995
  0
LINE
  8
_0-0_0
  6
CONTINUOUS
 62
    7
 10
142.58531199999999
 20
110.7249985
 11
142.63980099999998
 21
110.6550675
  0
LINE
  8
_0-0_0
  6
CONTINUOUS
 62
    7
 10
142.63980099999998
 20
110.6550675
 11
142.69090299999999
 21
110.58625050000001
  0
LINE
  8
_0-0_0
  6
CONTINUOUS
 62
    7
 10
142.69090299999999
 20
110.58625050000001
 11
142.738541
 21
110.5187305
  0
LINE
  8
_0-0_0
  6
CONTINUOUS
 62
    7
 10
142.738541
 20
110.5187305
 11
142.78303499999998
 21
110.4521865
  0
LINE
  8
_0-0_0
  6
CONTINUOUS
 62
    7
 10
142.78303499999998
 20
110.4521865
 11
142.83775299999999
 21
110.36464650000001
  0
LINE
  8
_0-0_0
  6
CONTINUOUS
 62
    7
 10
142.83775299999999
 20
110.36464650000001
 11
142.88726799999998
 21
110.2785415
  0
LINE
  8
_0-0_0
  6
CONTINUOUS
 62
    7
 10
142.88726799999998
 20
110.2785415
 11
142.93173199999998
 21
110.19371750000001
  0
LINE
  8
_0-0_0
  6
CONTINUOUS
 62
    7
 10
142.93173199999998
 20
110.19371750000001
 11
142.97869899999998
 21
110.0933915
  0
LINE
  8
_0-0_0
  6
CONTINUOUS
 62
    7
 10
142.97869899999998
 20
110.0933915
 11
143.01890599999999
 21
109.9944685
  0
LINE
  8
_0-0_0
  6
CONTINUOUS
 62
    7
 10
143.01890599999999
 20
109.9944685
 11
143.05256599999998
 21
109.8967055
  0
LINE
  8
_0-0_0
  6
CONTINUOUS
 62
    7
 10
143.05256599999998
 20
109.8967055
 11
143.07986399999999
 21
109.7999035
  0
LINE
  8
_0-0_0
  6
CONTINUOUS
 62
    7
 10
143.07986399999999
 20
109.7999035
 11
143.10090599999998
 21
109.7038495
  0
LINE
  8
_0-0_0
  6
CONTINUOUS
 62
    7
 10
143.10090599999998
 20
109.7038495
 11
143.11683599999998
 21
109.5999985
  0
LINE
  8
_0-0_0
  6
CONTINUOUS
 62
    7
 10
143.11683599999998
 20
109.5999985
 11
143.12559499999998
 21
109.49657450000001
  0
LINE
  8
_0-0_0
  6
CONTINUOUS
 62
    7
 10
143.12559499999998
 20
109.49657450000001
 11
143.127228
 21
109.3933335
  0
LINE
  8
_0-0_0
  6
CONTINUOUS
 62
    7
 10
143.127228
 20
109.3933335
 11
143.12176499999998
 21
109.2900465
  0
LINE
  8
_0-0_0
  6
CONTINUOUS
 62
    7
 10
143.12176499999998
 20
109.2900465
 11
143.10914599999998
 21
109.1864545
  0
LINE
  8
_0-0_0
  6
CONTINUOUS
 62
    7
 10
143.10914599999998
 20
109.1864545
 11
143.08933999999999
 21
109.0823135
  0
LINE
  8
_0-0_0
  6
CONTINUOUS
 62
    7
 10
143.08933999999999
 20
109.0823135
 11
143.06219499999997
 21
108.97734850000001
  0
LINE
  8
_0-0_0
  6
CONTINUOUS
 62
    7
 10
143.06219499999997
 20
108.97734850000001
 11
143.02754199999998
 21
108.8713145
  0
LINE
  8
_0-0_0
  6
CONTINUOUS
 62
    7
 10
143.02754199999998
 20
108.8713145
 11
142.98519899999999
 21
108.76393850000001
  0
LINE
  8
_0-0_0
  6
CONTINUOUS
 62
    7
 10
142.98519899999999
 20
108.76393850000001
 11
142.93487499999998
 21
108.65493050000001
  0
LINE
  8
_0-0_0
  6
CONTINUOUS
 62
    7
 10
142.93487499999998
 20
108.65493050000001
 11
142.88063
 21
108.5517955
  0
LINE
  8
_0-0_0
  6
CONTINUOUS
 62
    7
 10
142.88063
 20
108.5517955
 11
142.81892399999998
 21
108.44673950000001
  0
LINE
  8
_0-0_0
  6
CONTINUOUS
 62
    7
 10
142.81892399999998
 20
108.44673950000001
 11
142.749405
 21
108.3395005
  0
LINE
  8
_0-0_0
  6
CONTINUOUS
 62
    7
 10
142.749405
 20
108.3395005
 11
142.67169199999998
 21
108.2298045
  0
LINE
  8
_0-0_0
  6
CONTINUOUS
 62
    7
 10
142.67169199999998
 20
108.2298045
 11
142.58531199999999
 21
108.1173015
  0
LINE
  8
_0-0_0
  6
CONTINUOUS
 62
    7
 10
132.877487
 20
108.23268850000001
 11
132.877487
 21
108.1173015
  0
LINE
  8
_0-0_0
  6
CONTINUOUS
 62
    7
 10
132.877487
 20
106.8326945
 11
132.877487
 21
105.78705550000001
  0
LINE
  8
_0-0_0
  6
CONTINUOUS
 62
    7
 10
132.877487
 20
101.6173015
 11
142.58531199999999
 21
101.6173015
  0
LINE
  8
_0-0_0
  6
CONTINUOUS
 62
    7
 10
132.877487
 20
100.3326945
 11
142.58531199999999
 21
100.3326945
  0
LINE
  8
_0-0_0
  6
CONTINUOUS
 62
    7
 10
143.877487
 20
106.9565655
 11
143.877487
 21
109.4749985
  0
LINE
  8
_0-0_0
  6
CONTINUOUS
 62
    7
 10
132.877487
 20
111.5834885
 11
132.877487
 21
108.23268850000001
  0
LINE
  8
_0-0_0
  6
CONTINUOUS
 62
    7
 10
121.877487
 20
93.425010499999999
 11
121.877487
 21
93.675071500000001
  0
LINE
  8
_0-0_0
  6
CONTINUOUS
 62
    7
 10
97.377487000000002
 20
113.5250015
 11
92.377471999999983
 21
113.5250015
  0
ARC
  8
_0-0_0
  6
CONTINUOUS
 62
    7
 10
92.377471999999983
 20
109.0250015
 40
4.5
 50
90.000003000000007
 51
269.99999700000006
  0
LINE
  8
_0-0_0
  6
CONTINUOUS
 62
    7
 10
97.377487000000002
 20
104.5250015
 11
92.377471999999983
 21
104.5250015
  0
ARC
  8
_0-0_0
  6
CONTINUOUS
 62
    7
 10
97.377487000000002
 20
109.0250015
 40
4.5
 50
269.99999700000001
 51
90.000002999999992
  0
LINE
  8
_0-0_0
  6
CONTINUOUS
 62
    7
 10
41.377471999999983
 20
113.5250015
 11
36.377471999999983
 21
113.5250015
  0
ARC
  8
_0-0_0
  6
CONTINUOUS
 62
    7
 10
36.377471999999983
 20
109.0250015
 40
4.5
 50
90.000003000000007
 51
269.99999700000006
  0
LINE
  8
_0-0_0
  6
CONTINUOUS
 62
    7
 10
41.377471999999983
 20
104.5250015
 11
36.377471999999983
 21
104.5250015
  0
ARC
  8
_0-0_0
  6
CONTINUOUS
 62
    7
 10
41.377471999999983
 20
109.0250015
 40
4.5
 50
269.99999700000001
 51
90.000002999999992
  0
LINE
  8
_0-0_0
  6
CONTINUOUS
 62
    7
 10
66.689986999999988
 20
113.09464250000001
 11
65.389983999999984
 21
109.59464250000001
  0
LINE
  8
_0-0_0
  6
CONTINUOUS
 62
    7
 10
65.577468999999994
 20
109.32500450000001
 11
68.177474999999987
 21
109.32500450000001
  0
ARC
  8
_0-0_0
  6
CONTINUOUS
 62
    7
 10
68.177474999999987
 20
109.5250015
 40
0.2
 50
269.99999700000001
 51
20.376435000000019
  0
ARC
  8
_0-0_0
  6
CONTINUOUS
 62
    7
 10
66.877471999999983
 20
113.0250015
 40
0.2
 50
20.376434999999997
 51
159.62357000000003
  0
LINE
  8
_0-0_0
  6
CONTINUOUS
 62
    7
 10
121.877487
 20
93.425010499999999
 11
121.877487
 21
95.425010499999999
  0
ARC
  8
_0-0_0
  6
CONTINUOUS
 62
    7
 10
87.877471999999983
 20
99.825004500000006
 40
3
 50
180.00000900000003
 51
269.99999700000001
  0
LINE
  8
_0-0_0
  6
CONTINUOUS
 62
    7
 10
87.877471999999983
 20
96.825004500000006
 11
102.877487
 21
96.825004500000006
  0
ARC
  8
_0-0_0
  6
CONTINUOUS
 62
    7
 10
102.877487
 20
99.825004500000006
 40
3
 50
269.99999700000001
 51
0
  0
ARC
  8
_0-0_0
  6
CONTINUOUS
 62
    7
 10
102.877487
 20
113.4250105
 40
3
 50
0
 51
90.000003000000007
  0
LINE
  8
_0-0_0
  6
CONTINUOUS
 62
    7
 10
102.877487
 20
116.4250105
 11
87.877471999999983
 21
116.4250105
  0
ARC
  8
_0-0_0
  6
CONTINUOUS
 62
    7
 10
87.877471999999983
 20
113.4250105
 40
3
 50
90.000003000000007
 51
180.00000900000001
  0
ARC
  8
_0-0_0
  6
CONTINUOUS
 62
    7
 10
33.967147999999995
 20
101.9146805
 40
5.089683
 50
180.00000900000003
 51
269.99999700000001
  0
LINE
  8
_0-0_0
  6
CONTINUOUS
 62
    7
 10
33.967147999999995
 20
96.825004500000006
 11
45.234481999999986
 21
96.825004500000006
  0
ARC
  8
_0-0_0
  6
CONTINUOUS
 62
    7
 10
45.234481999999986
 20
100.4679945
 40
3.6429879999999999
 50
269.99999700000001
 51
0.0000099999999886
  0
LINE
  8
_0-0_0
  6
CONTINUOUS
 62
    7
 10
45.877471999999983
 20
116.4250105
 11
32.543532999999982
 21
116.4250105
  0
ARC
  8
_0-0_0
  6
CONTINUOUS
 62
    7
 10
32.543532999999982
 20
115.4250105
 40
1
 50
90.000003000000007
 51
172.23356100000001
  0
ARC
  8
_0-0_0
  6
CONTINUOUS
 62
    7
 10
29.877471999999983
 20
112.36269350000001
 40
1
 50
105.68034800000001
 51
180.00000900000001
  0
LINE
  8
_0-0_0
  6
CONTINUOUS
 62
    7
 10
87.277480999999995
 20
116.4250105
 11
87.277480999999995
 21
116.36438750000001
  0
LINE
  8
_0-0_0
  6
CONTINUOUS
 62
    7
 10
45.877471999999983
 20
96.882194499999997
 11
45.877471999999983
 21
96.829093499999999
  0
LINE
  8
_0-0_0
  6
CONTINUOUS
 62
    7
 10
87.277480999999995
 20
96.885612500000008
 11
87.277480999999995
 21
96.829093499999999
  0
LINE
  8
_0-0_0
  6
CONTINUOUS
 62
    7
 10
143.877487
 20
98.974998499999998
 11
143.077484
 21
98.174995500000009
  0
LINE
  8
_0-0_0
  6
CONTINUOUS
 62
    7
 10
157.877487
 20
93.925010499999999
 11
157.37765499999998
 21
93.425163499999996
  0
LINE
  8
_0-0_0
  6
CONTINUOUS
 62
    7
 10
157.877487
 20
110.5250015
 11
157.37765499999998
 21
110.0251545
  0
LINE
  8
_0-0_0
  6
CONTINUOUS
 62
    7
 10
145.077484
 20
108.2249985
 11
203.07748399999997
 21
108.2249985
  0
LINE
  8
_0-0_0
  6
CONTINUOUS
 62
    7
 10
145.077484
 20
100.2249985
 11
203.07748399999997
 21
100.2249985
  0
LINE
  8
_0-0_0
  6
CONTINUOUS
 62
    7
 10
157.877487
 20
114.5250015
 11
157.37765499999998
 21
115.0248485
  0
LINE
  8
_0-0_0
  6
CONTINUOUS
 62
    7
 10
157.877487
 20
97.925010499999999
 11
157.37765499999998
 21
98.424842499999997
  0
LINE
  8
_0-0_0
  6
CONTINUOUS
 62
    7
 10
147.877487
 20
114.7750015
 11
148.127487
 21
115.0250015
  0
LINE
  8
_0-0_0
  6
CONTINUOUS
 62
    7
 10
147.877487
 20
110.2750015
 11
148.127487
 21
110.0250015
  0
LINE
  8
_0-0_0
  6
CONTINUOUS
 62
    7
 10
147.877487
 20
98.175010499999999
 11
148.127487
 21
98.425010499999999
  0
LINE
  8
_0-0_0
  6
CONTINUOUS
 62
    7
 10
147.877487
 20
93.675010499999999
 11
148.127487
 21
93.425010499999999
  0
LINE
  8
_0-0_0
  6
CONTINUOUS
 62
    7
 10
145.077484
 20
108.7631305
 11
144.27748099999999
 21
109.2249985
  0
LINE
  8
_0-0_0
  6
CONTINUOUS
 62
    7
 10
145.077484
 20
99.686881499999998
 11
144.27748099999999
 21
99.224998499999998
  0
LINE
  8
_0-0_0
  6
CONTINUOUS
 62
    7
 10
127.62744099999998
 20
114.7750015
 11
147.877487
 21
114.7750015
  0
LINE
  8
_0-0_0
  6
CONTINUOUS
 62
    7
 10
143.077484
 20
110.2750015
 11
147.877487
 21
110.2750015
  0
LINE
  8
_0-0_0
  6
CONTINUOUS
 62
    7
 10
121.877487
 20
98.175010499999999
 11
147.877487
 21
98.175010499999999
  0
LINE
  8
_0-0_0
  6
CONTINUOUS
 62
    7
 10
121.877487
 20
93.675010499999999
 11
147.877487
 21
93.675010499999999
  0
LINE
  8
_0-0_0
  6
CONTINUOUS
 62
    7
 10
143.877487
 20
109.2249985
 11
144.27748099999999
 21
109.2249985
  0
LINE
  8
_0-0_0
  6
CONTINUOUS
 62
    7
 10
143.877487
 20
99.224998499999998
 11
144.27748099999999
 21
99.224998499999998
  0
LINE
  8
_0-0_0
  6
CONTINUOUS
 62
    7
 10
143.877487
 20
109.4749985
 11
142.627487
 21
110.7250135
  0
LINE
  8
_0-0_0
  6
CONTINUOUS
 62
    7
 10
12.877471999999983
 20
133.12500750000001
 11
15.332244999999986
 21
133.12500750000001
  0
LINE
  8
_0-0_0
  6
CONTINUOUS
 62
    7
 10
12.877471999999983
 20
119.92499550000001
 11
12.877471999999983
 21
133.12500750000001
  0
LINE
  8
_0-0_0
  6
CONTINUOUS
 62
    7
 10
265.87747200000001
 20
119.92499550000001
 11
265.87747200000001
 21
133.12500750000001
  0
LINE
  8
_0-0_0
  6
CONTINUOUS
 62
    7
 10
263.42269899999997
 20
133.12500750000001
 11
265.87747200000001
 21
133.12500750000001
  0
ARC
  8
_0-0_0
  6
CONTINUOUS
 62
    7
 10
256.87747200000001
 20
137.7249985
 40
8
 50
215.099627
 51
324.90037799999999
  0
LINE
  8
_0-0_0
  6
CONTINUOUS
 62
    7
 10
28.422698999999994
 20
133.12500750000001
 11
250.332245
 21
133.12500750000001
  0
ARC
  8
_0-0_0
  6
CONTINUOUS
 62
    7
 10
21.877471999999983
 20
137.7249985
 40
8
 50
215.099627
 51
324.90037799999999
  0
LINE
  8
_0-0_0
  6
CONTINUOUS
 62
    7
 10
15.332244999999986
 20
133.12500750000001
 11
15.243270999999993
 21
133.25429550000001
  0
LINE
  8
_0-0_0
  6
CONTINUOUS
 62
    7
 10
28.422698999999994
 20
133.12500750000001
 11
28.511687999999992
 21
133.25429550000001
  0
LINE
  8
_0-0_0
  6
CONTINUOUS
 62
    7
 10
28.604827999999983
 20
133.3957135
 11
28.511687999999992
 21
133.25429550000001
  0
LINE
  8
_0-0_0
  6
CONTINUOUS
 62
    7
 10
28.604827999999983
 20
133.3957135
 11
28.68629399999999
 21
133.5250015
  0
ARC
  8
_0-0_0
  6
CONTINUOUS
 62
    7
 10
21.877471999999983
 20
137.7249985
 40
8
 50
328.33175599999993
 51
334.05550899999992
  0
LINE
  8
_0-0_0
  6
CONTINUOUS
 62
    7
 10
29.071227999999991
 20
134.2249985
 11
29.132705999999985
 21
134.3542865
  0
LINE
  8
_0-0_0
  6
CONTINUOUS
 62
    7
 10
29.196746999999988
 20
134.49570449999999
 11
29.132705999999985
 21
134.3542865
  0
LINE
  8
_0-0_0
  6
CONTINUOUS
 62
    7
 10
29.196746999999988
 20
134.49570449999999
 11
29.252425999999986
 21
134.62500750000001
  0
ARC
  8
_0-0_0
  6
CONTINUOUS
 62
    7
 10
21.877471999999983
 20
137.7249985
 40
8
 50
337.20097500000003
 51
342.54240199999998
  0
LINE
  8
_0-0_0
  6
CONTINUOUS
 62
    7
 10
29.508986999999991
 20
135.32500450000001
 11
29.548446999999982
 21
135.45429250000001
  0
LINE
  8
_0-0_0
  6
CONTINUOUS
 62
    7
 10
29.588897999999986
 20
135.5957105
 11
29.548446999999982
 21
135.45429250000001
  0
LINE
  8
_0-0_0
  6
CONTINUOUS
 62
    7
 10
29.588897999999986
 20
135.5957105
 11
29.623443999999992
 21
135.7249985
  0
ARC
  8
_0-0_0
  6
CONTINUOUS
 62
    7
 10
21.877471999999983
 20
137.7249985
 40
8
 50
345.52249499999999
 51
350.64797900000002
  0
LINE
  8
_0-0_0
  6
CONTINUOUS
 62
    7
 10
29.771148999999994
 20
136.42499549999999
 11
29.791350999999992
 21
136.55429850000002
  0
LINE
  8
_0-0_0
  6
CONTINUOUS
 62
    7
 10
29.810988999999992
 20
136.6957165
 11
29.791350999999992
 21
136.55429850000002
  0
LINE
  8
_0-0_0
  6
CONTINUOUS
 62
    7
 10
29.810988999999992
 20
136.6957165
 11
29.826690999999983
 21
136.82500450000001
  0
ARC
  8
_0-0_0
  6
CONTINUOUS
 62
    7
 10
21.877471999999983
 20
137.7249985
 40
8
 50
353.54056400000002
 51
358.56744600000002
  0
LINE
  8
_0-0_0
  6
CONTINUOUS
 62
    7
 10
29.874968999999993
 20
137.5250015
 11
29.877166999999986
 21
137.6542895
  0
LINE
  8
_0-0_0
  6
CONTINUOUS
 62
    7
 10
29.877166999999986
 20
137.6542895
 11
29.877471999999983
 21
137.7249985
  0
LINE
  8
_0-0_0
  6
CONTINUOUS
 62
    7
 10
13.877791999999985
 20
137.6542895
 11
13.877471999999983
 21
137.7249985
  0
LINE
  8
_0-0_0
  6
CONTINUOUS
 62
    7
 10
13.87997399999999
 20
137.5250015
 11
13.877791999999985
 21
137.6542895
  0
ARC
  8
_0-0_0
  6
CONTINUOUS
 62
    7
 10
21.877471999999983
 20
137.7249985
 40
8
 50
181.432545
 51
186.45945499999999
  0
LINE
  8
_0-0_0
  6
CONTINUOUS
 62
    7
 10
13.943969999999993
 20
136.6957165
 11
13.928252999999984
 21
136.82500450000001
  0
LINE
  8
_0-0_0
  6
CONTINUOUS
 62
    7
 10
13.943969999999993
 20
136.6957165
 11
13.963591999999991
 21
136.55429850000002
  0
LINE
  8
_0-0_0
  6
CONTINUOUS
 62
    7
 10
13.983809999999991
 20
136.42499549999999
 11
13.963591999999991
 21
136.55429850000002
  0
ARC
  8
_0-0_0
  6
CONTINUOUS
 62
    7
 10
21.877471999999983
 20
137.7249985
 40
8
 50
189.35203999999999
 51
194.47751
  0
LINE
  8
_0-0_0
  6
CONTINUOUS
 62
    7
 10
14.166045999999994
 20
135.5957105
 11
14.131499999999988
 21
135.7249985
  0
LINE
  8
_0-0_0
  6
CONTINUOUS
 62
    7
 10
14.166045999999994
 20
135.5957105
 11
14.206496999999985
 21
135.45429250000001
  0
LINE
  8
_0-0_0
  6
CONTINUOUS
 62
    7
 10
14.245955999999993
 20
135.32500450000001
 11
14.206496999999985
 21
135.45429250000001
  0
ARC
  8
_0-0_0
  6
CONTINUOUS
 62
    7
 10
21.877471999999983
 20
137.7249985
 40
8
 50
197.45760300000001
 51
202.79902999999999
  0
LINE
  8
_0-0_0
  6
CONTINUOUS
 62
    7
 10
14.558211999999983
 20
134.49570449999999
 11
14.502517999999995
 21
134.62500750000001
  0
LINE
  8
_0-0_0
  6
CONTINUOUS
 62
    7
 10
14.558211999999983
 20
134.49570449999999
 11
14.622252999999986
 21
134.3542865
  0
LINE
  8
_0-0_0
  6
CONTINUOUS
 62
    7
 10
14.683730999999995
 20
134.2249985
 11
14.622252999999986
 21
134.3542865
  0
ARC
  8
_0-0_0
  6
CONTINUOUS
 62
    7
 10
21.877471999999983
 20
137.7249985
 40
8
 50
205.94448199999999
 51
211.66823500000001
  0
LINE
  8
_0-0_0
  6
CONTINUOUS
 62
    7
 10
15.150115999999983
 20
133.3957135
 11
15.068648999999994
 21
133.5250015
  0
LINE
  8
_0-0_0
  6
CONTINUOUS
 62
    7
 10
15.150115999999983
 20
133.3957135
 11
15.243270999999993
 21
133.25429550000001
  0
LINE
  8
_0-0_0
  6
CONTINUOUS
 62
    7
 10
250.332245
 20
133.12500750000001
 11
250.24325599999997
 21
133.25429550000001
  0
LINE
  8
_0-0_0
  6
CONTINUOUS
 62
    7
 10
248.87777699999998
 20
137.6542895
 11
248.87747200000001
 21
137.7249985
  0
LINE
  8
_0-0_0
  6
CONTINUOUS
 62
    7
 10
248.879974
 20
137.5250015
 11
248.87777699999998
 21
137.6542895
  0
ARC
  8
_0-0_0
  6
CONTINUOUS
 62
    7
 10
256.87747200000001
 20
137.7249985
 40
8
 50
181.432545
 51
186.45945499999999
  0
LINE
  8
_0-0_0
  6
CONTINUOUS
 62
    7
 10
248.94396999999998
 20
136.6957165
 11
248.92825299999998
 21
136.82500450000001
  0
LINE
  8
_0-0_0
  6
CONTINUOUS
 62
    7
 10
248.94396999999998
 20
136.6957165
 11
248.96359200000001
 21
136.55429850000002
  0
LINE
  8
_0-0_0
  6
CONTINUOUS
 62
    7
 10
248.98382599999997
 20
136.42499549999999
 11
248.96359200000001
 21
136.55429850000002
  0
ARC
  8
_0-0_0
  6
CONTINUOUS
 62
    7
 10
256.87747200000001
 20
137.7249985
 40
8
 50
189.35203999999999
 51
194.47751
  0
LINE
  8
_0-0_0
  6
CONTINUOUS
 62
    7
 10
249.16604599999999
 20
135.5957105
 11
249.13150000000002
 21
135.7249985
  0
LINE
  8
_0-0_0
  6
CONTINUOUS
 62
    7
 10
249.16604599999999
 20
135.5957105
 11
249.20651199999998
 21
135.45429250000001
  0
LINE
  8
_0-0_0
  6
CONTINUOUS
 62
    7
 10
249.24597199999999
 20
135.32500450000001
 11
249.20651199999998
 21
135.45429250000001
  0
ARC
  8
_0-0_0
  6
CONTINUOUS
 62
    7
 10
256.87747200000001
 20
137.7249985
 40
8
 50
197.45760300000001
 51
202.79902999999999
  0
LINE
  8
_0-0_0
  6
CONTINUOUS
 62
    7
 10
249.55819700000001
 20
134.49570449999999
 11
249.50253299999997
 21
134.62500750000001
  0
LINE
  8
_0-0_0
  6
CONTINUOUS
 62
    7
 10
249.55819700000001
 20
134.49570449999999
 11
249.622253
 21
134.3542865
  0
LINE
  8
_0-0_0
  6
CONTINUOUS
 62
    7
 10
249.68374599999999
 20
134.2249985
 11
249.622253
 21
134.3542865
  0
ARC
  8
_0-0_0
  6
CONTINUOUS
 62
    7
 10
256.87747200000001
 20
137.7249985
 40
8
 50
205.94448199999999
 51
211.66823500000001
  0
LINE
  8
_0-0_0
  6
CONTINUOUS
 62
    7
 10
250.15011599999997
 20
133.3957135
 11
250.06866400000001
 21
133.5250015
  0
LINE
  8
_0-0_0
  6
CONTINUOUS
 62
    7
 10
250.15011599999997
 20
133.3957135
 11
250.24325599999997
 21
133.25429550000001
  0
LINE
  8
_0-0_0
  6
CONTINUOUS
 62
    7
 10
263.42269899999997
 20
133.12500750000001
 11
263.51168799999999
 21
133.25429550000001
  0
LINE
  8
_0-0_0
  6
CONTINUOUS
 62
    7
 10
263.604828
 20
133.3957135
 11
263.51168799999999
 21
133.25429550000001
  0
LINE
  8
_0-0_0
  6
CONTINUOUS
 62
    7
 10
263.604828
 20
133.3957135
 11
263.68630999999999
 21
133.5250015
  0
ARC
  8
_0-0_0
  6
CONTINUOUS
 62
    7
 10
256.87747200000001
 20
137.7249985
 40
8
 50
328.33175599999993
 51
334.05550899999992
  0
LINE
  8
_0-0_0
  6
CONTINUOUS
 62
    7
 10
264.07122799999996
 20
134.2249985
 11
264.132721
 21
134.3542865
  0
LINE
  8
_0-0_0
  6
CONTINUOUS
 62
    7
 10
264.19674700000002
 20
134.49570449999999
 11
264.132721
 21
134.3542865
  0
LINE
  8
_0-0_0
  6
CONTINUOUS
 62
    7
 10
264.19674700000002
 20
134.49570449999999
 11
264.25244099999998
 21
134.62500750000001
  0
ARC
  8
_0-0_0
  6
CONTINUOUS
 62
    7
 10
256.87747200000001
 20
137.7249985
 40
8
 50
337.20097500000003
 51
342.54240199999998
  0
LINE
  8
_0-0_0
  6
CONTINUOUS
 62
    7
 10
264.50900300000001
 20
135.32500450000001
 11
264.54846199999997
 21
135.45429250000001
  0
LINE
  8
_0-0_0
  6
CONTINUOUS
 62
    7
 10
264.58889799999997
 20
135.5957105
 11
264.54846199999997
 21
135.45429250000001
  0
LINE
  8
_0-0_0
  6
CONTINUOUS
 62
    7
 10
264.58889799999997
 20
135.5957105
 11
264.62344400000001
 21
135.7249985
  0
ARC
  8
_0-0_0
  6
CONTINUOUS
 62
    7
 10
256.87747200000001
 20
137.7249985
 40
8
 50
345.52249499999999
 51
350.64797900000002
  0
LINE
  8
_0-0_0
  6
CONTINUOUS
 62
    7
 10
264.77114899999998
 20
136.42499549999999
 11
264.79135099999996
 21
136.55429850000002
  0
LINE
  8
_0-0_0
  6
CONTINUOUS
 62
    7
 10
264.81097399999999
 20
136.6957165
 11
264.79135099999996
 21
136.55429850000002
  0
LINE
  8
_0-0_0
  6
CONTINUOUS
 62
    7
 10
264.81097399999999
 20
136.6957165
 11
264.82669099999998
 21
136.82500450000001
  0
ARC
  8
_0-0_0
  6
CONTINUOUS
 62
    7
 10
256.87747200000001
 20
137.7249985
 40
8
 50
353.54056400000002
 51
358.56744600000002
  0
LINE
  8
_0-0_0
  6
CONTINUOUS
 62
    7
 10
264.87496899999996
 20
137.5250015
 11
264.87716699999999
 21
137.6542895
  0
LINE
  8
_0-0_0
  6
CONTINUOUS
 62
    7
 10
264.87716699999999
 20
137.6542895
 11
264.87747200000001
 21
137.7249985
  0
LINE
  8
_0-0_0
  6
CONTINUOUS
 62
    7
 10
265.87747200000001
 20
133.25429550000001
 11
265.87747200000001
 21
133.12500750000001
  0
LINE
  8
_0-0_0
  6
CONTINUOUS
 62
    7
 10
265.87747200000001
 20
142.05429850000002
 11
265.87747200000001
 21
142.1957165
  0
LINE
  8
_0-0_0
  6
CONTINUOUS
 62
    7
 10
265.87747200000001
 20
142.05429850000002
 11
265.87747200000001
 21
141.92499549999999
  0
LINE
  8
_0-0_0
  6
CONTINUOUS
 62
    7
 10
265.87747200000001
 20
141.2249985
 11
265.87747200000001
 21
141.92499549999999
  0
LINE
  8
_0-0_0
  6
CONTINUOUS
 62
    7
 10
265.87747200000001
 20
141.0957105
 11
265.87747200000001
 21
141.2249985
  0
LINE
  8
_0-0_0
  6
CONTINUOUS
 62
    7
 10
265.87747200000001
 20
140.95429250000001
 11
265.87747200000001
 21
141.0957105
  0
LINE
  8
_0-0_0
  6
CONTINUOUS
 62
    7
 10
265.87747200000001
 20
140.95429250000001
 11
265.87747200000001
 21
140.82500450000001
  0
LINE
  8
_0-0_0
  6
CONTINUOUS
 62
    7
 10
265.87747200000001
 20
140.12500750000001
 11
265.87747200000001
 21
140.82500450000001
  0
LINE
  8
_0-0_0
  6
CONTINUOUS
 62
    7
 10
265.87747200000001
 20
139.99570449999999
 11
265.87747200000001
 21
140.12500750000001
  0
LINE
  8
_0-0_0
  6
CONTINUOUS
 62
    7
 10
265.87747200000001
 20
139.8542865
 11
265.87747200000001
 21
139.99570449999999
  0
LINE
  8
_0-0_0
  6
CONTINUOUS
 62
    7
 10
265.87747200000001
 20
139.8542865
 11
265.87747200000001
 21
139.7249985
  0
LINE
  8
_0-0_0
  6
CONTINUOUS
 62
    7
 10
265.87747200000001
 20
139.0250015
 11
265.87747200000001
 21
139.7249985
  0
LINE
  8
_0-0_0
  6
CONTINUOUS
 62
    7
 10
265.87747200000001
 20
138.8957135
 11
265.87747200000001
 21
139.0250015
  0
LINE
  8
_0-0_0
  6
CONTINUOUS
 62
    7
 10
265.87747200000001
 20
138.75429550000001
 11
265.87747200000001
 21
138.8957135
  0
LINE
  8
_0-0_0
  6
CONTINUOUS
 62
    7
 10
265.87747200000001
 20
138.75429550000001
 11
265.87747200000001
 21
138.62500750000001
  0
LINE
  8
_0-0_0
  6
CONTINUOUS
 62
    7
 10
265.87747200000001
 20
137.92499549999999
 11
265.87747200000001
 21
138.62500750000001
  0
LINE
  8
_0-0_0
  6
CONTINUOUS
 62
    7
 10
265.87747200000001
 20
137.79570749999999
 11
265.87747200000001
 21
137.92499549999999
  0
LINE
  8
_0-0_0
  6
CONTINUOUS
 62
    7
 10
265.87747200000001
 20
137.6542895
 11
265.87747200000001
 21
137.79570749999999
  0
LINE
  8
_0-0_0
  6
CONTINUOUS
 62
    7
 10
265.87747200000001
 20
137.6542895
 11
265.87747200000001
 21
137.5250015
  0
LINE
  8
_0-0_0
  6
CONTINUOUS
 62
    7
 10
265.87747200000001
 20
136.82500450000001
 11
265.87747200000001
 21
137.5250015
  0
LINE
  8
_0-0_0
  6
CONTINUOUS
 62
    7
 10
265.87747200000001
 20
136.6957165
 11
265.87747200000001
 21
136.82500450000001
  0
LINE
  8
_0-0_0
  6
CONTINUOUS
 62
    7
 10
265.87747200000001
 20
136.55429850000002
 11
265.87747200000001
 21
136.6957165
  0
LINE
  8
_0-0_0
  6
CONTINUOUS
 62
    7
 10
265.87747200000001
 20
136.55429850000002
 11
265.87747200000001
 21
136.42499549999999
  0
LINE
  8
_0-0_0
  6
CONTINUOUS
 62
    7
 10
265.87747200000001
 20
135.7249985
 11
265.87747200000001
 21
136.42499549999999
  0
LINE
  8
_0-0_0
  6
CONTINUOUS
 62
    7
 10
265.87747200000001
 20
135.5957105
 11
265.87747200000001
 21
135.7249985
  0
LINE
  8
_0-0_0
  6
CONTINUOUS
 62
    7
 10
265.87747200000001
 20
135.45429250000001
 11
265.87747200000001
 21
135.5957105
  0
LINE
  8
_0-0_0
  6
CONTINUOUS
 62
    7
 10
265.87747200000001
 20
135.45429250000001
 11
265.87747200000001
 21
135.32500450000001
  0
LINE
  8
_0-0_0
  6
CONTINUOUS
 62
    7
 10
265.87747200000001
 20
134.62500750000001
 11
265.87747200000001
 21
135.32500450000001
  0
LINE
  8
_0-0_0
  6
CONTINUOUS
 62
    7
 10
265.87747200000001
 20
134.49570449999999
 11
265.87747200000001
 21
134.62500750000001
  0
LINE
  8
_0-0_0
  6
CONTINUOUS
 62
    7
 10
265.87747200000001
 20
134.3542865
 11
265.87747200000001
 21
134.49570449999999
  0
LINE
  8
_0-0_0
  6
CONTINUOUS
 62
    7
 10
265.87747200000001
 20
134.3542865
 11
265.87747200000001
 21
134.2249985
  0
LINE
  8
_0-0_0
  6
CONTINUOUS
 62
    7
 10
265.87747200000001
 20
133.5250015
 11
265.87747200000001
 21
134.2249985
  0
LINE
  8
_0-0_0
  6
CONTINUOUS
 62
    7
 10
265.87747200000001
 20
133.3957135
 11
265.87747200000001
 21
133.5250015
  0
LINE
  8
_0-0_0
  6
CONTINUOUS
 62
    7
 10
265.87747200000001
 20
133.25429550000001
 11
265.87747200000001
 21
133.3957135
  0
LINE
  8
_0-0_0
  6
CONTINUOUS
 62
    7
 10
265.87747200000001
 20
119.42499550000001
 11
265.87747200000001
 21
119.92499550000001
  0
LINE
  8
_0-0_0
  6
CONTINUOUS
 62
    7
 10
265.87747200000001
 20
147.92499549999999
 11
265.87747200000001
 21
147.33103149999999
  0
LINE
  8
_0-0_0
  6
CONTINUOUS
 62
    7
 10
265.87747200000001
 20
142.32500450000001
 11
265.87747200000001
 21
147.33103149999999
  0
LINE
  8
_0-0_0
  6
CONTINUOUS
 62
    7
 10
265.87747200000001
 20
142.1957165
 11
265.87747200000001
 21
142.32500450000001
  0
LINE
  8
_0-0_0
  6
CONTINUOUS
 62
    7
 10
12.877471999999983
 20
119.42499550000001
 11
12.877471999999983
 21
119.92499550000001
  0
LINE
  8
_0-0_0
  6
CONTINUOUS
 62
    7
 10
12.877471999999983
 20
119.42499550000001
 11
265.87747200000001
 21
119.42499550000001
  0
LINE
  8
_0-0_0
  6
CONTINUOUS
 62
    7
 10
12.877471999999983
 20
133.25429550000001
 11
12.877471999999983
 21
133.3957135
  0
LINE
  8
_0-0_0
  6
CONTINUOUS
 62
    7
 10
12.877471999999983
 20
133.25429550000001
 11
12.877471999999983
 21
133.12500750000001
  0
LINE
  8
_0-0_0
  6
CONTINUOUS
 62
    7
 10
12.877471999999983
 20
147.92499549999999
 11
12.877471999999983
 21
147.33103149999999
  0
LINE
  8
_0-0_0
  6
CONTINUOUS
 62
    7
 10
12.877471999999983
 20
142.32500450000001
 11
12.877471999999983
 21
147.33103149999999
  0
LINE
  8
_0-0_0
  6
CONTINUOUS
 62
    7
 10
12.877471999999983
 20
142.1957165
 11
12.877471999999983
 21
142.32500450000001
  0
LINE
  8
_0-0_0
  6
CONTINUOUS
 62
    7
 10
12.877471999999983
 20
142.05429850000002
 11
12.877471999999983
 21
142.1957165
  0
LINE
  8
_0-0_0
  6
CONTINUOUS
 62
    7
 10
12.877471999999983
 20
142.05429850000002
 11
12.877471999999983
 21
141.92499549999999
  0
LINE
  8
_0-0_0
  6
CONTINUOUS
 62
    7
 10
12.877471999999983
 20
141.2249985
 11
12.877471999999983
 21
141.92499549999999
  0
LINE
  8
_0-0_0
  6
CONTINUOUS
 62
    7
 10
12.877471999999983
 20
141.0957105
 11
12.877471999999983
 21
141.2249985
  0
LINE
  8
_0-0_0
  6
CONTINUOUS
 62
    7
 10
12.877471999999983
 20
140.95429250000001
 11
12.877471999999983
 21
141.0957105
  0
LINE
  8
_0-0_0
  6
CONTINUOUS
 62
    7
 10
12.877471999999983
 20
140.95429250000001
 11
12.877471999999983
 21
140.82500450000001
  0
LINE
  8
_0-0_0
  6
CONTINUOUS
 62
    7
 10
12.877471999999983
 20
140.12500750000001
 11
12.877471999999983
 21
140.82500450000001
  0
LINE
  8
_0-0_0
  6
CONTINUOUS
 62
    7
 10
12.877471999999983
 20
139.99570449999999
 11
12.877471999999983
 21
140.12500750000001
  0
LINE
  8
_0-0_0
  6
CONTINUOUS
 62
    7
 10
12.877471999999983
 20
139.8542865
 11
12.877471999999983
 21
139.99570449999999
  0
LINE
  8
_0-0_0
  6
CONTINUOUS
 62
    7
 10
12.877471999999983
 20
139.8542865
 11
12.877471999999983
 21
139.7249985
  0
LINE
  8
_0-0_0
  6
CONTINUOUS
 62
    7
 10
12.877471999999983
 20
139.0250015
 11
12.877471999999983
 21
139.7249985
  0
LINE
  8
_0-0_0
  6
CONTINUOUS
 62
    7
 10
12.877471999999983
 20
138.8957135
 11
12.877471999999983
 21
139.0250015
  0
LINE
  8
_0-0_0
  6
CONTINUOUS
 62
    7
 10
12.877471999999983
 20
138.75429550000001
 11
12.877471999999983
 21
138.8957135
  0
LINE
  8
_0-0_0
  6
CONTINUOUS
 62
    7
 10
12.877471999999983
 20
138.75429550000001
 11
12.877471999999983
 21
138.62500750000001
  0
LINE
  8
_0-0_0
  6
CONTINUOUS
 62
    7
 10
12.877471999999983
 20
137.92499549999999
 11
12.877471999999983
 21
138.62500750000001
  0
LINE
  8
_0-0_0
  6
CONTINUOUS
 62
    7
 10
12.877471999999983
 20
137.79570749999999
 11
12.877471999999983
 21
137.92499549999999
  0
LINE
  8
_0-0_0
  6
CONTINUOUS
 62
    7
 10
12.877471999999983
 20
137.6542895
 11
12.877471999999983
 21
137.79570749999999
  0
LINE
  8
_0-0_0
  6
CONTINUOUS
 62
    7
 10
12.877471999999983
 20
137.6542895
 11
12.877471999999983
 21
137.5250015
  0
LINE
  8
_0-0_0
  6
CONTINUOUS
 62
    7
 10
12.877471999999983
 20
136.82500450000001
 11
12.877471999999983
 21
137.5250015
  0
LINE
  8
_0-0_0
  6
CONTINUOUS
 62
    7
 10
12.877471999999983
 20
136.6957165
 11
12.877471999999983
 21
136.82500450000001
  0
LINE
  8
_0-0_0
  6
CONTINUOUS
 62
    7
 10
12.877471999999983
 20
136.55429850000002
 11
12.877471999999983
 21
136.6957165
  0
LINE
  8
_0-0_0
  6
CONTINUOUS
 62
    7
 10
12.877471999999983
 20
136.55429850000002
 11
12.877471999999983
 21
136.42499549999999
  0
LINE
  8
_0-0_0
  6
CONTINUOUS
 62
    7
 10
12.877471999999983
 20
135.7249985
 11
12.877471999999983
 21
136.42499549999999
  0
LINE
  8
_0-0_0
  6
CONTINUOUS
 62
    7
 10
12.877471999999983
 20
135.5957105
 11
12.877471999999983
 21
135.7249985
  0
LINE
  8
_0-0_0
  6
CONTINUOUS
 62
    7
 10
12.877471999999983
 20
135.45429250000001
 11
12.877471999999983
 21
135.5957105
  0
LINE
  8
_0-0_0
  6
CONTINUOUS
 62
    7
 10
12.877471999999983
 20
135.45429250000001
 11
12.877471999999983
 21
135.32500450000001
  0
LINE
  8
_0-0_0
  6
CONTINUOUS
 62
    7
 10
12.877471999999983
 20
134.62500750000001
 11
12.877471999999983
 21
135.32500450000001
  0
LINE
  8
_0-0_0
  6
CONTINUOUS
 62
    7
 10
12.877471999999983
 20
134.49570449999999
 11
12.877471999999983
 21
134.62500750000001
  0
LINE
  8
_0-0_0
  6
CONTINUOUS
 62
    7
 10
12.877471999999983
 20
134.3542865
 11
12.877471999999983
 21
134.49570449999999
  0
LINE
  8
_0-0_0
  6
CONTINUOUS
 62
    7
 10
12.877471999999983
 20
134.3542865
 11
12.877471999999983
 21
134.2249985
  0
LINE
  8
_0-0_0
  6
CONTINUOUS
 62
    7
 10
12.877471999999983
 20
133.5250015
 11
12.877471999999983
 21
134.2249985
  0
LINE
  8
_0-0_0
  6
CONTINUOUS
 62
    7
 10
12.877471999999983
 20
133.3957135
 11
12.877471999999983
 21
133.5250015
  0
LINE
  8
_0-0_0
  6
CONTINUOUS
 62
    7
 10
183.377487
 20
125.42499549999999
 11
190.377487
 21
125.42499549999999
  0
ARC
  8
_0-0_0
  6
CONTINUOUS
 62
    7
 10
183.377487
 20
124.9250105
 40
0.5
 50
90.000003000000007
 51
180.00000900000001
  0
LINE
  8
_0-0_0
  6
CONTINUOUS
 62
    7
 10
182.877487
 20
124.9250105
 11
182.877487
 21
120.9250105
  0
ARC
  8
_0-0_0
  6
CONTINUOUS
 62
    7
 10
183.377487
 20
120.9250105
 40
0.5
 50
180.00000900000003
 51
269.99999700000001
  0
LINE
  8
_0-0_0
  6
CONTINUOUS
 62
    7
 10
190.377487
 20
120.4250105
 11
183.377487
 21
120.4250105
  0
ARC
  8
_0-0_0
  6
CONTINUOUS
 62
    7
 10
190.377487
 20
120.9250105
 40
0.5
 50
269.99999700000001
 51
0
  0
LINE
  8
_0-0_0
  6
CONTINUOUS
 62
    7
 10
190.877487
 20
120.9250105
 11
190.877487
 21
124.9250105
  0
ARC
  8
_0-0_0
  6
CONTINUOUS
 62
    7
 10
190.377487
 20
124.9250105
 40
0.5
 50
0
 51
90.000003000000007
  0
ARC
  8
_0-0_0
  6
CONTINUOUS
 62
    7
 10
63.377471999999983
 20
124.9250105
 40
0.5
 50
90.000003000000007
 51
180.00000900000001
  0
LINE
  8
_0-0_0
  6
CONTINUOUS
 62
    7
 10
62.877471999999983
 20
124.9250105
 11
62.877471999999983
 21
120.9250105
  0
ARC
  8
_0-0_0
  6
CONTINUOUS
 62
    7
 10
63.377471999999983
 20
120.9250105
 40
0.5
 50
180.00000900000003
 51
269.99999700000001
  0
LINE
  8
_0-0_0
  6
CONTINUOUS
 62
    7
 10
70.377471999999983
 20
120.4250105
 11
63.377471999999983
 21
120.4250105
  0
ARC
  8
_0-0_0
  6
CONTINUOUS
 62
    7
 10
70.377471999999983
 20
120.9250105
 40
0.5
 50
269.99999700000001
 51
0
  0
LINE
  8
_0-0_0
  6
CONTINUOUS
 62
    7
 10
70.877471999999983
 20
120.9250105
 11
70.877471999999983
 21
124.9250105
  0
ARC
  8
_0-0_0
  6
CONTINUOUS
 62
    7
 10
70.377471999999983
 20
124.9250105
 40
0.5
 50
0
 51
90.000003000000007
  0
LINE
  8
_0-0_0
  6
CONTINUOUS
 62
    7
 10
63.377471999999983
 20
125.42499549999999
 11
70.377471999999983
 21
125.42499549999999
  0
LINE
  8
_0-0_0
  6
CONTINUOUS
 62
    7
 10
12.877471999999983
 20
133.5250015
 11
15.068648999999994
 21
133.5250015
  0
LINE
  8
_0-0_0
  6
CONTINUOUS
 62
    7
 10
12.877471999999983
 20
134.2249985
 11
14.683730999999995
 21
134.2249985
  0
LINE
  8
_0-0_0
  6
CONTINUOUS
 62
    7
 10
12.877471999999983
 20
134.62500750000001
 11
14.502517999999995
 21
134.62500750000001
  0
LINE
  8
_0-0_0
  6
CONTINUOUS
 62
    7
 10
12.877471999999983
 20
135.32500450000001
 11
14.245955999999993
 21
135.32500450000001
  0
LINE
  8
_0-0_0
  6
CONTINUOUS
 62
    7
 10
12.877471999999983
 20
135.7249985
 11
14.131499999999988
 21
135.7249985
  0
LINE
  8
_0-0_0
  6
CONTINUOUS
 62
    7
 10
12.877471999999983
 20
136.42499549999999
 11
13.983809999999991
 21
136.42499549999999
  0
LINE
  8
_0-0_0
  6
CONTINUOUS
 62
    7
 10
12.877471999999983
 20
136.82500450000001
 11
13.928252999999984
 21
136.82500450000001
  0
LINE
  8
_0-0_0
  6
CONTINUOUS
 62
    7
 10
12.877471999999983
 20
137.5250015
 11
13.87997399999999
 21
137.5250015
  0
LINE
  8
_0-0_0
  6
CONTINUOUS
 62
    7
 10
13.877471999999983
 20
137.7249985
 11
13.877791999999985
 21
137.79570749999999
  0
LINE
  8
_0-0_0
  6
CONTINUOUS
 62
    7
 10
29.877471999999983
 20
137.7249985
 11
29.877166999999986
 21
137.79570749999999
  0
LINE
  8
_0-0_0
  6
CONTINUOUS
 62
    7
 10
29.874968999999993
 20
137.92499549999999
 11
29.877166999999986
 21
137.79570749999999
  0
ARC
  8
_0-0_0
  6
CONTINUOUS
 62
    7
 10
21.877471999999983
 20
137.7249985
 40
8
 50
1.432544
 51
6.4594489999999993
  0
LINE
  8
_0-0_0
  6
CONTINUOUS
 62
    7
 10
29.810988999999992
 20
138.75429550000001
 11
29.826690999999983
 21
138.62500750000001
  0
LINE
  8
_0-0_0
  6
CONTINUOUS
 62
    7
 10
29.810988999999992
 20
138.75429550000001
 11
29.791350999999992
 21
138.8957135
  0
LINE
  8
_0-0_0
  6
CONTINUOUS
 62
    7
 10
29.771148999999994
 20
139.0250015
 11
29.791350999999992
 21
138.8957135
  0
ARC
  8
_0-0_0
  6
CONTINUOUS
 62
    7
 10
21.877471999999983
 20
137.7249985
 40
8
 50
9.3520350000000008
 51
14.477510999999998
  0
LINE
  8
_0-0_0
  6
CONTINUOUS
 62
    7
 10
29.588897999999986
 20
139.8542865
 11
29.623443999999992
 21
139.7249985
  0
LINE
  8
_0-0_0
  6
CONTINUOUS
 62
    7
 10
29.588897999999986
 20
139.8542865
 11
29.548446999999982
 21
139.99570449999999
  0
LINE
  8
_0-0_0
  6
CONTINUOUS
 62
    7
 10
29.508986999999991
 20
140.12500750000001
 11
29.548446999999982
 21
139.99570449999999
  0
ARC
  8
_0-0_0
  6
CONTINUOUS
 62
    7
 10
21.877471999999983
 20
137.7249985
 40
8
 50
17.457602999999999
 51
22.799030999999999
  0
LINE
  8
_0-0_0
  6
CONTINUOUS
 62
    7
 10
29.196746999999988
 20
140.95429250000001
 11
29.252425999999986
 21
140.82500450000001
  0
LINE
  8
_0-0_0
  6
CONTINUOUS
 62
    7
 10
29.196746999999988
 20
140.95429250000001
 11
29.132705999999985
 21
141.0957105
  0
LINE
  8
_0-0_0
  6
CONTINUOUS
 62
    7
 10
29.071227999999991
 20
141.2249985
 11
29.132705999999985
 21
141.0957105
  0
ARC
  8
_0-0_0
  6
CONTINUOUS
 62
    7
 10
21.877471999999983
 20
137.7249985
 40
8
 50
25.944476999999999
 51
31.668240000000001
  0
LINE
  8
_0-0_0
  6
CONTINUOUS
 62
    7
 10
28.604827999999983
 20
142.05429850000002
 11
28.68629399999999
 21
141.92499549999999
  0
LINE
  8
_0-0_0
  6
CONTINUOUS
 62
    7
 10
28.604827999999983
 20
142.05429850000002
 11
28.511687999999992
 21
142.1957165
  0
LINE
  8
_0-0_0
  6
CONTINUOUS
 62
    7
 10
28.422698999999994
 20
142.32500450000001
 11
28.511687999999992
 21
142.1957165
  0
ARC
  8
_0-0_0
  6
CONTINUOUS
 62
    7
 10
21.877471999999983
 20
137.7249985
 40
8
 50
35.099632
 51
144.900373
  0
LINE
  8
_0-0_0
  6
CONTINUOUS
 62
    7
 10
15.332244999999986
 20
142.32500450000001
 11
15.243270999999993
 21
142.1957165
  0
LINE
  8
_0-0_0
  6
CONTINUOUS
 62
    7
 10
15.150115999999983
 20
142.05429850000002
 11
15.243270999999993
 21
142.1957165
  0
LINE
  8
_0-0_0
  6
CONTINUOUS
 62
    7
 10
15.150115999999983
 20
142.05429850000002
 11
15.068648999999994
 21
141.92499549999999
  0
ARC
  8
_0-0_0
  6
CONTINUOUS
 62
    7
 10
21.877471999999983
 20
137.7249985
 40
8
 50
148.33176499999999
 51
154.05551800000001
  0
LINE
  8
_0-0_0
  6
CONTINUOUS
 62
    7
 10
14.683730999999995
 20
141.2249985
 11
14.622252999999986
 21
141.0957105
  0
LINE
  8
_0-0_0
  6
CONTINUOUS
 62
    7
 10
14.558211999999983
 20
140.95429250000001
 11
14.622252999999986
 21
141.0957105
  0
LINE
  8
_0-0_0
  6
CONTINUOUS
 62
    7
 10
14.558211999999983
 20
140.95429250000001
 11
14.502517999999995
 21
140.82500450000001
  0
ARC
  8
_0-0_0
  6
CONTINUOUS
 62
    7
 10
21.877471999999983
 20
137.7249985
 40
8
 50
157.20097000000001
 51
162.54239699999999
  0
LINE
  8
_0-0_0
  6
CONTINUOUS
 62
    7
 10
14.245955999999993
 20
140.12500750000001
 11
14.206496999999985
 21
139.99570449999999
  0
LINE
  8
_0-0_0
  6
CONTINUOUS
 62
    7
 10
14.166045999999994
 20
139.8542865
 11
14.206496999999985
 21
139.99570449999999
  0
LINE
  8
_0-0_0
  6
CONTINUOUS
 62
    7
 10
14.166045999999994
 20
139.8542865
 11
14.131499999999988
 21
139.7249985
  0
ARC
  8
_0-0_0
  6
CONTINUOUS
 62
    7
 10
21.877471999999983
 20
137.7249985
 40
8
 50
165.52249
 51
170.64796000000001
  0
LINE
  8
_0-0_0
  6
CONTINUOUS
 62
    7
 10
13.983809999999991
 20
139.0250015
 11
13.963591999999991
 21
138.8957135
  0
LINE
  8
_0-0_0
  6
CONTINUOUS
 62
    7
 10
13.943969999999993
 20
138.75429550000001
 11
13.963591999999991
 21
138.8957135
  0
LINE
  8
_0-0_0
  6
CONTINUOUS
 62
    7
 10
13.943969999999993
 20
138.75429550000001
 11
13.928252999999984
 21
138.62500750000001
  0
ARC
  8
_0-0_0
  6
CONTINUOUS
 62
    7
 10
21.877471999999983
 20
137.7249985
 40
8
 50
173.54054500000001
 51
178.567455
  0
LINE
  8
_0-0_0
  6
CONTINUOUS
 62
    7
 10
13.87997399999999
 20
137.92499549999999
 11
13.877791999999985
 21
137.79570749999999
  0
CIRCLE
  8
_0-0_0
  6
CONTINUOUS
 62
    7
 10
21.877471999999983
 20
137.7249985
 40
7.5
  0
LINE
  8
_0-0_0
  6
CONTINUOUS
 62
    7
 10
248.87747200000001
 20
137.7249985
 11
248.87777699999998
 21
137.79570749999999
  0
LINE
  8
_0-0_0
  6
CONTINUOUS
 62
    7
 10
29.874968999999993
 20
137.5250015
 11
248.879974
 21
137.5250015
  0
LINE
  8
_0-0_0
  6
CONTINUOUS
 62
    7
 10
29.826690999999983
 20
136.82500450000001
 11
248.92825299999998
 21
136.82500450000001
  0
LINE
  8
_0-0_0
  6
CONTINUOUS
 62
    7
 10
29.771148999999994
 20
136.42499549999999
 11
248.98382599999997
 21
136.42499549999999
  0
LINE
  8
_0-0_0
  6
CONTINUOUS
 62
    7
 10
29.623443999999992
 20
135.7249985
 11
249.13150000000002
 21
135.7249985
  0
LINE
  8
_0-0_0
  6
CONTINUOUS
 62
    7
 10
29.508986999999991
 20
135.32500450000001
 11
249.24597199999999
 21
135.32500450000001
  0
LINE
  8
_0-0_0
  6
CONTINUOUS
 62
    7
 10
29.252425999999986
 20
134.62500750000001
 11
249.50253299999997
 21
134.62500750000001
  0
LINE
  8
_0-0_0
  6
CONTINUOUS
 62
    7
 10
29.071227999999991
 20
134.2249985
 11
249.68374599999999
 21
134.2249985
  0
LINE
  8
_0-0_0
  6
CONTINUOUS
 62
    7
 10
28.68629399999999
 20
133.5250015
 11
250.06866400000001
 21
133.5250015
  0
LINE
  8
_0-0_0
  6
CONTINUOUS
 62
    7
 10
264.87747200000001
 20
137.7249985
 11
264.87716699999999
 21
137.79570749999999
  0
LINE
  8
_0-0_0
  6
CONTINUOUS
 62
    7
 10
264.87496899999996
 20
137.5250015
 11
265.87747200000001
 21
137.5250015
  0
LINE
  8
_0-0_0
  6
CONTINUOUS
 62
    7
 10
264.82669099999998
 20
136.82500450000001
 11
265.87747200000001
 21
136.82500450000001
  0
LINE
  8
_0-0_0
  6
CONTINUOUS
 62
    7
 10
264.77114899999998
 20
136.42499549999999
 11
265.87747200000001
 21
136.42499549999999
  0
LINE
  8
_0-0_0
  6
CONTINUOUS
 62
    7
 10
264.62344400000001
 20
135.7249985
 11
265.87747200000001
 21
135.7249985
  0
LINE
  8
_0-0_0
  6
CONTINUOUS
 62
    7
 10
264.50900300000001
 20
135.32500450000001
 11
265.87747200000001
 21
135.32500450000001
  0
LINE
  8
_0-0_0
  6
CONTINUOUS
 62
    7
 10
264.25244099999998
 20
134.62500750000001
 11
265.87747200000001
 21
134.62500750000001
  0
LINE
  8
_0-0_0
  6
CONTINUOUS
 62
    7
 10
264.07122799999996
 20
134.2249985
 11
265.87747200000001
 21
134.2249985
  0
LINE
  8
_0-0_0
  6
CONTINUOUS
 62
    7
 10
263.68630999999999
 20
133.5250015
 11
265.87747200000001
 21
133.5250015
  0
LINE
  8
_0-0_0
  6
CONTINUOUS
 62
    7
 10
263.42269899999997
 20
142.32500450000001
 11
263.51168799999999
 21
142.1957165
  0
ARC
  8
_0-0_0
  6
CONTINUOUS
 62
    7
 10
256.87747200000001
 20
137.7249985
 40
8
 50
35.099632
 51
144.900373
  0
LINE
  8
_0-0_0
  6
CONTINUOUS
 62
    7
 10
250.332245
 20
142.32500450000001
 11
250.24325599999997
 21
142.1957165
  0
LINE
  8
_0-0_0
  6
CONTINUOUS
 62
    7
 10
250.15011599999997
 20
142.05429850000002
 11
250.24325599999997
 21
142.1957165
  0
LINE
  8
_0-0_0
  6
CONTINUOUS
 62
    7
 10
250.15011599999997
 20
142.05429850000002
 11
250.06866400000001
 21
141.92499549999999
  0
ARC
  8
_0-0_0
  6
CONTINUOUS
 62
    7
 10
256.87747200000001
 20
137.7249985
 40
8
 50
148.33176499999999
 51
154.05551800000001
  0
LINE
  8
_0-0_0
  6
CONTINUOUS
 62
    7
 10
249.68374599999999
 20
141.2249985
 11
249.622253
 21
141.0957105
  0
LINE
  8
_0-0_0
  6
CONTINUOUS
 62
    7
 10
249.55819700000001
 20
140.95429250000001
 11
249.622253
 21
141.0957105
  0
LINE
  8
_0-0_0
  6
CONTINUOUS
 62
    7
 10
249.55819700000001
 20
140.95429250000001
 11
249.50253299999997
 21
140.82500450000001
  0
ARC
  8
_0-0_0
  6
CONTINUOUS
 62
    7
 10
256.87747200000001
 20
137.7249985
 40
8
 50
157.20097000000001
 51
162.54239699999999
  0
LINE
  8
_0-0_0
  6
CONTINUOUS
 62
    7
 10
249.24597199999999
 20
140.12500750000001
 11
249.20651199999998
 21
139.99570449999999
  0
LINE
  8
_0-0_0
  6
CONTINUOUS
 62
    7
 10
249.16604599999999
 20
139.8542865
 11
249.20651199999998
 21
139.99570449999999
  0
LINE
  8
_0-0_0
  6
CONTINUOUS
 62
    7
 10
249.16604599999999
 20
139.8542865
 11
249.13150000000002
 21
139.7249985
  0
ARC
  8
_0-0_0
  6
CONTINUOUS
 62
    7
 10
256.87747200000001
 20
137.7249985
 40
8
 50
165.52249
 51
170.64796000000001
  0
LINE
  8
_0-0_0
  6
CONTINUOUS
 62
    7
 10
248.98382599999997
 20
139.0250015
 11
248.96359200000001
 21
138.8957135
  0
LINE
  8
_0-0_0
  6
CONTINUOUS
 62
    7
 10
248.94396999999998
 20
138.75429550000001
 11
248.96359200000001
 21
138.8957135
  0
LINE
  8
_0-0_0
  6
CONTINUOUS
 62
    7
 10
248.94396999999998
 20
138.75429550000001
 11
248.92825299999998
 21
138.62500750000001
  0
ARC
  8
_0-0_0
  6
CONTINUOUS
 62
    7
 10
256.87747200000001
 20
137.7249985
 40
8
 50
173.54054500000001
 51
178.567455
  0
LINE
  8
_0-0_0
  6
CONTINUOUS
 62
    7
 10
248.879974
 20
137.92499549999999
 11
248.87777699999998
 21
137.79570749999999
  0
LINE
  8
_0-0_0
  6
CONTINUOUS
 62
    7
 10
264.87496899999996
 20
137.92499549999999
 11
264.87716699999999
 21
137.79570749999999
  0
ARC
  8
_0-0_0
  6
CONTINUOUS
 62
    7
 10
256.87747200000001
 20
137.7249985
 40
8
 50
1.432544
 51
6.4594489999999993
  0
LINE
  8
_0-0_0
  6
CONTINUOUS
 62
    7
 10
264.81097399999999
 20
138.75429550000001
 11
264.82669099999998
 21
138.62500750000001
  0
LINE
  8
_0-0_0
  6
CONTINUOUS
 62
    7
 10
264.81097399999999
 20
138.75429550000001
 11
264.79135099999996
 21
138.8957135
  0
LINE
  8
_0-0_0
  6
CONTINUOUS
 62
    7
 10
264.77114899999998
 20
139.0250015
 11
264.79135099999996
 21
138.8957135
  0
ARC
  8
_0-0_0
  6
CONTINUOUS
 62
    7
 10
256.87747200000001
 20
137.7249985
 40
8
 50
9.3520350000000008
 51
14.477510999999998
  0
LINE
  8
_0-0_0
  6
CONTINUOUS
 62
    7
 10
264.58889799999997
 20
139.8542865
 11
264.62344400000001
 21
139.7249985
  0
LINE
  8
_0-0_0
  6
CONTINUOUS
 62
    7
 10
264.58889799999997
 20
139.8542865
 11
264.54846199999997
 21
139.99570449999999
  0
LINE
  8
_0-0_0
  6
CONTINUOUS
 62
    7
 10
264.50900300000001
 20
140.12500750000001
 11
264.54846199999997
 21
139.99570449999999
  0
ARC
  8
_0-0_0
  6
CONTINUOUS
 62
    7
 10
256.87747200000001
 20
137.7249985
 40
8
 50
17.457602999999999
 51
22.799030999999999
  0
LINE
  8
_0-0_0
  6
CONTINUOUS
 62
    7
 10
264.19674700000002
 20
140.95429250000001
 11
264.25244099999998
 21
140.82500450000001
  0
LINE
  8
_0-0_0
  6
CONTINUOUS
 62
    7
 10
264.19674700000002
 20
140.95429250000001
 11
264.132721
 21
141.0957105
  0
LINE
  8
_0-0_0
  6
CONTINUOUS
 62
    7
 10
264.07122799999996
 20
141.2249985
 11
264.132721
 21
141.0957105
  0
ARC
  8
_0-0_0
  6
CONTINUOUS
 62
    7
 10
256.87747200000001
 20
137.7249985
 40
8
 50
25.944476999999999
 51
31.668240000000001
  0
LINE
  8
_0-0_0
  6
CONTINUOUS
 62
    7
 10
263.604828
 20
142.05429850000002
 11
263.68630999999999
 21
141.92499549999999
  0
LINE
  8
_0-0_0
  6
CONTINUOUS
 62
    7
 10
263.604828
 20
142.05429850000002
 11
263.51168799999999
 21
142.1957165
  0
CIRCLE
  8
_0-0_0
  6
CONTINUOUS
 62
    7
 10
256.87747200000001
 20
137.7249985
 40
7.5
  0
LINE
  8
_0-0_0
  6
CONTINUOUS
 62
    7
 10
263.68630999999999
 20
141.92499549999999
 11
265.87747200000001
 21
141.92499549999999
  0
LINE
  8
_0-0_0
  6
CONTINUOUS
 62
    7
 10
264.07122799999996
 20
141.2249985
 11
265.87747200000001
 21
141.2249985
  0
LINE
  8
_0-0_0
  6
CONTINUOUS
 62
    7
 10
264.25244099999998
 20
140.82500450000001
 11
265.87747200000001
 21
140.82500450000001
  0
LINE
  8
_0-0_0
  6
CONTINUOUS
 62
    7
 10
264.50900300000001
 20
140.12500750000001
 11
265.87747200000001
 21
140.12500750000001
  0
LINE
  8
_0-0_0
  6
CONTINUOUS
 62
    7
 10
264.62344400000001
 20
139.7249985
 11
265.87747200000001
 21
139.7249985
  0
LINE
  8
_0-0_0
  6
CONTINUOUS
 62
    7
 10
264.77114899999998
 20
139.0250015
 11
265.87747200000001
 21
139.0250015
  0
LINE
  8
_0-0_0
  6
CONTINUOUS
 62
    7
 10
264.82669099999998
 20
138.62500750000001
 11
265.87747200000001
 21
138.62500750000001
  0
LINE
  8
_0-0_0
  6
CONTINUOUS
 62
    7
 10
264.87496899999996
 20
137.92499549999999
 11
265.87747200000001
 21
137.92499549999999
  0
LINE
  8
_0-0_0
  6
CONTINUOUS
 62
    7
 10
266.37747200000001
 20
121.2249985
 11
265.87747200000001
 21
121.2249985
  0
LINE
  8
_0-0_0
  6
CONTINUOUS
 62
    7
 10
266.37747200000001
 20
123.4250105
 11
265.87747200000001
 21
123.4250105
  0
LINE
  8
_0-0_0
  6
CONTINUOUS
 62
    7
 10
266.37747200000001
 20
125.7249985
 11
265.87747200000001
 21
125.7249985
  0
LINE
  8
_0-0_0
  6
CONTINUOUS
 62
    7
 10
265.87747200000001
 20
128.0250015
 11
266.37747200000001
 21
128.0250015
  0
LINE
  8
_0-0_0
  6
CONTINUOUS
 62
    7
 10
266.37747200000001
 20
148.2249985
 11
266.37747200000001
 21
148.12500750000001
  0
LINE
  8
_0-0_0
  6
CONTINUOUS
 62
    7
 10
12.377471999999983
 20
148.2249985
 11
12.377471999999983
 21
148.12500750000001
  0
LINE
  8
_0-0_0
  6
CONTINUOUS
 62
    7
 10
12.377471999999983
 20
128.0250015
 11
12.877471999999983
 21
128.0250015
  0
LINE
  8
_0-0_0
  6
CONTINUOUS
 62
    7
 10
12.877471999999983
 20
147.92499549999999
 11
265.87747200000001
 21
147.92499549999999
  0
LINE
  8
_0-0_0
  6
CONTINUOUS
 62
    7
 10
12.877471999999983
 20
147.33103149999999
 11
265.87747200000001
 21
147.33103149999999
  0
LINE
  8
_0-0_0
  6
CONTINUOUS
 62
    7
 10
28.422698999999994
 20
142.32500450000001
 11
250.332245
 21
142.32500450000001
  0
LINE
  8
_0-0_0
  6
CONTINUOUS
 62
    7
 10
263.42269899999997
 20
142.32500450000001
 11
265.87747200000001
 21
142.32500450000001
  0
LINE
  8
_0-0_0
  6
CONTINUOUS
 62
    7
 10
12.877471999999983
 20
142.32500450000001
 11
15.332244999999986
 21
142.32500450000001
  0
LINE
  8
_0-0_0
  6
CONTINUOUS
 62
    7
 10
12.377471999999983
 20
121.2249985
 11
12.877471999999983
 21
121.2249985
  0
LINE
  8
_0-0_0
  6
CONTINUOUS
 62
    7
 10
12.377471999999983
 20
123.4250105
 11
12.877471999999983
 21
123.4250105
  0
LINE
  8
_0-0_0
  6
CONTINUOUS
 62
    7
 10
12.377471999999983
 20
125.7249985
 11
12.877471999999983
 21
125.7249985
  0
LINE
  8
_0-0_0
  6
CONTINUOUS
 62
    7
 10
12.877471999999983
 20
141.92499549999999
 11
15.068648999999994
 21
141.92499549999999
  0
LINE
  8
_0-0_0
  6
CONTINUOUS
 62
    7
 10
12.877471999999983
 20
141.2249985
 11
14.683730999999995
 21
141.2249985
  0
LINE
  8
_0-0_0
  6
CONTINUOUS
 62
    7
 10
12.877471999999983
 20
140.82500450000001
 11
14.502517999999995
 21
140.82500450000001
  0
LINE
  8
_0-0_0
  6
CONTINUOUS
 62
    7
 10
12.877471999999983
 20
140.12500750000001
 11
14.245955999999993
 21
140.12500750000001
  0
LINE
  8
_0-0_0
  6
CONTINUOUS
 62
    7
 10
12.877471999999983
 20
139.7249985
 11
14.131499999999988
 21
139.7249985
  0
LINE
  8
_0-0_0
  6
CONTINUOUS
 62
    7
 10
12.877471999999983
 20
139.0250015
 11
13.983809999999991
 21
139.0250015
  0
LINE
  8
_0-0_0
  6
CONTINUOUS
 62
    7
 10
12.877471999999983
 20
138.62500750000001
 11
13.928252999999984
 21
138.62500750000001
  0
LINE
  8
_0-0_0
  6
CONTINUOUS
 62
    7
 10
12.877471999999983
 20
137.92499549999999
 11
13.87997399999999
 21
137.92499549999999
  0
LINE
  8
_0-0_0
  6
CONTINUOUS
 62
    7
 10
28.68629399999999
 20
141.92499549999999
 11
250.06866400000001
 21
141.92499549999999
  0
LINE
  8
_0-0_0
  6
CONTINUOUS
 62
    7
 10
29.071227999999991
 20
141.2249985
 11
249.68374599999999
 21
141.2249985
  0
LINE
  8
_0-0_0
  6
CONTINUOUS
 62
    7
 10
29.252425999999986
 20
140.82500450000001
 11
249.50253299999997
 21
140.82500450000001
  0
LINE
  8
_0-0_0
  6
CONTINUOUS
 62
    7
 10
29.508986999999991
 20
140.12500750000001
 11
249.24597199999999
 21
140.12500750000001
  0
LINE
  8
_0-0_0
  6
CONTINUOUS
 62
    7
 10
29.623443999999992
 20
139.7249985
 11
249.13150000000002
 21
139.7249985
  0
LINE
  8
_0-0_0
  6
CONTINUOUS
 62
    7
 10
29.771148999999994
 20
139.0250015
 11
248.98382599999997
 21
139.0250015
  0
LINE
  8
_0-0_0
  6
CONTINUOUS
 62
    7
 10
29.826690999999983
 20
138.62500750000001
 11
248.92825299999998
 21
138.62500750000001
  0
LINE
  8
_0-0_0
  6
CONTINUOUS
 62
    7
 10
29.874968999999993
 20
137.92499549999999
 11
248.879974
 21
137.92499549999999
  0
LINE
  8
_0-0_0
  6
CONTINUOUS
 62
    7
 10
266.37747200000001
 20
119.7249985
 11
265.87747200000001
 21
119.7249985
  0
LINE
  8
_0-0_0
  6
CONTINUOUS
 62
    7
 10
266.37747200000001
 20
147.32500450000001
 11
266.37747200000001
 21
148.12500750000001
  0
LINE
  8
_0-0_0
  6
CONTINUOUS
 62
    7
 10
266.37747200000001
 20
119.5250015
 11
266.37747200000001
 21
147.32500450000001
  0
LINE
  8
_0-0_0
  6
CONTINUOUS
 62
    7
 10
12.377471999999983
 20
147.32500450000001
 11
12.377471999999983
 21
148.12500750000001
  0
LINE
  8
_0-0_0
  6
CONTINUOUS
 62
    7
 10
12.377471999999983
 20
119.5250015
 11
12.377471999999983
 21
147.32500450000001
  0
ARC
  8
_0-0_0
  6
CONTINUOUS
 62
    7
 10
21.877471999999983
 20
138.42499549999999
 40
12.800000000000001
 50
73.932597000000001
 51
106.06740099999999
  0
ARC
  8
_0-0_0
  6
CONTINUOUS
 62
    7
 10
256.87747200000001
 20
138.42499549999999
 40
12.800000000000001
 50
73.932597000000001
 51
106.06740099999999
  0
LINE
  8
_0-0_0
  6
CONTINUOUS
 62
    7
 10
266.37747200000001
 20
148.2249985
 11
266.37747200000001
 21
150.7249985
  0
LINE
  8
_0-0_0
  6
CONTINUOUS
 62
    7
 10
12.377471999999983
 20
150.7249985
 11
266.37747200000001
 21
150.7249985
  0
LINE
  8
_0-0_0
  6
CONTINUOUS
 62
    7
 10
12.377471999999983
 20
148.2249985
 11
12.377471999999983
 21
150.7249985
  0
LINE
  8
_0-0_0
  6
CONTINUOUS
 62
    7
 10
12.377471999999983
 20
119.7249985
 11
12.877471999999983
 21
119.7249985
  0
ARC
  8
_0-0_0
  6
CONTINUOUS
 62
    7
 10
188.17748999999998
 20
124.6250075
 40
0.2
 50
339.62356199999999
 51
90.000002999999978
  0
LINE
  8
_0-0_0
  6
CONTINUOUS
 62
    7
 10
188.36497499999999
 20
124.55536650000001
 11
187.06497199999998
 21
121.05536650000001
  0
ARC
  8
_0-0_0
  6
CONTINUOUS
 62
    7
 10
186.877487
 20
121.1250075
 40
0.2
 50
200.37643
 51
339.62356199999999
  0
LINE
  8
_0-0_0
  6
CONTINUOUS
 62
    7
 10
185.38999899999999
 20
124.55536650000001
 11
186.69000199999999
 21
121.05536650000001
  0
ARC
  8
_0-0_0
  6
CONTINUOUS
 62
    7
 10
185.577484
 20
124.6250075
 40
0.2
 50
90.000003000000007
 51
200.37643
  0
LINE
  8
_0-0_0
  6
CONTINUOUS
 62
    7
 10
185.577484
 20
124.82500450000001
 11
188.17748999999998
 21
124.82500450000001
  0
ARC
  8
_0-0_0
  6
CONTINUOUS
 62
    7
 10
68.177474999999987
 20
124.6250075
 40
0.2
 50
339.62356199999999
 51
90.000002999999978
  0
LINE
  8
_0-0_0
  6
CONTINUOUS
 62
    7
 10
68.364959999999982
 20
124.55536650000001
 11
67.064956999999993
 21
121.05536650000001
  0
ARC
  8
_0-0_0
  6
CONTINUOUS
 62
    7
 10
66.877471999999983
 20
121.1250075
 40
0.2
 50
200.37643
 51
339.62356199999999
  0
LINE
  8
_0-0_0
  6
CONTINUOUS
 62
    7
 10
65.389983999999984
 20
124.55536650000001
 11
66.689986999999988
 21
121.05536650000001
  0
ARC
  8
_0-0_0
  6
CONTINUOUS
 62
    7
 10
65.577468999999994
 20
124.6250075
 40
0.2
 50
90.000003000000007
 51
200.37643
  0
LINE
  8
_0-0_0
  6
CONTINUOUS
 62
    7
 10
65.577468999999994
 20
124.82500450000001
 11
68.177474999999987
 21
124.82500450000001
  0
CIRCLE
  8
_0-0_0
  6
CONTINUOUS
 62
    7
 10
21.877471999999983
 20
137.7249985
 40
5
  0
CIRCLE
  8
_0-0_0
  6
CONTINUOUS
 62
    7
 10
256.87747200000001
 20
137.7249985
 40
5
  0
LINE
  8
_0-0_0
  6
CONTINUOUS
 62
    7
 10
267.37747200000001
 20
147.32500450000001
 11
266.37747200000001
 21
147.32500450000001
  0
LINE
  8
_0-0_0
  6
CONTINUOUS
 62
    7
 10
267.37747200000001
 20
148.3619765
 11
266.37747200000001
 21
148.3619765
  0
LINE
  8
_0-0_0
  6
CONTINUOUS
 62
    7
 10
267.37747200000001
 20
119.5250015
 11
266.37747200000001
 21
119.5250015
  0
LINE
  8
_0-0_0
  6
CONTINUOUS
 62
    7
 10
11.377471999999983
 20
147.32500450000001
 11
12.377471999999983
 21
147.32500450000001
  0
LINE
  8
_0-0_0
  6
CONTINUOUS
 62
    7
 10
11.377471999999983
 20
148.32500450000001
 11
12.377471999999983
 21
148.32500450000001
  0
LINE
  8
_0-0_0
  6
CONTINUOUS
 62
    7
 10
11.377471999999983
 20
119.5250015
 11
12.377471999999983
 21
119.5250015
  0
LINE
  8
_0-0_0
  6
CONTINUOUS
 62
    7
 10
267.37747200000001
 20
150.5250015
 11
266.37747200000001
 21
150.5250015
  0
LINE
  8
_0-0_0
  6
CONTINUOUS
 62
    7
 10
11.377471999999983
 20
150.5250015
 11
12.377471999999983
 21
150.5250015
  0
LINE
  8
_0-0_0
  6
CONTINUOUS
 62
    7
 10
268.37747200000001
 20
146.91078949999999
 11
268.376465
 21
146.92929850000002
  0
LINE
  8
_0-0_0
  6
CONTINUOUS
 62
    7
 10
268.376465
 20
146.92929850000002
 11
268.37347399999999
 21
146.94773050000001
  0
LINE
  8
_0-0_0
  6
CONTINUOUS
 62
    7
 10
268.37347399999999
 20
146.94773050000001
 11
268.368225
 21
146.96686550000001
  0
LINE
  8
_0-0_0
  6
CONTINUOUS
 62
    7
 10
268.368225
 20
146.96686550000001
 11
268.36086999999998
 21
146.98587750000002
  0
LINE
  8
_0-0_0
  6
CONTINUOUS
 62
    7
 10
268.36086999999998
 20
146.98587750000002
 11
268.34030100000001
 21
147.0226055
  0
LINE
  8
_0-0_0
  6
CONTINUOUS
 62
    7
 10
268.34030100000001
 20
147.0226055
 11
268.31191999999999
 21
147.05829650000001
  0
LINE
  8
_0-0_0
  6
CONTINUOUS
 62
    7
 10
268.31191999999999
 20
147.05829650000001
 11
268.27603099999999
 21
147.0925675
  0
LINE
  8
_0-0_0
  6
CONTINUOUS
 62
    7
 10
268.27603099999999
 20
147.0925675
 11
268.227417
 21
147.12903550000001
  0
LINE
  8
_0-0_0
  6
CONTINUOUS
 62
    7
 10
268.227417
 20
147.12903550000001
 11
268.17062399999998
 21
147.1630475
  0
LINE
  8
_0-0_0
  6
CONTINUOUS
 62
    7
 10
268.17062399999998
 20
147.1630475
 11
268.10647599999999
 21
147.1942975
  0
LINE
  8
_0-0_0
  6
CONTINUOUS
 62
    7
 10
268.10647599999999
 20
147.1942975
 11
268.03582799999998
 21
147.22254150000001
  0
LINE
  8
_0-0_0
  6
CONTINUOUS
 62
    7
 10
268.03582799999998
 20
147.22254150000001
 11
267.98776199999998
 21
147.2388995
  0
LINE
  8
_0-0_0
  6
CONTINUOUS
 62
    7
 10
267.98776199999998
 20
147.2388995
 11
267.93762199999998
 21
147.25389849999999
  0
LINE
  8
_0-0_0
  6
CONTINUOUS
 62
    7
 10
267.93762199999998
 20
147.25389849999999
 11
267.88092
 21
147.26866950000002
  0
LINE
  8
_0-0_0
  6
CONTINUOUS
 62
    7
 10
267.88092
 20
147.26866950000002
 11
267.82232699999997
 21
147.28176150000002
  0
LINE
  8
_0-0_0
  6
CONTINUOUS
 62
    7
 10
267.82232699999997
 20
147.28176150000002
 11
267.705536
 21
147.30207050000001
  0
LINE
  8
_0-0_0
  6
CONTINUOUS
 62
    7
 10
267.705536
 20
147.30207050000001
 11
267.59811400000001
 21
147.3147965
  0
LINE
  8
_0-0_0
  6
CONTINUOUS
 62
    7
 10
267.59811400000001
 20
147.3147965
 11
267.48834199999999
 21
147.3224415
  0
LINE
  8
_0-0_0
  6
CONTINUOUS
 62
    7
 10
267.48834199999999
 20
147.3224415
 11
267.37747200000001
 21
147.32500450000001
  0
LINE
  8
_0-0_0
  6
CONTINUOUS
 62
    7
 10
268.37747200000001
 20
146.91078949999999
 11
268.37747200000001
 21
147.91085050000001
  0
LINE
  8
_0-0_0
  6
CONTINUOUS
 62
    7
 10
268.37747200000001
 20
147.91085050000001
 11
268.374573
 21
147.9424205
  0
LINE
  8
_0-0_0
  6
CONTINUOUS
 62
    7
 10
268.374573
 20
147.9424205
 11
268.36584499999998
 21
147.97449449999999
  0
LINE
  8
_0-0_0
  6
CONTINUOUS
 62
    7
 10
268.36584499999998
 20
147.97449449999999
 11
268.35128800000001
 21
148.0067675
  0
LINE
  8
_0-0_0
  6
CONTINUOUS
 62
    7
 10
268.35128800000001
 20
148.0067675
 11
268.33105499999999
 21
148.03893250000002
  0
LINE
  8
_0-0_0
  6
CONTINUOUS
 62
    7
 10
268.33105499999999
 20
148.03893250000002
 11
268.31448399999999
 21
148.0601575
  0
LINE
  8
_0-0_0
  6
CONTINUOUS
 62
    7
 10
268.31448399999999
 20
148.0601575
 11
268.29553199999998
 21
148.0811085
  0
LINE
  8
_0-0_0
  6
CONTINUOUS
 62
    7
 10
268.29553199999998
 20
148.0811085
 11
268.25079299999999
 21
148.1218945
  0
LINE
  8
_0-0_0
  6
CONTINUOUS
 62
    7
 10
268.25079299999999
 20
148.1218945
 11
268.19754
 21
148.1606525
  0
LINE
  8
_0-0_0
  6
CONTINUOUS
 62
    7
 10
268.19754
 20
148.1606525
 11
268.14761299999998
 21
148.19084950000001
  0
LINE
  8
_0-0_0
  6
CONTINUOUS
 62
    7
 10
268.14761299999998
 20
148.19084950000001
 11
268.09292599999998
 21
148.21906250000001
  0
LINE
  8
_0-0_0
  6
CONTINUOUS
 62
    7
 10
268.09292599999998
 20
148.21906250000001
 11
268.03393499999999
 21
148.24509449999999
  0
LINE
  8
_0-0_0
  6
CONTINUOUS
 62
    7
 10
268.03393499999999
 20
148.24509449999999
 11
267.98718300000002
 21
148.26309950000001
  0
LINE
  8
_0-0_0
  6
CONTINUOUS
 62
    7
 10
267.98718300000002
 20
148.26309950000001
 11
267.93850700000002
 21
148.27970150000002
  0
LINE
  8
_0-0_0
  6
CONTINUOUS
 62
    7
 10
267.93850700000002
 20
148.27970150000002
 11
267.83612099999999
 21
148.3085705
  0
LINE
  8
_0-0_0
  6
CONTINUOUS
 62
    7
 10
267.83612099999999
 20
148.3085705
 11
267.728363
 21
148.3314135
  0
LINE
  8
_0-0_0
  6
CONTINUOUS
 62
    7
 10
267.728363
 20
148.3314135
 11
267.61676
 21
148.34799950000001
  0
LINE
  8
_0-0_0
  6
CONTINUOUS
 62
    7
 10
267.61676
 20
148.34799950000001
 11
267.50268499999999
 21
148.3581925
  0
LINE
  8
_0-0_0
  6
CONTINUOUS
 62
    7
 10
267.50268499999999
 20
148.3581925
 11
267.37747200000001
 21
148.3619765
  0
ARC
  8
_0-0_0
  6
CONTINUOUS
 62
    7
 10
267.37747200000001
 20
120.5250015
 40
1
 50
269.99999700000001
 51
0
  0
LINE
  8
_0-0_0
  6
CONTINUOUS
 62
    7
 10
268.37747200000001
 20
120.5250015
 11
268.37747200000001
 21
146.91078949999999
  0
LINE
  8
_0-0_0
  6
CONTINUOUS
 62
    7
 10
10.377471999999983
 20
146.91078949999999
 11
10.378478999999984
 21
146.92929850000002
  0
LINE
  8
_0-0_0
  6
CONTINUOUS
 62
    7
 10
10.378478999999984
 20
146.92929850000002
 11
10.381469999999993
 21
146.94773050000001
  0
LINE
  8
_0-0_0
  6
CONTINUOUS
 62
    7
 10
10.381469999999993
 20
146.94773050000001
 11
10.386702999999983
 21
146.96686550000001
  0
LINE
  8
_0-0_0
  6
CONTINUOUS
 62
    7
 10
10.386702999999983
 20
146.96686550000001
 11
10.394088999999994
 21
146.98587750000002
  0
LINE
  8
_0-0_0
  6
CONTINUOUS
 62
    7
 10
10.394088999999994
 20
146.98587750000002
 11
10.414641999999986
 21
147.0226055
  0
LINE
  8
_0-0_0
  6
CONTINUOUS
 62
    7
 10
10.414641999999986
 20
147.0226055
 11
10.443038999999985
 21
147.05829650000001
  0
LINE
  8
_0-0_0
  6
CONTINUOUS
 62
    7
 10
10.443038999999985
 20
147.05829650000001
 11
10.478911999999994
 21
147.0925675
  0
LINE
  8
_0-0_0
  6
CONTINUOUS
 62
    7
 10
10.478911999999994
 20
147.0925675
 11
10.527541999999983
 21
147.12903550000001
  0
LINE
  8
_0-0_0
  6
CONTINUOUS
 62
    7
 10
10.527541999999983
 20
147.12903550000001
 11
10.584319999999991
 21
147.1630475
  0
LINE
  8
_0-0_0
  6
CONTINUOUS
 62
    7
 10
10.584319999999991
 20
147.1630475
 11
10.648467999999994
 21
147.1942975
  0
LINE
  8
_0-0_0
  6
CONTINUOUS
 62
    7
 10
10.648467999999994
 20
147.1942975
 11
10.719115999999985
 21
147.22254150000001
  0
LINE
  8
_0-0_0
  6
CONTINUOUS
 62
    7
 10
10.719115999999985
 20
147.22254150000001
 11
10.767196999999982
 21
147.2388995
  0
LINE
  8
_0-0_0
  6
CONTINUOUS
 62
    7
 10
10.767196999999982
 20
147.2388995
 11
10.81732199999999
 21
147.25389849999999
  0
LINE
  8
_0-0_0
  6
CONTINUOUS
 62
    7
 10
10.81732199999999
 20
147.25389849999999
 11
10.874022999999994
 21
147.26866950000002
  0
LINE
  8
_0-0_0
  6
CONTINUOUS
 62
    7
 10
10.874022999999994
 20
147.26866950000002
 11
10.932631999999984
 21
147.28176150000002
  0
LINE
  8
_0-0_0
  6
CONTINUOUS
 62
    7
 10
10.932631999999984
 20
147.28176150000002
 11
11.04942299999999
 21
147.30207050000001
  0
LINE
  8
_0-0_0
  6
CONTINUOUS
 62
    7
 10
11.04942299999999
 20
147.30207050000001
 11
11.156829999999985
 21
147.3147965
  0
LINE
  8
_0-0_0
  6
CONTINUOUS
 62
    7
 10
11.156829999999985
 20
147.3147965
 11
11.26658599999999
 21
147.3224415
  0
LINE
  8
_0-0_0
  6
CONTINUOUS
 62
    7
 10
11.26658599999999
 20
147.3224415
 11
11.377471999999983
 21
147.32500450000001
  0
LINE
  8
_0-0_0
  6
CONTINUOUS
 62
    7
 10
10.377471999999983
 20
147.88045450000001
 11
10.380370999999982
 21
147.91135450000002
  0
LINE
  8
_0-0_0
  6
CONTINUOUS
 62
    7
 10
10.380370999999982
 20
147.91135450000002
 11
10.389068999999992
 21
147.94278750000001
  0
LINE
  8
_0-0_0
  6
CONTINUOUS
 62
    7
 10
10.389068999999992
 20
147.94278750000001
 11
10.403548999999984
 21
147.97446450000001
  0
LINE
  8
_0-0_0
  6
CONTINUOUS
 62
    7
 10
10.403548999999984
 20
147.97446450000001
 11
10.423705999999981
 21
148.00605050000001
  0
LINE
  8
_0-0_0
  6
CONTINUOUS
 62
    7
 10
10.423705999999981
 20
148.00605050000001
 11
10.440230999999983
 21
148.02692450000001
  0
LINE
  8
_0-0_0
  6
CONTINUOUS
 62
    7
 10
10.440230999999983
 20
148.02692450000001
 11
10.459136999999984
 21
148.04755349999999
  0
LINE
  8
_0-0_0
  6
CONTINUOUS
 62
    7
 10
10.459136999999984
 20
148.04755349999999
 11
10.503783999999982
 21
148.08769950000001
  0
LINE
  8
_0-0_0
  6
CONTINUOUS
 62
    7
 10
10.503783999999982
 20
148.08769950000001
 11
10.556899999999985
 21
148.12589249999999
  0
LINE
  8
_0-0_0
  6
CONTINUOUS
 62
    7
 10
10.556899999999985
 20
148.12589249999999
 11
10.606795999999989
 21
148.1557085
  0
LINE
  8
_0-0_0
  6
CONTINUOUS
 62
    7
 10
10.606795999999989
 20
148.1557085
 11
10.661467999999985
 21
148.18358649999999
  0
LINE
  8
_0-0_0
  6
CONTINUOUS
 62
    7
 10
10.661467999999985
 20
148.18358649999999
 11
10.720443999999986
 21
148.2093275
  0
LINE
  8
_0-0_0
  6
CONTINUOUS
 62
    7
 10
10.720443999999986
 20
148.2093275
 11
10.767211999999986
 21
148.22711950000001
  0
LINE
  8
_0-0_0
  6
CONTINUOUS
 62
    7
 10
10.767211999999986
 20
148.22711950000001
 11
10.815917999999982
 21
148.2435375
  0
LINE
  8
_0-0_0
  6
CONTINUOUS
 62
    7
 10
10.815917999999982
 20
148.2435375
 11
10.91834999999999
 21
148.27211750000001
  0
LINE
  8
_0-0_0
  6
CONTINUOUS
 62
    7
 10
10.91834999999999
 20
148.27211750000001
 11
11.026168999999982
 21
148.2947155
  0
LINE
  8
_0-0_0
  6
CONTINUOUS
 62
    7
 10
11.026168999999982
 20
148.2947155
 11
11.137847999999991
 21
148.31113450000001
  0
LINE
  8
_0-0_0
  6
CONTINUOUS
 62
    7
 10
11.137847999999991
 20
148.31113450000001
 11
11.252013999999988
 21
148.3212355
  0
LINE
  8
_0-0_0
  6
CONTINUOUS
 62
    7
 10
11.252013999999988
 20
148.3212355
 11
11.377471999999983
 21
148.32500450000001
  0
LINE
  8
_0-0_0
  6
CONTINUOUS
 62
    7
 10
10.377471999999983
 20
146.91078949999999
 11
10.377471999999983
 21
147.88045450000001
  0
ARC
  8
_0-0_0
  6
CONTINUOUS
 62
    7
 10
11.377471999999983
 20
120.5250015
 40
1
 50
180.00000900000003
 51
269.99999700000001
  0
LINE
  8
_0-0_0
  6
CONTINUOUS
 62
    7
 10
10.377471999999983
 20
120.5250015
 11
10.377471999999983
 21
146.91078949999999
  0
LINE
  8
_0-0_0
  6
CONTINUOUS
 62
    7
 10
268.37747200000001
 20
147.91085050000001
 11
268.37747200000001
 21
149.5250015
  0
ARC
  8
_0-0_0
  6
CONTINUOUS
 62
    7
 10
267.37747200000001
 20
149.5250015
 40
1
 50
0
 51
90.000003000000007
  0
ARC
  8
_0-0_0
  6
CONTINUOUS
 62
    7
 10
11.377471999999983
 20
149.5250015
 40
1
 50
90.000003000000007
 51
180.00000900000001
  0
LINE
  8
_0-0_0
  6
CONTINUOUS
 62
    7
 10
10.377471999999983
 20
147.88045450000001
 11
10.377471999999983
 21
149.5250015
  0
LINE
  8
_0-0_0
  6
CONTINUOUS
 62
    7
 10
-17.532398000000015
 20
119.52501650000001
 11
-17.532398000000015
 21
118.9250105
  0
LINE
  8
_0-0_0
  6
CONTINUOUS
 62
    7
 10
-15.032398000000015
 20
113.6800155
 11
-15.032398000000015
 21
115.9250105
  0
LINE
  8
_0-0_0
  6
CONTINUOUS
 62
    7
 10
-14.032398000000015
 20
115.9250105
 11
-14.032398000000015
 21
117.9250105
  0
ARC
  8
_0-0_0
  6
CONTINUOUS
 62
    7
 10
-14.532398000000015
 20
117.9250105
 40
0.5
 50
0
 51
90.000003000000007
  0
LINE
  8
_0-0_0
  6
CONTINUOUS
 62
    7
 10
-14.532398000000015
 20
118.4250105
 11
-16.032398000000015
 21
118.4250105
  0
ARC
  8
_0-0_0
  6
CONTINUOUS
 62
    7
 10
-16.032398000000015
 20
119.42499550000001
 40
1
 50
180.00000900000003
 51
269.99999700000001
  0
LINE
  8
_0-0_0
  6
CONTINUOUS
 62
    7
 10
-17.032398000000015
 20
119.52501650000001
 11
-17.032398000000015
 21
119.42499550000001
  0
ARC
  8
_0-0_0
  6
CONTINUOUS
 62
    7
 10
-16.032398000000015
 20
118.9250105
 40
1.5
 50
180.00000900000003
 51
269.99999700000001
  0
LINE
  8
_0-0_0
  6
CONTINUOUS
 62
    7
 10
-16.032398000000015
 20
117.4250105
 11
-16.732395000000011
 21
117.4250105
  0
ARC
  8
_0-0_0
  6
CONTINUOUS
 62
    7
 10
-16.732395000000011
 20
118.4250105
 40
1
 50
180.00000900000003
 51
269.99999700000001
  0
LINE
  8
_0-0_0
  6
CONTINUOUS
 62
    7
 10
-17.732395000000011
 20
119.42499550000001
 11
-17.732395000000011
 21
118.4250105
  0
LINE
  8
_0-0_0
  6
CONTINUOUS
 62
    7
 10
-25.932396000000011
 20
118.4250105
 11
-25.932396000000011
 21
119.4250105
  0
ARC
  8
_0-0_0
  6
CONTINUOUS
 62
    7
 10
-26.932396000000011
 20
118.4250105
 40
1
 50
269.99999700000001
 51
0
  0
LINE
  8
_0-0_0
  6
CONTINUOUS
 62
    7
 10
-26.932396000000011
 20
117.4250105
 11
-27.132397000000026
 21
117.4250105
  0
ARC
  8
_0-0_0
  6
CONTINUOUS
 62
    7
 10
-27.132397000000026
 20
118.4250105
 40
1
 50
269.99999700000001
 51
0
  0
LINE
  8
_0-0_0
  6
CONTINUOUS
 62
    7
 10
-26.132397000000026
 20
118.4250105
 11
-26.132397000000026
 21
119.52501650000001
  0
LINE
  8
_0-0_0
  6
CONTINUOUS
 62
    7
 10
-26.632397000000026
 20
119.4250105
 11
-26.632397000000026
 21
119.52501650000001
  0
ARC
  8
_0-0_0
  6
CONTINUOUS
 62
    7
 10
-27.632397000000026
 20
119.4250105
 40
1
 50
269.99999700000001
 51
0
  0
LINE
  8
_0-0_0
  6
CONTINUOUS
 62
    7
 10
-27.632397000000026
 20
118.4250105
 11
-29.132397000000026
 21
118.4250105
  0
ARC
  8
_0-0_0
  6
CONTINUOUS
 62
    7
 10
-29.132397000000026
 20
117.9250105
 40
0.5
 50
90.000003000000007
 51
180.00000900000001
  0
LINE
  8
_0-0_0
  6
CONTINUOUS
 62
    7
 10
-29.632397000000026
 20
117.9250105
 11
-29.632397000000026
 21
115.9250105
  0
LINE
  8
_0-0_0
  6
CONTINUOUS
 62
    7
 10
-28.632397000000026
 20
113.6800155
 11
-28.632397000000026
 21
115.9250105
  0
LINE
  8
_0-0_0
  6
CONTINUOUS
 62
    7
 10
-30.532396000000006
 20
95.325004500000006
 11
-30.532396000000006
 21
113.6800155
  0
LINE
  8
_0-0_0
  6
CONTINUOUS
 62
    7
 10
-13.732395000000011
 20
95.325004500000006
 11
-13.732395000000011
 21
113.6800155
  0
CIRCLE
  8
_0-0_0
  6
CONTINUOUS
 62
    7
 10
-21.832398000000012
 20
115.9250105
 40
2.0499999999999998
  0
LINE
  8
_0-0_0
  6
CONTINUOUS
 62
    7
 10
-13.732395000000011
 20
117.4250105
 11
-13.732395000000011
 21
117.4000015
  0
LINE
  8
_0-0_0
  6
CONTINUOUS
 62
    7
 10
-13.732395000000011
 20
114.17995450000001
 11
-13.732395000000011
 21
114.45000450000001
  0
LINE
  8
_0-0_0
  6
CONTINUOUS
 62
    7
 10
-13.732395000000011
 20
113.6800155
 11
-13.732395000000011
 21
114.1800155
  0
LINE
  8
_0-0_0
  6
CONTINUOUS
 62
    7
 10
-13.732395000000011
 20
93.325004500000006
 11
-13.732395000000011
 21
95.325004500000006
  0
LINE
  8
_0-0_0
  6
CONTINUOUS
 62
    7
 10
-30.532396000000006
 20
93.325004500000006
 11
-30.532396000000006
 21
95.325004500000006
  0
LINE
  8
_0-0_0
  6
CONTINUOUS
 62
    7
 10
-30.532396000000006
 20
93.325004500000006
 11
-13.732395000000011
 21
93.325004500000006
  0
LINE
  8
_0-0_0
  6
CONTINUOUS
 62
    7
 10
-30.532396000000006
 20
117.4250105
 11
-30.532396000000006
 21
115.9250105
  0
LINE
  8
_0-0_0
  6
CONTINUOUS
 62
    7
 10
-30.532396000000006
 20
114.18000050000001
 11
-30.532396000000006
 21
115.9250105
  0
LINE
  8
_0-0_0
  6
CONTINUOUS
 62
    7
 10
-30.532396000000006
 20
113.6800155
 11
-30.532396000000006
 21
114.1800155
  0
LINE
  8
_0-0_0
  6
CONTINUOUS
 62
    7
 10
-29.632397000000026
 20
114.1800765
 11
-29.632397000000026
 21
115.9250105
  0
ARC
  8
_0-0_0
  6
CONTINUOUS
 62
    7
 10
-15.332398000000012
 20
95.425010499999999
 40
2
 50
323.13010300000002
 51
0.0000000000000127
  0
LINE
  8
_0-0_0
  6
CONTINUOUS
 62
    7
 10
-13.332398000000012
 20
95.425010499999999
 11
-13.332398000000012
 21
96.825065500000008
  0
LINE
  8
_0-0_0
  6
CONTINUOUS
 62
    7
 10
-13.032398000000015
 20
101.9146805
 11
-13.032398000000015
 21
112.36269350000001
  0
LINE
  8
_0-0_0
  6
CONTINUOUS
 62
    7
 10
-13.032398000000015
 20
113.3254925
 11
-13.032398000000015
 21
115.5601425
  0
LINE
  8
_0-0_0
  6
CONTINUOUS
 62
    7
 10
-30.532396000000006
 20
117.4250105
 11
-29.632397000000026
 21
117.4250105
  0
LINE
  8
_0-0_0
  6
CONTINUOUS
 62
    7
 10
-30.632397000000026
 20
96.825004500000006
 11
-30.532396000000006
 21
96.825004500000006
  0
LINE
  8
_0-0_0
  6
CONTINUOUS
 62
    7
 10
-30.632397000000026
 20
96.825004500000006
 11
-30.632397000000026
 21
101.9146805
  0
LINE
  8
_0-0_0
  6
CONTINUOUS
 62
    7
 10
-30.632397000000026
 20
112.36270950000001
 11
-30.632397000000026
 21
113.3254925
  0
LINE
  8
_0-0_0
  6
CONTINUOUS
 62
    7
 10
-30.632397000000026
 20
116.4250105
 11
-30.532396000000006
 21
116.4250105
  0
LINE
  8
_0-0_0
  6
CONTINUOUS
 62
    7
 10
-30.632397000000026
 20
115.5601425
 11
-30.632397000000026
 21
116.4250105
  0
LINE
  8
_0-0_0
  6
CONTINUOUS
 62
    7
 10
-30.632397000000026
 20
113.3254925
 11
-30.632397000000026
 21
115.5601425
  0
LINE
  8
_0-0_0
  6
CONTINUOUS
 62
    7
 10
-30.632397000000026
 20
101.9146805
 11
-30.632397000000026
 21
112.36270950000001
  0
LINE
  8
_0-0_0
  6
CONTINUOUS
 62
    7
 10
-30.332396000000017
 20
115.3137435
 11
-30.332396000000017
 21
117.20000450000001
  0
LINE
  8
_0-0_0
  6
CONTINUOUS
 62
    7
 10
-30.332396000000017
 20
114.6500015
 11
-30.332396000000017
 21
115.3137435
  0
LINE
  8
_0-0_0
  6
CONTINUOUS
 62
    7
 10
-13.332398000000012
 20
116.5362775
 11
-13.332398000000012
 21
114.6503065
  0
LINE
  8
_0-0_0
  6
CONTINUOUS
 62
    7
 10
-13.332398000000012
 20
117.1916275
 11
-13.332398000000012
 21
116.5362775
  0
LINE
  8
_0-0_0
  6
CONTINUOUS
 62
    7
 10
-13.032398000000015
 20
96.825004500000006
 11
-13.032398000000015
 21
101.9146805
  0
LINE
  8
_0-0_0
  6
CONTINUOUS
 62
    7
 10
-13.032398000000015
 20
115.5601425
 11
-13.032398000000015
 21
116.4250105
  0
LINE
  8
_0-0_0
  6
CONTINUOUS
 62
    7
 10
-13.032398000000015
 20
112.36269350000001
 11
-13.032398000000015
 21
113.3254925
  0
LINE
  8
_0-0_0
  6
CONTINUOUS
 62
    7
 10
-13.032398000000015
 20
116.4250105
 11
-13.332401000000004
 21
116.4250105
  0
LINE
  8
_0-0_0
  6
CONTINUOUS
 62
    7
 10
-13.032398000000015
 20
96.825004500000006
 11
-13.732395000000011
 21
96.825004500000006
  0
LINE
  8
_0-0_0
  6
CONTINUOUS
 62
    7
 10
-13.732395000000011
 20
117.4250105
 11
-14.032398000000015
 21
117.4250105
  0
LINE
  8
_0-0_0
  6
CONTINUOUS
 62
    7
 10
-14.032398000000015
 20
115.9250105
 11
-14.032398000000015
 21
114.1800765
  0
LINE
  8
_0-0_0
  6
CONTINUOUS
 62
    7
 10
-17.732395000000011
 20
119.42499550000001
 11
-17.732395000000011
 21
119.52507750000001
  0
LINE
  8
_0-0_0
  6
CONTINUOUS
 62
    7
 10
-25.932396000000011
 20
119.52507750000001
 11
-25.932396000000011
 21
119.4250105
  0
LINE
  8
_0-0_0
  6
CONTINUOUS
 62
    7
 10
-15.032398000000015
 20
114.1800155
 11
-13.732395000000011
 21
114.1800155
  0
ARC
  8
_0-0_0
  6
CONTINUOUS
 62
    7
 10
-29.832396000000017
 20
117.20000450000001
 40
0.2
 50
359.91222800000003
 51
89.999948000000003
  0
ARC
  8
_0-0_0
  6
CONTINUOUS
 62
    7
 10
-29.832501000000008
 20
114.6501545
 40
0.200169
 50
270.02985900000004
 51
2.3526610000000452
  0
LINE
  8
_0-0_0
  6
CONTINUOUS
 62
    7
 10
-30.132397000000026
 20
117.4000015
 11
-29.832396000000017
 21
117.4000015
  0
LINE
  8
_0-0_0
  6
CONTINUOUS
 62
    7
 10
-30.132397000000026
 20
114.45000450000001
 11
-29.832396000000017
 21
114.45000450000001
  0
ARC
  8
_0-0_0
  6
CONTINUOUS
 62
    7
 10
-30.132292000000007
 20
117.19985150000001
 40
0.200169
 50
90.029849999999996
 51
182.352667
  0
ARC
  8
_0-0_0
  6
CONTINUOUS
 62
    7
 10
-30.132395000000002
 20
114.6500015
 40
0.2
 50
179.912237
 51
269.99994299999997
  0
ARC
  8
_0-0_0
  6
CONTINUOUS
 62
    7
 10
-13.832295000000016
 20
114.6501545
 40
0.200169
 50
177.647333
 51
269.97013600000002
  0
ARC
  8
_0-0_0
  6
CONTINUOUS
 62
    7
 10
-13.832394000000022
 20
117.20000450000001
 40
0.2
 50
90.000049999999987
 51
180.08776299999997
  0
LINE
  8
_0-0_0
  6
CONTINUOUS
 62
    7
 10
-13.532398000000015
 20
114.45000450000001
 11
-13.832398000000012
 21
114.45000450000001
  0
LINE
  8
_0-0_0
  6
CONTINUOUS
 62
    7
 10
-13.532398000000015
 20
117.4000015
 11
-13.832398000000012
 21
117.4000015
  0
ARC
  8
_0-0_0
  6
CONTINUOUS
 62
    7
 10
-13.532398000000015
 20
114.6500015
 40
0.2
 50
270.00005199999998
 51
0.0877600000000175
  0
ARC
  8
_0-0_0
  6
CONTINUOUS
 62
    7
 10
-13.532501000000011
 20
117.19985150000001
 40
0.200169
 50
357.64733799999999
 51
89.970147999999995
  0
LINE
  8
_0-0_0
  6
CONTINUOUS
 62
    7
 10
-30.532396000000006
 20
114.1800155
 11
-28.632397000000026
 21
114.1800155
  0
LINE
  8
_0-0_0
  6
CONTINUOUS
 62
    7
 10
-13.032398000000015
 20
119.92499550000001
 11
-13.032398000000015
 21
133.12500750000001
  0
ARC
  8
_0-0_0
  6
CONTINUOUS
 62
    7
 10
-13.532398000000015
 20
119.92499550000001
 40
0.5
 50
269.99999700000001
 51
0
  0
ARC
  8
_0-0_0
  6
CONTINUOUS
 62
    7
 10
-13.090977000000009
 20
133.32500450000001
 40
0.1
 50
135
 51
225
  0
LINE
  8
_0-0_0
  6
CONTINUOUS
 62
    7
 10
-13.161686000000003
 20
133.25429550000001
 11
-13.032398000000015
 21
133.12500750000001
  0
LINE
  8
_0-0_0
  6
CONTINUOUS
 62
    7
 10
-13.532398000000015
 20
119.42499550000001
 11
-15.432396000000011
 21
119.42499550000001
  0
ARC
  8
_0-0_0
  6
CONTINUOUS
 62
    7
 10
-15.432396000000011
 20
119.92499550000001
 40
0.5
 50
233.12990600000001
 51
269.99999700000001
  0
ARC
  8
_0-0_0
  6
CONTINUOUS
 62
    7
 10
-28.132397000000026
 20
119.9250105
 40
0.5
 50
269.99999700000001
 51
306.87009999999998
  0
LINE
  8
_0-0_0
  6
CONTINUOUS
 62
    7
 10
-28.132397000000026
 20
119.4250105
 11
-30.032396000000006
 21
119.4250105
  0
ARC
  8
_0-0_0
  6
CONTINUOUS
 62
    7
 10
-30.032396000000006
 20
119.9250105
 40
0.5
 50
180.00000900000003
 51
269.99999700000001
  0
LINE
  8
_0-0_0
  6
CONTINUOUS
 62
    7
 10
-30.532396000000006
 20
129.3599925
 11
-30.532396000000006
 21
119.9250105
  0
LINE
  8
_0-0_0
  6
CONTINUOUS
 62
    7
 10
-30.532396000000006
 20
129.3599925
 11
-29.832398000000012
 21
129.3599925
  0
LINE
  8
_0-0_0
  6
CONTINUOUS
 62
    7
 10
-13.832394000000022
 20
147.92499549999999
 11
-13.626366000000019
 21
147.92499549999999
  0
LINE
  8
_0-0_0
  6
CONTINUOUS
 62
    7
 10
-13.626366000000019
 20
147.92499549999999
 11
-13.032398000000015
 21
147.33103149999999
  0
LINE
  8
_0-0_0
  6
CONTINUOUS
 62
    7
 10
-13.032398000000015
 20
142.32500450000001
 11
-13.032398000000015
 21
147.33103149999999
  0
LINE
  8
_0-0_0
  6
CONTINUOUS
 62
    7
 10
-13.161686000000003
 20
142.1957165
 11
-13.032398000000015
 21
142.32500450000001
  0
ARC
  8
_0-0_0
  6
CONTINUOUS
 62
    7
 10
-13.090977000000009
 20
142.12500750000001
 40
0.1
 50
135
 51
225
  0
LINE
  8
_0-0_0
  6
CONTINUOUS
 62
    7
 10
-13.161686000000003
 20
142.05429850000002
 11
-13.032398000000015
 21
141.92499549999999
  0
LINE
  8
_0-0_0
  6
CONTINUOUS
 62
    7
 10
-13.032398000000015
 20
141.2249985
 11
-13.032398000000015
 21
141.92499549999999
  0
LINE
  8
_0-0_0
  6
CONTINUOUS
 62
    7
 10
-13.161686000000003
 20
141.0957105
 11
-13.032398000000015
 21
141.2249985
  0
ARC
  8
_0-0_0
  6
CONTINUOUS
 62
    7
 10
-13.090977000000009
 20
141.0250015
 40
0.1
 50
135
 51
225
  0
LINE
  8
_0-0_0
  6
CONTINUOUS
 62
    7
 10
-13.161686000000003
 20
140.95429250000001
 11
-13.032398000000015
 21
140.82500450000001
  0
LINE
  8
_0-0_0
  6
CONTINUOUS
 62
    7
 10
-13.032398000000015
 20
140.12500750000001
 11
-13.032398000000015
 21
140.82500450000001
  0
LINE
  8
_0-0_0
  6
CONTINUOUS
 62
    7
 10
-13.161686000000003
 20
139.99570449999999
 11
-13.032398000000015
 21
140.12500750000001
  0
ARC
  8
_0-0_0
  6
CONTINUOUS
 62
    7
 10
-13.090977000000009
 20
139.92499549999999
 40
0.1
 50
135
 51
225
  0
LINE
  8
_0-0_0
  6
CONTINUOUS
 62
    7
 10
-13.161686000000003
 20
139.8542865
 11
-13.032398000000015
 21
139.7249985
  0
LINE
  8
_0-0_0
  6
CONTINUOUS
 62
    7
 10
-13.032398000000015
 20
139.0250015
 11
-13.032398000000015
 21
139.7249985
  0
LINE
  8
_0-0_0
  6
CONTINUOUS
 62
    7
 10
-13.161686000000003
 20
138.8957135
 11
-13.032398000000015
 21
139.0250015
  0
ARC
  8
_0-0_0
  6
CONTINUOUS
 62
    7
 10
-13.090977000000009
 20
138.82500450000001
 40
0.1
 50
135
 51
225
  0
LINE
  8
_0-0_0
  6
CONTINUOUS
 62
    7
 10
-13.161686000000003
 20
138.75429550000001
 11
-13.032398000000015
 21
138.62500750000001
  0
LINE
  8
_0-0_0
  6
CONTINUOUS
 62
    7
 10
-13.032398000000015
 20
137.92499549999999
 11
-13.032398000000015
 21
138.62500750000001
  0
LINE
  8
_0-0_0
  6
CONTINUOUS
 62
    7
 10
-13.161686000000003
 20
137.79570749999999
 11
-13.032398000000015
 21
137.92499549999999
  0
ARC
  8
_0-0_0
  6
CONTINUOUS
 62
    7
 10
-13.090977000000009
 20
137.7249985
 40
0.1
 50
135
 51
225
  0
LINE
  8
_0-0_0
  6
CONTINUOUS
 62
    7
 10
-13.161686000000003
 20
137.6542895
 11
-13.032398000000015
 21
137.5250015
  0
LINE
  8
_0-0_0
  6
CONTINUOUS
 62
    7
 10
-13.032398000000015
 20
136.82500450000001
 11
-13.032398000000015
 21
137.5250015
  0
LINE
  8
_0-0_0
  6
CONTINUOUS
 62
    7
 10
-13.161686000000003
 20
136.6957165
 11
-13.032398000000015
 21
136.82500450000001
  0
ARC
  8
_0-0_0
  6
CONTINUOUS
 62
    7
 10
-13.090977000000009
 20
136.62500750000001
 40
0.1
 50
135
 51
225
  0
LINE
  8
_0-0_0
  6
CONTINUOUS
 62
    7
 10
-13.161686000000003
 20
136.55429850000002
 11
-13.032398000000015
 21
136.42499549999999
  0
LINE
  8
_0-0_0
  6
CONTINUOUS
 62
    7
 10
-13.032398000000015
 20
135.7249985
 11
-13.032398000000015
 21
136.42499549999999
  0
LINE
  8
_0-0_0
  6
CONTINUOUS
 62
    7
 10
-13.161686000000003
 20
135.5957105
 11
-13.032398000000015
 21
135.7249985
  0
ARC
  8
_0-0_0
  6
CONTINUOUS
 62
    7
 10
-13.090977000000009
 20
135.5250015
 40
0.1
 50
135
 51
225
  0
LINE
  8
_0-0_0
  6
CONTINUOUS
 62
    7
 10
-13.161686000000003
 20
135.45429250000001
 11
-13.032398000000015
 21
135.32500450000001
  0
LINE
  8
_0-0_0
  6
CONTINUOUS
 62
    7
 10
-13.032398000000015
 20
134.62500750000001
 11
-13.032398000000015
 21
135.32500450000001
  0
LINE
  8
_0-0_0
  6
CONTINUOUS
 62
    7
 10
-13.161686000000003
 20
134.49570449999999
 11
-13.032398000000015
 21
134.62500750000001
  0
ARC
  8
_0-0_0
  6
CONTINUOUS
 62
    7
 10
-13.090977000000009
 20
134.42499549999999
 40
0.1
 50
135
 51
225
  0
LINE
  8
_0-0_0
  6
CONTINUOUS
 62
    7
 10
-13.161686000000003
 20
134.3542865
 11
-13.032398000000015
 21
134.2249985
  0
LINE
  8
_0-0_0
  6
CONTINUOUS
 62
    7
 10
-13.032398000000015
 20
133.5250015
 11
-13.032398000000015
 21
134.2249985
  0
LINE
  8
_0-0_0
  6
CONTINUOUS
 62
    7
 10
-13.161686000000003
 20
133.3957135
 11
-13.032398000000015
 21
133.5250015
  0
LINE
  8
_0-0_0
  6
CONTINUOUS
 62
    7
 10
-13.032398000000015
 20
125.42499549999999
 11
-12.932396000000011
 21
125.42499549999999
  0
LINE
  8
_0-0_0
  6
CONTINUOUS
 62
    7
 10
-12.932396000000011
 20
124.9250105
 11
-12.932396000000011
 21
125.42499549999999
  0
LINE
  8
_0-0_0
  6
CONTINUOUS
 62
    7
 10
-12.932396000000011
 20
124.9250105
 11
-12.932396000000011
 21
120.9250105
  0
LINE
  8
_0-0_0
  6
CONTINUOUS
 62
    7
 10
-13.032398000000015
 20
120.4250105
 11
-12.932396000000011
 21
120.4250105
  0
LINE
  8
_0-0_0
  6
CONTINUOUS
 62
    7
 10
-12.932396000000011
 20
120.4250105
 11
-12.932396000000011
 21
120.9250105
  0
LINE
  8
_0-0_0
  6
CONTINUOUS
 62
    7
 10
-30.532396000000006
 20
129.42501050000001
 11
-30.532396000000006
 21
129.3599925
  0
LINE
  8
_0-0_0
  6
CONTINUOUS
 62
    7
 10
-14.032398000000015
 20
148.2249985
 11
-14.032398000000015
 21
148.12500750000001
  0
LINE
  8
_0-0_0
  6
CONTINUOUS
 62
    7
 10
-30.632397000000026
 20
129.42499549999999
 11
-29.832396000000017
 21
129.42499549999999
  0
LINE
  8
_0-0_0
  6
CONTINUOUS
 62
    7
 10
-30.132397000000026
 20
151.2249985
 11
-30.132397000000026
 21
147.0034565
  0
LINE
  8
_0-0_0
  6
CONTINUOUS
 62
    7
 10
-29.032396000000006
 20
151.2249985
 11
-29.032396000000006
 21
148.2249985
  0
LINE
  8
_0-0_0
  6
CONTINUOUS
 62
    7
 10
-30.132397000000026
 20
147.0034565
 11
-29.832396000000017
 21
147.0034565
  0
ARC
  8
_0-0_0
  6
CONTINUOUS
 62
    7
 10
-26.532396000000006
 20
148.2249985
 40
2.5
 50
90.000003000000007
 51
180.00000900000001
  0
ARC
  8
_0-0_0
  6
CONTINUOUS
 62
    7
 10
-16.532398000000015
 20
148.2249985
 40
2.5
 50
0
 51
90.000003000000007
  0
LINE
  8
_0-0_0
  6
CONTINUOUS
 62
    7
 10
-29.032396000000006
 20
148.12500750000001
 11
-29.032396000000006
 21
148.2249985
  0
LINE
  8
_0-0_0
  6
CONTINUOUS
 62
    7
 10
-16.532398000000015
 20
150.7249985
 11
-26.532396000000006
 21
150.7249985
  0
LINE
  8
_0-0_0
  6
CONTINUOUS
 62
    7
 10
-12.832398000000012
 20
120.9250105
 11
-12.832398000000012
 21
121.05536650000001
  0
LINE
  8
_0-0_0
  6
CONTINUOUS
 62
    7
 10
-12.832398000000012
 20
124.55536650000001
 11
-12.832398000000012
 21
121.05536650000001
  0
LINE
  8
_0-0_0
  6
CONTINUOUS
 62
    7
 10
-12.932396000000011
 20
124.82500450000001
 11
-12.832398000000012
 21
124.82500450000001
  0
LINE
  8
_0-0_0
  6
CONTINUOUS
 62
    7
 10
-12.832398000000012
 20
124.55536650000001
 11
-12.832398000000012
 21
124.82500450000001
  0
LINE
  8
_0-0_0
  6
CONTINUOUS
 62
    7
 10
-13.232395000000011
 20
147.32500450000001
 11
-14.232395000000011
 21
148.32500450000001
  0
LINE
  8
_0-0_0
  6
CONTINUOUS
 62
    7
 10
-13.232395000000011
 20
119.5250015
 11
-13.232395000000011
 21
147.32500450000001
  0
LINE
  8
_0-0_0
  6
CONTINUOUS
 62
    7
 10
-29.832396000000017
 20
119.5250015
 11
-13.232395000000011
 21
119.5250015
  0
LINE
  8
_0-0_0
  6
CONTINUOUS
 62
    7
 10
-29.832396000000017
 20
147.32500450000001
 11
-29.832396000000017
 21
119.5250015
  0
LINE
  8
_0-0_0
  6
CONTINUOUS
 62
    7
 10
-30.632397000000026
 20
129.42499549999999
 11
-30.632397000000026
 21
146.23781550000001
  0
LINE
  8
_0-0_0
  6
CONTINUOUS
 62
    7
 10
-30.632397000000026
 20
150.7249985
 11
-30.632397000000026
 21
146.23781550000001
  0
ARC
  8
_0-0_0
  6
CONTINUOUS
 62
    7
 10
0.8193469999999933
 20
126.24282049999999
 40
37.269466000000001
 50
146.14857699999999
 51
147.55443399999999
  0
ARC
  8
_0-0_0
  6
CONTINUOUS
 62
    7
 10
-16.801441000000011
 20
147.92499549999999
 40
2.6000000000000001
 50
8.8498839999999994
 51
90.000002999999992
  0
LINE
  8
_0-0_0
  6
CONTINUOUS
 62
    7
 10
-16.801441000000011
 20
150.5250015
 11
-26.263351999999998
 21
150.5250015
  0
ARC
  8
_0-0_0
  6
CONTINUOUS
 62
    7
 10
-26.263351999999998
 20
147.92499549999999
 40
2.6000000000000001
 50
90.000003000000007
 51
171.150115
  0
LINE
  8
_0-0_0
  6
CONTINUOUS
 62
    7
 10
-29.832396000000017
 20
147.32500450000001
 11
-28.832398000000012
 21
148.32500450000001
  0
LINE
  8
_0-0_0
  6
CONTINUOUS
 62
    7
 10
-14.232395000000011
 20
146.91078949999999
 11
-13.232395000000011
 21
147.32500450000001
  0
ARC
  8
_0-0_0
  6
CONTINUOUS
 62
    7
 10
-19.774937000000008
 20
159.11112249999999
 40
12.126564999999999
 50
292.155034
 51
297.19674500000002
  0
LINE
  8
_0-0_0
  6
CONTINUOUS
 62
    7
 10
-14.232395000000011
 20
120.5250015
 11
-13.232395000000011
 21
119.5250015
  0
LINE
  8
_0-0_0
  6
CONTINUOUS
 62
    7
 10
-28.832398000000012
 20
120.5250015
 11
-29.832396000000017
 21
119.5250015
  0
LINE
  8
_0-0_0
  6
CONTINUOUS
 62
    7
 10
-28.832398000000012
 20
146.91078949999999
 11
-29.832396000000017
 21
147.32500450000001
  0
ARC
  8
_0-0_0
  6
CONTINUOUS
 62
    7
 10
-23.289856000000015
 20
159.11112249999999
 40
12.126567
 50
242.80325699999997
 51
247.84494000000001
  0
CIRCLE
  8
_0-0_0
  6
CONTINUOUS
 62
    7
 10
-21.532398000000015
 20
127.7249985
 40
2.0670000000000002
  0
LINE
  8
_0-0_0
  6
CONTINUOUS
 62
    7
 10
-29.032396000000006
 20
151.2249985
 11
-30.132397000000026
 21
151.2249985
  0
LINE
  8
_0-0_0
  6
CONTINUOUS
 62
    7
 10
-12.932396000000011
 20
120.9250105
 11
-12.832398000000012
 21
120.9250105
  0
LINE
  8
_0-0_0
  6
CONTINUOUS
 62
    7
 10
-12.932396000000011
 20
120.9250105
 11
-12.832398000000012
 21
120.9250105
  0
LINE
  8
_0-0_0
  6
CONTINUOUS
 62
    7
 10
-30.632397000000026
 20
150.7249985
 11
-30.132397000000026
 21
151.2249985
  0
ENDSEC
  0
EOF
