  0
SECTION
  2
HEADER
  9
$ACADVER
  1
AC1009
  9
$INSBASE
 10
0
 20
0
 30
0
  9
$EXTMIN
 10
0
 20
0
  9
$EXTMAX
 10
1682
 20
1188
  9
$LIMMIN
 10
0
 20
0
  9
$LIMMAX
 10
1682
 20
1188
  9
$LTSCALE
 40
2
  0
ENDSEC
  0
SECTION
  2
TABLES
  0
TABLE
  2
LTYPE
 70
     9
  0
LTYPE
  2
CONTINUOUS
 70
    64
  3
実線
 72
    65
 73
     0
 40
0.0
  0
LTYPE
  2
DASHED1
 70
    64
  3
--  --  --  --  --  --  --  --  
 72
    65
 73
     2
 40
2.5
 49
1.25
 49
-1.25
  0
LTYPE
  2
DASHED2
 70
    64
  3
----    ----    ----    ----    
 72
    65
 73
     2
 40
5.0
 49
2.5
 49
-2.5
  0
LTYPE
  2
DASHED3
 70
    64
  3
------  ------  ------  ------  
 72
    65
 73
     2
 40
5.0
 49
3.75
 49
-1.25
  0
LTYPE
  2
CENTER1
 70
    64
  3
----- - ----- - ----- - ----- - 
 72
    65
 73
     4
 40
10.0
 49
6.25
 49
-1.25
 49
1.25
 49
-1.25
  0
LTYPE
  2
CENTER2
 70
    64
  3
----------  --  ----------  --  
 72
    65
 73
     4
 40
20.0
 49
12.5
 49
-2.5
 49
2.5
 49
-2.5
  0
LTYPE
  2
PHANTOM1
 70
    64
  3
--- - - --- - - --- - - --- - - 
 72
    65
 73
     6
 40
10.0
 49
3.25
 49
-1.25
 49
1.25
 49
-1.25
 49
1.25
 49
-1.25
  0
LTYPE
  2
PHANTOM2
 70
    64
  3
--------  -  -  --------  -  -  
 72
    65
 73
     6
 40
20.0
 49
10.0
 49
-2.5
 49
1.25
 49
-2.5
 49
1.25
 49
-2.5
  0
LTYPE
  2
DOT
 70
    64
  3
-   -   -   -   -   -   -   -   
 72
    65
 73
     2
 40
2.5
 49
0.625
 49
-1.875
  0
LTYPE
  2
DUMMY
 70
    64
  3
ダミー
 72
    65
 73
     0
 40
0.0
  0
LTYPE
  2
RAND1
 70
    64
  3
ランダム線1
 72
    65
 73
     4
 40
10.0
 49
1.0
 49
-2.0
 49
3.0
 49
-4.0
  0
LTYPE
  2
RAND2
 70
    64
  3
ランダム線2
 72
    65
 73
     4
 40
14.0
 49
2.0
 49
-3.0
 49
4.0
 49
-5.0
  0
LTYPE
  2
RAND3
 70
    64
  3
ランダム線3
 72
    65
 73
     4
 40
18.0
 49
3.0
 49
-4.0
 49
5.0
 49
-6.0
  0
LTYPE
  2
RAND4
 70
    64
  3
ランダム線4
 72
    65
 73
     4
 40
22.0
 49
4.0
 49
-5.0
 49
6.0
 49
-7.0
  0
LTYPE
  2
RAND5
 70
    64
  3
ランダム線5
 72
    65
 73
     4
 40
26.0
 49
5.0
 49
-6.0
 49
7.0
 49
-8.0
  0
LTYPE
  2
LONG1
 70
    64
  3
----------  --  ----------  --  
 72
    65
 73
     4
 40
40.0
 49
32.5
 49
-2.5
 49
2.5
 49
-2.5
  0
LTYPE
  2
LONG2
 70
    64
  3
--------  -  -  --------  -  -  
 72
    65
 73
     6
 40
40.0
 49
30.0
 49
-2.5
 49
1.25
 49
-2.5
 49
1.25
 49
-2.5
  0
LTYPE
  2
LONG3
 70
    64
  3
+++++++++++++++..+++++++++++++++
 72
    65
 73
     2
 40
40.0
 49
37.5
 49
-2.5
  0
LTYPE
  2
LONG4
 70
    64
  3
+++++++++++++++..+++++++++++++++
 72
    65
 73
     2
 40
80.0
 49
75.0
 49
-5.0
  0
LTYPE
  2
LONG5
 70
    64
  3
----------  --  ----------  --  
 72
    65
 73
     4
 40
60.0
 49
37.5
 49
-7.5
 49
7.5
 49
-7.5
  0
LTYPE
  2
dashed
 70
   64
  3
-------   -------------   ------
 72
   65
 73
    2
 40
7.5
 49
6
 49
-1.5
  0
LTYPE
  2
dashed_spaced
 70
   64
  3
----        --------        ----
 72
   65
 73
    2
 40
12
 49
6
 49
-6
  0
LTYPE
  2
long_dashed_dotted
 70
   64
  3
------------- --- --------------
 72
   65
 73
    4
 40
15.25
 49
12
 49
-1.5
 49
0.25
 49
-1.5
  0
LTYPE
  2
long_dashed_double-dotted
 70
   64
  3
----------- --- --- ------------
 72
   65
 73
    6
 40
17
 49
12
 49
-1.5
 49
0.25
 49
-1.5
 49
0.25
 49
-1.5
  0
LTYPE
  2
long_dashed_triplicate-dotted
 70
   64
  3
--------- --- --- --- ----------
 72
   65
 73
    8
 40
18.75
 49
12
 49
-1.5
 49
0.25
 49
-1.5
 49
0.25
 49
-1.5
 49
0.25
 49
-1.5
  0
LTYPE
  2
dotted
 70
   64
  3
   -       -       -       -    
 72
   65
 73
    2
 40
1.75
 49
0.25
 49
-1.5
  0
LTYPE
  2
chain
 70
   64
  3
-------------- -- --------------
 72
   65
 73
    4
 40
18.5
 49
12
 49
-1.5
 49
3.5
 49
-1.5
  0
LTYPE
  2
chain_double_dash
 70
   64
  3
------------ -- -- -------------
 72
   65
 73
    6
 40
23.5
 49
12
 49
-1.5
 49
3.5
 49
-1.5
 49
3.5
 49
-1.5
  0
LTYPE
  2
dashed_dotted
 70
   64
  3
-----------     -     ----------
 72
   65
 73
    4
 40
9.25
 49
6
 49
-1.5
 49
0.25
 49
-1.5
  0
LTYPE
  2
double-dashed_dotted
 70
   64
  3
------   -----------   -   -----
 72
   65
 73
    6
 40
16.75
 49
6
 49
-1.5
 49
6
 49
-1.5
 49
0.25
 49
-1.5
  0
LTYPE
  2
dashed_double-dotted
 70
   64
  3
---------    -    -    ---------
 72
   65
 73
    6
 40
11
 49
6
 49
-1.5
 49
0.25
 49
-1.5
 49
0.25
 49
-1.5
  0
LTYPE
  2
double-dashed_double-dotted
 70
   64
  3
-----   ---------   -   -   ----
 72
   65
 73
    8
 40
18.5
 49
6
 49
-1.5
 49
6
 49
-1.5
 49
0.25
 49
-1.5
 49
0.25
 49
-1.5
  0
LTYPE
  2
dashed_triplicate-dotted
 70
   64
  3
-------    -    -    -    ------
 72
   65
 73
    8
 40
12.75
 49
6
 49
-1.5
 49
0.25
 49
-1.5
 49
0.25
 49
-1.5
 49
0.25
 49
-1.5
  0
LTYPE
  2
double-dashed_triplicate-dotted
 70
   64
  3
-----  ---------  -  -  -  -----
 72
   65
 73
   10
 40
20.25
 49
6
 49
-1.5
 49
6
 49
-1.5
 49
0.25
 49
-1.5
 49
0.25
 49
-1.5
 49
0.25
 49
-1.5
  0
LTYPE
  2
undefined
 70
   64
  3
--------------------------------
 72
   65
 73
    0
 40
0
  0
ENDTAB
  0
TABLE
  2
STYLE
  5
3
100
AcDbSymbolTable
 70
     1
  0
STYLE
  5
10
100
AcDbSymbolTableRecord
100
AcDbTextStyleTableRecord
  2
STANDARD
 70
     0
 40
0.0
 41
1.0
 50
0.0
 71
     0
 42
0.2
  3
txt
  4
bigfont.shx
  0
STYLE
  5
26
100
AcDbSymbolTableRecord
100
AcDbTextStyleTableRecord
  2
TATEGAKI
 70
    68
 40
0.0
 41
1.0
 50
0.0
 71
     0
 42
1.0
  3
txt
  4
bigfont.shx
  0
ENDTAB
  0
TABLE
  2
LAYER
 70
    2
  0
LAYER
  2
_0-0_0
 70
   64
 62
    7
  6
CONTINUOUS
  0
LAYER
  2
ADD_LINE
 70
   64
 62
    7
  6
CONTINUOUS
  0
ENDTAB
  0
ENDSEC
  0
SECTION
  2
BLOCKS
  0
ENDSEC
  0
SECTION
  2
ENTITIES
  0
LINE
  8
_0-0_0
  6
CONTINUOUS
 62
    7
 10
-24.071045000000026
 20
813.90052749999995
 11
-24.071045000000026
 21
813.89952049999999
  0
LINE
  8
_0-0_0
  6
CONTINUOUS
 62
    7
 10
128.74146999999994
 20
774.96958949999998
 11
127.44146699999999
 21
771.46958949999998
  0
ARC
  8
_0-0_0
  6
CONTINUOUS
 62
    7
 10
128.92895499999997
 20
774.89994750000005
 40
0.2
 50
20.376434999999997
 51
159.62357000000003
  0
ARC
  8
_0-0_0
  6
CONTINUOUS
 62
    7
 10
166.92895499999997
 20
777.79994150000005
 40
2.2000000000000002
 50
180.00000900000003
 51
303.74900400000001
  0
LINE
  8
_0-0_0
  6
CONTINUOUS
 62
    7
 10
164.72895800000003
 20
779.29994150000005
 11
164.72895800000003
 21
777.79994150000005
  0
LINE
  8
_0-0_0
  6
CONTINUOUS
 62
    7
 10
164.72895800000003
 20
779.29994150000005
 11
90.128966999999989
 21
779.29994150000005
  0
LINE
  8
_0-0_0
  6
CONTINUOUS
 62
    7
 10
90.128966999999989
 20
779.29994150000005
 11
90.128966999999989
 21
777.79994150000005
  0
ARC
  8
_0-0_0
  6
CONTINUOUS
 62
    7
 10
87.928954999999974
 20
777.79994150000005
 40
2.2000000000000002
 50
236.25102899999999
 51
0
  0
ARC
  8
_0-0_0
  6
CONTINUOUS
 62
    7
 10
86.428954999999974
 20
775.55494650000003
 40
0.5
 50
56.251010000000008
 51
180.00000900000001
  0
LINE
  8
_0-0_0
  6
CONTINUOUS
 62
    7
 10
85.928954999999974
 20
755.19993550000004
 11
85.928954999999974
 21
755.97706549999998
  0
LINE
  8
_0-0_0
  6
CONTINUOUS
 62
    7
 10
85.928954999999974
 20
755.19993550000004
 11
95.728958000000034
 21
755.19993550000004
  0
ARC
  8
_0-0_0
  6
CONTINUOUS
 62
    7
 10
95.728958000000034
 20
755.39994750000005
 40
0.2
 50
269.99999700000001
 51
0
  0
LINE
  8
_0-0_0
  6
CONTINUOUS
 62
    7
 10
95.928954999999974
 20
757.09992950000003
 11
95.928954999999974
 21
755.39994750000005
  0
ARC
  8
_0-0_0
  6
CONTINUOUS
 62
    7
 10
96.128966999999989
 20
757.09992950000003
 40
0.2
 50
90.000003000000007
 51
180.00000900000001
  0
LINE
  8
_0-0_0
  6
CONTINUOUS
 62
    7
 10
96.628966999999989
 20
757.29994150000005
 11
96.128966999999989
 21
757.29994150000005
  0
ARC
  8
_0-0_0
  6
CONTINUOUS
 62
    7
 10
96.628966999999989
 20
756.79994150000005
 40
0.5
 50
90.000003000000007
 51
180.00000900000001
  0
LINE
  8
_0-0_0
  6
CONTINUOUS
 62
    7
 10
96.128966999999989
 20
755.29994150000005
 11
96.128966999999989
 21
756.79994150000005
  0
LINE
  8
_0-0_0
  6
CONTINUOUS
 62
    7
 10
165.72895800000003
 20
755.29994150000005
 11
96.128966999999989
 21
755.29994150000005
  0
LINE
  8
_0-0_0
  6
CONTINUOUS
 62
    7
 10
165.72895800000003
 20
755.29994150000005
 11
165.72895800000003
 21
756.79994150000005
  0
ARC
  8
_0-0_0
  6
CONTINUOUS
 62
    7
 10
165.22895800000003
 20
756.79994150000005
 40
0.5
 50
0
 51
90.000003000000007
  0
LINE
  8
_0-0_0
  6
CONTINUOUS
 62
    7
 10
165.72895800000003
 20
757.29994150000005
 11
165.22895800000003
 21
757.29994150000005
  0
ARC
  8
_0-0_0
  6
CONTINUOUS
 62
    7
 10
165.72895800000003
 20
757.09992950000003
 40
0.2
 50
0
 51
90.000003000000007
  0
LINE
  8
_0-0_0
  6
CONTINUOUS
 62
    7
 10
165.92895499999997
 20
755.39994750000005
 11
165.92895499999997
 21
757.09992950000003
  0
ARC
  8
_0-0_0
  6
CONTINUOUS
 62
    7
 10
166.12895200000003
 20
755.39994750000005
 40
0.2
 50
180.00000900000003
 51
269.99999700000001
  0
LINE
  8
_0-0_0
  6
CONTINUOUS
 62
    7
 10
166.12895200000003
 20
755.19993550000004
 11
166.92895499999997
 21
755.19993550000004
  0
ARC
  8
_0-0_0
  6
CONTINUOUS
 62
    7
 10
166.92895499999997
 20
757.19993550000004
 40
2
 50
269.99999700000001
 51
0.0000099999999886
  0
LINE
  8
_0-0_0
  6
CONTINUOUS
 62
    7
 10
168.92895499999997
 20
775.55494650000003
 11
168.92895499999997
 21
757.19993550000004
  0
ARC
  8
_0-0_0
  6
CONTINUOUS
 62
    7
 10
168.42895499999997
 20
775.55494650000003
 40
0.5
 50
0
 51
123.74898500000002
  0
LINE
  8
_0-0_0
  6
CONTINUOUS
 62
    7
 10
97.428954999999974
 20
757.49995450000006
 11
97.428954999999974
 21
757.69993550000004
  0
LINE
  8
_0-0_0
  6
CONTINUOUS
 62
    7
 10
97.428954999999974
 20
757.69993550000004
 11
164.42895499999997
 21
757.69993550000004
  0
LINE
  8
_0-0_0
  6
CONTINUOUS
 62
    7
 10
164.42895499999997
 20
757.49995450000006
 11
164.42895499999997
 21
757.69993550000004
  0
ARC
  8
_0-0_0
  6
CONTINUOUS
 62
    7
 10
164.62895200000003
 20
757.49995450000006
 40
0.2
 50
180.00000900000003
 51
269.99999700000001
  0
LINE
  8
_0-0_0
  6
CONTINUOUS
 62
    7
 10
164.62895200000003
 20
757.29994150000005
 11
97.228958000000034
 21
757.29994150000005
  0
ARC
  8
_0-0_0
  6
CONTINUOUS
 62
    7
 10
97.228958000000034
 20
757.49995450000006
 40
0.2
 50
269.99999700000001
 51
0
  0
ARC
  8
_0-0_0
  6
CONTINUOUS
 62
    7
 10
127.62895200000003
 20
771.39994750000005
 40
0.2
 50
159.62357
 51
269.99999700000001
  0
LINE
  8
_0-0_0
  6
CONTINUOUS
 62
    7
 10
127.62895200000003
 20
771.19993550000004
 11
130.22895800000003
 21
771.19993550000004
  0
ARC
  8
_0-0_0
  6
CONTINUOUS
 62
    7
 10
130.22895800000003
 20
771.39994750000005
 40
0.2
 50
269.99999700000001
 51
20.376435000000019
  0
LINE
  8
_0-0_0
  6
CONTINUOUS
 62
    7
 10
130.41644299999996
 20
771.46958949999998
 11
129.11644000000001
 21
774.96958949999998
  0
LINE
  8
_0-0_0
  6
CONTINUOUS
 62
    7
 10
85.928954999999974
 20
774.89994750000005
 11
85.928954999999974
 21
776.87730350000004
  0
LINE
  8
_0-0_0
  6
CONTINUOUS
 62
    7
 10
85.928954999999974
 20
774.89994750000005
 11
85.928954999999974
 21
757.29994150000005
  0
LINE
  8
_0-0_0
  6
CONTINUOUS
 62
    7
 10
85.928954999999974
 20
755.97706549999998
 11
85.928954999999974
 21
757.29994150000005
  0
LINE
  8
_0-0_0
  6
CONTINUOUS
 62
    7
 10
168.92895499999997
 20
781.29994150000005
 11
168.92895499999997
 21
780.29994150000005
  0
LINE
  8
_0-0_0
  6
CONTINUOUS
 62
    7
 10
168.92895499999997
 20
780.29994150000005
 11
168.92895499999997
 21
779.79994150000005
  0
LINE
  8
_0-0_0
  6
CONTINUOUS
 62
    7
 10
168.92895499999997
 20
779.79994150000005
 11
168.92895499999997
 21
777.79994150000005
  0
LINE
  8
_0-0_0
  6
CONTINUOUS
 62
    7
 10
168.92895499999997
 20
777.79994150000005
 11
168.92895499999997
 21
775.55494650000003
  0
LINE
  8
_0-0_0
  6
CONTINUOUS
 62
    7
 10
146.92895499999997
 20
775.29994150000005
 11
146.92895499999997
 21
761.69993550000004
  0
ARC
  8
_0-0_0
  6
CONTINUOUS
 62
    7
 10
149.92895499999997
 20
775.29994150000005
 40
3
 50
90.000003000000007
 51
180.00000900000001
  0
LINE
  8
_0-0_0
  6
CONTINUOUS
 62
    7
 10
163.26289399999996
 20
778.29994150000005
 11
149.92895499999997
 21
778.29994150000005
  0
ARC
  8
_0-0_0
  6
CONTINUOUS
 62
    7
 10
163.26289399999996
 20
777.29994150000005
 40
1
 50
7.7664340000000012
 51
90.000002999999992
  0
ARC
  8
_0-0_0
  6
CONTINUOUS
 62
    7
 10
166.92895499999997
 20
777.79994150000005
 40
2.7000000000000002
 50
187.76643899999999
 51
254.31966600000001
  0
ARC
  8
_0-0_0
  6
CONTINUOUS
 62
    7
 10
165.92895499999997
 20
774.23762450000004
 40
1
 50
0
 51
74.319649999999996
  0
LINE
  8
_0-0_0
  6
CONTINUOUS
 62
    7
 10
166.92895499999997
 20
761.69993550000004
 11
166.92895499999997
 21
774.23762450000004
  0
ARC
  8
_0-0_0
  6
CONTINUOUS
 62
    7
 10
163.92895499999997
 20
761.69993550000004
 40
3
 50
269.99999700000001
 51
0.0000099999999886
  0
LINE
  8
_0-0_0
  6
CONTINUOUS
 62
    7
 10
149.92895499999997
 20
758.69993550000004
 11
163.92895499999997
 21
758.69993550000004
  0
ARC
  8
_0-0_0
  6
CONTINUOUS
 62
    7
 10
149.92895499999997
 20
761.69993550000004
 40
3
 50
180.00000900000003
 51
269.99999700000001
  0
LINE
  8
_0-0_0
  6
CONTINUOUS
 62
    7
 10
92.928954999999974
 20
758.69993550000004
 11
107.92895499999997
 21
758.69993550000004
  0
ARC
  8
_0-0_0
  6
CONTINUOUS
 62
    7
 10
92.928954999999974
 20
761.69993550000004
 40
3
 50
180.00000900000003
 51
269.99999700000001
  0
LINE
  8
_0-0_0
  6
CONTINUOUS
 62
    7
 10
89.928954999999974
 20
775.29994150000005
 11
89.928954999999974
 21
761.69993550000004
  0
ARC
  8
_0-0_0
  6
CONTINUOUS
 62
    7
 10
92.928954999999974
 20
775.29994150000005
 40
3
 50
90.000003000000007
 51
180.00000900000001
  0
LINE
  8
_0-0_0
  6
CONTINUOUS
 62
    7
 10
107.92895499999997
 20
778.29994150000005
 11
92.928954999999974
 21
778.29994150000005
  0
ARC
  8
_0-0_0
  6
CONTINUOUS
 62
    7
 10
107.92895499999997
 20
775.29994150000005
 40
3
 50
0
 51
90.000003000000007
  0
LINE
  8
_0-0_0
  6
CONTINUOUS
 62
    7
 10
110.92895499999997
 20
761.69993550000004
 11
110.92895499999997
 21
775.29994150000005
  0
ARC
  8
_0-0_0
  6
CONTINUOUS
 62
    7
 10
107.92895499999997
 20
761.69993550000004
 40
3
 50
269.99999700000001
 51
0.0000099999999886
  0
LINE
  8
_0-0_0
  6
CONTINUOUS
 62
    7
 10
164.92895499999997
 20
779.29994150000005
 11
164.72895800000003
 21
779.29994150000005
  0
ARC
  8
_0-0_0
  6
CONTINUOUS
 62
    7
 10
166.92895499999997
 20
777.79994150000005
 40
2
 50
180.00000900000003
 51
0.0000000000000254
  0
LINE
  8
_0-0_0
  6
CONTINUOUS
 62
    7
 10
164.92895499999997
 20
779.29994150000005
 11
164.92895499999997
 21
777.79994150000005
  0
LINE
  8
_0-0_0
  6
CONTINUOUS
 62
    7
 10
90.128966999999989
 20
779.29994150000005
 11
89.928954999999974
 21
779.29994150000005
  0
LINE
  8
_0-0_0
  6
CONTINUOUS
 62
    7
 10
89.928954999999974
 20
779.29994150000005
 11
89.928954999999974
 21
777.79994150000005
  0
ARC
  8
_0-0_0
  6
CONTINUOUS
 62
    7
 10
87.928954999999974
 20
777.79994150000005
 40
2
 50
180.00000900000003
 51
0.0000000000000254
  0
LINE
  8
_0-0_0
  6
CONTINUOUS
 62
    7
 10
72.428962999999953
 20
779.79994150000005
 11
72.428962999999953
 21
779.29994150000005
  0
LINE
  8
_0-0_0
  6
CONTINUOUS
 62
    7
 10
85.928954999999974
 20
776.88343750000001
 11
85.928954999999974
 21
777.59992950000003
  0
LINE
  8
_0-0_0
  6
CONTINUOUS
 62
    7
 10
85.928954999999974
 20
776.88343750000001
 11
85.928954999999974
 21
776.87730350000004
  0
LINE
  8
_0-0_0
  6
CONTINUOUS
 62
    7
 10
85.928954999999974
 20
775.66880749999996
 11
85.928954999999974
 21
775.55494650000003
  0
LINE
  8
_0-0_0
  6
CONTINUOUS
 62
    7
 10
73.928962999999953
 20
776.89994750000005
 11
73.928962999999953
 21
774.89994750000005
  0
LINE
  8
_0-0_0
  6
CONTINUOUS
 62
    7
 10
85.928954999999974
 20
776.89994750000005
 11
73.928962999999953
 21
776.89994750000005
  0
LINE
  8
_0-0_0
  6
CONTINUOUS
 62
    7
 10
73.928962999999953
 20
771.39994750000005
 11
73.928962999999953
 21
774.39994750000005
  0
LINE
  8
_0-0_0
  6
CONTINUOUS
 62
    7
 10
73.928962999999953
 20
774.39994750000005
 11
73.928962999999953
 21
774.89994750000005
  0
LINE
  8
_0-0_0
  6
CONTINUOUS
 62
    7
 10
73.928962999999953
 20
771.39994750000005
 11
73.928962999999953
 21
770.89994750000005
  0
ARC
  8
_0-0_0
  6
CONTINUOUS
 62
    7
 10
79.928969999999936
 20
771.59992950000003
 40
0.500016
 50
0.001164
 51
179.99560600000004
  0
LINE
  8
_0-0_0
  6
CONTINUOUS
 62
    7
 10
79.428954999999974
 20
771.59992950000003
 11
79.428954999999974
 21
759.59992950000003
  0
ARC
  8
_0-0_0
  6
CONTINUOUS
 62
    7
 10
79.928969999999936
 20
759.59996049999995
 40
0.500016
 50
180.00117
 51
359.995611
  0
LINE
  8
_0-0_0
  6
CONTINUOUS
 62
    7
 10
80.428954999999974
 20
771.59992950000003
 11
80.428954999999974
 21
759.59992950000003
  0
ARC
  8
_0-0_0
  6
CONTINUOUS
 62
    7
 10
78.428969999999936
 20
771.59992950000003
 40
0.500016
 50
0.001164
 51
179.99560600000004
  0
LINE
  8
_0-0_0
  6
CONTINUOUS
 62
    7
 10
77.928954999999974
 20
771.59992950000003
 11
77.928954999999974
 21
759.59992950000003
  0
ARC
  8
_0-0_0
  6
CONTINUOUS
 62
    7
 10
78.428969999999936
 20
759.59996049999995
 40
0.500016
 50
180.00117
 51
359.995611
  0
LINE
  8
_0-0_0
  6
CONTINUOUS
 62
    7
 10
78.928954999999974
 20
771.59992950000003
 11
78.928954999999974
 21
759.59992950000003
  0
ARC
  8
_0-0_0
  6
CONTINUOUS
 62
    7
 10
76.928969999999936
 20
771.59992950000003
 40
0.500016
 50
0.001164
 51
179.99560600000004
  0
LINE
  8
_0-0_0
  6
CONTINUOUS
 62
    7
 10
76.428954999999974
 20
771.59992950000003
 11
76.428954999999974
 21
759.59992950000003
  0
ARC
  8
_0-0_0
  6
CONTINUOUS
 62
    7
 10
76.928969999999936
 20
759.59996049999995
 40
0.500016
 50
180.00117
 51
359.995611
  0
LINE
  8
_0-0_0
  6
CONTINUOUS
 62
    7
 10
77.428954999999974
 20
771.59992950000003
 11
77.428954999999974
 21
759.59992950000003
  0
ARC
  8
_0-0_0
  6
CONTINUOUS
 62
    7
 10
75.428969999999936
 20
771.59992950000003
 40
0.500016
 50
0.001164
 51
179.99560600000004
  0
LINE
  8
_0-0_0
  6
CONTINUOUS
 62
    7
 10
74.928962999999953
 20
771.59992950000003
 11
74.928962999999953
 21
759.59992950000003
  0
ARC
  8
_0-0_0
  6
CONTINUOUS
 62
    7
 10
75.428969999999936
 20
759.59996049999995
 40
0.500016
 50
180.00117
 51
359.995611
  0
LINE
  8
_0-0_0
  6
CONTINUOUS
 62
    7
 10
75.928954999999974
 20
771.59992950000003
 11
75.928954999999974
 21
759.59992950000003
  0
LINE
  8
_0-0_0
  6
CONTINUOUS
 62
    7
 10
85.928954999999974
 20
755.29994150000005
 11
69.253516999999988
 21
755.29994150000005
  0
LINE
  8
_0-0_0
  6
CONTINUOUS
 62
    7
 10
96.478958000000034
 20
757.27690150000001
 11
96.478958000000034
 21
757.29994150000005
  0
LINE
  8
_0-0_0
  6
CONTINUOUS
 62
    7
 10
165.37895200000003
 20
757.27690150000001
 11
165.37895200000003
 21
757.29994150000005
  0
LINE
  8
_0-0_0
  6
CONTINUOUS
 62
    7
 10
72.428962999999953
 20
779.79994150000005
 11
72.428962999999953
 21
780.29994150000005
  0
LINE
  8
_0-0_0
  6
CONTINUOUS
 62
    7
 10
168.92895499999997
 20
780.29994150000005
 11
72.428962999999953
 21
780.29994150000005
  0
LINE
  8
_0-0_0
  6
CONTINUOUS
 62
    7
 10
72.428962999999953
 20
780.29994150000005
 11
72.428962999999953
 21
781.29994150000005
  0
LINE
  8
_0-0_0
  6
CONTINUOUS
 62
    7
 10
168.92909199999997
 20
781.30000250000001
 11
168.92909199999997
 21
780.80000250000001
  0
LINE
  8
_0-0_0
  6
CONTINUOUS
 62
    7
 10
168.92909199999997
 20
780.80000250000001
 11
168.92909199999997
 21
779.30000250000001
  0
ARC
  8
_0-0_0
  6
CONTINUOUS
 62
    7
 10
159.42895499999997
 20
770.89994750000005
 40
4.5
 50
269.99999700000001
 51
90.000002999999992
  0
LINE
  8
_0-0_0
  6
CONTINUOUS
 62
    7
 10
159.42895499999997
 20
766.39994750000005
 11
154.42895499999997
 21
766.39994750000005
  0
ARC
  8
_0-0_0
  6
CONTINUOUS
 62
    7
 10
154.42895499999997
 20
770.89994750000005
 40
4.5
 50
90.000003000000007
 51
269.99999700000006
  0
LINE
  8
_0-0_0
  6
CONTINUOUS
 62
    7
 10
154.42895499999997
 20
775.39994750000005
 11
159.42895499999997
 21
775.39994750000005
  0
ARC
  8
_0-0_0
  6
CONTINUOUS
 62
    7
 10
103.42895499999997
 20
770.89994750000005
 40
4.5
 50
269.99999700000001
 51
90.000002999999992
  0
LINE
  8
_0-0_0
  6
CONTINUOUS
 62
    7
 10
103.42895499999997
 20
766.39994750000005
 11
98.428954999999974
 21
766.39994750000005
  0
ARC
  8
_0-0_0
  6
CONTINUOUS
 62
    7
 10
98.428954999999974
 20
770.89994750000005
 40
4.5
 50
90.000003000000007
 51
269.99999700000006
  0
LINE
  8
_0-0_0
  6
CONTINUOUS
 62
    7
 10
98.428954999999974
 20
775.39994750000005
 11
103.42895499999997
 21
775.39994750000005
  0
LINE
  8
_0-0_0
  6
CONTINUOUS
 62
    7
 10
85.928954999999974
 20
777.59992950000003
 11
85.928954999999974
 21
779.29994150000005
  0
LINE
  8
_0-0_0
  6
CONTINUOUS
 62
    7
 10
85.928954999999974
 20
779.29994150000005
 11
72.428962999999953
 21
779.29994150000005
  0
LINE
  8
_0-0_0
  6
CONTINUOUS
 62
    7
 10
72.428962999999953
 20
777.59992950000003
 11
72.428962999999953
 21
779.29994150000005
  0
LINE
  8
_0-0_0
  6
CONTINUOUS
 62
    7
 10
73.928962999999953
 20
776.89994750000005
 11
69.253516999999988
 21
776.89994750000005
  0
LINE
  8
_0-0_0
  6
CONTINUOUS
 62
    7
 10
73.928962999999953
 20
771.39994750000005
 11
69.253516999999988
 21
771.39994750000005
  0
LINE
  8
_0-0_0
  6
CONTINUOUS
 62
    7
 10
68.621063000000049
 20
755.40257250000002
 11
68.740561999999954
 21
755.36695850000001
  0
LINE
  8
_0-0_0
  6
CONTINUOUS
 62
    7
 10
68.740561999999954
 20
755.36695850000001
 11
68.86211400000002
 21
755.33906549999995
  0
LINE
  8
_0-0_0
  6
CONTINUOUS
 62
    7
 10
68.86211400000002
 20
755.33906549999995
 11
68.985244999999964
 21
755.31904550000002
  0
LINE
  8
_0-0_0
  6
CONTINUOUS
 62
    7
 10
68.985244999999964
 20
755.31904550000002
 11
69.109473999999977
 21
755.30693050000002
  0
LINE
  8
_0-0_0
  6
CONTINUOUS
 62
    7
 10
69.109473999999977
 20
755.30693050000002
 11
69.234290999999985
 21
755.30278050000004
  0
LINE
  8
_0-0_0
  6
CONTINUOUS
 62
    7
 10
69.234290999999985
 20
755.30278050000004
 11
69.253516999999988
 21
755.30287150000004
  0
ARC
  8
_0-0_0
  6
CONTINUOUS
 62
    7
 10
69.253516999999988
 20
757.29994150000005
 40
2
 50
251.56498899999997
 51
269.99999700000001
  0
LINE
  8
_0-0_0
  6
CONTINUOUS
 62
    7
 10
72.428962999999953
 20
777.59992950000003
 11
85.928954999999974
 21
777.59992950000003
  0
CIRCLE
  8
_0-0_0
  6
CONTINUOUS
 62
    7
 10
166.92895499999997
 20
777.79994150000005
 40
1.4750000000000001
  0
CIRCLE
  8
_0-0_0
  6
CONTINUOUS
 62
    7
 10
87.928954999999974
 20
777.79994150000005
 40
1.4750000000000001
  0
ARC
  8
_0-0_0
  6
CONTINUOUS
 62
    7
 10
69.253516999999988
 20
774.89994750000005
 40
2
 50
90.000003000000007
 51
108.434997
  0
LINE
  8
_0-0_0
  6
CONTINUOUS
 62
    7
 10
64.454619999999977
 20
771.39994750000005
 11
63.76126099999999
 21
771.39994750000005
  0
LINE
  8
_0-0_0
  6
CONTINUOUS
 62
    7
 10
64.454619999999977
 20
771.39994750000005
 11
68.779175000000009
 21
771.39994750000005
  0
LINE
  8
_0-0_0
  6
CONTINUOUS
 62
    7
 10
69.253516999999988
 20
771.39994750000005
 11
68.779175000000009
 21
771.39994750000005
  0
LINE
  8
_0-0_0
  6
CONTINUOUS
 62
    7
 10
64.296509000000015
 20
756.84410049999997
 11
68.621063000000049
 21
755.40257250000002
  0
LINE
  8
_0-0_0
  6
CONTINUOUS
 62
    7
 10
163.47895800000003
 20
770.89994750000005
 11
161.16955599999994
 21
766.89994750000005
  0
LINE
  8
_0-0_0
  6
CONTINUOUS
 62
    7
 10
152.688355
 20
766.89994750000005
 11
161.16955599999994
 21
766.89994750000005
  0
LINE
  8
_0-0_0
  6
CONTINUOUS
 62
    7
 10
152.688355
 20
766.89994750000005
 11
150.37895200000003
 21
770.89994750000005
  0
LINE
  8
_0-0_0
  6
CONTINUOUS
 62
    7
 10
150.37895200000003
 20
770.89994750000005
 11
152.688355
 21
774.89994750000005
  0
LINE
  8
_0-0_0
  6
CONTINUOUS
 62
    7
 10
161.16955599999994
 20
774.89994750000005
 11
152.688355
 21
774.89994750000005
  0
LINE
  8
_0-0_0
  6
CONTINUOUS
 62
    7
 10
161.16955599999994
 20
774.89994750000005
 11
163.47895800000003
 21
770.89994750000005
  0
LINE
  8
_0-0_0
  6
CONTINUOUS
 62
    7
 10
96.688355000000001
 20
774.89994750000005
 11
94.378966999999989
 21
770.89994750000005
  0
LINE
  8
_0-0_0
  6
CONTINUOUS
 62
    7
 10
105.16955599999994
 20
774.89994750000005
 11
96.688355000000001
 21
774.89994750000005
  0
LINE
  8
_0-0_0
  6
CONTINUOUS
 62
    7
 10
107.47895800000003
 20
770.89994750000005
 11
105.16955599999994
 21
774.89994750000005
  0
LINE
  8
_0-0_0
  6
CONTINUOUS
 62
    7
 10
105.16955599999994
 20
766.89994750000005
 11
107.47895800000003
 21
770.89994750000005
  0
LINE
  8
_0-0_0
  6
CONTINUOUS
 62
    7
 10
96.688355000000001
 20
766.89994750000005
 11
105.16955599999994
 21
766.89994750000005
  0
LINE
  8
_0-0_0
  6
CONTINUOUS
 62
    7
 10
94.378966999999989
 20
770.89994750000005
 11
96.688355000000001
 21
766.89994750000005
  0
LINE
  8
_0-0_0
  6
CONTINUOUS
 62
    7
 10
68.178954999999974
 20
776.64994750000005
 11
68.621063000000049
 21
776.79731749999996
  0
LINE
  8
_0-0_0
  6
CONTINUOUS
 62
    7
 10
62.928962999999953
 20
772.14997849999997
 11
62.928962999999953
 21
771.02894549999996
  0
LINE
  8
_0-0_0
  6
CONTINUOUS
 62
    7
 10
62.928962999999953
 20
770.10762050000005
 11
62.928962999999953
 21
771.02894549999996
  0
LINE
  8
_0-0_0
  6
CONTINUOUS
 62
    7
 10
63.228966000000014
 20
768.3119355
 11
63.170165999999995
 21
768.55876150000006
  0
LINE
  8
_0-0_0
  6
CONTINUOUS
 62
    7
 10
63.170165999999995
 20
768.55876150000006
 11
63.120400000000018
 21
768.75111349999997
  0
LINE
  8
_0-0_0
  6
CONTINUOUS
 62
    7
 10
63.120400000000018
 20
768.75111349999997
 11
63.049270999999976
 21
769.01692149999997
  0
LINE
  8
_0-0_0
  6
CONTINUOUS
 62
    7
 10
63.049270999999976
 20
769.01692149999997
 11
63.016311999999971
 21
769.14363049999997
  0
LINE
  8
_0-0_0
  6
CONTINUOUS
 62
    7
 10
63.016311999999971
 20
769.14363049999997
 11
62.99105099999997
 21
769.24705449999999
  0
LINE
  8
_0-0_0
  6
CONTINUOUS
 62
    7
 10
62.99105099999997
 20
769.24705449999999
 11
62.969024999999988
 21
769.3469695
  0
LINE
  8
_0-0_0
  6
CONTINUOUS
 62
    7
 10
62.969024999999988
 20
769.3469695
 11
62.947646999999961
 21
769.4646755
  0
LINE
  8
_0-0_0
  6
CONTINUOUS
 62
    7
 10
62.947646999999961
 20
769.4646755
 11
62.93907200000001
 21
769.52680950000001
  0
LINE
  8
_0-0_0
  6
CONTINUOUS
 62
    7
 10
62.93907200000001
 20
769.52680950000001
 11
62.932991000000015
 21
769.58741750000002
  0
LINE
  8
_0-0_0
  6
CONTINUOUS
 62
    7
 10
62.932991000000015
 20
769.58741750000002
 11
62.929984999999988
 21
769.63667250000003
  0
LINE
  8
_0-0_0
  6
CONTINUOUS
 62
    7
 10
62.929984999999988
 20
769.63667250000003
 11
62.928962999999953
 21
769.68489050000005
  0
LINE
  8
_0-0_0
  6
CONTINUOUS
 62
    7
 10
63.228966000000014
 20
763.88792450000005
 11
63.312423999999965
 21
764.26661650000005
  0
LINE
  8
_0-0_0
  6
CONTINUOUS
 62
    7
 10
63.312423999999965
 20
764.26661650000005
 11
63.352515999999923
 21
764.4581455
  0
LINE
  8
_0-0_0
  6
CONTINUOUS
 62
    7
 10
63.352515999999923
 20
764.4581455
 11
63.408599999999979
 21
764.74815350000006
  0
LINE
  8
_0-0_0
  6
CONTINUOUS
 62
    7
 10
63.408599999999979
 20
764.74815350000006
 11
63.446197999999981
 21
764.96772750000002
  0
LINE
  8
_0-0_0
  6
CONTINUOUS
 62
    7
 10
63.446197999999981
 20
764.96772750000002
 11
63.478843999999981
 21
765.18897949999996
  0
LINE
  8
_0-0_0
  6
CONTINUOUS
 62
    7
 10
63.478843999999981
 20
765.18897949999996
 11
63.506003999999962
 21
765.41578649999997
  0
LINE
  8
_0-0_0
  6
CONTINUOUS
 62
    7
 10
63.506003999999962
 20
765.41578649999997
 11
63.526070000000004
 21
765.64317349999999
  0
LINE
  8
_0-0_0
  6
CONTINUOUS
 62
    7
 10
63.526070000000004
 20
765.64317349999999
 11
63.533226000000013
 21
765.7569125
  0
LINE
  8
_0-0_0
  6
CONTINUOUS
 62
    7
 10
63.533226000000013
 20
765.7569125
 11
63.538383999999951
 21
765.87059050000005
  0
LINE
  8
_0-0_0
  6
CONTINUOUS
 62
    7
 10
63.538383999999951
 20
765.87059050000005
 11
63.542099000000007
 21
766.02201850000006
  0
LINE
  8
_0-0_0
  6
CONTINUOUS
 62
    7
 10
63.542099000000007
 20
766.02201850000006
 11
63.542159999999967
 21
766.1732935
  0
LINE
  8
_0-0_0
  6
CONTINUOUS
 62
    7
 10
63.542159999999967
 20
766.1732935
 11
63.538573999999926
 21
766.32435550000002
  0
LINE
  8
_0-0_0
  6
CONTINUOUS
 62
    7
 10
63.538573999999926
 20
766.32435550000002
 11
63.529076000000032
 21
766.51289350000002
  0
LINE
  8
_0-0_0
  6
CONTINUOUS
 62
    7
 10
63.529076000000032
 20
766.51289350000002
 11
63.514205999999945
 21
766.70112549999999
  0
LINE
  8
_0-0_0
  6
CONTINUOUS
 62
    7
 10
63.514205999999945
 20
766.70112549999999
 11
63.494285999999988
 21
766.88908349999997
  0
LINE
  8
_0-0_0
  6
CONTINUOUS
 62
    7
 10
63.494285999999988
 20
766.88908349999997
 11
63.477897999999982
 21
767.01795949999996
  0
LINE
  8
_0-0_0
  6
CONTINUOUS
 62
    7
 10
63.477897999999982
 20
767.01795949999996
 11
63.459487999999965
 21
767.1465915
  0
LINE
  8
_0-0_0
  6
CONTINUOUS
 62
    7
 10
63.459487999999965
 20
767.1465915
 11
63.435326000000032
 21
767.29853849999995
  0
LINE
  8
_0-0_0
  6
CONTINUOUS
 62
    7
 10
63.435326000000032
 20
767.29853849999995
 11
63.408927999999946
 21
767.44987449999996
  0
LINE
  8
_0-0_0
  6
CONTINUOUS
 62
    7
 10
63.408927999999946
 20
767.44987449999996
 11
63.352759999999989
 21
767.74049349999996
  0
LINE
  8
_0-0_0
  6
CONTINUOUS
 62
    7
 10
63.352759999999989
 20
767.74049349999996
 11
63.312598999999977
 21
767.93244949999996
  0
LINE
  8
_0-0_0
  6
CONTINUOUS
 62
    7
 10
63.312598999999977
 20
767.93244949999996
 11
63.228966000000014
 21
768.3119355
  0
LINE
  8
_0-0_0
  6
CONTINUOUS
 62
    7
 10
63.228958000000034
 20
763.88792450000005
 11
63.170158000000015
 21
763.64106749999996
  0
LINE
  8
_0-0_0
  6
CONTINUOUS
 62
    7
 10
63.170158000000015
 20
763.64106749999996
 11
63.120400000000018
 21
763.44874549999997
  0
LINE
  8
_0-0_0
  6
CONTINUOUS
 62
    7
 10
63.120400000000018
 20
763.44874549999997
 11
63.049277999999958
 21
763.18299850000005
  0
LINE
  8
_0-0_0
  6
CONTINUOUS
 62
    7
 10
63.049277999999958
 20
763.18299850000005
 11
63.016318999999953
 21
763.05632049999997
  0
LINE
  8
_0-0_0
  6
CONTINUOUS
 62
    7
 10
63.016318999999953
 20
763.05632049999997
 11
62.991057999999953
 21
762.95286550000003
  0
LINE
  8
_0-0_0
  6
CONTINUOUS
 62
    7
 10
62.991057999999953
 20
762.95286550000003
 11
62.969024999999988
 21
762.85288949999995
  0
LINE
  8
_0-0_0
  6
CONTINUOUS
 62
    7
 10
62.969024999999988
 20
762.85288949999995
 11
62.947639999999978
 21
762.73518349999995
  0
LINE
  8
_0-0_0
  6
CONTINUOUS
 62
    7
 10
62.947639999999978
 20
762.73518349999995
 11
62.93907200000001
 21
762.67304950000005
  0
LINE
  8
_0-0_0
  6
CONTINUOUS
 62
    7
 10
62.93907200000001
 20
762.67304950000005
 11
62.932991000000015
 21
762.61244150000005
  0
LINE
  8
_0-0_0
  6
CONTINUOUS
 62
    7
 10
62.932991000000015
 20
762.61244150000005
 11
62.929984999999988
 21
762.56321749999995
  0
LINE
  8
_0-0_0
  6
CONTINUOUS
 62
    7
 10
62.929984999999988
 20
762.56321749999995
 11
62.928962999999953
 21
762.51499950000004
  0
LINE
  8
_0-0_0
  6
CONTINUOUS
 62
    7
 10
62.928962999999953
 20
758.74147049999999
 11
62.928962999999953
 21
762.09223950000001
  0
ARC
  8
_0-0_0
  6
CONTINUOUS
 62
    7
 10
64.928962999999953
 20
758.74147049999999
 40
2
 50
180.00000900000003
 51
251.56498900000003
  0
LINE
  8
_0-0_0
  6
CONTINUOUS
 62
    7
 10
167.37895200000003
 20
777.59992950000003
 11
168.02896099999998
 21
777.59992950000003
  0
ARC
  8
_0-0_0
  6
CONTINUOUS
 62
    7
 10
167.37895200000003
 20
777.34992950000003
 40
0.25
 50
90.000003000000007
 51
180.00000900000001
  0
LINE
  8
_0-0_0
  6
CONTINUOUS
 62
    7
 10
167.12895200000003
 20
777.34992950000003
 11
167.12895200000003
 21
776.69993550000004
  0
LINE
  8
_0-0_0
  6
CONTINUOUS
 62
    7
 10
166.72895800000003
 20
776.69993550000004
 11
167.12895200000003
 21
776.69993550000004
  0
LINE
  8
_0-0_0
  6
CONTINUOUS
 62
    7
 10
166.72895800000003
 20
776.69993550000004
 11
166.72895800000003
 21
777.34992950000003
  0
ARC
  8
_0-0_0
  6
CONTINUOUS
 62
    7
 10
166.47895800000003
 20
777.34992950000003
 40
0.25
 50
0
 51
90.000003000000007
  0
LINE
  8
_0-0_0
  6
CONTINUOUS
 62
    7
 10
165.82896400000004
 20
777.59992950000003
 11
166.47895800000003
 21
777.59992950000003
  0
LINE
  8
_0-0_0
  6
CONTINUOUS
 62
    7
 10
165.82896400000004
 20
777.59992950000003
 11
165.82896400000004
 21
777.99995450000006
  0
LINE
  8
_0-0_0
  6
CONTINUOUS
 62
    7
 10
166.47895800000003
 20
777.99995450000006
 11
165.82896400000004
 21
777.99995450000006
  0
ARC
  8
_0-0_0
  6
CONTINUOUS
 62
    7
 10
166.47895800000003
 20
778.24995450000006
 40
0.25
 50
269.99999700000001
 51
0
  0
LINE
  8
_0-0_0
  6
CONTINUOUS
 62
    7
 10
166.72895800000003
 20
778.24995450000006
 11
166.72895800000003
 21
778.89994750000005
  0
LINE
  8
_0-0_0
  6
CONTINUOUS
 62
    7
 10
167.12895200000003
 20
778.89994750000005
 11
166.72895800000003
 21
778.89994750000005
  0
LINE
  8
_0-0_0
  6
CONTINUOUS
 62
    7
 10
167.12895200000003
 20
778.89994750000005
 11
167.12895200000003
 21
778.24995450000006
  0
ARC
  8
_0-0_0
  6
CONTINUOUS
 62
    7
 10
167.37895200000003
 20
778.24995450000006
 40
0.25
 50
180.00000900000003
 51
269.99999700000001
  0
LINE
  8
_0-0_0
  6
CONTINUOUS
 62
    7
 10
168.02896099999998
 20
777.99995450000006
 11
167.37895200000003
 21
777.99995450000006
  0
LINE
  8
_0-0_0
  6
CONTINUOUS
 62
    7
 10
168.02896099999998
 20
777.99995450000006
 11
168.02896099999998
 21
777.59992950000003
  0
LINE
  8
_0-0_0
  6
CONTINUOUS
 62
    7
 10
88.378966999999989
 20
777.59992950000003
 11
89.028960999999981
 21
777.59992950000003
  0
ARC
  8
_0-0_0
  6
CONTINUOUS
 62
    7
 10
88.378966999999989
 20
777.34992950000003
 40
0.25
 50
90.000003000000007
 51
180.00000900000001
  0
LINE
  8
_0-0_0
  6
CONTINUOUS
 62
    7
 10
88.128966999999989
 20
777.34992950000003
 11
88.128966999999989
 21
776.69993550000004
  0
LINE
  8
_0-0_0
  6
CONTINUOUS
 62
    7
 10
87.728958000000034
 20
776.69993550000004
 11
88.128966999999989
 21
776.69993550000004
  0
LINE
  8
_0-0_0
  6
CONTINUOUS
 62
    7
 10
87.728958000000034
 20
776.69993550000004
 11
87.728958000000034
 21
777.34992950000003
  0
ARC
  8
_0-0_0
  6
CONTINUOUS
 62
    7
 10
87.478958000000034
 20
777.34992950000003
 40
0.25
 50
0
 51
90.000003000000007
  0
LINE
  8
_0-0_0
  6
CONTINUOUS
 62
    7
 10
86.828964000000042
 20
777.59992950000003
 11
87.478958000000034
 21
777.59992950000003
  0
LINE
  8
_0-0_0
  6
CONTINUOUS
 62
    7
 10
86.828964000000042
 20
777.59992950000003
 11
86.828964000000042
 21
777.99995450000006
  0
LINE
  8
_0-0_0
  6
CONTINUOUS
 62
    7
 10
87.478958000000034
 20
777.99995450000006
 11
86.828964000000042
 21
777.99995450000006
  0
ARC
  8
_0-0_0
  6
CONTINUOUS
 62
    7
 10
87.478958000000034
 20
778.24995450000006
 40
0.25
 50
269.99999700000001
 51
0
  0
LINE
  8
_0-0_0
  6
CONTINUOUS
 62
    7
 10
87.728958000000034
 20
778.24995450000006
 11
87.728958000000034
 21
778.89994750000005
  0
LINE
  8
_0-0_0
  6
CONTINUOUS
 62
    7
 10
88.128966999999989
 20
778.89994750000005
 11
87.728958000000034
 21
778.89994750000005
  0
LINE
  8
_0-0_0
  6
CONTINUOUS
 62
    7
 10
88.128966999999989
 20
778.89994750000005
 11
88.128966999999989
 21
778.24995450000006
  0
ARC
  8
_0-0_0
  6
CONTINUOUS
 62
    7
 10
88.378966999999989
 20
778.24995450000006
 40
0.25
 50
180.00000900000003
 51
269.99999700000001
  0
LINE
  8
_0-0_0
  6
CONTINUOUS
 62
    7
 10
89.028960999999981
 20
777.99995450000006
 11
88.378966999999989
 21
777.99995450000006
  0
LINE
  8
_0-0_0
  6
CONTINUOUS
 62
    7
 10
89.028960999999981
 20
777.99995450000006
 11
89.028960999999981
 21
777.59992950000003
  0
LINE
  8
_0-0_0
  6
CONTINUOUS
 62
    7
 10
47.928962999999953
 20
775.6253815
 11
47.928962999999953
 21
775.47865249999995
  0
LINE
  8
_0-0_0
  6
CONTINUOUS
 62
    7
 10
47.928962999999953
 20
775.81590249999999
 11
47.928962999999953
 21
775.6253815
  0
LINE
  8
_0-0_0
  6
CONTINUOUS
 62
    7
 10
47.928962999999953
 20
775.99092050000002
 11
47.928962999999953
 21
775.81590249999999
  0
LINE
  8
_0-0_0
  6
CONTINUOUS
 62
    7
 10
47.928962999999953
 20
776.14851350000004
 11
47.928962999999953
 21
775.99092050000002
  0
LINE
  8
_0-0_0
  6
CONTINUOUS
 62
    7
 10
47.928962999999953
 20
776.28694150000001
 11
47.928962999999953
 21
776.14851350000004
  0
LINE
  8
_0-0_0
  6
CONTINUOUS
 62
    7
 10
47.928962999999953
 20
776.40470849999997
 11
47.928962999999953
 21
776.28694150000001
  0
LINE
  8
_0-0_0
  6
CONTINUOUS
 62
    7
 10
47.928962999999953
 20
776.50050350000004
 11
47.928962999999953
 21
776.40470849999997
  0
LINE
  8
_0-0_0
  6
CONTINUOUS
 62
    7
 10
47.928962999999953
 20
776.57328749999999
 11
47.928962999999953
 21
776.50050350000004
  0
LINE
  8
_0-0_0
  6
CONTINUOUS
 62
    7
 10
47.928962999999953
 20
776.62223849999998
 11
47.928962999999953
 21
776.57328749999999
  0
LINE
  8
_0-0_0
  6
CONTINUOUS
 62
    7
 10
47.928962999999953
 20
776.64994750000005
 11
47.928962999999953
 21
776.62223849999998
  0
LINE
  8
_0-0_0
  6
CONTINUOUS
 62
    7
 10
47.928962999999953
 20
776.64994750000005
 11
47.928962999999953
 21
776.64686549999999
  0
LINE
  8
_0-0_0
  6
CONTINUOUS
 62
    7
 10
47.928962999999953
 20
772.1530305
 11
47.928962999999953
 21
772.14994750000005
  0
LINE
  8
_0-0_0
  6
CONTINUOUS
 62
    7
 10
47.928962999999953
 20
772.17765750000001
 11
47.928962999999953
 21
772.14994750000005
  0
LINE
  8
_0-0_0
  6
CONTINUOUS
 62
    7
 10
47.928962999999953
 20
772.2266085
 11
47.928962999999953
 21
772.17765750000001
  0
LINE
  8
_0-0_0
  6
CONTINUOUS
 62
    7
 10
47.928962999999953
 20
772.29939249999995
 11
47.928962999999953
 21
772.2266085
  0
LINE
  8
_0-0_0
  6
CONTINUOUS
 62
    7
 10
47.928962999999953
 20
772.39518750000002
 11
47.928962999999953
 21
772.29939249999995
  0
LINE
  8
_0-0_0
  6
CONTINUOUS
 62
    7
 10
47.928962999999953
 20
772.42536949999999
 11
47.928962999999953
 21
772.39518750000002
  0
LINE
  8
_0-0_0
  6
CONTINUOUS
 62
    7
 10
47.928962999999953
 20
772.51292450000005
 11
47.928962999999953
 21
772.42536949999999
  0
LINE
  8
_0-0_0
  6
CONTINUOUS
 62
    7
 10
47.928962999999953
 20
772.65135150000003
 11
47.928962999999953
 21
772.51292450000005
  0
LINE
  8
_0-0_0
  6
CONTINUOUS
 62
    7
 10
47.928962999999953
 20
772.80894450000005
 11
47.928962999999953
 21
772.65135150000003
  0
LINE
  8
_0-0_0
  6
CONTINUOUS
 62
    7
 10
47.928962999999953
 20
772.98396249999996
 11
47.928962999999953
 21
772.80894450000005
  0
LINE
  8
_0-0_0
  6
CONTINUOUS
 62
    7
 10
47.928962999999953
 20
773.17451449999999
 11
47.928962999999953
 21
772.98396249999996
  0
LINE
  8
_0-0_0
  6
CONTINUOUS
 62
    7
 10
47.928962999999953
 20
773.37846349999995
 11
47.928962999999953
 21
773.17451449999999
  0
LINE
  8
_0-0_0
  6
CONTINUOUS
 62
    7
 10
47.928962999999953
 20
773.59361249999995
 11
47.928962999999953
 21
773.37846349999995
  0
LINE
  8
_0-0_0
  6
CONTINUOUS
 62
    7
 10
47.928962999999953
 20
773.8176115
 11
47.928962999999953
 21
773.59361249999995
  0
LINE
  8
_0-0_0
  6
CONTINUOUS
 62
    7
 10
47.928962999999953
 20
774.04795850000005
 11
47.928962999999953
 21
773.8176115
  0
LINE
  8
_0-0_0
  6
CONTINUOUS
 62
    7
 10
47.928962999999953
 20
774.28218049999998
 11
47.928962999999953
 21
774.04795850000005
  0
LINE
  8
_0-0_0
  6
CONTINUOUS
 62
    7
 10
47.928962999999953
 20
774.51771550000001
 11
47.928962999999953
 21
774.28218049999998
  0
LINE
  8
_0-0_0
  6
CONTINUOUS
 62
    7
 10
47.928962999999953
 20
774.75190750000002
 11
47.928962999999953
 21
774.51771550000001
  0
LINE
  8
_0-0_0
  6
CONTINUOUS
 62
    7
 10
47.928962999999953
 20
774.98228449999999
 11
47.928962999999953
 21
774.75190750000002
  0
LINE
  8
_0-0_0
  6
CONTINUOUS
 62
    7
 10
47.928962999999953
 20
775.20628350000004
 11
47.928962999999953
 21
774.98228449999999
  0
LINE
  8
_0-0_0
  6
CONTINUOUS
 62
    7
 10
47.928962999999953
 20
775.42143250000004
 11
47.928962999999953
 21
775.20628350000004
  0
LINE
  8
_0-0_0
  6
CONTINUOUS
 62
    7
 10
47.928962999999953
 20
775.47865249999995
 11
47.928962999999953
 21
775.42143250000004
  0
LINE
  8
_0-0_0
  6
CONTINUOUS
 62
    7
 10
62.928962999999953
 20
767.66200249999997
 11
62.928962999999953
 21
768.70762649999995
  0
LINE
  8
_0-0_0
  6
CONTINUOUS
 62
    7
 10
62.928962999999953
 20
769.9922335
 11
62.928962999999953
 21
768.70762649999995
  0
LINE
  8
_0-0_0
  6
CONTINUOUS
 62
    7
 10
62.928962999999953
 20
770.10762050000005
 11
62.928962999999953
 21
769.9922335
  0
LINE
  8
_0-0_0
  6
CONTINUOUS
 62
    7
 10
62.928962999999953
 20
767.66200249999997
 11
62.928962999999953
 21
764.53788750000001
  0
LINE
  8
_0-0_0
  6
CONTINUOUS
 62
    7
 10
62.928962999999953
 20
762.09223950000001
 11
62.928962999999953
 21
762.20762649999995
  0
LINE
  8
_0-0_0
  6
CONTINUOUS
 62
    7
 10
62.928962999999953
 20
763.4922335
 11
62.928962999999953
 21
762.20762649999995
  0
LINE
  8
_0-0_0
  6
CONTINUOUS
 62
    7
 10
62.928962999999953
 20
763.4922335
 11
62.928962999999953
 21
764.53788750000001
  0
LINE
  8
_0-0_0
  6
CONTINUOUS
 62
    7
 10
47.928962999999953
 20
759.0253755
 11
47.928962999999953
 21
758.87864650000006
  0
LINE
  8
_0-0_0
  6
CONTINUOUS
 62
    7
 10
47.928962999999953
 20
759.21592650000002
 11
47.928962999999953
 21
759.0253755
  0
LINE
  8
_0-0_0
  6
CONTINUOUS
 62
    7
 10
47.928962999999953
 20
759.39094550000004
 11
47.928962999999953
 21
759.21592650000002
  0
LINE
  8
_0-0_0
  6
CONTINUOUS
 62
    7
 10
47.928962999999953
 20
759.54850750000003
 11
47.928962999999953
 21
759.39094550000004
  0
LINE
  8
_0-0_0
  6
CONTINUOUS
 62
    7
 10
47.928962999999953
 20
759.68696550000004
 11
47.928962999999953
 21
759.54850750000003
  0
LINE
  8
_0-0_0
  6
CONTINUOUS
 62
    7
 10
47.928962999999953
 20
759.80470249999996
 11
47.928962999999953
 21
759.68696550000004
  0
LINE
  8
_0-0_0
  6
CONTINUOUS
 62
    7
 10
47.928962999999953
 20
759.90049750000003
 11
47.928962999999953
 21
759.80470249999996
  0
LINE
  8
_0-0_0
  6
CONTINUOUS
 62
    7
 10
47.928962999999953
 20
759.97328149999998
 11
47.928962999999953
 21
759.90049750000003
  0
LINE
  8
_0-0_0
  6
CONTINUOUS
 62
    7
 10
47.928962999999953
 20
760.02223149999998
 11
47.928962999999953
 21
759.97328149999998
  0
LINE
  8
_0-0_0
  6
CONTINUOUS
 62
    7
 10
47.928962999999953
 20
760.04994150000005
 11
47.928962999999953
 21
760.02223149999998
  0
LINE
  8
_0-0_0
  6
CONTINUOUS
 62
    7
 10
47.928962999999953
 20
760.04994150000005
 11
47.928962999999953
 21
760.04685949999998
  0
LINE
  8
_0-0_0
  6
CONTINUOUS
 62
    7
 10
47.928962999999953
 20
755.55302449999999
 11
47.928962999999953
 21
755.54994150000005
  0
LINE
  8
_0-0_0
  6
CONTINUOUS
 62
    7
 10
47.928962999999953
 20
755.5776515
 11
47.928962999999953
 21
755.54994150000005
  0
LINE
  8
_0-0_0
  6
CONTINUOUS
 62
    7
 10
47.928962999999953
 20
755.62660249999999
 11
47.928962999999953
 21
755.5776515
  0
LINE
  8
_0-0_0
  6
CONTINUOUS
 62
    7
 10
47.928962999999953
 20
755.69938650000006
 11
47.928962999999953
 21
755.62660249999999
  0
LINE
  8
_0-0_0
  6
CONTINUOUS
 62
    7
 10
47.928962999999953
 20
755.79518150000001
 11
47.928962999999953
 21
755.69938650000006
  0
LINE
  8
_0-0_0
  6
CONTINUOUS
 62
    7
 10
47.928962999999953
 20
755.82539350000002
 11
47.928962999999953
 21
755.79518150000001
  0
LINE
  8
_0-0_0
  6
CONTINUOUS
 62
    7
 10
47.928962999999953
 20
755.91291750000005
 11
47.928962999999953
 21
755.82539350000002
  0
LINE
  8
_0-0_0
  6
CONTINUOUS
 62
    7
 10
47.928962999999953
 20
756.05137649999995
 11
47.928962999999953
 21
755.91291750000005
  0
LINE
  8
_0-0_0
  6
CONTINUOUS
 62
    7
 10
47.928962999999953
 20
756.20896849999997
 11
47.928962999999953
 21
756.05137649999995
  0
LINE
  8
_0-0_0
  6
CONTINUOUS
 62
    7
 10
47.928962999999953
 20
756.38398749999999
 11
47.928962999999953
 21
756.20896849999997
  0
LINE
  8
_0-0_0
  6
CONTINUOUS
 62
    7
 10
47.928962999999953
 20
756.57450849999998
 11
47.928962999999953
 21
756.38398749999999
  0
LINE
  8
_0-0_0
  6
CONTINUOUS
 62
    7
 10
47.928962999999953
 20
756.77845750000006
 11
47.928962999999953
 21
756.57450849999998
  0
LINE
  8
_0-0_0
  6
CONTINUOUS
 62
    7
 10
47.928962999999953
 20
756.99360650000006
 11
47.928962999999953
 21
756.77845750000006
  0
LINE
  8
_0-0_0
  6
CONTINUOUS
 62
    7
 10
47.928962999999953
 20
757.21760549999999
 11
47.928962999999953
 21
756.99360650000006
  0
LINE
  8
_0-0_0
  6
CONTINUOUS
 62
    7
 10
47.928962999999953
 20
757.44795250000004
 11
47.928962999999953
 21
757.21760549999999
  0
LINE
  8
_0-0_0
  6
CONTINUOUS
 62
    7
 10
47.928962999999953
 20
757.68217449999997
 11
47.928962999999953
 21
757.44795250000004
  0
LINE
  8
_0-0_0
  6
CONTINUOUS
 62
    7
 10
47.928962999999953
 20
757.9177095
 11
47.928962999999953
 21
757.68217449999997
  0
LINE
  8
_0-0_0
  6
CONTINUOUS
 62
    7
 10
47.928962999999953
 20
758.15193150000005
 11
47.928962999999953
 21
757.9177095
  0
LINE
  8
_0-0_0
  6
CONTINUOUS
 62
    7
 10
47.928962999999953
 20
758.38227849999998
 11
47.928962999999953
 21
758.15193150000005
  0
LINE
  8
_0-0_0
  6
CONTINUOUS
 62
    7
 10
47.928962999999953
 20
758.60627750000003
 11
47.928962999999953
 21
758.38227849999998
  0
LINE
  8
_0-0_0
  6
CONTINUOUS
 62
    7
 10
47.928962999999953
 20
758.82142650000003
 11
47.928962999999953
 21
758.60627750000003
  0
LINE
  8
_0-0_0
  6
CONTINUOUS
 62
    7
 10
47.928962999999953
 20
758.87864650000006
 11
47.928962999999953
 21
758.82142650000003
  0
LINE
  8
_0-0_0
  6
CONTINUOUS
 62
    7
 10
158.92895499999997
 20
768.64994750000005
 11
154.92895499999997
 21
768.64994750000005
  0
ARC
  8
_0-0_0
  6
CONTINUOUS
 62
    7
 10
154.92895499999997
 20
770.89994750000005
 40
2.25
 50
90.000003000000007
 51
269.99999700000006
  0
LINE
  8
_0-0_0
  6
CONTINUOUS
 62
    7
 10
154.92895499999997
 20
773.14994750000005
 11
158.92895499999997
 21
773.14994750000005
  0
ARC
  8
_0-0_0
  6
CONTINUOUS
 62
    7
 10
158.92895499999997
 20
770.89994750000005
 40
2.25
 50
269.99999700000001
 51
90.000002999999992
  0
ARC
  8
_0-0_0
  6
CONTINUOUS
 62
    7
 10
98.928954999999974
 20
770.89994750000005
 40
2.25
 50
90.000003000000007
 51
269.99999700000006
  0
LINE
  8
_0-0_0
  6
CONTINUOUS
 62
    7
 10
98.928954999999974
 20
773.14994750000005
 11
102.92895499999997
 21
773.14994750000005
  0
ARC
  8
_0-0_0
  6
CONTINUOUS
 62
    7
 10
102.92895499999997
 20
770.89994750000005
 40
2.25
 50
269.99999700000001
 51
90.000002999999992
  0
LINE
  8
_0-0_0
  6
CONTINUOUS
 62
    7
 10
102.92895499999997
 20
768.64994750000005
 11
98.928954999999974
 21
768.64994750000005
  0
LINE
  8
_0-0_0
  6
CONTINUOUS
 62
    7
 10
47.928962999999953
 20
775.6253815
 11
47.678962999999953
 21
775.64994750000005
  0
LINE
  8
_0-0_0
  6
CONTINUOUS
 62
    7
 10
47.928962999999953
 20
775.42143250000004
 11
47.678962999999953
 21
775.64994750000005
  0
LINE
  8
_0-0_0
  6
CONTINUOUS
 62
    7
 10
47.928962999999953
 20
775.81590249999999
 11
47.678962999999953
 21
775.86939949999999
  0
LINE
  8
_0-0_0
  6
CONTINUOUS
 62
    7
 10
47.928962999999953
 20
775.6253815
 11
47.678962999999953
 21
775.86939949999999
  0
LINE
  8
_0-0_0
  6
CONTINUOUS
 62
    7
 10
47.928962999999953
 20
775.99092050000002
 11
47.678962999999953
 21
776.07276950000005
  0
LINE
  8
_0-0_0
  6
CONTINUOUS
 62
    7
 10
47.928962999999953
 20
775.81590249999999
 11
47.678962999999953
 21
776.07276950000005
  0
LINE
  8
_0-0_0
  6
CONTINUOUS
 62
    7
 10
47.928962999999953
 20
776.14851350000004
 11
47.678962999999953
 21
776.25779750000004
  0
LINE
  8
_0-0_0
  6
CONTINUOUS
 62
    7
 10
47.928962999999953
 20
775.99092050000002
 11
47.678962999999953
 21
776.25779750000004
  0
LINE
  8
_0-0_0
  6
CONTINUOUS
 62
    7
 10
47.928962999999953
 20
776.28694150000001
 11
47.678962999999953
 21
776.42250049999996
  0
LINE
  8
_0-0_0
  6
CONTINUOUS
 62
    7
 10
47.928962999999953
 20
776.14851350000004
 11
47.678962999999953
 21
776.42250049999996
  0
LINE
  8
_0-0_0
  6
CONTINUOUS
 62
    7
 10
47.928962999999953
 20
776.40470849999997
 11
47.678962999999953
 21
776.56501749999995
  0
LINE
  8
_0-0_0
  6
CONTINUOUS
 62
    7
 10
47.928962999999953
 20
776.28694150000001
 11
47.678962999999953
 21
776.56501749999995
  0
LINE
  8
_0-0_0
  6
CONTINUOUS
 62
    7
 10
47.928962999999953
 20
776.50050350000004
 11
47.678962999999953
 21
776.68379149999998
  0
LINE
  8
_0-0_0
  6
CONTINUOUS
 62
    7
 10
47.928962999999953
 20
776.40470849999997
 11
47.678962999999953
 21
776.68379149999998
  0
LINE
  8
_0-0_0
  6
CONTINUOUS
 62
    7
 10
47.928962999999953
 20
776.57328749999999
 11
47.678962999999953
 21
776.77757250000002
  0
LINE
  8
_0-0_0
  6
CONTINUOUS
 62
    7
 10
47.928962999999953
 20
776.50050350000004
 11
47.678962999999953
 21
776.77757250000002
  0
LINE
  8
_0-0_0
  6
CONTINUOUS
 62
    7
 10
47.928962999999953
 20
776.62223849999998
 11
47.678962999999953
 21
776.84532149999995
  0
LINE
  8
_0-0_0
  6
CONTINUOUS
 62
    7
 10
47.928962999999953
 20
776.57328749999999
 11
47.678962999999953
 21
776.84532149999995
  0
LINE
  8
_0-0_0
  6
CONTINUOUS
 62
    7
 10
47.928962999999953
 20
776.64686549999999
 11
47.678962999999953
 21
776.88624549999997
  0
LINE
  8
_0-0_0
  6
CONTINUOUS
 62
    7
 10
47.928962999999953
 20
776.62223849999998
 11
47.678962999999953
 21
776.88624549999997
  0
LINE
  8
_0-0_0
  6
CONTINUOUS
 62
    7
 10
47.928962999999953
 20
776.64686549999999
 11
47.678962999999953
 21
776.89994750000005
  0
LINE
  8
_0-0_0
  6
CONTINUOUS
 62
    7
 10
47.928962999999953
 20
772.1530305
 11
47.678962999999953
 21
771.89994750000005
  0
LINE
  8
_0-0_0
  6
CONTINUOUS
 62
    7
 10
47.928962999999953
 20
772.17765750000001
 11
47.678962999999953
 21
771.91365050000002
  0
LINE
  8
_0-0_0
  6
CONTINUOUS
 62
    7
 10
47.928962999999953
 20
772.1530305
 11
47.678962999999953
 21
771.91365050000002
  0
LINE
  8
_0-0_0
  6
CONTINUOUS
 62
    7
 10
47.928962999999953
 20
772.2266085
 11
47.678962999999953
 21
771.95457450000004
  0
LINE
  8
_0-0_0
  6
CONTINUOUS
 62
    7
 10
47.928962999999953
 20
772.17765750000001
 11
47.678962999999953
 21
771.95457450000004
  0
LINE
  8
_0-0_0
  6
CONTINUOUS
 62
    7
 10
47.928962999999953
 20
772.29939249999995
 11
47.678962999999953
 21
772.02229250000005
  0
LINE
  8
_0-0_0
  6
CONTINUOUS
 62
    7
 10
47.928962999999953
 20
772.2266085
 11
47.678962999999953
 21
772.02229250000005
  0
LINE
  8
_0-0_0
  6
CONTINUOUS
 62
    7
 10
47.928962999999953
 20
772.39518750000002
 11
47.678962999999953
 21
772.11607349999997
  0
LINE
  8
_0-0_0
  6
CONTINUOUS
 62
    7
 10
47.928962999999953
 20
772.29939249999995
 11
47.678962999999953
 21
772.11607349999997
  0
LINE
  8
_0-0_0
  6
CONTINUOUS
 62
    7
 10
47.928962999999953
 20
772.39518750000002
 11
47.798995999999988
 21
772.31132449999996
  0
LINE
  8
_0-0_0
  6
CONTINUOUS
 62
    7
 10
47.928962999999953
 20
772.51292450000005
 11
47.678962999999953
 21
772.23487850000004
  0
LINE
  8
_0-0_0
  6
CONTINUOUS
 62
    7
 10
47.798995999999988
 20
772.31132449999996
 11
47.678962999999953
 21
772.23487850000004
  0
LINE
  8
_0-0_0
  6
CONTINUOUS
 62
    7
 10
47.928962999999953
 20
772.65135150000003
 11
47.678962999999953
 21
772.37739550000003
  0
LINE
  8
_0-0_0
  6
CONTINUOUS
 62
    7
 10
47.928962999999953
 20
772.51292450000005
 11
47.678962999999953
 21
772.37739550000003
  0
LINE
  8
_0-0_0
  6
CONTINUOUS
 62
    7
 10
47.928962999999953
 20
772.80894450000005
 11
47.678962999999953
 21
772.54206850000003
  0
LINE
  8
_0-0_0
  6
CONTINUOUS
 62
    7
 10
47.928962999999953
 20
772.65135150000003
 11
47.678962999999953
 21
772.54206850000003
  0
LINE
  8
_0-0_0
  6
CONTINUOUS
 62
    7
 10
47.928962999999953
 20
772.98396249999996
 11
47.678962999999953
 21
772.72712650000005
  0
LINE
  8
_0-0_0
  6
CONTINUOUS
 62
    7
 10
47.928962999999953
 20
772.80894450000005
 11
47.678962999999953
 21
772.72712650000005
  0
LINE
  8
_0-0_0
  6
CONTINUOUS
 62
    7
 10
47.928962999999953
 20
773.17451449999999
 11
47.678962999999953
 21
772.9304965
  0
LINE
  8
_0-0_0
  6
CONTINUOUS
 62
    7
 10
47.928962999999953
 20
772.98396249999996
 11
47.678962999999953
 21
772.9304965
  0
LINE
  8
_0-0_0
  6
CONTINUOUS
 62
    7
 10
47.928962999999953
 20
773.37846349999995
 11
47.678962999999953
 21
773.14994750000005
  0
LINE
  8
_0-0_0
  6
CONTINUOUS
 62
    7
 10
47.928962999999953
 20
773.17451449999999
 11
47.678962999999953
 21
773.14994750000005
  0
LINE
  8
_0-0_0
  6
CONTINUOUS
 62
    7
 10
47.928962999999953
 20
773.59361249999995
 11
47.678962999999953
 21
773.38310249999995
  0
LINE
  8
_0-0_0
  6
CONTINUOUS
 62
    7
 10
47.928962999999953
 20
773.37846349999995
 11
47.678962999999953
 21
773.38310249999995
  0
LINE
  8
_0-0_0
  6
CONTINUOUS
 62
    7
 10
47.928962999999953
 20
773.8176115
 11
47.678962999999953
 21
773.62739550000003
  0
LINE
  8
_0-0_0
  6
CONTINUOUS
 62
    7
 10
47.928962999999953
 20
773.59361249999995
 11
47.678962999999953
 21
773.62739550000003
  0
LINE
  8
_0-0_0
  6
CONTINUOUS
 62
    7
 10
47.928962999999953
 20
774.04795850000005
 11
47.678962999999953
 21
773.88017249999996
  0
LINE
  8
_0-0_0
  6
CONTINUOUS
 62
    7
 10
47.928962999999953
 20
773.8176115
 11
47.678962999999953
 21
773.88017249999996
  0
LINE
  8
_0-0_0
  6
CONTINUOUS
 62
    7
 10
47.928962999999953
 20
774.28218049999998
 11
47.678962999999953
 21
774.13862549999999
  0
LINE
  8
_0-0_0
  6
CONTINUOUS
 62
    7
 10
47.928962999999953
 20
774.04795850000005
 11
47.678962999999953
 21
774.13862549999999
  0
LINE
  8
_0-0_0
  6
CONTINUOUS
 62
    7
 10
47.928962999999953
 20
774.51771550000001
 11
47.678962999999953
 21
774.39994750000005
  0
LINE
  8
_0-0_0
  6
CONTINUOUS
 62
    7
 10
47.928962999999953
 20
774.28218049999998
 11
47.678962999999953
 21
774.39994750000005
  0
LINE
  8
_0-0_0
  6
CONTINUOUS
 62
    7
 10
47.928962999999953
 20
774.75190750000002
 11
47.678962999999953
 21
774.6612705
  0
LINE
  8
_0-0_0
  6
CONTINUOUS
 62
    7
 10
47.928962999999953
 20
774.51771550000001
 11
47.678962999999953
 21
774.6612705
  0
LINE
  8
_0-0_0
  6
CONTINUOUS
 62
    7
 10
47.928962999999953
 20
774.98228449999999
 11
47.678962999999953
 21
774.91972350000003
  0
LINE
  8
_0-0_0
  6
CONTINUOUS
 62
    7
 10
47.928962999999953
 20
774.75190750000002
 11
47.678962999999953
 21
774.91972350000003
  0
LINE
  8
_0-0_0
  6
CONTINUOUS
 62
    7
 10
47.928962999999953
 20
775.20628350000004
 11
47.678962999999953
 21
775.17250049999996
  0
LINE
  8
_0-0_0
  6
CONTINUOUS
 62
    7
 10
47.928962999999953
 20
774.98228449999999
 11
47.678962999999953
 21
775.17250049999996
  0
LINE
  8
_0-0_0
  6
CONTINUOUS
 62
    7
 10
47.928962999999953
 20
775.42143250000004
 11
47.678962999999953
 21
775.41679350000004
  0
LINE
  8
_0-0_0
  6
CONTINUOUS
 62
    7
 10
47.928962999999953
 20
775.20628350000004
 11
47.678962999999953
 21
775.41679350000004
  0
LINE
  8
_0-0_0
  6
CONTINUOUS
 62
    7
 10
62.928962999999953
 20
769.9922335
 11
53.221137999999996
 21
769.9922335
  0
LINE
  8
_0-0_0
  6
CONTINUOUS
 62
    7
 10
53.221137999999996
 20
769.9922335
 11
53.166656999999987
 21
770.06217949999996
  0
LINE
  8
_0-0_0
  6
CONTINUOUS
 62
    7
 10
53.166656999999987
 20
770.06217949999996
 11
53.115554999999972
 21
770.13099650000004
  0
LINE
  8
_0-0_0
  6
CONTINUOUS
 62
    7
 10
53.115554999999972
 20
770.13099650000004
 11
53.067916999999966
 21
770.19850150000002
  0
LINE
  8
_0-0_0
  6
CONTINUOUS
 62
    7
 10
53.067916999999966
 20
770.19850150000002
 11
53.023415
 21
770.2650605
  0
LINE
  8
_0-0_0
  6
CONTINUOUS
 62
    7
 10
53.023415
 20
770.2650605
 11
52.96868900000004
 21
770.35261549999996
  0
LINE
  8
_0-0_0
  6
CONTINUOUS
 62
    7
 10
52.96868900000004
 20
770.35261549999996
 11
52.91918899999996
 21
770.43870549999997
  0
LINE
  8
_0-0_0
  6
CONTINUOUS
 62
    7
 10
52.91918899999996
 20
770.43870549999997
 11
52.87471800000003
 21
770.52354449999996
  0
LINE
  8
_0-0_0
  6
CONTINUOUS
 62
    7
 10
52.87471800000003
 20
770.52354449999996
 11
52.827751000000035
 21
770.62385549999999
  0
LINE
  8
_0-0_0
  6
CONTINUOUS
 62
    7
 10
52.827751000000035
 20
770.62385549999999
 11
52.787544000000025
 21
770.72279349999997
  0
LINE
  8
_0-0_0
  6
CONTINUOUS
 62
    7
 10
52.787544000000025
 20
770.72279349999997
 11
52.753875999999991
 21
770.82054149999999
  0
LINE
  8
_0-0_0
  6
CONTINUOUS
 62
    7
 10
52.753875999999991
 20
770.82054149999999
 11
52.72659299999998
 21
770.91734350000002
  0
LINE
  8
_0-0_0
  6
CONTINUOUS
 62
    7
 10
52.72659299999998
 20
770.91734350000002
 11
52.705544000000032
 21
771.01338150000004
  0
LINE
  8
_0-0_0
  6
CONTINUOUS
 62
    7
 10
52.705544000000032
 20
771.01338150000004
 11
52.689613000000008
 21
771.11726350000004
  0
LINE
  8
_0-0_0
  6
CONTINUOUS
 62
    7
 10
52.689613000000008
 20
771.11726350000004
 11
52.680854999999951
 21
771.22068750000005
  0
LINE
  8
_0-0_0
  6
CONTINUOUS
 62
    7
 10
52.680854999999951
 20
771.22068750000005
 11
52.679221999999982
 21
771.32392849999997
  0
LINE
  8
_0-0_0
  6
CONTINUOUS
 62
    7
 10
52.679221999999982
 20
771.32392849999997
 11
52.684692000000041
 21
771.42720050000003
  0
LINE
  8
_0-0_0
  6
CONTINUOUS
 62
    7
 10
52.684692000000041
 20
771.42720050000003
 11
52.697295999999938
 21
771.53080750000004
  0
LINE
  8
_0-0_0
  6
CONTINUOUS
 62
    7
 10
52.697295999999938
 20
771.53080750000004
 11
52.71711700000003
 21
771.63493349999999
  0
LINE
  8
_0-0_0
  6
CONTINUOUS
 62
    7
 10
52.71711700000003
 20
771.63493349999999
 11
52.744263000000046
 21
771.73991350000006
  0
LINE
  8
_0-0_0
  6
CONTINUOUS
 62
    7
 10
52.744263000000046
 20
771.73991350000006
 11
52.778908000000001
 21
771.84593150000001
  0
LINE
  8
_0-0_0
  6
CONTINUOUS
 62
    7
 10
52.778908000000001
 20
771.84593150000001
 11
52.821250999999961
 21
771.95332350000001
  0
LINE
  8
_0-0_0
  6
CONTINUOUS
 62
    7
 10
52.821250999999961
 20
771.95332350000001
 11
52.871567000000027
 21
772.06233250000002
  0
LINE
  8
_0-0_0
  6
CONTINUOUS
 62
    7
 10
52.871567000000027
 20
772.06233250000002
 11
52.917267000000038
 21
772.14997849999997
  0
LINE
  8
_0-0_0
  6
CONTINUOUS
 62
    7
 10
62.928962999999953
 20
768.70762649999995
 11
53.221137999999996
 21
768.70762649999995
  0
LINE
  8
_0-0_0
  6
CONTINUOUS
 62
    7
 10
53.221137999999996
 20
768.70762649999995
 11
53.126801
 21
768.46101350000004
  0
LINE
  8
_0-0_0
  6
CONTINUOUS
 62
    7
 10
53.126801
 20
768.46101350000004
 11
53.042854000000034
 21
768.22105350000004
  0
LINE
  8
_0-0_0
  6
CONTINUOUS
 62
    7
 10
53.042854000000034
 20
768.22105350000004
 11
52.96868900000004
 21
767.98692349999999
  0
LINE
  8
_0-0_0
  6
CONTINUOUS
 62
    7
 10
52.96868900000004
 20
767.98692349999999
 11
52.903816000000006
 21
767.75788850000004
  0
LINE
  8
_0-0_0
  6
CONTINUOUS
 62
    7
 10
52.903816000000006
 20
767.75788850000004
 11
52.847777999999948
 21
767.53321849999998
  0
LINE
  8
_0-0_0
  6
CONTINUOUS
 62
    7
 10
52.847777999999948
 20
767.53321849999998
 11
52.800208999999995
 21
767.31224050000003
  0
LINE
  8
_0-0_0
  6
CONTINUOUS
 62
    7
 10
52.800208999999995
 20
767.31224050000003
 11
52.76080300000001
 21
767.0943145
  0
LINE
  8
_0-0_0
  6
CONTINUOUS
 62
    7
 10
52.76080300000001
 20
767.0943145
 11
52.729308999999944
 21
766.87886049999997
  0
LINE
  8
_0-0_0
  6
CONTINUOUS
 62
    7
 10
52.729308999999944
 20
766.87886049999997
 11
52.705544000000032
 21
766.66532849999999
  0
LINE
  8
_0-0_0
  6
CONTINUOUS
 62
    7
 10
52.705544000000032
 20
766.66532849999999
 11
52.689613000000008
 21
766.45762649999995
  0
LINE
  8
_0-0_0
  6
CONTINUOUS
 62
    7
 10
52.689613000000008
 20
766.45762649999995
 11
52.680854999999951
 21
766.25077850000002
  0
LINE
  8
_0-0_0
  6
CONTINUOUS
 62
    7
 10
52.680854999999951
 20
766.25077850000002
 11
52.679221999999982
 21
766.04429649999997
  0
LINE
  8
_0-0_0
  6
CONTINUOUS
 62
    7
 10
52.679221999999982
 20
766.04429649999997
 11
52.684692000000041
 21
765.83772250000004
  0
LINE
  8
_0-0_0
  6
CONTINUOUS
 62
    7
 10
52.684692000000041
 20
765.83772250000004
 11
52.697295999999938
 21
765.63053850000006
  0
LINE
  8
_0-0_0
  6
CONTINUOUS
 62
    7
 10
52.697295999999938
 20
765.63053850000006
 11
52.71711700000003
 21
765.4222565
  0
LINE
  8
_0-0_0
  6
CONTINUOUS
 62
    7
 10
52.71711700000003
 20
765.4222565
 11
52.744263000000046
 21
765.21232550000002
  0
LINE
  8
_0-0_0
  6
CONTINUOUS
 62
    7
 10
52.744263000000046
 20
765.21232550000002
 11
52.778908000000001
 21
765.00025949999997
  0
LINE
  8
_0-0_0
  6
CONTINUOUS
 62
    7
 10
52.778908000000001
 20
765.00025949999997
 11
52.821250999999961
 21
764.78550749999999
  0
LINE
  8
_0-0_0
  6
CONTINUOUS
 62
    7
 10
52.821250999999961
 20
764.78550749999999
 11
52.871567000000027
 21
764.56748949999997
  0
LINE
  8
_0-0_0
  6
CONTINUOUS
 62
    7
 10
52.871567000000027
 20
764.56748949999997
 11
52.925819000000047
 21
764.36122150000006
  0
LINE
  8
_0-0_0
  6
CONTINUOUS
 62
    7
 10
52.925819000000047
 20
764.36122150000006
 11
52.987526000000003
 21
764.15110749999997
  0
LINE
  8
_0-0_0
  6
CONTINUOUS
 62
    7
 10
52.987526000000003
 20
764.15110749999997
 11
53.057045000000016
 21
763.93663049999998
  0
LINE
  8
_0-0_0
  6
CONTINUOUS
 62
    7
 10
53.057045000000016
 20
763.93663049999998
 11
53.134758000000033
 21
763.71723950000001
  0
LINE
  8
_0-0_0
  6
CONTINUOUS
 62
    7
 10
53.134758000000033
 20
763.71723950000001
 11
53.221137999999996
 21
763.4922335
  0
LINE
  8
_0-0_0
  6
CONTINUOUS
 62
    7
 10
62.928962999999953
 20
763.4922335
 11
53.221137999999996
 21
763.4922335
  0
ARC
  8
_0-0_0
  6
CONTINUOUS
 62
    7
 10
58.092689999999948
 20
769.34992950000003
 40
4.9136889999999998
 50
172.48898299999999
 51
187.51101699999998
  0
LINE
  8
_0-0_0
  6
CONTINUOUS
 62
    7
 10
62.928962999999953
 20
762.20762649999995
 11
53.221137999999996
 21
762.20762649999995
  0
LINE
  8
_0-0_0
  6
CONTINUOUS
 62
    7
 10
53.221137999999996
 20
759.59992950000003
 11
53.166656999999987
 21
759.66987549999999
  0
LINE
  8
_0-0_0
  6
CONTINUOUS
 62
    7
 10
53.166656999999987
 20
759.66987549999999
 11
53.115554999999972
 21
759.73869349999995
  0
LINE
  8
_0-0_0
  6
CONTINUOUS
 62
    7
 10
53.115554999999972
 20
759.73869349999995
 11
53.067916999999966
 21
759.80619750000005
  0
LINE
  8
_0-0_0
  6
CONTINUOUS
 62
    7
 10
53.067916999999966
 20
759.80619750000005
 11
53.023415
 21
759.87275650000004
  0
LINE
  8
_0-0_0
  6
CONTINUOUS
 62
    7
 10
53.023415
 20
759.87275650000004
 11
52.96868900000004
 21
759.96031149999999
  0
LINE
  8
_0-0_0
  6
CONTINUOUS
 62
    7
 10
52.96868900000004
 20
759.96031149999999
 11
52.91918899999996
 21
760.0464015
  0
LINE
  8
_0-0_0
  6
CONTINUOUS
 62
    7
 10
52.91918899999996
 20
760.0464015
 11
52.87471800000003
 21
760.13124049999999
  0
LINE
  8
_0-0_0
  6
CONTINUOUS
 62
    7
 10
52.87471800000003
 20
760.13124049999999
 11
52.827751000000035
 21
760.23155150000002
  0
LINE
  8
_0-0_0
  6
CONTINUOUS
 62
    7
 10
52.827751000000035
 20
760.23155150000002
 11
52.787544000000025
 21
760.3304895
  0
LINE
  8
_0-0_0
  6
CONTINUOUS
 62
    7
 10
52.787544000000025
 20
760.3304895
 11
52.753875999999991
 21
760.42823750000002
  0
LINE
  8
_0-0_0
  6
CONTINUOUS
 62
    7
 10
52.753875999999991
 20
760.42823750000002
 11
52.72659299999998
 21
760.52503950000005
  0
LINE
  8
_0-0_0
  6
CONTINUOUS
 62
    7
 10
52.72659299999998
 20
760.52503950000005
 11
52.705544000000032
 21
760.62107849999995
  0
LINE
  8
_0-0_0
  6
CONTINUOUS
 62
    7
 10
52.705544000000032
 20
760.62107849999995
 11
52.689613000000008
 21
760.72496049999995
  0
LINE
  8
_0-0_0
  6
CONTINUOUS
 62
    7
 10
52.689613000000008
 20
760.72496049999995
 11
52.680854999999951
 21
760.82838449999997
  0
LINE
  8
_0-0_0
  6
CONTINUOUS
 62
    7
 10
52.680854999999951
 20
760.82838449999997
 11
52.679221999999982
 21
760.93159449999996
  0
LINE
  8
_0-0_0
  6
CONTINUOUS
 62
    7
 10
52.679221999999982
 20
760.93159449999996
 11
52.684692000000041
 21
761.03489650000006
  0
LINE
  8
_0-0_0
  6
CONTINUOUS
 62
    7
 10
52.684692000000041
 20
761.03489650000006
 11
52.697295999999938
 21
761.13850349999996
  0
LINE
  8
_0-0_0
  6
CONTINUOUS
 62
    7
 10
52.697295999999938
 20
761.13850349999996
 11
52.71711700000003
 21
761.24262950000002
  0
LINE
  8
_0-0_0
  6
CONTINUOUS
 62
    7
 10
52.71711700000003
 20
761.24262950000002
 11
52.744263000000046
 21
761.34761049999997
  0
LINE
  8
_0-0_0
  6
CONTINUOUS
 62
    7
 10
52.744263000000046
 20
761.34761049999997
 11
52.778908000000001
 21
761.45362850000004
  0
LINE
  8
_0-0_0
  6
CONTINUOUS
 62
    7
 10
52.778908000000001
 20
761.45362850000004
 11
52.821250999999961
 21
761.56101950000004
  0
LINE
  8
_0-0_0
  6
CONTINUOUS
 62
    7
 10
52.821250999999961
 20
761.56101950000004
 11
52.871567000000027
 21
761.66999850000002
  0
LINE
  8
_0-0_0
  6
CONTINUOUS
 62
    7
 10
52.871567000000027
 20
761.66999850000002
 11
52.925819000000047
 21
761.77314750000005
  0
LINE
  8
_0-0_0
  6
CONTINUOUS
 62
    7
 10
52.925819000000047
 20
761.77314750000005
 11
52.987526000000003
 21
761.8782195
  0
LINE
  8
_0-0_0
  6
CONTINUOUS
 62
    7
 10
52.987526000000003
 20
761.8782195
 11
53.057045000000016
 21
761.98542750000001
  0
LINE
  8
_0-0_0
  6
CONTINUOUS
 62
    7
 10
53.057045000000016
 20
761.98542750000001
 11
53.134758000000033
 21
762.09513849999996
  0
LINE
  8
_0-0_0
  6
CONTINUOUS
 62
    7
 10
53.134758000000033
 20
762.09513849999996
 11
53.221137999999996
 21
762.20762649999995
  0
LINE
  8
_0-0_0
  6
CONTINUOUS
 62
    7
 10
62.928962999999953
 20
759.59992950000003
 11
53.221137999999996
 21
759.59992950000003
  0
ARC
  8
_0-0_0
  6
CONTINUOUS
 62
    7
 10
58.102851999999984
 20
762.84904449999999
 40
4.9238749999999998
 50
172.49424200000001
 51
181.535968
  0
ARC
  8
_0-0_0
  6
CONTINUOUS
 62
    7
 10
58.140877000000046
 20
762.85401950000005
 40
4.9620009999999999
 50
181.58130700000004
 51
187.48478900000003
  0
LINE
  8
_0-0_0
  6
CONTINUOUS
 62
    7
 10
53.178962999999953
 20
759.59992950000003
 11
53.221137999999996
 21
759.59992950000003
  0
LINE
  8
_0-0_0
  6
CONTINUOUS
 62
    7
 10
47.928962999999953
 20
759.0253755
 11
47.678962999999953
 21
759.04994150000005
  0
LINE
  8
_0-0_0
  6
CONTINUOUS
 62
    7
 10
47.928962999999953
 20
758.82142650000003
 11
47.678962999999953
 21
759.04994150000005
  0
LINE
  8
_0-0_0
  6
CONTINUOUS
 62
    7
 10
47.928962999999953
 20
759.21592650000002
 11
47.678962999999953
 21
759.26939349999998
  0
LINE
  8
_0-0_0
  6
CONTINUOUS
 62
    7
 10
47.928962999999953
 20
759.0253755
 11
47.678962999999953
 21
759.26939349999998
  0
LINE
  8
_0-0_0
  6
CONTINUOUS
 62
    7
 10
47.928962999999953
 20
759.39094550000004
 11
47.678962999999953
 21
759.47276250000004
  0
LINE
  8
_0-0_0
  6
CONTINUOUS
 62
    7
 10
47.928962999999953
 20
759.21592650000002
 11
47.678962999999953
 21
759.47276250000004
  0
LINE
  8
_0-0_0
  6
CONTINUOUS
 62
    7
 10
47.928962999999953
 20
759.54850750000003
 11
47.678962999999953
 21
759.65779150000003
  0
LINE
  8
_0-0_0
  6
CONTINUOUS
 62
    7
 10
47.928962999999953
 20
759.39094550000004
 11
47.678962999999953
 21
759.65779150000003
  0
LINE
  8
_0-0_0
  6
CONTINUOUS
 62
    7
 10
47.928962999999953
 20
759.68696550000004
 11
47.678962999999953
 21
759.82249449999995
  0
LINE
  8
_0-0_0
  6
CONTINUOUS
 62
    7
 10
47.928962999999953
 20
759.54850750000003
 11
47.678962999999953
 21
759.82249449999995
  0
LINE
  8
_0-0_0
  6
CONTINUOUS
 62
    7
 10
47.928962999999953
 20
759.80470249999996
 11
47.678962999999953
 21
759.96501150000006
  0
LINE
  8
_0-0_0
  6
CONTINUOUS
 62
    7
 10
47.928962999999953
 20
759.68696550000004
 11
47.678962999999953
 21
759.96501150000006
  0
LINE
  8
_0-0_0
  6
CONTINUOUS
 62
    7
 10
47.928962999999953
 20
759.90049750000003
 11
47.678962999999953
 21
760.08381650000001
  0
LINE
  8
_0-0_0
  6
CONTINUOUS
 62
    7
 10
47.928962999999953
 20
759.80470249999996
 11
47.678962999999953
 21
760.08381650000001
  0
LINE
  8
_0-0_0
  6
CONTINUOUS
 62
    7
 10
47.928962999999953
 20
759.97328149999998
 11
47.678962999999953
 21
760.17759650000005
  0
LINE
  8
_0-0_0
  6
CONTINUOUS
 62
    7
 10
47.928962999999953
 20
759.90049750000003
 11
47.678962999999953
 21
760.17759650000005
  0
LINE
  8
_0-0_0
  6
CONTINUOUS
 62
    7
 10
47.928962999999953
 20
760.02223149999998
 11
47.678962999999953
 21
760.24531549999995
  0
LINE
  8
_0-0_0
  6
CONTINUOUS
 62
    7
 10
47.928962999999953
 20
759.97328149999998
 11
47.678962999999953
 21
760.24531549999995
  0
LINE
  8
_0-0_0
  6
CONTINUOUS
 62
    7
 10
47.928962999999953
 20
760.04685949999998
 11
47.678962999999953
 21
760.28623949999997
  0
LINE
  8
_0-0_0
  6
CONTINUOUS
 62
    7
 10
47.928962999999953
 20
760.02223149999998
 11
47.678962999999953
 21
760.28623949999997
  0
LINE
  8
_0-0_0
  6
CONTINUOUS
 62
    7
 10
47.928962999999953
 20
760.04685949999998
 11
47.678962999999953
 21
760.29994150000005
  0
LINE
  8
_0-0_0
  6
CONTINUOUS
 62
    7
 10
47.928962999999953
 20
755.55302449999999
 11
47.678962999999953
 21
755.29994150000005
  0
LINE
  8
_0-0_0
  6
CONTINUOUS
 62
    7
 10
47.928962999999953
 20
755.5776515
 11
47.678962999999953
 21
755.31364450000001
  0
LINE
  8
_0-0_0
  6
CONTINUOUS
 62
    7
 10
47.928962999999953
 20
755.55302449999999
 11
47.678962999999953
 21
755.31364450000001
  0
LINE
  8
_0-0_0
  6
CONTINUOUS
 62
    7
 10
47.928962999999953
 20
755.62660249999999
 11
47.678962999999953
 21
755.35456850000003
  0
LINE
  8
_0-0_0
  6
CONTINUOUS
 62
    7
 10
47.928962999999953
 20
755.5776515
 11
47.678962999999953
 21
755.35456850000003
  0
LINE
  8
_0-0_0
  6
CONTINUOUS
 62
    7
 10
47.928962999999953
 20
755.69938650000006
 11
47.678962999999953
 21
755.42228650000004
  0
LINE
  8
_0-0_0
  6
CONTINUOUS
 62
    7
 10
47.928962999999953
 20
755.62660249999999
 11
47.678962999999953
 21
755.42228650000004
  0
LINE
  8
_0-0_0
  6
CONTINUOUS
 62
    7
 10
47.928962999999953
 20
755.79518150000001
 11
47.678962999999953
 21
755.51606749999996
  0
LINE
  8
_0-0_0
  6
CONTINUOUS
 62
    7
 10
47.928962999999953
 20
755.69938650000006
 11
47.678962999999953
 21
755.51606749999996
  0
LINE
  8
_0-0_0
  6
CONTINUOUS
 62
    7
 10
47.928962999999953
 20
755.79518150000001
 11
47.798995999999988
 21
755.71131849999995
  0
LINE
  8
_0-0_0
  6
CONTINUOUS
 62
    7
 10
47.928962999999953
 20
755.91291750000005
 11
47.678962999999953
 21
755.63487250000003
  0
LINE
  8
_0-0_0
  6
CONTINUOUS
 62
    7
 10
47.798995999999988
 20
755.71131849999995
 11
47.678962999999953
 21
755.63487250000003
  0
LINE
  8
_0-0_0
  6
CONTINUOUS
 62
    7
 10
47.928962999999953
 20
756.05137649999995
 11
47.678962999999953
 21
755.77738950000003
  0
LINE
  8
_0-0_0
  6
CONTINUOUS
 62
    7
 10
47.928962999999953
 20
755.91291750000005
 11
47.678962999999953
 21
755.77738950000003
  0
LINE
  8
_0-0_0
  6
CONTINUOUS
 62
    7
 10
47.928962999999953
 20
756.20896849999997
 11
47.678962999999953
 21
755.94209250000006
  0
LINE
  8
_0-0_0
  6
CONTINUOUS
 62
    7
 10
47.928962999999953
 20
756.05137649999995
 11
47.678962999999953
 21
755.94209250000006
  0
LINE
  8
_0-0_0
  6
CONTINUOUS
 62
    7
 10
47.928962999999953
 20
756.38398749999999
 11
47.678962999999953
 21
756.12712050000005
  0
LINE
  8
_0-0_0
  6
CONTINUOUS
 62
    7
 10
47.928962999999953
 20
756.20896849999997
 11
47.678962999999953
 21
756.12712050000005
  0
LINE
  8
_0-0_0
  6
CONTINUOUS
 62
    7
 10
47.928962999999953
 20
756.57450849999998
 11
47.678962999999953
 21
756.3304895
  0
LINE
  8
_0-0_0
  6
CONTINUOUS
 62
    7
 10
47.928962999999953
 20
756.38398749999999
 11
47.678962999999953
 21
756.3304895
  0
LINE
  8
_0-0_0
  6
CONTINUOUS
 62
    7
 10
47.928962999999953
 20
756.77845750000006
 11
47.678962999999953
 21
756.54994150000005
  0
LINE
  8
_0-0_0
  6
CONTINUOUS
 62
    7
 10
47.928962999999953
 20
756.57450849999998
 11
47.678962999999953
 21
756.54994150000005
  0
LINE
  8
_0-0_0
  6
CONTINUOUS
 62
    7
 10
47.928962999999953
 20
756.99360650000006
 11
47.678962999999953
 21
756.78309650000006
  0
LINE
  8
_0-0_0
  6
CONTINUOUS
 62
    7
 10
47.928962999999953
 20
756.77845750000006
 11
47.678962999999953
 21
756.78309650000006
  0
LINE
  8
_0-0_0
  6
CONTINUOUS
 62
    7
 10
47.928962999999953
 20
757.21760549999999
 11
47.678962999999953
 21
757.02738950000003
  0
LINE
  8
_0-0_0
  6
CONTINUOUS
 62
    7
 10
47.928962999999953
 20
756.99360650000006
 11
47.678962999999953
 21
757.02738950000003
  0
LINE
  8
_0-0_0
  6
CONTINUOUS
 62
    7
 10
47.928962999999953
 20
757.44795250000004
 11
47.678962999999953
 21
757.28016649999995
  0
LINE
  8
_0-0_0
  6
CONTINUOUS
 62
    7
 10
47.928962999999953
 20
757.21760549999999
 11
47.678962999999953
 21
757.28016649999995
  0
LINE
  8
_0-0_0
  6
CONTINUOUS
 62
    7
 10
47.928962999999953
 20
757.68217449999997
 11
47.678962999999953
 21
757.53861949999998
  0
LINE
  8
_0-0_0
  6
CONTINUOUS
 62
    7
 10
47.928962999999953
 20
757.44795250000004
 11
47.678962999999953
 21
757.53861949999998
  0
LINE
  8
_0-0_0
  6
CONTINUOUS
 62
    7
 10
47.928962999999953
 20
757.9177095
 11
47.678962999999953
 21
757.79994150000005
  0
LINE
  8
_0-0_0
  6
CONTINUOUS
 62
    7
 10
47.928962999999953
 20
757.68217449999997
 11
47.678962999999953
 21
757.79994150000005
  0
LINE
  8
_0-0_0
  6
CONTINUOUS
 62
    7
 10
47.928962999999953
 20
758.15193150000005
 11
47.678962999999953
 21
758.0612635
  0
LINE
  8
_0-0_0
  6
CONTINUOUS
 62
    7
 10
47.928962999999953
 20
757.9177095
 11
47.678962999999953
 21
758.0612635
  0
LINE
  8
_0-0_0
  6
CONTINUOUS
 62
    7
 10
47.928962999999953
 20
758.38227849999998
 11
47.678962999999953
 21
758.31971750000002
  0
LINE
  8
_0-0_0
  6
CONTINUOUS
 62
    7
 10
47.928962999999953
 20
758.15193150000005
 11
47.678962999999953
 21
758.31971750000002
  0
LINE
  8
_0-0_0
  6
CONTINUOUS
 62
    7
 10
47.928962999999953
 20
758.60627750000003
 11
47.678962999999953
 21
758.57249449999995
  0
LINE
  8
_0-0_0
  6
CONTINUOUS
 62
    7
 10
47.928962999999953
 20
758.38227849999998
 11
47.678962999999953
 21
758.57249449999995
  0
LINE
  8
_0-0_0
  6
CONTINUOUS
 62
    7
 10
47.928962999999953
 20
758.82142650000003
 11
47.678962999999953
 21
758.81678750000003
  0
LINE
  8
_0-0_0
  6
CONTINUOUS
 62
    7
 10
47.928962999999953
 20
758.60627750000003
 11
47.678962999999953
 21
758.81678750000003
  0
LINE
  8
_0-0_0
  6
CONTINUOUS
 62
    7
 10
38.178962999999953
 20
775.6253815
 11
38.428962999999953
 21
775.64994750000005
  0
LINE
  8
_0-0_0
  6
CONTINUOUS
 62
    7
 10
38.428962999999953
 20
775.64994750000005
 11
47.678962999999953
 21
775.64994750000005
  0
LINE
  8
_0-0_0
  6
CONTINUOUS
 62
    7
 10
38.178962999999953
 20
775.42143250000004
 11
38.428962999999953
 21
775.64994750000005
  0
LINE
  8
_0-0_0
  6
CONTINUOUS
 62
    7
 10
38.178962999999953
 20
775.42143250000004
 11
47.928962999999953
 21
775.42143250000004
  0
LINE
  8
_0-0_0
  6
CONTINUOUS
 62
    7
 10
38.178962999999953
 20
775.81590249999999
 11
38.428962999999953
 21
775.86939949999999
  0
LINE
  8
_0-0_0
  6
CONTINUOUS
 62
    7
 10
38.428962999999953
 20
775.86939949999999
 11
47.678962999999953
 21
775.86939949999999
  0
LINE
  8
_0-0_0
  6
CONTINUOUS
 62
    7
 10
38.178962999999953
 20
775.6253815
 11
38.428962999999953
 21
775.86939949999999
  0
LINE
  8
_0-0_0
  6
CONTINUOUS
 62
    7
 10
38.178962999999953
 20
775.99092050000002
 11
38.428962999999953
 21
776.07276950000005
  0
LINE
  8
_0-0_0
  6
CONTINUOUS
 62
    7
 10
38.428962999999953
 20
776.07276950000005
 11
47.678962999999953
 21
776.07276950000005
  0
LINE
  8
_0-0_0
  6
CONTINUOUS
 62
    7
 10
38.178962999999953
 20
775.81590249999999
 11
38.428962999999953
 21
776.07276950000005
  0
LINE
  8
_0-0_0
  6
CONTINUOUS
 62
    7
 10
38.178962999999953
 20
776.14851350000004
 11
38.428962999999953
 21
776.25779750000004
  0
LINE
  8
_0-0_0
  6
CONTINUOUS
 62
    7
 10
38.428962999999953
 20
776.25779750000004
 11
47.678962999999953
 21
776.25779750000004
  0
LINE
  8
_0-0_0
  6
CONTINUOUS
 62
    7
 10
38.178962999999953
 20
775.99092050000002
 11
38.428962999999953
 21
776.25779750000004
  0
LINE
  8
_0-0_0
  6
CONTINUOUS
 62
    7
 10
38.178962999999953
 20
776.28694150000001
 11
38.428962999999953
 21
776.42250049999996
  0
LINE
  8
_0-0_0
  6
CONTINUOUS
 62
    7
 10
38.428962999999953
 20
776.42250049999996
 11
47.678962999999953
 21
776.42250049999996
  0
LINE
  8
_0-0_0
  6
CONTINUOUS
 62
    7
 10
38.178962999999953
 20
776.14851350000004
 11
38.428962999999953
 21
776.42250049999996
  0
LINE
  8
_0-0_0
  6
CONTINUOUS
 62
    7
 10
38.178962999999953
 20
776.40470849999997
 11
38.428962999999953
 21
776.56501749999995
  0
LINE
  8
_0-0_0
  6
CONTINUOUS
 62
    7
 10
38.428962999999953
 20
776.56501749999995
 11
47.678962999999953
 21
776.56501749999995
  0
LINE
  8
_0-0_0
  6
CONTINUOUS
 62
    7
 10
38.178962999999953
 20
776.28694150000001
 11
38.428962999999953
 21
776.56501749999995
  0
LINE
  8
_0-0_0
  6
CONTINUOUS
 62
    7
 10
38.178962999999953
 20
776.50050350000004
 11
38.428962999999953
 21
776.68379149999998
  0
LINE
  8
_0-0_0
  6
CONTINUOUS
 62
    7
 10
38.428962999999953
 20
776.68379149999998
 11
47.678962999999953
 21
776.68379149999998
  0
LINE
  8
_0-0_0
  6
CONTINUOUS
 62
    7
 10
38.178962999999953
 20
776.40470849999997
 11
38.428962999999953
 21
776.68379149999998
  0
LINE
  8
_0-0_0
  6
CONTINUOUS
 62
    7
 10
38.178962999999953
 20
776.57328749999999
 11
38.428962999999953
 21
776.77757250000002
  0
LINE
  8
_0-0_0
  6
CONTINUOUS
 62
    7
 10
38.428962999999953
 20
776.77757250000002
 11
47.678962999999953
 21
776.77757250000002
  0
LINE
  8
_0-0_0
  6
CONTINUOUS
 62
    7
 10
38.178962999999953
 20
776.50050350000004
 11
38.428962999999953
 21
776.77757250000002
  0
LINE
  8
_0-0_0
  6
CONTINUOUS
 62
    7
 10
38.178962999999953
 20
776.62223849999998
 11
38.428962999999953
 21
776.84532149999995
  0
LINE
  8
_0-0_0
  6
CONTINUOUS
 62
    7
 10
38.428962999999953
 20
776.84532149999995
 11
47.678962999999953
 21
776.84532149999995
  0
LINE
  8
_0-0_0
  6
CONTINUOUS
 62
    7
 10
38.178962999999953
 20
776.57328749999999
 11
38.428962999999953
 21
776.84532149999995
  0
LINE
  8
_0-0_0
  6
CONTINUOUS
 62
    7
 10
38.178962999999953
 20
776.64686549999999
 11
38.428962999999953
 21
776.88624549999997
  0
LINE
  8
_0-0_0
  6
CONTINUOUS
 62
    7
 10
38.428962999999953
 20
776.88624549999997
 11
47.678962999999953
 21
776.88624549999997
  0
LINE
  8
_0-0_0
  6
CONTINUOUS
 62
    7
 10
38.178962999999953
 20
776.62223849999998
 11
38.428962999999953
 21
776.88624549999997
  0
LINE
  8
_0-0_0
  6
CONTINUOUS
 62
    7
 10
38.428962999999953
 20
776.89994750000005
 11
47.678962999999953
 21
776.89994750000005
  0
LINE
  8
_0-0_0
  6
CONTINUOUS
 62
    7
 10
38.178962999999953
 20
776.64686549999999
 11
38.428962999999953
 21
776.89994750000005
  0
LINE
  8
_0-0_0
  6
CONTINUOUS
 62
    7
 10
38.178962999999953
 20
772.1530305
 11
38.428962999999953
 21
771.89994750000005
  0
LINE
  8
_0-0_0
  6
CONTINUOUS
 62
    7
 10
38.428962999999953
 20
771.89994750000005
 11
47.678962999999953
 21
771.89994750000005
  0
LINE
  8
_0-0_0
  6
CONTINUOUS
 62
    7
 10
38.178962999999953
 20
772.17765750000001
 11
38.428962999999953
 21
771.91365050000002
  0
LINE
  8
_0-0_0
  6
CONTINUOUS
 62
    7
 10
38.428962999999953
 20
771.91365050000002
 11
47.678962999999953
 21
771.91365050000002
  0
LINE
  8
_0-0_0
  6
CONTINUOUS
 62
    7
 10
38.178962999999953
 20
772.1530305
 11
38.428962999999953
 21
771.91365050000002
  0
LINE
  8
_0-0_0
  6
CONTINUOUS
 62
    7
 10
38.178962999999953
 20
772.2266085
 11
38.428962999999953
 21
771.95457450000004
  0
LINE
  8
_0-0_0
  6
CONTINUOUS
 62
    7
 10
38.428962999999953
 20
771.95457450000004
 11
47.678962999999953
 21
771.95457450000004
  0
LINE
  8
_0-0_0
  6
CONTINUOUS
 62
    7
 10
38.178962999999953
 20
772.17765750000001
 11
38.428962999999953
 21
771.95457450000004
  0
LINE
  8
_0-0_0
  6
CONTINUOUS
 62
    7
 10
38.178962999999953
 20
772.29939249999995
 11
38.428962999999953
 21
772.02229250000005
  0
LINE
  8
_0-0_0
  6
CONTINUOUS
 62
    7
 10
38.428962999999953
 20
772.02229250000005
 11
47.678962999999953
 21
772.02229250000005
  0
LINE
  8
_0-0_0
  6
CONTINUOUS
 62
    7
 10
38.178962999999953
 20
772.2266085
 11
38.428962999999953
 21
772.02229250000005
  0
LINE
  8
_0-0_0
  6
CONTINUOUS
 62
    7
 10
38.178962999999953
 20
772.39518750000002
 11
38.428962999999953
 21
772.11607349999997
  0
LINE
  8
_0-0_0
  6
CONTINUOUS
 62
    7
 10
38.428962999999953
 20
772.11607349999997
 11
47.678962999999953
 21
772.11607349999997
  0
LINE
  8
_0-0_0
  6
CONTINUOUS
 62
    7
 10
38.178962999999953
 20
772.29939249999995
 11
38.428962999999953
 21
772.11607349999997
  0
LINE
  8
_0-0_0
  6
CONTINUOUS
 62
    7
 10
38.428962999999953
 20
772.23487850000004
 11
47.678962999999953
 21
772.23487850000004
  0
LINE
  8
_0-0_0
  6
CONTINUOUS
 62
    7
 10
38.308929000000035
 20
772.31132449999996
 11
38.428962999999953
 21
772.23487850000004
  0
LINE
  8
_0-0_0
  6
CONTINUOUS
 62
    7
 10
38.178962999999953
 20
772.39518750000002
 11
38.308929000000035
 21
772.31132449999996
  0
LINE
  8
_0-0_0
  6
CONTINUOUS
 62
    7
 10
38.178962999999953
 20
772.51292450000005
 11
38.428962999999953
 21
772.23487850000004
  0
LINE
  8
_0-0_0
  6
CONTINUOUS
 62
    7
 10
38.178962999999953
 20
772.65135150000003
 11
38.428962999999953
 21
772.37739550000003
  0
LINE
  8
_0-0_0
  6
CONTINUOUS
 62
    7
 10
38.428962999999953
 20
772.37739550000003
 11
47.678962999999953
 21
772.37739550000003
  0
LINE
  8
_0-0_0
  6
CONTINUOUS
 62
    7
 10
38.178962999999953
 20
772.51292450000005
 11
38.428962999999953
 21
772.37739550000003
  0
LINE
  8
_0-0_0
  6
CONTINUOUS
 62
    7
 10
38.178962999999953
 20
772.80894450000005
 11
38.428962999999953
 21
772.54206850000003
  0
LINE
  8
_0-0_0
  6
CONTINUOUS
 62
    7
 10
38.428962999999953
 20
772.54206850000003
 11
47.678962999999953
 21
772.54206850000003
  0
LINE
  8
_0-0_0
  6
CONTINUOUS
 62
    7
 10
38.178962999999953
 20
772.65135150000003
 11
38.428962999999953
 21
772.54206850000003
  0
LINE
  8
_0-0_0
  6
CONTINUOUS
 62
    7
 10
38.178962999999953
 20
772.98396249999996
 11
38.428962999999953
 21
772.72712650000005
  0
LINE
  8
_0-0_0
  6
CONTINUOUS
 62
    7
 10
38.428962999999953
 20
772.72712650000005
 11
47.678962999999953
 21
772.72712650000005
  0
LINE
  8
_0-0_0
  6
CONTINUOUS
 62
    7
 10
38.178962999999953
 20
772.80894450000005
 11
38.428962999999953
 21
772.72712650000005
  0
LINE
  8
_0-0_0
  6
CONTINUOUS
 62
    7
 10
38.178962999999953
 20
773.17451449999999
 11
38.428962999999953
 21
772.9304965
  0
LINE
  8
_0-0_0
  6
CONTINUOUS
 62
    7
 10
38.428962999999953
 20
772.9304965
 11
47.678962999999953
 21
772.9304965
  0
LINE
  8
_0-0_0
  6
CONTINUOUS
 62
    7
 10
38.178962999999953
 20
772.98396249999996
 11
38.428962999999953
 21
772.9304965
  0
LINE
  8
_0-0_0
  6
CONTINUOUS
 62
    7
 10
38.178962999999953
 20
773.37846349999995
 11
38.428962999999953
 21
773.14994750000005
  0
LINE
  8
_0-0_0
  6
CONTINUOUS
 62
    7
 10
38.428962999999953
 20
773.14994750000005
 11
47.678962999999953
 21
773.14994750000005
  0
LINE
  8
_0-0_0
  6
CONTINUOUS
 62
    7
 10
38.178962999999953
 20
773.37846349999995
 11
47.928962999999953
 21
773.37846349999995
  0
LINE
  8
_0-0_0
  6
CONTINUOUS
 62
    7
 10
38.178962999999953
 20
773.17451449999999
 11
38.428962999999953
 21
773.14994750000005
  0
LINE
  8
_0-0_0
  6
CONTINUOUS
 62
    7
 10
38.178962999999953
 20
773.59361249999995
 11
38.428962999999953
 21
773.38310249999995
  0
LINE
  8
_0-0_0
  6
CONTINUOUS
 62
    7
 10
38.428962999999953
 20
773.38310249999995
 11
47.678962999999953
 21
773.38310249999995
  0
LINE
  8
_0-0_0
  6
CONTINUOUS
 62
    7
 10
38.178962999999953
 20
773.59361249999995
 11
47.928962999999953
 21
773.59361249999995
  0
LINE
  8
_0-0_0
  6
CONTINUOUS
 62
    7
 10
38.178962999999953
 20
773.37846349999995
 11
38.428962999999953
 21
773.38310249999995
  0
LINE
  8
_0-0_0
  6
CONTINUOUS
 62
    7
 10
38.178962999999953
 20
773.8176115
 11
38.428962999999953
 21
773.62739550000003
  0
LINE
  8
_0-0_0
  6
CONTINUOUS
 62
    7
 10
38.428962999999953
 20
773.62739550000003
 11
47.678962999999953
 21
773.62739550000003
  0
LINE
  8
_0-0_0
  6
CONTINUOUS
 62
    7
 10
38.178962999999953
 20
773.8176115
 11
47.928962999999953
 21
773.8176115
  0
LINE
  8
_0-0_0
  6
CONTINUOUS
 62
    7
 10
38.178962999999953
 20
773.59361249999995
 11
38.428962999999953
 21
773.62739550000003
  0
LINE
  8
_0-0_0
  6
CONTINUOUS
 62
    7
 10
38.178962999999953
 20
774.04795850000005
 11
38.428962999999953
 21
773.88017249999996
  0
LINE
  8
_0-0_0
  6
CONTINUOUS
 62
    7
 10
38.428962999999953
 20
773.88017249999996
 11
47.678962999999953
 21
773.88017249999996
  0
LINE
  8
_0-0_0
  6
CONTINUOUS
 62
    7
 10
38.178962999999953
 20
774.04795850000005
 11
47.928962999999953
 21
774.04795850000005
  0
LINE
  8
_0-0_0
  6
CONTINUOUS
 62
    7
 10
38.178962999999953
 20
773.8176115
 11
38.428962999999953
 21
773.88017249999996
  0
LINE
  8
_0-0_0
  6
CONTINUOUS
 62
    7
 10
38.178962999999953
 20
774.28218049999998
 11
38.428962999999953
 21
774.13862549999999
  0
LINE
  8
_0-0_0
  6
CONTINUOUS
 62
    7
 10
38.428962999999953
 20
774.13862549999999
 11
47.678962999999953
 21
774.13862549999999
  0
LINE
  8
_0-0_0
  6
CONTINUOUS
 62
    7
 10
38.178962999999953
 20
774.28218049999998
 11
47.928962999999953
 21
774.28218049999998
  0
LINE
  8
_0-0_0
  6
CONTINUOUS
 62
    7
 10
38.178962999999953
 20
774.04795850000005
 11
38.428962999999953
 21
774.13862549999999
  0
LINE
  8
_0-0_0
  6
CONTINUOUS
 62
    7
 10
38.178962999999953
 20
774.51771550000001
 11
38.428962999999953
 21
774.39994750000005
  0
LINE
  8
_0-0_0
  6
CONTINUOUS
 62
    7
 10
38.428962999999953
 20
774.39994750000005
 11
47.678962999999953
 21
774.39994750000005
  0
LINE
  8
_0-0_0
  6
CONTINUOUS
 62
    7
 10
38.178962999999953
 20
774.51771550000001
 11
47.928962999999953
 21
774.51771550000001
  0
LINE
  8
_0-0_0
  6
CONTINUOUS
 62
    7
 10
38.178962999999953
 20
774.28218049999998
 11
38.428962999999953
 21
774.39994750000005
  0
LINE
  8
_0-0_0
  6
CONTINUOUS
 62
    7
 10
38.178962999999953
 20
774.75190750000002
 11
38.428962999999953
 21
774.6612705
  0
LINE
  8
_0-0_0
  6
CONTINUOUS
 62
    7
 10
38.428962999999953
 20
774.6612705
 11
47.678962999999953
 21
774.6612705
  0
LINE
  8
_0-0_0
  6
CONTINUOUS
 62
    7
 10
38.178962999999953
 20
774.75190750000002
 11
47.928962999999953
 21
774.75190750000002
  0
LINE
  8
_0-0_0
  6
CONTINUOUS
 62
    7
 10
38.178962999999953
 20
774.51771550000001
 11
38.428962999999953
 21
774.6612705
  0
LINE
  8
_0-0_0
  6
CONTINUOUS
 62
    7
 10
38.178962999999953
 20
774.98228449999999
 11
38.428962999999953
 21
774.91972350000003
  0
LINE
  8
_0-0_0
  6
CONTINUOUS
 62
    7
 10
38.428962999999953
 20
774.91972350000003
 11
47.678962999999953
 21
774.91972350000003
  0
LINE
  8
_0-0_0
  6
CONTINUOUS
 62
    7
 10
38.178962999999953
 20
774.98228449999999
 11
47.928962999999953
 21
774.98228449999999
  0
LINE
  8
_0-0_0
  6
CONTINUOUS
 62
    7
 10
38.178962999999953
 20
774.75190750000002
 11
38.428962999999953
 21
774.91972350000003
  0
LINE
  8
_0-0_0
  6
CONTINUOUS
 62
    7
 10
38.178962999999953
 20
775.20628350000004
 11
38.428962999999953
 21
775.17250049999996
  0
LINE
  8
_0-0_0
  6
CONTINUOUS
 62
    7
 10
38.428962999999953
 20
775.17250049999996
 11
47.678962999999953
 21
775.17250049999996
  0
LINE
  8
_0-0_0
  6
CONTINUOUS
 62
    7
 10
38.178962999999953
 20
775.20628350000004
 11
47.928962999999953
 21
775.20628350000004
  0
LINE
  8
_0-0_0
  6
CONTINUOUS
 62
    7
 10
38.178962999999953
 20
774.98228449999999
 11
38.428962999999953
 21
775.17250049999996
  0
LINE
  8
_0-0_0
  6
CONTINUOUS
 62
    7
 10
38.178962999999953
 20
775.42143250000004
 11
38.428962999999953
 21
775.41679350000004
  0
LINE
  8
_0-0_0
  6
CONTINUOUS
 62
    7
 10
38.428962999999953
 20
775.41679350000004
 11
47.678962999999953
 21
775.41679350000004
  0
LINE
  8
_0-0_0
  6
CONTINUOUS
 62
    7
 10
38.178962999999953
 20
775.20628350000004
 11
38.428962999999953
 21
775.41679350000004
  0
LINE
  8
_0-0_0
  6
CONTINUOUS
 62
    7
 10
51.928962999999953
 20
771.34992950000003
 11
51.928962999999953
 21
763.36839250000003
  0
LINE
  8
_0-0_0
  6
CONTINUOUS
 62
    7
 10
51.928962999999953
 20
763.36839250000003
 11
51.928962999999953
 21
760.84992950000003
  0
LINE
  8
_0-0_0
  6
CONTINUOUS
 62
    7
 10
38.178962999999953
 20
759.0253755
 11
38.428962999999953
 21
759.04994150000005
  0
LINE
  8
_0-0_0
  6
CONTINUOUS
 62
    7
 10
38.428962999999953
 20
759.04994150000005
 11
47.678962999999953
 21
759.04994150000005
  0
LINE
  8
_0-0_0
  6
CONTINUOUS
 62
    7
 10
38.178962999999953
 20
758.82142650000003
 11
38.428962999999953
 21
759.04994150000005
  0
LINE
  8
_0-0_0
  6
CONTINUOUS
 62
    7
 10
38.178962999999953
 20
758.82142650000003
 11
47.928962999999953
 21
758.82142650000003
  0
LINE
  8
_0-0_0
  6
CONTINUOUS
 62
    7
 10
38.178962999999953
 20
759.21592650000002
 11
38.428962999999953
 21
759.26939349999998
  0
LINE
  8
_0-0_0
  6
CONTINUOUS
 62
    7
 10
38.428962999999953
 20
759.26939349999998
 11
47.678962999999953
 21
759.26939349999998
  0
LINE
  8
_0-0_0
  6
CONTINUOUS
 62
    7
 10
38.178962999999953
 20
759.0253755
 11
38.428962999999953
 21
759.26939349999998
  0
LINE
  8
_0-0_0
  6
CONTINUOUS
 62
    7
 10
38.178962999999953
 20
759.39094550000004
 11
38.428962999999953
 21
759.47276250000004
  0
LINE
  8
_0-0_0
  6
CONTINUOUS
 62
    7
 10
38.428962999999953
 20
759.47276250000004
 11
47.678962999999953
 21
759.47276250000004
  0
LINE
  8
_0-0_0
  6
CONTINUOUS
 62
    7
 10
38.178962999999953
 20
759.21592650000002
 11
38.428962999999953
 21
759.47276250000004
  0
LINE
  8
_0-0_0
  6
CONTINUOUS
 62
    7
 10
38.178962999999953
 20
759.54850750000003
 11
38.428962999999953
 21
759.65779150000003
  0
LINE
  8
_0-0_0
  6
CONTINUOUS
 62
    7
 10
38.428962999999953
 20
759.65779150000003
 11
47.678962999999953
 21
759.65779150000003
  0
LINE
  8
_0-0_0
  6
CONTINUOUS
 62
    7
 10
38.178962999999953
 20
759.39094550000004
 11
38.428962999999953
 21
759.65779150000003
  0
LINE
  8
_0-0_0
  6
CONTINUOUS
 62
    7
 10
38.178962999999953
 20
759.68696550000004
 11
38.428962999999953
 21
759.82249449999995
  0
LINE
  8
_0-0_0
  6
CONTINUOUS
 62
    7
 10
38.428962999999953
 20
759.82249449999995
 11
47.678962999999953
 21
759.82249449999995
  0
LINE
  8
_0-0_0
  6
CONTINUOUS
 62
    7
 10
38.178962999999953
 20
759.54850750000003
 11
38.428962999999953
 21
759.82249449999995
  0
LINE
  8
_0-0_0
  6
CONTINUOUS
 62
    7
 10
38.178962999999953
 20
759.80470249999996
 11
38.428962999999953
 21
759.96501150000006
  0
LINE
  8
_0-0_0
  6
CONTINUOUS
 62
    7
 10
38.428962999999953
 20
759.96501150000006
 11
47.678962999999953
 21
759.96501150000006
  0
LINE
  8
_0-0_0
  6
CONTINUOUS
 62
    7
 10
38.178962999999953
 20
759.68696550000004
 11
38.428962999999953
 21
759.96501150000006
  0
LINE
  8
_0-0_0
  6
CONTINUOUS
 62
    7
 10
38.178962999999953
 20
759.90049750000003
 11
38.428962999999953
 21
760.08381650000001
  0
LINE
  8
_0-0_0
  6
CONTINUOUS
 62
    7
 10
38.428962999999953
 20
760.08381650000001
 11
47.678962999999953
 21
760.08381650000001
  0
LINE
  8
_0-0_0
  6
CONTINUOUS
 62
    7
 10
38.178962999999953
 20
759.80470249999996
 11
38.428962999999953
 21
760.08381650000001
  0
LINE
  8
_0-0_0
  6
CONTINUOUS
 62
    7
 10
38.178962999999953
 20
759.97328149999998
 11
38.428962999999953
 21
760.17759650000005
  0
LINE
  8
_0-0_0
  6
CONTINUOUS
 62
    7
 10
38.428962999999953
 20
760.17759650000005
 11
47.678962999999953
 21
760.17759650000005
  0
LINE
  8
_0-0_0
  6
CONTINUOUS
 62
    7
 10
38.178962999999953
 20
759.90049750000003
 11
38.428962999999953
 21
760.17759650000005
  0
LINE
  8
_0-0_0
  6
CONTINUOUS
 62
    7
 10
38.178962999999953
 20
760.02223149999998
 11
38.428962999999953
 21
760.24531549999995
  0
LINE
  8
_0-0_0
  6
CONTINUOUS
 62
    7
 10
38.428962999999953
 20
760.24531549999995
 11
47.678962999999953
 21
760.24531549999995
  0
LINE
  8
_0-0_0
  6
CONTINUOUS
 62
    7
 10
38.178962999999953
 20
759.97328149999998
 11
38.428962999999953
 21
760.24531549999995
  0
LINE
  8
_0-0_0
  6
CONTINUOUS
 62
    7
 10
38.178962999999953
 20
760.04685949999998
 11
38.428962999999953
 21
760.28623949999997
  0
LINE
  8
_0-0_0
  6
CONTINUOUS
 62
    7
 10
38.428962999999953
 20
760.28623949999997
 11
47.678962999999953
 21
760.28623949999997
  0
LINE
  8
_0-0_0
  6
CONTINUOUS
 62
    7
 10
38.178962999999953
 20
760.02223149999998
 11
38.428962999999953
 21
760.28623949999997
  0
LINE
  8
_0-0_0
  6
CONTINUOUS
 62
    7
 10
38.428962999999953
 20
760.29994150000005
 11
47.678962999999953
 21
760.29994150000005
  0
LINE
  8
_0-0_0
  6
CONTINUOUS
 62
    7
 10
38.178962999999953
 20
760.04685949999998
 11
38.428962999999953
 21
760.29994150000005
  0
LINE
  8
_0-0_0
  6
CONTINUOUS
 62
    7
 10
38.178962999999953
 20
755.55302449999999
 11
38.428962999999953
 21
755.29994150000005
  0
LINE
  8
_0-0_0
  6
CONTINUOUS
 62
    7
 10
38.428962999999953
 20
755.29994150000005
 11
47.678962999999953
 21
755.29994150000005
  0
LINE
  8
_0-0_0
  6
CONTINUOUS
 62
    7
 10
38.178962999999953
 20
755.5776515
 11
38.428962999999953
 21
755.31364450000001
  0
LINE
  8
_0-0_0
  6
CONTINUOUS
 62
    7
 10
38.428962999999953
 20
755.31364450000001
 11
47.678962999999953
 21
755.31364450000001
  0
LINE
  8
_0-0_0
  6
CONTINUOUS
 62
    7
 10
38.178962999999953
 20
755.55302449999999
 11
38.428962999999953
 21
755.31364450000001
  0
LINE
  8
_0-0_0
  6
CONTINUOUS
 62
    7
 10
38.178962999999953
 20
755.62660249999999
 11
38.428962999999953
 21
755.35456850000003
  0
LINE
  8
_0-0_0
  6
CONTINUOUS
 62
    7
 10
38.428962999999953
 20
755.35456850000003
 11
47.678962999999953
 21
755.35456850000003
  0
LINE
  8
_0-0_0
  6
CONTINUOUS
 62
    7
 10
38.178962999999953
 20
755.5776515
 11
38.428962999999953
 21
755.35456850000003
  0
LINE
  8
_0-0_0
  6
CONTINUOUS
 62
    7
 10
38.178962999999953
 20
755.69938650000006
 11
38.428962999999953
 21
755.42228650000004
  0
LINE
  8
_0-0_0
  6
CONTINUOUS
 62
    7
 10
38.428962999999953
 20
755.42228650000004
 11
47.678962999999953
 21
755.42228650000004
  0
LINE
  8
_0-0_0
  6
CONTINUOUS
 62
    7
 10
38.178962999999953
 20
755.62660249999999
 11
38.428962999999953
 21
755.42228650000004
  0
LINE
  8
_0-0_0
  6
CONTINUOUS
 62
    7
 10
38.178962999999953
 20
755.79518150000001
 11
38.428962999999953
 21
755.51606749999996
  0
LINE
  8
_0-0_0
  6
CONTINUOUS
 62
    7
 10
38.428962999999953
 20
755.51606749999996
 11
47.678962999999953
 21
755.51606749999996
  0
LINE
  8
_0-0_0
  6
CONTINUOUS
 62
    7
 10
38.178962999999953
 20
755.69938650000006
 11
38.428962999999953
 21
755.51606749999996
  0
LINE
  8
_0-0_0
  6
CONTINUOUS
 62
    7
 10
38.428962999999953
 20
755.63487250000003
 11
47.678962999999953
 21
755.63487250000003
  0
LINE
  8
_0-0_0
  6
CONTINUOUS
 62
    7
 10
38.308929000000035
 20
755.71131849999995
 11
38.428962999999953
 21
755.63487250000003
  0
LINE
  8
_0-0_0
  6
CONTINUOUS
 62
    7
 10
38.178962999999953
 20
755.79518150000001
 11
38.308929000000035
 21
755.71131849999995
  0
LINE
  8
_0-0_0
  6
CONTINUOUS
 62
    7
 10
38.178962999999953
 20
755.91291750000005
 11
38.428962999999953
 21
755.63487250000003
  0
LINE
  8
_0-0_0
  6
CONTINUOUS
 62
    7
 10
38.178962999999953
 20
756.05137649999995
 11
38.428962999999953
 21
755.77738950000003
  0
LINE
  8
_0-0_0
  6
CONTINUOUS
 62
    7
 10
38.428962999999953
 20
755.77738950000003
 11
47.678962999999953
 21
755.77738950000003
  0
LINE
  8
_0-0_0
  6
CONTINUOUS
 62
    7
 10
38.178962999999953
 20
755.91291750000005
 11
38.428962999999953
 21
755.77738950000003
  0
LINE
  8
_0-0_0
  6
CONTINUOUS
 62
    7
 10
38.178962999999953
 20
756.20896849999997
 11
38.428962999999953
 21
755.94209250000006
  0
LINE
  8
_0-0_0
  6
CONTINUOUS
 62
    7
 10
38.428962999999953
 20
755.94209250000006
 11
47.678962999999953
 21
755.94209250000006
  0
LINE
  8
_0-0_0
  6
CONTINUOUS
 62
    7
 10
38.178962999999953
 20
756.05137649999995
 11
38.428962999999953
 21
755.94209250000006
  0
LINE
  8
_0-0_0
  6
CONTINUOUS
 62
    7
 10
38.178962999999953
 20
756.38398749999999
 11
38.428962999999953
 21
756.12712050000005
  0
LINE
  8
_0-0_0
  6
CONTINUOUS
 62
    7
 10
38.428962999999953
 20
756.12712050000005
 11
47.678962999999953
 21
756.12712050000005
  0
LINE
  8
_0-0_0
  6
CONTINUOUS
 62
    7
 10
38.178962999999953
 20
756.20896849999997
 11
38.428962999999953
 21
756.12712050000005
  0
LINE
  8
_0-0_0
  6
CONTINUOUS
 62
    7
 10
38.178962999999953
 20
756.57450849999998
 11
38.428962999999953
 21
756.3304895
  0
LINE
  8
_0-0_0
  6
CONTINUOUS
 62
    7
 10
38.428962999999953
 20
756.3304895
 11
47.678962999999953
 21
756.3304895
  0
LINE
  8
_0-0_0
  6
CONTINUOUS
 62
    7
 10
38.178962999999953
 20
756.38398749999999
 11
38.428962999999953
 21
756.3304895
  0
LINE
  8
_0-0_0
  6
CONTINUOUS
 62
    7
 10
38.178962999999953
 20
756.77845750000006
 11
38.428962999999953
 21
756.54994150000005
  0
LINE
  8
_0-0_0
  6
CONTINUOUS
 62
    7
 10
38.428962999999953
 20
756.54994150000005
 11
47.678962999999953
 21
756.54994150000005
  0
LINE
  8
_0-0_0
  6
CONTINUOUS
 62
    7
 10
38.178962999999953
 20
756.77845750000006
 11
47.928962999999953
 21
756.77845750000006
  0
LINE
  8
_0-0_0
  6
CONTINUOUS
 62
    7
 10
38.178962999999953
 20
756.57450849999998
 11
38.428962999999953
 21
756.54994150000005
  0
LINE
  8
_0-0_0
  6
CONTINUOUS
 62
    7
 10
38.178962999999953
 20
756.99360650000006
 11
38.428962999999953
 21
756.78309650000006
  0
LINE
  8
_0-0_0
  6
CONTINUOUS
 62
    7
 10
38.428962999999953
 20
756.78309650000006
 11
47.678962999999953
 21
756.78309650000006
  0
LINE
  8
_0-0_0
  6
CONTINUOUS
 62
    7
 10
38.178962999999953
 20
756.99360650000006
 11
47.928962999999953
 21
756.99360650000006
  0
LINE
  8
_0-0_0
  6
CONTINUOUS
 62
    7
 10
38.178962999999953
 20
756.77845750000006
 11
38.428962999999953
 21
756.78309650000006
  0
LINE
  8
_0-0_0
  6
CONTINUOUS
 62
    7
 10
38.178962999999953
 20
757.21760549999999
 11
38.428962999999953
 21
757.02738950000003
  0
LINE
  8
_0-0_0
  6
CONTINUOUS
 62
    7
 10
38.428962999999953
 20
757.02738950000003
 11
47.678962999999953
 21
757.02738950000003
  0
LINE
  8
_0-0_0
  6
CONTINUOUS
 62
    7
 10
38.178962999999953
 20
757.21760549999999
 11
47.928962999999953
 21
757.21760549999999
  0
LINE
  8
_0-0_0
  6
CONTINUOUS
 62
    7
 10
38.178962999999953
 20
756.99360650000006
 11
38.428962999999953
 21
757.02738950000003
  0
LINE
  8
_0-0_0
  6
CONTINUOUS
 62
    7
 10
38.178962999999953
 20
757.44795250000004
 11
38.428962999999953
 21
757.28016649999995
  0
LINE
  8
_0-0_0
  6
CONTINUOUS
 62
    7
 10
38.428962999999953
 20
757.28016649999995
 11
47.678962999999953
 21
757.28016649999995
  0
LINE
  8
_0-0_0
  6
CONTINUOUS
 62
    7
 10
38.178962999999953
 20
757.44795250000004
 11
47.928962999999953
 21
757.44795250000004
  0
LINE
  8
_0-0_0
  6
CONTINUOUS
 62
    7
 10
38.178962999999953
 20
757.21760549999999
 11
38.428962999999953
 21
757.28016649999995
  0
LINE
  8
_0-0_0
  6
CONTINUOUS
 62
    7
 10
38.178962999999953
 20
757.68217449999997
 11
38.428962999999953
 21
757.53861949999998
  0
LINE
  8
_0-0_0
  6
CONTINUOUS
 62
    7
 10
38.428962999999953
 20
757.53861949999998
 11
47.678962999999953
 21
757.53861949999998
  0
LINE
  8
_0-0_0
  6
CONTINUOUS
 62
    7
 10
38.178962999999953
 20
757.68217449999997
 11
47.928962999999953
 21
757.68217449999997
  0
LINE
  8
_0-0_0
  6
CONTINUOUS
 62
    7
 10
38.178962999999953
 20
757.44795250000004
 11
38.428962999999953
 21
757.53861949999998
  0
LINE
  8
_0-0_0
  6
CONTINUOUS
 62
    7
 10
38.178962999999953
 20
757.9177095
 11
38.428962999999953
 21
757.79994150000005
  0
LINE
  8
_0-0_0
  6
CONTINUOUS
 62
    7
 10
38.428962999999953
 20
757.79994150000005
 11
47.678962999999953
 21
757.79994150000005
  0
LINE
  8
_0-0_0
  6
CONTINUOUS
 62
    7
 10
38.178962999999953
 20
757.9177095
 11
47.928962999999953
 21
757.9177095
  0
LINE
  8
_0-0_0
  6
CONTINUOUS
 62
    7
 10
38.178962999999953
 20
757.68217449999997
 11
38.428962999999953
 21
757.79994150000005
  0
LINE
  8
_0-0_0
  6
CONTINUOUS
 62
    7
 10
38.178962999999953
 20
758.15193150000005
 11
38.428962999999953
 21
758.0612635
  0
LINE
  8
_0-0_0
  6
CONTINUOUS
 62
    7
 10
38.428962999999953
 20
758.0612635
 11
47.678962999999953
 21
758.0612635
  0
LINE
  8
_0-0_0
  6
CONTINUOUS
 62
    7
 10
38.178962999999953
 20
758.15193150000005
 11
47.928962999999953
 21
758.15193150000005
  0
LINE
  8
_0-0_0
  6
CONTINUOUS
 62
    7
 10
38.178962999999953
 20
757.9177095
 11
38.428962999999953
 21
758.0612635
  0
LINE
  8
_0-0_0
  6
CONTINUOUS
 62
    7
 10
38.178962999999953
 20
758.38227849999998
 11
38.428962999999953
 21
758.31971750000002
  0
LINE
  8
_0-0_0
  6
CONTINUOUS
 62
    7
 10
38.428962999999953
 20
758.31971750000002
 11
47.678962999999953
 21
758.31971750000002
  0
LINE
  8
_0-0_0
  6
CONTINUOUS
 62
    7
 10
38.178962999999953
 20
758.38227849999998
 11
47.928962999999953
 21
758.38227849999998
  0
LINE
  8
_0-0_0
  6
CONTINUOUS
 62
    7
 10
38.178962999999953
 20
758.15193150000005
 11
38.428962999999953
 21
758.31971750000002
  0
LINE
  8
_0-0_0
  6
CONTINUOUS
 62
    7
 10
38.178962999999953
 20
758.60627750000003
 11
38.428962999999953
 21
758.57249449999995
  0
LINE
  8
_0-0_0
  6
CONTINUOUS
 62
    7
 10
38.428962999999953
 20
758.57249449999995
 11
47.678962999999953
 21
758.57249449999995
  0
LINE
  8
_0-0_0
  6
CONTINUOUS
 62
    7
 10
38.178962999999953
 20
758.60627750000003
 11
47.928962999999953
 21
758.60627750000003
  0
LINE
  8
_0-0_0
  6
CONTINUOUS
 62
    7
 10
38.178962999999953
 20
758.38227849999998
 11
38.428962999999953
 21
758.57249449999995
  0
LINE
  8
_0-0_0
  6
CONTINUOUS
 62
    7
 10
38.178962999999953
 20
758.82142650000003
 11
38.428962999999953
 21
758.81678750000003
  0
LINE
  8
_0-0_0
  6
CONTINUOUS
 62
    7
 10
38.428962999999953
 20
758.81678750000003
 11
47.678962999999953
 21
758.81678750000003
  0
LINE
  8
_0-0_0
  6
CONTINUOUS
 62
    7
 10
38.178962999999953
 20
758.60627750000003
 11
38.428962999999953
 21
758.81678750000003
  0
LINE
  8
_0-0_0
  6
CONTINUOUS
 62
    7
 10
37.928962999999953
 20
776.39994750000005
 11
37.928962999999953
 21
772.6447905
  0
LINE
  8
_0-0_0
  6
CONTINUOUS
 62
    7
 10
37.928962999999953
 20
772.6447905
 11
37.928962999999953
 21
772.39994750000005
  0
LINE
  8
_0-0_0
  6
CONTINUOUS
 62
    7
 10
37.928962999999953
 20
759.79994150000005
 11
37.928962999999953
 21
756.04478449999999
  0
LINE
  8
_0-0_0
  6
CONTINUOUS
 62
    7
 10
37.928962999999953
 20
756.04478449999999
 11
37.928962999999953
 21
755.79994150000005
  0
LINE
  8
_0-0_0
  6
CONTINUOUS
 62
    7
 10
51.528960999999981
 20
771.09992950000003
 11
51.528960999999981
 21
768.59992950000003
  0
LINE
  8
_0-0_0
  6
CONTINUOUS
 62
    7
 10
51.528960999999981
 20
768.59992950000003
 11
51.528960999999981
 21
761.09992950000003
  0
LINE
  8
_0-0_0
  6
CONTINUOUS
 62
    7
 10
50.728966000000014
 20
770.63807650000001
 11
50.728966000000014
 21
768.36900349999996
  0
LINE
  8
_0-0_0
  6
CONTINUOUS
 62
    7
 10
50.728966000000014
 20
768.36900349999996
 11
50.728966000000014
 21
761.56181349999997
  0
LINE
  8
_0-0_0
  6
CONTINUOUS
 62
    7
 10
-7.2710420000000795
 20
770.09992950000003
 11
-7.2710420000000795
 21
770.09858650000001
  0
LINE
  8
_0-0_0
  6
CONTINUOUS
 62
    7
 10
-7.2710420000000795
 20
770.09858650000001
 11
-7.2710420000000795
 21
762.09992950000003
  0
LINE
  8
_0-0_0
  6
CONTINUOUS
 62
    7
 10
73.928962999999953
 20
776.64994750000005
 11
47.928962999999953
 21
776.64994750000005
  0
LINE
  8
_0-0_0
  6
CONTINUOUS
 62
    7
 10
73.928962999999953
 20
772.14994750000005
 11
47.928962999999953
 21
772.14994750000005
  0
LINE
  8
_0-0_0
  6
CONTINUOUS
 62
    7
 10
52.728950999999938
 20
760.04994150000005
 11
47.928962999999953
 21
760.04994150000005
  0
LINE
  8
_0-0_0
  6
CONTINUOUS
 62
    7
 10
68.178932000000032
 20
755.54994150000005
 11
47.928962999999953
 21
755.54994150000005
  0
LINE
  8
_0-0_0
  6
CONTINUOUS
 62
    7
 10
47.928962999999953
 20
776.64994750000005
 11
47.678962999999953
 21
776.89994750000005
  0
LINE
  8
_0-0_0
  6
CONTINUOUS
 62
    7
 10
47.928962999999953
 20
772.14994750000005
 11
47.678962999999953
 21
771.89994750000005
  0
LINE
  8
_0-0_0
  6
CONTINUOUS
 62
    7
 10
47.928962999999953
 20
760.04994150000005
 11
47.678962999999953
 21
760.29994150000005
  0
LINE
  8
_0-0_0
  6
CONTINUOUS
 62
    7
 10
47.928962999999953
 20
755.54994150000005
 11
47.678962999999953
 21
755.29994150000005
  0
LINE
  8
_0-0_0
  6
CONTINUOUS
 62
    7
 10
51.928962999999953
 20
771.34992950000003
 11
52.728958000000034
 21
772.14994750000005
  0
LINE
  8
_0-0_0
  6
CONTINUOUS
 62
    7
 10
51.928962999999953
 20
760.84992950000003
 11
53.178962999999953
 21
759.59992950000003
  0
LINE
  8
_0-0_0
  6
CONTINUOUS
 62
    7
 10
37.928962999999953
 20
776.39994750000005
 11
38.428809999999999
 21
776.89979549999998
  0
LINE
  8
_0-0_0
  6
CONTINUOUS
 62
    7
 10
37.928962999999953
 20
772.39994750000005
 11
38.428809999999999
 21
771.90010050000001
  0
LINE
  8
_0-0_0
  6
CONTINUOUS
 62
    7
 10
37.928962999999953
 20
759.79994150000005
 11
38.428809999999999
 21
760.29978949999997
  0
LINE
  8
_0-0_0
  6
CONTINUOUS
 62
    7
 10
37.928962999999953
 20
755.79994150000005
 11
38.428809999999999
 21
755.3000945
  0
LINE
  8
_0-0_0
  6
CONTINUOUS
 62
    7
 10
51.928962999999953
 20
771.09992950000003
 11
51.528960999999981
 21
771.09992950000003
  0
LINE
  8
_0-0_0
  6
CONTINUOUS
 62
    7
 10
51.928962999999953
 20
761.09992950000003
 11
51.528960999999981
 21
761.09992950000003
  0
LINE
  8
_0-0_0
  6
CONTINUOUS
 62
    7
 10
50.728966000000014
 20
770.63807650000001
 11
51.528960999999981
 21
771.09992950000003
  0
LINE
  8
_0-0_0
  6
CONTINUOUS
 62
    7
 10
50.728966000000014
 20
761.56181349999997
 11
51.528960999999981
 21
761.09992950000003
  0
LINE
  8
_0-0_0
  6
CONTINUOUS
 62
    7
 10
50.728966000000014
 20
770.09992950000003
 11
-7.2710420000000795
 21
770.09992950000003
  0
LINE
  8
_0-0_0
  6
CONTINUOUS
 62
    7
 10
50.728966000000014
 20
762.09992950000003
 11
-7.2710420000000795
 21
762.09992950000003
  0
ARC
  8
_0-0_0
  6
CONTINUOUS
 62
    7
 10
67.428962999999953
 20
799.60002150000003
 40
8
 50
215.099627
 51
324.90037799999999
  0
LINE
  8
_0-0_0
  6
CONTINUOUS
 62
    7
 10
58.428962999999953
 20
795.00001550000002
 11
60.883735999999999
 21
795.00001550000002
  0
LINE
  8
_0-0_0
  6
CONTINUOUS
 62
    7
 10
58.428962999999953
 20
781.80000250000001
 11
58.428962999999953
 21
795.00001550000002
  0
LINE
  8
_0-0_0
  6
CONTINUOUS
 62
    7
 10
1531.4288940000001
 20
781.80000250000001
 11
1531.4288940000001
 21
795.00001550000002
  0
LINE
  8
_0-0_0
  6
CONTINUOUS
 62
    7
 10
1528.9741819999999
 20
795.00001550000002
 11
1531.4288940000001
 21
795.00001550000002
  0
ARC
  8
_0-0_0
  6
CONTINUOUS
 62
    7
 10
1522.4288940000001
 20
799.60002150000003
 40
8
 50
215.099627
 51
324.90037799999999
  0
LINE
  8
_0-0_0
  6
CONTINUOUS
 62
    7
 10
73.974190000000021
 20
795.00001550000002
 11
1515.8836059999999
 21
795.00001550000002
  0
LINE
  8
_0-0_0
  6
CONTINUOUS
 62
    7
 10
73.974190000000021
 20
795.00001550000002
 11
74.063171000000011
 21
795.12931849999995
  0
LINE
  8
_0-0_0
  6
CONTINUOUS
 62
    7
 10
1515.8836059999999
 20
795.00001550000002
 11
1515.7947389999999
 21
795.12931849999995
  0
LINE
  8
_0-0_0
  6
CONTINUOUS
 62
    7
 10
1529.1561889999998
 20
795.2707365
 11
1529.2377320000001
 21
795.40000950000001
  0
ARC
  8
_0-0_0
  6
CONTINUOUS
 62
    7
 10
1522.4288940000001
 20
799.60002150000003
 40
8
 50
328.33175599999993
 51
334.05550899999992
  0
LINE
  8
_0-0_0
  6
CONTINUOUS
 62
    7
 10
1529.6226200000001
 20
796.10002150000003
 11
1529.7166139999999
 21
796.30000250000001
  0
LINE
  8
_0-0_0
  6
CONTINUOUS
 62
    7
 10
1529.7166139999999
 20
796.30000250000001
 11
1529.8038940000001
 21
796.50001550000002
  0
ARC
  8
_0-0_0
  6
CONTINUOUS
 62
    7
 10
1522.4288940000001
 20
799.60002150000003
 40
8
 50
337.20097500000003
 51
342.54240199999998
  0
LINE
  8
_0-0_0
  6
CONTINUOUS
 62
    7
 10
1530.0603639999999
 20
797.20002750000003
 11
1530.120422
 21
797.40000950000001
  0
LINE
  8
_0-0_0
  6
CONTINUOUS
 62
    7
 10
1530.120422
 20
797.40000950000001
 11
1530.1748659999998
 21
797.60002150000003
  0
ARC
  8
_0-0_0
  6
CONTINUOUS
 62
    7
 10
1522.4288940000001
 20
799.60002150000003
 40
8
 50
345.52249499999999
 51
350.64797900000002
  0
LINE
  8
_0-0_0
  6
CONTINUOUS
 62
    7
 10
1530.3225710000002
 20
798.30000250000001
 11
1530.3529659999999
 21
798.50001550000002
  0
LINE
  8
_0-0_0
  6
CONTINUOUS
 62
    7
 10
1530.3529659999999
 20
798.50001550000002
 11
1530.3781130000002
 21
798.70002750000003
  0
ARC
  8
_0-0_0
  6
CONTINUOUS
 62
    7
 10
1522.4288940000001
 20
799.60002150000003
 40
8
 50
353.54056400000002
 51
358.56744600000002
  0
LINE
  8
_0-0_0
  6
CONTINUOUS
 62
    7
 10
1530.426453
 20
799.40000950000001
 11
1530.4288940000001
 21
799.60002150000003
  0
LINE
  8
_0-0_0
  6
CONTINUOUS
 62
    7
 10
1514.4313349999998
 20
799.40000950000001
 11
1514.4288940000001
 21
799.60002150000003
  0
ARC
  8
_0-0_0
  6
CONTINUOUS
 62
    7
 10
1522.4288940000001
 20
799.60002150000003
 40
8
 50
181.432545
 51
186.45945499999999
  0
LINE
  8
_0-0_0
  6
CONTINUOUS
 62
    7
 10
1514.5048219999999
 20
798.50001550000002
 11
1514.479675
 21
798.70002750000003
  0
LINE
  8
_0-0_0
  6
CONTINUOUS
 62
    7
 10
1514.5352170000001
 20
798.30000250000001
 11
1514.5048219999999
 21
798.50001550000002
  0
ARC
  8
_0-0_0
  6
CONTINUOUS
 62
    7
 10
1522.4288940000001
 20
799.60002150000003
 40
8
 50
189.35203999999999
 51
194.47751
  0
LINE
  8
_0-0_0
  6
CONTINUOUS
 62
    7
 10
1514.7373659999998
 20
797.40000950000001
 11
1514.682922
 21
797.60002150000003
  0
LINE
  8
_0-0_0
  6
CONTINUOUS
 62
    7
 10
1514.7974239999999
 20
797.20002750000003
 11
1514.7373659999998
 21
797.40000950000001
  0
ARC
  8
_0-0_0
  6
CONTINUOUS
 62
    7
 10
1522.4288940000001
 20
799.60002150000003
 40
8
 50
197.45760300000001
 51
202.79902999999999
  0
LINE
  8
_0-0_0
  6
CONTINUOUS
 62
    7
 10
1515.1411739999999
 20
796.30000250000001
 11
1515.0538940000001
 21
796.50001550000002
  0
LINE
  8
_0-0_0
  6
CONTINUOUS
 62
    7
 10
1515.235169
 20
796.10002150000003
 11
1515.1411739999999
 21
796.30000250000001
  0
ARC
  8
_0-0_0
  6
CONTINUOUS
 62
    7
 10
1522.4288940000001
 20
799.60002150000003
 40
8
 50
205.94448199999999
 51
211.66823500000001
  0
LINE
  8
_0-0_0
  6
CONTINUOUS
 62
    7
 10
1515.701599
 20
795.2707365
 11
1515.6200560000002
 21
795.40000950000001
  0
LINE
  8
_0-0_0
  6
CONTINUOUS
 62
    7
 10
1515.701599
 20
795.2707365
 11
1515.7947389999999
 21
795.12931849999995
  0
LINE
  8
_0-0_0
  6
CONTINUOUS
 62
    7
 10
1528.9741819999999
 20
795.00001550000002
 11
1529.0630489999999
 21
795.12931849999995
  0
LINE
  8
_0-0_0
  6
CONTINUOUS
 62
    7
 10
1529.1561889999998
 20
795.2707365
 11
1529.0630489999999
 21
795.12931849999995
  0
LINE
  8
_0-0_0
  6
CONTINUOUS
 62
    7
 10
1531.4288940000001
 20
795.12931849999995
 11
1531.4288940000001
 21
795.00001550000002
  0
LINE
  8
_0-0_0
  6
CONTINUOUS
 62
    7
 10
1531.4288940000001
 20
803.92930550000005
 11
1531.4288940000001
 21
804.07072449999998
  0
LINE
  8
_0-0_0
  6
CONTINUOUS
 62
    7
 10
1531.4288940000001
 20
803.92930550000005
 11
1531.4288940000001
 21
803.80000250000001
  0
LINE
  8
_0-0_0
  6
CONTINUOUS
 62
    7
 10
1531.4288940000001
 20
803.10002150000003
 11
1531.4288940000001
 21
803.80000250000001
  0
LINE
  8
_0-0_0
  6
CONTINUOUS
 62
    7
 10
1531.4288940000001
 20
802.90000950000001
 11
1531.4288940000001
 21
803.10002150000003
  0
LINE
  8
_0-0_0
  6
CONTINUOUS
 62
    7
 10
1531.4288940000001
 20
802.90000950000001
 11
1531.4288940000001
 21
802.70002750000003
  0
LINE
  8
_0-0_0
  6
CONTINUOUS
 62
    7
 10
1531.4288940000001
 20
802.00001550000002
 11
1531.4288940000001
 21
802.70002750000003
  0
LINE
  8
_0-0_0
  6
CONTINUOUS
 62
    7
 10
1531.4288940000001
 20
801.80000250000001
 11
1531.4288940000001
 21
802.00001550000002
  0
LINE
  8
_0-0_0
  6
CONTINUOUS
 62
    7
 10
1531.4288940000001
 20
801.80000250000001
 11
1531.4288940000001
 21
801.60002150000003
  0
LINE
  8
_0-0_0
  6
CONTINUOUS
 62
    7
 10
1531.4288940000001
 20
800.90000950000001
 11
1531.4288940000001
 21
801.60002150000003
  0
LINE
  8
_0-0_0
  6
CONTINUOUS
 62
    7
 10
1531.4288940000001
 20
800.70002750000003
 11
1531.4288940000001
 21
800.90000950000001
  0
LINE
  8
_0-0_0
  6
CONTINUOUS
 62
    7
 10
1531.4288940000001
 20
800.70002750000003
 11
1531.4288940000001
 21
800.50001550000002
  0
LINE
  8
_0-0_0
  6
CONTINUOUS
 62
    7
 10
1531.4288940000001
 20
799.80000250000001
 11
1531.4288940000001
 21
800.50001550000002
  0
LINE
  8
_0-0_0
  6
CONTINUOUS
 62
    7
 10
1531.4288940000001
 20
799.60002150000003
 11
1531.4288940000001
 21
799.80000250000001
  0
LINE
  8
_0-0_0
  6
CONTINUOUS
 62
    7
 10
1531.4288940000001
 20
799.60002150000003
 11
1531.4288940000001
 21
799.40000950000001
  0
LINE
  8
_0-0_0
  6
CONTINUOUS
 62
    7
 10
1531.4288940000001
 20
798.70002750000003
 11
1531.4288940000001
 21
799.40000950000001
  0
LINE
  8
_0-0_0
  6
CONTINUOUS
 62
    7
 10
1531.4288940000001
 20
798.50001550000002
 11
1531.4288940000001
 21
798.70002750000003
  0
LINE
  8
_0-0_0
  6
CONTINUOUS
 62
    7
 10
1531.4288940000001
 20
798.50001550000002
 11
1531.4288940000001
 21
798.30000250000001
  0
LINE
  8
_0-0_0
  6
CONTINUOUS
 62
    7
 10
1531.4288940000001
 20
797.60002150000003
 11
1531.4288940000001
 21
798.30000250000001
  0
LINE
  8
_0-0_0
  6
CONTINUOUS
 62
    7
 10
1531.4288940000001
 20
797.40000950000001
 11
1531.4288940000001
 21
797.60002150000003
  0
LINE
  8
_0-0_0
  6
CONTINUOUS
 62
    7
 10
1531.4288940000001
 20
797.40000950000001
 11
1531.4288940000001
 21
797.20002750000003
  0
LINE
  8
_0-0_0
  6
CONTINUOUS
 62
    7
 10
1531.4288940000001
 20
796.50001550000002
 11
1531.4288940000001
 21
797.20002750000003
  0
LINE
  8
_0-0_0
  6
CONTINUOUS
 62
    7
 10
1531.4288940000001
 20
796.30000250000001
 11
1531.4288940000001
 21
796.50001550000002
  0
LINE
  8
_0-0_0
  6
CONTINUOUS
 62
    7
 10
1531.4288940000001
 20
796.30000250000001
 11
1531.4288940000001
 21
796.10002150000003
  0
LINE
  8
_0-0_0
  6
CONTINUOUS
 62
    7
 10
1531.4288940000001
 20
795.40000950000001
 11
1531.4288940000001
 21
796.10002150000003
  0
LINE
  8
_0-0_0
  6
CONTINUOUS
 62
    7
 10
1531.4288940000001
 20
795.2707365
 11
1531.4288940000001
 21
795.40000950000001
  0
LINE
  8
_0-0_0
  6
CONTINUOUS
 62
    7
 10
1531.4288940000001
 20
795.12931849999995
 11
1531.4288940000001
 21
795.2707365
  0
LINE
  8
_0-0_0
  6
CONTINUOUS
 62
    7
 10
1531.4288940000001
 20
781.30000250000001
 11
1531.4288940000001
 21
781.80000250000001
  0
LINE
  8
_0-0_0
  6
CONTINUOUS
 62
    7
 10
1531.4288940000001
 20
809.80000250000001
 11
1531.4288940000001
 21
809.20603949999997
  0
LINE
  8
_0-0_0
  6
CONTINUOUS
 62
    7
 10
1531.4288940000001
 20
804.20002750000003
 11
1531.4288940000001
 21
809.20603949999997
  0
LINE
  8
_0-0_0
  6
CONTINUOUS
 62
    7
 10
1531.4288940000001
 20
804.07072449999998
 11
1531.4288940000001
 21
804.20002750000003
  0
LINE
  8
_0-0_0
  6
CONTINUOUS
 62
    7
 10
58.428962999999953
 20
781.30000250000001
 11
58.428962999999953
 21
781.80000250000001
  0
LINE
  8
_0-0_0
  6
CONTINUOUS
 62
    7
 10
58.428962999999953
 20
781.30000250000001
 11
1531.4288940000001
 21
781.30000250000001
  0
LINE
  8
_0-0_0
  6
CONTINUOUS
 62
    7
 10
58.428962999999953
 20
795.12931849999995
 11
58.428962999999953
 21
795.2707365
  0
LINE
  8
_0-0_0
  6
CONTINUOUS
 62
    7
 10
58.428962999999953
 20
795.12931849999995
 11
58.428962999999953
 21
795.00001550000002
  0
LINE
  8
_0-0_0
  6
CONTINUOUS
 62
    7
 10
58.428962999999953
 20
809.80000250000001
 11
58.428962999999953
 21
809.20603949999997
  0
LINE
  8
_0-0_0
  6
CONTINUOUS
 62
    7
 10
58.428962999999953
 20
804.20002750000003
 11
58.428962999999953
 21
809.20603949999997
  0
LINE
  8
_0-0_0
  6
CONTINUOUS
 62
    7
 10
58.428962999999953
 20
804.07072449999998
 11
58.428962999999953
 21
804.20002750000003
  0
LINE
  8
_0-0_0
  6
CONTINUOUS
 62
    7
 10
58.428962999999953
 20
803.92930550000005
 11
58.428962999999953
 21
804.07072449999998
  0
LINE
  8
_0-0_0
  6
CONTINUOUS
 62
    7
 10
58.428962999999953
 20
803.92930550000005
 11
58.428962999999953
 21
803.80000250000001
  0
LINE
  8
_0-0_0
  6
CONTINUOUS
 62
    7
 10
58.428962999999953
 20
803.10002150000003
 11
58.428962999999953
 21
803.80000250000001
  0
LINE
  8
_0-0_0
  6
CONTINUOUS
 62
    7
 10
58.428962999999953
 20
802.97071849999998
 11
58.428962999999953
 21
803.10002150000003
  0
LINE
  8
_0-0_0
  6
CONTINUOUS
 62
    7
 10
58.428962999999953
 20
802.82929950000005
 11
58.428962999999953
 21
802.97071849999998
  0
LINE
  8
_0-0_0
  6
CONTINUOUS
 62
    7
 10
58.428962999999953
 20
802.82929950000005
 11
58.428962999999953
 21
802.70002750000003
  0
LINE
  8
_0-0_0
  6
CONTINUOUS
 62
    7
 10
58.428962999999953
 20
802.00001550000002
 11
58.428962999999953
 21
802.70002750000003
  0
LINE
  8
_0-0_0
  6
CONTINUOUS
 62
    7
 10
58.428962999999953
 20
801.87074250000001
 11
58.428962999999953
 21
802.00001550000002
  0
LINE
  8
_0-0_0
  6
CONTINUOUS
 62
    7
 10
58.428962999999953
 20
801.72929350000004
 11
58.428962999999953
 21
801.87074250000001
  0
LINE
  8
_0-0_0
  6
CONTINUOUS
 62
    7
 10
58.428962999999953
 20
801.72929350000004
 11
58.428962999999953
 21
801.60002150000003
  0
LINE
  8
_0-0_0
  6
CONTINUOUS
 62
    7
 10
58.428962999999953
 20
800.90000950000001
 11
58.428962999999953
 21
801.60002150000003
  0
LINE
  8
_0-0_0
  6
CONTINUOUS
 62
    7
 10
58.428962999999953
 20
800.7707365
 11
58.428962999999953
 21
800.90000950000001
  0
LINE
  8
_0-0_0
  6
CONTINUOUS
 62
    7
 10
58.428962999999953
 20
800.62931849999995
 11
58.428962999999953
 21
800.7707365
  0
LINE
  8
_0-0_0
  6
CONTINUOUS
 62
    7
 10
58.428962999999953
 20
800.62931849999995
 11
58.428962999999953
 21
800.50001550000002
  0
LINE
  8
_0-0_0
  6
CONTINUOUS
 62
    7
 10
58.428962999999953
 20
799.80000250000001
 11
58.428962999999953
 21
800.50001550000002
  0
LINE
  8
_0-0_0
  6
CONTINUOUS
 62
    7
 10
58.428962999999953
 20
799.67073049999999
 11
58.428962999999953
 21
799.80000250000001
  0
LINE
  8
_0-0_0
  6
CONTINUOUS
 62
    7
 10
58.428962999999953
 20
799.52931149999995
 11
58.428962999999953
 21
799.67073049999999
  0
LINE
  8
_0-0_0
  6
CONTINUOUS
 62
    7
 10
58.428962999999953
 20
799.52931149999995
 11
58.428962999999953
 21
799.40000950000001
  0
LINE
  8
_0-0_0
  6
CONTINUOUS
 62
    7
 10
58.428962999999953
 20
798.70002750000003
 11
58.428962999999953
 21
799.40000950000001
  0
LINE
  8
_0-0_0
  6
CONTINUOUS
 62
    7
 10
58.428962999999953
 20
798.57072449999998
 11
58.428962999999953
 21
798.70002750000003
  0
LINE
  8
_0-0_0
  6
CONTINUOUS
 62
    7
 10
58.428962999999953
 20
798.42930550000005
 11
58.428962999999953
 21
798.57072449999998
  0
LINE
  8
_0-0_0
  6
CONTINUOUS
 62
    7
 10
58.428962999999953
 20
798.42930550000005
 11
58.428962999999953
 21
798.30000250000001
  0
LINE
  8
_0-0_0
  6
CONTINUOUS
 62
    7
 10
58.428962999999953
 20
797.60002150000003
 11
58.428962999999953
 21
798.30000250000001
  0
LINE
  8
_0-0_0
  6
CONTINUOUS
 62
    7
 10
58.428962999999953
 20
797.47071849999998
 11
58.428962999999953
 21
797.60002150000003
  0
LINE
  8
_0-0_0
  6
CONTINUOUS
 62
    7
 10
58.428962999999953
 20
797.32929950000005
 11
58.428962999999953
 21
797.47071849999998
  0
LINE
  8
_0-0_0
  6
CONTINUOUS
 62
    7
 10
58.428962999999953
 20
797.32929950000005
 11
58.428962999999953
 21
797.20002750000003
  0
LINE
  8
_0-0_0
  6
CONTINUOUS
 62
    7
 10
58.428962999999953
 20
796.50001550000002
 11
58.428962999999953
 21
797.20002750000003
  0
LINE
  8
_0-0_0
  6
CONTINUOUS
 62
    7
 10
58.428962999999953
 20
796.37074250000001
 11
58.428962999999953
 21
796.50001550000002
  0
LINE
  8
_0-0_0
  6
CONTINUOUS
 62
    7
 10
58.428962999999953
 20
796.22929350000004
 11
58.428962999999953
 21
796.37074250000001
  0
LINE
  8
_0-0_0
  6
CONTINUOUS
 62
    7
 10
58.428962999999953
 20
796.22929350000004
 11
58.428962999999953
 21
796.10002150000003
  0
LINE
  8
_0-0_0
  6
CONTINUOUS
 62
    7
 10
58.428962999999953
 20
795.40000950000001
 11
58.428962999999953
 21
796.10002150000003
  0
LINE
  8
_0-0_0
  6
CONTINUOUS
 62
    7
 10
58.428962999999953
 20
795.2707365
 11
58.428962999999953
 21
795.40000950000001
  0
LINE
  8
_0-0_0
  6
CONTINUOUS
 62
    7
 10
60.883735999999999
 20
795.00001550000002
 11
60.794754000000012
 21
795.12931849999995
  0
LINE
  8
_0-0_0
  6
CONTINUOUS
 62
    7
 10
74.15631099999996
 20
795.2707365
 11
74.063171000000011
 21
795.12931849999995
  0
LINE
  8
_0-0_0
  6
CONTINUOUS
 62
    7
 10
74.15631099999996
 20
795.2707365
 11
74.237777999999935
 21
795.40000950000001
  0
ARC
  8
_0-0_0
  6
CONTINUOUS
 62
    7
 10
67.428962999999953
 20
799.60002150000003
 40
8
 50
328.33175599999993
 51
334.05550899999992
  0
LINE
  8
_0-0_0
  6
CONTINUOUS
 62
    7
 10
74.622710999999981
 20
796.10002150000003
 11
74.716621000000032
 21
796.30000250000001
  0
LINE
  8
_0-0_0
  6
CONTINUOUS
 62
    7
 10
74.716621000000032
 20
796.30000250000001
 11
74.803924999999936
 21
796.50001550000002
  0
ARC
  8
_0-0_0
  6
CONTINUOUS
 62
    7
 10
67.428962999999953
 20
799.60002150000003
 40
8
 50
337.20097500000003
 51
342.54240199999998
  0
LINE
  8
_0-0_0
  6
CONTINUOUS
 62
    7
 10
75.060477999999989
 20
797.20002750000003
 11
75.120513999999957
 21
797.40000950000001
  0
LINE
  8
_0-0_0
  6
CONTINUOUS
 62
    7
 10
75.120513999999957
 20
797.40000950000001
 11
75.174927000000025
 21
797.60002150000003
  0
ARC
  8
_0-0_0
  6
CONTINUOUS
 62
    7
 10
67.428962999999953
 20
799.60002150000003
 40
8
 50
345.52249499999999
 51
350.64797900000002
  0
LINE
  8
_0-0_0
  6
CONTINUOUS
 62
    7
 10
75.322631999999999
 20
798.30000250000001
 11
75.352981999999997
 21
798.50001550000002
  0
LINE
  8
_0-0_0
  6
CONTINUOUS
 62
    7
 10
75.352981999999997
 20
798.50001550000002
 11
75.378173999999944
 21
798.70002750000003
  0
ARC
  8
_0-0_0
  6
CONTINUOUS
 62
    7
 10
67.428962999999953
 20
799.60002150000003
 40
8
 50
353.54056400000002
 51
358.56744600000002
  0
LINE
  8
_0-0_0
  6
CONTINUOUS
 62
    7
 10
75.426468
 20
799.40000950000001
 11
75.428969999999936
 21
799.60002150000003
  0
LINE
  8
_0-0_0
  6
CONTINUOUS
 62
    7
 10
59.429275999999959
 20
799.52931149999995
 11
59.428962999999953
 21
799.60002150000003
  0
LINE
  8
_0-0_0
  6
CONTINUOUS
 62
    7
 10
59.431465000000003
 20
799.40000950000001
 11
59.429275999999959
 21
799.52931149999995
  0
ARC
  8
_0-0_0
  6
CONTINUOUS
 62
    7
 10
67.428962999999953
 20
799.60002150000003
 40
8
 50
181.432545
 51
186.45945499999999
  0
LINE
  8
_0-0_0
  6
CONTINUOUS
 62
    7
 10
59.495452999999998
 20
798.57072449999998
 11
59.479751999999962
 21
798.70002750000003
  0
LINE
  8
_0-0_0
  6
CONTINUOUS
 62
    7
 10
59.495452999999998
 20
798.57072449999998
 11
59.515083000000004
 21
798.42930550000005
  0
LINE
  8
_0-0_0
  6
CONTINUOUS
 62
    7
 10
59.535294000000022
 20
798.30000250000001
 11
59.515083000000004
 21
798.42930550000005
  0
ARC
  8
_0-0_0
  6
CONTINUOUS
 62
    7
 10
67.428962999999953
 20
799.60002150000003
 40
8
 50
189.35203999999999
 51
194.47751
  0
LINE
  8
_0-0_0
  6
CONTINUOUS
 62
    7
 10
59.717536999999993
 20
797.47071849999998
 11
59.682998999999995
 21
797.60002150000003
  0
LINE
  8
_0-0_0
  6
CONTINUOUS
 62
    7
 10
59.717536999999993
 20
797.47071849999998
 11
59.757987999999955
 21
797.32929950000005
  0
LINE
  8
_0-0_0
  6
CONTINUOUS
 62
    7
 10
59.797447000000034
 20
797.20002750000003
 11
59.757987999999955
 21
797.32929950000005
  0
ARC
  8
_0-0_0
  6
CONTINUOUS
 62
    7
 10
67.428962999999953
 20
799.60002150000003
 40
8
 50
197.45760300000001
 51
202.79902999999999
  0
LINE
  8
_0-0_0
  6
CONTINUOUS
 62
    7
 10
60.109694999999988
 20
796.37074250000001
 11
60.054008999999951
 21
796.50001550000002
  0
LINE
  8
_0-0_0
  6
CONTINUOUS
 62
    7
 10
60.109694999999988
 20
796.37074250000001
 11
60.17373699999996
 21
796.22929350000004
  0
LINE
  8
_0-0_0
  6
CONTINUOUS
 62
    7
 10
60.235214000000042
 20
796.10002150000003
 11
60.17373699999996
 21
796.22929350000004
  0
ARC
  8
_0-0_0
  6
CONTINUOUS
 62
    7
 10
67.428962999999953
 20
799.60002150000003
 40
8
 50
205.94448199999999
 51
211.66823500000001
  0
LINE
  8
_0-0_0
  6
CONTINUOUS
 62
    7
 10
60.70161399999995
 20
795.2707365
 11
60.620147999999972
 21
795.40000950000001
  0
LINE
  8
_0-0_0
  6
CONTINUOUS
 62
    7
 10
60.70161399999995
 20
795.2707365
 11
60.794754000000012
 21
795.12931849999995
  0
LINE
  8
_0-0_0
  6
CONTINUOUS
 62
    7
 10
1465.4288940000001
 20
787.30000250000001
 11
1472.4288940000001
 21
787.30000250000001
  0
ARC
  8
_0-0_0
  6
CONTINUOUS
 62
    7
 10
1465.4288940000001
 20
786.80000250000001
 40
0.5
 50
90.000003000000007
 51
180.00000900000001
  0
LINE
  8
_0-0_0
  6
CONTINUOUS
 62
    7
 10
1464.9288940000001
 20
786.80000250000001
 11
1464.9288940000001
 21
782.80000250000001
  0
ARC
  8
_0-0_0
  6
CONTINUOUS
 62
    7
 10
1465.4288940000001
 20
782.80000250000001
 40
0.5
 50
180.00000900000003
 51
269.99999700000001
  0
LINE
  8
_0-0_0
  6
CONTINUOUS
 62
    7
 10
1472.4288940000001
 20
782.30000250000001
 11
1465.4288940000001
 21
782.30000250000001
  0
ARC
  8
_0-0_0
  6
CONTINUOUS
 62
    7
 10
1472.4288940000001
 20
782.80000250000001
 40
0.5
 50
269.99999700000001
 51
0
  0
LINE
  8
_0-0_0
  6
CONTINUOUS
 62
    7
 10
1472.9288940000001
 20
782.80000250000001
 11
1472.9288940000001
 21
786.80000250000001
  0
ARC
  8
_0-0_0
  6
CONTINUOUS
 62
    7
 10
1472.4288940000001
 20
786.80000250000001
 40
0.5
 50
0
 51
90.000003000000007
  0
ARC
  8
_0-0_0
  6
CONTINUOUS
 62
    7
 10
125.42895499999997
 20
786.80000250000001
 40
0.5
 50
90.000003000000007
 51
180.00000900000001
  0
LINE
  8
_0-0_0
  6
CONTINUOUS
 62
    7
 10
124.92895499999997
 20
786.80000250000001
 11
124.92895499999997
 21
782.80000250000001
  0
ARC
  8
_0-0_0
  6
CONTINUOUS
 62
    7
 10
125.42895499999997
 20
782.80000250000001
 40
0.5
 50
180.00000900000003
 51
269.99999700000001
  0
LINE
  8
_0-0_0
  6
CONTINUOUS
 62
    7
 10
132.42895499999997
 20
782.30000250000001
 11
125.42895499999997
 21
782.30000250000001
  0
ARC
  8
_0-0_0
  6
CONTINUOUS
 62
    7
 10
132.42895499999997
 20
782.80000250000001
 40
0.5
 50
269.99999700000001
 51
0
  0
LINE
  8
_0-0_0
  6
CONTINUOUS
 62
    7
 10
132.92895499999997
 20
782.80000250000001
 11
132.92895499999997
 21
786.80000250000001
  0
ARC
  8
_0-0_0
  6
CONTINUOUS
 62
    7
 10
132.42895499999997
 20
786.80000250000001
 40
0.5
 50
0
 51
90.000003000000007
  0
LINE
  8
_0-0_0
  6
CONTINUOUS
 62
    7
 10
125.42895499999997
 20
787.30000250000001
 11
132.42895499999997
 21
787.30000250000001
  0
LINE
  8
_0-0_0
  6
CONTINUOUS
 62
    7
 10
74.237777999999935
 20
795.40000950000001
 11
1515.6200560000002
 21
795.40000950000001
  0
LINE
  8
_0-0_0
  6
CONTINUOUS
 62
    7
 10
74.622710999999981
 20
796.10002150000003
 11
1515.235169
 21
796.10002150000003
  0
LINE
  8
_0-0_0
  6
CONTINUOUS
 62
    7
 10
74.716621000000032
 20
796.30000250000001
 11
1515.1411739999999
 21
796.30000250000001
  0
LINE
  8
_0-0_0
  6
CONTINUOUS
 62
    7
 10
74.803924999999936
 20
796.50001550000002
 11
1515.0538940000001
 21
796.50001550000002
  0
LINE
  8
_0-0_0
  6
CONTINUOUS
 62
    7
 10
75.060477999999989
 20
797.20002750000003
 11
1514.7974239999999
 21
797.20002750000003
  0
LINE
  8
_0-0_0
  6
CONTINUOUS
 62
    7
 10
75.120513999999957
 20
797.40000950000001
 11
1514.7373659999998
 21
797.40000950000001
  0
LINE
  8
_0-0_0
  6
CONTINUOUS
 62
    7
 10
75.174927000000025
 20
797.60002150000003
 11
1514.682922
 21
797.60002150000003
  0
LINE
  8
_0-0_0
  6
CONTINUOUS
 62
    7
 10
75.322631999999999
 20
798.30000250000001
 11
1514.5352170000001
 21
798.30000250000001
  0
LINE
  8
_0-0_0
  6
CONTINUOUS
 62
    7
 10
75.352981999999997
 20
798.50001550000002
 11
1514.5048219999999
 21
798.50001550000002
  0
LINE
  8
_0-0_0
  6
CONTINUOUS
 62
    7
 10
75.378173999999944
 20
798.70002750000003
 11
1514.479675
 21
798.70002750000003
  0
LINE
  8
_0-0_0
  6
CONTINUOUS
 62
    7
 10
75.426468
 20
799.40000950000001
 11
1514.4313349999998
 21
799.40000950000001
  0
LINE
  8
_0-0_0
  6
CONTINUOUS
 62
    7
 10
75.428969999999936
 20
799.60002150000003
 11
1514.4288940000001
 21
799.60002150000003
  0
LINE
  8
_0-0_0
  6
CONTINUOUS
 62
    7
 10
1528.9741819999999
 20
804.20002750000003
 11
1529.0630489999999
 21
804.07072449999998
  0
ARC
  8
_0-0_0
  6
CONTINUOUS
 62
    7
 10
1522.4288940000001
 20
799.60002150000003
 40
8
 50
35.099632
 51
144.900373
  0
LINE
  8
_0-0_0
  6
CONTINUOUS
 62
    7
 10
1515.8836059999999
 20
804.20002750000003
 11
1515.7947389999999
 21
804.07072449999998
  0
LINE
  8
_0-0_0
  6
CONTINUOUS
 62
    7
 10
1515.701599
 20
803.92930550000005
 11
1515.7947389999999
 21
804.07072449999998
  0
LINE
  8
_0-0_0
  6
CONTINUOUS
 62
    7
 10
1515.701599
 20
803.92930550000005
 11
1515.6200560000002
 21
803.80000250000001
  0
ARC
  8
_0-0_0
  6
CONTINUOUS
 62
    7
 10
1522.4288940000001
 20
799.60002150000003
 40
8
 50
148.33176499999999
 51
154.05551800000001
  0
LINE
  8
_0-0_0
  6
CONTINUOUS
 62
    7
 10
1515.235169
 20
803.10002150000003
 11
1515.1411739999999
 21
802.90000950000001
  0
LINE
  8
_0-0_0
  6
CONTINUOUS
 62
    7
 10
1515.1411739999999
 20
802.90000950000001
 11
1515.0538940000001
 21
802.70002750000003
  0
ARC
  8
_0-0_0
  6
CONTINUOUS
 62
    7
 10
1522.4288940000001
 20
799.60002150000003
 40
8
 50
157.20097000000001
 51
162.54239699999999
  0
LINE
  8
_0-0_0
  6
CONTINUOUS
 62
    7
 10
1514.7974239999999
 20
802.00001550000002
 11
1514.7373659999998
 21
801.80000250000001
  0
LINE
  8
_0-0_0
  6
CONTINUOUS
 62
    7
 10
1514.7373659999998
 20
801.80000250000001
 11
1514.682922
 21
801.60002150000003
  0
ARC
  8
_0-0_0
  6
CONTINUOUS
 62
    7
 10
1522.4288940000001
 20
799.60002150000003
 40
8
 50
165.52249
 51
170.64796000000001
  0
LINE
  8
_0-0_0
  6
CONTINUOUS
 62
    7
 10
1514.5352170000001
 20
800.90000950000001
 11
1514.5048219999999
 21
800.70002750000003
  0
LINE
  8
_0-0_0
  6
CONTINUOUS
 62
    7
 10
1514.5048219999999
 20
800.70002750000003
 11
1514.479675
 21
800.50001550000002
  0
ARC
  8
_0-0_0
  6
CONTINUOUS
 62
    7
 10
1522.4288940000001
 20
799.60002150000003
 40
8
 50
173.54054500000001
 51
178.567455
  0
LINE
  8
_0-0_0
  6
CONTINUOUS
 62
    7
 10
1514.4313349999998
 20
799.80000250000001
 11
1514.4288940000001
 21
799.60002150000003
  0
LINE
  8
_0-0_0
  6
CONTINUOUS
 62
    7
 10
1530.426453
 20
799.80000250000001
 11
1530.4288940000001
 21
799.60002150000003
  0
ARC
  8
_0-0_0
  6
CONTINUOUS
 62
    7
 10
1522.4288940000001
 20
799.60002150000003
 40
8
 50
1.432544
 51
6.4594489999999993
  0
LINE
  8
_0-0_0
  6
CONTINUOUS
 62
    7
 10
1530.3529659999999
 20
800.70002750000003
 11
1530.3781130000002
 21
800.50001550000002
  0
LINE
  8
_0-0_0
  6
CONTINUOUS
 62
    7
 10
1530.3225710000002
 20
800.90000950000001
 11
1530.3529659999999
 21
800.70002750000003
  0
ARC
  8
_0-0_0
  6
CONTINUOUS
 62
    7
 10
1522.4288940000001
 20
799.60002150000003
 40
8
 50
9.3520350000000008
 51
14.477510999999998
  0
LINE
  8
_0-0_0
  6
CONTINUOUS
 62
    7
 10
1530.120422
 20
801.80000250000001
 11
1530.1748659999998
 21
801.60002150000003
  0
LINE
  8
_0-0_0
  6
CONTINUOUS
 62
    7
 10
1530.0603639999999
 20
802.00001550000002
 11
1530.120422
 21
801.80000250000001
  0
ARC
  8
_0-0_0
  6
CONTINUOUS
 62
    7
 10
1522.4288940000001
 20
799.60002150000003
 40
8
 50
17.457602999999999
 51
22.799030999999999
  0
LINE
  8
_0-0_0
  6
CONTINUOUS
 62
    7
 10
1529.7166139999999
 20
802.90000950000001
 11
1529.8038940000001
 21
802.70002750000003
  0
LINE
  8
_0-0_0
  6
CONTINUOUS
 62
    7
 10
1529.6226200000001
 20
803.10002150000003
 11
1529.7166139999999
 21
802.90000950000001
  0
ARC
  8
_0-0_0
  6
CONTINUOUS
 62
    7
 10
1522.4288940000001
 20
799.60002150000003
 40
8
 50
25.944476999999999
 51
31.668240000000001
  0
LINE
  8
_0-0_0
  6
CONTINUOUS
 62
    7
 10
1529.1561889999998
 20
803.92930550000005
 11
1529.2377320000001
 21
803.80000250000001
  0
LINE
  8
_0-0_0
  6
CONTINUOUS
 62
    7
 10
1529.1561889999998
 20
803.92930550000005
 11
1529.0630489999999
 21
804.07072449999998
  0
CIRCLE
  8
_0-0_0
  6
CONTINUOUS
 62
    7
 10
1522.4288940000001
 20
799.60002150000003
 40
7.5
  0
LINE
  8
_0-0_0
  6
CONTINUOUS
 62
    7
 10
1530.426453
 20
799.40000950000001
 11
1531.4288940000001
 21
799.40000950000001
  0
LINE
  8
_0-0_0
  6
CONTINUOUS
 62
    7
 10
1530.4288940000001
 20
799.60002150000003
 11
1531.4288940000001
 21
799.60002150000003
  0
LINE
  8
_0-0_0
  6
CONTINUOUS
 62
    7
 10
1530.3781130000002
 20
798.70002750000003
 11
1531.4288940000001
 21
798.70002750000003
  0
LINE
  8
_0-0_0
  6
CONTINUOUS
 62
    7
 10
1530.3529659999999
 20
798.50001550000002
 11
1531.4288940000001
 21
798.50001550000002
  0
LINE
  8
_0-0_0
  6
CONTINUOUS
 62
    7
 10
1530.3225710000002
 20
798.30000250000001
 11
1531.4288940000001
 21
798.30000250000001
  0
LINE
  8
_0-0_0
  6
CONTINUOUS
 62
    7
 10
1530.1748659999998
 20
797.60002150000003
 11
1531.4288940000001
 21
797.60002150000003
  0
LINE
  8
_0-0_0
  6
CONTINUOUS
 62
    7
 10
1530.120422
 20
797.40000950000001
 11
1531.4288940000001
 21
797.40000950000001
  0
LINE
  8
_0-0_0
  6
CONTINUOUS
 62
    7
 10
1530.0603639999999
 20
797.20002750000003
 11
1531.4288940000001
 21
797.20002750000003
  0
LINE
  8
_0-0_0
  6
CONTINUOUS
 62
    7
 10
1529.8038940000001
 20
796.50001550000002
 11
1531.4288940000001
 21
796.50001550000002
  0
LINE
  8
_0-0_0
  6
CONTINUOUS
 62
    7
 10
1529.7166139999999
 20
796.30000250000001
 11
1531.4288940000001
 21
796.30000250000001
  0
LINE
  8
_0-0_0
  6
CONTINUOUS
 62
    7
 10
1529.6226200000001
 20
796.10002150000003
 11
1531.4288940000001
 21
796.10002150000003
  0
LINE
  8
_0-0_0
  6
CONTINUOUS
 62
    7
 10
1529.2377320000001
 20
795.40000950000001
 11
1531.4288940000001
 21
795.40000950000001
  0
LINE
  8
_0-0_0
  6
CONTINUOUS
 62
    7
 10
1529.2377320000001
 20
803.80000250000001
 11
1531.4288940000001
 21
803.80000250000001
  0
LINE
  8
_0-0_0
  6
CONTINUOUS
 62
    7
 10
1529.6226200000001
 20
803.10002150000003
 11
1531.4288940000001
 21
803.10002150000003
  0
LINE
  8
_0-0_0
  6
CONTINUOUS
 62
    7
 10
1529.7166139999999
 20
802.90000950000001
 11
1531.4288940000001
 21
802.90000950000001
  0
LINE
  8
_0-0_0
  6
CONTINUOUS
 62
    7
 10
1529.8038940000001
 20
802.70002750000003
 11
1531.4288940000001
 21
802.70002750000003
  0
LINE
  8
_0-0_0
  6
CONTINUOUS
 62
    7
 10
1530.0603639999999
 20
802.00001550000002
 11
1531.4288940000001
 21
802.00001550000002
  0
LINE
  8
_0-0_0
  6
CONTINUOUS
 62
    7
 10
1530.120422
 20
801.80000250000001
 11
1531.4288940000001
 21
801.80000250000001
  0
LINE
  8
_0-0_0
  6
CONTINUOUS
 62
    7
 10
1530.1748659999998
 20
801.60002150000003
 11
1531.4288940000001
 21
801.60002150000003
  0
LINE
  8
_0-0_0
  6
CONTINUOUS
 62
    7
 10
1530.3225710000002
 20
800.90000950000001
 11
1531.4288940000001
 21
800.90000950000001
  0
LINE
  8
_0-0_0
  6
CONTINUOUS
 62
    7
 10
1530.3529659999999
 20
800.70002750000003
 11
1531.4288940000001
 21
800.70002750000003
  0
LINE
  8
_0-0_0
  6
CONTINUOUS
 62
    7
 10
1530.3781130000002
 20
800.50001550000002
 11
1531.4288940000001
 21
800.50001550000002
  0
LINE
  8
_0-0_0
  6
CONTINUOUS
 62
    7
 10
1530.426453
 20
799.80000250000001
 11
1531.4288940000001
 21
799.80000250000001
  0
LINE
  8
_0-0_0
  6
CONTINUOUS
 62
    7
 10
1531.9288940000001
 20
783.10002150000003
 11
1531.4288940000001
 21
783.10002150000003
  0
LINE
  8
_0-0_0
  6
CONTINUOUS
 62
    7
 10
1531.9288940000001
 20
785.30000250000001
 11
1531.4288940000001
 21
785.30000250000001
  0
LINE
  8
_0-0_0
  6
CONTINUOUS
 62
    7
 10
1531.9288940000001
 20
787.60002150000003
 11
1531.4288940000001
 21
787.60002150000003
  0
LINE
  8
_0-0_0
  6
CONTINUOUS
 62
    7
 10
58.428962999999953
 20
787.60002150000003
 11
57.928962999999953
 21
787.60002150000003
  0
LINE
  8
_0-0_0
  6
CONTINUOUS
 62
    7
 10
1531.4288940000001
 20
789.90000950000001
 11
1531.9288940000001
 21
789.90000950000001
  0
LINE
  8
_0-0_0
  6
CONTINUOUS
 62
    7
 10
1531.9288940000001
 20
810.10002150000003
 11
1531.9288940000001
 21
810.00001550000002
  0
LINE
  8
_0-0_0
  6
CONTINUOUS
 62
    7
 10
57.928962999999953
 20
810.10002150000003
 11
57.928962999999953
 21
810.00001550000002
  0
LINE
  8
_0-0_0
  6
CONTINUOUS
 62
    7
 10
57.928962999999953
 20
789.90000950000001
 11
58.428962999999953
 21
789.90000950000001
  0
LINE
  8
_0-0_0
  6
CONTINUOUS
 62
    7
 10
58.428962999999953
 20
809.80000250000001
 11
1531.4288940000001
 21
809.80000250000001
  0
LINE
  8
_0-0_0
  6
CONTINUOUS
 62
    7
 10
58.428962999999953
 20
809.20603949999997
 11
1531.4288940000001
 21
809.20603949999997
  0
LINE
  8
_0-0_0
  6
CONTINUOUS
 62
    7
 10
1528.9741819999999
 20
804.20002750000003
 11
1531.4288940000001
 21
804.20002750000003
  0
LINE
  8
_0-0_0
  6
CONTINUOUS
 62
    7
 10
58.428962999999953
 20
804.20002750000003
 11
60.883735999999999
 21
804.20002750000003
  0
ARC
  8
_0-0_0
  6
CONTINUOUS
 62
    7
 10
67.428962999999953
 20
799.60002150000003
 40
8
 50
35.099632
 51
144.900373
  0
LINE
  8
_0-0_0
  6
CONTINUOUS
 62
    7
 10
73.974190000000021
 20
804.20002750000003
 11
1515.8836059999999
 21
804.20002750000003
  0
LINE
  8
_0-0_0
  6
CONTINUOUS
 62
    7
 10
57.928962999999953
 20
783.10002150000003
 11
58.428962999999953
 21
783.10002150000003
  0
LINE
  8
_0-0_0
  6
CONTINUOUS
 62
    7
 10
58.428962999999953
 20
785.30000250000001
 11
57.928962999999953
 21
785.30000250000001
  0
LINE
  8
_0-0_0
  6
CONTINUOUS
 62
    7
 10
60.883735999999999
 20
804.20002750000003
 11
60.794754000000012
 21
804.07072449999998
  0
LINE
  8
_0-0_0
  6
CONTINUOUS
 62
    7
 10
60.70161399999995
 20
803.92930550000005
 11
60.794754000000012
 21
804.07072449999998
  0
LINE
  8
_0-0_0
  6
CONTINUOUS
 62
    7
 10
58.428962999999953
 20
803.80000250000001
 11
60.620147999999972
 21
803.80000250000001
  0
LINE
  8
_0-0_0
  6
CONTINUOUS
 62
    7
 10
60.70161399999995
 20
803.92930550000005
 11
60.620147999999972
 21
803.80000250000001
  0
ARC
  8
_0-0_0
  6
CONTINUOUS
 62
    7
 10
67.428962999999953
 20
799.60002150000003
 40
8
 50
148.33176499999999
 51
154.05551800000001
  0
LINE
  8
_0-0_0
  6
CONTINUOUS
 62
    7
 10
58.428962999999953
 20
803.10002150000003
 11
60.235214000000042
 21
803.10002150000003
  0
LINE
  8
_0-0_0
  6
CONTINUOUS
 62
    7
 10
60.235214000000042
 20
803.10002150000003
 11
60.17373699999996
 21
802.97071849999998
  0
LINE
  8
_0-0_0
  6
CONTINUOUS
 62
    7
 10
60.109694999999988
 20
802.82929950000005
 11
60.17373699999996
 21
802.97071849999998
  0
LINE
  8
_0-0_0
  6
CONTINUOUS
 62
    7
 10
58.428962999999953
 20
802.70002750000003
 11
60.054008999999951
 21
802.70002750000003
  0
LINE
  8
_0-0_0
  6
CONTINUOUS
 62
    7
 10
60.109694999999988
 20
802.82929950000005
 11
60.054008999999951
 21
802.70002750000003
  0
ARC
  8
_0-0_0
  6
CONTINUOUS
 62
    7
 10
67.428962999999953
 20
799.60002150000003
 40
8
 50
157.20097000000001
 51
162.54239699999999
  0
LINE
  8
_0-0_0
  6
CONTINUOUS
 62
    7
 10
58.428962999999953
 20
802.00001550000002
 11
59.797447000000034
 21
802.00001550000002
  0
LINE
  8
_0-0_0
  6
CONTINUOUS
 62
    7
 10
59.797447000000034
 20
802.00001550000002
 11
59.757987999999955
 21
801.87074250000001
  0
LINE
  8
_0-0_0
  6
CONTINUOUS
 62
    7
 10
59.717536999999993
 20
801.72929350000004
 11
59.757987999999955
 21
801.87074250000001
  0
LINE
  8
_0-0_0
  6
CONTINUOUS
 62
    7
 10
58.428962999999953
 20
801.60002150000003
 11
59.682998999999995
 21
801.60002150000003
  0
LINE
  8
_0-0_0
  6
CONTINUOUS
 62
    7
 10
59.717536999999993
 20
801.72929350000004
 11
59.682998999999995
 21
801.60002150000003
  0
ARC
  8
_0-0_0
  6
CONTINUOUS
 62
    7
 10
67.428962999999953
 20
799.60002150000003
 40
8
 50
165.52249
 51
170.64796000000001
  0
LINE
  8
_0-0_0
  6
CONTINUOUS
 62
    7
 10
58.428962999999953
 20
800.90000950000001
 11
59.535294000000022
 21
800.90000950000001
  0
LINE
  8
_0-0_0
  6
CONTINUOUS
 62
    7
 10
59.535294000000022
 20
800.90000950000001
 11
59.515083000000004
 21
800.7707365
  0
LINE
  8
_0-0_0
  6
CONTINUOUS
 62
    7
 10
59.495452999999998
 20
800.62931849999995
 11
59.515083000000004
 21
800.7707365
  0
LINE
  8
_0-0_0
  6
CONTINUOUS
 62
    7
 10
58.428962999999953
 20
800.50001550000002
 11
59.479751999999962
 21
800.50001550000002
  0
LINE
  8
_0-0_0
  6
CONTINUOUS
 62
    7
 10
59.495452999999998
 20
800.62931849999995
 11
59.479751999999962
 21
800.50001550000002
  0
ARC
  8
_0-0_0
  6
CONTINUOUS
 62
    7
 10
67.428962999999953
 20
799.60002150000003
 40
8
 50
173.54054500000001
 51
178.567455
  0
LINE
  8
_0-0_0
  6
CONTINUOUS
 62
    7
 10
58.428962999999953
 20
799.80000250000001
 11
59.431465000000003
 21
799.80000250000001
  0
LINE
  8
_0-0_0
  6
CONTINUOUS
 62
    7
 10
59.431465000000003
 20
799.80000250000001
 11
59.429275999999959
 21
799.67073049999999
  0
LINE
  8
_0-0_0
  6
CONTINUOUS
 62
    7
 10
59.428962999999953
 20
799.60002150000003
 11
59.429275999999959
 21
799.67073049999999
  0
LINE
  8
_0-0_0
  6
CONTINUOUS
 62
    7
 10
58.428962999999953
 20
799.40000950000001
 11
59.431465000000003
 21
799.40000950000001
  0
LINE
  8
_0-0_0
  6
CONTINUOUS
 62
    7
 10
58.428962999999953
 20
798.70002750000003
 11
59.479751999999962
 21
798.70002750000003
  0
LINE
  8
_0-0_0
  6
CONTINUOUS
 62
    7
 10
58.428962999999953
 20
798.30000250000001
 11
59.535294000000022
 21
798.30000250000001
  0
LINE
  8
_0-0_0
  6
CONTINUOUS
 62
    7
 10
58.428962999999953
 20
797.60002150000003
 11
59.682998999999995
 21
797.60002150000003
  0
LINE
  8
_0-0_0
  6
CONTINUOUS
 62
    7
 10
58.428962999999953
 20
797.20002750000003
 11
59.797447000000034
 21
797.20002750000003
  0
LINE
  8
_0-0_0
  6
CONTINUOUS
 62
    7
 10
58.428962999999953
 20
796.50001550000002
 11
60.054008999999951
 21
796.50001550000002
  0
LINE
  8
_0-0_0
  6
CONTINUOUS
 62
    7
 10
58.428962999999953
 20
796.10002150000003
 11
60.235214000000042
 21
796.10002150000003
  0
LINE
  8
_0-0_0
  6
CONTINUOUS
 62
    7
 10
58.428962999999953
 20
795.40000950000001
 11
60.620147999999972
 21
795.40000950000001
  0
LINE
  8
_0-0_0
  6
CONTINUOUS
 62
    7
 10
75.426468
 20
799.80000250000001
 11
75.428969999999936
 21
799.60002150000003
  0
ARC
  8
_0-0_0
  6
CONTINUOUS
 62
    7
 10
67.428962999999953
 20
799.60002150000003
 40
8
 50
1.432544
 51
6.4594489999999993
  0
LINE
  8
_0-0_0
  6
CONTINUOUS
 62
    7
 10
75.352981999999997
 20
800.70002750000003
 11
75.378173999999944
 21
800.50001550000002
  0
LINE
  8
_0-0_0
  6
CONTINUOUS
 62
    7
 10
75.322631999999999
 20
800.90000950000001
 11
75.352981999999997
 21
800.70002750000003
  0
ARC
  8
_0-0_0
  6
CONTINUOUS
 62
    7
 10
67.428962999999953
 20
799.60002150000003
 40
8
 50
9.3520350000000008
 51
14.477510999999998
  0
LINE
  8
_0-0_0
  6
CONTINUOUS
 62
    7
 10
75.120513999999957
 20
801.80000250000001
 11
75.174927000000025
 21
801.60002150000003
  0
LINE
  8
_0-0_0
  6
CONTINUOUS
 62
    7
 10
75.060477999999989
 20
802.00001550000002
 11
75.120513999999957
 21
801.80000250000001
  0
ARC
  8
_0-0_0
  6
CONTINUOUS
 62
    7
 10
67.428962999999953
 20
799.60002150000003
 40
8
 50
17.457602999999999
 51
22.799030999999999
  0
LINE
  8
_0-0_0
  6
CONTINUOUS
 62
    7
 10
74.716621000000032
 20
802.90000950000001
 11
74.803924999999936
 21
802.70002750000003
  0
LINE
  8
_0-0_0
  6
CONTINUOUS
 62
    7
 10
74.622710999999981
 20
803.10002150000003
 11
74.716621000000032
 21
802.90000950000001
  0
ARC
  8
_0-0_0
  6
CONTINUOUS
 62
    7
 10
67.428962999999953
 20
799.60002150000003
 40
8
 50
25.944476999999999
 51
31.668240000000001
  0
LINE
  8
_0-0_0
  6
CONTINUOUS
 62
    7
 10
74.15631099999996
 20
803.92930550000005
 11
74.237777999999935
 21
803.80000250000001
  0
LINE
  8
_0-0_0
  6
CONTINUOUS
 62
    7
 10
74.15631099999996
 20
803.92930550000005
 11
74.063171000000011
 21
804.07072449999998
  0
LINE
  8
_0-0_0
  6
CONTINUOUS
 62
    7
 10
73.974190000000021
 20
804.20002750000003
 11
74.063171000000011
 21
804.07072449999998
  0
CIRCLE
  8
_0-0_0
  6
CONTINUOUS
 62
    7
 10
67.428962999999953
 20
799.60002150000003
 40
7.5
  0
LINE
  8
_0-0_0
  6
CONTINUOUS
 62
    7
 10
75.426468
 20
799.80000250000001
 11
1514.4313349999998
 21
799.80000250000001
  0
LINE
  8
_0-0_0
  6
CONTINUOUS
 62
    7
 10
75.378173999999944
 20
800.50001550000002
 11
1514.479675
 21
800.50001550000002
  0
LINE
  8
_0-0_0
  6
CONTINUOUS
 62
    7
 10
75.352981999999997
 20
800.70002750000003
 11
1514.5048219999999
 21
800.70002750000003
  0
LINE
  8
_0-0_0
  6
CONTINUOUS
 62
    7
 10
75.322631999999999
 20
800.90000950000001
 11
1514.5352170000001
 21
800.90000950000001
  0
LINE
  8
_0-0_0
  6
CONTINUOUS
 62
    7
 10
75.174927000000025
 20
801.60002150000003
 11
1514.682922
 21
801.60002150000003
  0
LINE
  8
_0-0_0
  6
CONTINUOUS
 62
    7
 10
75.120513999999957
 20
801.80000250000001
 11
1514.7373659999998
 21
801.80000250000001
  0
LINE
  8
_0-0_0
  6
CONTINUOUS
 62
    7
 10
75.060477999999989
 20
802.00001550000002
 11
1514.7974239999999
 21
802.00001550000002
  0
LINE
  8
_0-0_0
  6
CONTINUOUS
 62
    7
 10
74.803924999999936
 20
802.70002750000003
 11
1515.0538940000001
 21
802.70002750000003
  0
LINE
  8
_0-0_0
  6
CONTINUOUS
 62
    7
 10
74.716621000000032
 20
802.90000950000001
 11
1515.1411739999999
 21
802.90000950000001
  0
LINE
  8
_0-0_0
  6
CONTINUOUS
 62
    7
 10
74.622710999999981
 20
803.10002150000003
 11
1515.235169
 21
803.10002150000003
  0
LINE
  8
_0-0_0
  6
CONTINUOUS
 62
    7
 10
74.237777999999935
 20
803.80000250000001
 11
1515.6200560000002
 21
803.80000250000001
  0
LINE
  8
_0-0_0
  6
CONTINUOUS
 62
    7
 10
1531.9288940000001
 20
781.60002150000003
 11
1531.4288940000001
 21
781.60002150000003
  0
LINE
  8
_0-0_0
  6
CONTINUOUS
 62
    7
 10
1531.9288940000001
 20
809.20002750000003
 11
1531.9288940000001
 21
810.00001550000002
  0
LINE
  8
_0-0_0
  6
CONTINUOUS
 62
    7
 10
1531.9288940000001
 20
781.40000950000001
 11
1531.9288940000001
 21
809.20002750000003
  0
ARC
  8
_0-0_0
  6
CONTINUOUS
 62
    7
 10
1522.4288940000001
 20
800.30000250000001
 40
12.800000000000001
 50
73.932597000000001
 51
106.06740099999999
  0
LINE
  8
_0-0_0
  6
CONTINUOUS
 62
    7
 10
57.928962999999953
 20
809.20002750000003
 11
57.928962999999953
 21
810.00001550000002
  0
LINE
  8
_0-0_0
  6
CONTINUOUS
 62
    7
 10
57.928962999999953
 20
781.40000950000001
 11
57.928962999999953
 21
809.20002750000003
  0
ARC
  8
_0-0_0
  6
CONTINUOUS
 62
    7
 10
67.428962999999953
 20
800.30000250000001
 40
12.800000000000001
 50
73.932597000000001
 51
106.06740099999999
  0
LINE
  8
_0-0_0
  6
CONTINUOUS
 62
    7
 10
785.42895499999997
 20
812.59999049999999
 11
785.42895499999997
 21
818.23991350000006
  0
LINE
  8
_0-0_0
  6
CONTINUOUS
 62
    7
 10
804.42895499999997
 20
818.23991350000006
 11
804.42895499999997
 21
812.59999049999999
  0
LINE
  8
_0-0_0
  6
CONTINUOUS
 62
    7
 10
1531.9288940000001
 20
810.10002150000003
 11
1531.9288940000001
 21
812.60002150000003
  0
LINE
  8
_0-0_0
  6
CONTINUOUS
 62
    7
 10
57.928962999999953
 20
812.60002150000003
 11
1531.9288940000001
 21
812.60002150000003
  0
LINE
  8
_0-0_0
  6
CONTINUOUS
 62
    7
 10
57.928962999999953
 20
810.10002150000003
 11
57.928962999999953
 21
812.60002150000003
  0
LINE
  8
_0-0_0
  6
CONTINUOUS
 62
    7
 10
57.928962999999953
 20
781.60002150000003
 11
58.428962999999953
 21
781.60002150000003
  0
ARC
  8
_0-0_0
  6
CONTINUOUS
 62
    7
 10
1470.2289430000001
 20
786.50001550000002
 40
0.2
 50
339.62356199999999
 51
90.000002999999978
  0
LINE
  8
_0-0_0
  6
CONTINUOUS
 62
    7
 10
1470.4163210000002
 20
786.43037449999997
 11
1469.1163940000001
 21
782.93037449999997
  0
ARC
  8
_0-0_0
  6
CONTINUOUS
 62
    7
 10
1468.9288940000001
 20
783.00001550000002
 40
0.2
 50
200.37643
 51
339.62356199999999
  0
LINE
  8
_0-0_0
  6
CONTINUOUS
 62
    7
 10
1467.4414670000001
 20
786.43037449999997
 11
1468.7413940000001
 21
782.93037449999997
  0
ARC
  8
_0-0_0
  6
CONTINUOUS
 62
    7
 10
1467.6288450000002
 20
786.50001550000002
 40
0.2
 50
90.000003000000007
 51
200.37643
  0
LINE
  8
_0-0_0
  6
CONTINUOUS
 62
    7
 10
1467.6288450000002
 20
786.70002750000003
 11
1470.2289430000001
 21
786.70002750000003
  0
ARC
  8
_0-0_0
  6
CONTINUOUS
 62
    7
 10
130.22895800000003
 20
786.50001550000002
 40
0.2
 50
339.62356199999999
 51
90.000002999999978
  0
LINE
  8
_0-0_0
  6
CONTINUOUS
 62
    7
 10
130.41644299999996
 20
786.43037449999997
 11
129.11644000000001
 21
782.93037449999997
  0
ARC
  8
_0-0_0
  6
CONTINUOUS
 62
    7
 10
128.92895499999997
 20
783.00001550000002
 40
0.2
 50
200.37643
 51
339.62356199999999
  0
LINE
  8
_0-0_0
  6
CONTINUOUS
 62
    7
 10
127.44146699999999
 20
786.43037449999997
 11
128.74146999999994
 21
782.93037449999997
  0
ARC
  8
_0-0_0
  6
CONTINUOUS
 62
    7
 10
127.62895200000003
 20
786.50001550000002
 40
0.2
 50
90.000003000000007
 51
200.37643
  0
LINE
  8
_0-0_0
  6
CONTINUOUS
 62
    7
 10
127.62895200000003
 20
786.70002750000003
 11
130.22895800000003
 21
786.70002750000003
  0
LINE
  8
_0-0_0
  6
CONTINUOUS
 62
    7
 10
1532.9288940000001
 20
809.20002750000003
 11
1531.9288940000001
 21
809.20002750000003
  0
LINE
  8
_0-0_0
  6
CONTINUOUS
 62
    7
 10
1532.9288940000001
 20
810.23701449999999
 11
1531.9288940000001
 21
810.23701449999999
  0
LINE
  8
_0-0_0
  6
CONTINUOUS
 62
    7
 10
1532.9288940000001
 20
781.40000950000001
 11
1531.9288940000001
 21
781.40000950000001
  0
ARC
  8
_0-0_0
  6
CONTINUOUS
 62
    7
 10
794.92895499999997
 20
800.30000250000001
 40
20.299999
 50
62.096725999999997
 51
117.903272
  0
CIRCLE
  8
_0-0_0
  6
CONTINUOUS
 62
    7
 10
794.92895499999997
 20
816.60002150000003
 40
2.5
  0
LINE
  8
_0-0_0
  6
CONTINUOUS
 62
    7
 10
56.928962999999953
 20
809.20002750000003
 11
57.928962999999953
 21
809.20002750000003
  0
LINE
  8
_0-0_0
  6
CONTINUOUS
 62
    7
 10
56.928962999999953
 20
810.20002750000003
 11
57.928962999999953
 21
810.20002750000003
  0
LINE
  8
_0-0_0
  6
CONTINUOUS
 62
    7
 10
56.928962999999953
 20
781.40000950000001
 11
57.928962999999953
 21
781.40000950000001
  0
LINE
  8
_0-0_0
  6
CONTINUOUS
 62
    7
 10
1532.9288940000001
 20
812.40000950000001
 11
1531.9288940000001
 21
812.40000950000001
  0
LINE
  8
_0-0_0
  6
CONTINUOUS
 62
    7
 10
56.928962999999953
 20
812.40000950000001
 11
57.928962999999953
 21
812.40000950000001
  0
LINE
  8
_0-0_0
  6
CONTINUOUS
 62
    7
 10
1533.9288940000001
 20
808.78581250000002
 11
1533.9279179999999
 21
808.80430550000005
  0
LINE
  8
_0-0_0
  6
CONTINUOUS
 62
    7
 10
1533.9279179999999
 20
808.80430550000005
 11
1533.9248659999998
 21
808.82273850000001
  0
LINE
  8
_0-0_0
  6
CONTINUOUS
 62
    7
 10
1533.9248659999998
 20
808.82273850000001
 11
1533.919617
 21
808.84187350000002
  0
LINE
  8
_0-0_0
  6
CONTINUOUS
 62
    7
 10
1533.919617
 20
808.84187350000002
 11
1533.9122929999999
 21
808.86091650000003
  0
LINE
  8
_0-0_0
  6
CONTINUOUS
 62
    7
 10
1533.9122929999999
 20
808.86091650000003
 11
1533.8917849999998
 21
808.8976285
  0
LINE
  8
_0-0_0
  6
CONTINUOUS
 62
    7
 10
1533.8917849999998
 20
808.8976285
 11
1533.8633420000001
 21
808.93330349999997
  0
LINE
  8
_0-0_0
  6
CONTINUOUS
 62
    7
 10
1533.8633420000001
 20
808.93330349999997
 11
1533.8274539999998
 21
808.96757449999996
  0
LINE
  8
_0-0_0
  6
CONTINUOUS
 62
    7
 10
1533.8274539999998
 20
808.96757449999996
 11
1533.7788700000001
 21
809.00404349999997
  0
LINE
  8
_0-0_0
  6
CONTINUOUS
 62
    7
 10
1533.7788700000001
 20
809.00404349999997
 11
1533.7221070000001
 21
809.0380705
  0
LINE
  8
_0-0_0
  6
CONTINUOUS
 62
    7
 10
1533.7221070000001
 20
809.0380705
 11
1533.6578979999999
 21
809.0693205
  0
LINE
  8
_0-0_0
  6
CONTINUOUS
 62
    7
 10
1533.6578979999999
 20
809.0693205
 11
1533.587219
 21
809.09754950000001
  0
LINE
  8
_0-0_0
  6
CONTINUOUS
 62
    7
 10
1533.587219
 20
809.09754950000001
 11
1533.5391239999999
 21
809.11390649999998
  0
LINE
  8
_0-0_0
  6
CONTINUOUS
 62
    7
 10
1533.5391239999999
 20
809.11390649999998
 11
1533.489075
 21
809.12892150000005
  0
LINE
  8
_0-0_0
  6
CONTINUOUS
 62
    7
 10
1533.489075
 20
809.12892150000005
 11
1533.4323119999999
 21
809.14369150000005
  0
LINE
  8
_0-0_0
  6
CONTINUOUS
 62
    7
 10
1533.4323119999999
 20
809.14369150000005
 11
1533.3737179999998
 21
809.15678349999996
  0
LINE
  8
_0-0_0
  6
CONTINUOUS
 62
    7
 10
1533.3737179999998
 20
809.15678349999996
 11
1533.2568970000002
 21
809.17707849999999
  0
LINE
  8
_0-0_0
  6
CONTINUOUS
 62
    7
 10
1533.2568970000002
 20
809.17707849999999
 11
1533.1495970000001
 21
809.18980350000004
  0
LINE
  8
_0-0_0
  6
CONTINUOUS
 62
    7
 10
1533.1495970000001
 20
809.18980350000004
 11
1533.039734
 21
809.19746350000003
  0
LINE
  8
_0-0_0
  6
CONTINUOUS
 62
    7
 10
1533.039734
 20
809.19746350000003
 11
1532.9288940000001
 21
809.20002750000003
  0
LINE
  8
_0-0_0
  6
CONTINUOUS
 62
    7
 10
1533.9288940000001
 20
808.78581250000002
 11
1533.9288940000001
 21
809.78587349999998
  0
LINE
  8
_0-0_0
  6
CONTINUOUS
 62
    7
 10
1533.9288940000001
 20
809.78587349999998
 11
1533.925964
 21
809.81742850000001
  0
LINE
  8
_0-0_0
  6
CONTINUOUS
 62
    7
 10
1533.925964
 20
809.81742850000001
 11
1533.917297
 21
809.84950249999997
  0
LINE
  8
_0-0_0
  6
CONTINUOUS
 62
    7
 10
1533.917297
 20
809.84950249999997
 11
1533.902771
 21
809.88179049999997
  0
LINE
  8
_0-0_0
  6
CONTINUOUS
 62
    7
 10
1533.902771
 20
809.88179049999997
 11
1533.8825069999998
 21
809.91395550000004
  0
LINE
  8
_0-0_0
  6
CONTINUOUS
 62
    7
 10
1533.8825069999998
 20
809.91395550000004
 11
1533.865906
 21
809.93516550000004
  0
LINE
  8
_0-0_0
  6
CONTINUOUS
 62
    7
 10
1533.865906
 20
809.93516550000004
 11
1533.8469850000001
 21
809.95613049999997
  0
LINE
  8
_0-0_0
  6
CONTINUOUS
 62
    7
 10
1533.8469850000001
 20
809.95613049999997
 11
1533.802185
 21
809.99690250000003
  0
LINE
  8
_0-0_0
  6
CONTINUOUS
 62
    7
 10
1533.802185
 20
809.99690250000003
 11
1533.7489620000001
 21
810.03565949999995
  0
LINE
  8
_0-0_0
  6
CONTINUOUS
 62
    7
 10
1533.7489620000001
 20
810.03565949999995
 11
1533.699036
 21
810.06587249999995
  0
LINE
  8
_0-0_0
  6
CONTINUOUS
 62
    7
 10
1533.699036
 20
810.06587249999995
 11
1533.6443479999998
 21
810.09407050000004
  0
LINE
  8
_0-0_0
  6
CONTINUOUS
 62
    7
 10
1533.6443479999998
 20
810.09407050000004
 11
1533.585388
 21
810.12013249999995
  0
LINE
  8
_0-0_0
  6
CONTINUOUS
 62
    7
 10
1533.585388
 20
810.12013249999995
 11
1533.5386349999999
 21
810.13810750000005
  0
LINE
  8
_0-0_0
  6
CONTINUOUS
 62
    7
 10
1533.5386349999999
 20
810.13810750000005
 11
1533.4899289999998
 21
810.15470849999997
  0
LINE
  8
_0-0_0
  6
CONTINUOUS
 62
    7
 10
1533.4899289999998
 20
810.15470849999997
 11
1533.3875119999998
 21
810.18360849999999
  0
LINE
  8
_0-0_0
  6
CONTINUOUS
 62
    7
 10
1533.3875119999998
 20
810.18360849999999
 11
1533.2798459999999
 21
810.2064365
  0
LINE
  8
_0-0_0
  6
CONTINUOUS
 62
    7
 10
1533.2798459999999
 20
810.2064365
 11
1533.1681520000002
 21
810.22300749999999
  0
LINE
  8
_0-0_0
  6
CONTINUOUS
 62
    7
 10
1533.1681520000002
 20
810.22300749999999
 11
1533.054138
 21
810.23319949999996
  0
LINE
  8
_0-0_0
  6
CONTINUOUS
 62
    7
 10
1533.054138
 20
810.23319949999996
 11
1532.9288940000001
 21
810.23701449999999
  0
ARC
  8
_0-0_0
  6
CONTINUOUS
 62
    7
 10
1532.9288940000001
 20
782.40000950000001
 40
1
 50
269.99999700000001
 51
0
  0
LINE
  8
_0-0_0
  6
CONTINUOUS
 62
    7
 10
1533.9288940000001
 20
782.40000950000001
 11
1533.9288940000001
 21
808.78581250000002
  0
CIRCLE
  8
_0-0_0
  6
CONTINUOUS
 62
    7
 10
1522.4288940000001
 20
799.60002150000003
 40
5
  0
LINE
  8
_0-0_0
  6
CONTINUOUS
 62
    7
 10
55.928962999999953
 20
808.78581250000002
 11
55.929961999999932
 21
808.80430550000005
  0
LINE
  8
_0-0_0
  6
CONTINUOUS
 62
    7
 10
55.929961999999932
 20
808.80430550000005
 11
55.932960999999978
 21
808.82273850000001
  0
LINE
  8
_0-0_0
  6
CONTINUOUS
 62
    7
 10
55.932960999999978
 20
808.82273850000001
 11
55.938193999999953
 21
808.84187350000002
  0
LINE
  8
_0-0_0
  6
CONTINUOUS
 62
    7
 10
55.938193999999953
 20
808.84187350000002
 11
55.94557199999997
 21
808.86091650000003
  0
LINE
  8
_0-0_0
  6
CONTINUOUS
 62
    7
 10
55.94557199999997
 20
808.86091650000003
 11
55.966126000000031
 21
808.8976285
  0
LINE
  8
_0-0_0
  6
CONTINUOUS
 62
    7
 10
55.966126000000031
 20
808.8976285
 11
55.994521999999961
 21
808.93330349999997
  0
LINE
  8
_0-0_0
  6
CONTINUOUS
 62
    7
 10
55.994521999999961
 20
808.93330349999997
 11
56.030402999999978
 21
808.96757449999996
  0
LINE
  8
_0-0_0
  6
CONTINUOUS
 62
    7
 10
56.030402999999978
 20
808.96757449999996
 11
56.079025000000001
 21
809.00404349999997
  0
LINE
  8
_0-0_0
  6
CONTINUOUS
 62
    7
 10
56.079025000000001
 20
809.00404349999997
 11
56.13581099999999
 21
809.0380705
  0
LINE
  8
_0-0_0
  6
CONTINUOUS
 62
    7
 10
56.13581099999999
 20
809.0380705
 11
56.199950999999942
 21
809.0693205
  0
LINE
  8
_0-0_0
  6
CONTINUOUS
 62
    7
 10
56.199950999999942
 20
809.0693205
 11
56.270598999999947
 21
809.09754950000001
  0
LINE
  8
_0-0_0
  6
CONTINUOUS
 62
    7
 10
56.270598999999947
 20
809.09754950000001
 11
56.318679999999972
 21
809.11390649999998
  0
LINE
  8
_0-0_0
  6
CONTINUOUS
 62
    7
 10
56.318679999999972
 20
809.11390649999998
 11
56.368820000000028
 21
809.12892150000005
  0
LINE
  8
_0-0_0
  6
CONTINUOUS
 62
    7
 10
56.368820000000028
 20
809.12892150000005
 11
56.425522000000001
 21
809.14369150000005
  0
LINE
  8
_0-0_0
  6
CONTINUOUS
 62
    7
 10
56.425522000000001
 20
809.14369150000005
 11
56.484122999999954
 21
809.15678349999996
  0
LINE
  8
_0-0_0
  6
CONTINUOUS
 62
    7
 10
56.484122999999954
 20
809.15678349999996
 11
56.600906000000009
 21
809.17707849999999
  0
LINE
  8
_0-0_0
  6
CONTINUOUS
 62
    7
 10
56.600906000000009
 20
809.17707849999999
 11
56.708312999999976
 21
809.18980350000004
  0
LINE
  8
_0-0_0
  6
CONTINUOUS
 62
    7
 10
56.708312999999976
 20
809.18980350000004
 11
56.818077000000017
 21
809.19746350000003
  0
LINE
  8
_0-0_0
  6
CONTINUOUS
 62
    7
 10
56.818077000000017
 20
809.19746350000003
 11
56.928962999999953
 21
809.20002750000003
  0
LINE
  8
_0-0_0
  6
CONTINUOUS
 62
    7
 10
55.928962999999953
 20
809.75547749999998
 11
55.93185399999993
 21
809.7863615
  0
LINE
  8
_0-0_0
  6
CONTINUOUS
 62
    7
 10
55.93185399999993
 20
809.7863615
 11
55.940552000000025
 21
809.81782550000003
  0
LINE
  8
_0-0_0
  6
CONTINUOUS
 62
    7
 10
55.940552000000025
 20
809.81782550000003
 11
55.95503199999996
 21
809.84947150000005
  0
LINE
  8
_0-0_0
  6
CONTINUOUS
 62
    7
 10
55.95503199999996
 20
809.84947150000005
 11
55.97520499999996
 21
809.8810575
  0
LINE
  8
_0-0_0
  6
CONTINUOUS
 62
    7
 10
55.97520499999996
 20
809.8810575
 11
55.991721999999982
 21
809.90193150000005
  0
LINE
  8
_0-0_0
  6
CONTINUOUS
 62
    7
 10
55.991721999999982
 20
809.90193150000005
 11
56.010627999999997
 21
809.92256150000003
  0
LINE
  8
_0-0_0
  6
CONTINUOUS
 62
    7
 10
56.010627999999997
 20
809.92256150000003
 11
56.055266999999958
 21
809.96272250000004
  0
LINE
  8
_0-0_0
  6
CONTINUOUS
 62
    7
 10
56.055266999999958
 20
809.96272250000004
 11
56.108397999999966
 21
810.00090050000006
  0
LINE
  8
_0-0_0
  6
CONTINUOUS
 62
    7
 10
56.108397999999966
 20
810.00090050000006
 11
56.158294999999953
 21
810.03071550000004
  0
LINE
  8
_0-0_0
  6
CONTINUOUS
 62
    7
 10
56.158294999999953
 20
810.03071550000004
 11
56.212966999999935
 21
810.05860849999999
  0
LINE
  8
_0-0_0
  6
CONTINUOUS
 62
    7
 10
56.212966999999935
 20
810.05860849999999
 11
56.271934999999985
 21
810.08433549999995
  0
LINE
  8
_0-0_0
  6
CONTINUOUS
 62
    7
 10
56.271934999999985
 20
810.08433549999995
 11
56.318694999999934
 21
810.10212650000005
  0
LINE
  8
_0-0_0
  6
CONTINUOUS
 62
    7
 10
56.318694999999934
 20
810.10212650000005
 11
56.367400999999973
 21
810.11854549999998
  0
LINE
  8
_0-0_0
  6
CONTINUOUS
 62
    7
 10
56.367400999999973
 20
810.11854549999998
 11
56.469832999999994
 21
810.14714049999998
  0
LINE
  8
_0-0_0
  6
CONTINUOUS
 62
    7
 10
56.469832999999994
 20
810.14714049999998
 11
56.577651999999944
 21
810.16972350000003
  0
LINE
  8
_0-0_0
  6
CONTINUOUS
 62
    7
 10
56.577651999999944
 20
810.16972350000003
 11
56.689339000000018
 21
810.18614149999996
  0
LINE
  8
_0-0_0
  6
CONTINUOUS
 62
    7
 10
56.689339000000018
 20
810.18614149999996
 11
56.803496999999993
 21
810.19624350000004
  0
LINE
  8
_0-0_0
  6
CONTINUOUS
 62
    7
 10
56.803496999999993
 20
810.19624350000004
 11
56.928962999999953
 21
810.20002750000003
  0
LINE
  8
_0-0_0
  6
CONTINUOUS
 62
    7
 10
55.928962999999953
 20
808.78581250000002
 11
55.928962999999953
 21
809.75547749999998
  0
ARC
  8
_0-0_0
  6
CONTINUOUS
 62
    7
 10
56.928962999999953
 20
782.40000950000001
 40
1
 50
180.00000900000003
 51
269.99999700000001
  0
LINE
  8
_0-0_0
  6
CONTINUOUS
 62
    7
 10
55.928962999999953
 20
782.40000950000001
 11
55.928962999999953
 21
808.78581250000002
  0
CIRCLE
  8
_0-0_0
  6
CONTINUOUS
 62
    7
 10
67.428962999999953
 20
799.60002150000003
 40
5
  0
LINE
  8
_0-0_0
  6
CONTINUOUS
 62
    7
 10
1533.9288940000001
 20
809.78587349999998
 11
1533.9288940000001
 21
811.40000950000001
  0
ARC
  8
_0-0_0
  6
CONTINUOUS
 62
    7
 10
1532.9288940000001
 20
811.40000950000001
 40
1
 50
0
 51
90.000003000000007
  0
ARC
  8
_0-0_0
  6
CONTINUOUS
 62
    7
 10
56.928962999999953
 20
811.40000950000001
 40
1
 50
90.000003000000007
 51
180.00000900000001
  0
LINE
  8
_0-0_0
  6
CONTINUOUS
 62
    7
 10
55.928962999999953
 20
809.75547749999998
 11
55.928962999999953
 21
811.40000950000001
  0
LINE
  8
_0-0_0
  6
CONTINUOUS
 62
    7
 10
-31.886703000000011
 20
779.29994150000005
 11
-31.886703000000011
 21
779.27494750000005
  0
LINE
  8
_0-0_0
  6
CONTINUOUS
 62
    7
 10
-31.886703000000011
 20
776.2228235
 11
-31.886703000000011
 21
776.32493550000004
  0
LINE
  8
_0-0_0
  6
CONTINUOUS
 62
    7
 10
-31.886703000000011
 20
755.19993550000004
 11
-31.886703000000011
 21
755.97706549999998
  0
LINE
  8
_0-0_0
  6
CONTINUOUS
 62
    7
 10
-48.686707000000069
 20
755.19993550000004
 11
-31.886703000000011
 21
755.19993550000004
  0
LINE
  8
_0-0_0
  6
CONTINUOUS
 62
    7
 10
-48.686707000000069
 20
763.09992950000003
 11
-48.686707000000069
 21
755.19993550000004
  0
LINE
  8
_0-0_0
  6
CONTINUOUS
 62
    7
 10
-48.686707000000069
 20
775.55525150000005
 11
-48.686707000000069
 21
769.09992950000003
  0
LINE
  8
_0-0_0
  6
CONTINUOUS
 62
    7
 10
-31.386719000000085
 20
758.69993550000004
 11
-31.186707000000069
 21
758.69993550000004
  0
LINE
  8
_0-0_0
  6
CONTINUOUS
 62
    7
 10
-31.186707000000069
 20
758.69993550000004
 11
-31.186707000000069
 21
761.69993550000004
  0
LINE
  8
_0-0_0
  6
CONTINUOUS
 62
    7
 10
-31.186707000000069
 20
775.29994150000005
 11
-31.186707000000069
 21
761.69993550000004
  0
LINE
  8
_0-0_0
  6
CONTINUOUS
 62
    7
 10
-31.386719000000085
 20
778.29994150000005
 11
-31.186707000000069
 21
778.29994150000005
  0
LINE
  8
_0-0_0
  6
CONTINUOUS
 62
    7
 10
-31.186707000000069
 20
775.29994150000005
 11
-31.186707000000069
 21
778.29994150000005
  0
LINE
  8
_0-0_0
  6
CONTINUOUS
 62
    7
 10
-32.086700000000064
 20
777.59901449999995
 11
-32.086700000000064
 21
776.41981450000003
  0
LINE
  8
_0-0_0
  6
CONTINUOUS
 62
    7
 10
-32.086700000000064
 20
779.79994150000005
 11
-32.086700000000064
 21
779.29994150000005
  0
LINE
  8
_0-0_0
  6
CONTINUOUS
 62
    7
 10
-33.086700000000064
 20
776.88343750000001
 11
-33.086700000000064
 21
777.59992950000003
  0
ARC
  8
_0-0_0
  6
CONTINUOUS
 62
    7
 10
-33.386703000000011
 20
774.89994750000005
 40
2
 50
0
 51
90.000003000000007
  0
LINE
  8
_0-0_0
  6
CONTINUOUS
 62
    7
 10
-31.386703000000011
 20
771.39994750000005
 11
-31.386703000000011
 21
774.39994750000005
  0
LINE
  8
_0-0_0
  6
CONTINUOUS
 62
    7
 10
-31.386703000000011
 20
774.39994750000005
 11
-31.386703000000011
 21
774.89994750000005
  0
LINE
  8
_0-0_0
  6
CONTINUOUS
 62
    7
 10
-31.386703000000011
 20
757.29994150000005
 11
-31.386703000000011
 21
770.89994750000005
  0
LINE
  8
_0-0_0
  6
CONTINUOUS
 62
    7
 10
-31.386703000000011
 20
771.39994750000005
 11
-31.386703000000011
 21
770.89994750000005
  0
ARC
  8
_0-0_0
  6
CONTINUOUS
 62
    7
 10
-33.386703000000011
 20
757.29994150000005
 40
2
 50
273.84026500000004
 51
0.000010000000014
  0
LINE
  8
_0-0_0
  6
CONTINUOUS
 62
    7
 10
-46.686707000000069
 20
776.88343750000001
 11
-46.686707000000069
 21
777.59992950000003
  0
LINE
  8
_0-0_0
  6
CONTINUOUS
 62
    7
 10
-46.686707000000069
 20
776.88343750000001
 11
-46.686707000000069
 21
776.87730350000004
  0
LINE
  8
_0-0_0
  6
CONTINUOUS
 62
    7
 10
-48.686707000000069
 20
775.55525150000005
 11
-48.686707000000069
 21
776.05525150000005
  0
LINE
  8
_0-0_0
  6
CONTINUOUS
 62
    7
 10
-48.386703000000011
 20
774.89994750000005
 11
-48.386703000000011
 21
761.29994150000005
  0
LINE
  8
_0-0_0
  6
CONTINUOUS
 62
    7
 10
-48.386703000000011
 20
760.79994150000005
 11
-48.386703000000011
 21
761.29994150000005
  0
LINE
  8
_0-0_0
  6
CONTINUOUS
 62
    7
 10
-48.386703000000011
 20
757.79994150000005
 11
-48.386703000000011
 21
760.79994150000005
  0
LINE
  8
_0-0_0
  6
CONTINUOUS
 62
    7
 10
-48.386703000000011
 20
757.29994150000005
 11
-48.386703000000011
 21
757.79994150000005
  0
ARC
  8
_0-0_0
  6
CONTINUOUS
 62
    7
 10
-46.386703000000011
 20
774.89994750000005
 40
2
 50
93.840255999999997
 51
180.00000900000001
  0
LINE
  8
_0-0_0
  6
CONTINUOUS
 62
    7
 10
-48.686707000000069
 20
763.09992950000003
 11
-48.686707000000069
 21
769.09992950000003
  0
LINE
  8
_0-0_0
  6
CONTINUOUS
 62
    7
 10
-48.686707000000069
 20
777.59992950000003
 11
-48.686707000000069
 21
776.05525150000005
  0
LINE
  8
_0-0_0
  6
CONTINUOUS
 62
    7
 10
-48.686707000000069
 20
769.09992950000003
 11
-48.386719000000085
 21
769.09992950000003
  0
LINE
  8
_0-0_0
  6
CONTINUOUS
 62
    7
 10
-48.686707000000069
 20
763.09992950000003
 11
-48.386719000000085
 21
763.09992950000003
  0
LINE
  8
_0-0_0
  6
CONTINUOUS
 62
    7
 10
-33.386703000000011
 20
755.29994150000005
 11
-42.386703000000011
 21
755.29994150000005
  0
LINE
  8
_0-0_0
  6
CONTINUOUS
 62
    7
 10
-45.886703000000011
 20
755.29994150000005
 11
-46.386703000000011
 21
755.29994150000005
  0
LINE
  8
_0-0_0
  6
CONTINUOUS
 62
    7
 10
-42.886703000000011
 20
755.29994150000005
 11
-45.886703000000011
 21
755.29994150000005
  0
LINE
  8
_0-0_0
  6
CONTINUOUS
 62
    7
 10
-42.386703000000011
 20
755.29994150000005
 11
-42.886703000000011
 21
755.29994150000005
  0
ARC
  8
_0-0_0
  6
CONTINUOUS
 62
    7
 10
-46.386703000000011
 20
757.29994150000005
 40
2
 50
180.00000900000003
 51
269.99999700000001
  0
ARC
  8
_0-0_0
  6
CONTINUOUS
 62
    7
 10
-32.586700000000064
 20
779.79994150000005
 40
0.5
 50
0
 51
90.000003000000007
  0
LINE
  8
_0-0_0
  6
CONTINUOUS
 62
    7
 10
-34.086700000000064
 20
780.29994150000005
 11
-32.586700000000064
 21
780.29994150000005
  0
ARC
  8
_0-0_0
  6
CONTINUOUS
 62
    7
 10
-34.086700000000064
 20
781.29994150000005
 40
1
 50
180.00000900000003
 51
269.99999700000001
  0
LINE
  8
_0-0_0
  6
CONTINUOUS
 62
    7
 10
-35.086700000000064
 20
781.29994150000005
 11
-35.086700000000064
 21
781.40003950000005
  0
LINE
  8
_0-0_0
  6
CONTINUOUS
 62
    7
 10
-35.586700000000064
 20
780.29994150000005
 11
-35.586700000000064
 21
781.40003950000005
  0
ARC
  8
_0-0_0
  6
CONTINUOUS
 62
    7
 10
-34.586700000000064
 20
780.29994150000005
 40
1
 50
180.00000900000003
 51
269.99999700000001
  0
LINE
  8
_0-0_0
  6
CONTINUOUS
 62
    7
 10
-34.586700000000064
 20
779.29994150000005
 11
-34.786712999999963
 21
779.29994150000005
  0
ARC
  8
_0-0_0
  6
CONTINUOUS
 62
    7
 10
-34.786712999999963
 20
780.29994150000005
 40
1
 50
180.00000900000003
 51
269.99999700000001
  0
ARC
  8
_0-0_0
  6
CONTINUOUS
 62
    7
 10
-44.986710000000016
 20
780.29994150000005
 40
1
 50
269.99999700000001
 51
0
  0
LINE
  8
_0-0_0
  6
CONTINUOUS
 62
    7
 10
-44.986710000000016
 20
779.29994150000005
 11
-45.686707000000069
 21
779.29994150000005
  0
LINE
  8
_0-0_0
  6
CONTINUOUS
 62
    7
 10
-31.886703000000011
 20
779.29994150000005
 11
-32.086700000000064
 21
779.29994150000005
  0
LINE
  8
_0-0_0
  6
CONTINUOUS
 62
    7
 10
-48.686707000000069
 20
777.59992950000003
 11
-31.886703000000011
 21
777.59992950000003
  0
LINE
  8
_0-0_0
  6
CONTINUOUS
 62
    7
 10
-31.886703000000011
 20
777.59992950000003
 11
-31.886703000000011
 21
779.29994150000005
  0
LINE
  8
_0-0_0
  6
CONTINUOUS
 62
    7
 10
-35.786712999999963
 20
781.40003950000005
 11
-35.786712999999963
 21
780.29994150000005
  0
LINE
  8
_0-0_0
  6
CONTINUOUS
 62
    7
 10
-43.986710000000016
 20
780.29994150000005
 11
-43.986710000000016
 21
781.40003950000005
  0
LINE
  8
_0-0_0
  6
CONTINUOUS
 62
    7
 10
-47.686707000000069
 20
779.29994150000005
 11
-48.686707000000069
 21
779.29994150000005
  0
LINE
  8
_0-0_0
  6
CONTINUOUS
 62
    7
 10
-48.686707000000069
 20
777.59992950000003
 11
-48.686707000000069
 21
779.29994150000005
  0
LINE
  8
_0-0_0
  6
CONTINUOUS
 62
    7
 10
-33.386703000000011
 20
776.89994750000005
 11
-33.886703000000011
 21
776.89994750000005
  0
CIRCLE
  8
_0-0_0
  6
CONTINUOUS
 62
    7
 10
-33.886703000000011
 20
774.39994750000005
 40
2.5
  0
LINE
  8
_0-0_0
  6
CONTINUOUS
 62
    7
 10
-46.386703000000011
 20
776.89994750000005
 11
-37.386703000000011
 21
776.89994750000005
  0
LINE
  8
_0-0_0
  6
CONTINUOUS
 62
    7
 10
-33.886703000000011
 20
776.89994750000005
 11
-36.886703000000011
 21
776.89994750000005
  0
LINE
  8
_0-0_0
  6
CONTINUOUS
 62
    7
 10
-37.386703000000011
 20
776.89994750000005
 11
-36.886703000000011
 21
776.89994750000005
  0
ARC
  8
_0-0_0
  6
CONTINUOUS
 62
    7
 10
-31.886703000000011
 20
770.89994750000005
 40
0.5
 50
0
 51
90.000003000000007
  0
LINE
  8
_0-0_0
  6
CONTINUOUS
 62
    7
 10
-33.386703000000011
 20
755.40257250000002
 11
-33.370834000000059
 21
755.37532050000004
  0
LINE
  8
_0-0_0
  6
CONTINUOUS
 62
    7
 10
-33.370834000000059
 20
755.37532050000004
 11
-33.354980000000069
 21
755.35234049999997
  0
LINE
  8
_0-0_0
  6
CONTINUOUS
 62
    7
 10
-33.354980000000069
 20
755.35234049999997
 11
-33.341003000000001
 21
755.33558649999998
  0
LINE
  8
_0-0_0
  6
CONTINUOUS
 62
    7
 10
-33.341003000000001
 20
755.33558649999998
 11
-33.327103000000079
 21
755.3222505
  0
LINE
  8
_0-0_0
  6
CONTINUOUS
 62
    7
 10
-33.327103000000079
 20
755.3222505
 11
-33.314880000000016
 21
755.31333949999998
  0
LINE
  8
_0-0_0
  6
CONTINUOUS
 62
    7
 10
-33.314880000000016
 20
755.31333949999998
 11
-33.302765000000022
 21
755.30711350000001
  0
LINE
  8
_0-0_0
  6
CONTINUOUS
 62
    7
 10
-33.302765000000022
 20
755.30711350000001
 11
-33.291901000000053
 21
755.30384849999996
  0
LINE
  8
_0-0_0
  6
CONTINUOUS
 62
    7
 10
-33.291901000000053
 20
755.30384849999996
 11
-33.281143000000043
 21
755.30278050000004
  0
LINE
  8
_0-0_0
  6
CONTINUOUS
 62
    7
 10
-33.281143000000043
 20
755.30278050000004
 11
-33.278685999999993
 21
755.30287150000004
  0
LINE
  8
_0-0_0
  6
CONTINUOUS
 62
    7
 10
-47.686707000000069
 20
776.41981450000003
 11
-47.686707000000069
 21
777.59901449999995
  0
ARC
  8
_0-0_0
  6
CONTINUOUS
 62
    7
 10
-47.886703000000011
 20
761.29994150000005
 40
0.5
 50
180.00000900000003
 51
269.99999700000001
  0
CIRCLE
  8
_0-0_0
  6
CONTINUOUS
 62
    7
 10
-45.886703000000011
 20
757.79994150000005
 40
2.5
  0
LINE
  8
_0-0_0
  6
CONTINUOUS
 62
    7
 10
-46.386703000000011
 20
776.79731749999996
 11
-46.402588000000037
 21
776.82456950000005
  0
LINE
  8
_0-0_0
  6
CONTINUOUS
 62
    7
 10
-46.402588000000037
 20
776.82456950000005
 11
-46.418425999999954
 21
776.84754950000001
  0
LINE
  8
_0-0_0
  6
CONTINUOUS
 62
    7
 10
-46.418425999999954
 20
776.84754950000001
 11
-46.432418999999982
 21
776.86430350000001
  0
LINE
  8
_0-0_0
  6
CONTINUOUS
 62
    7
 10
-46.432418999999982
 20
776.86430350000001
 11
-46.446320000000014
 21
776.87763949999999
  0
LINE
  8
_0-0_0
  6
CONTINUOUS
 62
    7
 10
-46.446320000000014
 20
776.87763949999999
 11
-46.458527000000004
 21
776.8865505
  0
LINE
  8
_0-0_0
  6
CONTINUOUS
 62
    7
 10
-46.458527000000004
 20
776.8865505
 11
-46.470641999999998
 21
776.89277649999997
  0
LINE
  8
_0-0_0
  6
CONTINUOUS
 62
    7
 10
-46.470641999999998
 20
776.89277649999997
 11
-46.481522000000041
 21
776.89604150000002
  0
LINE
  8
_0-0_0
  6
CONTINUOUS
 62
    7
 10
-46.481522000000041
 20
776.89604150000002
 11
-46.492279000000053
 21
776.89710950000006
  0
LINE
  8
_0-0_0
  6
CONTINUOUS
 62
    7
 10
-46.492279000000053
 20
776.89710950000006
 11
-46.494735999999989
 21
776.89701850000006
  0
LINE
  8
_0-0_0
  6
CONTINUOUS
 62
    7
 10
-48.686707000000069
 20
758.69993550000004
 11
-48.786712999999963
 21
758.69993550000004
  0
LINE
  8
_0-0_0
  6
CONTINUOUS
 62
    7
 10
-48.786712999999963
 20
758.69993550000004
 11
-48.786712999999963
 21
761.69993550000004
  0
LINE
  8
_0-0_0
  6
CONTINUOUS
 62
    7
 10
-48.786712999999963
 20
761.69993550000004
 11
-48.786712999999963
 21
775.29994150000005
  0
LINE
  8
_0-0_0
  6
CONTINUOUS
 62
    7
 10
-48.686707000000069
 20
778.29994150000005
 11
-48.786712999999963
 21
778.29994150000005
  0
LINE
  8
_0-0_0
  6
CONTINUOUS
 62
    7
 10
-48.786712999999963
 20
775.29994150000005
 11
-48.786712999999963
 21
778.29994150000005
  0
ARC
  8
_0-0_0
  6
CONTINUOUS
 62
    7
 10
-42.386703000000011
 20
755.79994150000005
 40
0.5
 50
180.00000900000003
 51
269.99999700000001
  0
ARC
  8
_0-0_0
  6
CONTINUOUS
 62
    7
 10
-45.686707000000069
 20
780.80000250000001
 40
1.5
 50
269.99999700000001
 51
0
  0
ARC
  8
_0-0_0
  6
CONTINUOUS
 62
    7
 10
-47.186707000000069
 20
779.80000250000001
 40
0.5
 50
90.000003000000007
 51
180.00000900000001
  0
LINE
  8
_0-0_0
  6
CONTINUOUS
 62
    7
 10
-47.186707000000069
 20
780.30000250000001
 11
-45.686707000000069
 21
780.30000250000001
  0
ARC
  8
_0-0_0
  6
CONTINUOUS
 62
    7
 10
-45.686707000000069
 20
781.30000250000001
 40
1
 50
269.99999700000001
 51
0
  0
LINE
  8
_0-0_0
  6
CONTINUOUS
 62
    7
 10
-44.686707000000069
 20
781.40003950000005
 11
-44.686707000000069
 21
781.30000250000001
  0
LINE
  8
_0-0_0
  6
CONTINUOUS
 62
    7
 10
-44.186707000000069
 20
781.40003950000005
 11
-44.186707000000069
 21
780.80000250000001
  0
LINE
  8
_0-0_0
  6
CONTINUOUS
 62
    7
 10
-47.686707000000069
 20
779.30000250000001
 11
-47.686707000000069
 21
779.80000250000001
  0
ARC
  8
_0-0_0
  6
CONTINUOUS
 62
    7
 10
-37.386703000000011
 20
776.39994750000005
 40
0.5
 50
0
 51
90.000003000000007
  0
LINE
  8
_0-0_0
  6
CONTINUOUS
 62
    7
 10
-36.886703000000011
 20
776.32295250000004
 11
-36.886703000000011
 21
776.39994750000005
  0
LINE
  8
_0-0_0
  6
CONTINUOUS
 62
    7
 10
-36.886703000000011
 20
774.88145450000002
 11
-36.886703000000011
 21
776.32295250000004
  0
LINE
  8
_0-0_0
  6
CONTINUOUS
 62
    7
 10
-36.886703000000011
 20
774.39994750000005
 11
-36.886703000000011
 21
774.88145450000002
  0
ARC
  8
_0-0_0
  6
CONTINUOUS
 62
    7
 10
-33.886703000000011
 20
774.39994750000005
 40
3
 50
180.00000900000003
 51
269.99999700000001
  0
LINE
  8
_0-0_0
  6
CONTINUOUS
 62
    7
 10
-33.405212000000006
 20
771.39994750000005
 11
-33.886703000000011
 21
771.39994750000005
  0
LINE
  8
_0-0_0
  6
CONTINUOUS
 62
    7
 10
-33.405212000000006
 20
771.39994750000005
 11
-31.963684000000057
 21
771.39994750000005
  0
LINE
  8
_0-0_0
  6
CONTINUOUS
 62
    7
 10
-31.886703000000011
 20
771.39994750000005
 11
-31.963684000000057
 21
771.39994750000005
  0
LINE
  8
_0-0_0
  6
CONTINUOUS
 62
    7
 10
-47.809738000000038
 20
760.79994150000005
 11
-47.886703000000011
 21
760.79994150000005
  0
LINE
  8
_0-0_0
  6
CONTINUOUS
 62
    7
 10
-45.886703000000011
 20
760.79994150000005
 11
-46.368209999999976
 21
760.79994150000005
  0
LINE
  8
_0-0_0
  6
CONTINUOUS
 62
    7
 10
-46.368209999999976
 20
760.79994150000005
 11
-47.809738000000038
 21
760.79994150000005
  0
LINE
  8
_0-0_0
  6
CONTINUOUS
 62
    7
 10
-42.886703000000011
 20
755.79994150000005
 11
-42.886703000000011
 21
755.87690750000002
  0
LINE
  8
_0-0_0
  6
CONTINUOUS
 62
    7
 10
-42.886703000000011
 20
757.31843549999996
 11
-42.886703000000011
 21
755.87690750000002
  0
LINE
  8
_0-0_0
  6
CONTINUOUS
 62
    7
 10
-42.886703000000011
 20
757.31843549999996
 11
-42.886703000000011
 21
757.79994150000005
  0
ARC
  8
_0-0_0
  6
CONTINUOUS
 62
    7
 10
-45.886703000000011
 20
757.79994150000005
 40
3
 50
0
 51
89.999995999999996
  0
LINE
  8
_0-0_0
  6
CONTINUOUS
 62
    7
 10
-31.386703000000011
 20
778.41120850000004
 11
-31.386703000000011
 21
776.52494750000005
  0
LINE
  8
_0-0_0
  6
CONTINUOUS
 62
    7
 10
-31.386703000000011
 20
779.07493550000004
 11
-31.386703000000011
 21
778.41120850000004
  0
ARC
  8
_0-0_0
  6
CONTINUOUS
 62
    7
 10
-36.656586000000061
 20
767.27317749999997
 40
3.063396
 50
19.82113
 51
25.289563000000001
  0
ARC
  8
_0-0_0
  6
CONTINUOUS
 62
    7
 10
-36.656265000000076
 20
764.92655950000005
 40
3.0630519999999999
 50
334.71006
 51
340.17869200000001
  0
ARC
  8
_0-0_0
  6
CONTINUOUS
 62
    7
 10
-43.116821000000073
 20
764.92671150000001
 40
3.063399
 50
199.82113599999997
 51
205.28948099999999
  0
ARC
  8
_0-0_0
  6
CONTINUOUS
 62
    7
 10
-43.117142000000058
 20
767.27333050000004
 40
3.0630549999999999
 50
154.710137
 51
160.17869999999999
  0
ARC
  8
_0-0_0
  6
CONTINUOUS
 62
    7
 10
-39.886703000000011
 20
766.09992950000003
 40
6.5
 50
340.10416099999998
 51
19.895609999999952
  0
ARC
  8
_0-0_0
  6
CONTINUOUS
 62
    7
 10
-39.886703000000011
 20
766.09992950000003
 40
6.5
 50
160.10415599999999
 51
199.895612
  0
LINE
  8
_0-0_0
  6
CONTINUOUS
 62
    7
 10
-48.386703000000011
 20
777.18873550000001
 11
-48.386703000000011
 21
777.59907550000003
  0
LINE
  8
_0-0_0
  6
CONTINUOUS
 62
    7
 10
-48.386703000000011
 20
776.52986150000004
 11
-48.386703000000011
 21
777.18873550000001
  0
LINE
  8
_0-0_0
  6
CONTINUOUS
 62
    7
 10
-40.628372000000013
 20
772.59992950000003
 11
-45.145035000000007
 21
769.9922335
  0
LINE
  8
_0-0_0
  6
CONTINUOUS
 62
    7
 10
-39.145035000000007
 20
772.59992950000003
 11
-40.628372000000013
 21
772.59992950000003
  0
LINE
  8
_0-0_0
  6
CONTINUOUS
 62
    7
 10
-34.628372000000013
 20
769.9922335
 11
-39.145035000000007
 21
772.59992950000003
  0
LINE
  8
_0-0_0
  6
CONTINUOUS
 62
    7
 10
-33.886703000000011
 20
768.70762649999995
 11
-33.886703000000011
 21
763.4922335
  0
LINE
  8
_0-0_0
  6
CONTINUOUS
 62
    7
 10
-34.628372000000013
 20
769.9922335
 11
-33.886703000000011
 21
768.70762649999995
  0
LINE
  8
_0-0_0
  6
CONTINUOUS
 62
    7
 10
-39.145035000000007
 20
759.59992950000003
 11
-34.628372000000013
 21
762.20762649999995
  0
LINE
  8
_0-0_0
  6
CONTINUOUS
 62
    7
 10
-34.334258999999975
 20
762.71708650000005
 11
-33.886703000000011
 21
763.4922335
  0
LINE
  8
_0-0_0
  6
CONTINUOUS
 62
    7
 10
-34.334258999999975
 20
762.71708650000005
 11
-34.628372000000013
 21
762.20762649999995
  0
LINE
  8
_0-0_0
  6
CONTINUOUS
 62
    7
 10
-40.628372000000013
 20
759.59992950000003
 11
-39.145035000000007
 21
759.59992950000003
  0
LINE
  8
_0-0_0
  6
CONTINUOUS
 62
    7
 10
-45.145035000000007
 20
762.20762649999995
 11
-40.628372000000013
 21
759.59992950000003
  0
LINE
  8
_0-0_0
  6
CONTINUOUS
 62
    7
 10
-45.886703000000011
 20
768.70762649999995
 11
-45.886703000000011
 21
763.4922335
  0
LINE
  8
_0-0_0
  6
CONTINUOUS
 62
    7
 10
-45.145035000000007
 20
762.20762649999995
 11
-45.886703000000011
 21
763.4922335
  0
LINE
  8
_0-0_0
  6
CONTINUOUS
 62
    7
 10
-45.439163000000008
 20
769.48280350000005
 11
-45.886703000000011
 21
768.70762649999995
  0
LINE
  8
_0-0_0
  6
CONTINUOUS
 62
    7
 10
-45.439163000000008
 20
769.48280350000005
 11
-45.145035000000007
 21
769.9922335
  0
LINE
  8
_0-0_0
  6
CONTINUOUS
 62
    7
 10
-31.999694999999974
 20
775.6253815
 11
-31.72164900000007
 21
775.64994750000005
  0
LINE
  8
_0-0_0
  6
CONTINUOUS
 62
    7
 10
-31.881942999999978
 20
775.42143250000004
 11
-31.72164900000007
 21
775.64994750000005
  0
LINE
  8
_0-0_0
  6
CONTINUOUS
 62
    7
 10
-32.13812299999995
 20
775.81590249999999
 11
-31.864166000000068
 21
775.86939949999999
  0
LINE
  8
_0-0_0
  6
CONTINUOUS
 62
    7
 10
-31.999694999999974
 20
775.6253815
 11
-31.864166000000068
 21
775.86939949999999
  0
LINE
  8
_0-0_0
  6
CONTINUOUS
 62
    7
 10
-32.295714999999973
 20
775.99092050000002
 11
-32.028839000000062
 21
776.07276950000005
  0
LINE
  8
_0-0_0
  6
CONTINUOUS
 62
    7
 10
-32.13812299999995
 20
775.81590249999999
 11
-32.028839000000062
 21
776.07276950000005
  0
LINE
  8
_0-0_0
  6
CONTINUOUS
 62
    7
 10
-32.470733999999993
 20
776.14851350000004
 11
-32.213882000000012
 21
776.25779750000004
  0
LINE
  8
_0-0_0
  6
CONTINUOUS
 62
    7
 10
-32.295714999999973
 20
775.99092050000002
 11
-32.213882000000012
 21
776.25779750000004
  0
LINE
  8
_0-0_0
  6
CONTINUOUS
 62
    7
 10
-32.661270000000059
 20
776.28694150000001
 11
-32.417251999999962
 21
776.42250049999996
  0
LINE
  8
_0-0_0
  6
CONTINUOUS
 62
    7
 10
-32.470733999999993
 20
776.14851350000004
 11
-32.417251999999962
 21
776.42250049999996
  0
LINE
  8
_0-0_0
  6
CONTINUOUS
 62
    7
 10
-32.865233999999987
 20
776.40470849999997
 11
-32.636703000000011
 21
776.56501749999995
  0
LINE
  8
_0-0_0
  6
CONTINUOUS
 62
    7
 10
-32.661270000000059
 20
776.28694150000001
 11
-32.636703000000011
 21
776.56501749999995
  0
LINE
  8
_0-0_0
  6
CONTINUOUS
 62
    7
 10
-33.080382999999983
 20
776.50050350000004
 11
-32.869872999999984
 21
776.68379149999998
  0
LINE
  8
_0-0_0
  6
CONTINUOUS
 62
    7
 10
-32.865233999999987
 20
776.40470849999997
 11
-32.869872999999984
 21
776.68379149999998
  0
LINE
  8
_0-0_0
  6
CONTINUOUS
 62
    7
 10
-33.304366999999957
 20
776.57328749999999
 11
-33.114166000000068
 21
776.77757250000002
  0
LINE
  8
_0-0_0
  6
CONTINUOUS
 62
    7
 10
-33.080382999999983
 20
776.50050350000004
 11
-33.114166000000068
 21
776.77757250000002
  0
LINE
  8
_0-0_0
  6
CONTINUOUS
 62
    7
 10
-33.53472899999997
 20
776.62223849999998
 11
-33.36692800000003
 21
776.84532149999995
  0
LINE
  8
_0-0_0
  6
CONTINUOUS
 62
    7
 10
-33.304366999999957
 20
776.57328749999999
 11
-33.36692800000003
 21
776.84532149999995
  0
LINE
  8
_0-0_0
  6
CONTINUOUS
 62
    7
 10
-33.768951000000015
 20
776.64686549999999
 11
-33.625381000000061
 21
776.88624549999997
  0
LINE
  8
_0-0_0
  6
CONTINUOUS
 62
    7
 10
-33.53472899999997
 20
776.62223849999998
 11
-33.625381000000061
 21
776.88624549999997
  0
LINE
  8
_0-0_0
  6
CONTINUOUS
 62
    7
 10
-34.004470999999967
 20
776.64686549999999
 11
-33.886703000000011
 21
776.89994750000005
  0
LINE
  8
_0-0_0
  6
CONTINUOUS
 62
    7
 10
-33.768951000000015
 20
776.64686549999999
 11
-33.886703000000011
 21
776.89994750000005
  0
LINE
  8
_0-0_0
  6
CONTINUOUS
 62
    7
 10
-34.23867800000005
 20
776.62223849999998
 11
-34.148024999999961
 21
776.88624549999997
  0
LINE
  8
_0-0_0
  6
CONTINUOUS
 62
    7
 10
-34.004470999999967
 20
776.64686549999999
 11
-34.148024999999961
 21
776.88624549999997
  0
LINE
  8
_0-0_0
  6
CONTINUOUS
 62
    7
 10
-34.469055000000026
 20
776.57328749999999
 11
-34.406494000000066
 21
776.84532149999995
  0
LINE
  8
_0-0_0
  6
CONTINUOUS
 62
    7
 10
-34.23867800000005
 20
776.62223849999998
 11
-34.406494000000066
 21
776.84532149999995
  0
LINE
  8
_0-0_0
  6
CONTINUOUS
 62
    7
 10
-34.693038999999999
 20
776.50050350000004
 11
-34.659256000000028
 21
776.77757250000002
  0
LINE
  8
_0-0_0
  6
CONTINUOUS
 62
    7
 10
-34.469055000000026
 20
776.57328749999999
 11
-34.659256000000028
 21
776.77757250000002
  0
LINE
  8
_0-0_0
  6
CONTINUOUS
 62
    7
 10
-34.908187999999996
 20
776.40470849999997
 11
-34.903548999999998
 21
776.68379149999998
  0
LINE
  8
_0-0_0
  6
CONTINUOUS
 62
    7
 10
-34.693038999999999
 20
776.50050350000004
 11
-34.903548999999998
 21
776.68379149999998
  0
LINE
  8
_0-0_0
  6
CONTINUOUS
 62
    7
 10
-35.027725000000032
 20
776.48857150000003
 11
-35.136703000000011
 21
776.56501749999995
  0
LINE
  8
_0-0_0
  6
CONTINUOUS
 62
    7
 10
-34.908187999999996
 20
776.40470849999997
 11
-35.027725000000032
 21
776.48857150000003
  0
LINE
  8
_0-0_0
  6
CONTINUOUS
 62
    7
 10
-35.112152000000037
 20
776.28694150000001
 11
-35.136703000000011
 21
776.56501749999995
  0
LINE
  8
_0-0_0
  6
CONTINUOUS
 62
    7
 10
-35.302673000000027
 20
776.14851350000004
 11
-35.356171000000018
 21
776.42250049999996
  0
LINE
  8
_0-0_0
  6
CONTINUOUS
 62
    7
 10
-35.112152000000037
 20
776.28694150000001
 11
-35.356171000000018
 21
776.42250049999996
  0
LINE
  8
_0-0_0
  6
CONTINUOUS
 62
    7
 10
-35.477692000000047
 20
775.99092050000002
 11
-35.55953999999997
 21
776.25779750000004
  0
LINE
  8
_0-0_0
  6
CONTINUOUS
 62
    7
 10
-35.302673000000027
 20
776.14851350000004
 11
-35.55953999999997
 21
776.25779750000004
  0
LINE
  8
_0-0_0
  6
CONTINUOUS
 62
    7
 10
-35.635283999999956
 20
775.81590249999999
 11
-35.744568000000072
 21
776.07276950000005
  0
LINE
  8
_0-0_0
  6
CONTINUOUS
 62
    7
 10
-35.477692000000047
 20
775.99092050000002
 11
-35.744568000000072
 21
776.07276950000005
  0
LINE
  8
_0-0_0
  6
CONTINUOUS
 62
    7
 10
-35.773712000000046
 20
775.6253815
 11
-35.909256000000028
 21
775.86939949999999
  0
LINE
  8
_0-0_0
  6
CONTINUOUS
 62
    7
 10
-35.635283999999956
 20
775.81590249999999
 11
-35.909256000000028
 21
775.86939949999999
  0
LINE
  8
_0-0_0
  6
CONTINUOUS
 62
    7
 10
-35.891479000000004
 20
775.42143250000004
 11
-36.051773000000026
 21
775.64994750000005
  0
LINE
  8
_0-0_0
  6
CONTINUOUS
 62
    7
 10
-35.773712000000046
 20
775.6253815
 11
-36.051773000000026
 21
775.64994750000005
  0
LINE
  8
_0-0_0
  6
CONTINUOUS
 62
    7
 10
-35.987258999999995
 20
775.20628350000004
 11
-36.170577999999978
 21
775.41679350000004
  0
LINE
  8
_0-0_0
  6
CONTINUOUS
 62
    7
 10
-35.891479000000004
 20
775.42143250000004
 11
-36.170577999999978
 21
775.41679350000004
  0
LINE
  8
_0-0_0
  6
CONTINUOUS
 62
    7
 10
-36.060042999999951
 20
774.98228449999999
 11
-36.264343000000054
 21
775.17250049999996
  0
LINE
  8
_0-0_0
  6
CONTINUOUS
 62
    7
 10
-35.987258999999995
 20
775.20628350000004
 11
-36.264343000000054
 21
775.17250049999996
  0
LINE
  8
_0-0_0
  6
CONTINUOUS
 62
    7
 10
-36.109009000000015
 20
774.75190750000002
 11
-36.332077000000027
 21
774.91972350000003
  0
LINE
  8
_0-0_0
  6
CONTINUOUS
 62
    7
 10
-36.060042999999951
 20
774.98228449999999
 11
-36.332077000000027
 21
774.91972350000003
  0
LINE
  8
_0-0_0
  6
CONTINUOUS
 62
    7
 10
-36.109009000000015
 20
774.75190750000002
 11
-36.373016000000007
 21
774.6612705
  0
LINE
  8
_0-0_0
  6
CONTINUOUS
 62
    7
 10
-36.133620999999948
 20
774.51768449999997
 11
-36.373016000000007
 21
774.6612705
  0
LINE
  8
_0-0_0
  6
CONTINUOUS
 62
    7
 10
-36.133620999999948
 20
774.28218049999998
 11
-36.386703000000011
 21
774.39994750000005
  0
LINE
  8
_0-0_0
  6
CONTINUOUS
 62
    7
 10
-36.133620999999948
 20
774.51768449999997
 11
-36.386703000000011
 21
774.39994750000005
  0
LINE
  8
_0-0_0
  6
CONTINUOUS
 62
    7
 10
-36.109009000000015
 20
774.04795850000005
 11
-36.373016000000007
 21
774.13862549999999
  0
LINE
  8
_0-0_0
  6
CONTINUOUS
 62
    7
 10
-36.133620999999948
 20
774.28218049999998
 11
-36.373016000000007
 21
774.13862549999999
  0
LINE
  8
_0-0_0
  6
CONTINUOUS
 62
    7
 10
-36.060042999999951
 20
773.8176115
 11
-36.332077000000027
 21
773.88017249999996
  0
LINE
  8
_0-0_0
  6
CONTINUOUS
 62
    7
 10
-36.109009000000015
 20
774.04795850000005
 11
-36.332077000000027
 21
773.88017249999996
  0
LINE
  8
_0-0_0
  6
CONTINUOUS
 62
    7
 10
-35.987258999999995
 20
773.59361249999995
 11
-36.264343000000054
 21
773.62739550000003
  0
LINE
  8
_0-0_0
  6
CONTINUOUS
 62
    7
 10
-36.060042999999951
 20
773.8176115
 11
-36.264343000000054
 21
773.62739550000003
  0
LINE
  8
_0-0_0
  6
CONTINUOUS
 62
    7
 10
-35.891479000000004
 20
773.37846349999995
 11
-36.170577999999978
 21
773.38310249999995
  0
LINE
  8
_0-0_0
  6
CONTINUOUS
 62
    7
 10
-35.987258999999995
 20
773.59361249999995
 11
-36.170577999999978
 21
773.38310249999995
  0
LINE
  8
_0-0_0
  6
CONTINUOUS
 62
    7
 10
-35.773712000000046
 20
773.17451449999999
 11
-36.051773000000026
 21
773.14994750000005
  0
LINE
  8
_0-0_0
  6
CONTINUOUS
 62
    7
 10
-35.891479000000004
 20
773.37846349999995
 11
-36.051773000000026
 21
773.14994750000005
  0
LINE
  8
_0-0_0
  6
CONTINUOUS
 62
    7
 10
-35.635283999999956
 20
772.98396249999996
 11
-35.909256000000028
 21
772.9304965
  0
LINE
  8
_0-0_0
  6
CONTINUOUS
 62
    7
 10
-35.773712000000046
 20
773.17451449999999
 11
-35.909256000000028
 21
772.9304965
  0
LINE
  8
_0-0_0
  6
CONTINUOUS
 62
    7
 10
-35.477692000000047
 20
772.80894450000005
 11
-35.744568000000072
 21
772.72712650000005
  0
LINE
  8
_0-0_0
  6
CONTINUOUS
 62
    7
 10
-35.635283999999956
 20
772.98396249999996
 11
-35.744568000000072
 21
772.72712650000005
  0
LINE
  8
_0-0_0
  6
CONTINUOUS
 62
    7
 10
-35.302673000000027
 20
772.65135150000003
 11
-35.55953999999997
 21
772.54206850000003
  0
LINE
  8
_0-0_0
  6
CONTINUOUS
 62
    7
 10
-35.477692000000047
 20
772.80894450000005
 11
-35.55953999999997
 21
772.54206850000003
  0
LINE
  8
_0-0_0
  6
CONTINUOUS
 62
    7
 10
-35.112152000000037
 20
772.51292450000005
 11
-35.356171000000018
 21
772.37739550000003
  0
LINE
  8
_0-0_0
  6
CONTINUOUS
 62
    7
 10
-35.302673000000027
 20
772.65135150000003
 11
-35.356171000000018
 21
772.37739550000003
  0
LINE
  8
_0-0_0
  6
CONTINUOUS
 62
    7
 10
-34.908187999999996
 20
772.39518750000002
 11
-35.136703000000011
 21
772.23487850000004
  0
LINE
  8
_0-0_0
  6
CONTINUOUS
 62
    7
 10
-35.112152000000037
 20
772.51292450000005
 11
-35.136703000000011
 21
772.23487850000004
  0
LINE
  8
_0-0_0
  6
CONTINUOUS
 62
    7
 10
-34.693038999999999
 20
772.29939249999995
 11
-34.903548999999998
 21
772.11607349999997
  0
LINE
  8
_0-0_0
  6
CONTINUOUS
 62
    7
 10
-34.908187999999996
 20
772.39518750000002
 11
-34.903548999999998
 21
772.11607349999997
  0
LINE
  8
_0-0_0
  6
CONTINUOUS
 62
    7
 10
-34.469055000000026
 20
772.2266085
 11
-34.659256000000028
 21
772.02229250000005
  0
LINE
  8
_0-0_0
  6
CONTINUOUS
 62
    7
 10
-34.693038999999999
 20
772.29939249999995
 11
-34.659256000000028
 21
772.02229250000005
  0
LINE
  8
_0-0_0
  6
CONTINUOUS
 62
    7
 10
-34.23867800000005
 20
772.17765750000001
 11
-34.406494000000066
 21
771.95457450000004
  0
LINE
  8
_0-0_0
  6
CONTINUOUS
 62
    7
 10
-34.469055000000026
 20
772.2266085
 11
-34.406494000000066
 21
771.95457450000004
  0
LINE
  8
_0-0_0
  6
CONTINUOUS
 62
    7
 10
-34.004470999999967
 20
772.1530305
 11
-34.148024999999961
 21
771.91365050000002
  0
LINE
  8
_0-0_0
  6
CONTINUOUS
 62
    7
 10
-34.23867800000005
 20
772.17765750000001
 11
-34.148024999999961
 21
771.91365050000002
  0
LINE
  8
_0-0_0
  6
CONTINUOUS
 62
    7
 10
-33.768951000000015
 20
772.1530305
 11
-33.886703000000011
 21
771.89994750000005
  0
LINE
  8
_0-0_0
  6
CONTINUOUS
 62
    7
 10
-34.004470999999967
 20
772.1530305
 11
-33.886703000000011
 21
771.89994750000005
  0
LINE
  8
_0-0_0
  6
CONTINUOUS
 62
    7
 10
-33.53472899999997
 20
772.17765750000001
 11
-33.625381000000061
 21
771.91365050000002
  0
LINE
  8
_0-0_0
  6
CONTINUOUS
 62
    7
 10
-33.768951000000015
 20
772.1530305
 11
-33.625381000000061
 21
771.91365050000002
  0
LINE
  8
_0-0_0
  6
CONTINUOUS
 62
    7
 10
-33.304366999999957
 20
772.2266085
 11
-33.36692800000003
 21
771.95457450000004
  0
LINE
  8
_0-0_0
  6
CONTINUOUS
 62
    7
 10
-33.53472899999997
 20
772.17765750000001
 11
-33.36692800000003
 21
771.95457450000004
  0
LINE
  8
_0-0_0
  6
CONTINUOUS
 62
    7
 10
-33.080382999999983
 20
772.29939249999995
 11
-33.114166000000068
 21
772.02229250000005
  0
LINE
  8
_0-0_0
  6
CONTINUOUS
 62
    7
 10
-33.304366999999957
 20
772.2266085
 11
-33.114166000000068
 21
772.02229250000005
  0
LINE
  8
_0-0_0
  6
CONTINUOUS
 62
    7
 10
-32.865233999999987
 20
772.39518750000002
 11
-32.869872999999984
 21
772.11607349999997
  0
LINE
  8
_0-0_0
  6
CONTINUOUS
 62
    7
 10
-33.080382999999983
 20
772.29939249999995
 11
-32.869872999999984
 21
772.11607349999997
  0
LINE
  8
_0-0_0
  6
CONTINUOUS
 62
    7
 10
-32.745697000000064
 20
772.31132449999996
 11
-32.636703000000011
 21
772.23487850000004
  0
LINE
  8
_0-0_0
  6
CONTINUOUS
 62
    7
 10
-32.865233999999987
 20
772.39518750000002
 11
-32.745697000000064
 21
772.31132449999996
  0
LINE
  8
_0-0_0
  6
CONTINUOUS
 62
    7
 10
-32.661270000000059
 20
772.51292450000005
 11
-32.636703000000011
 21
772.23487850000004
  0
LINE
  8
_0-0_0
  6
CONTINUOUS
 62
    7
 10
-32.470733999999993
 20
772.65135150000003
 11
-32.417251999999962
 21
772.37739550000003
  0
LINE
  8
_0-0_0
  6
CONTINUOUS
 62
    7
 10
-32.661270000000059
 20
772.51292450000005
 11
-32.417251999999962
 21
772.37739550000003
  0
LINE
  8
_0-0_0
  6
CONTINUOUS
 62
    7
 10
-32.295714999999973
 20
772.80894450000005
 11
-32.213882000000012
 21
772.54206850000003
  0
LINE
  8
_0-0_0
  6
CONTINUOUS
 62
    7
 10
-32.470733999999993
 20
772.65135150000003
 11
-32.213882000000012
 21
772.54206850000003
  0
LINE
  8
_0-0_0
  6
CONTINUOUS
 62
    7
 10
-32.13812299999995
 20
772.98396249999996
 11
-32.028839000000062
 21
772.72712650000005
  0
LINE
  8
_0-0_0
  6
CONTINUOUS
 62
    7
 10
-32.295714999999973
 20
772.80894450000005
 11
-32.028839000000062
 21
772.72712650000005
  0
LINE
  8
_0-0_0
  6
CONTINUOUS
 62
    7
 10
-31.999694999999974
 20
773.17451449999999
 11
-31.864166000000068
 21
772.9304965
  0
LINE
  8
_0-0_0
  6
CONTINUOUS
 62
    7
 10
-32.13812299999995
 20
772.98396249999996
 11
-31.864166000000068
 21
772.9304965
  0
LINE
  8
_0-0_0
  6
CONTINUOUS
 62
    7
 10
-31.881942999999978
 20
773.37846349999995
 11
-31.72164900000007
 21
773.14994750000005
  0
LINE
  8
_0-0_0
  6
CONTINUOUS
 62
    7
 10
-31.999694999999974
 20
773.17451449999999
 11
-31.72164900000007
 21
773.14994750000005
  0
LINE
  8
_0-0_0
  6
CONTINUOUS
 62
    7
 10
-31.786148000000026
 20
773.59361249999995
 11
-31.602844000000005
 21
773.38310249999995
  0
LINE
  8
_0-0_0
  6
CONTINUOUS
 62
    7
 10
-31.881942999999978
 20
773.37846349999995
 11
-31.602844000000005
 21
773.38310249999995
  0
LINE
  8
_0-0_0
  6
CONTINUOUS
 62
    7
 10
-31.713379000000032
 20
773.8176115
 11
-31.50906400000008
 21
773.62739550000003
  0
LINE
  8
_0-0_0
  6
CONTINUOUS
 62
    7
 10
-31.786148000000026
 20
773.59361249999995
 11
-31.50906400000008
 21
773.62739550000003
  0
LINE
  8
_0-0_0
  6
CONTINUOUS
 62
    7
 10
-31.664412999999968
 20
774.04795850000005
 11
-31.441344999999956
 21
773.88017249999996
  0
LINE
  8
_0-0_0
  6
CONTINUOUS
 62
    7
 10
-31.713379000000032
 20
773.8176115
 11
-31.441344999999956
 21
773.88017249999996
  0
LINE
  8
_0-0_0
  6
CONTINUOUS
 62
    7
 10
-31.639801000000034
 20
774.28218049999998
 11
-31.400405999999975
 21
774.13862549999999
  0
LINE
  8
_0-0_0
  6
CONTINUOUS
 62
    7
 10
-31.664412999999968
 20
774.04795850000005
 11
-31.400405999999975
 21
774.13862549999999
  0
LINE
  8
_0-0_0
  6
CONTINUOUS
 62
    7
 10
-31.639801000000034
 20
774.51768449999997
 11
-31.386703000000011
 21
774.39994750000005
  0
LINE
  8
_0-0_0
  6
CONTINUOUS
 62
    7
 10
-31.639801000000034
 20
774.28218049999998
 11
-31.386703000000011
 21
774.39994750000005
  0
LINE
  8
_0-0_0
  6
CONTINUOUS
 62
    7
 10
-31.664412999999968
 20
774.75190750000002
 11
-31.400405999999975
 21
774.6612705
  0
LINE
  8
_0-0_0
  6
CONTINUOUS
 62
    7
 10
-31.639801000000034
 20
774.51768449999997
 11
-31.400405999999975
 21
774.6612705
  0
LINE
  8
_0-0_0
  6
CONTINUOUS
 62
    7
 10
-31.713379000000032
 20
774.98228449999999
 11
-31.441344999999956
 21
774.91972350000003
  0
LINE
  8
_0-0_0
  6
CONTINUOUS
 62
    7
 10
-31.664412999999968
 20
774.75190750000002
 11
-31.441344999999956
 21
774.91972350000003
  0
LINE
  8
_0-0_0
  6
CONTINUOUS
 62
    7
 10
-31.786148000000026
 20
775.20628350000004
 11
-31.50906400000008
 21
775.17250049999996
  0
LINE
  8
_0-0_0
  6
CONTINUOUS
 62
    7
 10
-31.713379000000032
 20
774.98228449999999
 11
-31.50906400000008
 21
775.17250049999996
  0
LINE
  8
_0-0_0
  6
CONTINUOUS
 62
    7
 10
-31.881942999999978
 20
775.42143250000004
 11
-31.602844000000005
 21
775.41679350000004
  0
LINE
  8
_0-0_0
  6
CONTINUOUS
 62
    7
 10
-31.786148000000026
 20
775.20628350000004
 11
-31.602844000000005
 21
775.41679350000004
  0
CIRCLE
  8
_0-0_0
  6
CONTINUOUS
 62
    7
 10
-39.886703000000011
 20
766.09992950000003
 40
5.25
  0
LINE
  8
_0-0_0
  6
CONTINUOUS
 62
    7
 10
-43.999694999999974
 20
759.0253755
 11
-43.72164900000007
 21
759.04994150000005
  0
LINE
  8
_0-0_0
  6
CONTINUOUS
 62
    7
 10
-43.881942999999978
 20
758.82142650000003
 11
-43.72164900000007
 21
759.04994150000005
  0
LINE
  8
_0-0_0
  6
CONTINUOUS
 62
    7
 10
-44.13812299999995
 20
759.21592650000002
 11
-43.864166000000068
 21
759.26939349999998
  0
LINE
  8
_0-0_0
  6
CONTINUOUS
 62
    7
 10
-43.999694999999974
 20
759.0253755
 11
-43.864166000000068
 21
759.26939349999998
  0
LINE
  8
_0-0_0
  6
CONTINUOUS
 62
    7
 10
-44.295714999999973
 20
759.39094550000004
 11
-44.028839000000062
 21
759.47276250000004
  0
LINE
  8
_0-0_0
  6
CONTINUOUS
 62
    7
 10
-44.13812299999995
 20
759.21592650000002
 11
-44.028839000000062
 21
759.47276250000004
  0
LINE
  8
_0-0_0
  6
CONTINUOUS
 62
    7
 10
-44.470733999999993
 20
759.54850750000003
 11
-44.213882000000012
 21
759.65779150000003
  0
LINE
  8
_0-0_0
  6
CONTINUOUS
 62
    7
 10
-44.295714999999973
 20
759.39094550000004
 11
-44.213882000000012
 21
759.65779150000003
  0
LINE
  8
_0-0_0
  6
CONTINUOUS
 62
    7
 10
-44.661270000000059
 20
759.68696550000004
 11
-44.417251999999962
 21
759.82249449999995
  0
LINE
  8
_0-0_0
  6
CONTINUOUS
 62
    7
 10
-44.470733999999993
 20
759.54850750000003
 11
-44.417251999999962
 21
759.82249449999995
  0
LINE
  8
_0-0_0
  6
CONTINUOUS
 62
    7
 10
-44.865233999999987
 20
759.80470249999996
 11
-44.636703000000011
 21
759.96501150000006
  0
LINE
  8
_0-0_0
  6
CONTINUOUS
 62
    7
 10
-44.661270000000059
 20
759.68696550000004
 11
-44.636703000000011
 21
759.96501150000006
  0
LINE
  8
_0-0_0
  6
CONTINUOUS
 62
    7
 10
-45.080382999999983
 20
759.90049750000003
 11
-44.869872999999984
 21
760.08381650000001
  0
LINE
  8
_0-0_0
  6
CONTINUOUS
 62
    7
 10
-44.865233999999987
 20
759.80470249999996
 11
-44.869872999999984
 21
760.08381650000001
  0
LINE
  8
_0-0_0
  6
CONTINUOUS
 62
    7
 10
-45.304366999999957
 20
759.97328149999998
 11
-45.114166000000068
 21
760.17759650000005
  0
LINE
  8
_0-0_0
  6
CONTINUOUS
 62
    7
 10
-45.080382999999983
 20
759.90049750000003
 11
-45.114166000000068
 21
760.17759650000005
  0
LINE
  8
_0-0_0
  6
CONTINUOUS
 62
    7
 10
-45.53472899999997
 20
760.02223149999998
 11
-45.36692800000003
 21
760.24531549999995
  0
LINE
  8
_0-0_0
  6
CONTINUOUS
 62
    7
 10
-45.304366999999957
 20
759.97328149999998
 11
-45.36692800000003
 21
760.24531549999995
  0
LINE
  8
_0-0_0
  6
CONTINUOUS
 62
    7
 10
-45.768951000000015
 20
760.04685949999998
 11
-45.625381000000061
 21
760.28623949999997
  0
LINE
  8
_0-0_0
  6
CONTINUOUS
 62
    7
 10
-45.53472899999997
 20
760.02223149999998
 11
-45.625381000000061
 21
760.28623949999997
  0
LINE
  8
_0-0_0
  6
CONTINUOUS
 62
    7
 10
-46.004470999999967
 20
760.04685949999998
 11
-45.886703000000011
 21
760.29994150000005
  0
LINE
  8
_0-0_0
  6
CONTINUOUS
 62
    7
 10
-45.768951000000015
 20
760.04685949999998
 11
-45.886703000000011
 21
760.29994150000005
  0
LINE
  8
_0-0_0
  6
CONTINUOUS
 62
    7
 10
-46.238693000000012
 20
760.02223149999998
 11
-46.148024999999961
 21
760.28623949999997
  0
LINE
  8
_0-0_0
  6
CONTINUOUS
 62
    7
 10
-46.004470999999967
 20
760.04685949999998
 11
-46.148024999999961
 21
760.28623949999997
  0
LINE
  8
_0-0_0
  6
CONTINUOUS
 62
    7
 10
-46.469055000000026
 20
759.97328149999998
 11
-46.406494000000066
 21
760.24531549999995
  0
LINE
  8
_0-0_0
  6
CONTINUOUS
 62
    7
 10
-46.238693000000012
 20
760.02223149999998
 11
-46.406494000000066
 21
760.24531549999995
  0
LINE
  8
_0-0_0
  6
CONTINUOUS
 62
    7
 10
-46.693038999999999
 20
759.90049750000003
 11
-46.659256000000028
 21
760.17759650000005
  0
LINE
  8
_0-0_0
  6
CONTINUOUS
 62
    7
 10
-46.469055000000026
 20
759.97328149999998
 11
-46.659256000000028
 21
760.17759650000005
  0
LINE
  8
_0-0_0
  6
CONTINUOUS
 62
    7
 10
-46.908187999999996
 20
759.80470249999996
 11
-46.903548999999998
 21
760.08381650000001
  0
LINE
  8
_0-0_0
  6
CONTINUOUS
 62
    7
 10
-46.693038999999999
 20
759.90049750000003
 11
-46.903548999999998
 21
760.08381650000001
  0
LINE
  8
_0-0_0
  6
CONTINUOUS
 62
    7
 10
-47.027725000000032
 20
759.88856450000003
 11
-47.136703000000011
 21
759.96501150000006
  0
LINE
  8
_0-0_0
  6
CONTINUOUS
 62
    7
 10
-46.908187999999996
 20
759.80470249999996
 11
-47.027725000000032
 21
759.88856450000003
  0
LINE
  8
_0-0_0
  6
CONTINUOUS
 62
    7
 10
-47.112152000000037
 20
759.68696550000004
 11
-47.136703000000011
 21
759.96501150000006
  0
LINE
  8
_0-0_0
  6
CONTINUOUS
 62
    7
 10
-47.302673000000027
 20
759.54850750000003
 11
-47.356171000000018
 21
759.82249449999995
  0
LINE
  8
_0-0_0
  6
CONTINUOUS
 62
    7
 10
-47.112152000000037
 20
759.68696550000004
 11
-47.356171000000018
 21
759.82249449999995
  0
LINE
  8
_0-0_0
  6
CONTINUOUS
 62
    7
 10
-47.477692000000047
 20
759.39094550000004
 11
-47.55953999999997
 21
759.65779150000003
  0
LINE
  8
_0-0_0
  6
CONTINUOUS
 62
    7
 10
-47.302673000000027
 20
759.54850750000003
 11
-47.55953999999997
 21
759.65779150000003
  0
LINE
  8
_0-0_0
  6
CONTINUOUS
 62
    7
 10
-47.635283999999956
 20
759.21592650000002
 11
-47.744568000000072
 21
759.47276250000004
  0
LINE
  8
_0-0_0
  6
CONTINUOUS
 62
    7
 10
-47.477692000000047
 20
759.39094550000004
 11
-47.744568000000072
 21
759.47276250000004
  0
LINE
  8
_0-0_0
  6
CONTINUOUS
 62
    7
 10
-47.773712000000046
 20
759.0253755
 11
-47.909256000000028
 21
759.26939349999998
  0
LINE
  8
_0-0_0
  6
CONTINUOUS
 62
    7
 10
-47.635283999999956
 20
759.21592650000002
 11
-47.909256000000028
 21
759.26939349999998
  0
LINE
  8
_0-0_0
  6
CONTINUOUS
 62
    7
 10
-47.891479000000004
 20
758.82142650000003
 11
-48.051773000000026
 21
759.04994150000005
  0
LINE
  8
_0-0_0
  6
CONTINUOUS
 62
    7
 10
-47.773712000000046
 20
759.0253755
 11
-48.051773000000026
 21
759.04994150000005
  0
LINE
  8
_0-0_0
  6
CONTINUOUS
 62
    7
 10
-47.987258999999995
 20
758.60627750000003
 11
-48.170577999999978
 21
758.81678750000003
  0
LINE
  8
_0-0_0
  6
CONTINUOUS
 62
    7
 10
-47.891479000000004
 20
758.82142650000003
 11
-48.170577999999978
 21
758.81678750000003
  0
LINE
  8
_0-0_0
  6
CONTINUOUS
 62
    7
 10
-48.060042999999951
 20
758.38227849999998
 11
-48.264343000000054
 21
758.57249449999995
  0
LINE
  8
_0-0_0
  6
CONTINUOUS
 62
    7
 10
-47.987258999999995
 20
758.60627750000003
 11
-48.264343000000054
 21
758.57249449999995
  0
LINE
  8
_0-0_0
  6
CONTINUOUS
 62
    7
 10
-48.109009000000015
 20
758.15193150000005
 11
-48.332077000000027
 21
758.31971750000002
  0
LINE
  8
_0-0_0
  6
CONTINUOUS
 62
    7
 10
-48.060042999999951
 20
758.38227849999998
 11
-48.332077000000027
 21
758.31971750000002
  0
LINE
  8
_0-0_0
  6
CONTINUOUS
 62
    7
 10
-48.109009000000015
 20
758.15193150000005
 11
-48.373016000000007
 21
758.0612635
  0
LINE
  8
_0-0_0
  6
CONTINUOUS
 62
    7
 10
-48.133620999999948
 20
757.9177095
 11
-48.373016000000007
 21
758.0612635
  0
LINE
  8
_0-0_0
  6
CONTINUOUS
 62
    7
 10
-48.133620999999948
 20
757.68217449999997
 11
-48.386703000000011
 21
757.79994150000005
  0
LINE
  8
_0-0_0
  6
CONTINUOUS
 62
    7
 10
-48.133620999999948
 20
757.9177095
 11
-48.386703000000011
 21
757.79994150000005
  0
LINE
  8
_0-0_0
  6
CONTINUOUS
 62
    7
 10
-48.109009000000015
 20
757.44795250000004
 11
-48.373016000000007
 21
757.53861949999998
  0
LINE
  8
_0-0_0
  6
CONTINUOUS
 62
    7
 10
-48.133620999999948
 20
757.68217449999997
 11
-48.373016000000007
 21
757.53861949999998
  0
LINE
  8
_0-0_0
  6
CONTINUOUS
 62
    7
 10
-48.060042999999951
 20
757.21760549999999
 11
-48.332077000000027
 21
757.28016649999995
  0
LINE
  8
_0-0_0
  6
CONTINUOUS
 62
    7
 10
-48.109009000000015
 20
757.44795250000004
 11
-48.332077000000027
 21
757.28016649999995
  0
LINE
  8
_0-0_0
  6
CONTINUOUS
 62
    7
 10
-47.987258999999995
 20
756.99360650000006
 11
-48.264343000000054
 21
757.02738950000003
  0
LINE
  8
_0-0_0
  6
CONTINUOUS
 62
    7
 10
-48.060042999999951
 20
757.21760549999999
 11
-48.264343000000054
 21
757.02738950000003
  0
LINE
  8
_0-0_0
  6
CONTINUOUS
 62
    7
 10
-47.891479000000004
 20
756.77845750000006
 11
-48.170577999999978
 21
756.78309650000006
  0
LINE
  8
_0-0_0
  6
CONTINUOUS
 62
    7
 10
-47.987258999999995
 20
756.99360650000006
 11
-48.170577999999978
 21
756.78309650000006
  0
LINE
  8
_0-0_0
  6
CONTINUOUS
 62
    7
 10
-47.773712000000046
 20
756.57450849999998
 11
-48.051773000000026
 21
756.54994150000005
  0
LINE
  8
_0-0_0
  6
CONTINUOUS
 62
    7
 10
-47.891479000000004
 20
756.77845750000006
 11
-48.051773000000026
 21
756.54994150000005
  0
LINE
  8
_0-0_0
  6
CONTINUOUS
 62
    7
 10
-47.635283999999956
 20
756.38398749999999
 11
-47.909256000000028
 21
756.3304895
  0
LINE
  8
_0-0_0
  6
CONTINUOUS
 62
    7
 10
-47.773712000000046
 20
756.57450849999998
 11
-47.909256000000028
 21
756.3304895
  0
LINE
  8
_0-0_0
  6
CONTINUOUS
 62
    7
 10
-47.477692000000047
 20
756.20896849999997
 11
-47.744568000000072
 21
756.12712050000005
  0
LINE
  8
_0-0_0
  6
CONTINUOUS
 62
    7
 10
-47.635283999999956
 20
756.38398749999999
 11
-47.744568000000072
 21
756.12712050000005
  0
LINE
  8
_0-0_0
  6
CONTINUOUS
 62
    7
 10
-47.302673000000027
 20
756.05137649999995
 11
-47.55953999999997
 21
755.94209250000006
  0
LINE
  8
_0-0_0
  6
CONTINUOUS
 62
    7
 10
-47.477692000000047
 20
756.20896849999997
 11
-47.55953999999997
 21
755.94209250000006
  0
LINE
  8
_0-0_0
  6
CONTINUOUS
 62
    7
 10
-47.112152000000037
 20
755.91291750000005
 11
-47.356171000000018
 21
755.77738950000003
  0
LINE
  8
_0-0_0
  6
CONTINUOUS
 62
    7
 10
-47.302673000000027
 20
756.05137649999995
 11
-47.356171000000018
 21
755.77738950000003
  0
LINE
  8
_0-0_0
  6
CONTINUOUS
 62
    7
 10
-46.908187999999996
 20
755.79518150000001
 11
-47.136703000000011
 21
755.63487250000003
  0
LINE
  8
_0-0_0
  6
CONTINUOUS
 62
    7
 10
-47.112152000000037
 20
755.91291750000005
 11
-47.136703000000011
 21
755.63487250000003
  0
LINE
  8
_0-0_0
  6
CONTINUOUS
 62
    7
 10
-46.693038999999999
 20
755.69938650000006
 11
-46.903548999999998
 21
755.51606749999996
  0
LINE
  8
_0-0_0
  6
CONTINUOUS
 62
    7
 10
-46.908187999999996
 20
755.79518150000001
 11
-46.903548999999998
 21
755.51606749999996
  0
LINE
  8
_0-0_0
  6
CONTINUOUS
 62
    7
 10
-46.469055000000026
 20
755.62660249999999
 11
-46.659256000000028
 21
755.42228650000004
  0
LINE
  8
_0-0_0
  6
CONTINUOUS
 62
    7
 10
-46.693038999999999
 20
755.69938650000006
 11
-46.659256000000028
 21
755.42228650000004
  0
LINE
  8
_0-0_0
  6
CONTINUOUS
 62
    7
 10
-46.238693000000012
 20
755.5776515
 11
-46.406494000000066
 21
755.35456850000003
  0
LINE
  8
_0-0_0
  6
CONTINUOUS
 62
    7
 10
-46.469055000000026
 20
755.62660249999999
 11
-46.406494000000066
 21
755.35456850000003
  0
LINE
  8
_0-0_0
  6
CONTINUOUS
 62
    7
 10
-46.004470999999967
 20
755.55302449999999
 11
-46.148024999999961
 21
755.31364450000001
  0
LINE
  8
_0-0_0
  6
CONTINUOUS
 62
    7
 10
-46.238693000000012
 20
755.5776515
 11
-46.148024999999961
 21
755.31364450000001
  0
LINE
  8
_0-0_0
  6
CONTINUOUS
 62
    7
 10
-45.768951000000015
 20
755.55302449999999
 11
-45.886703000000011
 21
755.29994150000005
  0
LINE
  8
_0-0_0
  6
CONTINUOUS
 62
    7
 10
-46.004470999999967
 20
755.55302449999999
 11
-45.886703000000011
 21
755.29994150000005
  0
LINE
  8
_0-0_0
  6
CONTINUOUS
 62
    7
 10
-45.53472899999997
 20
755.5776515
 11
-45.625381000000061
 21
755.31364450000001
  0
LINE
  8
_0-0_0
  6
CONTINUOUS
 62
    7
 10
-45.768951000000015
 20
755.55302449999999
 11
-45.625381000000061
 21
755.31364450000001
  0
LINE
  8
_0-0_0
  6
CONTINUOUS
 62
    7
 10
-45.304366999999957
 20
755.62660249999999
 11
-45.36692800000003
 21
755.35456850000003
  0
LINE
  8
_0-0_0
  6
CONTINUOUS
 62
    7
 10
-45.53472899999997
 20
755.5776515
 11
-45.36692800000003
 21
755.35456850000003
  0
LINE
  8
_0-0_0
  6
CONTINUOUS
 62
    7
 10
-45.080382999999983
 20
755.69938650000006
 11
-45.114166000000068
 21
755.42228650000004
  0
LINE
  8
_0-0_0
  6
CONTINUOUS
 62
    7
 10
-45.304366999999957
 20
755.62660249999999
 11
-45.114166000000068
 21
755.42228650000004
  0
LINE
  8
_0-0_0
  6
CONTINUOUS
 62
    7
 10
-44.865233999999987
 20
755.79518150000001
 11
-44.869872999999984
 21
755.51606749999996
  0
LINE
  8
_0-0_0
  6
CONTINUOUS
 62
    7
 10
-45.080382999999983
 20
755.69938650000006
 11
-44.869872999999984
 21
755.51606749999996
  0
LINE
  8
_0-0_0
  6
CONTINUOUS
 62
    7
 10
-44.745697000000064
 20
755.71131849999995
 11
-44.636703000000011
 21
755.63487250000003
  0
LINE
  8
_0-0_0
  6
CONTINUOUS
 62
    7
 10
-44.865233999999987
 20
755.79518150000001
 11
-44.745697000000064
 21
755.71131849999995
  0
LINE
  8
_0-0_0
  6
CONTINUOUS
 62
    7
 10
-44.661270000000059
 20
755.91291750000005
 11
-44.636703000000011
 21
755.63487250000003
  0
LINE
  8
_0-0_0
  6
CONTINUOUS
 62
    7
 10
-44.470733999999993
 20
756.05137649999995
 11
-44.417251999999962
 21
755.77738950000003
  0
LINE
  8
_0-0_0
  6
CONTINUOUS
 62
    7
 10
-44.661270000000059
 20
755.91291750000005
 11
-44.417251999999962
 21
755.77738950000003
  0
LINE
  8
_0-0_0
  6
CONTINUOUS
 62
    7
 10
-44.295714999999973
 20
756.20896849999997
 11
-44.213882000000012
 21
755.94209250000006
  0
LINE
  8
_0-0_0
  6
CONTINUOUS
 62
    7
 10
-44.470733999999993
 20
756.05137649999995
 11
-44.213882000000012
 21
755.94209250000006
  0
LINE
  8
_0-0_0
  6
CONTINUOUS
 62
    7
 10
-44.13812299999995
 20
756.38398749999999
 11
-44.028839000000062
 21
756.12712050000005
  0
LINE
  8
_0-0_0
  6
CONTINUOUS
 62
    7
 10
-44.295714999999973
 20
756.20896849999997
 11
-44.028839000000062
 21
756.12712050000005
  0
LINE
  8
_0-0_0
  6
CONTINUOUS
 62
    7
 10
-43.999694999999974
 20
756.57450849999998
 11
-43.864166000000068
 21
756.3304895
  0
LINE
  8
_0-0_0
  6
CONTINUOUS
 62
    7
 10
-44.13812299999995
 20
756.38398749999999
 11
-43.864166000000068
 21
756.3304895
  0
LINE
  8
_0-0_0
  6
CONTINUOUS
 62
    7
 10
-43.881942999999978
 20
756.77845750000006
 11
-43.72164900000007
 21
756.54994150000005
  0
LINE
  8
_0-0_0
  6
CONTINUOUS
 62
    7
 10
-43.999694999999974
 20
756.57450849999998
 11
-43.72164900000007
 21
756.54994150000005
  0
LINE
  8
_0-0_0
  6
CONTINUOUS
 62
    7
 10
-43.786148000000026
 20
756.99360650000006
 11
-43.602844000000005
 21
756.78309650000006
  0
LINE
  8
_0-0_0
  6
CONTINUOUS
 62
    7
 10
-43.881942999999978
 20
756.77845750000006
 11
-43.602844000000005
 21
756.78309650000006
  0
LINE
  8
_0-0_0
  6
CONTINUOUS
 62
    7
 10
-43.713379000000032
 20
757.21760549999999
 11
-43.50906400000008
 21
757.02738950000003
  0
LINE
  8
_0-0_0
  6
CONTINUOUS
 62
    7
 10
-43.786148000000026
 20
756.99360650000006
 11
-43.50906400000008
 21
757.02738950000003
  0
LINE
  8
_0-0_0
  6
CONTINUOUS
 62
    7
 10
-43.664412999999968
 20
757.44795250000004
 11
-43.441344999999956
 21
757.28016649999995
  0
LINE
  8
_0-0_0
  6
CONTINUOUS
 62
    7
 10
-43.713379000000032
 20
757.21760549999999
 11
-43.441344999999956
 21
757.28016649999995
  0
LINE
  8
_0-0_0
  6
CONTINUOUS
 62
    7
 10
-43.639785999999958
 20
757.68217449999997
 11
-43.400405999999975
 21
757.53861949999998
  0
LINE
  8
_0-0_0
  6
CONTINUOUS
 62
    7
 10
-43.664412999999968
 20
757.44795250000004
 11
-43.400405999999975
 21
757.53861949999998
  0
LINE
  8
_0-0_0
  6
CONTINUOUS
 62
    7
 10
-43.639785999999958
 20
757.9177095
 11
-43.386703000000011
 21
757.79994150000005
  0
LINE
  8
_0-0_0
  6
CONTINUOUS
 62
    7
 10
-43.639785999999958
 20
757.68217449999997
 11
-43.386703000000011
 21
757.79994150000005
  0
LINE
  8
_0-0_0
  6
CONTINUOUS
 62
    7
 10
-43.664412999999968
 20
758.15193150000005
 11
-43.400405999999975
 21
758.0612635
  0
LINE
  8
_0-0_0
  6
CONTINUOUS
 62
    7
 10
-43.639785999999958
 20
757.9177095
 11
-43.400405999999975
 21
758.0612635
  0
LINE
  8
_0-0_0
  6
CONTINUOUS
 62
    7
 10
-43.713379000000032
 20
758.38227849999998
 11
-43.441344999999956
 21
758.31971750000002
  0
LINE
  8
_0-0_0
  6
CONTINUOUS
 62
    7
 10
-43.664412999999968
 20
758.15193150000005
 11
-43.441344999999956
 21
758.31971750000002
  0
LINE
  8
_0-0_0
  6
CONTINUOUS
 62
    7
 10
-43.786148000000026
 20
758.60627750000003
 11
-43.50906400000008
 21
758.57249449999995
  0
LINE
  8
_0-0_0
  6
CONTINUOUS
 62
    7
 10
-43.713379000000032
 20
758.38227849999998
 11
-43.50906400000008
 21
758.57249449999995
  0
LINE
  8
_0-0_0
  6
CONTINUOUS
 62
    7
 10
-43.881942999999978
 20
758.82142650000003
 11
-43.602844000000005
 21
758.81678750000003
  0
LINE
  8
_0-0_0
  6
CONTINUOUS
 62
    7
 10
-43.786148000000026
 20
758.60627750000003
 11
-43.602844000000005
 21
758.81678750000003
  0
CIRCLE
  8
_0-0_0
  6
CONTINUOUS
 62
    7
 10
-33.886703000000011
 20
774.39994750000005
 40
2
  0
CIRCLE
  8
_0-0_0
  6
CONTINUOUS
 62
    7
 10
-45.886703000000011
 20
757.79994150000005
 40
2
  0
LINE
  8
_0-0_0
  6
CONTINUOUS
 62
    7
 10
-33.304595999999947
 20
773.39994750000005
 11
-34.46881099999996
 21
773.39994750000005
  0
LINE
  8
_0-0_0
  6
CONTINUOUS
 62
    7
 10
-34.46881099999996
 20
773.39994750000005
 11
-35.036712999999963
 21
774.39994750000005
  0
LINE
  8
_0-0_0
  6
CONTINUOUS
 62
    7
 10
-35.036712999999963
 20
774.39994750000005
 11
-34.46881099999996
 21
775.39994750000005
  0
LINE
  8
_0-0_0
  6
CONTINUOUS
 62
    7
 10
-34.46881099999996
 20
775.39994750000005
 11
-33.304595999999947
 21
775.39994750000005
  0
LINE
  8
_0-0_0
  6
CONTINUOUS
 62
    7
 10
-33.304595999999947
 20
775.39994750000005
 11
-32.736710000000016
 21
774.39994750000005
  0
LINE
  8
_0-0_0
  6
CONTINUOUS
 62
    7
 10
-32.736710000000016
 20
774.39994750000005
 11
-33.304595999999947
 21
773.39994750000005
  0
CIRCLE
  8
_0-0_0
  6
CONTINUOUS
 62
    7
 10
-39.886703000000011
 20
766.09992950000003
 40
5
  0
LINE
  8
_0-0_0
  6
CONTINUOUS
 62
    7
 10
-45.304595999999947
 20
756.79994150000005
 11
-46.46881099999996
 21
756.79994150000005
  0
LINE
  8
_0-0_0
  6
CONTINUOUS
 62
    7
 10
-46.46881099999996
 20
756.79994150000005
 11
-47.036712999999963
 21
757.79994150000005
  0
LINE
  8
_0-0_0
  6
CONTINUOUS
 62
    7
 10
-47.036712999999963
 20
757.79994150000005
 11
-46.46881099999996
 21
758.79994150000005
  0
LINE
  8
_0-0_0
  6
CONTINUOUS
 62
    7
 10
-46.46881099999996
 20
758.79994150000005
 11
-45.304595999999947
 21
758.79994150000005
  0
LINE
  8
_0-0_0
  6
CONTINUOUS
 62
    7
 10
-45.304595999999947
 20
758.79994150000005
 11
-44.736710000000016
 21
757.79994150000005
  0
LINE
  8
_0-0_0
  6
CONTINUOUS
 62
    7
 10
-44.736710000000016
 20
757.79994150000005
 11
-45.304595999999947
 21
756.79994150000005
  0
CIRCLE
  8
_0-0_0
  6
CONTINUOUS
 62
    7
 10
-39.886703000000011
 20
766.09992950000003
 40
4.5381200000000002
  0
CIRCLE
  8
_0-0_0
  6
CONTINUOUS
 62
    7
 10
-39.886703000000011
 20
766.09992950000003
 40
4
  0
LINE
  8
_0-0_0
  6
CONTINUOUS
 62
    7
 10
-48.019287000000077
 20
776.05525150000005
 11
-48.686707000000069
 21
776.05525150000005
  0
ARC
  8
_0-0_0
  6
CONTINUOUS
 62
    7
 10
-31.886703000000011
 20
776.52494750000005
 40
0.2
 50
179.94055499999999
 51
269.99997000000002
  0
ARC
  8
_0-0_0
  6
CONTINUOUS
 62
    7
 10
-33.386703000000011
 20
757.29994150000005
 40
2
 50
269.99999700000001
 51
273.84026499999999
  0
ARC
  8
_0-0_0
  6
CONTINUOUS
 62
    7
 10
-46.386703000000011
 20
774.89994750000005
 40
2
 50
90.000003000000007
 51
93.840255999999997
  0
LINE
  8
_0-0_0
  6
CONTINUOUS
 62
    7
 10
-31.586700000000064
 20
776.32493550000004
 11
-31.886703000000011
 21
776.32493550000004
  0
LINE
  8
_0-0_0
  6
CONTINUOUS
 62
    7
 10
-31.586700000000064
 20
779.27494750000005
 11
-31.886703000000011
 21
779.27494750000005
  0
ARC
  8
_0-0_0
  6
CONTINUOUS
 62
    7
 10
-47.886703000000011
 20
776.52500950000001
 40
0.2
 50
270.00002499999994
 51
0.0594439999999606
  0
ARC
  8
_0-0_0
  6
CONTINUOUS
 62
    7
 10
-31.586745999999948
 20
776.52497849999997
 40
0.200055
 50
270.00964199999999
 51
1.3705509999999435
  0
ARC
  8
_0-0_0
  6
CONTINUOUS
 62
    7
 10
-31.586716000000024
 20
779.07493550000004
 40
0.2
 50
359.91222800000003
 51
89.999948000000003
  0
LINE
  8
_0-0_0
  6
CONTINUOUS
 62
    7
 10
-48.186707000000069
 20
776.32502750000003
 11
-47.886703000000011
 21
776.32502750000003
  0
ARC
  8
_0-0_0
  6
CONTINUOUS
 62
    7
 10
-48.186676000000034
 20
776.52507049999997
 40
0.200055
 50
178.629446
 51
269.99035300000003
  0
LINE
  8
_0-0_0
  6
CONTINUOUS
 62
    7
 10
-31.186707000000069
 20
781.80000250000001
 11
-31.186707000000069
 21
795.00001550000002
  0
ARC
  8
_0-0_0
  6
CONTINUOUS
 62
    7
 10
-31.686707000000069
 20
781.80000250000001
 40
0.5
 50
269.99999700000001
 51
0
  0
ARC
  8
_0-0_0
  6
CONTINUOUS
 62
    7
 10
-31.245284999999967
 20
795.20002750000003
 40
0.1
 50
135
 51
225
  0
LINE
  8
_0-0_0
  6
CONTINUOUS
 62
    7
 10
-31.315994000000046
 20
795.12931849999995
 11
-31.186707000000069
 21
795.00001550000002
  0
LINE
  8
_0-0_0
  6
CONTINUOUS
 62
    7
 10
-31.686707000000069
 20
781.30000250000001
 11
-33.586700000000064
 21
781.30000250000001
  0
ARC
  8
_0-0_0
  6
CONTINUOUS
 62
    7
 10
-33.586700000000064
 20
781.80000250000001
 40
0.5
 50
233.12990600000001
 51
269.99999700000001
  0
ARC
  8
_0-0_0
  6
CONTINUOUS
 62
    7
 10
-46.286712999999963
 20
781.80000250000001
 40
0.5
 50
269.99999700000001
 51
306.87009999999998
  0
LINE
  8
_0-0_0
  6
CONTINUOUS
 62
    7
 10
-46.286712999999963
 20
781.30000250000001
 11
-48.186707000000069
 21
781.30000250000001
  0
ARC
  8
_0-0_0
  6
CONTINUOUS
 62
    7
 10
-48.186707000000069
 20
781.80000250000001
 40
0.5
 50
180.00000900000003
 51
269.99999700000001
  0
LINE
  8
_0-0_0
  6
CONTINUOUS
 62
    7
 10
-48.686707000000069
 20
791.23500049999996
 11
-48.686707000000069
 21
781.80000250000001
  0
LINE
  8
_0-0_0
  6
CONTINUOUS
 62
    7
 10
-48.686707000000069
 20
791.23500049999996
 11
-47.986710000000016
 21
791.23500049999996
  0
LINE
  8
_0-0_0
  6
CONTINUOUS
 62
    7
 10
-31.986710000000016
 20
809.80000250000001
 11
-31.780669999999986
 21
809.80000250000001
  0
LINE
  8
_0-0_0
  6
CONTINUOUS
 62
    7
 10
-31.780669999999986
 20
809.80000250000001
 11
-31.186707000000069
 21
809.20603949999997
  0
LINE
  8
_0-0_0
  6
CONTINUOUS
 62
    7
 10
-31.186707000000069
 20
804.20002750000003
 11
-31.186707000000069
 21
809.20603949999997
  0
LINE
  8
_0-0_0
  6
CONTINUOUS
 62
    7
 10
-31.315994000000046
 20
804.07072449999998
 11
-31.186707000000069
 21
804.20002750000003
  0
ARC
  8
_0-0_0
  6
CONTINUOUS
 62
    7
 10
-31.245284999999967
 20
804.00001550000002
 40
0.1
 50
135
 51
225
  0
LINE
  8
_0-0_0
  6
CONTINUOUS
 62
    7
 10
-31.315994000000046
 20
803.92930550000005
 11
-31.186707000000069
 21
803.80000250000001
  0
LINE
  8
_0-0_0
  6
CONTINUOUS
 62
    7
 10
-31.186707000000069
 20
803.10002150000003
 11
-31.186707000000069
 21
803.80000250000001
  0
LINE
  8
_0-0_0
  6
CONTINUOUS
 62
    7
 10
-31.315994000000046
 20
802.97071849999998
 11
-31.186707000000069
 21
803.10002150000003
  0
ARC
  8
_0-0_0
  6
CONTINUOUS
 62
    7
 10
-31.245284999999967
 20
802.90000950000001
 40
0.1
 50
135
 51
225
  0
LINE
  8
_0-0_0
  6
CONTINUOUS
 62
    7
 10
-31.315994000000046
 20
802.82929950000005
 11
-31.186707000000069
 21
802.70002750000003
  0
LINE
  8
_0-0_0
  6
CONTINUOUS
 62
    7
 10
-31.186707000000069
 20
802.00001550000002
 11
-31.186707000000069
 21
802.70002750000003
  0
LINE
  8
_0-0_0
  6
CONTINUOUS
 62
    7
 10
-31.315994000000046
 20
801.87074250000001
 11
-31.186707000000069
 21
802.00001550000002
  0
ARC
  8
_0-0_0
  6
CONTINUOUS
 62
    7
 10
-31.245284999999967
 20
801.80000250000001
 40
0.1
 50
135
 51
225
  0
LINE
  8
_0-0_0
  6
CONTINUOUS
 62
    7
 10
-31.315994000000046
 20
801.72929350000004
 11
-31.186707000000069
 21
801.60002150000003
  0
LINE
  8
_0-0_0
  6
CONTINUOUS
 62
    7
 10
-31.186707000000069
 20
800.90000950000001
 11
-31.186707000000069
 21
801.60002150000003
  0
LINE
  8
_0-0_0
  6
CONTINUOUS
 62
    7
 10
-31.315994000000046
 20
800.7707365
 11
-31.186707000000069
 21
800.90000950000001
  0
ARC
  8
_0-0_0
  6
CONTINUOUS
 62
    7
 10
-31.245284999999967
 20
800.70002750000003
 40
0.1
 50
135
 51
225
  0
LINE
  8
_0-0_0
  6
CONTINUOUS
 62
    7
 10
-31.315994000000046
 20
800.62931849999995
 11
-31.186707000000069
 21
800.50001550000002
  0
LINE
  8
_0-0_0
  6
CONTINUOUS
 62
    7
 10
-31.186707000000069
 20
799.80000250000001
 11
-31.186707000000069
 21
800.50001550000002
  0
LINE
  8
_0-0_0
  6
CONTINUOUS
 62
    7
 10
-31.315994000000046
 20
799.67073049999999
 11
-31.186707000000069
 21
799.80000250000001
  0
ARC
  8
_0-0_0
  6
CONTINUOUS
 62
    7
 10
-31.245284999999967
 20
799.60002150000003
 40
0.1
 50
135
 51
225
  0
LINE
  8
_0-0_0
  6
CONTINUOUS
 62
    7
 10
-31.315994000000046
 20
799.52931149999995
 11
-31.186707000000069
 21
799.40000950000001
  0
LINE
  8
_0-0_0
  6
CONTINUOUS
 62
    7
 10
-31.186707000000069
 20
798.70002750000003
 11
-31.186707000000069
 21
799.40000950000001
  0
LINE
  8
_0-0_0
  6
CONTINUOUS
 62
    7
 10
-31.315994000000046
 20
798.57072449999998
 11
-31.186707000000069
 21
798.70002750000003
  0
ARC
  8
_0-0_0
  6
CONTINUOUS
 62
    7
 10
-31.245284999999967
 20
798.50001550000002
 40
0.1
 50
135
 51
225
  0
LINE
  8
_0-0_0
  6
CONTINUOUS
 62
    7
 10
-31.315994000000046
 20
798.42930550000005
 11
-31.186707000000069
 21
798.30000250000001
  0
LINE
  8
_0-0_0
  6
CONTINUOUS
 62
    7
 10
-31.186707000000069
 20
797.60002150000003
 11
-31.186707000000069
 21
798.30000250000001
  0
LINE
  8
_0-0_0
  6
CONTINUOUS
 62
    7
 10
-31.315994000000046
 20
797.47071849999998
 11
-31.186707000000069
 21
797.60002150000003
  0
ARC
  8
_0-0_0
  6
CONTINUOUS
 62
    7
 10
-31.245284999999967
 20
797.40000950000001
 40
0.1
 50
135
 51
225
  0
LINE
  8
_0-0_0
  6
CONTINUOUS
 62
    7
 10
-31.315994000000046
 20
797.32929950000005
 11
-31.186707000000069
 21
797.20002750000003
  0
LINE
  8
_0-0_0
  6
CONTINUOUS
 62
    7
 10
-31.186707000000069
 20
796.50001550000002
 11
-31.186707000000069
 21
797.20002750000003
  0
LINE
  8
_0-0_0
  6
CONTINUOUS
 62
    7
 10
-31.315994000000046
 20
796.37074250000001
 11
-31.186707000000069
 21
796.50001550000002
  0
ARC
  8
_0-0_0
  6
CONTINUOUS
 62
    7
 10
-31.245284999999967
 20
796.30000250000001
 40
0.1
 50
135
 51
225
  0
LINE
  8
_0-0_0
  6
CONTINUOUS
 62
    7
 10
-31.315994000000046
 20
796.22929350000004
 11
-31.186707000000069
 21
796.10002150000003
  0
LINE
  8
_0-0_0
  6
CONTINUOUS
 62
    7
 10
-31.186707000000069
 20
795.40000950000001
 11
-31.186707000000069
 21
796.10002150000003
  0
LINE
  8
_0-0_0
  6
CONTINUOUS
 62
    7
 10
-31.315994000000046
 20
795.2707365
 11
-31.186707000000069
 21
795.40000950000001
  0
LINE
  8
_0-0_0
  6
CONTINUOUS
 62
    7
 10
-31.186707000000069
 20
787.30000250000001
 11
-31.086700000000064
 21
787.30000250000001
  0
LINE
  8
_0-0_0
  6
CONTINUOUS
 62
    7
 10
-31.086700000000064
 20
786.80000250000001
 11
-31.086700000000064
 21
787.30000250000001
  0
LINE
  8
_0-0_0
  6
CONTINUOUS
 62
    7
 10
-31.086700000000064
 20
786.80000250000001
 11
-31.086700000000064
 21
782.80000250000001
  0
LINE
  8
_0-0_0
  6
CONTINUOUS
 62
    7
 10
-31.186707000000069
 20
782.30000250000001
 11
-31.086700000000064
 21
782.30000250000001
  0
LINE
  8
_0-0_0
  6
CONTINUOUS
 62
    7
 10
-31.086700000000064
 20
782.30000250000001
 11
-31.086700000000064
 21
782.80000250000001
  0
LINE
  8
_0-0_0
  6
CONTINUOUS
 62
    7
 10
-48.686707000000069
 20
791.30003350000004
 11
-48.686707000000069
 21
791.23500049999996
  0
LINE
  8
_0-0_0
  6
CONTINUOUS
 62
    7
 10
-32.186707000000069
 20
810.10002150000003
 11
-32.186707000000069
 21
810.00001550000002
  0
ARC
  8
_0-0_0
  6
CONTINUOUS
 62
    7
 10
-44.686707000000069
 20
810.10002150000003
 40
2.5
 50
90.000003000000007
 51
180.00000900000001
  0
LINE
  8
_0-0_0
  6
CONTINUOUS
 62
    7
 10
-48.786712999999963
 20
791.30000250000001
 11
-47.986710000000016
 21
791.30000250000001
  0
LINE
  8
_0-0_0
  6
CONTINUOUS
 62
    7
 10
-48.286712999999963
 20
813.10002150000003
 11
-48.286712999999963
 21
808.87849449999999
  0
LINE
  8
_0-0_0
  6
CONTINUOUS
 62
    7
 10
-47.186707000000069
 20
813.10002150000003
 11
-47.186707000000069
 21
810.10002150000003
  0
LINE
  8
_0-0_0
  6
CONTINUOUS
 62
    7
 10
-48.286712999999963
 20
808.87849449999999
 11
-47.986710000000016
 21
808.87849449999999
  0
LINE
  8
_0-0_0
  6
CONTINUOUS
 62
    7
 10
-48.286712999999963
 20
818.23991350000006
 11
-47.186707000000069
 21
818.23991350000006
  0
LINE
  8
_0-0_0
  6
CONTINUOUS
 62
    7
 10
-47.186707000000069
 20
813.10054049999997
 11
-47.186707000000069
 21
818.23991350000006
  0
LINE
  8
_0-0_0
  6
CONTINUOUS
 62
    7
 10
-48.786712999999963
 20
812.60102849999998
 11
-48.786712999999963
 21
817.67213449999997
  0
LINE
  8
_0-0_0
  6
CONTINUOUS
 62
    7
 10
-48.286712999999963
 20
818.23991350000006
 11
-48.786712999999963
 21
817.67213449999997
  0
ARC
  8
_0-0_0
  6
CONTINUOUS
 62
    7
 10
-34.686707000000069
 20
810.10002150000003
 40
2.5
 50
0
 51
90.000003000000007
  0
LINE
  8
_0-0_0
  6
CONTINUOUS
 62
    7
 10
-47.186707000000069
 20
810.00001550000002
 11
-47.186707000000069
 21
810.10002150000003
  0
LINE
  8
_0-0_0
  6
CONTINUOUS
 62
    7
 10
-34.686707000000069
 20
812.60002150000003
 11
-44.686707000000069
 21
812.60002150000003
  0
LINE
  8
_0-0_0
  6
CONTINUOUS
 62
    7
 10
-30.986710000000016
 20
782.80000250000001
 11
-30.986710000000016
 21
782.93037449999997
  0
LINE
  8
_0-0_0
  6
CONTINUOUS
 62
    7
 10
-30.986710000000016
 20
786.43037449999997
 11
-30.986710000000016
 21
782.93037449999997
  0
LINE
  8
_0-0_0
  6
CONTINUOUS
 62
    7
 10
-31.086700000000064
 20
786.70002750000003
 11
-30.986710000000016
 21
786.70002750000003
  0
LINE
  8
_0-0_0
  6
CONTINUOUS
 62
    7
 10
-30.986710000000016
 20
786.43037449999997
 11
-30.986710000000016
 21
786.70002750000003
  0
LINE
  8
_0-0_0
  6
CONTINUOUS
 62
    7
 10
-47.186707000000069
 20
820.60002150000003
 11
-47.186707000000069
 21
818.23991350000006
  0
LINE
  8
_0-0_0
  6
CONTINUOUS
 62
    7
 10
-31.386703000000011
 20
809.20002750000003
 11
-32.386703000000011
 21
810.20002750000003
  0
LINE
  8
_0-0_0
  6
CONTINUOUS
 62
    7
 10
-31.386703000000011
 20
781.40000950000001
 11
-31.386703000000011
 21
809.20002750000003
  0
LINE
  8
_0-0_0
  6
CONTINUOUS
 62
    7
 10
-47.986710000000016
 20
781.40000950000001
 11
-31.386703000000011
 21
781.40000950000001
  0
LINE
  8
_0-0_0
  6
CONTINUOUS
 62
    7
 10
-47.986710000000016
 20
809.20002750000003
 11
-47.986710000000016
 21
781.40000950000001
  0
LINE
  8
_0-0_0
  6
CONTINUOUS
 62
    7
 10
-48.786712999999963
 20
791.30000250000001
 11
-48.786712999999963
 21
808.11283849999995
  0
LINE
  8
_0-0_0
  6
CONTINUOUS
 62
    7
 10
-48.786712999999963
 20
812.60002150000003
 11
-48.786712999999963
 21
808.11283849999995
  0
ARC
  8
_0-0_0
  6
CONTINUOUS
 62
    7
 10
-17.334961000000021
 20
788.11784350000005
 40
37.269466000000001
 50
146.14857699999999
 51
147.55443399999999
  0
LINE
  8
_0-0_0
  6
CONTINUOUS
 62
    7
 10
-48.286712999999963
 20
820.60002150000003
 11
-48.286712999999963
 21
818.23991350000006
  0
LINE
  8
_0-0_0
  6
CONTINUOUS
 62
    7
 10
-48.786712999999963
 20
820.10002150000003
 11
-48.786712999999963
 21
817.67213449999997
  0
ARC
  8
_0-0_0
  6
CONTINUOUS
 62
    7
 10
-34.955748999999969
 20
809.80000250000001
 40
2.6000000000000001
 50
8.8498839999999994
 51
90.000002999999992
  0
LINE
  8
_0-0_0
  6
CONTINUOUS
 62
    7
 10
-34.955748999999969
 20
812.40000950000001
 11
-44.417664000000059
 21
812.40000950000001
  0
ARC
  8
_0-0_0
  6
CONTINUOUS
 62
    7
 10
-44.417664000000059
 20
809.80000250000001
 40
2.6000000000000001
 50
90.000003000000007
 51
171.150115
  0
LINE
  8
_0-0_0
  6
CONTINUOUS
 62
    7
 10
-47.986710000000016
 20
809.20002750000003
 11
-46.986710000000016
 21
810.20002750000003
  0
LINE
  8
_0-0_0
  6
CONTINUOUS
 62
    7
 10
-32.386703000000011
 20
808.78581250000002
 11
-31.386703000000011
 21
809.20002750000003
  0
ARC
  8
_0-0_0
  6
CONTINUOUS
 62
    7
 10
-37.929245000000037
 20
820.98612949999995
 40
12.126564999999999
 50
292.155034
 51
297.19674500000002
  0
LINE
  8
_0-0_0
  6
CONTINUOUS
 62
    7
 10
-32.386703000000011
 20
782.40000950000001
 11
-31.386703000000011
 21
781.40000950000001
  0
LINE
  8
_0-0_0
  6
CONTINUOUS
 62
    7
 10
-46.986710000000016
 20
782.40000950000001
 11
-47.986710000000016
 21
781.40000950000001
  0
LINE
  8
_0-0_0
  6
CONTINUOUS
 62
    7
 10
-46.986710000000016
 20
808.78581250000002
 11
-47.986710000000016
 21
809.20002750000003
  0
ARC
  8
_0-0_0
  6
CONTINUOUS
 62
    7
 10
-41.444167999999991
 20
820.98612949999995
 40
12.126567
 50
242.80325699999997
 51
247.84494000000001
  0
CIRCLE
  8
_0-0_0
  6
CONTINUOUS
 62
    7
 10
-39.686707000000069
 20
789.60002150000003
 40
2.0670000000000002
  0
LINE
  8
_0-0_0
  6
CONTINUOUS
 62
    7
 10
-47.186707000000069
 20
813.10002150000003
 11
-48.286712999999963
 21
813.10002150000003
  0
LINE
  8
_0-0_0
  6
CONTINUOUS
 62
    7
 10
-31.086700000000064
 20
782.80000250000001
 11
-30.986710000000016
 21
782.80000250000001
  0
LINE
  8
_0-0_0
  6
CONTINUOUS
 62
    7
 10
-31.086700000000064
 20
782.80000250000001
 11
-30.986710000000016
 21
782.80000250000001
  0
LINE
  8
_0-0_0
  6
CONTINUOUS
 62
    7
 10
-48.786712999999963
 20
812.60002150000003
 11
-48.286712999999963
 21
813.10002150000003
  0
LINE
  8
_0-0_0
  6
CONTINUOUS
 62
    7
 10
-47.186707000000069
 20
820.60002150000003
 11
-48.286712999999963
 21
820.60002150000003
  0
LINE
  8
_0-0_0
  6
CONTINUOUS
 62
    7
 10
-48.786712999999963
 20
820.10002150000003
 11
-48.286712999999963
 21
820.60002150000003
  0
ENDSEC
  0
EOF
