  0
SECTION
  2
HEADER
  9
$ACADVER
  1
AC1009
  9
$INSBASE
 10
0
 20
0
 30
0
  9
$EXTMIN
 10
0
 20
0
  9
$EXTMAX
 10
1682
 20
1188
  9
$LIMMIN
 10
0
 20
0
  9
$LIMMAX
 10
1682
 20
1188
  9
$LTSCALE
 40
2
  0
ENDSEC
  0
SECTION
  2
TABLES
  0
TABLE
  2
LTYPE
 70
     9
  0
LTYPE
  2
CONTINUOUS
 70
    64
  3
実線
 72
    65
 73
     0
 40
0.0
  0
LTYPE
  2
DASHED1
 70
    64
  3
--  --  --  --  --  --  --  --  
 72
    65
 73
     2
 40
2.5
 49
1.25
 49
-1.25
  0
LTYPE
  2
DASHED2
 70
    64
  3
----    ----    ----    ----    
 72
    65
 73
     2
 40
5.0
 49
2.5
 49
-2.5
  0
LTYPE
  2
DASHED3
 70
    64
  3
------  ------  ------  ------  
 72
    65
 73
     2
 40
5.0
 49
3.75
 49
-1.25
  0
LTYPE
  2
CENTER1
 70
    64
  3
----- - ----- - ----- - ----- - 
 72
    65
 73
     4
 40
10.0
 49
6.25
 49
-1.25
 49
1.25
 49
-1.25
  0
LTYPE
  2
CENTER2
 70
    64
  3
----------  --  ----------  --  
 72
    65
 73
     4
 40
20.0
 49
12.5
 49
-2.5
 49
2.5
 49
-2.5
  0
LTYPE
  2
PHANTOM1
 70
    64
  3
--- - - --- - - --- - - --- - - 
 72
    65
 73
     6
 40
10.0
 49
3.25
 49
-1.25
 49
1.25
 49
-1.25
 49
1.25
 49
-1.25
  0
LTYPE
  2
PHANTOM2
 70
    64
  3
--------  -  -  --------  -  -  
 72
    65
 73
     6
 40
20.0
 49
10.0
 49
-2.5
 49
1.25
 49
-2.5
 49
1.25
 49
-2.5
  0
LTYPE
  2
DOT
 70
    64
  3
-   -   -   -   -   -   -   -   
 72
    65
 73
     2
 40
2.5
 49
0.625
 49
-1.875
  0
LTYPE
  2
DUMMY
 70
    64
  3
ダミー
 72
    65
 73
     0
 40
0.0
  0
LTYPE
  2
RAND1
 70
    64
  3
ランダム線1
 72
    65
 73
     4
 40
10.0
 49
1.0
 49
-2.0
 49
3.0
 49
-4.0
  0
LTYPE
  2
RAND2
 70
    64
  3
ランダム線2
 72
    65
 73
     4
 40
14.0
 49
2.0
 49
-3.0
 49
4.0
 49
-5.0
  0
LTYPE
  2
RAND3
 70
    64
  3
ランダム線3
 72
    65
 73
     4
 40
18.0
 49
3.0
 49
-4.0
 49
5.0
 49
-6.0
  0
LTYPE
  2
RAND4
 70
    64
  3
ランダム線4
 72
    65
 73
     4
 40
22.0
 49
4.0
 49
-5.0
 49
6.0
 49
-7.0
  0
LTYPE
  2
RAND5
 70
    64
  3
ランダム線5
 72
    65
 73
     4
 40
26.0
 49
5.0
 49
-6.0
 49
7.0
 49
-8.0
  0
LTYPE
  2
LONG1
 70
    64
  3
----------  --  ----------  --  
 72
    65
 73
     4
 40
40.0
 49
32.5
 49
-2.5
 49
2.5
 49
-2.5
  0
LTYPE
  2
LONG2
 70
    64
  3
--------  -  -  --------  -  -  
 72
    65
 73
     6
 40
40.0
 49
30.0
 49
-2.5
 49
1.25
 49
-2.5
 49
1.25
 49
-2.5
  0
LTYPE
  2
LONG3
 70
    64
  3
+++++++++++++++..+++++++++++++++
 72
    65
 73
     2
 40
40.0
 49
37.5
 49
-2.5
  0
LTYPE
  2
LONG4
 70
    64
  3
+++++++++++++++..+++++++++++++++
 72
    65
 73
     2
 40
80.0
 49
75.0
 49
-5.0
  0
LTYPE
  2
LONG5
 70
    64
  3
----------  --  ----------  --  
 72
    65
 73
     4
 40
60.0
 49
37.5
 49
-7.5
 49
7.5
 49
-7.5
  0
LTYPE
  2
dashed
 70
   64
  3
-------   -------------   ------
 72
   65
 73
    2
 40
7.5
 49
6
 49
-1.5
  0
LTYPE
  2
dashed_spaced
 70
   64
  3
----        --------        ----
 72
   65
 73
    2
 40
12
 49
6
 49
-6
  0
LTYPE
  2
long_dashed_dotted
 70
   64
  3
------------- --- --------------
 72
   65
 73
    4
 40
15.25
 49
12
 49
-1.5
 49
0.25
 49
-1.5
  0
LTYPE
  2
long_dashed_double-dotted
 70
   64
  3
----------- --- --- ------------
 72
   65
 73
    6
 40
17
 49
12
 49
-1.5
 49
0.25
 49
-1.5
 49
0.25
 49
-1.5
  0
LTYPE
  2
long_dashed_triplicate-dotted
 70
   64
  3
--------- --- --- --- ----------
 72
   65
 73
    8
 40
18.75
 49
12
 49
-1.5
 49
0.25
 49
-1.5
 49
0.25
 49
-1.5
 49
0.25
 49
-1.5
  0
LTYPE
  2
dotted
 70
   64
  3
   -       -       -       -    
 72
   65
 73
    2
 40
1.75
 49
0.25
 49
-1.5
  0
LTYPE
  2
chain
 70
   64
  3
-------------- -- --------------
 72
   65
 73
    4
 40
18.5
 49
12
 49
-1.5
 49
3.5
 49
-1.5
  0
LTYPE
  2
chain_double_dash
 70
   64
  3
------------ -- -- -------------
 72
   65
 73
    6
 40
23.5
 49
12
 49
-1.5
 49
3.5
 49
-1.5
 49
3.5
 49
-1.5
  0
LTYPE
  2
dashed_dotted
 70
   64
  3
-----------     -     ----------
 72
   65
 73
    4
 40
9.25
 49
6
 49
-1.5
 49
0.25
 49
-1.5
  0
LTYPE
  2
double-dashed_dotted
 70
   64
  3
------   -----------   -   -----
 72
   65
 73
    6
 40
16.75
 49
6
 49
-1.5
 49
6
 49
-1.5
 49
0.25
 49
-1.5
  0
LTYPE
  2
dashed_double-dotted
 70
   64
  3
---------    -    -    ---------
 72
   65
 73
    6
 40
11
 49
6
 49
-1.5
 49
0.25
 49
-1.5
 49
0.25
 49
-1.5
  0
LTYPE
  2
double-dashed_double-dotted
 70
   64
  3
-----   ---------   -   -   ----
 72
   65
 73
    8
 40
18.5
 49
6
 49
-1.5
 49
6
 49
-1.5
 49
0.25
 49
-1.5
 49
0.25
 49
-1.5
  0
LTYPE
  2
dashed_triplicate-dotted
 70
   64
  3
-------    -    -    -    ------
 72
   65
 73
    8
 40
12.75
 49
6
 49
-1.5
 49
0.25
 49
-1.5
 49
0.25
 49
-1.5
 49
0.25
 49
-1.5
  0
LTYPE
  2
double-dashed_triplicate-dotted
 70
   64
  3
-----  ---------  -  -  -  -----
 72
   65
 73
   10
 40
20.25
 49
6
 49
-1.5
 49
6
 49
-1.5
 49
0.25
 49
-1.5
 49
0.25
 49
-1.5
 49
0.25
 49
-1.5
  0
LTYPE
  2
undefined
 70
   64
  3
--------------------------------
 72
   65
 73
    0
 40
0
  0
ENDTAB
  0
TABLE
  2
STYLE
  5
3
100
AcDbSymbolTable
 70
     1
  0
STYLE
  5
10
100
AcDbSymbolTableRecord
100
AcDbTextStyleTableRecord
  2
STANDARD
 70
     0
 40
0.0
 41
1.0
 50
0.0
 71
     0
 42
0.2
  3
txt
  4
bigfont.shx
  0
STYLE
  5
26
100
AcDbSymbolTableRecord
100
AcDbTextStyleTableRecord
  2
TATEGAKI
 70
    68
 40
0.0
 41
1.0
 50
0.0
 71
     0
 42
1.0
  3
txt
  4
bigfont.shx
  0
ENDTAB
  0
TABLE
  2
LAYER
 70
    2
  0
LAYER
  2
_0-0_0
 70
   64
 62
    7
  6
CONTINUOUS
  0
LAYER
  2
ADD_LINE
 70
   64
 62
    7
  6
CONTINUOUS
  0
ENDTAB
  0
ENDSEC
  0
SECTION
  2
BLOCKS
  0
ENDSEC
  0
SECTION
  2
ENTITIES
  0
LINE
  8
_0-0_0
  6
CONTINUOUS
 62
    7
 10
125.92896299999995
 20
813.90052749999995
 11
125.92896299999995
 21
813.89952049999999
  0
LINE
  8
_0-0_0
  6
CONTINUOUS
 62
    7
 10
278.74146999999994
 20
774.96958949999998
 11
277.44146699999999
 21
771.46958949999998
  0
ARC
  8
_0-0_0
  6
CONTINUOUS
 62
    7
 10
278.92895499999997
 20
774.89994750000005
 40
0.2
 50
20.376434999999997
 51
159.62357000000003
  0
ARC
  8
_0-0_0
  6
CONTINUOUS
 62
    7
 10
316.92895499999997
 20
777.79994150000005
 40
2.2000000000000002
 50
180.00000900000003
 51
303.74900400000001
  0
LINE
  8
_0-0_0
  6
CONTINUOUS
 62
    7
 10
314.72895800000003
 20
779.29994150000005
 11
314.72895800000003
 21
777.79994150000005
  0
LINE
  8
_0-0_0
  6
CONTINUOUS
 62
    7
 10
314.72895800000003
 20
779.29994150000005
 11
240.12896699999999
 21
779.29994150000005
  0
LINE
  8
_0-0_0
  6
CONTINUOUS
 62
    7
 10
240.12896699999999
 20
779.29994150000005
 11
240.12896699999999
 21
777.79994150000005
  0
ARC
  8
_0-0_0
  6
CONTINUOUS
 62
    7
 10
237.92895499999997
 20
777.79994150000005
 40
2.2000000000000002
 50
236.25102899999999
 51
0
  0
ARC
  8
_0-0_0
  6
CONTINUOUS
 62
    7
 10
236.42895499999997
 20
775.55494650000003
 40
0.5
 50
56.251010000000008
 51
180.00000900000001
  0
LINE
  8
_0-0_0
  6
CONTINUOUS
 62
    7
 10
235.92895499999997
 20
755.19993550000004
 11
235.92895499999997
 21
755.97706549999998
  0
LINE
  8
_0-0_0
  6
CONTINUOUS
 62
    7
 10
235.92895499999997
 20
755.19993550000004
 11
245.72895800000003
 21
755.19993550000004
  0
ARC
  8
_0-0_0
  6
CONTINUOUS
 62
    7
 10
245.72895800000003
 20
755.39994750000005
 40
0.2
 50
269.99999700000001
 51
0
  0
LINE
  8
_0-0_0
  6
CONTINUOUS
 62
    7
 10
245.92895499999997
 20
757.09992950000003
 11
245.92895499999997
 21
755.39994750000005
  0
ARC
  8
_0-0_0
  6
CONTINUOUS
 62
    7
 10
246.12896699999999
 20
757.09992950000003
 40
0.2
 50
90.000003000000007
 51
180.00000900000001
  0
LINE
  8
_0-0_0
  6
CONTINUOUS
 62
    7
 10
246.62896699999999
 20
757.29994150000005
 11
246.12896699999999
 21
757.29994150000005
  0
ARC
  8
_0-0_0
  6
CONTINUOUS
 62
    7
 10
246.62896699999999
 20
756.79994150000005
 40
0.5
 50
90.000003000000007
 51
180.00000900000001
  0
LINE
  8
_0-0_0
  6
CONTINUOUS
 62
    7
 10
246.12896699999999
 20
755.29994150000005
 11
246.12896699999999
 21
756.79994150000005
  0
LINE
  8
_0-0_0
  6
CONTINUOUS
 62
    7
 10
315.72895800000003
 20
755.29994150000005
 11
246.12896699999999
 21
755.29994150000005
  0
LINE
  8
_0-0_0
  6
CONTINUOUS
 62
    7
 10
315.72895800000003
 20
755.29994150000005
 11
315.72895800000003
 21
756.79994150000005
  0
ARC
  8
_0-0_0
  6
CONTINUOUS
 62
    7
 10
315.22895800000003
 20
756.79994150000005
 40
0.5
 50
0
 51
90.000003000000007
  0
LINE
  8
_0-0_0
  6
CONTINUOUS
 62
    7
 10
315.72895800000003
 20
757.29994150000005
 11
315.22895800000003
 21
757.29994150000005
  0
ARC
  8
_0-0_0
  6
CONTINUOUS
 62
    7
 10
315.72895800000003
 20
757.09992950000003
 40
0.2
 50
0
 51
90.000003000000007
  0
LINE
  8
_0-0_0
  6
CONTINUOUS
 62
    7
 10
315.92895499999997
 20
755.39994750000005
 11
315.92895499999997
 21
757.09992950000003
  0
ARC
  8
_0-0_0
  6
CONTINUOUS
 62
    7
 10
316.12895200000003
 20
755.39994750000005
 40
0.2
 50
180.00000900000003
 51
269.99999700000001
  0
LINE
  8
_0-0_0
  6
CONTINUOUS
 62
    7
 10
316.12895200000003
 20
755.19993550000004
 11
316.92895499999997
 21
755.19993550000004
  0
ARC
  8
_0-0_0
  6
CONTINUOUS
 62
    7
 10
316.92895499999997
 20
757.19993550000004
 40
2
 50
269.99999700000001
 51
0.0000099999999886
  0
LINE
  8
_0-0_0
  6
CONTINUOUS
 62
    7
 10
318.92895499999997
 20
775.55494650000003
 11
318.92895499999997
 21
757.19993550000004
  0
ARC
  8
_0-0_0
  6
CONTINUOUS
 62
    7
 10
318.42895499999997
 20
775.55494650000003
 40
0.5
 50
0
 51
123.74898500000002
  0
LINE
  8
_0-0_0
  6
CONTINUOUS
 62
    7
 10
247.42895499999997
 20
757.49995450000006
 11
247.42895499999997
 21
757.69993550000004
  0
LINE
  8
_0-0_0
  6
CONTINUOUS
 62
    7
 10
247.42895499999997
 20
757.69993550000004
 11
314.42895499999997
 21
757.69993550000004
  0
LINE
  8
_0-0_0
  6
CONTINUOUS
 62
    7
 10
314.42895499999997
 20
757.49995450000006
 11
314.42895499999997
 21
757.69993550000004
  0
ARC
  8
_0-0_0
  6
CONTINUOUS
 62
    7
 10
314.62895200000003
 20
757.49995450000006
 40
0.2
 50
180.00000900000003
 51
269.99999700000001
  0
LINE
  8
_0-0_0
  6
CONTINUOUS
 62
    7
 10
314.62895200000003
 20
757.29994150000005
 11
247.22895800000003
 21
757.29994150000005
  0
ARC
  8
_0-0_0
  6
CONTINUOUS
 62
    7
 10
247.22895800000003
 20
757.49995450000006
 40
0.2
 50
269.99999700000001
 51
0
  0
ARC
  8
_0-0_0
  6
CONTINUOUS
 62
    7
 10
277.62895200000003
 20
771.39994750000005
 40
0.2
 50
159.62357
 51
269.99999700000001
  0
LINE
  8
_0-0_0
  6
CONTINUOUS
 62
    7
 10
277.62895200000003
 20
771.19993550000004
 11
280.22895800000003
 21
771.19993550000004
  0
ARC
  8
_0-0_0
  6
CONTINUOUS
 62
    7
 10
280.22895800000003
 20
771.39994750000005
 40
0.2
 50
269.99999700000001
 51
20.376435000000019
  0
LINE
  8
_0-0_0
  6
CONTINUOUS
 62
    7
 10
280.41644299999996
 20
771.46958949999998
 11
279.11644000000001
 21
774.96958949999998
  0
LINE
  8
_0-0_0
  6
CONTINUOUS
 62
    7
 10
235.92895499999997
 20
774.89994750000005
 11
235.92895499999997
 21
776.87730350000004
  0
LINE
  8
_0-0_0
  6
CONTINUOUS
 62
    7
 10
235.92895499999997
 20
774.89994750000005
 11
235.92895499999997
 21
757.29994150000005
  0
LINE
  8
_0-0_0
  6
CONTINUOUS
 62
    7
 10
235.92895499999997
 20
755.97706549999998
 11
235.92895499999997
 21
757.29994150000005
  0
LINE
  8
_0-0_0
  6
CONTINUOUS
 62
    7
 10
318.92895499999997
 20
781.29994150000005
 11
318.92895499999997
 21
780.29994150000005
  0
LINE
  8
_0-0_0
  6
CONTINUOUS
 62
    7
 10
318.92895499999997
 20
780.29994150000005
 11
318.92895499999997
 21
779.79994150000005
  0
LINE
  8
_0-0_0
  6
CONTINUOUS
 62
    7
 10
318.92895499999997
 20
779.79994150000005
 11
318.92895499999997
 21
777.79994150000005
  0
LINE
  8
_0-0_0
  6
CONTINUOUS
 62
    7
 10
318.92895499999997
 20
777.79994150000005
 11
318.92895499999997
 21
775.55494650000003
  0
LINE
  8
_0-0_0
  6
CONTINUOUS
 62
    7
 10
296.92895499999997
 20
775.29994150000005
 11
296.92895499999997
 21
761.69993550000004
  0
ARC
  8
_0-0_0
  6
CONTINUOUS
 62
    7
 10
299.92895499999997
 20
775.29994150000005
 40
3
 50
90.000003000000007
 51
180.00000900000001
  0
LINE
  8
_0-0_0
  6
CONTINUOUS
 62
    7
 10
313.26289399999996
 20
778.29994150000005
 11
299.92895499999997
 21
778.29994150000005
  0
ARC
  8
_0-0_0
  6
CONTINUOUS
 62
    7
 10
313.26289399999996
 20
777.29994150000005
 40
1
 50
7.7664340000000012
 51
90.000002999999992
  0
ARC
  8
_0-0_0
  6
CONTINUOUS
 62
    7
 10
316.92895499999997
 20
777.79994150000005
 40
2.7000000000000002
 50
187.76643899999999
 51
254.31966600000001
  0
ARC
  8
_0-0_0
  6
CONTINUOUS
 62
    7
 10
315.92895499999997
 20
774.23762450000004
 40
1
 50
0
 51
74.319649999999996
  0
LINE
  8
_0-0_0
  6
CONTINUOUS
 62
    7
 10
316.92895499999997
 20
761.69993550000004
 11
316.92895499999997
 21
774.23762450000004
  0
ARC
  8
_0-0_0
  6
CONTINUOUS
 62
    7
 10
313.92895499999997
 20
761.69993550000004
 40
3
 50
269.99999700000001
 51
0.0000099999999886
  0
LINE
  8
_0-0_0
  6
CONTINUOUS
 62
    7
 10
299.92895499999997
 20
758.69993550000004
 11
313.92895499999997
 21
758.69993550000004
  0
ARC
  8
_0-0_0
  6
CONTINUOUS
 62
    7
 10
299.92895499999997
 20
761.69993550000004
 40
3
 50
180.00000900000003
 51
269.99999700000001
  0
LINE
  8
_0-0_0
  6
CONTINUOUS
 62
    7
 10
242.92895499999997
 20
758.69993550000004
 11
257.92895499999997
 21
758.69993550000004
  0
ARC
  8
_0-0_0
  6
CONTINUOUS
 62
    7
 10
242.92895499999997
 20
761.69993550000004
 40
3
 50
180.00000900000003
 51
269.99999700000001
  0
LINE
  8
_0-0_0
  6
CONTINUOUS
 62
    7
 10
239.92895499999997
 20
775.29994150000005
 11
239.92895499999997
 21
761.69993550000004
  0
ARC
  8
_0-0_0
  6
CONTINUOUS
 62
    7
 10
242.92895499999997
 20
775.29994150000005
 40
3
 50
90.000003000000007
 51
180.00000900000001
  0
LINE
  8
_0-0_0
  6
CONTINUOUS
 62
    7
 10
257.92895499999997
 20
778.29994150000005
 11
242.92895499999997
 21
778.29994150000005
  0
ARC
  8
_0-0_0
  6
CONTINUOUS
 62
    7
 10
257.92895499999997
 20
775.29994150000005
 40
3
 50
0
 51
90.000003000000007
  0
LINE
  8
_0-0_0
  6
CONTINUOUS
 62
    7
 10
260.92895499999997
 20
761.69993550000004
 11
260.92895499999997
 21
775.29994150000005
  0
ARC
  8
_0-0_0
  6
CONTINUOUS
 62
    7
 10
257.92895499999997
 20
761.69993550000004
 40
3
 50
269.99999700000001
 51
0.0000099999999886
  0
LINE
  8
_0-0_0
  6
CONTINUOUS
 62
    7
 10
314.92895499999997
 20
779.29994150000005
 11
314.72895800000003
 21
779.29994150000005
  0
ARC
  8
_0-0_0
  6
CONTINUOUS
 62
    7
 10
316.92895499999997
 20
777.79994150000005
 40
2
 50
180.00000900000003
 51
0.0000000000000254
  0
LINE
  8
_0-0_0
  6
CONTINUOUS
 62
    7
 10
314.92895499999997
 20
779.29994150000005
 11
314.92895499999997
 21
777.79994150000005
  0
LINE
  8
_0-0_0
  6
CONTINUOUS
 62
    7
 10
240.12896699999999
 20
779.29994150000005
 11
239.92895499999997
 21
779.29994150000005
  0
LINE
  8
_0-0_0
  6
CONTINUOUS
 62
    7
 10
239.92895499999997
 20
779.29994150000005
 11
239.92895499999997
 21
777.79994150000005
  0
ARC
  8
_0-0_0
  6
CONTINUOUS
 62
    7
 10
237.92895499999997
 20
777.79994150000005
 40
2
 50
180.00000900000003
 51
0.0000000000000254
  0
LINE
  8
_0-0_0
  6
CONTINUOUS
 62
    7
 10
222.42896299999995
 20
779.79994150000005
 11
222.42896299999995
 21
779.29994150000005
  0
LINE
  8
_0-0_0
  6
CONTINUOUS
 62
    7
 10
235.92895499999997
 20
776.88343750000001
 11
235.92895499999997
 21
777.59992950000003
  0
LINE
  8
_0-0_0
  6
CONTINUOUS
 62
    7
 10
235.92895499999997
 20
776.88343750000001
 11
235.92895499999997
 21
776.87730350000004
  0
LINE
  8
_0-0_0
  6
CONTINUOUS
 62
    7
 10
235.92895499999997
 20
775.66880749999996
 11
235.92895499999997
 21
775.55494650000003
  0
LINE
  8
_0-0_0
  6
CONTINUOUS
 62
    7
 10
223.92896299999995
 20
776.89994750000005
 11
223.92896299999995
 21
774.89994750000005
  0
LINE
  8
_0-0_0
  6
CONTINUOUS
 62
    7
 10
235.92895499999997
 20
776.89994750000005
 11
223.92896299999995
 21
776.89994750000005
  0
LINE
  8
_0-0_0
  6
CONTINUOUS
 62
    7
 10
223.92896299999995
 20
771.39994750000005
 11
223.92896299999995
 21
774.39994750000005
  0
LINE
  8
_0-0_0
  6
CONTINUOUS
 62
    7
 10
223.92896299999995
 20
774.39994750000005
 11
223.92896299999995
 21
774.89994750000005
  0
LINE
  8
_0-0_0
  6
CONTINUOUS
 62
    7
 10
223.92896299999995
 20
771.39994750000005
 11
223.92896299999995
 21
770.89994750000005
  0
ARC
  8
_0-0_0
  6
CONTINUOUS
 62
    7
 10
229.92896999999994
 20
771.59992950000003
 40
0.500016
 50
0.001164
 51
179.99560600000004
  0
LINE
  8
_0-0_0
  6
CONTINUOUS
 62
    7
 10
229.42895499999997
 20
771.59992950000003
 11
229.42895499999997
 21
759.59992950000003
  0
ARC
  8
_0-0_0
  6
CONTINUOUS
 62
    7
 10
229.92896999999994
 20
759.59996049999995
 40
0.500016
 50
180.00117
 51
359.995611
  0
LINE
  8
_0-0_0
  6
CONTINUOUS
 62
    7
 10
230.42895499999997
 20
771.59992950000003
 11
230.42895499999997
 21
759.59992950000003
  0
ARC
  8
_0-0_0
  6
CONTINUOUS
 62
    7
 10
228.42896999999994
 20
771.59992950000003
 40
0.500016
 50
0.001164
 51
179.99560600000004
  0
LINE
  8
_0-0_0
  6
CONTINUOUS
 62
    7
 10
227.92895499999997
 20
771.59992950000003
 11
227.92895499999997
 21
759.59992950000003
  0
ARC
  8
_0-0_0
  6
CONTINUOUS
 62
    7
 10
228.42896999999994
 20
759.59996049999995
 40
0.500016
 50
180.00117
 51
359.995611
  0
LINE
  8
_0-0_0
  6
CONTINUOUS
 62
    7
 10
228.92895499999997
 20
771.59992950000003
 11
228.92895499999997
 21
759.59992950000003
  0
ARC
  8
_0-0_0
  6
CONTINUOUS
 62
    7
 10
226.92896999999994
 20
771.59992950000003
 40
0.500016
 50
0.001164
 51
179.99560600000004
  0
LINE
  8
_0-0_0
  6
CONTINUOUS
 62
    7
 10
226.42895499999997
 20
771.59992950000003
 11
226.42895499999997
 21
759.59992950000003
  0
ARC
  8
_0-0_0
  6
CONTINUOUS
 62
    7
 10
226.92896999999994
 20
759.59996049999995
 40
0.500016
 50
180.00117
 51
359.995611
  0
LINE
  8
_0-0_0
  6
CONTINUOUS
 62
    7
 10
227.42895499999997
 20
771.59992950000003
 11
227.42895499999997
 21
759.59992950000003
  0
ARC
  8
_0-0_0
  6
CONTINUOUS
 62
    7
 10
225.42896999999994
 20
771.59992950000003
 40
0.500016
 50
0.001164
 51
179.99560600000004
  0
LINE
  8
_0-0_0
  6
CONTINUOUS
 62
    7
 10
224.92896299999995
 20
771.59992950000003
 11
224.92896299999995
 21
759.59992950000003
  0
ARC
  8
_0-0_0
  6
CONTINUOUS
 62
    7
 10
225.42896999999994
 20
759.59996049999995
 40
0.500016
 50
180.00117
 51
359.995611
  0
LINE
  8
_0-0_0
  6
CONTINUOUS
 62
    7
 10
225.92895499999997
 20
771.59992950000003
 11
225.92895499999997
 21
759.59992950000003
  0
LINE
  8
_0-0_0
  6
CONTINUOUS
 62
    7
 10
235.92895499999997
 20
755.29994150000005
 11
219.25351699999999
 21
755.29994150000005
  0
LINE
  8
_0-0_0
  6
CONTINUOUS
 62
    7
 10
246.47895800000003
 20
757.27690150000001
 11
246.47895800000003
 21
757.29994150000005
  0
LINE
  8
_0-0_0
  6
CONTINUOUS
 62
    7
 10
315.37895200000003
 20
757.27690150000001
 11
315.37895200000003
 21
757.29994150000005
  0
LINE
  8
_0-0_0
  6
CONTINUOUS
 62
    7
 10
222.42896299999995
 20
779.79994150000005
 11
222.42896299999995
 21
780.29994150000005
  0
LINE
  8
_0-0_0
  6
CONTINUOUS
 62
    7
 10
318.92895499999997
 20
780.29994150000005
 11
222.42896299999995
 21
780.29994150000005
  0
LINE
  8
_0-0_0
  6
CONTINUOUS
 62
    7
 10
222.42896299999995
 20
780.29994150000005
 11
222.42896299999995
 21
781.29994150000005
  0
LINE
  8
_0-0_0
  6
CONTINUOUS
 62
    7
 10
318.92909199999997
 20
781.30000250000001
 11
318.92909199999997
 21
780.80000250000001
  0
LINE
  8
_0-0_0
  6
CONTINUOUS
 62
    7
 10
318.92909199999997
 20
780.80000250000001
 11
318.92909199999997
 21
779.30000250000001
  0
ARC
  8
_0-0_0
  6
CONTINUOUS
 62
    7
 10
309.42895499999997
 20
770.89994750000005
 40
4.5
 50
269.99999700000001
 51
90.000002999999992
  0
LINE
  8
_0-0_0
  6
CONTINUOUS
 62
    7
 10
309.42895499999997
 20
766.39994750000005
 11
304.42895499999997
 21
766.39994750000005
  0
ARC
  8
_0-0_0
  6
CONTINUOUS
 62
    7
 10
304.42895499999997
 20
770.89994750000005
 40
4.5
 50
90.000003000000007
 51
269.99999700000006
  0
LINE
  8
_0-0_0
  6
CONTINUOUS
 62
    7
 10
304.42895499999997
 20
775.39994750000005
 11
309.42895499999997
 21
775.39994750000005
  0
ARC
  8
_0-0_0
  6
CONTINUOUS
 62
    7
 10
253.42895499999997
 20
770.89994750000005
 40
4.5
 50
269.99999700000001
 51
90.000002999999992
  0
LINE
  8
_0-0_0
  6
CONTINUOUS
 62
    7
 10
253.42895499999997
 20
766.39994750000005
 11
248.42895499999997
 21
766.39994750000005
  0
ARC
  8
_0-0_0
  6
CONTINUOUS
 62
    7
 10
248.42895499999997
 20
770.89994750000005
 40
4.5
 50
90.000003000000007
 51
269.99999700000006
  0
LINE
  8
_0-0_0
  6
CONTINUOUS
 62
    7
 10
248.42895499999997
 20
775.39994750000005
 11
253.42895499999997
 21
775.39994750000005
  0
LINE
  8
_0-0_0
  6
CONTINUOUS
 62
    7
 10
235.92895499999997
 20
777.59992950000003
 11
235.92895499999997
 21
779.29994150000005
  0
LINE
  8
_0-0_0
  6
CONTINUOUS
 62
    7
 10
235.92895499999997
 20
779.29994150000005
 11
222.42896299999995
 21
779.29994150000005
  0
LINE
  8
_0-0_0
  6
CONTINUOUS
 62
    7
 10
222.42896299999995
 20
777.59992950000003
 11
222.42896299999995
 21
779.29994150000005
  0
LINE
  8
_0-0_0
  6
CONTINUOUS
 62
    7
 10
223.92896299999995
 20
776.89994750000005
 11
219.25351699999999
 21
776.89994750000005
  0
LINE
  8
_0-0_0
  6
CONTINUOUS
 62
    7
 10
223.92896299999995
 20
771.39994750000005
 11
219.25351699999999
 21
771.39994750000005
  0
LINE
  8
_0-0_0
  6
CONTINUOUS
 62
    7
 10
218.62106299999994
 20
755.40257250000002
 11
218.74056199999995
 21
755.36695850000001
  0
LINE
  8
_0-0_0
  6
CONTINUOUS
 62
    7
 10
218.74056199999995
 20
755.36695850000001
 11
218.86211400000002
 21
755.33906549999995
  0
LINE
  8
_0-0_0
  6
CONTINUOUS
 62
    7
 10
218.86211400000002
 20
755.33906549999995
 11
218.98524499999996
 21
755.31904550000002
  0
LINE
  8
_0-0_0
  6
CONTINUOUS
 62
    7
 10
218.98524499999996
 20
755.31904550000002
 11
219.10947399999998
 21
755.30693050000002
  0
LINE
  8
_0-0_0
  6
CONTINUOUS
 62
    7
 10
219.10947399999998
 20
755.30693050000002
 11
219.23429099999998
 21
755.30278050000004
  0
LINE
  8
_0-0_0
  6
CONTINUOUS
 62
    7
 10
219.23429099999998
 20
755.30278050000004
 11
219.25351699999999
 21
755.30287150000004
  0
ARC
  8
_0-0_0
  6
CONTINUOUS
 62
    7
 10
219.25351699999999
 20
757.29994150000005
 40
2
 50
251.56498899999997
 51
269.99999700000001
  0
LINE
  8
_0-0_0
  6
CONTINUOUS
 62
    7
 10
222.42896299999995
 20
777.59992950000003
 11
235.92895499999997
 21
777.59992950000003
  0
CIRCLE
  8
_0-0_0
  6
CONTINUOUS
 62
    7
 10
316.92895499999997
 20
777.79994150000005
 40
1.4750000000000001
  0
CIRCLE
  8
_0-0_0
  6
CONTINUOUS
 62
    7
 10
237.92895499999997
 20
777.79994150000005
 40
1.4750000000000001
  0
ARC
  8
_0-0_0
  6
CONTINUOUS
 62
    7
 10
219.25351699999999
 20
774.89994750000005
 40
2
 50
90.000003000000007
 51
108.434997
  0
LINE
  8
_0-0_0
  6
CONTINUOUS
 62
    7
 10
214.45461999999998
 20
771.39994750000005
 11
213.76126099999999
 21
771.39994750000005
  0
LINE
  8
_0-0_0
  6
CONTINUOUS
 62
    7
 10
214.45461999999998
 20
771.39994750000005
 11
218.77917500000001
 21
771.39994750000005
  0
LINE
  8
_0-0_0
  6
CONTINUOUS
 62
    7
 10
219.25351699999999
 20
771.39994750000005
 11
218.77917500000001
 21
771.39994750000005
  0
LINE
  8
_0-0_0
  6
CONTINUOUS
 62
    7
 10
214.29650900000001
 20
756.84410049999997
 11
218.62106299999994
 21
755.40257250000002
  0
LINE
  8
_0-0_0
  6
CONTINUOUS
 62
    7
 10
313.47895800000003
 20
770.89994750000005
 11
311.16955599999994
 21
766.89994750000005
  0
LINE
  8
_0-0_0
  6
CONTINUOUS
 62
    7
 10
302.688355
 20
766.89994750000005
 11
311.16955599999994
 21
766.89994750000005
  0
LINE
  8
_0-0_0
  6
CONTINUOUS
 62
    7
 10
302.688355
 20
766.89994750000005
 11
300.37895200000003
 21
770.89994750000005
  0
LINE
  8
_0-0_0
  6
CONTINUOUS
 62
    7
 10
300.37895200000003
 20
770.89994750000005
 11
302.688355
 21
774.89994750000005
  0
LINE
  8
_0-0_0
  6
CONTINUOUS
 62
    7
 10
311.16955599999994
 20
774.89994750000005
 11
302.688355
 21
774.89994750000005
  0
LINE
  8
_0-0_0
  6
CONTINUOUS
 62
    7
 10
311.16955599999994
 20
774.89994750000005
 11
313.47895800000003
 21
770.89994750000005
  0
LINE
  8
_0-0_0
  6
CONTINUOUS
 62
    7
 10
246.688355
 20
774.89994750000005
 11
244.37896699999999
 21
770.89994750000005
  0
LINE
  8
_0-0_0
  6
CONTINUOUS
 62
    7
 10
255.16955599999994
 20
774.89994750000005
 11
246.688355
 21
774.89994750000005
  0
LINE
  8
_0-0_0
  6
CONTINUOUS
 62
    7
 10
257.47895800000003
 20
770.89994750000005
 11
255.16955599999994
 21
774.89994750000005
  0
LINE
  8
_0-0_0
  6
CONTINUOUS
 62
    7
 10
255.16955599999994
 20
766.89994750000005
 11
257.47895800000003
 21
770.89994750000005
  0
LINE
  8
_0-0_0
  6
CONTINUOUS
 62
    7
 10
246.688355
 20
766.89994750000005
 11
255.16955599999994
 21
766.89994750000005
  0
LINE
  8
_0-0_0
  6
CONTINUOUS
 62
    7
 10
244.37896699999999
 20
770.89994750000005
 11
246.688355
 21
766.89994750000005
  0
LINE
  8
_0-0_0
  6
CONTINUOUS
 62
    7
 10
218.17895499999997
 20
776.64994750000005
 11
218.62106299999994
 21
776.79731749999996
  0
LINE
  8
_0-0_0
  6
CONTINUOUS
 62
    7
 10
212.92896299999995
 20
772.14997849999997
 11
212.92896299999995
 21
771.02894549999996
  0
LINE
  8
_0-0_0
  6
CONTINUOUS
 62
    7
 10
212.92896299999995
 20
770.10762050000005
 11
212.92896299999995
 21
771.02894549999996
  0
LINE
  8
_0-0_0
  6
CONTINUOUS
 62
    7
 10
213.22896600000001
 20
768.3119355
 11
213.17016599999999
 21
768.55876150000006
  0
LINE
  8
_0-0_0
  6
CONTINUOUS
 62
    7
 10
213.17016599999999
 20
768.55876150000006
 11
213.12040000000002
 21
768.75111349999997
  0
LINE
  8
_0-0_0
  6
CONTINUOUS
 62
    7
 10
213.12040000000002
 20
768.75111349999997
 11
213.04927099999998
 21
769.01692149999997
  0
LINE
  8
_0-0_0
  6
CONTINUOUS
 62
    7
 10
213.04927099999998
 20
769.01692149999997
 11
213.01631199999997
 21
769.14363049999997
  0
LINE
  8
_0-0_0
  6
CONTINUOUS
 62
    7
 10
213.01631199999997
 20
769.14363049999997
 11
212.99105099999997
 21
769.24705449999999
  0
LINE
  8
_0-0_0
  6
CONTINUOUS
 62
    7
 10
212.99105099999997
 20
769.24705449999999
 11
212.96902499999999
 21
769.3469695
  0
LINE
  8
_0-0_0
  6
CONTINUOUS
 62
    7
 10
212.96902499999999
 20
769.3469695
 11
212.94764699999996
 21
769.4646755
  0
LINE
  8
_0-0_0
  6
CONTINUOUS
 62
    7
 10
212.94764699999996
 20
769.4646755
 11
212.93907200000001
 21
769.52680950000001
  0
LINE
  8
_0-0_0
  6
CONTINUOUS
 62
    7
 10
212.93907200000001
 20
769.52680950000001
 11
212.93299100000002
 21
769.58741750000002
  0
LINE
  8
_0-0_0
  6
CONTINUOUS
 62
    7
 10
212.93299100000002
 20
769.58741750000002
 11
212.92998499999999
 21
769.63667250000003
  0
LINE
  8
_0-0_0
  6
CONTINUOUS
 62
    7
 10
212.92998499999999
 20
769.63667250000003
 11
212.92896299999995
 21
769.68489050000005
  0
LINE
  8
_0-0_0
  6
CONTINUOUS
 62
    7
 10
213.22896600000001
 20
763.88792450000005
 11
213.31242399999996
 21
764.26661650000005
  0
LINE
  8
_0-0_0
  6
CONTINUOUS
 62
    7
 10
213.31242399999996
 20
764.26661650000005
 11
213.35251600000004
 21
764.4581455
  0
LINE
  8
_0-0_0
  6
CONTINUOUS
 62
    7
 10
213.35251600000004
 20
764.4581455
 11
213.40859999999998
 21
764.74815350000006
  0
LINE
  8
_0-0_0
  6
CONTINUOUS
 62
    7
 10
213.40859999999998
 20
764.74815350000006
 11
213.44619799999998
 21
764.96772750000002
  0
LINE
  8
_0-0_0
  6
CONTINUOUS
 62
    7
 10
213.44619799999998
 20
764.96772750000002
 11
213.47884399999998
 21
765.18897949999996
  0
LINE
  8
_0-0_0
  6
CONTINUOUS
 62
    7
 10
213.47884399999998
 20
765.18897949999996
 11
213.50600399999996
 21
765.41578649999997
  0
LINE
  8
_0-0_0
  6
CONTINUOUS
 62
    7
 10
213.50600399999996
 20
765.41578649999997
 11
213.52607
 21
765.64317349999999
  0
LINE
  8
_0-0_0
  6
CONTINUOUS
 62
    7
 10
213.52607
 20
765.64317349999999
 11
213.53322600000001
 21
765.7569125
  0
LINE
  8
_0-0_0
  6
CONTINUOUS
 62
    7
 10
213.53322600000001
 20
765.7569125
 11
213.53838399999995
 21
765.87059050000005
  0
LINE
  8
_0-0_0
  6
CONTINUOUS
 62
    7
 10
213.53838399999995
 20
765.87059050000005
 11
213.54209900000001
 21
766.02201850000006
  0
LINE
  8
_0-0_0
  6
CONTINUOUS
 62
    7
 10
213.54209900000001
 20
766.02201850000006
 11
213.54215999999997
 21
766.1732935
  0
LINE
  8
_0-0_0
  6
CONTINUOUS
 62
    7
 10
213.54215999999997
 20
766.1732935
 11
213.53857400000004
 21
766.32435550000002
  0
LINE
  8
_0-0_0
  6
CONTINUOUS
 62
    7
 10
213.53857400000004
 20
766.32435550000002
 11
213.52907600000003
 21
766.51289350000002
  0
LINE
  8
_0-0_0
  6
CONTINUOUS
 62
    7
 10
213.52907600000003
 20
766.51289350000002
 11
213.51420599999994
 21
766.70112549999999
  0
LINE
  8
_0-0_0
  6
CONTINUOUS
 62
    7
 10
213.51420599999994
 20
766.70112549999999
 11
213.49428599999999
 21
766.88908349999997
  0
LINE
  8
_0-0_0
  6
CONTINUOUS
 62
    7
 10
213.49428599999999
 20
766.88908349999997
 11
213.47789799999998
 21
767.01795949999996
  0
LINE
  8
_0-0_0
  6
CONTINUOUS
 62
    7
 10
213.47789799999998
 20
767.01795949999996
 11
213.45948799999996
 21
767.1465915
  0
LINE
  8
_0-0_0
  6
CONTINUOUS
 62
    7
 10
213.45948799999996
 20
767.1465915
 11
213.43532600000003
 21
767.29853849999995
  0
LINE
  8
_0-0_0
  6
CONTINUOUS
 62
    7
 10
213.43532600000003
 20
767.29853849999995
 11
213.40892799999995
 21
767.44987449999996
  0
LINE
  8
_0-0_0
  6
CONTINUOUS
 62
    7
 10
213.40892799999995
 20
767.44987449999996
 11
213.35275999999999
 21
767.74049349999996
  0
LINE
  8
_0-0_0
  6
CONTINUOUS
 62
    7
 10
213.35275999999999
 20
767.74049349999996
 11
213.31259899999998
 21
767.93244949999996
  0
LINE
  8
_0-0_0
  6
CONTINUOUS
 62
    7
 10
213.31259899999998
 20
767.93244949999996
 11
213.22896600000001
 21
768.3119355
  0
LINE
  8
_0-0_0
  6
CONTINUOUS
 62
    7
 10
213.22895800000003
 20
763.88792450000005
 11
213.17015800000001
 21
763.64106749999996
  0
LINE
  8
_0-0_0
  6
CONTINUOUS
 62
    7
 10
213.17015800000001
 20
763.64106749999996
 11
213.12040000000002
 21
763.44874549999997
  0
LINE
  8
_0-0_0
  6
CONTINUOUS
 62
    7
 10
213.12040000000002
 20
763.44874549999997
 11
213.04927799999996
 21
763.18299850000005
  0
LINE
  8
_0-0_0
  6
CONTINUOUS
 62
    7
 10
213.04927799999996
 20
763.18299850000005
 11
213.01631899999995
 21
763.05632049999997
  0
LINE
  8
_0-0_0
  6
CONTINUOUS
 62
    7
 10
213.01631899999995
 20
763.05632049999997
 11
212.99105799999995
 21
762.95286550000003
  0
LINE
  8
_0-0_0
  6
CONTINUOUS
 62
    7
 10
212.99105799999995
 20
762.95286550000003
 11
212.96902499999999
 21
762.85288949999995
  0
LINE
  8
_0-0_0
  6
CONTINUOUS
 62
    7
 10
212.96902499999999
 20
762.85288949999995
 11
212.94763999999998
 21
762.73518349999995
  0
LINE
  8
_0-0_0
  6
CONTINUOUS
 62
    7
 10
212.94763999999998
 20
762.73518349999995
 11
212.93907200000001
 21
762.67304950000005
  0
LINE
  8
_0-0_0
  6
CONTINUOUS
 62
    7
 10
212.93907200000001
 20
762.67304950000005
 11
212.93299100000002
 21
762.61244150000005
  0
LINE
  8
_0-0_0
  6
CONTINUOUS
 62
    7
 10
212.93299100000002
 20
762.61244150000005
 11
212.92998499999999
 21
762.56321749999995
  0
LINE
  8
_0-0_0
  6
CONTINUOUS
 62
    7
 10
212.92998499999999
 20
762.56321749999995
 11
212.92896299999995
 21
762.51499950000004
  0
LINE
  8
_0-0_0
  6
CONTINUOUS
 62
    7
 10
212.92896299999995
 20
758.74147049999999
 11
212.92896299999995
 21
762.09223950000001
  0
ARC
  8
_0-0_0
  6
CONTINUOUS
 62
    7
 10
214.92896299999995
 20
758.74147049999999
 40
2
 50
180.00000900000003
 51
251.56498900000003
  0
LINE
  8
_0-0_0
  6
CONTINUOUS
 62
    7
 10
317.37895200000003
 20
777.59992950000003
 11
318.02896099999998
 21
777.59992950000003
  0
ARC
  8
_0-0_0
  6
CONTINUOUS
 62
    7
 10
317.37895200000003
 20
777.34992950000003
 40
0.25
 50
90.000003000000007
 51
180.00000900000001
  0
LINE
  8
_0-0_0
  6
CONTINUOUS
 62
    7
 10
317.12895200000003
 20
777.34992950000003
 11
317.12895200000003
 21
776.69993550000004
  0
LINE
  8
_0-0_0
  6
CONTINUOUS
 62
    7
 10
316.72895800000003
 20
776.69993550000004
 11
317.12895200000003
 21
776.69993550000004
  0
LINE
  8
_0-0_0
  6
CONTINUOUS
 62
    7
 10
316.72895800000003
 20
776.69993550000004
 11
316.72895800000003
 21
777.34992950000003
  0
ARC
  8
_0-0_0
  6
CONTINUOUS
 62
    7
 10
316.47895800000003
 20
777.34992950000003
 40
0.25
 50
0
 51
90.000003000000007
  0
LINE
  8
_0-0_0
  6
CONTINUOUS
 62
    7
 10
315.82896400000004
 20
777.59992950000003
 11
316.47895800000003
 21
777.59992950000003
  0
LINE
  8
_0-0_0
  6
CONTINUOUS
 62
    7
 10
315.82896400000004
 20
777.59992950000003
 11
315.82896400000004
 21
777.99995450000006
  0
LINE
  8
_0-0_0
  6
CONTINUOUS
 62
    7
 10
316.47895800000003
 20
777.99995450000006
 11
315.82896400000004
 21
777.99995450000006
  0
ARC
  8
_0-0_0
  6
CONTINUOUS
 62
    7
 10
316.47895800000003
 20
778.24995450000006
 40
0.25
 50
269.99999700000001
 51
0
  0
LINE
  8
_0-0_0
  6
CONTINUOUS
 62
    7
 10
316.72895800000003
 20
778.24995450000006
 11
316.72895800000003
 21
778.89994750000005
  0
LINE
  8
_0-0_0
  6
CONTINUOUS
 62
    7
 10
317.12895200000003
 20
778.89994750000005
 11
316.72895800000003
 21
778.89994750000005
  0
LINE
  8
_0-0_0
  6
CONTINUOUS
 62
    7
 10
317.12895200000003
 20
778.89994750000005
 11
317.12895200000003
 21
778.24995450000006
  0
ARC
  8
_0-0_0
  6
CONTINUOUS
 62
    7
 10
317.37895200000003
 20
778.24995450000006
 40
0.25
 50
180.00000900000003
 51
269.99999700000001
  0
LINE
  8
_0-0_0
  6
CONTINUOUS
 62
    7
 10
318.02896099999998
 20
777.99995450000006
 11
317.37895200000003
 21
777.99995450000006
  0
LINE
  8
_0-0_0
  6
CONTINUOUS
 62
    7
 10
318.02896099999998
 20
777.99995450000006
 11
318.02896099999998
 21
777.59992950000003
  0
LINE
  8
_0-0_0
  6
CONTINUOUS
 62
    7
 10
238.37896699999999
 20
777.59992950000003
 11
239.02896099999998
 21
777.59992950000003
  0
ARC
  8
_0-0_0
  6
CONTINUOUS
 62
    7
 10
238.37896699999999
 20
777.34992950000003
 40
0.25
 50
90.000003000000007
 51
180.00000900000001
  0
LINE
  8
_0-0_0
  6
CONTINUOUS
 62
    7
 10
238.12896699999999
 20
777.34992950000003
 11
238.12896699999999
 21
776.69993550000004
  0
LINE
  8
_0-0_0
  6
CONTINUOUS
 62
    7
 10
237.72895800000003
 20
776.69993550000004
 11
238.12896699999999
 21
776.69993550000004
  0
LINE
  8
_0-0_0
  6
CONTINUOUS
 62
    7
 10
237.72895800000003
 20
776.69993550000004
 11
237.72895800000003
 21
777.34992950000003
  0
ARC
  8
_0-0_0
  6
CONTINUOUS
 62
    7
 10
237.47895800000003
 20
777.34992950000003
 40
0.25
 50
0
 51
90.000003000000007
  0
LINE
  8
_0-0_0
  6
CONTINUOUS
 62
    7
 10
236.82896400000004
 20
777.59992950000003
 11
237.47895800000003
 21
777.59992950000003
  0
LINE
  8
_0-0_0
  6
CONTINUOUS
 62
    7
 10
236.82896400000004
 20
777.59992950000003
 11
236.82896400000004
 21
777.99995450000006
  0
LINE
  8
_0-0_0
  6
CONTINUOUS
 62
    7
 10
237.47895800000003
 20
777.99995450000006
 11
236.82896400000004
 21
777.99995450000006
  0
ARC
  8
_0-0_0
  6
CONTINUOUS
 62
    7
 10
237.47895800000003
 20
778.24995450000006
 40
0.25
 50
269.99999700000001
 51
0
  0
LINE
  8
_0-0_0
  6
CONTINUOUS
 62
    7
 10
237.72895800000003
 20
778.24995450000006
 11
237.72895800000003
 21
778.89994750000005
  0
LINE
  8
_0-0_0
  6
CONTINUOUS
 62
    7
 10
238.12896699999999
 20
778.89994750000005
 11
237.72895800000003
 21
778.89994750000005
  0
LINE
  8
_0-0_0
  6
CONTINUOUS
 62
    7
 10
238.12896699999999
 20
778.89994750000005
 11
238.12896699999999
 21
778.24995450000006
  0
ARC
  8
_0-0_0
  6
CONTINUOUS
 62
    7
 10
238.37896699999999
 20
778.24995450000006
 40
0.25
 50
180.00000900000003
 51
269.99999700000001
  0
LINE
  8
_0-0_0
  6
CONTINUOUS
 62
    7
 10
239.02896099999998
 20
777.99995450000006
 11
238.37896699999999
 21
777.99995450000006
  0
LINE
  8
_0-0_0
  6
CONTINUOUS
 62
    7
 10
239.02896099999998
 20
777.99995450000006
 11
239.02896099999998
 21
777.59992950000003
  0
LINE
  8
_0-0_0
  6
CONTINUOUS
 62
    7
 10
197.92896299999995
 20
775.6253815
 11
197.92896299999995
 21
775.47865249999995
  0
LINE
  8
_0-0_0
  6
CONTINUOUS
 62
    7
 10
197.92896299999995
 20
775.81590249999999
 11
197.92896299999995
 21
775.6253815
  0
LINE
  8
_0-0_0
  6
CONTINUOUS
 62
    7
 10
197.92896299999995
 20
775.99092050000002
 11
197.92896299999995
 21
775.81590249999999
  0
LINE
  8
_0-0_0
  6
CONTINUOUS
 62
    7
 10
197.92896299999995
 20
776.14851350000004
 11
197.92896299999995
 21
775.99092050000002
  0
LINE
  8
_0-0_0
  6
CONTINUOUS
 62
    7
 10
197.92896299999995
 20
776.28694150000001
 11
197.92896299999995
 21
776.14851350000004
  0
LINE
  8
_0-0_0
  6
CONTINUOUS
 62
    7
 10
197.92896299999995
 20
776.40470849999997
 11
197.92896299999995
 21
776.28694150000001
  0
LINE
  8
_0-0_0
  6
CONTINUOUS
 62
    7
 10
197.92896299999995
 20
776.50050350000004
 11
197.92896299999995
 21
776.40470849999997
  0
LINE
  8
_0-0_0
  6
CONTINUOUS
 62
    7
 10
197.92896299999995
 20
776.57328749999999
 11
197.92896299999995
 21
776.50050350000004
  0
LINE
  8
_0-0_0
  6
CONTINUOUS
 62
    7
 10
197.92896299999995
 20
776.62223849999998
 11
197.92896299999995
 21
776.57328749999999
  0
LINE
  8
_0-0_0
  6
CONTINUOUS
 62
    7
 10
197.92896299999995
 20
776.64994750000005
 11
197.92896299999995
 21
776.62223849999998
  0
LINE
  8
_0-0_0
  6
CONTINUOUS
 62
    7
 10
197.92896299999995
 20
776.64994750000005
 11
197.92896299999995
 21
776.64686549999999
  0
LINE
  8
_0-0_0
  6
CONTINUOUS
 62
    7
 10
197.92896299999995
 20
772.1530305
 11
197.92896299999995
 21
772.14994750000005
  0
LINE
  8
_0-0_0
  6
CONTINUOUS
 62
    7
 10
197.92896299999995
 20
772.17765750000001
 11
197.92896299999995
 21
772.14994750000005
  0
LINE
  8
_0-0_0
  6
CONTINUOUS
 62
    7
 10
197.92896299999995
 20
772.2266085
 11
197.92896299999995
 21
772.17765750000001
  0
LINE
  8
_0-0_0
  6
CONTINUOUS
 62
    7
 10
197.92896299999995
 20
772.29939249999995
 11
197.92896299999995
 21
772.2266085
  0
LINE
  8
_0-0_0
  6
CONTINUOUS
 62
    7
 10
197.92896299999995
 20
772.39518750000002
 11
197.92896299999995
 21
772.29939249999995
  0
LINE
  8
_0-0_0
  6
CONTINUOUS
 62
    7
 10
197.92896299999995
 20
772.42536949999999
 11
197.92896299999995
 21
772.39518750000002
  0
LINE
  8
_0-0_0
  6
CONTINUOUS
 62
    7
 10
197.92896299999995
 20
772.51292450000005
 11
197.92896299999995
 21
772.42536949999999
  0
LINE
  8
_0-0_0
  6
CONTINUOUS
 62
    7
 10
197.92896299999995
 20
772.65135150000003
 11
197.92896299999995
 21
772.51292450000005
  0
LINE
  8
_0-0_0
  6
CONTINUOUS
 62
    7
 10
197.92896299999995
 20
772.80894450000005
 11
197.92896299999995
 21
772.65135150000003
  0
LINE
  8
_0-0_0
  6
CONTINUOUS
 62
    7
 10
197.92896299999995
 20
772.98396249999996
 11
197.92896299999995
 21
772.80894450000005
  0
LINE
  8
_0-0_0
  6
CONTINUOUS
 62
    7
 10
197.92896299999995
 20
773.17451449999999
 11
197.92896299999995
 21
772.98396249999996
  0
LINE
  8
_0-0_0
  6
CONTINUOUS
 62
    7
 10
197.92896299999995
 20
773.37846349999995
 11
197.92896299999995
 21
773.17451449999999
  0
LINE
  8
_0-0_0
  6
CONTINUOUS
 62
    7
 10
197.92896299999995
 20
773.59361249999995
 11
197.92896299999995
 21
773.37846349999995
  0
LINE
  8
_0-0_0
  6
CONTINUOUS
 62
    7
 10
197.92896299999995
 20
773.8176115
 11
197.92896299999995
 21
773.59361249999995
  0
LINE
  8
_0-0_0
  6
CONTINUOUS
 62
    7
 10
197.92896299999995
 20
774.04795850000005
 11
197.92896299999995
 21
773.8176115
  0
LINE
  8
_0-0_0
  6
CONTINUOUS
 62
    7
 10
197.92896299999995
 20
774.28218049999998
 11
197.92896299999995
 21
774.04795850000005
  0
LINE
  8
_0-0_0
  6
CONTINUOUS
 62
    7
 10
197.92896299999995
 20
774.51771550000001
 11
197.92896299999995
 21
774.28218049999998
  0
LINE
  8
_0-0_0
  6
CONTINUOUS
 62
    7
 10
197.92896299999995
 20
774.75190750000002
 11
197.92896299999995
 21
774.51771550000001
  0
LINE
  8
_0-0_0
  6
CONTINUOUS
 62
    7
 10
197.92896299999995
 20
774.98228449999999
 11
197.92896299999995
 21
774.75190750000002
  0
LINE
  8
_0-0_0
  6
CONTINUOUS
 62
    7
 10
197.92896299999995
 20
775.20628350000004
 11
197.92896299999995
 21
774.98228449999999
  0
LINE
  8
_0-0_0
  6
CONTINUOUS
 62
    7
 10
197.92896299999995
 20
775.42143250000004
 11
197.92896299999995
 21
775.20628350000004
  0
LINE
  8
_0-0_0
  6
CONTINUOUS
 62
    7
 10
197.92896299999995
 20
775.47865249999995
 11
197.92896299999995
 21
775.42143250000004
  0
LINE
  8
_0-0_0
  6
CONTINUOUS
 62
    7
 10
212.92896299999995
 20
767.66200249999997
 11
212.92896299999995
 21
768.70762649999995
  0
LINE
  8
_0-0_0
  6
CONTINUOUS
 62
    7
 10
212.92896299999995
 20
769.9922335
 11
212.92896299999995
 21
768.70762649999995
  0
LINE
  8
_0-0_0
  6
CONTINUOUS
 62
    7
 10
212.92896299999995
 20
770.10762050000005
 11
212.92896299999995
 21
769.9922335
  0
LINE
  8
_0-0_0
  6
CONTINUOUS
 62
    7
 10
212.92896299999995
 20
767.66200249999997
 11
212.92896299999995
 21
764.53788750000001
  0
LINE
  8
_0-0_0
  6
CONTINUOUS
 62
    7
 10
212.92896299999995
 20
762.09223950000001
 11
212.92896299999995
 21
762.20762649999995
  0
LINE
  8
_0-0_0
  6
CONTINUOUS
 62
    7
 10
212.92896299999995
 20
763.4922335
 11
212.92896299999995
 21
762.20762649999995
  0
LINE
  8
_0-0_0
  6
CONTINUOUS
 62
    7
 10
212.92896299999995
 20
763.4922335
 11
212.92896299999995
 21
764.53788750000001
  0
LINE
  8
_0-0_0
  6
CONTINUOUS
 62
    7
 10
197.92896299999995
 20
759.0253755
 11
197.92896299999995
 21
758.87864650000006
  0
LINE
  8
_0-0_0
  6
CONTINUOUS
 62
    7
 10
197.92896299999995
 20
759.21592650000002
 11
197.92896299999995
 21
759.0253755
  0
LINE
  8
_0-0_0
  6
CONTINUOUS
 62
    7
 10
197.92896299999995
 20
759.39094550000004
 11
197.92896299999995
 21
759.21592650000002
  0
LINE
  8
_0-0_0
  6
CONTINUOUS
 62
    7
 10
197.92896299999995
 20
759.54850750000003
 11
197.92896299999995
 21
759.39094550000004
  0
LINE
  8
_0-0_0
  6
CONTINUOUS
 62
    7
 10
197.92896299999995
 20
759.68696550000004
 11
197.92896299999995
 21
759.54850750000003
  0
LINE
  8
_0-0_0
  6
CONTINUOUS
 62
    7
 10
197.92896299999995
 20
759.80470249999996
 11
197.92896299999995
 21
759.68696550000004
  0
LINE
  8
_0-0_0
  6
CONTINUOUS
 62
    7
 10
197.92896299999995
 20
759.90049750000003
 11
197.92896299999995
 21
759.80470249999996
  0
LINE
  8
_0-0_0
  6
CONTINUOUS
 62
    7
 10
197.92896299999995
 20
759.97328149999998
 11
197.92896299999995
 21
759.90049750000003
  0
LINE
  8
_0-0_0
  6
CONTINUOUS
 62
    7
 10
197.92896299999995
 20
760.02223149999998
 11
197.92896299999995
 21
759.97328149999998
  0
LINE
  8
_0-0_0
  6
CONTINUOUS
 62
    7
 10
197.92896299999995
 20
760.04994150000005
 11
197.92896299999995
 21
760.02223149999998
  0
LINE
  8
_0-0_0
  6
CONTINUOUS
 62
    7
 10
197.92896299999995
 20
760.04994150000005
 11
197.92896299999995
 21
760.04685949999998
  0
LINE
  8
_0-0_0
  6
CONTINUOUS
 62
    7
 10
197.92896299999995
 20
755.55302449999999
 11
197.92896299999995
 21
755.54994150000005
  0
LINE
  8
_0-0_0
  6
CONTINUOUS
 62
    7
 10
197.92896299999995
 20
755.5776515
 11
197.92896299999995
 21
755.54994150000005
  0
LINE
  8
_0-0_0
  6
CONTINUOUS
 62
    7
 10
197.92896299999995
 20
755.62660249999999
 11
197.92896299999995
 21
755.5776515
  0
LINE
  8
_0-0_0
  6
CONTINUOUS
 62
    7
 10
197.92896299999995
 20
755.69938650000006
 11
197.92896299999995
 21
755.62660249999999
  0
LINE
  8
_0-0_0
  6
CONTINUOUS
 62
    7
 10
197.92896299999995
 20
755.79518150000001
 11
197.92896299999995
 21
755.69938650000006
  0
LINE
  8
_0-0_0
  6
CONTINUOUS
 62
    7
 10
197.92896299999995
 20
755.82539350000002
 11
197.92896299999995
 21
755.79518150000001
  0
LINE
  8
_0-0_0
  6
CONTINUOUS
 62
    7
 10
197.92896299999995
 20
755.91291750000005
 11
197.92896299999995
 21
755.82539350000002
  0
LINE
  8
_0-0_0
  6
CONTINUOUS
 62
    7
 10
197.92896299999995
 20
756.05137649999995
 11
197.92896299999995
 21
755.91291750000005
  0
LINE
  8
_0-0_0
  6
CONTINUOUS
 62
    7
 10
197.92896299999995
 20
756.20896849999997
 11
197.92896299999995
 21
756.05137649999995
  0
LINE
  8
_0-0_0
  6
CONTINUOUS
 62
    7
 10
197.92896299999995
 20
756.38398749999999
 11
197.92896299999995
 21
756.20896849999997
  0
LINE
  8
_0-0_0
  6
CONTINUOUS
 62
    7
 10
197.92896299999995
 20
756.57450849999998
 11
197.92896299999995
 21
756.38398749999999
  0
LINE
  8
_0-0_0
  6
CONTINUOUS
 62
    7
 10
197.92896299999995
 20
756.77845750000006
 11
197.92896299999995
 21
756.57450849999998
  0
LINE
  8
_0-0_0
  6
CONTINUOUS
 62
    7
 10
197.92896299999995
 20
756.99360650000006
 11
197.92896299999995
 21
756.77845750000006
  0
LINE
  8
_0-0_0
  6
CONTINUOUS
 62
    7
 10
197.92896299999995
 20
757.21760549999999
 11
197.92896299999995
 21
756.99360650000006
  0
LINE
  8
_0-0_0
  6
CONTINUOUS
 62
    7
 10
197.92896299999995
 20
757.44795250000004
 11
197.92896299999995
 21
757.21760549999999
  0
LINE
  8
_0-0_0
  6
CONTINUOUS
 62
    7
 10
197.92896299999995
 20
757.68217449999997
 11
197.92896299999995
 21
757.44795250000004
  0
LINE
  8
_0-0_0
  6
CONTINUOUS
 62
    7
 10
197.92896299999995
 20
757.9177095
 11
197.92896299999995
 21
757.68217449999997
  0
LINE
  8
_0-0_0
  6
CONTINUOUS
 62
    7
 10
197.92896299999995
 20
758.15193150000005
 11
197.92896299999995
 21
757.9177095
  0
LINE
  8
_0-0_0
  6
CONTINUOUS
 62
    7
 10
197.92896299999995
 20
758.38227849999998
 11
197.92896299999995
 21
758.15193150000005
  0
LINE
  8
_0-0_0
  6
CONTINUOUS
 62
    7
 10
197.92896299999995
 20
758.60627750000003
 11
197.92896299999995
 21
758.38227849999998
  0
LINE
  8
_0-0_0
  6
CONTINUOUS
 62
    7
 10
197.92896299999995
 20
758.82142650000003
 11
197.92896299999995
 21
758.60627750000003
  0
LINE
  8
_0-0_0
  6
CONTINUOUS
 62
    7
 10
197.92896299999995
 20
758.87864650000006
 11
197.92896299999995
 21
758.82142650000003
  0
LINE
  8
_0-0_0
  6
CONTINUOUS
 62
    7
 10
308.92895499999997
 20
768.64994750000005
 11
304.92895499999997
 21
768.64994750000005
  0
ARC
  8
_0-0_0
  6
CONTINUOUS
 62
    7
 10
304.92895499999997
 20
770.89994750000005
 40
2.25
 50
90.000003000000007
 51
269.99999700000006
  0
LINE
  8
_0-0_0
  6
CONTINUOUS
 62
    7
 10
304.92895499999997
 20
773.14994750000005
 11
308.92895499999997
 21
773.14994750000005
  0
ARC
  8
_0-0_0
  6
CONTINUOUS
 62
    7
 10
308.92895499999997
 20
770.89994750000005
 40
2.25
 50
269.99999700000001
 51
90.000002999999992
  0
ARC
  8
_0-0_0
  6
CONTINUOUS
 62
    7
 10
248.92895499999997
 20
770.89994750000005
 40
2.25
 50
90.000003000000007
 51
269.99999700000006
  0
LINE
  8
_0-0_0
  6
CONTINUOUS
 62
    7
 10
248.92895499999997
 20
773.14994750000005
 11
252.92895499999997
 21
773.14994750000005
  0
ARC
  8
_0-0_0
  6
CONTINUOUS
 62
    7
 10
252.92895499999997
 20
770.89994750000005
 40
2.25
 50
269.99999700000001
 51
90.000002999999992
  0
LINE
  8
_0-0_0
  6
CONTINUOUS
 62
    7
 10
252.92895499999997
 20
768.64994750000005
 11
248.92895499999997
 21
768.64994750000005
  0
LINE
  8
_0-0_0
  6
CONTINUOUS
 62
    7
 10
197.92896299999995
 20
775.6253815
 11
197.67896299999995
 21
775.64994750000005
  0
LINE
  8
_0-0_0
  6
CONTINUOUS
 62
    7
 10
197.92896299999995
 20
775.42143250000004
 11
197.67896299999995
 21
775.64994750000005
  0
LINE
  8
_0-0_0
  6
CONTINUOUS
 62
    7
 10
197.92896299999995
 20
775.81590249999999
 11
197.67896299999995
 21
775.86939949999999
  0
LINE
  8
_0-0_0
  6
CONTINUOUS
 62
    7
 10
197.92896299999995
 20
775.6253815
 11
197.67896299999995
 21
775.86939949999999
  0
LINE
  8
_0-0_0
  6
CONTINUOUS
 62
    7
 10
197.92896299999995
 20
775.99092050000002
 11
197.67896299999995
 21
776.07276950000005
  0
LINE
  8
_0-0_0
  6
CONTINUOUS
 62
    7
 10
197.92896299999995
 20
775.81590249999999
 11
197.67896299999995
 21
776.07276950000005
  0
LINE
  8
_0-0_0
  6
CONTINUOUS
 62
    7
 10
197.92896299999995
 20
776.14851350000004
 11
197.67896299999995
 21
776.25779750000004
  0
LINE
  8
_0-0_0
  6
CONTINUOUS
 62
    7
 10
197.92896299999995
 20
775.99092050000002
 11
197.67896299999995
 21
776.25779750000004
  0
LINE
  8
_0-0_0
  6
CONTINUOUS
 62
    7
 10
197.92896299999995
 20
776.28694150000001
 11
197.67896299999995
 21
776.42250049999996
  0
LINE
  8
_0-0_0
  6
CONTINUOUS
 62
    7
 10
197.92896299999995
 20
776.14851350000004
 11
197.67896299999995
 21
776.42250049999996
  0
LINE
  8
_0-0_0
  6
CONTINUOUS
 62
    7
 10
197.92896299999995
 20
776.40470849999997
 11
197.67896299999995
 21
776.56501749999995
  0
LINE
  8
_0-0_0
  6
CONTINUOUS
 62
    7
 10
197.92896299999995
 20
776.28694150000001
 11
197.67896299999995
 21
776.56501749999995
  0
LINE
  8
_0-0_0
  6
CONTINUOUS
 62
    7
 10
197.92896299999995
 20
776.50050350000004
 11
197.67896299999995
 21
776.68379149999998
  0
LINE
  8
_0-0_0
  6
CONTINUOUS
 62
    7
 10
197.92896299999995
 20
776.40470849999997
 11
197.67896299999995
 21
776.68379149999998
  0
LINE
  8
_0-0_0
  6
CONTINUOUS
 62
    7
 10
197.92896299999995
 20
776.57328749999999
 11
197.67896299999995
 21
776.77757250000002
  0
LINE
  8
_0-0_0
  6
CONTINUOUS
 62
    7
 10
197.92896299999995
 20
776.50050350000004
 11
197.67896299999995
 21
776.77757250000002
  0
LINE
  8
_0-0_0
  6
CONTINUOUS
 62
    7
 10
197.92896299999995
 20
776.62223849999998
 11
197.67896299999995
 21
776.84532149999995
  0
LINE
  8
_0-0_0
  6
CONTINUOUS
 62
    7
 10
197.92896299999995
 20
776.57328749999999
 11
197.67896299999995
 21
776.84532149999995
  0
LINE
  8
_0-0_0
  6
CONTINUOUS
 62
    7
 10
197.92896299999995
 20
776.64686549999999
 11
197.67896299999995
 21
776.88624549999997
  0
LINE
  8
_0-0_0
  6
CONTINUOUS
 62
    7
 10
197.92896299999995
 20
776.62223849999998
 11
197.67896299999995
 21
776.88624549999997
  0
LINE
  8
_0-0_0
  6
CONTINUOUS
 62
    7
 10
197.92896299999995
 20
776.64686549999999
 11
197.67896299999995
 21
776.89994750000005
  0
LINE
  8
_0-0_0
  6
CONTINUOUS
 62
    7
 10
197.92896299999995
 20
772.1530305
 11
197.67896299999995
 21
771.89994750000005
  0
LINE
  8
_0-0_0
  6
CONTINUOUS
 62
    7
 10
197.92896299999995
 20
772.17765750000001
 11
197.67896299999995
 21
771.91365050000002
  0
LINE
  8
_0-0_0
  6
CONTINUOUS
 62
    7
 10
197.92896299999995
 20
772.1530305
 11
197.67896299999995
 21
771.91365050000002
  0
LINE
  8
_0-0_0
  6
CONTINUOUS
 62
    7
 10
197.92896299999995
 20
772.2266085
 11
197.67896299999995
 21
771.95457450000004
  0
LINE
  8
_0-0_0
  6
CONTINUOUS
 62
    7
 10
197.92896299999995
 20
772.17765750000001
 11
197.67896299999995
 21
771.95457450000004
  0
LINE
  8
_0-0_0
  6
CONTINUOUS
 62
    7
 10
197.92896299999995
 20
772.29939249999995
 11
197.67896299999995
 21
772.02229250000005
  0
LINE
  8
_0-0_0
  6
CONTINUOUS
 62
    7
 10
197.92896299999995
 20
772.2266085
 11
197.67896299999995
 21
772.02229250000005
  0
LINE
  8
_0-0_0
  6
CONTINUOUS
 62
    7
 10
197.92896299999995
 20
772.39518750000002
 11
197.67896299999995
 21
772.11607349999997
  0
LINE
  8
_0-0_0
  6
CONTINUOUS
 62
    7
 10
197.92896299999995
 20
772.29939249999995
 11
197.67896299999995
 21
772.11607349999997
  0
LINE
  8
_0-0_0
  6
CONTINUOUS
 62
    7
 10
197.92896299999995
 20
772.39518750000002
 11
197.79899599999999
 21
772.31132449999996
  0
LINE
  8
_0-0_0
  6
CONTINUOUS
 62
    7
 10
197.92896299999995
 20
772.51292450000005
 11
197.67896299999995
 21
772.23487850000004
  0
LINE
  8
_0-0_0
  6
CONTINUOUS
 62
    7
 10
197.79899599999999
 20
772.31132449999996
 11
197.67896299999995
 21
772.23487850000004
  0
LINE
  8
_0-0_0
  6
CONTINUOUS
 62
    7
 10
197.92896299999995
 20
772.65135150000003
 11
197.67896299999995
 21
772.37739550000003
  0
LINE
  8
_0-0_0
  6
CONTINUOUS
 62
    7
 10
197.92896299999995
 20
772.51292450000005
 11
197.67896299999995
 21
772.37739550000003
  0
LINE
  8
_0-0_0
  6
CONTINUOUS
 62
    7
 10
197.92896299999995
 20
772.80894450000005
 11
197.67896299999995
 21
772.54206850000003
  0
LINE
  8
_0-0_0
  6
CONTINUOUS
 62
    7
 10
197.92896299999995
 20
772.65135150000003
 11
197.67896299999995
 21
772.54206850000003
  0
LINE
  8
_0-0_0
  6
CONTINUOUS
 62
    7
 10
197.92896299999995
 20
772.98396249999996
 11
197.67896299999995
 21
772.72712650000005
  0
LINE
  8
_0-0_0
  6
CONTINUOUS
 62
    7
 10
197.92896299999995
 20
772.80894450000005
 11
197.67896299999995
 21
772.72712650000005
  0
LINE
  8
_0-0_0
  6
CONTINUOUS
 62
    7
 10
197.92896299999995
 20
773.17451449999999
 11
197.67896299999995
 21
772.9304965
  0
LINE
  8
_0-0_0
  6
CONTINUOUS
 62
    7
 10
197.92896299999995
 20
772.98396249999996
 11
197.67896299999995
 21
772.9304965
  0
LINE
  8
_0-0_0
  6
CONTINUOUS
 62
    7
 10
197.92896299999995
 20
773.37846349999995
 11
197.67896299999995
 21
773.14994750000005
  0
LINE
  8
_0-0_0
  6
CONTINUOUS
 62
    7
 10
197.92896299999995
 20
773.17451449999999
 11
197.67896299999995
 21
773.14994750000005
  0
LINE
  8
_0-0_0
  6
CONTINUOUS
 62
    7
 10
197.92896299999995
 20
773.59361249999995
 11
197.67896299999995
 21
773.38310249999995
  0
LINE
  8
_0-0_0
  6
CONTINUOUS
 62
    7
 10
197.92896299999995
 20
773.37846349999995
 11
197.67896299999995
 21
773.38310249999995
  0
LINE
  8
_0-0_0
  6
CONTINUOUS
 62
    7
 10
197.92896299999995
 20
773.8176115
 11
197.67896299999995
 21
773.62739550000003
  0
LINE
  8
_0-0_0
  6
CONTINUOUS
 62
    7
 10
197.92896299999995
 20
773.59361249999995
 11
197.67896299999995
 21
773.62739550000003
  0
LINE
  8
_0-0_0
  6
CONTINUOUS
 62
    7
 10
197.92896299999995
 20
774.04795850000005
 11
197.67896299999995
 21
773.88017249999996
  0
LINE
  8
_0-0_0
  6
CONTINUOUS
 62
    7
 10
197.92896299999995
 20
773.8176115
 11
197.67896299999995
 21
773.88017249999996
  0
LINE
  8
_0-0_0
  6
CONTINUOUS
 62
    7
 10
197.92896299999995
 20
774.28218049999998
 11
197.67896299999995
 21
774.13862549999999
  0
LINE
  8
_0-0_0
  6
CONTINUOUS
 62
    7
 10
197.92896299999995
 20
774.04795850000005
 11
197.67896299999995
 21
774.13862549999999
  0
LINE
  8
_0-0_0
  6
CONTINUOUS
 62
    7
 10
197.92896299999995
 20
774.51771550000001
 11
197.67896299999995
 21
774.39994750000005
  0
LINE
  8
_0-0_0
  6
CONTINUOUS
 62
    7
 10
197.92896299999995
 20
774.28218049999998
 11
197.67896299999995
 21
774.39994750000005
  0
LINE
  8
_0-0_0
  6
CONTINUOUS
 62
    7
 10
197.92896299999995
 20
774.75190750000002
 11
197.67896299999995
 21
774.6612705
  0
LINE
  8
_0-0_0
  6
CONTINUOUS
 62
    7
 10
197.92896299999995
 20
774.51771550000001
 11
197.67896299999995
 21
774.6612705
  0
LINE
  8
_0-0_0
  6
CONTINUOUS
 62
    7
 10
197.92896299999995
 20
774.98228449999999
 11
197.67896299999995
 21
774.91972350000003
  0
LINE
  8
_0-0_0
  6
CONTINUOUS
 62
    7
 10
197.92896299999995
 20
774.75190750000002
 11
197.67896299999995
 21
774.91972350000003
  0
LINE
  8
_0-0_0
  6
CONTINUOUS
 62
    7
 10
197.92896299999995
 20
775.20628350000004
 11
197.67896299999995
 21
775.17250049999996
  0
LINE
  8
_0-0_0
  6
CONTINUOUS
 62
    7
 10
197.92896299999995
 20
774.98228449999999
 11
197.67896299999995
 21
775.17250049999996
  0
LINE
  8
_0-0_0
  6
CONTINUOUS
 62
    7
 10
197.92896299999995
 20
775.42143250000004
 11
197.67896299999995
 21
775.41679350000004
  0
LINE
  8
_0-0_0
  6
CONTINUOUS
 62
    7
 10
197.92896299999995
 20
775.20628350000004
 11
197.67896299999995
 21
775.41679350000004
  0
LINE
  8
_0-0_0
  6
CONTINUOUS
 62
    7
 10
212.92896299999995
 20
769.9922335
 11
203.221138
 21
769.9922335
  0
LINE
  8
_0-0_0
  6
CONTINUOUS
 62
    7
 10
203.221138
 20
769.9922335
 11
203.16665699999999
 21
770.06217949999996
  0
LINE
  8
_0-0_0
  6
CONTINUOUS
 62
    7
 10
203.16665699999999
 20
770.06217949999996
 11
203.11555499999997
 21
770.13099650000004
  0
LINE
  8
_0-0_0
  6
CONTINUOUS
 62
    7
 10
203.11555499999997
 20
770.13099650000004
 11
203.06791699999997
 21
770.19850150000002
  0
LINE
  8
_0-0_0
  6
CONTINUOUS
 62
    7
 10
203.06791699999997
 20
770.19850150000002
 11
203.023415
 21
770.2650605
  0
LINE
  8
_0-0_0
  6
CONTINUOUS
 62
    7
 10
203.023415
 20
770.2650605
 11
202.96868900000004
 21
770.35261549999996
  0
LINE
  8
_0-0_0
  6
CONTINUOUS
 62
    7
 10
202.96868900000004
 20
770.35261549999996
 11
202.91918899999996
 21
770.43870549999997
  0
LINE
  8
_0-0_0
  6
CONTINUOUS
 62
    7
 10
202.91918899999996
 20
770.43870549999997
 11
202.87471800000003
 21
770.52354449999996
  0
LINE
  8
_0-0_0
  6
CONTINUOUS
 62
    7
 10
202.87471800000003
 20
770.52354449999996
 11
202.82775100000003
 21
770.62385549999999
  0
LINE
  8
_0-0_0
  6
CONTINUOUS
 62
    7
 10
202.82775100000003
 20
770.62385549999999
 11
202.78754400000003
 21
770.72279349999997
  0
LINE
  8
_0-0_0
  6
CONTINUOUS
 62
    7
 10
202.78754400000003
 20
770.72279349999997
 11
202.75387599999999
 21
770.82054149999999
  0
LINE
  8
_0-0_0
  6
CONTINUOUS
 62
    7
 10
202.75387599999999
 20
770.82054149999999
 11
202.72659299999998
 21
770.91734350000002
  0
LINE
  8
_0-0_0
  6
CONTINUOUS
 62
    7
 10
202.72659299999998
 20
770.91734350000002
 11
202.70554400000003
 21
771.01338150000004
  0
LINE
  8
_0-0_0
  6
CONTINUOUS
 62
    7
 10
202.70554400000003
 20
771.01338150000004
 11
202.68961300000001
 21
771.11726350000004
  0
LINE
  8
_0-0_0
  6
CONTINUOUS
 62
    7
 10
202.68961300000001
 20
771.11726350000004
 11
202.68085499999995
 21
771.22068750000005
  0
LINE
  8
_0-0_0
  6
CONTINUOUS
 62
    7
 10
202.68085499999995
 20
771.22068750000005
 11
202.67922199999998
 21
771.32392849999997
  0
LINE
  8
_0-0_0
  6
CONTINUOUS
 62
    7
 10
202.67922199999998
 20
771.32392849999997
 11
202.68469200000004
 21
771.42720050000003
  0
LINE
  8
_0-0_0
  6
CONTINUOUS
 62
    7
 10
202.68469200000004
 20
771.42720050000003
 11
202.69729599999994
 21
771.53080750000004
  0
LINE
  8
_0-0_0
  6
CONTINUOUS
 62
    7
 10
202.69729599999994
 20
771.53080750000004
 11
202.71711700000003
 21
771.63493349999999
  0
LINE
  8
_0-0_0
  6
CONTINUOUS
 62
    7
 10
202.71711700000003
 20
771.63493349999999
 11
202.74426299999993
 21
771.73991350000006
  0
LINE
  8
_0-0_0
  6
CONTINUOUS
 62
    7
 10
202.74426299999993
 20
771.73991350000006
 11
202.778908
 21
771.84593150000001
  0
LINE
  8
_0-0_0
  6
CONTINUOUS
 62
    7
 10
202.778908
 20
771.84593150000001
 11
202.82125099999996
 21
771.95332350000001
  0
LINE
  8
_0-0_0
  6
CONTINUOUS
 62
    7
 10
202.82125099999996
 20
771.95332350000001
 11
202.87156700000003
 21
772.06233250000002
  0
LINE
  8
_0-0_0
  6
CONTINUOUS
 62
    7
 10
202.87156700000003
 20
772.06233250000002
 11
202.91726700000004
 21
772.14997849999997
  0
LINE
  8
_0-0_0
  6
CONTINUOUS
 62
    7
 10
212.92896299999995
 20
768.70762649999995
 11
203.221138
 21
768.70762649999995
  0
LINE
  8
_0-0_0
  6
CONTINUOUS
 62
    7
 10
203.221138
 20
768.70762649999995
 11
203.126801
 21
768.46101350000004
  0
LINE
  8
_0-0_0
  6
CONTINUOUS
 62
    7
 10
203.126801
 20
768.46101350000004
 11
203.04285400000003
 21
768.22105350000004
  0
LINE
  8
_0-0_0
  6
CONTINUOUS
 62
    7
 10
203.04285400000003
 20
768.22105350000004
 11
202.96868900000004
 21
767.98692349999999
  0
LINE
  8
_0-0_0
  6
CONTINUOUS
 62
    7
 10
202.96868900000004
 20
767.98692349999999
 11
202.90381600000001
 21
767.75788850000004
  0
LINE
  8
_0-0_0
  6
CONTINUOUS
 62
    7
 10
202.90381600000001
 20
767.75788850000004
 11
202.84777799999995
 21
767.53321849999998
  0
LINE
  8
_0-0_0
  6
CONTINUOUS
 62
    7
 10
202.84777799999995
 20
767.53321849999998
 11
202.800209
 21
767.31224050000003
  0
LINE
  8
_0-0_0
  6
CONTINUOUS
 62
    7
 10
202.800209
 20
767.31224050000003
 11
202.76080300000001
 21
767.0943145
  0
LINE
  8
_0-0_0
  6
CONTINUOUS
 62
    7
 10
202.76080300000001
 20
767.0943145
 11
202.72930899999994
 21
766.87886049999997
  0
LINE
  8
_0-0_0
  6
CONTINUOUS
 62
    7
 10
202.72930899999994
 20
766.87886049999997
 11
202.70554400000003
 21
766.66532849999999
  0
LINE
  8
_0-0_0
  6
CONTINUOUS
 62
    7
 10
202.70554400000003
 20
766.66532849999999
 11
202.68961300000001
 21
766.45762649999995
  0
LINE
  8
_0-0_0
  6
CONTINUOUS
 62
    7
 10
202.68961300000001
 20
766.45762649999995
 11
202.68085499999995
 21
766.25077850000002
  0
LINE
  8
_0-0_0
  6
CONTINUOUS
 62
    7
 10
202.68085499999995
 20
766.25077850000002
 11
202.67922199999998
 21
766.04429649999997
  0
LINE
  8
_0-0_0
  6
CONTINUOUS
 62
    7
 10
202.67922199999998
 20
766.04429649999997
 11
202.68469200000004
 21
765.83772250000004
  0
LINE
  8
_0-0_0
  6
CONTINUOUS
 62
    7
 10
202.68469200000004
 20
765.83772250000004
 11
202.69729599999994
 21
765.63053850000006
  0
LINE
  8
_0-0_0
  6
CONTINUOUS
 62
    7
 10
202.69729599999994
 20
765.63053850000006
 11
202.71711700000003
 21
765.4222565
  0
LINE
  8
_0-0_0
  6
CONTINUOUS
 62
    7
 10
202.71711700000003
 20
765.4222565
 11
202.74426299999993
 21
765.21232550000002
  0
LINE
  8
_0-0_0
  6
CONTINUOUS
 62
    7
 10
202.74426299999993
 20
765.21232550000002
 11
202.778908
 21
765.00025949999997
  0
LINE
  8
_0-0_0
  6
CONTINUOUS
 62
    7
 10
202.778908
 20
765.00025949999997
 11
202.82125099999996
 21
764.78550749999999
  0
LINE
  8
_0-0_0
  6
CONTINUOUS
 62
    7
 10
202.82125099999996
 20
764.78550749999999
 11
202.87156700000003
 21
764.56748949999997
  0
LINE
  8
_0-0_0
  6
CONTINUOUS
 62
    7
 10
202.87156700000003
 20
764.56748949999997
 11
202.92581899999993
 21
764.36122150000006
  0
LINE
  8
_0-0_0
  6
CONTINUOUS
 62
    7
 10
202.92581899999993
 20
764.36122150000006
 11
202.987526
 21
764.15110749999997
  0
LINE
  8
_0-0_0
  6
CONTINUOUS
 62
    7
 10
202.987526
 20
764.15110749999997
 11
203.05704500000002
 21
763.93663049999998
  0
LINE
  8
_0-0_0
  6
CONTINUOUS
 62
    7
 10
203.05704500000002
 20
763.93663049999998
 11
203.13475800000003
 21
763.71723950000001
  0
LINE
  8
_0-0_0
  6
CONTINUOUS
 62
    7
 10
203.13475800000003
 20
763.71723950000001
 11
203.221138
 21
763.4922335
  0
LINE
  8
_0-0_0
  6
CONTINUOUS
 62
    7
 10
212.92896299999995
 20
763.4922335
 11
203.221138
 21
763.4922335
  0
ARC
  8
_0-0_0
  6
CONTINUOUS
 62
    7
 10
208.09268999999995
 20
769.34992950000003
 40
4.9136889999999998
 50
172.48898299999999
 51
187.51101699999998
  0
LINE
  8
_0-0_0
  6
CONTINUOUS
 62
    7
 10
212.92896299999995
 20
762.20762649999995
 11
203.221138
 21
762.20762649999995
  0
LINE
  8
_0-0_0
  6
CONTINUOUS
 62
    7
 10
203.221138
 20
759.59992950000003
 11
203.16665699999999
 21
759.66987549999999
  0
LINE
  8
_0-0_0
  6
CONTINUOUS
 62
    7
 10
203.16665699999999
 20
759.66987549999999
 11
203.11555499999997
 21
759.73869349999995
  0
LINE
  8
_0-0_0
  6
CONTINUOUS
 62
    7
 10
203.11555499999997
 20
759.73869349999995
 11
203.06791699999997
 21
759.80619750000005
  0
LINE
  8
_0-0_0
  6
CONTINUOUS
 62
    7
 10
203.06791699999997
 20
759.80619750000005
 11
203.023415
 21
759.87275650000004
  0
LINE
  8
_0-0_0
  6
CONTINUOUS
 62
    7
 10
203.023415
 20
759.87275650000004
 11
202.96868900000004
 21
759.96031149999999
  0
LINE
  8
_0-0_0
  6
CONTINUOUS
 62
    7
 10
202.96868900000004
 20
759.96031149999999
 11
202.91918899999996
 21
760.0464015
  0
LINE
  8
_0-0_0
  6
CONTINUOUS
 62
    7
 10
202.91918899999996
 20
760.0464015
 11
202.87471800000003
 21
760.13124049999999
  0
LINE
  8
_0-0_0
  6
CONTINUOUS
 62
    7
 10
202.87471800000003
 20
760.13124049999999
 11
202.82775100000003
 21
760.23155150000002
  0
LINE
  8
_0-0_0
  6
CONTINUOUS
 62
    7
 10
202.82775100000003
 20
760.23155150000002
 11
202.78754400000003
 21
760.3304895
  0
LINE
  8
_0-0_0
  6
CONTINUOUS
 62
    7
 10
202.78754400000003
 20
760.3304895
 11
202.75387599999999
 21
760.42823750000002
  0
LINE
  8
_0-0_0
  6
CONTINUOUS
 62
    7
 10
202.75387599999999
 20
760.42823750000002
 11
202.72659299999998
 21
760.52503950000005
  0
LINE
  8
_0-0_0
  6
CONTINUOUS
 62
    7
 10
202.72659299999998
 20
760.52503950000005
 11
202.70554400000003
 21
760.62107849999995
  0
LINE
  8
_0-0_0
  6
CONTINUOUS
 62
    7
 10
202.70554400000003
 20
760.62107849999995
 11
202.68961300000001
 21
760.72496049999995
  0
LINE
  8
_0-0_0
  6
CONTINUOUS
 62
    7
 10
202.68961300000001
 20
760.72496049999995
 11
202.68085499999995
 21
760.82838449999997
  0
LINE
  8
_0-0_0
  6
CONTINUOUS
 62
    7
 10
202.68085499999995
 20
760.82838449999997
 11
202.67922199999998
 21
760.93159449999996
  0
LINE
  8
_0-0_0
  6
CONTINUOUS
 62
    7
 10
202.67922199999998
 20
760.93159449999996
 11
202.68469200000004
 21
761.03489650000006
  0
LINE
  8
_0-0_0
  6
CONTINUOUS
 62
    7
 10
202.68469200000004
 20
761.03489650000006
 11
202.69729599999994
 21
761.13850349999996
  0
LINE
  8
_0-0_0
  6
CONTINUOUS
 62
    7
 10
202.69729599999994
 20
761.13850349999996
 11
202.71711700000003
 21
761.24262950000002
  0
LINE
  8
_0-0_0
  6
CONTINUOUS
 62
    7
 10
202.71711700000003
 20
761.24262950000002
 11
202.74426299999993
 21
761.34761049999997
  0
LINE
  8
_0-0_0
  6
CONTINUOUS
 62
    7
 10
202.74426299999993
 20
761.34761049999997
 11
202.778908
 21
761.45362850000004
  0
LINE
  8
_0-0_0
  6
CONTINUOUS
 62
    7
 10
202.778908
 20
761.45362850000004
 11
202.82125099999996
 21
761.56101950000004
  0
LINE
  8
_0-0_0
  6
CONTINUOUS
 62
    7
 10
202.82125099999996
 20
761.56101950000004
 11
202.87156700000003
 21
761.66999850000002
  0
LINE
  8
_0-0_0
  6
CONTINUOUS
 62
    7
 10
202.87156700000003
 20
761.66999850000002
 11
202.92581899999993
 21
761.77314750000005
  0
LINE
  8
_0-0_0
  6
CONTINUOUS
 62
    7
 10
202.92581899999993
 20
761.77314750000005
 11
202.987526
 21
761.8782195
  0
LINE
  8
_0-0_0
  6
CONTINUOUS
 62
    7
 10
202.987526
 20
761.8782195
 11
203.05704500000002
 21
761.98542750000001
  0
LINE
  8
_0-0_0
  6
CONTINUOUS
 62
    7
 10
203.05704500000002
 20
761.98542750000001
 11
203.13475800000003
 21
762.09513849999996
  0
LINE
  8
_0-0_0
  6
CONTINUOUS
 62
    7
 10
203.13475800000003
 20
762.09513849999996
 11
203.221138
 21
762.20762649999995
  0
LINE
  8
_0-0_0
  6
CONTINUOUS
 62
    7
 10
212.92896299999995
 20
759.59992950000003
 11
203.221138
 21
759.59992950000003
  0
ARC
  8
_0-0_0
  6
CONTINUOUS
 62
    7
 10
208.10285199999998
 20
762.84904449999999
 40
4.9238749999999998
 50
172.49424200000001
 51
181.535968
  0
ARC
  8
_0-0_0
  6
CONTINUOUS
 62
    7
 10
208.14087699999993
 20
762.85401950000005
 40
4.9620009999999999
 50
181.58130700000004
 51
187.48478900000003
  0
LINE
  8
_0-0_0
  6
CONTINUOUS
 62
    7
 10
203.17896299999995
 20
759.59992950000003
 11
203.221138
 21
759.59992950000003
  0
LINE
  8
_0-0_0
  6
CONTINUOUS
 62
    7
 10
197.92896299999995
 20
759.0253755
 11
197.67896299999995
 21
759.04994150000005
  0
LINE
  8
_0-0_0
  6
CONTINUOUS
 62
    7
 10
197.92896299999995
 20
758.82142650000003
 11
197.67896299999995
 21
759.04994150000005
  0
LINE
  8
_0-0_0
  6
CONTINUOUS
 62
    7
 10
197.92896299999995
 20
759.21592650000002
 11
197.67896299999995
 21
759.26939349999998
  0
LINE
  8
_0-0_0
  6
CONTINUOUS
 62
    7
 10
197.92896299999995
 20
759.0253755
 11
197.67896299999995
 21
759.26939349999998
  0
LINE
  8
_0-0_0
  6
CONTINUOUS
 62
    7
 10
197.92896299999995
 20
759.39094550000004
 11
197.67896299999995
 21
759.47276250000004
  0
LINE
  8
_0-0_0
  6
CONTINUOUS
 62
    7
 10
197.92896299999995
 20
759.21592650000002
 11
197.67896299999995
 21
759.47276250000004
  0
LINE
  8
_0-0_0
  6
CONTINUOUS
 62
    7
 10
197.92896299999995
 20
759.54850750000003
 11
197.67896299999995
 21
759.65779150000003
  0
LINE
  8
_0-0_0
  6
CONTINUOUS
 62
    7
 10
197.92896299999995
 20
759.39094550000004
 11
197.67896299999995
 21
759.65779150000003
  0
LINE
  8
_0-0_0
  6
CONTINUOUS
 62
    7
 10
197.92896299999995
 20
759.68696550000004
 11
197.67896299999995
 21
759.82249449999995
  0
LINE
  8
_0-0_0
  6
CONTINUOUS
 62
    7
 10
197.92896299999995
 20
759.54850750000003
 11
197.67896299999995
 21
759.82249449999995
  0
LINE
  8
_0-0_0
  6
CONTINUOUS
 62
    7
 10
197.92896299999995
 20
759.80470249999996
 11
197.67896299999995
 21
759.96501150000006
  0
LINE
  8
_0-0_0
  6
CONTINUOUS
 62
    7
 10
197.92896299999995
 20
759.68696550000004
 11
197.67896299999995
 21
759.96501150000006
  0
LINE
  8
_0-0_0
  6
CONTINUOUS
 62
    7
 10
197.92896299999995
 20
759.90049750000003
 11
197.67896299999995
 21
760.08381650000001
  0
LINE
  8
_0-0_0
  6
CONTINUOUS
 62
    7
 10
197.92896299999995
 20
759.80470249999996
 11
197.67896299999995
 21
760.08381650000001
  0
LINE
  8
_0-0_0
  6
CONTINUOUS
 62
    7
 10
197.92896299999995
 20
759.97328149999998
 11
197.67896299999995
 21
760.17759650000005
  0
LINE
  8
_0-0_0
  6
CONTINUOUS
 62
    7
 10
197.92896299999995
 20
759.90049750000003
 11
197.67896299999995
 21
760.17759650000005
  0
LINE
  8
_0-0_0
  6
CONTINUOUS
 62
    7
 10
197.92896299999995
 20
760.02223149999998
 11
197.67896299999995
 21
760.24531549999995
  0
LINE
  8
_0-0_0
  6
CONTINUOUS
 62
    7
 10
197.92896299999995
 20
759.97328149999998
 11
197.67896299999995
 21
760.24531549999995
  0
LINE
  8
_0-0_0
  6
CONTINUOUS
 62
    7
 10
197.92896299999995
 20
760.04685949999998
 11
197.67896299999995
 21
760.28623949999997
  0
LINE
  8
_0-0_0
  6
CONTINUOUS
 62
    7
 10
197.92896299999995
 20
760.02223149999998
 11
197.67896299999995
 21
760.28623949999997
  0
LINE
  8
_0-0_0
  6
CONTINUOUS
 62
    7
 10
197.92896299999995
 20
760.04685949999998
 11
197.67896299999995
 21
760.29994150000005
  0
LINE
  8
_0-0_0
  6
CONTINUOUS
 62
    7
 10
197.92896299999995
 20
755.55302449999999
 11
197.67896299999995
 21
755.29994150000005
  0
LINE
  8
_0-0_0
  6
CONTINUOUS
 62
    7
 10
197.92896299999995
 20
755.5776515
 11
197.67896299999995
 21
755.31364450000001
  0
LINE
  8
_0-0_0
  6
CONTINUOUS
 62
    7
 10
197.92896299999995
 20
755.55302449999999
 11
197.67896299999995
 21
755.31364450000001
  0
LINE
  8
_0-0_0
  6
CONTINUOUS
 62
    7
 10
197.92896299999995
 20
755.62660249999999
 11
197.67896299999995
 21
755.35456850000003
  0
LINE
  8
_0-0_0
  6
CONTINUOUS
 62
    7
 10
197.92896299999995
 20
755.5776515
 11
197.67896299999995
 21
755.35456850000003
  0
LINE
  8
_0-0_0
  6
CONTINUOUS
 62
    7
 10
197.92896299999995
 20
755.69938650000006
 11
197.67896299999995
 21
755.42228650000004
  0
LINE
  8
_0-0_0
  6
CONTINUOUS
 62
    7
 10
197.92896299999995
 20
755.62660249999999
 11
197.67896299999995
 21
755.42228650000004
  0
LINE
  8
_0-0_0
  6
CONTINUOUS
 62
    7
 10
197.92896299999995
 20
755.79518150000001
 11
197.67896299999995
 21
755.51606749999996
  0
LINE
  8
_0-0_0
  6
CONTINUOUS
 62
    7
 10
197.92896299999995
 20
755.69938650000006
 11
197.67896299999995
 21
755.51606749999996
  0
LINE
  8
_0-0_0
  6
CONTINUOUS
 62
    7
 10
197.92896299999995
 20
755.79518150000001
 11
197.79899599999999
 21
755.71131849999995
  0
LINE
  8
_0-0_0
  6
CONTINUOUS
 62
    7
 10
197.92896299999995
 20
755.91291750000005
 11
197.67896299999995
 21
755.63487250000003
  0
LINE
  8
_0-0_0
  6
CONTINUOUS
 62
    7
 10
197.79899599999999
 20
755.71131849999995
 11
197.67896299999995
 21
755.63487250000003
  0
LINE
  8
_0-0_0
  6
CONTINUOUS
 62
    7
 10
197.92896299999995
 20
756.05137649999995
 11
197.67896299999995
 21
755.77738950000003
  0
LINE
  8
_0-0_0
  6
CONTINUOUS
 62
    7
 10
197.92896299999995
 20
755.91291750000005
 11
197.67896299999995
 21
755.77738950000003
  0
LINE
  8
_0-0_0
  6
CONTINUOUS
 62
    7
 10
197.92896299999995
 20
756.20896849999997
 11
197.67896299999995
 21
755.94209250000006
  0
LINE
  8
_0-0_0
  6
CONTINUOUS
 62
    7
 10
197.92896299999995
 20
756.05137649999995
 11
197.67896299999995
 21
755.94209250000006
  0
LINE
  8
_0-0_0
  6
CONTINUOUS
 62
    7
 10
197.92896299999995
 20
756.38398749999999
 11
197.67896299999995
 21
756.12712050000005
  0
LINE
  8
_0-0_0
  6
CONTINUOUS
 62
    7
 10
197.92896299999995
 20
756.20896849999997
 11
197.67896299999995
 21
756.12712050000005
  0
LINE
  8
_0-0_0
  6
CONTINUOUS
 62
    7
 10
197.92896299999995
 20
756.57450849999998
 11
197.67896299999995
 21
756.3304895
  0
LINE
  8
_0-0_0
  6
CONTINUOUS
 62
    7
 10
197.92896299999995
 20
756.38398749999999
 11
197.67896299999995
 21
756.3304895
  0
LINE
  8
_0-0_0
  6
CONTINUOUS
 62
    7
 10
197.92896299999995
 20
756.77845750000006
 11
197.67896299999995
 21
756.54994150000005
  0
LINE
  8
_0-0_0
  6
CONTINUOUS
 62
    7
 10
197.92896299999995
 20
756.57450849999998
 11
197.67896299999995
 21
756.54994150000005
  0
LINE
  8
_0-0_0
  6
CONTINUOUS
 62
    7
 10
197.92896299999995
 20
756.99360650000006
 11
197.67896299999995
 21
756.78309650000006
  0
LINE
  8
_0-0_0
  6
CONTINUOUS
 62
    7
 10
197.92896299999995
 20
756.77845750000006
 11
197.67896299999995
 21
756.78309650000006
  0
LINE
  8
_0-0_0
  6
CONTINUOUS
 62
    7
 10
197.92896299999995
 20
757.21760549999999
 11
197.67896299999995
 21
757.02738950000003
  0
LINE
  8
_0-0_0
  6
CONTINUOUS
 62
    7
 10
197.92896299999995
 20
756.99360650000006
 11
197.67896299999995
 21
757.02738950000003
  0
LINE
  8
_0-0_0
  6
CONTINUOUS
 62
    7
 10
197.92896299999995
 20
757.44795250000004
 11
197.67896299999995
 21
757.28016649999995
  0
LINE
  8
_0-0_0
  6
CONTINUOUS
 62
    7
 10
197.92896299999995
 20
757.21760549999999
 11
197.67896299999995
 21
757.28016649999995
  0
LINE
  8
_0-0_0
  6
CONTINUOUS
 62
    7
 10
197.92896299999995
 20
757.68217449999997
 11
197.67896299999995
 21
757.53861949999998
  0
LINE
  8
_0-0_0
  6
CONTINUOUS
 62
    7
 10
197.92896299999995
 20
757.44795250000004
 11
197.67896299999995
 21
757.53861949999998
  0
LINE
  8
_0-0_0
  6
CONTINUOUS
 62
    7
 10
197.92896299999995
 20
757.9177095
 11
197.67896299999995
 21
757.79994150000005
  0
LINE
  8
_0-0_0
  6
CONTINUOUS
 62
    7
 10
197.92896299999995
 20
757.68217449999997
 11
197.67896299999995
 21
757.79994150000005
  0
LINE
  8
_0-0_0
  6
CONTINUOUS
 62
    7
 10
197.92896299999995
 20
758.15193150000005
 11
197.67896299999995
 21
758.0612635
  0
LINE
  8
_0-0_0
  6
CONTINUOUS
 62
    7
 10
197.92896299999995
 20
757.9177095
 11
197.67896299999995
 21
758.0612635
  0
LINE
  8
_0-0_0
  6
CONTINUOUS
 62
    7
 10
197.92896299999995
 20
758.38227849999998
 11
197.67896299999995
 21
758.31971750000002
  0
LINE
  8
_0-0_0
  6
CONTINUOUS
 62
    7
 10
197.92896299999995
 20
758.15193150000005
 11
197.67896299999995
 21
758.31971750000002
  0
LINE
  8
_0-0_0
  6
CONTINUOUS
 62
    7
 10
197.92896299999995
 20
758.60627750000003
 11
197.67896299999995
 21
758.57249449999995
  0
LINE
  8
_0-0_0
  6
CONTINUOUS
 62
    7
 10
197.92896299999995
 20
758.38227849999998
 11
197.67896299999995
 21
758.57249449999995
  0
LINE
  8
_0-0_0
  6
CONTINUOUS
 62
    7
 10
197.92896299999995
 20
758.82142650000003
 11
197.67896299999995
 21
758.81678750000003
  0
LINE
  8
_0-0_0
  6
CONTINUOUS
 62
    7
 10
197.92896299999995
 20
758.60627750000003
 11
197.67896299999995
 21
758.81678750000003
  0
LINE
  8
_0-0_0
  6
CONTINUOUS
 62
    7
 10
188.17896299999995
 20
775.6253815
 11
188.42896299999995
 21
775.64994750000005
  0
LINE
  8
_0-0_0
  6
CONTINUOUS
 62
    7
 10
188.42896299999995
 20
775.64994750000005
 11
197.67896299999995
 21
775.64994750000005
  0
LINE
  8
_0-0_0
  6
CONTINUOUS
 62
    7
 10
188.17896299999995
 20
775.42143250000004
 11
188.42896299999995
 21
775.64994750000005
  0
LINE
  8
_0-0_0
  6
CONTINUOUS
 62
    7
 10
188.17896299999995
 20
775.42143250000004
 11
197.92896299999995
 21
775.42143250000004
  0
LINE
  8
_0-0_0
  6
CONTINUOUS
 62
    7
 10
188.17896299999995
 20
775.81590249999999
 11
188.42896299999995
 21
775.86939949999999
  0
LINE
  8
_0-0_0
  6
CONTINUOUS
 62
    7
 10
188.42896299999995
 20
775.86939949999999
 11
197.67896299999995
 21
775.86939949999999
  0
LINE
  8
_0-0_0
  6
CONTINUOUS
 62
    7
 10
188.17896299999995
 20
775.6253815
 11
188.42896299999995
 21
775.86939949999999
  0
LINE
  8
_0-0_0
  6
CONTINUOUS
 62
    7
 10
188.17896299999995
 20
775.99092050000002
 11
188.42896299999995
 21
776.07276950000005
  0
LINE
  8
_0-0_0
  6
CONTINUOUS
 62
    7
 10
188.42896299999995
 20
776.07276950000005
 11
197.67896299999995
 21
776.07276950000005
  0
LINE
  8
_0-0_0
  6
CONTINUOUS
 62
    7
 10
188.17896299999995
 20
775.81590249999999
 11
188.42896299999995
 21
776.07276950000005
  0
LINE
  8
_0-0_0
  6
CONTINUOUS
 62
    7
 10
188.17896299999995
 20
776.14851350000004
 11
188.42896299999995
 21
776.25779750000004
  0
LINE
  8
_0-0_0
  6
CONTINUOUS
 62
    7
 10
188.42896299999995
 20
776.25779750000004
 11
197.67896299999995
 21
776.25779750000004
  0
LINE
  8
_0-0_0
  6
CONTINUOUS
 62
    7
 10
188.17896299999995
 20
775.99092050000002
 11
188.42896299999995
 21
776.25779750000004
  0
LINE
  8
_0-0_0
  6
CONTINUOUS
 62
    7
 10
188.17896299999995
 20
776.28694150000001
 11
188.42896299999995
 21
776.42250049999996
  0
LINE
  8
_0-0_0
  6
CONTINUOUS
 62
    7
 10
188.42896299999995
 20
776.42250049999996
 11
197.67896299999995
 21
776.42250049999996
  0
LINE
  8
_0-0_0
  6
CONTINUOUS
 62
    7
 10
188.17896299999995
 20
776.14851350000004
 11
188.42896299999995
 21
776.42250049999996
  0
LINE
  8
_0-0_0
  6
CONTINUOUS
 62
    7
 10
188.17896299999995
 20
776.40470849999997
 11
188.42896299999995
 21
776.56501749999995
  0
LINE
  8
_0-0_0
  6
CONTINUOUS
 62
    7
 10
188.42896299999995
 20
776.56501749999995
 11
197.67896299999995
 21
776.56501749999995
  0
LINE
  8
_0-0_0
  6
CONTINUOUS
 62
    7
 10
188.17896299999995
 20
776.28694150000001
 11
188.42896299999995
 21
776.56501749999995
  0
LINE
  8
_0-0_0
  6
CONTINUOUS
 62
    7
 10
188.17896299999995
 20
776.50050350000004
 11
188.42896299999995
 21
776.68379149999998
  0
LINE
  8
_0-0_0
  6
CONTINUOUS
 62
    7
 10
188.42896299999995
 20
776.68379149999998
 11
197.67896299999995
 21
776.68379149999998
  0
LINE
  8
_0-0_0
  6
CONTINUOUS
 62
    7
 10
188.17896299999995
 20
776.40470849999997
 11
188.42896299999995
 21
776.68379149999998
  0
LINE
  8
_0-0_0
  6
CONTINUOUS
 62
    7
 10
188.17896299999995
 20
776.57328749999999
 11
188.42896299999995
 21
776.77757250000002
  0
LINE
  8
_0-0_0
  6
CONTINUOUS
 62
    7
 10
188.42896299999995
 20
776.77757250000002
 11
197.67896299999995
 21
776.77757250000002
  0
LINE
  8
_0-0_0
  6
CONTINUOUS
 62
    7
 10
188.17896299999995
 20
776.50050350000004
 11
188.42896299999995
 21
776.77757250000002
  0
LINE
  8
_0-0_0
  6
CONTINUOUS
 62
    7
 10
188.17896299999995
 20
776.62223849999998
 11
188.42896299999995
 21
776.84532149999995
  0
LINE
  8
_0-0_0
  6
CONTINUOUS
 62
    7
 10
188.42896299999995
 20
776.84532149999995
 11
197.67896299999995
 21
776.84532149999995
  0
LINE
  8
_0-0_0
  6
CONTINUOUS
 62
    7
 10
188.17896299999995
 20
776.57328749999999
 11
188.42896299999995
 21
776.84532149999995
  0
LINE
  8
_0-0_0
  6
CONTINUOUS
 62
    7
 10
188.17896299999995
 20
776.64686549999999
 11
188.42896299999995
 21
776.88624549999997
  0
LINE
  8
_0-0_0
  6
CONTINUOUS
 62
    7
 10
188.42896299999995
 20
776.88624549999997
 11
197.67896299999995
 21
776.88624549999997
  0
LINE
  8
_0-0_0
  6
CONTINUOUS
 62
    7
 10
188.17896299999995
 20
776.62223849999998
 11
188.42896299999995
 21
776.88624549999997
  0
LINE
  8
_0-0_0
  6
CONTINUOUS
 62
    7
 10
188.42896299999995
 20
776.89994750000005
 11
197.67896299999995
 21
776.89994750000005
  0
LINE
  8
_0-0_0
  6
CONTINUOUS
 62
    7
 10
188.17896299999995
 20
776.64686549999999
 11
188.42896299999995
 21
776.89994750000005
  0
LINE
  8
_0-0_0
  6
CONTINUOUS
 62
    7
 10
188.17896299999995
 20
772.1530305
 11
188.42896299999995
 21
771.89994750000005
  0
LINE
  8
_0-0_0
  6
CONTINUOUS
 62
    7
 10
188.42896299999995
 20
771.89994750000005
 11
197.67896299999995
 21
771.89994750000005
  0
LINE
  8
_0-0_0
  6
CONTINUOUS
 62
    7
 10
188.17896299999995
 20
772.17765750000001
 11
188.42896299999995
 21
771.91365050000002
  0
LINE
  8
_0-0_0
  6
CONTINUOUS
 62
    7
 10
188.42896299999995
 20
771.91365050000002
 11
197.67896299999995
 21
771.91365050000002
  0
LINE
  8
_0-0_0
  6
CONTINUOUS
 62
    7
 10
188.17896299999995
 20
772.1530305
 11
188.42896299999995
 21
771.91365050000002
  0
LINE
  8
_0-0_0
  6
CONTINUOUS
 62
    7
 10
188.17896299999995
 20
772.2266085
 11
188.42896299999995
 21
771.95457450000004
  0
LINE
  8
_0-0_0
  6
CONTINUOUS
 62
    7
 10
188.42896299999995
 20
771.95457450000004
 11
197.67896299999995
 21
771.95457450000004
  0
LINE
  8
_0-0_0
  6
CONTINUOUS
 62
    7
 10
188.17896299999995
 20
772.17765750000001
 11
188.42896299999995
 21
771.95457450000004
  0
LINE
  8
_0-0_0
  6
CONTINUOUS
 62
    7
 10
188.17896299999995
 20
772.29939249999995
 11
188.42896299999995
 21
772.02229250000005
  0
LINE
  8
_0-0_0
  6
CONTINUOUS
 62
    7
 10
188.42896299999995
 20
772.02229250000005
 11
197.67896299999995
 21
772.02229250000005
  0
LINE
  8
_0-0_0
  6
CONTINUOUS
 62
    7
 10
188.17896299999995
 20
772.2266085
 11
188.42896299999995
 21
772.02229250000005
  0
LINE
  8
_0-0_0
  6
CONTINUOUS
 62
    7
 10
188.17896299999995
 20
772.39518750000002
 11
188.42896299999995
 21
772.11607349999997
  0
LINE
  8
_0-0_0
  6
CONTINUOUS
 62
    7
 10
188.42896299999995
 20
772.11607349999997
 11
197.67896299999995
 21
772.11607349999997
  0
LINE
  8
_0-0_0
  6
CONTINUOUS
 62
    7
 10
188.17896299999995
 20
772.29939249999995
 11
188.42896299999995
 21
772.11607349999997
  0
LINE
  8
_0-0_0
  6
CONTINUOUS
 62
    7
 10
188.42896299999995
 20
772.23487850000004
 11
197.67896299999995
 21
772.23487850000004
  0
LINE
  8
_0-0_0
  6
CONTINUOUS
 62
    7
 10
188.30892900000003
 20
772.31132449999996
 11
188.42896299999995
 21
772.23487850000004
  0
LINE
  8
_0-0_0
  6
CONTINUOUS
 62
    7
 10
188.17896299999995
 20
772.39518750000002
 11
188.30892900000003
 21
772.31132449999996
  0
LINE
  8
_0-0_0
  6
CONTINUOUS
 62
    7
 10
188.17896299999995
 20
772.51292450000005
 11
188.42896299999995
 21
772.23487850000004
  0
LINE
  8
_0-0_0
  6
CONTINUOUS
 62
    7
 10
188.17896299999995
 20
772.65135150000003
 11
188.42896299999995
 21
772.37739550000003
  0
LINE
  8
_0-0_0
  6
CONTINUOUS
 62
    7
 10
188.42896299999995
 20
772.37739550000003
 11
197.67896299999995
 21
772.37739550000003
  0
LINE
  8
_0-0_0
  6
CONTINUOUS
 62
    7
 10
188.17896299999995
 20
772.51292450000005
 11
188.42896299999995
 21
772.37739550000003
  0
LINE
  8
_0-0_0
  6
CONTINUOUS
 62
    7
 10
188.17896299999995
 20
772.80894450000005
 11
188.42896299999995
 21
772.54206850000003
  0
LINE
  8
_0-0_0
  6
CONTINUOUS
 62
    7
 10
188.42896299999995
 20
772.54206850000003
 11
197.67896299999995
 21
772.54206850000003
  0
LINE
  8
_0-0_0
  6
CONTINUOUS
 62
    7
 10
188.17896299999995
 20
772.65135150000003
 11
188.42896299999995
 21
772.54206850000003
  0
LINE
  8
_0-0_0
  6
CONTINUOUS
 62
    7
 10
188.17896299999995
 20
772.98396249999996
 11
188.42896299999995
 21
772.72712650000005
  0
LINE
  8
_0-0_0
  6
CONTINUOUS
 62
    7
 10
188.42896299999995
 20
772.72712650000005
 11
197.67896299999995
 21
772.72712650000005
  0
LINE
  8
_0-0_0
  6
CONTINUOUS
 62
    7
 10
188.17896299999995
 20
772.80894450000005
 11
188.42896299999995
 21
772.72712650000005
  0
LINE
  8
_0-0_0
  6
CONTINUOUS
 62
    7
 10
188.17896299999995
 20
773.17451449999999
 11
188.42896299999995
 21
772.9304965
  0
LINE
  8
_0-0_0
  6
CONTINUOUS
 62
    7
 10
188.42896299999995
 20
772.9304965
 11
197.67896299999995
 21
772.9304965
  0
LINE
  8
_0-0_0
  6
CONTINUOUS
 62
    7
 10
188.17896299999995
 20
772.98396249999996
 11
188.42896299999995
 21
772.9304965
  0
LINE
  8
_0-0_0
  6
CONTINUOUS
 62
    7
 10
188.17896299999995
 20
773.37846349999995
 11
188.42896299999995
 21
773.14994750000005
  0
LINE
  8
_0-0_0
  6
CONTINUOUS
 62
    7
 10
188.42896299999995
 20
773.14994750000005
 11
197.67896299999995
 21
773.14994750000005
  0
LINE
  8
_0-0_0
  6
CONTINUOUS
 62
    7
 10
188.17896299999995
 20
773.37846349999995
 11
197.92896299999995
 21
773.37846349999995
  0
LINE
  8
_0-0_0
  6
CONTINUOUS
 62
    7
 10
188.17896299999995
 20
773.17451449999999
 11
188.42896299999995
 21
773.14994750000005
  0
LINE
  8
_0-0_0
  6
CONTINUOUS
 62
    7
 10
188.17896299999995
 20
773.59361249999995
 11
188.42896299999995
 21
773.38310249999995
  0
LINE
  8
_0-0_0
  6
CONTINUOUS
 62
    7
 10
188.42896299999995
 20
773.38310249999995
 11
197.67896299999995
 21
773.38310249999995
  0
LINE
  8
_0-0_0
  6
CONTINUOUS
 62
    7
 10
188.17896299999995
 20
773.59361249999995
 11
197.92896299999995
 21
773.59361249999995
  0
LINE
  8
_0-0_0
  6
CONTINUOUS
 62
    7
 10
188.17896299999995
 20
773.37846349999995
 11
188.42896299999995
 21
773.38310249999995
  0
LINE
  8
_0-0_0
  6
CONTINUOUS
 62
    7
 10
188.17896299999995
 20
773.8176115
 11
188.42896299999995
 21
773.62739550000003
  0
LINE
  8
_0-0_0
  6
CONTINUOUS
 62
    7
 10
188.42896299999995
 20
773.62739550000003
 11
197.67896299999995
 21
773.62739550000003
  0
LINE
  8
_0-0_0
  6
CONTINUOUS
 62
    7
 10
188.17896299999995
 20
773.8176115
 11
197.92896299999995
 21
773.8176115
  0
LINE
  8
_0-0_0
  6
CONTINUOUS
 62
    7
 10
188.17896299999995
 20
773.59361249999995
 11
188.42896299999995
 21
773.62739550000003
  0
LINE
  8
_0-0_0
  6
CONTINUOUS
 62
    7
 10
188.17896299999995
 20
774.04795850000005
 11
188.42896299999995
 21
773.88017249999996
  0
LINE
  8
_0-0_0
  6
CONTINUOUS
 62
    7
 10
188.42896299999995
 20
773.88017249999996
 11
197.67896299999995
 21
773.88017249999996
  0
LINE
  8
_0-0_0
  6
CONTINUOUS
 62
    7
 10
188.17896299999995
 20
774.04795850000005
 11
197.92896299999995
 21
774.04795850000005
  0
LINE
  8
_0-0_0
  6
CONTINUOUS
 62
    7
 10
188.17896299999995
 20
773.8176115
 11
188.42896299999995
 21
773.88017249999996
  0
LINE
  8
_0-0_0
  6
CONTINUOUS
 62
    7
 10
188.17896299999995
 20
774.28218049999998
 11
188.42896299999995
 21
774.13862549999999
  0
LINE
  8
_0-0_0
  6
CONTINUOUS
 62
    7
 10
188.42896299999995
 20
774.13862549999999
 11
197.67896299999995
 21
774.13862549999999
  0
LINE
  8
_0-0_0
  6
CONTINUOUS
 62
    7
 10
188.17896299999995
 20
774.28218049999998
 11
197.92896299999995
 21
774.28218049999998
  0
LINE
  8
_0-0_0
  6
CONTINUOUS
 62
    7
 10
188.17896299999995
 20
774.04795850000005
 11
188.42896299999995
 21
774.13862549999999
  0
LINE
  8
_0-0_0
  6
CONTINUOUS
 62
    7
 10
188.17896299999995
 20
774.51771550000001
 11
188.42896299999995
 21
774.39994750000005
  0
LINE
  8
_0-0_0
  6
CONTINUOUS
 62
    7
 10
188.42896299999995
 20
774.39994750000005
 11
197.67896299999995
 21
774.39994750000005
  0
LINE
  8
_0-0_0
  6
CONTINUOUS
 62
    7
 10
188.17896299999995
 20
774.51771550000001
 11
197.92896299999995
 21
774.51771550000001
  0
LINE
  8
_0-0_0
  6
CONTINUOUS
 62
    7
 10
188.17896299999995
 20
774.28218049999998
 11
188.42896299999995
 21
774.39994750000005
  0
LINE
  8
_0-0_0
  6
CONTINUOUS
 62
    7
 10
188.17896299999995
 20
774.75190750000002
 11
188.42896299999995
 21
774.6612705
  0
LINE
  8
_0-0_0
  6
CONTINUOUS
 62
    7
 10
188.42896299999995
 20
774.6612705
 11
197.67896299999995
 21
774.6612705
  0
LINE
  8
_0-0_0
  6
CONTINUOUS
 62
    7
 10
188.17896299999995
 20
774.75190750000002
 11
197.92896299999995
 21
774.75190750000002
  0
LINE
  8
_0-0_0
  6
CONTINUOUS
 62
    7
 10
188.17896299999995
 20
774.51771550000001
 11
188.42896299999995
 21
774.6612705
  0
LINE
  8
_0-0_0
  6
CONTINUOUS
 62
    7
 10
188.17896299999995
 20
774.98228449999999
 11
188.42896299999995
 21
774.91972350000003
  0
LINE
  8
_0-0_0
  6
CONTINUOUS
 62
    7
 10
188.42896299999995
 20
774.91972350000003
 11
197.67896299999995
 21
774.91972350000003
  0
LINE
  8
_0-0_0
  6
CONTINUOUS
 62
    7
 10
188.17896299999995
 20
774.98228449999999
 11
197.92896299999995
 21
774.98228449999999
  0
LINE
  8
_0-0_0
  6
CONTINUOUS
 62
    7
 10
188.17896299999995
 20
774.75190750000002
 11
188.42896299999995
 21
774.91972350000003
  0
LINE
  8
_0-0_0
  6
CONTINUOUS
 62
    7
 10
188.17896299999995
 20
775.20628350000004
 11
188.42896299999995
 21
775.17250049999996
  0
LINE
  8
_0-0_0
  6
CONTINUOUS
 62
    7
 10
188.42896299999995
 20
775.17250049999996
 11
197.67896299999995
 21
775.17250049999996
  0
LINE
  8
_0-0_0
  6
CONTINUOUS
 62
    7
 10
188.17896299999995
 20
775.20628350000004
 11
197.92896299999995
 21
775.20628350000004
  0
LINE
  8
_0-0_0
  6
CONTINUOUS
 62
    7
 10
188.17896299999995
 20
774.98228449999999
 11
188.42896299999995
 21
775.17250049999996
  0
LINE
  8
_0-0_0
  6
CONTINUOUS
 62
    7
 10
188.17896299999995
 20
775.42143250000004
 11
188.42896299999995
 21
775.41679350000004
  0
LINE
  8
_0-0_0
  6
CONTINUOUS
 62
    7
 10
188.42896299999995
 20
775.41679350000004
 11
197.67896299999995
 21
775.41679350000004
  0
LINE
  8
_0-0_0
  6
CONTINUOUS
 62
    7
 10
188.17896299999995
 20
775.20628350000004
 11
188.42896299999995
 21
775.41679350000004
  0
LINE
  8
_0-0_0
  6
CONTINUOUS
 62
    7
 10
201.92896299999995
 20
771.34992950000003
 11
201.92896299999995
 21
763.36839250000003
  0
LINE
  8
_0-0_0
  6
CONTINUOUS
 62
    7
 10
201.92896299999995
 20
763.36839250000003
 11
201.92896299999995
 21
760.84992950000003
  0
LINE
  8
_0-0_0
  6
CONTINUOUS
 62
    7
 10
188.17896299999995
 20
759.0253755
 11
188.42896299999995
 21
759.04994150000005
  0
LINE
  8
_0-0_0
  6
CONTINUOUS
 62
    7
 10
188.42896299999995
 20
759.04994150000005
 11
197.67896299999995
 21
759.04994150000005
  0
LINE
  8
_0-0_0
  6
CONTINUOUS
 62
    7
 10
188.17896299999995
 20
758.82142650000003
 11
188.42896299999995
 21
759.04994150000005
  0
LINE
  8
_0-0_0
  6
CONTINUOUS
 62
    7
 10
188.17896299999995
 20
758.82142650000003
 11
197.92896299999995
 21
758.82142650000003
  0
LINE
  8
_0-0_0
  6
CONTINUOUS
 62
    7
 10
188.17896299999995
 20
759.21592650000002
 11
188.42896299999995
 21
759.26939349999998
  0
LINE
  8
_0-0_0
  6
CONTINUOUS
 62
    7
 10
188.42896299999995
 20
759.26939349999998
 11
197.67896299999995
 21
759.26939349999998
  0
LINE
  8
_0-0_0
  6
CONTINUOUS
 62
    7
 10
188.17896299999995
 20
759.0253755
 11
188.42896299999995
 21
759.26939349999998
  0
LINE
  8
_0-0_0
  6
CONTINUOUS
 62
    7
 10
188.17896299999995
 20
759.39094550000004
 11
188.42896299999995
 21
759.47276250000004
  0
LINE
  8
_0-0_0
  6
CONTINUOUS
 62
    7
 10
188.42896299999995
 20
759.47276250000004
 11
197.67896299999995
 21
759.47276250000004
  0
LINE
  8
_0-0_0
  6
CONTINUOUS
 62
    7
 10
188.17896299999995
 20
759.21592650000002
 11
188.42896299999995
 21
759.47276250000004
  0
LINE
  8
_0-0_0
  6
CONTINUOUS
 62
    7
 10
188.17896299999995
 20
759.54850750000003
 11
188.42896299999995
 21
759.65779150000003
  0
LINE
  8
_0-0_0
  6
CONTINUOUS
 62
    7
 10
188.42896299999995
 20
759.65779150000003
 11
197.67896299999995
 21
759.65779150000003
  0
LINE
  8
_0-0_0
  6
CONTINUOUS
 62
    7
 10
188.17896299999995
 20
759.39094550000004
 11
188.42896299999995
 21
759.65779150000003
  0
LINE
  8
_0-0_0
  6
CONTINUOUS
 62
    7
 10
188.17896299999995
 20
759.68696550000004
 11
188.42896299999995
 21
759.82249449999995
  0
LINE
  8
_0-0_0
  6
CONTINUOUS
 62
    7
 10
188.42896299999995
 20
759.82249449999995
 11
197.67896299999995
 21
759.82249449999995
  0
LINE
  8
_0-0_0
  6
CONTINUOUS
 62
    7
 10
188.17896299999995
 20
759.54850750000003
 11
188.42896299999995
 21
759.82249449999995
  0
LINE
  8
_0-0_0
  6
CONTINUOUS
 62
    7
 10
188.17896299999995
 20
759.80470249999996
 11
188.42896299999995
 21
759.96501150000006
  0
LINE
  8
_0-0_0
  6
CONTINUOUS
 62
    7
 10
188.42896299999995
 20
759.96501150000006
 11
197.67896299999995
 21
759.96501150000006
  0
LINE
  8
_0-0_0
  6
CONTINUOUS
 62
    7
 10
188.17896299999995
 20
759.68696550000004
 11
188.42896299999995
 21
759.96501150000006
  0
LINE
  8
_0-0_0
  6
CONTINUOUS
 62
    7
 10
188.17896299999995
 20
759.90049750000003
 11
188.42896299999995
 21
760.08381650000001
  0
LINE
  8
_0-0_0
  6
CONTINUOUS
 62
    7
 10
188.42896299999995
 20
760.08381650000001
 11
197.67896299999995
 21
760.08381650000001
  0
LINE
  8
_0-0_0
  6
CONTINUOUS
 62
    7
 10
188.17896299999995
 20
759.80470249999996
 11
188.42896299999995
 21
760.08381650000001
  0
LINE
  8
_0-0_0
  6
CONTINUOUS
 62
    7
 10
188.17896299999995
 20
759.97328149999998
 11
188.42896299999995
 21
760.17759650000005
  0
LINE
  8
_0-0_0
  6
CONTINUOUS
 62
    7
 10
188.42896299999995
 20
760.17759650000005
 11
197.67896299999995
 21
760.17759650000005
  0
LINE
  8
_0-0_0
  6
CONTINUOUS
 62
    7
 10
188.17896299999995
 20
759.90049750000003
 11
188.42896299999995
 21
760.17759650000005
  0
LINE
  8
_0-0_0
  6
CONTINUOUS
 62
    7
 10
188.17896299999995
 20
760.02223149999998
 11
188.42896299999995
 21
760.24531549999995
  0
LINE
  8
_0-0_0
  6
CONTINUOUS
 62
    7
 10
188.42896299999995
 20
760.24531549999995
 11
197.67896299999995
 21
760.24531549999995
  0
LINE
  8
_0-0_0
  6
CONTINUOUS
 62
    7
 10
188.17896299999995
 20
759.97328149999998
 11
188.42896299999995
 21
760.24531549999995
  0
LINE
  8
_0-0_0
  6
CONTINUOUS
 62
    7
 10
188.17896299999995
 20
760.04685949999998
 11
188.42896299999995
 21
760.28623949999997
  0
LINE
  8
_0-0_0
  6
CONTINUOUS
 62
    7
 10
188.42896299999995
 20
760.28623949999997
 11
197.67896299999995
 21
760.28623949999997
  0
LINE
  8
_0-0_0
  6
CONTINUOUS
 62
    7
 10
188.17896299999995
 20
760.02223149999998
 11
188.42896299999995
 21
760.28623949999997
  0
LINE
  8
_0-0_0
  6
CONTINUOUS
 62
    7
 10
188.42896299999995
 20
760.29994150000005
 11
197.67896299999995
 21
760.29994150000005
  0
LINE
  8
_0-0_0
  6
CONTINUOUS
 62
    7
 10
188.17896299999995
 20
760.04685949999998
 11
188.42896299999995
 21
760.29994150000005
  0
LINE
  8
_0-0_0
  6
CONTINUOUS
 62
    7
 10
188.17896299999995
 20
755.55302449999999
 11
188.42896299999995
 21
755.29994150000005
  0
LINE
  8
_0-0_0
  6
CONTINUOUS
 62
    7
 10
188.42896299999995
 20
755.29994150000005
 11
197.67896299999995
 21
755.29994150000005
  0
LINE
  8
_0-0_0
  6
CONTINUOUS
 62
    7
 10
188.17896299999995
 20
755.5776515
 11
188.42896299999995
 21
755.31364450000001
  0
LINE
  8
_0-0_0
  6
CONTINUOUS
 62
    7
 10
188.42896299999995
 20
755.31364450000001
 11
197.67896299999995
 21
755.31364450000001
  0
LINE
  8
_0-0_0
  6
CONTINUOUS
 62
    7
 10
188.17896299999995
 20
755.55302449999999
 11
188.42896299999995
 21
755.31364450000001
  0
LINE
  8
_0-0_0
  6
CONTINUOUS
 62
    7
 10
188.17896299999995
 20
755.62660249999999
 11
188.42896299999995
 21
755.35456850000003
  0
LINE
  8
_0-0_0
  6
CONTINUOUS
 62
    7
 10
188.42896299999995
 20
755.35456850000003
 11
197.67896299999995
 21
755.35456850000003
  0
LINE
  8
_0-0_0
  6
CONTINUOUS
 62
    7
 10
188.17896299999995
 20
755.5776515
 11
188.42896299999995
 21
755.35456850000003
  0
LINE
  8
_0-0_0
  6
CONTINUOUS
 62
    7
 10
188.17896299999995
 20
755.69938650000006
 11
188.42896299999995
 21
755.42228650000004
  0
LINE
  8
_0-0_0
  6
CONTINUOUS
 62
    7
 10
188.42896299999995
 20
755.42228650000004
 11
197.67896299999995
 21
755.42228650000004
  0
LINE
  8
_0-0_0
  6
CONTINUOUS
 62
    7
 10
188.17896299999995
 20
755.62660249999999
 11
188.42896299999995
 21
755.42228650000004
  0
LINE
  8
_0-0_0
  6
CONTINUOUS
 62
    7
 10
188.17896299999995
 20
755.79518150000001
 11
188.42896299999995
 21
755.51606749999996
  0
LINE
  8
_0-0_0
  6
CONTINUOUS
 62
    7
 10
188.42896299999995
 20
755.51606749999996
 11
197.67896299999995
 21
755.51606749999996
  0
LINE
  8
_0-0_0
  6
CONTINUOUS
 62
    7
 10
188.17896299999995
 20
755.69938650000006
 11
188.42896299999995
 21
755.51606749999996
  0
LINE
  8
_0-0_0
  6
CONTINUOUS
 62
    7
 10
188.42896299999995
 20
755.63487250000003
 11
197.67896299999995
 21
755.63487250000003
  0
LINE
  8
_0-0_0
  6
CONTINUOUS
 62
    7
 10
188.30892900000003
 20
755.71131849999995
 11
188.42896299999995
 21
755.63487250000003
  0
LINE
  8
_0-0_0
  6
CONTINUOUS
 62
    7
 10
188.17896299999995
 20
755.79518150000001
 11
188.30892900000003
 21
755.71131849999995
  0
LINE
  8
_0-0_0
  6
CONTINUOUS
 62
    7
 10
188.17896299999995
 20
755.91291750000005
 11
188.42896299999995
 21
755.63487250000003
  0
LINE
  8
_0-0_0
  6
CONTINUOUS
 62
    7
 10
188.17896299999995
 20
756.05137649999995
 11
188.42896299999995
 21
755.77738950000003
  0
LINE
  8
_0-0_0
  6
CONTINUOUS
 62
    7
 10
188.42896299999995
 20
755.77738950000003
 11
197.67896299999995
 21
755.77738950000003
  0
LINE
  8
_0-0_0
  6
CONTINUOUS
 62
    7
 10
188.17896299999995
 20
755.91291750000005
 11
188.42896299999995
 21
755.77738950000003
  0
LINE
  8
_0-0_0
  6
CONTINUOUS
 62
    7
 10
188.17896299999995
 20
756.20896849999997
 11
188.42896299999995
 21
755.94209250000006
  0
LINE
  8
_0-0_0
  6
CONTINUOUS
 62
    7
 10
188.42896299999995
 20
755.94209250000006
 11
197.67896299999995
 21
755.94209250000006
  0
LINE
  8
_0-0_0
  6
CONTINUOUS
 62
    7
 10
188.17896299999995
 20
756.05137649999995
 11
188.42896299999995
 21
755.94209250000006
  0
LINE
  8
_0-0_0
  6
CONTINUOUS
 62
    7
 10
188.17896299999995
 20
756.38398749999999
 11
188.42896299999995
 21
756.12712050000005
  0
LINE
  8
_0-0_0
  6
CONTINUOUS
 62
    7
 10
188.42896299999995
 20
756.12712050000005
 11
197.67896299999995
 21
756.12712050000005
  0
LINE
  8
_0-0_0
  6
CONTINUOUS
 62
    7
 10
188.17896299999995
 20
756.20896849999997
 11
188.42896299999995
 21
756.12712050000005
  0
LINE
  8
_0-0_0
  6
CONTINUOUS
 62
    7
 10
188.17896299999995
 20
756.57450849999998
 11
188.42896299999995
 21
756.3304895
  0
LINE
  8
_0-0_0
  6
CONTINUOUS
 62
    7
 10
188.42896299999995
 20
756.3304895
 11
197.67896299999995
 21
756.3304895
  0
LINE
  8
_0-0_0
  6
CONTINUOUS
 62
    7
 10
188.17896299999995
 20
756.38398749999999
 11
188.42896299999995
 21
756.3304895
  0
LINE
  8
_0-0_0
  6
CONTINUOUS
 62
    7
 10
188.17896299999995
 20
756.77845750000006
 11
188.42896299999995
 21
756.54994150000005
  0
LINE
  8
_0-0_0
  6
CONTINUOUS
 62
    7
 10
188.42896299999995
 20
756.54994150000005
 11
197.67896299999995
 21
756.54994150000005
  0
LINE
  8
_0-0_0
  6
CONTINUOUS
 62
    7
 10
188.17896299999995
 20
756.77845750000006
 11
197.92896299999995
 21
756.77845750000006
  0
LINE
  8
_0-0_0
  6
CONTINUOUS
 62
    7
 10
188.17896299999995
 20
756.57450849999998
 11
188.42896299999995
 21
756.54994150000005
  0
LINE
  8
_0-0_0
  6
CONTINUOUS
 62
    7
 10
188.17896299999995
 20
756.99360650000006
 11
188.42896299999995
 21
756.78309650000006
  0
LINE
  8
_0-0_0
  6
CONTINUOUS
 62
    7
 10
188.42896299999995
 20
756.78309650000006
 11
197.67896299999995
 21
756.78309650000006
  0
LINE
  8
_0-0_0
  6
CONTINUOUS
 62
    7
 10
188.17896299999995
 20
756.99360650000006
 11
197.92896299999995
 21
756.99360650000006
  0
LINE
  8
_0-0_0
  6
CONTINUOUS
 62
    7
 10
188.17896299999995
 20
756.77845750000006
 11
188.42896299999995
 21
756.78309650000006
  0
LINE
  8
_0-0_0
  6
CONTINUOUS
 62
    7
 10
188.17896299999995
 20
757.21760549999999
 11
188.42896299999995
 21
757.02738950000003
  0
LINE
  8
_0-0_0
  6
CONTINUOUS
 62
    7
 10
188.42896299999995
 20
757.02738950000003
 11
197.67896299999995
 21
757.02738950000003
  0
LINE
  8
_0-0_0
  6
CONTINUOUS
 62
    7
 10
188.17896299999995
 20
757.21760549999999
 11
197.92896299999995
 21
757.21760549999999
  0
LINE
  8
_0-0_0
  6
CONTINUOUS
 62
    7
 10
188.17896299999995
 20
756.99360650000006
 11
188.42896299999995
 21
757.02738950000003
  0
LINE
  8
_0-0_0
  6
CONTINUOUS
 62
    7
 10
188.17896299999995
 20
757.44795250000004
 11
188.42896299999995
 21
757.28016649999995
  0
LINE
  8
_0-0_0
  6
CONTINUOUS
 62
    7
 10
188.42896299999995
 20
757.28016649999995
 11
197.67896299999995
 21
757.28016649999995
  0
LINE
  8
_0-0_0
  6
CONTINUOUS
 62
    7
 10
188.17896299999995
 20
757.44795250000004
 11
197.92896299999995
 21
757.44795250000004
  0
LINE
  8
_0-0_0
  6
CONTINUOUS
 62
    7
 10
188.17896299999995
 20
757.21760549999999
 11
188.42896299999995
 21
757.28016649999995
  0
LINE
  8
_0-0_0
  6
CONTINUOUS
 62
    7
 10
188.17896299999995
 20
757.68217449999997
 11
188.42896299999995
 21
757.53861949999998
  0
LINE
  8
_0-0_0
  6
CONTINUOUS
 62
    7
 10
188.42896299999995
 20
757.53861949999998
 11
197.67896299999995
 21
757.53861949999998
  0
LINE
  8
_0-0_0
  6
CONTINUOUS
 62
    7
 10
188.17896299999995
 20
757.68217449999997
 11
197.92896299999995
 21
757.68217449999997
  0
LINE
  8
_0-0_0
  6
CONTINUOUS
 62
    7
 10
188.17896299999995
 20
757.44795250000004
 11
188.42896299999995
 21
757.53861949999998
  0
LINE
  8
_0-0_0
  6
CONTINUOUS
 62
    7
 10
188.17896299999995
 20
757.9177095
 11
188.42896299999995
 21
757.79994150000005
  0
LINE
  8
_0-0_0
  6
CONTINUOUS
 62
    7
 10
188.42896299999995
 20
757.79994150000005
 11
197.67896299999995
 21
757.79994150000005
  0
LINE
  8
_0-0_0
  6
CONTINUOUS
 62
    7
 10
188.17896299999995
 20
757.9177095
 11
197.92896299999995
 21
757.9177095
  0
LINE
  8
_0-0_0
  6
CONTINUOUS
 62
    7
 10
188.17896299999995
 20
757.68217449999997
 11
188.42896299999995
 21
757.79994150000005
  0
LINE
  8
_0-0_0
  6
CONTINUOUS
 62
    7
 10
188.17896299999995
 20
758.15193150000005
 11
188.42896299999995
 21
758.0612635
  0
LINE
  8
_0-0_0
  6
CONTINUOUS
 62
    7
 10
188.42896299999995
 20
758.0612635
 11
197.67896299999995
 21
758.0612635
  0
LINE
  8
_0-0_0
  6
CONTINUOUS
 62
    7
 10
188.17896299999995
 20
758.15193150000005
 11
197.92896299999995
 21
758.15193150000005
  0
LINE
  8
_0-0_0
  6
CONTINUOUS
 62
    7
 10
188.17896299999995
 20
757.9177095
 11
188.42896299999995
 21
758.0612635
  0
LINE
  8
_0-0_0
  6
CONTINUOUS
 62
    7
 10
188.17896299999995
 20
758.38227849999998
 11
188.42896299999995
 21
758.31971750000002
  0
LINE
  8
_0-0_0
  6
CONTINUOUS
 62
    7
 10
188.42896299999995
 20
758.31971750000002
 11
197.67896299999995
 21
758.31971750000002
  0
LINE
  8
_0-0_0
  6
CONTINUOUS
 62
    7
 10
188.17896299999995
 20
758.38227849999998
 11
197.92896299999995
 21
758.38227849999998
  0
LINE
  8
_0-0_0
  6
CONTINUOUS
 62
    7
 10
188.17896299999995
 20
758.15193150000005
 11
188.42896299999995
 21
758.31971750000002
  0
LINE
  8
_0-0_0
  6
CONTINUOUS
 62
    7
 10
188.17896299999995
 20
758.60627750000003
 11
188.42896299999995
 21
758.57249449999995
  0
LINE
  8
_0-0_0
  6
CONTINUOUS
 62
    7
 10
188.42896299999995
 20
758.57249449999995
 11
197.67896299999995
 21
758.57249449999995
  0
LINE
  8
_0-0_0
  6
CONTINUOUS
 62
    7
 10
188.17896299999995
 20
758.60627750000003
 11
197.92896299999995
 21
758.60627750000003
  0
LINE
  8
_0-0_0
  6
CONTINUOUS
 62
    7
 10
188.17896299999995
 20
758.38227849999998
 11
188.42896299999995
 21
758.57249449999995
  0
LINE
  8
_0-0_0
  6
CONTINUOUS
 62
    7
 10
188.17896299999995
 20
758.82142650000003
 11
188.42896299999995
 21
758.81678750000003
  0
LINE
  8
_0-0_0
  6
CONTINUOUS
 62
    7
 10
188.42896299999995
 20
758.81678750000003
 11
197.67896299999995
 21
758.81678750000003
  0
LINE
  8
_0-0_0
  6
CONTINUOUS
 62
    7
 10
188.17896299999995
 20
758.60627750000003
 11
188.42896299999995
 21
758.81678750000003
  0
LINE
  8
_0-0_0
  6
CONTINUOUS
 62
    7
 10
187.92896299999995
 20
776.39994750000005
 11
187.92896299999995
 21
772.6447905
  0
LINE
  8
_0-0_0
  6
CONTINUOUS
 62
    7
 10
187.92896299999995
 20
772.6447905
 11
187.92896299999995
 21
772.39994750000005
  0
LINE
  8
_0-0_0
  6
CONTINUOUS
 62
    7
 10
187.92896299999995
 20
759.79994150000005
 11
187.92896299999995
 21
756.04478449999999
  0
LINE
  8
_0-0_0
  6
CONTINUOUS
 62
    7
 10
187.92896299999995
 20
756.04478449999999
 11
187.92896299999995
 21
755.79994150000005
  0
LINE
  8
_0-0_0
  6
CONTINUOUS
 62
    7
 10
201.52896099999998
 20
771.09992950000003
 11
201.52896099999998
 21
768.59992950000003
  0
LINE
  8
_0-0_0
  6
CONTINUOUS
 62
    7
 10
201.52896099999998
 20
768.59992950000003
 11
201.52896099999998
 21
761.09992950000003
  0
LINE
  8
_0-0_0
  6
CONTINUOUS
 62
    7
 10
200.72896600000001
 20
770.63807650000001
 11
200.72896600000001
 21
768.36900349999996
  0
LINE
  8
_0-0_0
  6
CONTINUOUS
 62
    7
 10
200.72896600000001
 20
768.36900349999996
 11
200.72896600000001
 21
761.56181349999997
  0
LINE
  8
_0-0_0
  6
CONTINUOUS
 62
    7
 10
142.72896200000002
 20
770.09992950000003
 11
142.72896200000002
 21
770.09858650000001
  0
LINE
  8
_0-0_0
  6
CONTINUOUS
 62
    7
 10
142.72896200000002
 20
770.09858650000001
 11
142.72896200000002
 21
762.09992950000003
  0
LINE
  8
_0-0_0
  6
CONTINUOUS
 62
    7
 10
223.92896299999995
 20
776.64994750000005
 11
197.92896299999995
 21
776.64994750000005
  0
LINE
  8
_0-0_0
  6
CONTINUOUS
 62
    7
 10
223.92896299999995
 20
772.14994750000005
 11
197.92896299999995
 21
772.14994750000005
  0
LINE
  8
_0-0_0
  6
CONTINUOUS
 62
    7
 10
202.72895099999994
 20
760.04994150000005
 11
197.92896299999995
 21
760.04994150000005
  0
LINE
  8
_0-0_0
  6
CONTINUOUS
 62
    7
 10
218.17893200000003
 20
755.54994150000005
 11
197.92896299999995
 21
755.54994150000005
  0
LINE
  8
_0-0_0
  6
CONTINUOUS
 62
    7
 10
197.92896299999995
 20
776.64994750000005
 11
197.67896299999995
 21
776.89994750000005
  0
LINE
  8
_0-0_0
  6
CONTINUOUS
 62
    7
 10
197.92896299999995
 20
772.14994750000005
 11
197.67896299999995
 21
771.89994750000005
  0
LINE
  8
_0-0_0
  6
CONTINUOUS
 62
    7
 10
197.92896299999995
 20
760.04994150000005
 11
197.67896299999995
 21
760.29994150000005
  0
LINE
  8
_0-0_0
  6
CONTINUOUS
 62
    7
 10
197.92896299999995
 20
755.54994150000005
 11
197.67896299999995
 21
755.29994150000005
  0
LINE
  8
_0-0_0
  6
CONTINUOUS
 62
    7
 10
201.92896299999995
 20
771.34992950000003
 11
202.72895800000003
 21
772.14994750000005
  0
LINE
  8
_0-0_0
  6
CONTINUOUS
 62
    7
 10
201.92896299999995
 20
760.84992950000003
 11
203.17896299999995
 21
759.59992950000003
  0
LINE
  8
_0-0_0
  6
CONTINUOUS
 62
    7
 10
187.92896299999995
 20
776.39994750000005
 11
188.42881
 21
776.89979549999998
  0
LINE
  8
_0-0_0
  6
CONTINUOUS
 62
    7
 10
187.92896299999995
 20
772.39994750000005
 11
188.42881
 21
771.90010050000001
  0
LINE
  8
_0-0_0
  6
CONTINUOUS
 62
    7
 10
187.92896299999995
 20
759.79994150000005
 11
188.42881
 21
760.29978949999997
  0
LINE
  8
_0-0_0
  6
CONTINUOUS
 62
    7
 10
187.92896299999995
 20
755.79994150000005
 11
188.42881
 21
755.3000945
  0
LINE
  8
_0-0_0
  6
CONTINUOUS
 62
    7
 10
201.92896299999995
 20
771.09992950000003
 11
201.52896099999998
 21
771.09992950000003
  0
LINE
  8
_0-0_0
  6
CONTINUOUS
 62
    7
 10
201.92896299999995
 20
761.09992950000003
 11
201.52896099999998
 21
761.09992950000003
  0
LINE
  8
_0-0_0
  6
CONTINUOUS
 62
    7
 10
200.72896600000001
 20
770.63807650000001
 11
201.52896099999998
 21
771.09992950000003
  0
LINE
  8
_0-0_0
  6
CONTINUOUS
 62
    7
 10
200.72896600000001
 20
761.56181349999997
 11
201.52896099999998
 21
761.09992950000003
  0
LINE
  8
_0-0_0
  6
CONTINUOUS
 62
    7
 10
200.72896600000001
 20
770.09992950000003
 11
142.72896200000002
 21
770.09992950000003
  0
LINE
  8
_0-0_0
  6
CONTINUOUS
 62
    7
 10
200.72896600000001
 20
762.09992950000003
 11
142.72896200000002
 21
762.09992950000003
  0
ARC
  8
_0-0_0
  6
CONTINUOUS
 62
    7
 10
217.42896299999995
 20
799.60002150000003
 40
8
 50
215.099627
 51
324.90037799999999
  0
LINE
  8
_0-0_0
  6
CONTINUOUS
 62
    7
 10
208.42896299999995
 20
795.00001550000002
 11
210.883736
 21
795.00001550000002
  0
LINE
  8
_0-0_0
  6
CONTINUOUS
 62
    7
 10
208.42896299999995
 20
781.80000250000001
 11
208.42896299999995
 21
795.00001550000002
  0
LINE
  8
_0-0_0
  6
CONTINUOUS
 62
    7
 10
1481.4288940000001
 20
781.80000250000001
 11
1481.4288940000001
 21
795.00001550000002
  0
LINE
  8
_0-0_0
  6
CONTINUOUS
 62
    7
 10
1478.9741819999999
 20
795.00001550000002
 11
1481.4288940000001
 21
795.00001550000002
  0
ARC
  8
_0-0_0
  6
CONTINUOUS
 62
    7
 10
1472.4288940000001
 20
799.60002150000003
 40
8
 50
215.099627
 51
324.90037799999999
  0
LINE
  8
_0-0_0
  6
CONTINUOUS
 62
    7
 10
223.97419000000002
 20
795.00001550000002
 11
1465.8836059999999
 21
795.00001550000002
  0
LINE
  8
_0-0_0
  6
CONTINUOUS
 62
    7
 10
223.97419000000002
 20
795.00001550000002
 11
224.06317100000001
 21
795.12931849999995
  0
LINE
  8
_0-0_0
  6
CONTINUOUS
 62
    7
 10
1465.8836059999999
 20
795.00001550000002
 11
1465.7947389999999
 21
795.12931849999995
  0
LINE
  8
_0-0_0
  6
CONTINUOUS
 62
    7
 10
1479.1561889999998
 20
795.2707365
 11
1479.2377320000001
 21
795.40000950000001
  0
ARC
  8
_0-0_0
  6
CONTINUOUS
 62
    7
 10
1472.4288940000001
 20
799.60002150000003
 40
8
 50
328.33175599999993
 51
334.05550899999992
  0
LINE
  8
_0-0_0
  6
CONTINUOUS
 62
    7
 10
1479.6226200000001
 20
796.10002150000003
 11
1479.7166139999999
 21
796.30000250000001
  0
LINE
  8
_0-0_0
  6
CONTINUOUS
 62
    7
 10
1479.7166139999999
 20
796.30000250000001
 11
1479.8038940000001
 21
796.50001550000002
  0
ARC
  8
_0-0_0
  6
CONTINUOUS
 62
    7
 10
1472.4288940000001
 20
799.60002150000003
 40
8
 50
337.20097500000003
 51
342.54240199999998
  0
LINE
  8
_0-0_0
  6
CONTINUOUS
 62
    7
 10
1480.0603639999999
 20
797.20002750000003
 11
1480.120422
 21
797.40000950000001
  0
LINE
  8
_0-0_0
  6
CONTINUOUS
 62
    7
 10
1480.120422
 20
797.40000950000001
 11
1480.1748659999998
 21
797.60002150000003
  0
ARC
  8
_0-0_0
  6
CONTINUOUS
 62
    7
 10
1472.4288940000001
 20
799.60002150000003
 40
8
 50
345.52249499999999
 51
350.64797900000002
  0
LINE
  8
_0-0_0
  6
CONTINUOUS
 62
    7
 10
1480.3225710000002
 20
798.30000250000001
 11
1480.3529659999999
 21
798.50001550000002
  0
LINE
  8
_0-0_0
  6
CONTINUOUS
 62
    7
 10
1480.3529659999999
 20
798.50001550000002
 11
1480.3781130000002
 21
798.70002750000003
  0
ARC
  8
_0-0_0
  6
CONTINUOUS
 62
    7
 10
1472.4288940000001
 20
799.60002150000003
 40
8
 50
353.54056400000002
 51
358.56744600000002
  0
LINE
  8
_0-0_0
  6
CONTINUOUS
 62
    7
 10
1480.426453
 20
799.40000950000001
 11
1480.4288940000001
 21
799.60002150000003
  0
LINE
  8
_0-0_0
  6
CONTINUOUS
 62
    7
 10
1464.4313349999998
 20
799.40000950000001
 11
1464.4288940000001
 21
799.60002150000003
  0
ARC
  8
_0-0_0
  6
CONTINUOUS
 62
    7
 10
1472.4288940000001
 20
799.60002150000003
 40
8
 50
181.432545
 51
186.45945499999999
  0
LINE
  8
_0-0_0
  6
CONTINUOUS
 62
    7
 10
1464.5048219999999
 20
798.50001550000002
 11
1464.479675
 21
798.70002750000003
  0
LINE
  8
_0-0_0
  6
CONTINUOUS
 62
    7
 10
1464.5352170000001
 20
798.30000250000001
 11
1464.5048219999999
 21
798.50001550000002
  0
ARC
  8
_0-0_0
  6
CONTINUOUS
 62
    7
 10
1472.4288940000001
 20
799.60002150000003
 40
8
 50
189.35203999999999
 51
194.47751
  0
LINE
  8
_0-0_0
  6
CONTINUOUS
 62
    7
 10
1464.7373659999998
 20
797.40000950000001
 11
1464.682922
 21
797.60002150000003
  0
LINE
  8
_0-0_0
  6
CONTINUOUS
 62
    7
 10
1464.7974239999999
 20
797.20002750000003
 11
1464.7373659999998
 21
797.40000950000001
  0
ARC
  8
_0-0_0
  6
CONTINUOUS
 62
    7
 10
1472.4288940000001
 20
799.60002150000003
 40
8
 50
197.45760300000001
 51
202.79902999999999
  0
LINE
  8
_0-0_0
  6
CONTINUOUS
 62
    7
 10
1465.1411739999999
 20
796.30000250000001
 11
1465.0538940000001
 21
796.50001550000002
  0
LINE
  8
_0-0_0
  6
CONTINUOUS
 62
    7
 10
1465.235169
 20
796.10002150000003
 11
1465.1411739999999
 21
796.30000250000001
  0
ARC
  8
_0-0_0
  6
CONTINUOUS
 62
    7
 10
1472.4288940000001
 20
799.60002150000003
 40
8
 50
205.94448199999999
 51
211.66823500000001
  0
LINE
  8
_0-0_0
  6
CONTINUOUS
 62
    7
 10
1465.701599
 20
795.2707365
 11
1465.6200560000002
 21
795.40000950000001
  0
LINE
  8
_0-0_0
  6
CONTINUOUS
 62
    7
 10
1465.701599
 20
795.2707365
 11
1465.7947389999999
 21
795.12931849999995
  0
LINE
  8
_0-0_0
  6
CONTINUOUS
 62
    7
 10
1478.9741819999999
 20
795.00001550000002
 11
1479.0630489999999
 21
795.12931849999995
  0
LINE
  8
_0-0_0
  6
CONTINUOUS
 62
    7
 10
1479.1561889999998
 20
795.2707365
 11
1479.0630489999999
 21
795.12931849999995
  0
LINE
  8
_0-0_0
  6
CONTINUOUS
 62
    7
 10
1481.4288940000001
 20
795.12931849999995
 11
1481.4288940000001
 21
795.00001550000002
  0
LINE
  8
_0-0_0
  6
CONTINUOUS
 62
    7
 10
1481.4288940000001
 20
803.92930550000005
 11
1481.4288940000001
 21
804.07072449999998
  0
LINE
  8
_0-0_0
  6
CONTINUOUS
 62
    7
 10
1481.4288940000001
 20
803.92930550000005
 11
1481.4288940000001
 21
803.80000250000001
  0
LINE
  8
_0-0_0
  6
CONTINUOUS
 62
    7
 10
1481.4288940000001
 20
803.10002150000003
 11
1481.4288940000001
 21
803.80000250000001
  0
LINE
  8
_0-0_0
  6
CONTINUOUS
 62
    7
 10
1481.4288940000001
 20
802.90000950000001
 11
1481.4288940000001
 21
803.10002150000003
  0
LINE
  8
_0-0_0
  6
CONTINUOUS
 62
    7
 10
1481.4288940000001
 20
802.90000950000001
 11
1481.4288940000001
 21
802.70002750000003
  0
LINE
  8
_0-0_0
  6
CONTINUOUS
 62
    7
 10
1481.4288940000001
 20
802.00001550000002
 11
1481.4288940000001
 21
802.70002750000003
  0
LINE
  8
_0-0_0
  6
CONTINUOUS
 62
    7
 10
1481.4288940000001
 20
801.80000250000001
 11
1481.4288940000001
 21
802.00001550000002
  0
LINE
  8
_0-0_0
  6
CONTINUOUS
 62
    7
 10
1481.4288940000001
 20
801.80000250000001
 11
1481.4288940000001
 21
801.60002150000003
  0
LINE
  8
_0-0_0
  6
CONTINUOUS
 62
    7
 10
1481.4288940000001
 20
800.90000950000001
 11
1481.4288940000001
 21
801.60002150000003
  0
LINE
  8
_0-0_0
  6
CONTINUOUS
 62
    7
 10
1481.4288940000001
 20
800.70002750000003
 11
1481.4288940000001
 21
800.90000950000001
  0
LINE
  8
_0-0_0
  6
CONTINUOUS
 62
    7
 10
1481.4288940000001
 20
800.70002750000003
 11
1481.4288940000001
 21
800.50001550000002
  0
LINE
  8
_0-0_0
  6
CONTINUOUS
 62
    7
 10
1481.4288940000001
 20
799.80000250000001
 11
1481.4288940000001
 21
800.50001550000002
  0
LINE
  8
_0-0_0
  6
CONTINUOUS
 62
    7
 10
1481.4288940000001
 20
799.60002150000003
 11
1481.4288940000001
 21
799.80000250000001
  0
LINE
  8
_0-0_0
  6
CONTINUOUS
 62
    7
 10
1481.4288940000001
 20
799.60002150000003
 11
1481.4288940000001
 21
799.40000950000001
  0
LINE
  8
_0-0_0
  6
CONTINUOUS
 62
    7
 10
1481.4288940000001
 20
798.70002750000003
 11
1481.4288940000001
 21
799.40000950000001
  0
LINE
  8
_0-0_0
  6
CONTINUOUS
 62
    7
 10
1481.4288940000001
 20
798.50001550000002
 11
1481.4288940000001
 21
798.70002750000003
  0
LINE
  8
_0-0_0
  6
CONTINUOUS
 62
    7
 10
1481.4288940000001
 20
798.50001550000002
 11
1481.4288940000001
 21
798.30000250000001
  0
LINE
  8
_0-0_0
  6
CONTINUOUS
 62
    7
 10
1481.4288940000001
 20
797.60002150000003
 11
1481.4288940000001
 21
798.30000250000001
  0
LINE
  8
_0-0_0
  6
CONTINUOUS
 62
    7
 10
1481.4288940000001
 20
797.40000950000001
 11
1481.4288940000001
 21
797.60002150000003
  0
LINE
  8
_0-0_0
  6
CONTINUOUS
 62
    7
 10
1481.4288940000001
 20
797.40000950000001
 11
1481.4288940000001
 21
797.20002750000003
  0
LINE
  8
_0-0_0
  6
CONTINUOUS
 62
    7
 10
1481.4288940000001
 20
796.50001550000002
 11
1481.4288940000001
 21
797.20002750000003
  0
LINE
  8
_0-0_0
  6
CONTINUOUS
 62
    7
 10
1481.4288940000001
 20
796.30000250000001
 11
1481.4288940000001
 21
796.50001550000002
  0
LINE
  8
_0-0_0
  6
CONTINUOUS
 62
    7
 10
1481.4288940000001
 20
796.30000250000001
 11
1481.4288940000001
 21
796.10002150000003
  0
LINE
  8
_0-0_0
  6
CONTINUOUS
 62
    7
 10
1481.4288940000001
 20
795.40000950000001
 11
1481.4288940000001
 21
796.10002150000003
  0
LINE
  8
_0-0_0
  6
CONTINUOUS
 62
    7
 10
1481.4288940000001
 20
795.2707365
 11
1481.4288940000001
 21
795.40000950000001
  0
LINE
  8
_0-0_0
  6
CONTINUOUS
 62
    7
 10
1481.4288940000001
 20
795.12931849999995
 11
1481.4288940000001
 21
795.2707365
  0
LINE
  8
_0-0_0
  6
CONTINUOUS
 62
    7
 10
1481.4288940000001
 20
781.30000250000001
 11
1481.4288940000001
 21
781.80000250000001
  0
LINE
  8
_0-0_0
  6
CONTINUOUS
 62
    7
 10
1481.4288940000001
 20
809.80000250000001
 11
1481.4288940000001
 21
809.20603949999997
  0
LINE
  8
_0-0_0
  6
CONTINUOUS
 62
    7
 10
1481.4288940000001
 20
804.20002750000003
 11
1481.4288940000001
 21
809.20603949999997
  0
LINE
  8
_0-0_0
  6
CONTINUOUS
 62
    7
 10
1481.4288940000001
 20
804.07072449999998
 11
1481.4288940000001
 21
804.20002750000003
  0
LINE
  8
_0-0_0
  6
CONTINUOUS
 62
    7
 10
208.42896299999995
 20
781.30000250000001
 11
208.42896299999995
 21
781.80000250000001
  0
LINE
  8
_0-0_0
  6
CONTINUOUS
 62
    7
 10
208.42896299999995
 20
781.30000250000001
 11
1481.4288940000001
 21
781.30000250000001
  0
LINE
  8
_0-0_0
  6
CONTINUOUS
 62
    7
 10
208.42896299999995
 20
795.12931849999995
 11
208.42896299999995
 21
795.2707365
  0
LINE
  8
_0-0_0
  6
CONTINUOUS
 62
    7
 10
208.42896299999995
 20
795.12931849999995
 11
208.42896299999995
 21
795.00001550000002
  0
LINE
  8
_0-0_0
  6
CONTINUOUS
 62
    7
 10
208.42896299999995
 20
809.80000250000001
 11
208.42896299999995
 21
809.20603949999997
  0
LINE
  8
_0-0_0
  6
CONTINUOUS
 62
    7
 10
208.42896299999995
 20
804.20002750000003
 11
208.42896299999995
 21
809.20603949999997
  0
LINE
  8
_0-0_0
  6
CONTINUOUS
 62
    7
 10
208.42896299999995
 20
804.07072449999998
 11
208.42896299999995
 21
804.20002750000003
  0
LINE
  8
_0-0_0
  6
CONTINUOUS
 62
    7
 10
208.42896299999995
 20
803.92930550000005
 11
208.42896299999995
 21
804.07072449999998
  0
LINE
  8
_0-0_0
  6
CONTINUOUS
 62
    7
 10
208.42896299999995
 20
803.92930550000005
 11
208.42896299999995
 21
803.80000250000001
  0
LINE
  8
_0-0_0
  6
CONTINUOUS
 62
    7
 10
208.42896299999995
 20
803.10002150000003
 11
208.42896299999995
 21
803.80000250000001
  0
LINE
  8
_0-0_0
  6
CONTINUOUS
 62
    7
 10
208.42896299999995
 20
802.97071849999998
 11
208.42896299999995
 21
803.10002150000003
  0
LINE
  8
_0-0_0
  6
CONTINUOUS
 62
    7
 10
208.42896299999995
 20
802.82929950000005
 11
208.42896299999995
 21
802.97071849999998
  0
LINE
  8
_0-0_0
  6
CONTINUOUS
 62
    7
 10
208.42896299999995
 20
802.82929950000005
 11
208.42896299999995
 21
802.70002750000003
  0
LINE
  8
_0-0_0
  6
CONTINUOUS
 62
    7
 10
208.42896299999995
 20
802.00001550000002
 11
208.42896299999995
 21
802.70002750000003
  0
LINE
  8
_0-0_0
  6
CONTINUOUS
 62
    7
 10
208.42896299999995
 20
801.87074250000001
 11
208.42896299999995
 21
802.00001550000002
  0
LINE
  8
_0-0_0
  6
CONTINUOUS
 62
    7
 10
208.42896299999995
 20
801.72929350000004
 11
208.42896299999995
 21
801.87074250000001
  0
LINE
  8
_0-0_0
  6
CONTINUOUS
 62
    7
 10
208.42896299999995
 20
801.72929350000004
 11
208.42896299999995
 21
801.60002150000003
  0
LINE
  8
_0-0_0
  6
CONTINUOUS
 62
    7
 10
208.42896299999995
 20
800.90000950000001
 11
208.42896299999995
 21
801.60002150000003
  0
LINE
  8
_0-0_0
  6
CONTINUOUS
 62
    7
 10
208.42896299999995
 20
800.7707365
 11
208.42896299999995
 21
800.90000950000001
  0
LINE
  8
_0-0_0
  6
CONTINUOUS
 62
    7
 10
208.42896299999995
 20
800.62931849999995
 11
208.42896299999995
 21
800.7707365
  0
LINE
  8
_0-0_0
  6
CONTINUOUS
 62
    7
 10
208.42896299999995
 20
800.62931849999995
 11
208.42896299999995
 21
800.50001550000002
  0
LINE
  8
_0-0_0
  6
CONTINUOUS
 62
    7
 10
208.42896299999995
 20
799.80000250000001
 11
208.42896299999995
 21
800.50001550000002
  0
LINE
  8
_0-0_0
  6
CONTINUOUS
 62
    7
 10
208.42896299999995
 20
799.67073049999999
 11
208.42896299999995
 21
799.80000250000001
  0
LINE
  8
_0-0_0
  6
CONTINUOUS
 62
    7
 10
208.42896299999995
 20
799.52931149999995
 11
208.42896299999995
 21
799.67073049999999
  0
LINE
  8
_0-0_0
  6
CONTINUOUS
 62
    7
 10
208.42896299999995
 20
799.52931149999995
 11
208.42896299999995
 21
799.40000950000001
  0
LINE
  8
_0-0_0
  6
CONTINUOUS
 62
    7
 10
208.42896299999995
 20
798.70002750000003
 11
208.42896299999995
 21
799.40000950000001
  0
LINE
  8
_0-0_0
  6
CONTINUOUS
 62
    7
 10
208.42896299999995
 20
798.57072449999998
 11
208.42896299999995
 21
798.70002750000003
  0
LINE
  8
_0-0_0
  6
CONTINUOUS
 62
    7
 10
208.42896299999995
 20
798.42930550000005
 11
208.42896299999995
 21
798.57072449999998
  0
LINE
  8
_0-0_0
  6
CONTINUOUS
 62
    7
 10
208.42896299999995
 20
798.42930550000005
 11
208.42896299999995
 21
798.30000250000001
  0
LINE
  8
_0-0_0
  6
CONTINUOUS
 62
    7
 10
208.42896299999995
 20
797.60002150000003
 11
208.42896299999995
 21
798.30000250000001
  0
LINE
  8
_0-0_0
  6
CONTINUOUS
 62
    7
 10
208.42896299999995
 20
797.47071849999998
 11
208.42896299999995
 21
797.60002150000003
  0
LINE
  8
_0-0_0
  6
CONTINUOUS
 62
    7
 10
208.42896299999995
 20
797.32929950000005
 11
208.42896299999995
 21
797.47071849999998
  0
LINE
  8
_0-0_0
  6
CONTINUOUS
 62
    7
 10
208.42896299999995
 20
797.32929950000005
 11
208.42896299999995
 21
797.20002750000003
  0
LINE
  8
_0-0_0
  6
CONTINUOUS
 62
    7
 10
208.42896299999995
 20
796.50001550000002
 11
208.42896299999995
 21
797.20002750000003
  0
LINE
  8
_0-0_0
  6
CONTINUOUS
 62
    7
 10
208.42896299999995
 20
796.37074250000001
 11
208.42896299999995
 21
796.50001550000002
  0
LINE
  8
_0-0_0
  6
CONTINUOUS
 62
    7
 10
208.42896299999995
 20
796.22929350000004
 11
208.42896299999995
 21
796.37074250000001
  0
LINE
  8
_0-0_0
  6
CONTINUOUS
 62
    7
 10
208.42896299999995
 20
796.22929350000004
 11
208.42896299999995
 21
796.10002150000003
  0
LINE
  8
_0-0_0
  6
CONTINUOUS
 62
    7
 10
208.42896299999995
 20
795.40000950000001
 11
208.42896299999995
 21
796.10002150000003
  0
LINE
  8
_0-0_0
  6
CONTINUOUS
 62
    7
 10
208.42896299999995
 20
795.2707365
 11
208.42896299999995
 21
795.40000950000001
  0
LINE
  8
_0-0_0
  6
CONTINUOUS
 62
    7
 10
210.883736
 20
795.00001550000002
 11
210.79475400000001
 21
795.12931849999995
  0
LINE
  8
_0-0_0
  6
CONTINUOUS
 62
    7
 10
224.15631099999996
 20
795.2707365
 11
224.06317100000001
 21
795.12931849999995
  0
LINE
  8
_0-0_0
  6
CONTINUOUS
 62
    7
 10
224.15631099999996
 20
795.2707365
 11
224.23777799999993
 21
795.40000950000001
  0
ARC
  8
_0-0_0
  6
CONTINUOUS
 62
    7
 10
217.42896299999995
 20
799.60002150000003
 40
8
 50
328.33175599999993
 51
334.05550899999992
  0
LINE
  8
_0-0_0
  6
CONTINUOUS
 62
    7
 10
224.62271099999998
 20
796.10002150000003
 11
224.71662100000003
 21
796.30000250000001
  0
LINE
  8
_0-0_0
  6
CONTINUOUS
 62
    7
 10
224.71662100000003
 20
796.30000250000001
 11
224.80392499999994
 21
796.50001550000002
  0
ARC
  8
_0-0_0
  6
CONTINUOUS
 62
    7
 10
217.42896299999995
 20
799.60002150000003
 40
8
 50
337.20097500000003
 51
342.54240199999998
  0
LINE
  8
_0-0_0
  6
CONTINUOUS
 62
    7
 10
225.06047799999999
 20
797.20002750000003
 11
225.12051399999996
 21
797.40000950000001
  0
LINE
  8
_0-0_0
  6
CONTINUOUS
 62
    7
 10
225.12051399999996
 20
797.40000950000001
 11
225.17492700000003
 21
797.60002150000003
  0
ARC
  8
_0-0_0
  6
CONTINUOUS
 62
    7
 10
217.42896299999995
 20
799.60002150000003
 40
8
 50
345.52249499999999
 51
350.64797900000002
  0
LINE
  8
_0-0_0
  6
CONTINUOUS
 62
    7
 10
225.322632
 20
798.30000250000001
 11
225.352982
 21
798.50001550000002
  0
LINE
  8
_0-0_0
  6
CONTINUOUS
 62
    7
 10
225.352982
 20
798.50001550000002
 11
225.37817399999994
 21
798.70002750000003
  0
ARC
  8
_0-0_0
  6
CONTINUOUS
 62
    7
 10
217.42896299999995
 20
799.60002150000003
 40
8
 50
353.54056400000002
 51
358.56744600000002
  0
LINE
  8
_0-0_0
  6
CONTINUOUS
 62
    7
 10
225.426468
 20
799.40000950000001
 11
225.42896999999994
 21
799.60002150000003
  0
LINE
  8
_0-0_0
  6
CONTINUOUS
 62
    7
 10
209.42927599999996
 20
799.52931149999995
 11
209.42896299999995
 21
799.60002150000003
  0
LINE
  8
_0-0_0
  6
CONTINUOUS
 62
    7
 10
209.431465
 20
799.40000950000001
 11
209.42927599999996
 21
799.52931149999995
  0
ARC
  8
_0-0_0
  6
CONTINUOUS
 62
    7
 10
217.42896299999995
 20
799.60002150000003
 40
8
 50
181.432545
 51
186.45945499999999
  0
LINE
  8
_0-0_0
  6
CONTINUOUS
 62
    7
 10
209.495453
 20
798.57072449999998
 11
209.47975199999996
 21
798.70002750000003
  0
LINE
  8
_0-0_0
  6
CONTINUOUS
 62
    7
 10
209.495453
 20
798.57072449999998
 11
209.515083
 21
798.42930550000005
  0
LINE
  8
_0-0_0
  6
CONTINUOUS
 62
    7
 10
209.53529400000002
 20
798.30000250000001
 11
209.515083
 21
798.42930550000005
  0
ARC
  8
_0-0_0
  6
CONTINUOUS
 62
    7
 10
217.42896299999995
 20
799.60002150000003
 40
8
 50
189.35203999999999
 51
194.47751
  0
LINE
  8
_0-0_0
  6
CONTINUOUS
 62
    7
 10
209.71753699999999
 20
797.47071849999998
 11
209.682999
 21
797.60002150000003
  0
LINE
  8
_0-0_0
  6
CONTINUOUS
 62
    7
 10
209.71753699999999
 20
797.47071849999998
 11
209.75798799999995
 21
797.32929950000005
  0
LINE
  8
_0-0_0
  6
CONTINUOUS
 62
    7
 10
209.79744700000003
 20
797.20002750000003
 11
209.75798799999995
 21
797.32929950000005
  0
ARC
  8
_0-0_0
  6
CONTINUOUS
 62
    7
 10
217.42896299999995
 20
799.60002150000003
 40
8
 50
197.45760300000001
 51
202.79902999999999
  0
LINE
  8
_0-0_0
  6
CONTINUOUS
 62
    7
 10
210.10969499999999
 20
796.37074250000001
 11
210.05400899999995
 21
796.50001550000002
  0
LINE
  8
_0-0_0
  6
CONTINUOUS
 62
    7
 10
210.10969499999999
 20
796.37074250000001
 11
210.17373699999996
 21
796.22929350000004
  0
LINE
  8
_0-0_0
  6
CONTINUOUS
 62
    7
 10
210.23521400000004
 20
796.10002150000003
 11
210.17373699999996
 21
796.22929350000004
  0
ARC
  8
_0-0_0
  6
CONTINUOUS
 62
    7
 10
217.42896299999995
 20
799.60002150000003
 40
8
 50
205.94448199999999
 51
211.66823500000001
  0
LINE
  8
_0-0_0
  6
CONTINUOUS
 62
    7
 10
210.70161399999995
 20
795.2707365
 11
210.62014799999997
 21
795.40000950000001
  0
LINE
  8
_0-0_0
  6
CONTINUOUS
 62
    7
 10
210.70161399999995
 20
795.2707365
 11
210.79475400000001
 21
795.12931849999995
  0
LINE
  8
_0-0_0
  6
CONTINUOUS
 62
    7
 10
1415.4288940000001
 20
787.30000250000001
 11
1422.4288940000001
 21
787.30000250000001
  0
ARC
  8
_0-0_0
  6
CONTINUOUS
 62
    7
 10
1415.4288940000001
 20
786.80000250000001
 40
0.5
 50
90.000003000000007
 51
180.00000900000001
  0
LINE
  8
_0-0_0
  6
CONTINUOUS
 62
    7
 10
1414.9288940000001
 20
786.80000250000001
 11
1414.9288940000001
 21
782.80000250000001
  0
ARC
  8
_0-0_0
  6
CONTINUOUS
 62
    7
 10
1415.4288940000001
 20
782.80000250000001
 40
0.5
 50
180.00000900000003
 51
269.99999700000001
  0
LINE
  8
_0-0_0
  6
CONTINUOUS
 62
    7
 10
1422.4288940000001
 20
782.30000250000001
 11
1415.4288940000001
 21
782.30000250000001
  0
ARC
  8
_0-0_0
  6
CONTINUOUS
 62
    7
 10
1422.4288940000001
 20
782.80000250000001
 40
0.5
 50
269.99999700000001
 51
0
  0
LINE
  8
_0-0_0
  6
CONTINUOUS
 62
    7
 10
1422.9288940000001
 20
782.80000250000001
 11
1422.9288940000001
 21
786.80000250000001
  0
ARC
  8
_0-0_0
  6
CONTINUOUS
 62
    7
 10
1422.4288940000001
 20
786.80000250000001
 40
0.5
 50
0
 51
90.000003000000007
  0
ARC
  8
_0-0_0
  6
CONTINUOUS
 62
    7
 10
275.42895499999997
 20
786.80000250000001
 40
0.5
 50
90.000003000000007
 51
180.00000900000001
  0
LINE
  8
_0-0_0
  6
CONTINUOUS
 62
    7
 10
274.92895499999997
 20
786.80000250000001
 11
274.92895499999997
 21
782.80000250000001
  0
ARC
  8
_0-0_0
  6
CONTINUOUS
 62
    7
 10
275.42895499999997
 20
782.80000250000001
 40
0.5
 50
180.00000900000003
 51
269.99999700000001
  0
LINE
  8
_0-0_0
  6
CONTINUOUS
 62
    7
 10
282.42895499999997
 20
782.30000250000001
 11
275.42895499999997
 21
782.30000250000001
  0
ARC
  8
_0-0_0
  6
CONTINUOUS
 62
    7
 10
282.42895499999997
 20
782.80000250000001
 40
0.5
 50
269.99999700000001
 51
0
  0
LINE
  8
_0-0_0
  6
CONTINUOUS
 62
    7
 10
282.92895499999997
 20
782.80000250000001
 11
282.92895499999997
 21
786.80000250000001
  0
ARC
  8
_0-0_0
  6
CONTINUOUS
 62
    7
 10
282.42895499999997
 20
786.80000250000001
 40
0.5
 50
0
 51
90.000003000000007
  0
LINE
  8
_0-0_0
  6
CONTINUOUS
 62
    7
 10
275.42895499999997
 20
787.30000250000001
 11
282.42895499999997
 21
787.30000250000001
  0
LINE
  8
_0-0_0
  6
CONTINUOUS
 62
    7
 10
224.23777799999993
 20
795.40000950000001
 11
1465.6200560000002
 21
795.40000950000001
  0
LINE
  8
_0-0_0
  6
CONTINUOUS
 62
    7
 10
224.62271099999998
 20
796.10002150000003
 11
1465.235169
 21
796.10002150000003
  0
LINE
  8
_0-0_0
  6
CONTINUOUS
 62
    7
 10
224.71662100000003
 20
796.30000250000001
 11
1465.1411739999999
 21
796.30000250000001
  0
LINE
  8
_0-0_0
  6
CONTINUOUS
 62
    7
 10
224.80392499999994
 20
796.50001550000002
 11
1465.0538940000001
 21
796.50001550000002
  0
LINE
  8
_0-0_0
  6
CONTINUOUS
 62
    7
 10
225.06047799999999
 20
797.20002750000003
 11
1464.7974239999999
 21
797.20002750000003
  0
LINE
  8
_0-0_0
  6
CONTINUOUS
 62
    7
 10
225.12051399999996
 20
797.40000950000001
 11
1464.7373659999998
 21
797.40000950000001
  0
LINE
  8
_0-0_0
  6
CONTINUOUS
 62
    7
 10
225.17492700000003
 20
797.60002150000003
 11
1464.682922
 21
797.60002150000003
  0
LINE
  8
_0-0_0
  6
CONTINUOUS
 62
    7
 10
225.322632
 20
798.30000250000001
 11
1464.5352170000001
 21
798.30000250000001
  0
LINE
  8
_0-0_0
  6
CONTINUOUS
 62
    7
 10
225.352982
 20
798.50001550000002
 11
1464.5048219999999
 21
798.50001550000002
  0
LINE
  8
_0-0_0
  6
CONTINUOUS
 62
    7
 10
225.37817399999994
 20
798.70002750000003
 11
1464.479675
 21
798.70002750000003
  0
LINE
  8
_0-0_0
  6
CONTINUOUS
 62
    7
 10
225.426468
 20
799.40000950000001
 11
1464.4313349999998
 21
799.40000950000001
  0
LINE
  8
_0-0_0
  6
CONTINUOUS
 62
    7
 10
225.42896999999994
 20
799.60002150000003
 11
1464.4288940000001
 21
799.60002150000003
  0
LINE
  8
_0-0_0
  6
CONTINUOUS
 62
    7
 10
1478.9741819999999
 20
804.20002750000003
 11
1479.0630489999999
 21
804.07072449999998
  0
ARC
  8
_0-0_0
  6
CONTINUOUS
 62
    7
 10
1472.4288940000001
 20
799.60002150000003
 40
8
 50
35.099632
 51
144.900373
  0
LINE
  8
_0-0_0
  6
CONTINUOUS
 62
    7
 10
1465.8836059999999
 20
804.20002750000003
 11
1465.7947389999999
 21
804.07072449999998
  0
LINE
  8
_0-0_0
  6
CONTINUOUS
 62
    7
 10
1465.701599
 20
803.92930550000005
 11
1465.7947389999999
 21
804.07072449999998
  0
LINE
  8
_0-0_0
  6
CONTINUOUS
 62
    7
 10
1465.701599
 20
803.92930550000005
 11
1465.6200560000002
 21
803.80000250000001
  0
ARC
  8
_0-0_0
  6
CONTINUOUS
 62
    7
 10
1472.4288940000001
 20
799.60002150000003
 40
8
 50
148.33176499999999
 51
154.05551800000001
  0
LINE
  8
_0-0_0
  6
CONTINUOUS
 62
    7
 10
1465.235169
 20
803.10002150000003
 11
1465.1411739999999
 21
802.90000950000001
  0
LINE
  8
_0-0_0
  6
CONTINUOUS
 62
    7
 10
1465.1411739999999
 20
802.90000950000001
 11
1465.0538940000001
 21
802.70002750000003
  0
ARC
  8
_0-0_0
  6
CONTINUOUS
 62
    7
 10
1472.4288940000001
 20
799.60002150000003
 40
8
 50
157.20097000000001
 51
162.54239699999999
  0
LINE
  8
_0-0_0
  6
CONTINUOUS
 62
    7
 10
1464.7974239999999
 20
802.00001550000002
 11
1464.7373659999998
 21
801.80000250000001
  0
LINE
  8
_0-0_0
  6
CONTINUOUS
 62
    7
 10
1464.7373659999998
 20
801.80000250000001
 11
1464.682922
 21
801.60002150000003
  0
ARC
  8
_0-0_0
  6
CONTINUOUS
 62
    7
 10
1472.4288940000001
 20
799.60002150000003
 40
8
 50
165.52249
 51
170.64796000000001
  0
LINE
  8
_0-0_0
  6
CONTINUOUS
 62
    7
 10
1464.5352170000001
 20
800.90000950000001
 11
1464.5048219999999
 21
800.70002750000003
  0
LINE
  8
_0-0_0
  6
CONTINUOUS
 62
    7
 10
1464.5048219999999
 20
800.70002750000003
 11
1464.479675
 21
800.50001550000002
  0
ARC
  8
_0-0_0
  6
CONTINUOUS
 62
    7
 10
1472.4288940000001
 20
799.60002150000003
 40
8
 50
173.54054500000001
 51
178.567455
  0
LINE
  8
_0-0_0
  6
CONTINUOUS
 62
    7
 10
1464.4313349999998
 20
799.80000250000001
 11
1464.4288940000001
 21
799.60002150000003
  0
LINE
  8
_0-0_0
  6
CONTINUOUS
 62
    7
 10
1480.426453
 20
799.80000250000001
 11
1480.4288940000001
 21
799.60002150000003
  0
ARC
  8
_0-0_0
  6
CONTINUOUS
 62
    7
 10
1472.4288940000001
 20
799.60002150000003
 40
8
 50
1.432544
 51
6.4594489999999993
  0
LINE
  8
_0-0_0
  6
CONTINUOUS
 62
    7
 10
1480.3529659999999
 20
800.70002750000003
 11
1480.3781130000002
 21
800.50001550000002
  0
LINE
  8
_0-0_0
  6
CONTINUOUS
 62
    7
 10
1480.3225710000002
 20
800.90000950000001
 11
1480.3529659999999
 21
800.70002750000003
  0
ARC
  8
_0-0_0
  6
CONTINUOUS
 62
    7
 10
1472.4288940000001
 20
799.60002150000003
 40
8
 50
9.3520350000000008
 51
14.477510999999998
  0
LINE
  8
_0-0_0
  6
CONTINUOUS
 62
    7
 10
1480.120422
 20
801.80000250000001
 11
1480.1748659999998
 21
801.60002150000003
  0
LINE
  8
_0-0_0
  6
CONTINUOUS
 62
    7
 10
1480.0603639999999
 20
802.00001550000002
 11
1480.120422
 21
801.80000250000001
  0
ARC
  8
_0-0_0
  6
CONTINUOUS
 62
    7
 10
1472.4288940000001
 20
799.60002150000003
 40
8
 50
17.457602999999999
 51
22.799030999999999
  0
LINE
  8
_0-0_0
  6
CONTINUOUS
 62
    7
 10
1479.7166139999999
 20
802.90000950000001
 11
1479.8038940000001
 21
802.70002750000003
  0
LINE
  8
_0-0_0
  6
CONTINUOUS
 62
    7
 10
1479.6226200000001
 20
803.10002150000003
 11
1479.7166139999999
 21
802.90000950000001
  0
ARC
  8
_0-0_0
  6
CONTINUOUS
 62
    7
 10
1472.4288940000001
 20
799.60002150000003
 40
8
 50
25.944476999999999
 51
31.668240000000001
  0
LINE
  8
_0-0_0
  6
CONTINUOUS
 62
    7
 10
1479.1561889999998
 20
803.92930550000005
 11
1479.2377320000001
 21
803.80000250000001
  0
LINE
  8
_0-0_0
  6
CONTINUOUS
 62
    7
 10
1479.1561889999998
 20
803.92930550000005
 11
1479.0630489999999
 21
804.07072449999998
  0
CIRCLE
  8
_0-0_0
  6
CONTINUOUS
 62
    7
 10
1472.4288940000001
 20
799.60002150000003
 40
7.5
  0
LINE
  8
_0-0_0
  6
CONTINUOUS
 62
    7
 10
1480.426453
 20
799.40000950000001
 11
1481.4288940000001
 21
799.40000950000001
  0
LINE
  8
_0-0_0
  6
CONTINUOUS
 62
    7
 10
1480.4288940000001
 20
799.60002150000003
 11
1481.4288940000001
 21
799.60002150000003
  0
LINE
  8
_0-0_0
  6
CONTINUOUS
 62
    7
 10
1480.3781130000002
 20
798.70002750000003
 11
1481.4288940000001
 21
798.70002750000003
  0
LINE
  8
_0-0_0
  6
CONTINUOUS
 62
    7
 10
1480.3529659999999
 20
798.50001550000002
 11
1481.4288940000001
 21
798.50001550000002
  0
LINE
  8
_0-0_0
  6
CONTINUOUS
 62
    7
 10
1480.3225710000002
 20
798.30000250000001
 11
1481.4288940000001
 21
798.30000250000001
  0
LINE
  8
_0-0_0
  6
CONTINUOUS
 62
    7
 10
1480.1748659999998
 20
797.60002150000003
 11
1481.4288940000001
 21
797.60002150000003
  0
LINE
  8
_0-0_0
  6
CONTINUOUS
 62
    7
 10
1480.120422
 20
797.40000950000001
 11
1481.4288940000001
 21
797.40000950000001
  0
LINE
  8
_0-0_0
  6
CONTINUOUS
 62
    7
 10
1480.0603639999999
 20
797.20002750000003
 11
1481.4288940000001
 21
797.20002750000003
  0
LINE
  8
_0-0_0
  6
CONTINUOUS
 62
    7
 10
1479.8038940000001
 20
796.50001550000002
 11
1481.4288940000001
 21
796.50001550000002
  0
LINE
  8
_0-0_0
  6
CONTINUOUS
 62
    7
 10
1479.7166139999999
 20
796.30000250000001
 11
1481.4288940000001
 21
796.30000250000001
  0
LINE
  8
_0-0_0
  6
CONTINUOUS
 62
    7
 10
1479.6226200000001
 20
796.10002150000003
 11
1481.4288940000001
 21
796.10002150000003
  0
LINE
  8
_0-0_0
  6
CONTINUOUS
 62
    7
 10
1479.2377320000001
 20
795.40000950000001
 11
1481.4288940000001
 21
795.40000950000001
  0
LINE
  8
_0-0_0
  6
CONTINUOUS
 62
    7
 10
1479.2377320000001
 20
803.80000250000001
 11
1481.4288940000001
 21
803.80000250000001
  0
LINE
  8
_0-0_0
  6
CONTINUOUS
 62
    7
 10
1479.6226200000001
 20
803.10002150000003
 11
1481.4288940000001
 21
803.10002150000003
  0
LINE
  8
_0-0_0
  6
CONTINUOUS
 62
    7
 10
1479.7166139999999
 20
802.90000950000001
 11
1481.4288940000001
 21
802.90000950000001
  0
LINE
  8
_0-0_0
  6
CONTINUOUS
 62
    7
 10
1479.8038940000001
 20
802.70002750000003
 11
1481.4288940000001
 21
802.70002750000003
  0
LINE
  8
_0-0_0
  6
CONTINUOUS
 62
    7
 10
1480.0603639999999
 20
802.00001550000002
 11
1481.4288940000001
 21
802.00001550000002
  0
LINE
  8
_0-0_0
  6
CONTINUOUS
 62
    7
 10
1480.120422
 20
801.80000250000001
 11
1481.4288940000001
 21
801.80000250000001
  0
LINE
  8
_0-0_0
  6
CONTINUOUS
 62
    7
 10
1480.1748659999998
 20
801.60002150000003
 11
1481.4288940000001
 21
801.60002150000003
  0
LINE
  8
_0-0_0
  6
CONTINUOUS
 62
    7
 10
1480.3225710000002
 20
800.90000950000001
 11
1481.4288940000001
 21
800.90000950000001
  0
LINE
  8
_0-0_0
  6
CONTINUOUS
 62
    7
 10
1480.3529659999999
 20
800.70002750000003
 11
1481.4288940000001
 21
800.70002750000003
  0
LINE
  8
_0-0_0
  6
CONTINUOUS
 62
    7
 10
1480.3781130000002
 20
800.50001550000002
 11
1481.4288940000001
 21
800.50001550000002
  0
LINE
  8
_0-0_0
  6
CONTINUOUS
 62
    7
 10
1480.426453
 20
799.80000250000001
 11
1481.4288940000001
 21
799.80000250000001
  0
LINE
  8
_0-0_0
  6
CONTINUOUS
 62
    7
 10
1481.9288940000001
 20
783.10002150000003
 11
1481.4288940000001
 21
783.10002150000003
  0
LINE
  8
_0-0_0
  6
CONTINUOUS
 62
    7
 10
1481.9288940000001
 20
785.30000250000001
 11
1481.4288940000001
 21
785.30000250000001
  0
LINE
  8
_0-0_0
  6
CONTINUOUS
 62
    7
 10
1481.9288940000001
 20
787.60002150000003
 11
1481.4288940000001
 21
787.60002150000003
  0
LINE
  8
_0-0_0
  6
CONTINUOUS
 62
    7
 10
208.42896299999995
 20
787.60002150000003
 11
207.92896299999995
 21
787.60002150000003
  0
LINE
  8
_0-0_0
  6
CONTINUOUS
 62
    7
 10
1481.4288940000001
 20
789.90000950000001
 11
1481.9288940000001
 21
789.90000950000001
  0
LINE
  8
_0-0_0
  6
CONTINUOUS
 62
    7
 10
1481.9288940000001
 20
810.10002150000003
 11
1481.9288940000001
 21
810.00001550000002
  0
LINE
  8
_0-0_0
  6
CONTINUOUS
 62
    7
 10
207.92896299999995
 20
810.10002150000003
 11
207.92896299999995
 21
810.00001550000002
  0
LINE
  8
_0-0_0
  6
CONTINUOUS
 62
    7
 10
207.92896299999995
 20
789.90000950000001
 11
208.42896299999995
 21
789.90000950000001
  0
LINE
  8
_0-0_0
  6
CONTINUOUS
 62
    7
 10
208.42896299999995
 20
809.80000250000001
 11
1481.4288940000001
 21
809.80000250000001
  0
LINE
  8
_0-0_0
  6
CONTINUOUS
 62
    7
 10
208.42896299999995
 20
809.20603949999997
 11
1481.4288940000001
 21
809.20603949999997
  0
LINE
  8
_0-0_0
  6
CONTINUOUS
 62
    7
 10
1478.9741819999999
 20
804.20002750000003
 11
1481.4288940000001
 21
804.20002750000003
  0
LINE
  8
_0-0_0
  6
CONTINUOUS
 62
    7
 10
208.42896299999995
 20
804.20002750000003
 11
210.883736
 21
804.20002750000003
  0
ARC
  8
_0-0_0
  6
CONTINUOUS
 62
    7
 10
217.42896299999995
 20
799.60002150000003
 40
8
 50
35.099632
 51
144.900373
  0
LINE
  8
_0-0_0
  6
CONTINUOUS
 62
    7
 10
223.97419000000002
 20
804.20002750000003
 11
1465.8836059999999
 21
804.20002750000003
  0
LINE
  8
_0-0_0
  6
CONTINUOUS
 62
    7
 10
207.92896299999995
 20
783.10002150000003
 11
208.42896299999995
 21
783.10002150000003
  0
LINE
  8
_0-0_0
  6
CONTINUOUS
 62
    7
 10
208.42896299999995
 20
785.30000250000001
 11
207.92896299999995
 21
785.30000250000001
  0
LINE
  8
_0-0_0
  6
CONTINUOUS
 62
    7
 10
210.883736
 20
804.20002750000003
 11
210.79475400000001
 21
804.07072449999998
  0
LINE
  8
_0-0_0
  6
CONTINUOUS
 62
    7
 10
210.70161399999995
 20
803.92930550000005
 11
210.79475400000001
 21
804.07072449999998
  0
LINE
  8
_0-0_0
  6
CONTINUOUS
 62
    7
 10
208.42896299999995
 20
803.80000250000001
 11
210.62014799999997
 21
803.80000250000001
  0
LINE
  8
_0-0_0
  6
CONTINUOUS
 62
    7
 10
210.70161399999995
 20
803.92930550000005
 11
210.62014799999997
 21
803.80000250000001
  0
ARC
  8
_0-0_0
  6
CONTINUOUS
 62
    7
 10
217.42896299999995
 20
799.60002150000003
 40
8
 50
148.33176499999999
 51
154.05551800000001
  0
LINE
  8
_0-0_0
  6
CONTINUOUS
 62
    7
 10
208.42896299999995
 20
803.10002150000003
 11
210.23521400000004
 21
803.10002150000003
  0
LINE
  8
_0-0_0
  6
CONTINUOUS
 62
    7
 10
210.23521400000004
 20
803.10002150000003
 11
210.17373699999996
 21
802.97071849999998
  0
LINE
  8
_0-0_0
  6
CONTINUOUS
 62
    7
 10
210.10969499999999
 20
802.82929950000005
 11
210.17373699999996
 21
802.97071849999998
  0
LINE
  8
_0-0_0
  6
CONTINUOUS
 62
    7
 10
208.42896299999995
 20
802.70002750000003
 11
210.05400899999995
 21
802.70002750000003
  0
LINE
  8
_0-0_0
  6
CONTINUOUS
 62
    7
 10
210.10969499999999
 20
802.82929950000005
 11
210.05400899999995
 21
802.70002750000003
  0
ARC
  8
_0-0_0
  6
CONTINUOUS
 62
    7
 10
217.42896299999995
 20
799.60002150000003
 40
8
 50
157.20097000000001
 51
162.54239699999999
  0
LINE
  8
_0-0_0
  6
CONTINUOUS
 62
    7
 10
208.42896299999995
 20
802.00001550000002
 11
209.79744700000003
 21
802.00001550000002
  0
LINE
  8
_0-0_0
  6
CONTINUOUS
 62
    7
 10
209.79744700000003
 20
802.00001550000002
 11
209.75798799999995
 21
801.87074250000001
  0
LINE
  8
_0-0_0
  6
CONTINUOUS
 62
    7
 10
209.71753699999999
 20
801.72929350000004
 11
209.75798799999995
 21
801.87074250000001
  0
LINE
  8
_0-0_0
  6
CONTINUOUS
 62
    7
 10
208.42896299999995
 20
801.60002150000003
 11
209.682999
 21
801.60002150000003
  0
LINE
  8
_0-0_0
  6
CONTINUOUS
 62
    7
 10
209.71753699999999
 20
801.72929350000004
 11
209.682999
 21
801.60002150000003
  0
ARC
  8
_0-0_0
  6
CONTINUOUS
 62
    7
 10
217.42896299999995
 20
799.60002150000003
 40
8
 50
165.52249
 51
170.64796000000001
  0
LINE
  8
_0-0_0
  6
CONTINUOUS
 62
    7
 10
208.42896299999995
 20
800.90000950000001
 11
209.53529400000002
 21
800.90000950000001
  0
LINE
  8
_0-0_0
  6
CONTINUOUS
 62
    7
 10
209.53529400000002
 20
800.90000950000001
 11
209.515083
 21
800.7707365
  0
LINE
  8
_0-0_0
  6
CONTINUOUS
 62
    7
 10
209.495453
 20
800.62931849999995
 11
209.515083
 21
800.7707365
  0
LINE
  8
_0-0_0
  6
CONTINUOUS
 62
    7
 10
208.42896299999995
 20
800.50001550000002
 11
209.47975199999996
 21
800.50001550000002
  0
LINE
  8
_0-0_0
  6
CONTINUOUS
 62
    7
 10
209.495453
 20
800.62931849999995
 11
209.47975199999996
 21
800.50001550000002
  0
ARC
  8
_0-0_0
  6
CONTINUOUS
 62
    7
 10
217.42896299999995
 20
799.60002150000003
 40
8
 50
173.54054500000001
 51
178.567455
  0
LINE
  8
_0-0_0
  6
CONTINUOUS
 62
    7
 10
208.42896299999995
 20
799.80000250000001
 11
209.431465
 21
799.80000250000001
  0
LINE
  8
_0-0_0
  6
CONTINUOUS
 62
    7
 10
209.431465
 20
799.80000250000001
 11
209.42927599999996
 21
799.67073049999999
  0
LINE
  8
_0-0_0
  6
CONTINUOUS
 62
    7
 10
209.42896299999995
 20
799.60002150000003
 11
209.42927599999996
 21
799.67073049999999
  0
LINE
  8
_0-0_0
  6
CONTINUOUS
 62
    7
 10
208.42896299999995
 20
799.40000950000001
 11
209.431465
 21
799.40000950000001
  0
LINE
  8
_0-0_0
  6
CONTINUOUS
 62
    7
 10
208.42896299999995
 20
798.70002750000003
 11
209.47975199999996
 21
798.70002750000003
  0
LINE
  8
_0-0_0
  6
CONTINUOUS
 62
    7
 10
208.42896299999995
 20
798.30000250000001
 11
209.53529400000002
 21
798.30000250000001
  0
LINE
  8
_0-0_0
  6
CONTINUOUS
 62
    7
 10
208.42896299999995
 20
797.60002150000003
 11
209.682999
 21
797.60002150000003
  0
LINE
  8
_0-0_0
  6
CONTINUOUS
 62
    7
 10
208.42896299999995
 20
797.20002750000003
 11
209.79744700000003
 21
797.20002750000003
  0
LINE
  8
_0-0_0
  6
CONTINUOUS
 62
    7
 10
208.42896299999995
 20
796.50001550000002
 11
210.05400899999995
 21
796.50001550000002
  0
LINE
  8
_0-0_0
  6
CONTINUOUS
 62
    7
 10
208.42896299999995
 20
796.10002150000003
 11
210.23521400000004
 21
796.10002150000003
  0
LINE
  8
_0-0_0
  6
CONTINUOUS
 62
    7
 10
208.42896299999995
 20
795.40000950000001
 11
210.62014799999997
 21
795.40000950000001
  0
LINE
  8
_0-0_0
  6
CONTINUOUS
 62
    7
 10
225.426468
 20
799.80000250000001
 11
225.42896999999994
 21
799.60002150000003
  0
ARC
  8
_0-0_0
  6
CONTINUOUS
 62
    7
 10
217.42896299999995
 20
799.60002150000003
 40
8
 50
1.432544
 51
6.4594489999999993
  0
LINE
  8
_0-0_0
  6
CONTINUOUS
 62
    7
 10
225.352982
 20
800.70002750000003
 11
225.37817399999994
 21
800.50001550000002
  0
LINE
  8
_0-0_0
  6
CONTINUOUS
 62
    7
 10
225.322632
 20
800.90000950000001
 11
225.352982
 21
800.70002750000003
  0
ARC
  8
_0-0_0
  6
CONTINUOUS
 62
    7
 10
217.42896299999995
 20
799.60002150000003
 40
8
 50
9.3520350000000008
 51
14.477510999999998
  0
LINE
  8
_0-0_0
  6
CONTINUOUS
 62
    7
 10
225.12051399999996
 20
801.80000250000001
 11
225.17492700000003
 21
801.60002150000003
  0
LINE
  8
_0-0_0
  6
CONTINUOUS
 62
    7
 10
225.06047799999999
 20
802.00001550000002
 11
225.12051399999996
 21
801.80000250000001
  0
ARC
  8
_0-0_0
  6
CONTINUOUS
 62
    7
 10
217.42896299999995
 20
799.60002150000003
 40
8
 50
17.457602999999999
 51
22.799030999999999
  0
LINE
  8
_0-0_0
  6
CONTINUOUS
 62
    7
 10
224.71662100000003
 20
802.90000950000001
 11
224.80392499999994
 21
802.70002750000003
  0
LINE
  8
_0-0_0
  6
CONTINUOUS
 62
    7
 10
224.62271099999998
 20
803.10002150000003
 11
224.71662100000003
 21
802.90000950000001
  0
ARC
  8
_0-0_0
  6
CONTINUOUS
 62
    7
 10
217.42896299999995
 20
799.60002150000003
 40
8
 50
25.944476999999999
 51
31.668240000000001
  0
LINE
  8
_0-0_0
  6
CONTINUOUS
 62
    7
 10
224.15631099999996
 20
803.92930550000005
 11
224.23777799999993
 21
803.80000250000001
  0
LINE
  8
_0-0_0
  6
CONTINUOUS
 62
    7
 10
224.15631099999996
 20
803.92930550000005
 11
224.06317100000001
 21
804.07072449999998
  0
LINE
  8
_0-0_0
  6
CONTINUOUS
 62
    7
 10
223.97419000000002
 20
804.20002750000003
 11
224.06317100000001
 21
804.07072449999998
  0
CIRCLE
  8
_0-0_0
  6
CONTINUOUS
 62
    7
 10
217.42896299999995
 20
799.60002150000003
 40
7.5
  0
LINE
  8
_0-0_0
  6
CONTINUOUS
 62
    7
 10
225.426468
 20
799.80000250000001
 11
1464.4313349999998
 21
799.80000250000001
  0
LINE
  8
_0-0_0
  6
CONTINUOUS
 62
    7
 10
225.37817399999994
 20
800.50001550000002
 11
1464.479675
 21
800.50001550000002
  0
LINE
  8
_0-0_0
  6
CONTINUOUS
 62
    7
 10
225.352982
 20
800.70002750000003
 11
1464.5048219999999
 21
800.70002750000003
  0
LINE
  8
_0-0_0
  6
CONTINUOUS
 62
    7
 10
225.322632
 20
800.90000950000001
 11
1464.5352170000001
 21
800.90000950000001
  0
LINE
  8
_0-0_0
  6
CONTINUOUS
 62
    7
 10
225.17492700000003
 20
801.60002150000003
 11
1464.682922
 21
801.60002150000003
  0
LINE
  8
_0-0_0
  6
CONTINUOUS
 62
    7
 10
225.12051399999996
 20
801.80000250000001
 11
1464.7373659999998
 21
801.80000250000001
  0
LINE
  8
_0-0_0
  6
CONTINUOUS
 62
    7
 10
225.06047799999999
 20
802.00001550000002
 11
1464.7974239999999
 21
802.00001550000002
  0
LINE
  8
_0-0_0
  6
CONTINUOUS
 62
    7
 10
224.80392499999994
 20
802.70002750000003
 11
1465.0538940000001
 21
802.70002750000003
  0
LINE
  8
_0-0_0
  6
CONTINUOUS
 62
    7
 10
224.71662100000003
 20
802.90000950000001
 11
1465.1411739999999
 21
802.90000950000001
  0
LINE
  8
_0-0_0
  6
CONTINUOUS
 62
    7
 10
224.62271099999998
 20
803.10002150000003
 11
1465.235169
 21
803.10002150000003
  0
LINE
  8
_0-0_0
  6
CONTINUOUS
 62
    7
 10
224.23777799999993
 20
803.80000250000001
 11
1465.6200560000002
 21
803.80000250000001
  0
LINE
  8
_0-0_0
  6
CONTINUOUS
 62
    7
 10
1481.9288940000001
 20
781.60002150000003
 11
1481.4288940000001
 21
781.60002150000003
  0
LINE
  8
_0-0_0
  6
CONTINUOUS
 62
    7
 10
1481.9288940000001
 20
809.20002750000003
 11
1481.9288940000001
 21
810.00001550000002
  0
LINE
  8
_0-0_0
  6
CONTINUOUS
 62
    7
 10
1481.9288940000001
 20
781.40000950000001
 11
1481.9288940000001
 21
809.20002750000003
  0
ARC
  8
_0-0_0
  6
CONTINUOUS
 62
    7
 10
1472.4288940000001
 20
800.30000250000001
 40
12.800000000000001
 50
73.932597000000001
 51
106.06740099999999
  0
LINE
  8
_0-0_0
  6
CONTINUOUS
 62
    7
 10
207.92896299999995
 20
809.20002750000003
 11
207.92896299999995
 21
810.00001550000002
  0
LINE
  8
_0-0_0
  6
CONTINUOUS
 62
    7
 10
207.92896299999995
 20
781.40000950000001
 11
207.92896299999995
 21
809.20002750000003
  0
ARC
  8
_0-0_0
  6
CONTINUOUS
 62
    7
 10
217.42896299999995
 20
800.30000250000001
 40
12.800000000000001
 50
73.932597000000001
 51
106.06740099999999
  0
LINE
  8
_0-0_0
  6
CONTINUOUS
 62
    7
 10
835.42895499999997
 20
812.59999049999999
 11
835.42895499999997
 21
818.23991350000006
  0
LINE
  8
_0-0_0
  6
CONTINUOUS
 62
    7
 10
854.42895499999997
 20
818.23991350000006
 11
854.42895499999997
 21
812.59999049999999
  0
LINE
  8
_0-0_0
  6
CONTINUOUS
 62
    7
 10
1481.9288940000001
 20
810.10002150000003
 11
1481.9288940000001
 21
812.60002150000003
  0
LINE
  8
_0-0_0
  6
CONTINUOUS
 62
    7
 10
207.92896299999995
 20
812.60002150000003
 11
1481.9288940000001
 21
812.60002150000003
  0
LINE
  8
_0-0_0
  6
CONTINUOUS
 62
    7
 10
207.92896299999995
 20
810.10002150000003
 11
207.92896299999995
 21
812.60002150000003
  0
LINE
  8
_0-0_0
  6
CONTINUOUS
 62
    7
 10
207.92896299999995
 20
781.60002150000003
 11
208.42896299999995
 21
781.60002150000003
  0
ARC
  8
_0-0_0
  6
CONTINUOUS
 62
    7
 10
1420.2289430000001
 20
786.50001550000002
 40
0.2
 50
339.62356199999999
 51
90.000002999999978
  0
LINE
  8
_0-0_0
  6
CONTINUOUS
 62
    7
 10
1420.4163210000002
 20
786.43037449999997
 11
1419.1163940000001
 21
782.93037449999997
  0
ARC
  8
_0-0_0
  6
CONTINUOUS
 62
    7
 10
1418.9288940000001
 20
783.00001550000002
 40
0.2
 50
200.37643
 51
339.62356199999999
  0
LINE
  8
_0-0_0
  6
CONTINUOUS
 62
    7
 10
1417.4414670000001
 20
786.43037449999997
 11
1418.7413940000001
 21
782.93037449999997
  0
ARC
  8
_0-0_0
  6
CONTINUOUS
 62
    7
 10
1417.6288450000002
 20
786.50001550000002
 40
0.2
 50
90.000003000000007
 51
200.37643
  0
LINE
  8
_0-0_0
  6
CONTINUOUS
 62
    7
 10
1417.6288450000002
 20
786.70002750000003
 11
1420.2289430000001
 21
786.70002750000003
  0
ARC
  8
_0-0_0
  6
CONTINUOUS
 62
    7
 10
280.22895800000003
 20
786.50001550000002
 40
0.2
 50
339.62356199999999
 51
90.000002999999978
  0
LINE
  8
_0-0_0
  6
CONTINUOUS
 62
    7
 10
280.41644299999996
 20
786.43037449999997
 11
279.11644000000001
 21
782.93037449999997
  0
ARC
  8
_0-0_0
  6
CONTINUOUS
 62
    7
 10
278.92895499999997
 20
783.00001550000002
 40
0.2
 50
200.37643
 51
339.62356199999999
  0
LINE
  8
_0-0_0
  6
CONTINUOUS
 62
    7
 10
277.44146699999999
 20
786.43037449999997
 11
278.74146999999994
 21
782.93037449999997
  0
ARC
  8
_0-0_0
  6
CONTINUOUS
 62
    7
 10
277.62895200000003
 20
786.50001550000002
 40
0.2
 50
90.000003000000007
 51
200.37643
  0
LINE
  8
_0-0_0
  6
CONTINUOUS
 62
    7
 10
277.62895200000003
 20
786.70002750000003
 11
280.22895800000003
 21
786.70002750000003
  0
LINE
  8
_0-0_0
  6
CONTINUOUS
 62
    7
 10
1482.9288940000001
 20
809.20002750000003
 11
1481.9288940000001
 21
809.20002750000003
  0
LINE
  8
_0-0_0
  6
CONTINUOUS
 62
    7
 10
1482.9288940000001
 20
810.23701449999999
 11
1481.9288940000001
 21
810.23701449999999
  0
LINE
  8
_0-0_0
  6
CONTINUOUS
 62
    7
 10
1482.9288940000001
 20
781.40000950000001
 11
1481.9288940000001
 21
781.40000950000001
  0
ARC
  8
_0-0_0
  6
CONTINUOUS
 62
    7
 10
844.92895499999997
 20
800.30000250000001
 40
20.299999
 50
62.096725999999997
 51
117.903272
  0
CIRCLE
  8
_0-0_0
  6
CONTINUOUS
 62
    7
 10
844.92895499999997
 20
816.60002150000003
 40
2.5
  0
LINE
  8
_0-0_0
  6
CONTINUOUS
 62
    7
 10
206.92896299999995
 20
809.20002750000003
 11
207.92896299999995
 21
809.20002750000003
  0
LINE
  8
_0-0_0
  6
CONTINUOUS
 62
    7
 10
206.92896299999995
 20
810.20002750000003
 11
207.92896299999995
 21
810.20002750000003
  0
LINE
  8
_0-0_0
  6
CONTINUOUS
 62
    7
 10
206.92896299999995
 20
781.40000950000001
 11
207.92896299999995
 21
781.40000950000001
  0
LINE
  8
_0-0_0
  6
CONTINUOUS
 62
    7
 10
1482.9288940000001
 20
812.40000950000001
 11
1481.9288940000001
 21
812.40000950000001
  0
LINE
  8
_0-0_0
  6
CONTINUOUS
 62
    7
 10
206.92896299999995
 20
812.40000950000001
 11
207.92896299999995
 21
812.40000950000001
  0
LINE
  8
_0-0_0
  6
CONTINUOUS
 62
    7
 10
1483.9288940000001
 20
808.78581250000002
 11
1483.9279179999999
 21
808.80430550000005
  0
LINE
  8
_0-0_0
  6
CONTINUOUS
 62
    7
 10
1483.9279179999999
 20
808.80430550000005
 11
1483.9248659999998
 21
808.82273850000001
  0
LINE
  8
_0-0_0
  6
CONTINUOUS
 62
    7
 10
1483.9248659999998
 20
808.82273850000001
 11
1483.919617
 21
808.84187350000002
  0
LINE
  8
_0-0_0
  6
CONTINUOUS
 62
    7
 10
1483.919617
 20
808.84187350000002
 11
1483.9122929999999
 21
808.86091650000003
  0
LINE
  8
_0-0_0
  6
CONTINUOUS
 62
    7
 10
1483.9122929999999
 20
808.86091650000003
 11
1483.8917849999998
 21
808.8976285
  0
LINE
  8
_0-0_0
  6
CONTINUOUS
 62
    7
 10
1483.8917849999998
 20
808.8976285
 11
1483.8633420000001
 21
808.93330349999997
  0
LINE
  8
_0-0_0
  6
CONTINUOUS
 62
    7
 10
1483.8633420000001
 20
808.93330349999997
 11
1483.8274539999998
 21
808.96757449999996
  0
LINE
  8
_0-0_0
  6
CONTINUOUS
 62
    7
 10
1483.8274539999998
 20
808.96757449999996
 11
1483.7788700000001
 21
809.00404349999997
  0
LINE
  8
_0-0_0
  6
CONTINUOUS
 62
    7
 10
1483.7788700000001
 20
809.00404349999997
 11
1483.7221070000001
 21
809.0380705
  0
LINE
  8
_0-0_0
  6
CONTINUOUS
 62
    7
 10
1483.7221070000001
 20
809.0380705
 11
1483.6578979999999
 21
809.0693205
  0
LINE
  8
_0-0_0
  6
CONTINUOUS
 62
    7
 10
1483.6578979999999
 20
809.0693205
 11
1483.587219
 21
809.09754950000001
  0
LINE
  8
_0-0_0
  6
CONTINUOUS
 62
    7
 10
1483.587219
 20
809.09754950000001
 11
1483.5391239999999
 21
809.11390649999998
  0
LINE
  8
_0-0_0
  6
CONTINUOUS
 62
    7
 10
1483.5391239999999
 20
809.11390649999998
 11
1483.489075
 21
809.12892150000005
  0
LINE
  8
_0-0_0
  6
CONTINUOUS
 62
    7
 10
1483.489075
 20
809.12892150000005
 11
1483.4323119999999
 21
809.14369150000005
  0
LINE
  8
_0-0_0
  6
CONTINUOUS
 62
    7
 10
1483.4323119999999
 20
809.14369150000005
 11
1483.3737179999998
 21
809.15678349999996
  0
LINE
  8
_0-0_0
  6
CONTINUOUS
 62
    7
 10
1483.3737179999998
 20
809.15678349999996
 11
1483.2568970000002
 21
809.17707849999999
  0
LINE
  8
_0-0_0
  6
CONTINUOUS
 62
    7
 10
1483.2568970000002
 20
809.17707849999999
 11
1483.1495970000001
 21
809.18980350000004
  0
LINE
  8
_0-0_0
  6
CONTINUOUS
 62
    7
 10
1483.1495970000001
 20
809.18980350000004
 11
1483.039734
 21
809.19746350000003
  0
LINE
  8
_0-0_0
  6
CONTINUOUS
 62
    7
 10
1483.039734
 20
809.19746350000003
 11
1482.9288940000001
 21
809.20002750000003
  0
LINE
  8
_0-0_0
  6
CONTINUOUS
 62
    7
 10
1483.9288940000001
 20
808.78581250000002
 11
1483.9288940000001
 21
809.78587349999998
  0
LINE
  8
_0-0_0
  6
CONTINUOUS
 62
    7
 10
1483.9288940000001
 20
809.78587349999998
 11
1483.925964
 21
809.81742850000001
  0
LINE
  8
_0-0_0
  6
CONTINUOUS
 62
    7
 10
1483.925964
 20
809.81742850000001
 11
1483.917297
 21
809.84950249999997
  0
LINE
  8
_0-0_0
  6
CONTINUOUS
 62
    7
 10
1483.917297
 20
809.84950249999997
 11
1483.902771
 21
809.88179049999997
  0
LINE
  8
_0-0_0
  6
CONTINUOUS
 62
    7
 10
1483.902771
 20
809.88179049999997
 11
1483.8825069999998
 21
809.91395550000004
  0
LINE
  8
_0-0_0
  6
CONTINUOUS
 62
    7
 10
1483.8825069999998
 20
809.91395550000004
 11
1483.865906
 21
809.93516550000004
  0
LINE
  8
_0-0_0
  6
CONTINUOUS
 62
    7
 10
1483.865906
 20
809.93516550000004
 11
1483.8469850000001
 21
809.95613049999997
  0
LINE
  8
_0-0_0
  6
CONTINUOUS
 62
    7
 10
1483.8469850000001
 20
809.95613049999997
 11
1483.802185
 21
809.99690250000003
  0
LINE
  8
_0-0_0
  6
CONTINUOUS
 62
    7
 10
1483.802185
 20
809.99690250000003
 11
1483.7489620000001
 21
810.03565949999995
  0
LINE
  8
_0-0_0
  6
CONTINUOUS
 62
    7
 10
1483.7489620000001
 20
810.03565949999995
 11
1483.699036
 21
810.06587249999995
  0
LINE
  8
_0-0_0
  6
CONTINUOUS
 62
    7
 10
1483.699036
 20
810.06587249999995
 11
1483.6443479999998
 21
810.09407050000004
  0
LINE
  8
_0-0_0
  6
CONTINUOUS
 62
    7
 10
1483.6443479999998
 20
810.09407050000004
 11
1483.585388
 21
810.12013249999995
  0
LINE
  8
_0-0_0
  6
CONTINUOUS
 62
    7
 10
1483.585388
 20
810.12013249999995
 11
1483.5386349999999
 21
810.13810750000005
  0
LINE
  8
_0-0_0
  6
CONTINUOUS
 62
    7
 10
1483.5386349999999
 20
810.13810750000005
 11
1483.4899289999998
 21
810.15470849999997
  0
LINE
  8
_0-0_0
  6
CONTINUOUS
 62
    7
 10
1483.4899289999998
 20
810.15470849999997
 11
1483.3875119999998
 21
810.18360849999999
  0
LINE
  8
_0-0_0
  6
CONTINUOUS
 62
    7
 10
1483.3875119999998
 20
810.18360849999999
 11
1483.2798459999999
 21
810.2064365
  0
LINE
  8
_0-0_0
  6
CONTINUOUS
 62
    7
 10
1483.2798459999999
 20
810.2064365
 11
1483.1681520000002
 21
810.22300749999999
  0
LINE
  8
_0-0_0
  6
CONTINUOUS
 62
    7
 10
1483.1681520000002
 20
810.22300749999999
 11
1483.054138
 21
810.23319949999996
  0
LINE
  8
_0-0_0
  6
CONTINUOUS
 62
    7
 10
1483.054138
 20
810.23319949999996
 11
1482.9288940000001
 21
810.23701449999999
  0
ARC
  8
_0-0_0
  6
CONTINUOUS
 62
    7
 10
1482.9288940000001
 20
782.40000950000001
 40
1
 50
269.99999700000001
 51
0
  0
LINE
  8
_0-0_0
  6
CONTINUOUS
 62
    7
 10
1483.9288940000001
 20
782.40000950000001
 11
1483.9288940000001
 21
808.78581250000002
  0
LINE
  8
_0-0_0
  6
CONTINUOUS
 62
    7
 10
205.92896299999995
 20
808.78581250000002
 11
205.92996199999993
 21
808.80430550000005
  0
LINE
  8
_0-0_0
  6
CONTINUOUS
 62
    7
 10
205.92996199999993
 20
808.80430550000005
 11
205.93296099999998
 21
808.82273850000001
  0
LINE
  8
_0-0_0
  6
CONTINUOUS
 62
    7
 10
205.93296099999998
 20
808.82273850000001
 11
205.93819399999995
 21
808.84187350000002
  0
LINE
  8
_0-0_0
  6
CONTINUOUS
 62
    7
 10
205.93819399999995
 20
808.84187350000002
 11
205.94557199999997
 21
808.86091650000003
  0
LINE
  8
_0-0_0
  6
CONTINUOUS
 62
    7
 10
205.94557199999997
 20
808.86091650000003
 11
205.96612600000003
 21
808.8976285
  0
LINE
  8
_0-0_0
  6
CONTINUOUS
 62
    7
 10
205.96612600000003
 20
808.8976285
 11
205.99452199999996
 21
808.93330349999997
  0
LINE
  8
_0-0_0
  6
CONTINUOUS
 62
    7
 10
205.99452199999996
 20
808.93330349999997
 11
206.03040299999998
 21
808.96757449999996
  0
LINE
  8
_0-0_0
  6
CONTINUOUS
 62
    7
 10
206.03040299999998
 20
808.96757449999996
 11
206.079025
 21
809.00404349999997
  0
LINE
  8
_0-0_0
  6
CONTINUOUS
 62
    7
 10
206.079025
 20
809.00404349999997
 11
206.13581099999999
 21
809.0380705
  0
LINE
  8
_0-0_0
  6
CONTINUOUS
 62
    7
 10
206.13581099999999
 20
809.0380705
 11
206.19995099999994
 21
809.0693205
  0
LINE
  8
_0-0_0
  6
CONTINUOUS
 62
    7
 10
206.19995099999994
 20
809.0693205
 11
206.27059899999995
 21
809.09754950000001
  0
LINE
  8
_0-0_0
  6
CONTINUOUS
 62
    7
 10
206.27059899999995
 20
809.09754950000001
 11
206.31867999999997
 21
809.11390649999998
  0
LINE
  8
_0-0_0
  6
CONTINUOUS
 62
    7
 10
206.31867999999997
 20
809.11390649999998
 11
206.36882000000003
 21
809.12892150000005
  0
LINE
  8
_0-0_0
  6
CONTINUOUS
 62
    7
 10
206.36882000000003
 20
809.12892150000005
 11
206.425522
 21
809.14369150000005
  0
LINE
  8
_0-0_0
  6
CONTINUOUS
 62
    7
 10
206.425522
 20
809.14369150000005
 11
206.48412299999995
 21
809.15678349999996
  0
LINE
  8
_0-0_0
  6
CONTINUOUS
 62
    7
 10
206.48412299999995
 20
809.15678349999996
 11
206.60090600000001
 21
809.17707849999999
  0
LINE
  8
_0-0_0
  6
CONTINUOUS
 62
    7
 10
206.60090600000001
 20
809.17707849999999
 11
206.70831299999998
 21
809.18980350000004
  0
LINE
  8
_0-0_0
  6
CONTINUOUS
 62
    7
 10
206.70831299999998
 20
809.18980350000004
 11
206.81807700000002
 21
809.19746350000003
  0
LINE
  8
_0-0_0
  6
CONTINUOUS
 62
    7
 10
206.81807700000002
 20
809.19746350000003
 11
206.92896299999995
 21
809.20002750000003
  0
LINE
  8
_0-0_0
  6
CONTINUOUS
 62
    7
 10
205.92896299999995
 20
809.75547749999998
 11
205.93185399999993
 21
809.7863615
  0
LINE
  8
_0-0_0
  6
CONTINUOUS
 62
    7
 10
205.93185399999993
 20
809.7863615
 11
205.94055200000003
 21
809.81782550000003
  0
LINE
  8
_0-0_0
  6
CONTINUOUS
 62
    7
 10
205.94055200000003
 20
809.81782550000003
 11
205.95503199999996
 21
809.84947150000005
  0
LINE
  8
_0-0_0
  6
CONTINUOUS
 62
    7
 10
205.95503199999996
 20
809.84947150000005
 11
205.97520499999996
 21
809.8810575
  0
LINE
  8
_0-0_0
  6
CONTINUOUS
 62
    7
 10
205.97520499999996
 20
809.8810575
 11
205.99172199999998
 21
809.90193150000005
  0
LINE
  8
_0-0_0
  6
CONTINUOUS
 62
    7
 10
205.99172199999998
 20
809.90193150000005
 11
206.010628
 21
809.92256150000003
  0
LINE
  8
_0-0_0
  6
CONTINUOUS
 62
    7
 10
206.010628
 20
809.92256150000003
 11
206.05526699999996
 21
809.96272250000004
  0
LINE
  8
_0-0_0
  6
CONTINUOUS
 62
    7
 10
206.05526699999996
 20
809.96272250000004
 11
206.10839799999997
 21
810.00090050000006
  0
LINE
  8
_0-0_0
  6
CONTINUOUS
 62
    7
 10
206.10839799999997
 20
810.00090050000006
 11
206.15829499999995
 21
810.03071550000004
  0
LINE
  8
_0-0_0
  6
CONTINUOUS
 62
    7
 10
206.15829499999995
 20
810.03071550000004
 11
206.21296699999994
 21
810.05860849999999
  0
LINE
  8
_0-0_0
  6
CONTINUOUS
 62
    7
 10
206.21296699999994
 20
810.05860849999999
 11
206.27193499999998
 21
810.08433549999995
  0
LINE
  8
_0-0_0
  6
CONTINUOUS
 62
    7
 10
206.27193499999998
 20
810.08433549999995
 11
206.31869499999993
 21
810.10212650000005
  0
LINE
  8
_0-0_0
  6
CONTINUOUS
 62
    7
 10
206.31869499999993
 20
810.10212650000005
 11
206.36740099999997
 21
810.11854549999998
  0
LINE
  8
_0-0_0
  6
CONTINUOUS
 62
    7
 10
206.36740099999997
 20
810.11854549999998
 11
206.46983299999999
 21
810.14714049999998
  0
LINE
  8
_0-0_0
  6
CONTINUOUS
 62
    7
 10
206.46983299999999
 20
810.14714049999998
 11
206.57765199999994
 21
810.16972350000003
  0
LINE
  8
_0-0_0
  6
CONTINUOUS
 62
    7
 10
206.57765199999994
 20
810.16972350000003
 11
206.68933900000002
 21
810.18614149999996
  0
LINE
  8
_0-0_0
  6
CONTINUOUS
 62
    7
 10
206.68933900000002
 20
810.18614149999996
 11
206.80349699999999
 21
810.19624350000004
  0
LINE
  8
_0-0_0
  6
CONTINUOUS
 62
    7
 10
206.80349699999999
 20
810.19624350000004
 11
206.92896299999995
 21
810.20002750000003
  0
LINE
  8
_0-0_0
  6
CONTINUOUS
 62
    7
 10
205.92896299999995
 20
808.78581250000002
 11
205.92896299999995
 21
809.75547749999998
  0
ARC
  8
_0-0_0
  6
CONTINUOUS
 62
    7
 10
206.92896299999995
 20
782.40000950000001
 40
1
 50
180.00000900000003
 51
269.99999700000001
  0
LINE
  8
_0-0_0
  6
CONTINUOUS
 62
    7
 10
205.92896299999995
 20
782.40000950000001
 11
205.92896299999995
 21
808.78581250000002
  0
CIRCLE
  8
_0-0_0
  6
CONTINUOUS
 62
    7
 10
217.42896299999995
 20
799.60002150000003
 40
5
  0
CIRCLE
  8
_0-0_0
  6
CONTINUOUS
 62
    7
 10
1472.4288940000001
 20
799.60002150000003
 40
5
  0
LINE
  8
_0-0_0
  6
CONTINUOUS
 62
    7
 10
1483.9288940000001
 20
809.78587349999998
 11
1483.9288940000001
 21
811.40000950000001
  0
ARC
  8
_0-0_0
  6
CONTINUOUS
 62
    7
 10
1482.9288940000001
 20
811.40000950000001
 40
1
 50
0
 51
90.000003000000007
  0
ARC
  8
_0-0_0
  6
CONTINUOUS
 62
    7
 10
206.92896299999995
 20
811.40000950000001
 40
1
 50
90.000003000000007
 51
180.00000900000001
  0
LINE
  8
_0-0_0
  6
CONTINUOUS
 62
    7
 10
205.92896299999995
 20
809.75547749999998
 11
205.92896299999995
 21
811.40000950000001
  0
LINE
  8
_0-0_0
  6
CONTINUOUS
 62
    7
 10
118.11328900000001
 20
779.29994150000005
 11
118.11328900000001
 21
779.27494750000005
  0
LINE
  8
_0-0_0
  6
CONTINUOUS
 62
    7
 10
118.11328900000001
 20
776.2228235
 11
118.11328900000001
 21
776.32493550000004
  0
LINE
  8
_0-0_0
  6
CONTINUOUS
 62
    7
 10
118.11328900000001
 20
755.19993550000004
 11
118.11328900000001
 21
755.97706549999998
  0
LINE
  8
_0-0_0
  6
CONTINUOUS
 62
    7
 10
101.31329299999993
 20
755.19993550000004
 11
118.11328900000001
 21
755.19993550000004
  0
LINE
  8
_0-0_0
  6
CONTINUOUS
 62
    7
 10
101.31329299999993
 20
763.09992950000003
 11
101.31329299999993
 21
755.19993550000004
  0
LINE
  8
_0-0_0
  6
CONTINUOUS
 62
    7
 10
101.31329299999993
 20
775.55525150000005
 11
101.31329299999993
 21
769.09992950000003
  0
LINE
  8
_0-0_0
  6
CONTINUOUS
 62
    7
 10
118.61327400000005
 20
758.69993550000004
 11
118.81329299999993
 21
758.69993550000004
  0
LINE
  8
_0-0_0
  6
CONTINUOUS
 62
    7
 10
118.81329299999993
 20
758.69993550000004
 11
118.81329299999993
 21
761.69993550000004
  0
LINE
  8
_0-0_0
  6
CONTINUOUS
 62
    7
 10
118.81329299999993
 20
775.29994150000005
 11
118.81329299999993
 21
761.69993550000004
  0
LINE
  8
_0-0_0
  6
CONTINUOUS
 62
    7
 10
118.61328900000001
 20
778.29994150000005
 11
118.81329299999993
 21
778.29994150000005
  0
LINE
  8
_0-0_0
  6
CONTINUOUS
 62
    7
 10
118.81329299999993
 20
775.29994150000005
 11
118.81329299999993
 21
778.29994150000005
  0
LINE
  8
_0-0_0
  6
CONTINUOUS
 62
    7
 10
117.91329199999996
 20
777.59901449999995
 11
117.91329199999996
 21
776.41981450000003
  0
LINE
  8
_0-0_0
  6
CONTINUOUS
 62
    7
 10
117.91329199999996
 20
779.79994150000005
 11
117.91329199999996
 21
779.29994150000005
  0
LINE
  8
_0-0_0
  6
CONTINUOUS
 62
    7
 10
116.91329199999996
 20
776.88343750000001
 11
116.91329199999996
 21
777.59992950000003
  0
ARC
  8
_0-0_0
  6
CONTINUOUS
 62
    7
 10
116.61328900000001
 20
774.89994750000005
 40
2
 50
0
 51
90.000003000000007
  0
LINE
  8
_0-0_0
  6
CONTINUOUS
 62
    7
 10
118.61328900000001
 20
771.39994750000005
 11
118.61328900000001
 21
774.39994750000005
  0
LINE
  8
_0-0_0
  6
CONTINUOUS
 62
    7
 10
118.61328900000001
 20
774.39994750000005
 11
118.61328900000001
 21
774.89994750000005
  0
LINE
  8
_0-0_0
  6
CONTINUOUS
 62
    7
 10
118.61328900000001
 20
757.29994150000005
 11
118.61328900000001
 21
770.89994750000005
  0
LINE
  8
_0-0_0
  6
CONTINUOUS
 62
    7
 10
118.61328900000001
 20
771.39994750000005
 11
118.61328900000001
 21
770.89994750000005
  0
ARC
  8
_0-0_0
  6
CONTINUOUS
 62
    7
 10
116.61328900000001
 20
757.29994150000005
 40
2
 50
273.84026500000004
 51
0.000010000000014
  0
LINE
  8
_0-0_0
  6
CONTINUOUS
 62
    7
 10
103.31329299999993
 20
776.88343750000001
 11
103.31329299999993
 21
777.59992950000003
  0
LINE
  8
_0-0_0
  6
CONTINUOUS
 62
    7
 10
103.31329299999993
 20
776.88343750000001
 11
103.31329299999993
 21
776.87730350000004
  0
LINE
  8
_0-0_0
  6
CONTINUOUS
 62
    7
 10
101.31329299999993
 20
775.55525150000005
 11
101.31329299999993
 21
776.05525150000005
  0
LINE
  8
_0-0_0
  6
CONTINUOUS
 62
    7
 10
101.61328900000001
 20
774.89994750000005
 11
101.61328900000001
 21
761.29994150000005
  0
LINE
  8
_0-0_0
  6
CONTINUOUS
 62
    7
 10
101.61328900000001
 20
760.79994150000005
 11
101.61328900000001
 21
761.29994150000005
  0
LINE
  8
_0-0_0
  6
CONTINUOUS
 62
    7
 10
101.61328900000001
 20
757.79994150000005
 11
101.61328900000001
 21
760.79994150000005
  0
LINE
  8
_0-0_0
  6
CONTINUOUS
 62
    7
 10
101.61328900000001
 20
757.29994150000005
 11
101.61328900000001
 21
757.79994150000005
  0
ARC
  8
_0-0_0
  6
CONTINUOUS
 62
    7
 10
103.61328900000001
 20
774.89994750000005
 40
2
 50
93.840255999999997
 51
180.00000900000001
  0
LINE
  8
_0-0_0
  6
CONTINUOUS
 62
    7
 10
101.31329299999993
 20
763.09992950000003
 11
101.31329299999993
 21
769.09992950000003
  0
LINE
  8
_0-0_0
  6
CONTINUOUS
 62
    7
 10
101.31329299999993
 20
777.59992950000003
 11
101.31329299999993
 21
776.05525150000005
  0
LINE
  8
_0-0_0
  6
CONTINUOUS
 62
    7
 10
101.31329299999993
 20
769.09992950000003
 11
101.61328100000003
 21
769.09992950000003
  0
LINE
  8
_0-0_0
  6
CONTINUOUS
 62
    7
 10
101.31329299999993
 20
763.09992950000003
 11
101.61328100000003
 21
763.09992950000003
  0
LINE
  8
_0-0_0
  6
CONTINUOUS
 62
    7
 10
116.61328900000001
 20
755.29994150000005
 11
107.61328900000001
 21
755.29994150000005
  0
LINE
  8
_0-0_0
  6
CONTINUOUS
 62
    7
 10
104.11328900000001
 20
755.29994150000005
 11
103.61328900000001
 21
755.29994150000005
  0
LINE
  8
_0-0_0
  6
CONTINUOUS
 62
    7
 10
107.11328900000001
 20
755.29994150000005
 11
104.11328900000001
 21
755.29994150000005
  0
LINE
  8
_0-0_0
  6
CONTINUOUS
 62
    7
 10
107.61328900000001
 20
755.29994150000005
 11
107.11328900000001
 21
755.29994150000005
  0
ARC
  8
_0-0_0
  6
CONTINUOUS
 62
    7
 10
103.61328900000001
 20
757.29994150000005
 40
2
 50
180.00000900000003
 51
269.99999700000001
  0
ARC
  8
_0-0_0
  6
CONTINUOUS
 62
    7
 10
117.41329199999996
 20
779.79994150000005
 40
0.5
 50
0
 51
90.000003000000007
  0
LINE
  8
_0-0_0
  6
CONTINUOUS
 62
    7
 10
115.91329199999996
 20
780.29994150000005
 11
117.41329199999996
 21
780.29994150000005
  0
ARC
  8
_0-0_0
  6
CONTINUOUS
 62
    7
 10
115.91329199999996
 20
781.29994150000005
 40
1
 50
180.00000900000003
 51
269.99999700000001
  0
LINE
  8
_0-0_0
  6
CONTINUOUS
 62
    7
 10
114.91329199999996
 20
781.29994150000005
 11
114.91329199999996
 21
781.40003950000005
  0
LINE
  8
_0-0_0
  6
CONTINUOUS
 62
    7
 10
114.41329199999996
 20
780.29994150000005
 11
114.41329199999996
 21
781.40003950000005
  0
ARC
  8
_0-0_0
  6
CONTINUOUS
 62
    7
 10
115.41329199999996
 20
780.29994150000005
 40
1
 50
180.00000900000003
 51
269.99999700000001
  0
LINE
  8
_0-0_0
  6
CONTINUOUS
 62
    7
 10
115.41329199999996
 20
779.29994150000005
 11
115.21328700000004
 21
779.29994150000005
  0
ARC
  8
_0-0_0
  6
CONTINUOUS
 62
    7
 10
115.21328700000004
 20
780.29994150000005
 40
1
 50
180.00000900000003
 51
269.99999700000001
  0
ARC
  8
_0-0_0
  6
CONTINUOUS
 62
    7
 10
105.01328999999998
 20
780.29994150000005
 40
1
 50
269.99999700000001
 51
0
  0
LINE
  8
_0-0_0
  6
CONTINUOUS
 62
    7
 10
105.01328999999998
 20
779.29994150000005
 11
104.31329299999993
 21
779.29994150000005
  0
LINE
  8
_0-0_0
  6
CONTINUOUS
 62
    7
 10
118.11328900000001
 20
779.29994150000005
 11
117.91329199999996
 21
779.29994150000005
  0
LINE
  8
_0-0_0
  6
CONTINUOUS
 62
    7
 10
101.31329299999993
 20
777.59992950000003
 11
118.11328900000001
 21
777.59992950000003
  0
LINE
  8
_0-0_0
  6
CONTINUOUS
 62
    7
 10
118.11328900000001
 20
777.59992950000003
 11
118.11328900000001
 21
779.29994150000005
  0
LINE
  8
_0-0_0
  6
CONTINUOUS
 62
    7
 10
114.21328700000004
 20
781.40003950000005
 11
114.21328700000004
 21
780.29994150000005
  0
LINE
  8
_0-0_0
  6
CONTINUOUS
 62
    7
 10
106.01328999999998
 20
780.29994150000005
 11
106.01328999999998
 21
781.40003950000005
  0
LINE
  8
_0-0_0
  6
CONTINUOUS
 62
    7
 10
102.31329299999993
 20
779.29994150000005
 11
101.31329299999993
 21
779.29994150000005
  0
LINE
  8
_0-0_0
  6
CONTINUOUS
 62
    7
 10
101.31329299999993
 20
777.59992950000003
 11
101.31329299999993
 21
779.29994150000005
  0
LINE
  8
_0-0_0
  6
CONTINUOUS
 62
    7
 10
116.61328900000001
 20
776.89994750000005
 11
116.11328900000001
 21
776.89994750000005
  0
CIRCLE
  8
_0-0_0
  6
CONTINUOUS
 62
    7
 10
116.11328900000001
 20
774.39994750000005
 40
2.5
  0
LINE
  8
_0-0_0
  6
CONTINUOUS
 62
    7
 10
103.61328900000001
 20
776.89994750000005
 11
112.61328900000001
 21
776.89994750000005
  0
LINE
  8
_0-0_0
  6
CONTINUOUS
 62
    7
 10
116.11328900000001
 20
776.89994750000005
 11
113.11328900000001
 21
776.89994750000005
  0
LINE
  8
_0-0_0
  6
CONTINUOUS
 62
    7
 10
112.61328900000001
 20
776.89994750000005
 11
113.11328900000001
 21
776.89994750000005
  0
ARC
  8
_0-0_0
  6
CONTINUOUS
 62
    7
 10
118.11328900000001
 20
770.89994750000005
 40
0.5
 50
0
 51
90.000003000000007
  0
LINE
  8
_0-0_0
  6
CONTINUOUS
 62
    7
 10
116.61328900000001
 20
755.40257250000002
 11
116.62917300000004
 21
755.37532050000004
  0
LINE
  8
_0-0_0
  6
CONTINUOUS
 62
    7
 10
116.62917300000004
 20
755.37532050000004
 11
116.64501999999993
 21
755.35234049999997
  0
LINE
  8
_0-0_0
  6
CONTINUOUS
 62
    7
 10
116.64501999999993
 20
755.35234049999997
 11
116.658997
 21
755.33558649999998
  0
LINE
  8
_0-0_0
  6
CONTINUOUS
 62
    7
 10
116.658997
 20
755.33558649999998
 11
116.67289700000003
 21
755.3222505
  0
LINE
  8
_0-0_0
  6
CONTINUOUS
 62
    7
 10
116.67289700000003
 20
755.3222505
 11
116.685112
 21
755.31333949999998
  0
LINE
  8
_0-0_0
  6
CONTINUOUS
 62
    7
 10
116.685112
 20
755.31333949999998
 11
116.69723499999998
 21
755.30711350000001
  0
LINE
  8
_0-0_0
  6
CONTINUOUS
 62
    7
 10
116.69723499999998
 20
755.30711350000001
 11
116.70809899999995
 21
755.30384849999996
  0
LINE
  8
_0-0_0
  6
CONTINUOUS
 62
    7
 10
116.70809899999995
 20
755.30384849999996
 11
116.71885699999996
 21
755.30278050000004
  0
LINE
  8
_0-0_0
  6
CONTINUOUS
 62
    7
 10
116.71885699999996
 20
755.30278050000004
 11
116.72131400000001
 21
755.30287150000004
  0
LINE
  8
_0-0_0
  6
CONTINUOUS
 62
    7
 10
102.31329299999993
 20
776.41981450000003
 11
102.31329299999993
 21
777.59901449999995
  0
ARC
  8
_0-0_0
  6
CONTINUOUS
 62
    7
 10
102.11328900000001
 20
761.29994150000005
 40
0.5
 50
180.00000900000003
 51
269.99999700000001
  0
CIRCLE
  8
_0-0_0
  6
CONTINUOUS
 62
    7
 10
104.11328900000001
 20
757.79994150000005
 40
2.5
  0
LINE
  8
_0-0_0
  6
CONTINUOUS
 62
    7
 10
103.61328900000001
 20
776.79731749999996
 11
103.59741199999996
 21
776.82456950000005
  0
LINE
  8
_0-0_0
  6
CONTINUOUS
 62
    7
 10
103.59741199999996
 20
776.82456950000005
 11
103.58156599999995
 21
776.84754950000001
  0
LINE
  8
_0-0_0
  6
CONTINUOUS
 62
    7
 10
103.58156599999995
 20
776.84754950000001
 11
103.567589
 21
776.86430350000001
  0
LINE
  8
_0-0_0
  6
CONTINUOUS
 62
    7
 10
103.567589
 20
776.86430350000001
 11
103.55368799999997
 21
776.87763949999999
  0
LINE
  8
_0-0_0
  6
CONTINUOUS
 62
    7
 10
103.55368799999997
 20
776.87763949999999
 11
103.541473
 21
776.8865505
  0
LINE
  8
_0-0_0
  6
CONTINUOUS
 62
    7
 10
103.541473
 20
776.8865505
 11
103.52935000000002
 21
776.89277649999997
  0
LINE
  8
_0-0_0
  6
CONTINUOUS
 62
    7
 10
103.52935000000002
 20
776.89277649999997
 11
103.51848599999994
 21
776.89604150000002
  0
LINE
  8
_0-0_0
  6
CONTINUOUS
 62
    7
 10
103.51848599999994
 20
776.89604150000002
 11
103.50772899999993
 21
776.89710950000006
  0
LINE
  8
_0-0_0
  6
CONTINUOUS
 62
    7
 10
103.50772899999993
 20
776.89710950000006
 11
103.50526400000001
 21
776.89701850000006
  0
LINE
  8
_0-0_0
  6
CONTINUOUS
 62
    7
 10
101.31329299999993
 20
758.69993550000004
 11
101.21329500000002
 21
758.69993550000004
  0
LINE
  8
_0-0_0
  6
CONTINUOUS
 62
    7
 10
101.21329500000002
 20
758.69993550000004
 11
101.21329500000002
 21
761.69993550000004
  0
LINE
  8
_0-0_0
  6
CONTINUOUS
 62
    7
 10
101.21329500000002
 20
761.69993550000004
 11
101.21329500000002
 21
775.29994150000005
  0
LINE
  8
_0-0_0
  6
CONTINUOUS
 62
    7
 10
101.31329299999993
 20
778.29994150000005
 11
101.21329500000002
 21
778.29994150000005
  0
LINE
  8
_0-0_0
  6
CONTINUOUS
 62
    7
 10
101.21329500000002
 20
775.29994150000005
 11
101.21329500000002
 21
778.29994150000005
  0
ARC
  8
_0-0_0
  6
CONTINUOUS
 62
    7
 10
107.61328900000001
 20
755.79994150000005
 40
0.5
 50
180.00000900000003
 51
269.99999700000001
  0
ARC
  8
_0-0_0
  6
CONTINUOUS
 62
    7
 10
104.31329299999993
 20
780.80000250000001
 40
1.5
 50
269.99999700000001
 51
0
  0
ARC
  8
_0-0_0
  6
CONTINUOUS
 62
    7
 10
102.81329299999993
 20
779.80000250000001
 40
0.5
 50
90.000003000000007
 51
180.00000900000001
  0
LINE
  8
_0-0_0
  6
CONTINUOUS
 62
    7
 10
102.81329299999993
 20
780.30000250000001
 11
104.31329299999993
 21
780.30000250000001
  0
ARC
  8
_0-0_0
  6
CONTINUOUS
 62
    7
 10
104.31329299999993
 20
781.30000250000001
 40
1
 50
269.99999700000001
 51
0
  0
LINE
  8
_0-0_0
  6
CONTINUOUS
 62
    7
 10
105.31329299999993
 20
781.40003950000005
 11
105.31329299999993
 21
781.30000250000001
  0
LINE
  8
_0-0_0
  6
CONTINUOUS
 62
    7
 10
105.81329299999993
 20
781.40003950000005
 11
105.81329299999993
 21
780.80000250000001
  0
LINE
  8
_0-0_0
  6
CONTINUOUS
 62
    7
 10
102.31329299999993
 20
779.30000250000001
 11
102.31329299999993
 21
779.80000250000001
  0
ARC
  8
_0-0_0
  6
CONTINUOUS
 62
    7
 10
112.61328900000001
 20
776.39994750000005
 40
0.5
 50
0
 51
90.000003000000007
  0
LINE
  8
_0-0_0
  6
CONTINUOUS
 62
    7
 10
113.11328900000001
 20
776.32295250000004
 11
113.11328900000001
 21
776.39994750000005
  0
LINE
  8
_0-0_0
  6
CONTINUOUS
 62
    7
 10
113.11328900000001
 20
774.88145450000002
 11
113.11328900000001
 21
776.32295250000004
  0
LINE
  8
_0-0_0
  6
CONTINUOUS
 62
    7
 10
113.11328900000001
 20
774.39994750000005
 11
113.11328900000001
 21
774.88145450000002
  0
ARC
  8
_0-0_0
  6
CONTINUOUS
 62
    7
 10
116.11328900000001
 20
774.39994750000005
 40
3
 50
180.00000900000003
 51
269.99999700000001
  0
LINE
  8
_0-0_0
  6
CONTINUOUS
 62
    7
 10
116.59479499999998
 20
771.39994750000005
 11
116.11328900000001
 21
771.39994750000005
  0
LINE
  8
_0-0_0
  6
CONTINUOUS
 62
    7
 10
116.59479499999998
 20
771.39994750000005
 11
118.03631599999994
 21
771.39994750000005
  0
LINE
  8
_0-0_0
  6
CONTINUOUS
 62
    7
 10
118.11328900000001
 20
771.39994750000005
 11
118.03631599999994
 21
771.39994750000005
  0
LINE
  8
_0-0_0
  6
CONTINUOUS
 62
    7
 10
102.19026999999994
 20
760.79994150000005
 11
102.11328900000001
 21
760.79994150000005
  0
LINE
  8
_0-0_0
  6
CONTINUOUS
 62
    7
 10
104.11328900000001
 20
760.79994150000005
 11
103.63179000000002
 21
760.79994150000005
  0
LINE
  8
_0-0_0
  6
CONTINUOUS
 62
    7
 10
103.63179000000002
 20
760.79994150000005
 11
102.19026999999994
 21
760.79994150000005
  0
LINE
  8
_0-0_0
  6
CONTINUOUS
 62
    7
 10
107.11328900000001
 20
755.79994150000005
 11
107.11328900000001
 21
755.87690750000002
  0
LINE
  8
_0-0_0
  6
CONTINUOUS
 62
    7
 10
107.11328900000001
 20
757.31843549999996
 11
107.11328900000001
 21
755.87690750000002
  0
LINE
  8
_0-0_0
  6
CONTINUOUS
 62
    7
 10
107.11328900000001
 20
757.31843549999996
 11
107.11328900000001
 21
757.79994150000005
  0
ARC
  8
_0-0_0
  6
CONTINUOUS
 62
    7
 10
104.11328900000001
 20
757.79994150000005
 40
3
 50
0
 51
89.999995999999996
  0
LINE
  8
_0-0_0
  6
CONTINUOUS
 62
    7
 10
118.61328900000001
 20
778.41120850000004
 11
118.61328900000001
 21
776.52494750000005
  0
LINE
  8
_0-0_0
  6
CONTINUOUS
 62
    7
 10
118.61328900000001
 20
779.07493550000004
 11
118.61328900000001
 21
778.41120850000004
  0
ARC
  8
_0-0_0
  6
CONTINUOUS
 62
    7
 10
113.34340699999996
 20
767.27317749999997
 40
3.063396
 50
19.82113
 51
25.289563000000001
  0
ARC
  8
_0-0_0
  6
CONTINUOUS
 62
    7
 10
113.34372699999994
 20
764.92655950000005
 40
3.0630519999999999
 50
334.71006
 51
340.17869200000001
  0
ARC
  8
_0-0_0
  6
CONTINUOUS
 62
    7
 10
106.88317899999993
 20
764.92671150000001
 40
3.063399
 50
199.82113599999997
 51
205.28948099999999
  0
ARC
  8
_0-0_0
  6
CONTINUOUS
 62
    7
 10
106.88285799999994
 20
767.27333050000004
 40
3.0630549999999999
 50
154.710137
 51
160.17869999999999
  0
ARC
  8
_0-0_0
  6
CONTINUOUS
 62
    7
 10
110.11328900000001
 20
766.09992950000003
 40
6.5
 50
340.10416099999998
 51
19.895609999999952
  0
ARC
  8
_0-0_0
  6
CONTINUOUS
 62
    7
 10
110.11328900000001
 20
766.09992950000003
 40
6.5
 50
160.10415599999999
 51
199.895612
  0
LINE
  8
_0-0_0
  6
CONTINUOUS
 62
    7
 10
101.61328900000001
 20
777.18873550000001
 11
101.61328900000001
 21
777.59907550000003
  0
LINE
  8
_0-0_0
  6
CONTINUOUS
 62
    7
 10
101.61328900000001
 20
776.52986150000004
 11
101.61328900000001
 21
777.18873550000001
  0
LINE
  8
_0-0_0
  6
CONTINUOUS
 62
    7
 10
109.37162000000001
 20
772.59992950000003
 11
104.85496499999999
 21
769.9922335
  0
LINE
  8
_0-0_0
  6
CONTINUOUS
 62
    7
 10
110.85496499999999
 20
772.59992950000003
 11
109.37162000000001
 21
772.59992950000003
  0
LINE
  8
_0-0_0
  6
CONTINUOUS
 62
    7
 10
115.37162000000001
 20
769.9922335
 11
110.85496499999999
 21
772.59992950000003
  0
LINE
  8
_0-0_0
  6
CONTINUOUS
 62
    7
 10
116.11328900000001
 20
768.70762649999995
 11
116.11328900000001
 21
763.4922335
  0
LINE
  8
_0-0_0
  6
CONTINUOUS
 62
    7
 10
115.37162000000001
 20
769.9922335
 11
116.11328900000001
 21
768.70762649999995
  0
LINE
  8
_0-0_0
  6
CONTINUOUS
 62
    7
 10
110.85496499999999
 20
759.59992950000003
 11
115.37162000000001
 21
762.20762649999995
  0
LINE
  8
_0-0_0
  6
CONTINUOUS
 62
    7
 10
115.66574900000001
 20
762.71708650000005
 11
116.11328900000001
 21
763.4922335
  0
LINE
  8
_0-0_0
  6
CONTINUOUS
 62
    7
 10
115.66574900000001
 20
762.71708650000005
 11
115.37162000000001
 21
762.20762649999995
  0
LINE
  8
_0-0_0
  6
CONTINUOUS
 62
    7
 10
109.37162000000001
 20
759.59992950000003
 11
110.85496499999999
 21
759.59992950000003
  0
LINE
  8
_0-0_0
  6
CONTINUOUS
 62
    7
 10
104.85496499999999
 20
762.20762649999995
 11
109.37162000000001
 21
759.59992950000003
  0
LINE
  8
_0-0_0
  6
CONTINUOUS
 62
    7
 10
104.11328900000001
 20
768.70762649999995
 11
104.11328900000001
 21
763.4922335
  0
LINE
  8
_0-0_0
  6
CONTINUOUS
 62
    7
 10
104.85496499999999
 20
762.20762649999995
 11
104.11328900000001
 21
763.4922335
  0
LINE
  8
_0-0_0
  6
CONTINUOUS
 62
    7
 10
104.56083699999999
 20
769.48280350000005
 11
104.11328900000001
 21
768.70762649999995
  0
LINE
  8
_0-0_0
  6
CONTINUOUS
 62
    7
 10
104.56083699999999
 20
769.48280350000005
 11
104.85496499999999
 21
769.9922335
  0
LINE
  8
_0-0_0
  6
CONTINUOUS
 62
    7
 10
118.00029799999993
 20
775.6253815
 11
118.27835099999993
 21
775.64994750000005
  0
LINE
  8
_0-0_0
  6
CONTINUOUS
 62
    7
 10
118.11805700000002
 20
775.42143250000004
 11
118.27835099999993
 21
775.64994750000005
  0
LINE
  8
_0-0_0
  6
CONTINUOUS
 62
    7
 10
117.86186999999995
 20
775.81590249999999
 11
118.13583399999993
 21
775.86939949999999
  0
LINE
  8
_0-0_0
  6
CONTINUOUS
 62
    7
 10
118.00029799999993
 20
775.6253815
 11
118.13583399999993
 21
775.86939949999999
  0
LINE
  8
_0-0_0
  6
CONTINUOUS
 62
    7
 10
117.70428500000003
 20
775.99092050000002
 11
117.97115299999996
 21
776.07276950000005
  0
LINE
  8
_0-0_0
  6
CONTINUOUS
 62
    7
 10
117.86186999999995
 20
775.81590249999999
 11
117.97115299999996
 21
776.07276950000005
  0
LINE
  8
_0-0_0
  6
CONTINUOUS
 62
    7
 10
117.52926600000001
 20
776.14851350000004
 11
117.78611799999999
 21
776.25779750000004
  0
LINE
  8
_0-0_0
  6
CONTINUOUS
 62
    7
 10
117.70428500000003
 20
775.99092050000002
 11
117.78611799999999
 21
776.25779750000004
  0
LINE
  8
_0-0_0
  6
CONTINUOUS
 62
    7
 10
117.33872999999994
 20
776.28694150000001
 11
117.58275600000002
 21
776.42250049999996
  0
LINE
  8
_0-0_0
  6
CONTINUOUS
 62
    7
 10
117.52926600000001
 20
776.14851350000004
 11
117.58275600000002
 21
776.42250049999996
  0
LINE
  8
_0-0_0
  6
CONTINUOUS
 62
    7
 10
117.13476600000001
 20
776.40470849999997
 11
117.36328900000001
 21
776.56501749999995
  0
LINE
  8
_0-0_0
  6
CONTINUOUS
 62
    7
 10
117.33872999999994
 20
776.28694150000001
 11
117.36328900000001
 21
776.56501749999995
  0
LINE
  8
_0-0_0
  6
CONTINUOUS
 62
    7
 10
116.91961700000002
 20
776.50050350000004
 11
117.130135
 21
776.68379149999998
  0
LINE
  8
_0-0_0
  6
CONTINUOUS
 62
    7
 10
117.13476600000001
 20
776.40470849999997
 11
117.130135
 21
776.68379149999998
  0
LINE
  8
_0-0_0
  6
CONTINUOUS
 62
    7
 10
116.69563300000004
 20
776.57328749999999
 11
116.88583399999993
 21
776.77757250000002
  0
LINE
  8
_0-0_0
  6
CONTINUOUS
 62
    7
 10
116.91961700000002
 20
776.50050350000004
 11
116.88583399999993
 21
776.77757250000002
  0
LINE
  8
_0-0_0
  6
CONTINUOUS
 62
    7
 10
116.46527100000003
 20
776.62223849999998
 11
116.63307199999997
 21
776.84532149999995
  0
LINE
  8
_0-0_0
  6
CONTINUOUS
 62
    7
 10
116.69563300000004
 20
776.57328749999999
 11
116.63307199999997
 21
776.84532149999995
  0
LINE
  8
_0-0_0
  6
CONTINUOUS
 62
    7
 10
116.23104899999998
 20
776.64686549999999
 11
116.37461099999996
 21
776.88624549999997
  0
LINE
  8
_0-0_0
  6
CONTINUOUS
 62
    7
 10
116.46527100000003
 20
776.62223849999998
 11
116.37461099999996
 21
776.88624549999997
  0
LINE
  8
_0-0_0
  6
CONTINUOUS
 62
    7
 10
115.99553700000001
 20
776.64686549999999
 11
116.11328900000001
 21
776.89994750000005
  0
LINE
  8
_0-0_0
  6
CONTINUOUS
 62
    7
 10
116.23104899999998
 20
776.64686549999999
 11
116.11328900000001
 21
776.89994750000005
  0
LINE
  8
_0-0_0
  6
CONTINUOUS
 62
    7
 10
115.76131399999997
 20
776.62223849999998
 11
115.85197500000004
 21
776.88624549999997
  0
LINE
  8
_0-0_0
  6
CONTINUOUS
 62
    7
 10
115.99553700000001
 20
776.64686549999999
 11
115.85197500000004
 21
776.88624549999997
  0
LINE
  8
_0-0_0
  6
CONTINUOUS
 62
    7
 10
115.53094499999997
 20
776.57328749999999
 11
115.59351400000003
 21
776.84532149999995
  0
LINE
  8
_0-0_0
  6
CONTINUOUS
 62
    7
 10
115.76131399999997
 20
776.62223849999998
 11
115.59351400000003
 21
776.84532149999995
  0
LINE
  8
_0-0_0
  6
CONTINUOUS
 62
    7
 10
115.306961
 20
776.50050350000004
 11
115.34075199999995
 21
776.77757250000002
  0
LINE
  8
_0-0_0
  6
CONTINUOUS
 62
    7
 10
115.53094499999997
 20
776.57328749999999
 11
115.34075199999995
 21
776.77757250000002
  0
LINE
  8
_0-0_0
  6
CONTINUOUS
 62
    7
 10
115.091812
 20
776.40470849999997
 11
115.096451
 21
776.68379149999998
  0
LINE
  8
_0-0_0
  6
CONTINUOUS
 62
    7
 10
115.306961
 20
776.50050350000004
 11
115.096451
 21
776.68379149999998
  0
LINE
  8
_0-0_0
  6
CONTINUOUS
 62
    7
 10
114.97227499999997
 20
776.48857150000003
 11
114.86328900000001
 21
776.56501749999995
  0
LINE
  8
_0-0_0
  6
CONTINUOUS
 62
    7
 10
115.091812
 20
776.40470849999997
 11
114.97227499999997
 21
776.48857150000003
  0
LINE
  8
_0-0_0
  6
CONTINUOUS
 62
    7
 10
114.88785599999994
 20
776.28694150000001
 11
114.86328900000001
 21
776.56501749999995
  0
LINE
  8
_0-0_0
  6
CONTINUOUS
 62
    7
 10
114.69731899999999
 20
776.14851350000004
 11
114.64382899999998
 21
776.42250049999996
  0
LINE
  8
_0-0_0
  6
CONTINUOUS
 62
    7
 10
114.88785599999994
 20
776.28694150000001
 11
114.64382899999998
 21
776.42250049999996
  0
LINE
  8
_0-0_0
  6
CONTINUOUS
 62
    7
 10
114.52230099999997
 20
775.99092050000002
 11
114.44046000000003
 21
776.25779750000004
  0
LINE
  8
_0-0_0
  6
CONTINUOUS
 62
    7
 10
114.69731899999999
 20
776.14851350000004
 11
114.44046000000003
 21
776.25779750000004
  0
LINE
  8
_0-0_0
  6
CONTINUOUS
 62
    7
 10
114.36471600000004
 20
775.81590249999999
 11
114.25543199999993
 21
776.07276950000005
  0
LINE
  8
_0-0_0
  6
CONTINUOUS
 62
    7
 10
114.52230099999997
 20
775.99092050000002
 11
114.25543199999993
 21
776.07276950000005
  0
LINE
  8
_0-0_0
  6
CONTINUOUS
 62
    7
 10
114.22627999999997
 20
775.6253815
 11
114.09075199999995
 21
775.86939949999999
  0
LINE
  8
_0-0_0
  6
CONTINUOUS
 62
    7
 10
114.36471600000004
 20
775.81590249999999
 11
114.09075199999995
 21
775.86939949999999
  0
LINE
  8
_0-0_0
  6
CONTINUOUS
 62
    7
 10
114.10852799999998
 20
775.42143250000004
 11
113.94822699999997
 21
775.64994750000005
  0
LINE
  8
_0-0_0
  6
CONTINUOUS
 62
    7
 10
114.22627999999997
 20
775.6253815
 11
113.94822699999997
 21
775.64994750000005
  0
LINE
  8
_0-0_0
  6
CONTINUOUS
 62
    7
 10
114.01273400000002
 20
775.20628350000004
 11
113.82943
 21
775.41679350000004
  0
LINE
  8
_0-0_0
  6
CONTINUOUS
 62
    7
 10
114.10852799999998
 20
775.42143250000004
 11
113.82943
 21
775.41679350000004
  0
LINE
  8
_0-0_0
  6
CONTINUOUS
 62
    7
 10
113.93995700000005
 20
774.98228449999999
 11
113.73564899999997
 21
775.17250049999996
  0
LINE
  8
_0-0_0
  6
CONTINUOUS
 62
    7
 10
114.01273400000002
 20
775.20628350000004
 11
113.73564899999997
 21
775.17250049999996
  0
LINE
  8
_0-0_0
  6
CONTINUOUS
 62
    7
 10
113.89099099999999
 20
774.75190750000002
 11
113.66792299999997
 21
774.91972350000003
  0
LINE
  8
_0-0_0
  6
CONTINUOUS
 62
    7
 10
113.93995700000005
 20
774.98228449999999
 11
113.66792299999997
 21
774.91972350000003
  0
LINE
  8
_0-0_0
  6
CONTINUOUS
 62
    7
 10
113.89099099999999
 20
774.75190750000002
 11
113.62698399999999
 21
774.6612705
  0
LINE
  8
_0-0_0
  6
CONTINUOUS
 62
    7
 10
113.86637899999994
 20
774.51768449999997
 11
113.62698399999999
 21
774.6612705
  0
LINE
  8
_0-0_0
  6
CONTINUOUS
 62
    7
 10
113.86637899999994
 20
774.28218049999998
 11
113.61328900000001
 21
774.39994750000005
  0
LINE
  8
_0-0_0
  6
CONTINUOUS
 62
    7
 10
113.86637899999994
 20
774.51768449999997
 11
113.61328900000001
 21
774.39994750000005
  0
LINE
  8
_0-0_0
  6
CONTINUOUS
 62
    7
 10
113.89099099999999
 20
774.04795850000005
 11
113.62698399999999
 21
774.13862549999999
  0
LINE
  8
_0-0_0
  6
CONTINUOUS
 62
    7
 10
113.86637899999994
 20
774.28218049999998
 11
113.62698399999999
 21
774.13862549999999
  0
LINE
  8
_0-0_0
  6
CONTINUOUS
 62
    7
 10
113.93995700000005
 20
773.8176115
 11
113.66792299999997
 21
773.88017249999996
  0
LINE
  8
_0-0_0
  6
CONTINUOUS
 62
    7
 10
113.89099099999999
 20
774.04795850000005
 11
113.66792299999997
 21
773.88017249999996
  0
LINE
  8
_0-0_0
  6
CONTINUOUS
 62
    7
 10
114.01273400000002
 20
773.59361249999995
 11
113.73564899999997
 21
773.62739550000003
  0
LINE
  8
_0-0_0
  6
CONTINUOUS
 62
    7
 10
113.93995700000005
 20
773.8176115
 11
113.73564899999997
 21
773.62739550000003
  0
LINE
  8
_0-0_0
  6
CONTINUOUS
 62
    7
 10
114.10852799999998
 20
773.37846349999995
 11
113.82943
 21
773.38310249999995
  0
LINE
  8
_0-0_0
  6
CONTINUOUS
 62
    7
 10
114.01273400000002
 20
773.59361249999995
 11
113.82943
 21
773.38310249999995
  0
LINE
  8
_0-0_0
  6
CONTINUOUS
 62
    7
 10
114.22627999999997
 20
773.17451449999999
 11
113.94822699999997
 21
773.14994750000005
  0
LINE
  8
_0-0_0
  6
CONTINUOUS
 62
    7
 10
114.10852799999998
 20
773.37846349999995
 11
113.94822699999997
 21
773.14994750000005
  0
LINE
  8
_0-0_0
  6
CONTINUOUS
 62
    7
 10
114.36471600000004
 20
772.98396249999996
 11
114.09075199999995
 21
772.9304965
  0
LINE
  8
_0-0_0
  6
CONTINUOUS
 62
    7
 10
114.22627999999997
 20
773.17451449999999
 11
114.09075199999995
 21
772.9304965
  0
LINE
  8
_0-0_0
  6
CONTINUOUS
 62
    7
 10
114.52230099999997
 20
772.80894450000005
 11
114.25543199999993
 21
772.72712650000005
  0
LINE
  8
_0-0_0
  6
CONTINUOUS
 62
    7
 10
114.36471600000004
 20
772.98396249999996
 11
114.25543199999993
 21
772.72712650000005
  0
LINE
  8
_0-0_0
  6
CONTINUOUS
 62
    7
 10
114.69731899999999
 20
772.65135150000003
 11
114.44046000000003
 21
772.54206850000003
  0
LINE
  8
_0-0_0
  6
CONTINUOUS
 62
    7
 10
114.52230099999997
 20
772.80894450000005
 11
114.44046000000003
 21
772.54206850000003
  0
LINE
  8
_0-0_0
  6
CONTINUOUS
 62
    7
 10
114.88785599999994
 20
772.51292450000005
 11
114.64382899999998
 21
772.37739550000003
  0
LINE
  8
_0-0_0
  6
CONTINUOUS
 62
    7
 10
114.69731899999999
 20
772.65135150000003
 11
114.64382899999998
 21
772.37739550000003
  0
LINE
  8
_0-0_0
  6
CONTINUOUS
 62
    7
 10
115.091812
 20
772.39518750000002
 11
114.86328900000001
 21
772.23487850000004
  0
LINE
  8
_0-0_0
  6
CONTINUOUS
 62
    7
 10
114.88785599999994
 20
772.51292450000005
 11
114.86328900000001
 21
772.23487850000004
  0
LINE
  8
_0-0_0
  6
CONTINUOUS
 62
    7
 10
115.306961
 20
772.29939249999995
 11
115.096451
 21
772.11607349999997
  0
LINE
  8
_0-0_0
  6
CONTINUOUS
 62
    7
 10
115.091812
 20
772.39518750000002
 11
115.096451
 21
772.11607349999997
  0
LINE
  8
_0-0_0
  6
CONTINUOUS
 62
    7
 10
115.53094499999997
 20
772.2266085
 11
115.34075199999995
 21
772.02229250000005
  0
LINE
  8
_0-0_0
  6
CONTINUOUS
 62
    7
 10
115.306961
 20
772.29939249999995
 11
115.34075199999995
 21
772.02229250000005
  0
LINE
  8
_0-0_0
  6
CONTINUOUS
 62
    7
 10
115.76131399999997
 20
772.17765750000001
 11
115.59351400000003
 21
771.95457450000004
  0
LINE
  8
_0-0_0
  6
CONTINUOUS
 62
    7
 10
115.53094499999997
 20
772.2266085
 11
115.59351400000003
 21
771.95457450000004
  0
LINE
  8
_0-0_0
  6
CONTINUOUS
 62
    7
 10
115.99553700000001
 20
772.1530305
 11
115.85197500000004
 21
771.91365050000002
  0
LINE
  8
_0-0_0
  6
CONTINUOUS
 62
    7
 10
115.76131399999997
 20
772.17765750000001
 11
115.85197500000004
 21
771.91365050000002
  0
LINE
  8
_0-0_0
  6
CONTINUOUS
 62
    7
 10
116.23104899999998
 20
772.1530305
 11
116.11328900000001
 21
771.89994750000005
  0
LINE
  8
_0-0_0
  6
CONTINUOUS
 62
    7
 10
115.99553700000001
 20
772.1530305
 11
116.11328900000001
 21
771.89994750000005
  0
LINE
  8
_0-0_0
  6
CONTINUOUS
 62
    7
 10
116.46527100000003
 20
772.17765750000001
 11
116.37461099999996
 21
771.91365050000002
  0
LINE
  8
_0-0_0
  6
CONTINUOUS
 62
    7
 10
116.23104899999998
 20
772.1530305
 11
116.37461099999996
 21
771.91365050000002
  0
LINE
  8
_0-0_0
  6
CONTINUOUS
 62
    7
 10
116.69563300000004
 20
772.2266085
 11
116.63307199999997
 21
771.95457450000004
  0
LINE
  8
_0-0_0
  6
CONTINUOUS
 62
    7
 10
116.46527100000003
 20
772.17765750000001
 11
116.63307199999997
 21
771.95457450000004
  0
LINE
  8
_0-0_0
  6
CONTINUOUS
 62
    7
 10
116.91961700000002
 20
772.29939249999995
 11
116.88583399999993
 21
772.02229250000005
  0
LINE
  8
_0-0_0
  6
CONTINUOUS
 62
    7
 10
116.69563300000004
 20
772.2266085
 11
116.88583399999993
 21
772.02229250000005
  0
LINE
  8
_0-0_0
  6
CONTINUOUS
 62
    7
 10
117.13476600000001
 20
772.39518750000002
 11
117.130135
 21
772.11607349999997
  0
LINE
  8
_0-0_0
  6
CONTINUOUS
 62
    7
 10
116.91961700000002
 20
772.29939249999995
 11
117.130135
 21
772.11607349999997
  0
LINE
  8
_0-0_0
  6
CONTINUOUS
 62
    7
 10
117.25430299999994
 20
772.31132449999996
 11
117.36328900000001
 21
772.23487850000004
  0
LINE
  8
_0-0_0
  6
CONTINUOUS
 62
    7
 10
117.13476600000001
 20
772.39518750000002
 11
117.25430299999994
 21
772.31132449999996
  0
LINE
  8
_0-0_0
  6
CONTINUOUS
 62
    7
 10
117.33872999999994
 20
772.51292450000005
 11
117.36328900000001
 21
772.23487850000004
  0
LINE
  8
_0-0_0
  6
CONTINUOUS
 62
    7
 10
117.52926600000001
 20
772.65135150000003
 11
117.58275600000002
 21
772.37739550000003
  0
LINE
  8
_0-0_0
  6
CONTINUOUS
 62
    7
 10
117.33872999999994
 20
772.51292450000005
 11
117.58275600000002
 21
772.37739550000003
  0
LINE
  8
_0-0_0
  6
CONTINUOUS
 62
    7
 10
117.70428500000003
 20
772.80894450000005
 11
117.78611799999999
 21
772.54206850000003
  0
LINE
  8
_0-0_0
  6
CONTINUOUS
 62
    7
 10
117.52926600000001
 20
772.65135150000003
 11
117.78611799999999
 21
772.54206850000003
  0
LINE
  8
_0-0_0
  6
CONTINUOUS
 62
    7
 10
117.86186999999995
 20
772.98396249999996
 11
117.97115299999996
 21
772.72712650000005
  0
LINE
  8
_0-0_0
  6
CONTINUOUS
 62
    7
 10
117.70428500000003
 20
772.80894450000005
 11
117.97115299999996
 21
772.72712650000005
  0
LINE
  8
_0-0_0
  6
CONTINUOUS
 62
    7
 10
118.00029799999993
 20
773.17451449999999
 11
118.13583399999993
 21
772.9304965
  0
LINE
  8
_0-0_0
  6
CONTINUOUS
 62
    7
 10
117.86186999999995
 20
772.98396249999996
 11
118.13583399999993
 21
772.9304965
  0
LINE
  8
_0-0_0
  6
CONTINUOUS
 62
    7
 10
118.11805700000002
 20
773.37846349999995
 11
118.27835099999993
 21
773.14994750000005
  0
LINE
  8
_0-0_0
  6
CONTINUOUS
 62
    7
 10
118.00029799999993
 20
773.17451449999999
 11
118.27835099999993
 21
773.14994750000005
  0
LINE
  8
_0-0_0
  6
CONTINUOUS
 62
    7
 10
118.21385199999997
 20
773.59361249999995
 11
118.397156
 21
773.38310249999995
  0
LINE
  8
_0-0_0
  6
CONTINUOUS
 62
    7
 10
118.11805700000002
 20
773.37846349999995
 11
118.397156
 21
773.38310249999995
  0
LINE
  8
_0-0_0
  6
CONTINUOUS
 62
    7
 10
118.28662099999997
 20
773.8176115
 11
118.49093600000003
 21
773.62739550000003
  0
LINE
  8
_0-0_0
  6
CONTINUOUS
 62
    7
 10
118.21385199999997
 20
773.59361249999995
 11
118.49093600000003
 21
773.62739550000003
  0
LINE
  8
_0-0_0
  6
CONTINUOUS
 62
    7
 10
118.33558700000003
 20
774.04795850000005
 11
118.55866200000003
 21
773.88017249999996
  0
LINE
  8
_0-0_0
  6
CONTINUOUS
 62
    7
 10
118.28662099999997
 20
773.8176115
 11
118.55866200000003
 21
773.88017249999996
  0
LINE
  8
_0-0_0
  6
CONTINUOUS
 62
    7
 10
118.36020699999995
 20
774.28218049999998
 11
118.59959400000002
 21
774.13862549999999
  0
LINE
  8
_0-0_0
  6
CONTINUOUS
 62
    7
 10
118.33558700000003
 20
774.04795850000005
 11
118.59959400000002
 21
774.13862549999999
  0
LINE
  8
_0-0_0
  6
CONTINUOUS
 62
    7
 10
118.36020699999995
 20
774.51768449999997
 11
118.61328900000001
 21
774.39994750000005
  0
LINE
  8
_0-0_0
  6
CONTINUOUS
 62
    7
 10
118.36020699999995
 20
774.28218049999998
 11
118.61328900000001
 21
774.39994750000005
  0
LINE
  8
_0-0_0
  6
CONTINUOUS
 62
    7
 10
118.33558700000003
 20
774.75190750000002
 11
118.59959400000002
 21
774.6612705
  0
LINE
  8
_0-0_0
  6
CONTINUOUS
 62
    7
 10
118.36020699999995
 20
774.51768449999997
 11
118.59959400000002
 21
774.6612705
  0
LINE
  8
_0-0_0
  6
CONTINUOUS
 62
    7
 10
118.28662099999997
 20
774.98228449999999
 11
118.55866200000003
 21
774.91972350000003
  0
LINE
  8
_0-0_0
  6
CONTINUOUS
 62
    7
 10
118.33558700000003
 20
774.75190750000002
 11
118.55866200000003
 21
774.91972350000003
  0
LINE
  8
_0-0_0
  6
CONTINUOUS
 62
    7
 10
118.21385199999997
 20
775.20628350000004
 11
118.49093600000003
 21
775.17250049999996
  0
LINE
  8
_0-0_0
  6
CONTINUOUS
 62
    7
 10
118.28662099999997
 20
774.98228449999999
 11
118.49093600000003
 21
775.17250049999996
  0
LINE
  8
_0-0_0
  6
CONTINUOUS
 62
    7
 10
118.11805700000002
 20
775.42143250000004
 11
118.397156
 21
775.41679350000004
  0
LINE
  8
_0-0_0
  6
CONTINUOUS
 62
    7
 10
118.21385199999997
 20
775.20628350000004
 11
118.397156
 21
775.41679350000004
  0
CIRCLE
  8
_0-0_0
  6
CONTINUOUS
 62
    7
 10
110.11328900000001
 20
766.09992950000003
 40
5.25
  0
LINE
  8
_0-0_0
  6
CONTINUOUS
 62
    7
 10
106.00029799999993
 20
759.0253755
 11
106.27835099999993
 21
759.04994150000005
  0
LINE
  8
_0-0_0
  6
CONTINUOUS
 62
    7
 10
106.11805700000002
 20
758.82142650000003
 11
106.27835099999993
 21
759.04994150000005
  0
LINE
  8
_0-0_0
  6
CONTINUOUS
 62
    7
 10
105.86186999999995
 20
759.21592650000002
 11
106.13583399999993
 21
759.26939349999998
  0
LINE
  8
_0-0_0
  6
CONTINUOUS
 62
    7
 10
106.00029799999993
 20
759.0253755
 11
106.13583399999993
 21
759.26939349999998
  0
LINE
  8
_0-0_0
  6
CONTINUOUS
 62
    7
 10
105.70428500000003
 20
759.39094550000004
 11
105.97115299999996
 21
759.47276250000004
  0
LINE
  8
_0-0_0
  6
CONTINUOUS
 62
    7
 10
105.86186999999995
 20
759.21592650000002
 11
105.97115299999996
 21
759.47276250000004
  0
LINE
  8
_0-0_0
  6
CONTINUOUS
 62
    7
 10
105.52926600000001
 20
759.54850750000003
 11
105.78611799999999
 21
759.65779150000003
  0
LINE
  8
_0-0_0
  6
CONTINUOUS
 62
    7
 10
105.70428500000003
 20
759.39094550000004
 11
105.78611799999999
 21
759.65779150000003
  0
LINE
  8
_0-0_0
  6
CONTINUOUS
 62
    7
 10
105.33872999999994
 20
759.68696550000004
 11
105.58275600000002
 21
759.82249449999995
  0
LINE
  8
_0-0_0
  6
CONTINUOUS
 62
    7
 10
105.52926600000001
 20
759.54850750000003
 11
105.58275600000002
 21
759.82249449999995
  0
LINE
  8
_0-0_0
  6
CONTINUOUS
 62
    7
 10
105.134773
 20
759.80470249999996
 11
105.36328900000001
 21
759.96501150000006
  0
LINE
  8
_0-0_0
  6
CONTINUOUS
 62
    7
 10
105.33872999999994
 20
759.68696550000004
 11
105.36328900000001
 21
759.96501150000006
  0
LINE
  8
_0-0_0
  6
CONTINUOUS
 62
    7
 10
104.91961700000002
 20
759.90049750000003
 11
105.130135
 21
760.08381650000001
  0
LINE
  8
_0-0_0
  6
CONTINUOUS
 62
    7
 10
105.134773
 20
759.80470249999996
 11
105.130135
 21
760.08381650000001
  0
LINE
  8
_0-0_0
  6
CONTINUOUS
 62
    7
 10
104.69563300000004
 20
759.97328149999998
 11
104.88583399999993
 21
760.17759650000005
  0
LINE
  8
_0-0_0
  6
CONTINUOUS
 62
    7
 10
104.91961700000002
 20
759.90049750000003
 11
104.88583399999993
 21
760.17759650000005
  0
LINE
  8
_0-0_0
  6
CONTINUOUS
 62
    7
 10
104.46527100000003
 20
760.02223149999998
 11
104.63307199999997
 21
760.24531549999995
  0
LINE
  8
_0-0_0
  6
CONTINUOUS
 62
    7
 10
104.69563300000004
 20
759.97328149999998
 11
104.63307199999997
 21
760.24531549999995
  0
LINE
  8
_0-0_0
  6
CONTINUOUS
 62
    7
 10
104.23104899999998
 20
760.04685949999998
 11
104.37461099999996
 21
760.28623949999997
  0
LINE
  8
_0-0_0
  6
CONTINUOUS
 62
    7
 10
104.46527100000003
 20
760.02223149999998
 11
104.37461099999996
 21
760.28623949999997
  0
LINE
  8
_0-0_0
  6
CONTINUOUS
 62
    7
 10
103.99553700000001
 20
760.04685949999998
 11
104.11328900000001
 21
760.29994150000005
  0
LINE
  8
_0-0_0
  6
CONTINUOUS
 62
    7
 10
104.23104899999998
 20
760.04685949999998
 11
104.11328900000001
 21
760.29994150000005
  0
LINE
  8
_0-0_0
  6
CONTINUOUS
 62
    7
 10
103.76131399999997
 20
760.02223149999998
 11
103.85197500000004
 21
760.28623949999997
  0
LINE
  8
_0-0_0
  6
CONTINUOUS
 62
    7
 10
103.99553700000001
 20
760.04685949999998
 11
103.85197500000004
 21
760.28623949999997
  0
LINE
  8
_0-0_0
  6
CONTINUOUS
 62
    7
 10
103.53094499999997
 20
759.97328149999998
 11
103.59351400000003
 21
760.24531549999995
  0
LINE
  8
_0-0_0
  6
CONTINUOUS
 62
    7
 10
103.76131399999997
 20
760.02223149999998
 11
103.59351400000003
 21
760.24531549999995
  0
LINE
  8
_0-0_0
  6
CONTINUOUS
 62
    7
 10
103.306961
 20
759.90049750000003
 11
103.34075199999995
 21
760.17759650000005
  0
LINE
  8
_0-0_0
  6
CONTINUOUS
 62
    7
 10
103.53094499999997
 20
759.97328149999998
 11
103.34075199999995
 21
760.17759650000005
  0
LINE
  8
_0-0_0
  6
CONTINUOUS
 62
    7
 10
103.091812
 20
759.80470249999996
 11
103.096451
 21
760.08381650000001
  0
LINE
  8
_0-0_0
  6
CONTINUOUS
 62
    7
 10
103.306961
 20
759.90049750000003
 11
103.096451
 21
760.08381650000001
  0
LINE
  8
_0-0_0
  6
CONTINUOUS
 62
    7
 10
102.97227499999997
 20
759.88856450000003
 11
102.86328900000001
 21
759.96501150000006
  0
LINE
  8
_0-0_0
  6
CONTINUOUS
 62
    7
 10
103.091812
 20
759.80470249999996
 11
102.97227499999997
 21
759.88856450000003
  0
LINE
  8
_0-0_0
  6
CONTINUOUS
 62
    7
 10
102.88785599999994
 20
759.68696550000004
 11
102.86328900000001
 21
759.96501150000006
  0
LINE
  8
_0-0_0
  6
CONTINUOUS
 62
    7
 10
102.69731899999999
 20
759.54850750000003
 11
102.64382899999998
 21
759.82249449999995
  0
LINE
  8
_0-0_0
  6
CONTINUOUS
 62
    7
 10
102.88785599999994
 20
759.68696550000004
 11
102.64382899999998
 21
759.82249449999995
  0
LINE
  8
_0-0_0
  6
CONTINUOUS
 62
    7
 10
102.52230099999997
 20
759.39094550000004
 11
102.44046800000001
 21
759.65779150000003
  0
LINE
  8
_0-0_0
  6
CONTINUOUS
 62
    7
 10
102.69731899999999
 20
759.54850750000003
 11
102.44046800000001
 21
759.65779150000003
  0
LINE
  8
_0-0_0
  6
CONTINUOUS
 62
    7
 10
102.36471600000004
 20
759.21592650000002
 11
102.25543199999993
 21
759.47276250000004
  0
LINE
  8
_0-0_0
  6
CONTINUOUS
 62
    7
 10
102.52230099999997
 20
759.39094550000004
 11
102.25543199999993
 21
759.47276250000004
  0
LINE
  8
_0-0_0
  6
CONTINUOUS
 62
    7
 10
102.22627999999997
 20
759.0253755
 11
102.09075199999995
 21
759.26939349999998
  0
LINE
  8
_0-0_0
  6
CONTINUOUS
 62
    7
 10
102.36471600000004
 20
759.21592650000002
 11
102.09075199999995
 21
759.26939349999998
  0
LINE
  8
_0-0_0
  6
CONTINUOUS
 62
    7
 10
102.10852799999998
 20
758.82142650000003
 11
101.94822699999997
 21
759.04994150000005
  0
LINE
  8
_0-0_0
  6
CONTINUOUS
 62
    7
 10
102.22627999999997
 20
759.0253755
 11
101.94822699999997
 21
759.04994150000005
  0
LINE
  8
_0-0_0
  6
CONTINUOUS
 62
    7
 10
102.01273400000002
 20
758.60627750000003
 11
101.82943
 21
758.81678750000003
  0
LINE
  8
_0-0_0
  6
CONTINUOUS
 62
    7
 10
102.10852799999998
 20
758.82142650000003
 11
101.82943
 21
758.81678750000003
  0
LINE
  8
_0-0_0
  6
CONTINUOUS
 62
    7
 10
101.93995700000005
 20
758.38227849999998
 11
101.73564899999997
 21
758.57249449999995
  0
LINE
  8
_0-0_0
  6
CONTINUOUS
 62
    7
 10
102.01273400000002
 20
758.60627750000003
 11
101.73564899999997
 21
758.57249449999995
  0
LINE
  8
_0-0_0
  6
CONTINUOUS
 62
    7
 10
101.89099099999999
 20
758.15193150000005
 11
101.66792299999997
 21
758.31971750000002
  0
LINE
  8
_0-0_0
  6
CONTINUOUS
 62
    7
 10
101.93995700000005
 20
758.38227849999998
 11
101.66792299999997
 21
758.31971750000002
  0
LINE
  8
_0-0_0
  6
CONTINUOUS
 62
    7
 10
101.89099099999999
 20
758.15193150000005
 11
101.62698399999999
 21
758.0612635
  0
LINE
  8
_0-0_0
  6
CONTINUOUS
 62
    7
 10
101.86637099999996
 20
757.9177095
 11
101.62698399999999
 21
758.0612635
  0
LINE
  8
_0-0_0
  6
CONTINUOUS
 62
    7
 10
101.86637099999996
 20
757.68217449999997
 11
101.61328900000001
 21
757.79994150000005
  0
LINE
  8
_0-0_0
  6
CONTINUOUS
 62
    7
 10
101.86637099999996
 20
757.9177095
 11
101.61328900000001
 21
757.79994150000005
  0
LINE
  8
_0-0_0
  6
CONTINUOUS
 62
    7
 10
101.89099099999999
 20
757.44795250000004
 11
101.62698399999999
 21
757.53861949999998
  0
LINE
  8
_0-0_0
  6
CONTINUOUS
 62
    7
 10
101.86637099999996
 20
757.68217449999997
 11
101.62698399999999
 21
757.53861949999998
  0
LINE
  8
_0-0_0
  6
CONTINUOUS
 62
    7
 10
101.93995700000005
 20
757.21760549999999
 11
101.66792299999997
 21
757.28016649999995
  0
LINE
  8
_0-0_0
  6
CONTINUOUS
 62
    7
 10
101.89099099999999
 20
757.44795250000004
 11
101.66792299999997
 21
757.28016649999995
  0
LINE
  8
_0-0_0
  6
CONTINUOUS
 62
    7
 10
102.01273400000002
 20
756.99360650000006
 11
101.73564899999997
 21
757.02738950000003
  0
LINE
  8
_0-0_0
  6
CONTINUOUS
 62
    7
 10
101.93995700000005
 20
757.21760549999999
 11
101.73564899999997
 21
757.02738950000003
  0
LINE
  8
_0-0_0
  6
CONTINUOUS
 62
    7
 10
102.10852799999998
 20
756.77845750000006
 11
101.82943
 21
756.78309650000006
  0
LINE
  8
_0-0_0
  6
CONTINUOUS
 62
    7
 10
102.01273400000002
 20
756.99360650000006
 11
101.82943
 21
756.78309650000006
  0
LINE
  8
_0-0_0
  6
CONTINUOUS
 62
    7
 10
102.22627999999997
 20
756.57450849999998
 11
101.94822699999997
 21
756.54994150000005
  0
LINE
  8
_0-0_0
  6
CONTINUOUS
 62
    7
 10
102.10852799999998
 20
756.77845750000006
 11
101.94822699999997
 21
756.54994150000005
  0
LINE
  8
_0-0_0
  6
CONTINUOUS
 62
    7
 10
102.36471600000004
 20
756.38398749999999
 11
102.09075199999995
 21
756.3304895
  0
LINE
  8
_0-0_0
  6
CONTINUOUS
 62
    7
 10
102.22627999999997
 20
756.57450849999998
 11
102.09075199999995
 21
756.3304895
  0
LINE
  8
_0-0_0
  6
CONTINUOUS
 62
    7
 10
102.52230099999997
 20
756.20896849999997
 11
102.25543199999993
 21
756.12712050000005
  0
LINE
  8
_0-0_0
  6
CONTINUOUS
 62
    7
 10
102.36471600000004
 20
756.38398749999999
 11
102.25543199999993
 21
756.12712050000005
  0
LINE
  8
_0-0_0
  6
CONTINUOUS
 62
    7
 10
102.69731899999999
 20
756.05137649999995
 11
102.44046800000001
 21
755.94209250000006
  0
LINE
  8
_0-0_0
  6
CONTINUOUS
 62
    7
 10
102.52230099999997
 20
756.20896849999997
 11
102.44046800000001
 21
755.94209250000006
  0
LINE
  8
_0-0_0
  6
CONTINUOUS
 62
    7
 10
102.88785599999994
 20
755.91291750000005
 11
102.64382899999998
 21
755.77738950000003
  0
LINE
  8
_0-0_0
  6
CONTINUOUS
 62
    7
 10
102.69731899999999
 20
756.05137649999995
 11
102.64382899999998
 21
755.77738950000003
  0
LINE
  8
_0-0_0
  6
CONTINUOUS
 62
    7
 10
103.091812
 20
755.79518150000001
 11
102.86328900000001
 21
755.63487250000003
  0
LINE
  8
_0-0_0
  6
CONTINUOUS
 62
    7
 10
102.88785599999994
 20
755.91291750000005
 11
102.86328900000001
 21
755.63487250000003
  0
LINE
  8
_0-0_0
  6
CONTINUOUS
 62
    7
 10
103.306961
 20
755.69938650000006
 11
103.096451
 21
755.51606749999996
  0
LINE
  8
_0-0_0
  6
CONTINUOUS
 62
    7
 10
103.091812
 20
755.79518150000001
 11
103.096451
 21
755.51606749999996
  0
LINE
  8
_0-0_0
  6
CONTINUOUS
 62
    7
 10
103.53094499999997
 20
755.62660249999999
 11
103.34075199999995
 21
755.42228650000004
  0
LINE
  8
_0-0_0
  6
CONTINUOUS
 62
    7
 10
103.306961
 20
755.69938650000006
 11
103.34075199999995
 21
755.42228650000004
  0
LINE
  8
_0-0_0
  6
CONTINUOUS
 62
    7
 10
103.76131399999997
 20
755.5776515
 11
103.59351400000003
 21
755.35456850000003
  0
LINE
  8
_0-0_0
  6
CONTINUOUS
 62
    7
 10
103.53094499999997
 20
755.62660249999999
 11
103.59351400000003
 21
755.35456850000003
  0
LINE
  8
_0-0_0
  6
CONTINUOUS
 62
    7
 10
103.99553700000001
 20
755.55302449999999
 11
103.85197500000004
 21
755.31364450000001
  0
LINE
  8
_0-0_0
  6
CONTINUOUS
 62
    7
 10
103.76131399999997
 20
755.5776515
 11
103.85197500000004
 21
755.31364450000001
  0
LINE
  8
_0-0_0
  6
CONTINUOUS
 62
    7
 10
104.23104899999998
 20
755.55302449999999
 11
104.11328900000001
 21
755.29994150000005
  0
LINE
  8
_0-0_0
  6
CONTINUOUS
 62
    7
 10
103.99553700000001
 20
755.55302449999999
 11
104.11328900000001
 21
755.29994150000005
  0
LINE
  8
_0-0_0
  6
CONTINUOUS
 62
    7
 10
104.46527100000003
 20
755.5776515
 11
104.37461099999996
 21
755.31364450000001
  0
LINE
  8
_0-0_0
  6
CONTINUOUS
 62
    7
 10
104.23104899999998
 20
755.55302449999999
 11
104.37461099999996
 21
755.31364450000001
  0
LINE
  8
_0-0_0
  6
CONTINUOUS
 62
    7
 10
104.69563300000004
 20
755.62660249999999
 11
104.63307199999997
 21
755.35456850000003
  0
LINE
  8
_0-0_0
  6
CONTINUOUS
 62
    7
 10
104.46527100000003
 20
755.5776515
 11
104.63307199999997
 21
755.35456850000003
  0
LINE
  8
_0-0_0
  6
CONTINUOUS
 62
    7
 10
104.91961700000002
 20
755.69938650000006
 11
104.88583399999993
 21
755.42228650000004
  0
LINE
  8
_0-0_0
  6
CONTINUOUS
 62
    7
 10
104.69563300000004
 20
755.62660249999999
 11
104.88583399999993
 21
755.42228650000004
  0
LINE
  8
_0-0_0
  6
CONTINUOUS
 62
    7
 10
105.134773
 20
755.79518150000001
 11
105.130135
 21
755.51606749999996
  0
LINE
  8
_0-0_0
  6
CONTINUOUS
 62
    7
 10
104.91961700000002
 20
755.69938650000006
 11
105.130135
 21
755.51606749999996
  0
LINE
  8
_0-0_0
  6
CONTINUOUS
 62
    7
 10
105.25430299999994
 20
755.71131849999995
 11
105.36328900000001
 21
755.63487250000003
  0
LINE
  8
_0-0_0
  6
CONTINUOUS
 62
    7
 10
105.134773
 20
755.79518150000001
 11
105.25430299999994
 21
755.71131849999995
  0
LINE
  8
_0-0_0
  6
CONTINUOUS
 62
    7
 10
105.33872999999994
 20
755.91291750000005
 11
105.36328900000001
 21
755.63487250000003
  0
LINE
  8
_0-0_0
  6
CONTINUOUS
 62
    7
 10
105.52926600000001
 20
756.05137649999995
 11
105.58275600000002
 21
755.77738950000003
  0
LINE
  8
_0-0_0
  6
CONTINUOUS
 62
    7
 10
105.33872999999994
 20
755.91291750000005
 11
105.58275600000002
 21
755.77738950000003
  0
LINE
  8
_0-0_0
  6
CONTINUOUS
 62
    7
 10
105.70428500000003
 20
756.20896849999997
 11
105.78611799999999
 21
755.94209250000006
  0
LINE
  8
_0-0_0
  6
CONTINUOUS
 62
    7
 10
105.52926600000001
 20
756.05137649999995
 11
105.78611799999999
 21
755.94209250000006
  0
LINE
  8
_0-0_0
  6
CONTINUOUS
 62
    7
 10
105.86186999999995
 20
756.38398749999999
 11
105.97115299999996
 21
756.12712050000005
  0
LINE
  8
_0-0_0
  6
CONTINUOUS
 62
    7
 10
105.70428500000003
 20
756.20896849999997
 11
105.97115299999996
 21
756.12712050000005
  0
LINE
  8
_0-0_0
  6
CONTINUOUS
 62
    7
 10
106.00029799999993
 20
756.57450849999998
 11
106.13583399999993
 21
756.3304895
  0
LINE
  8
_0-0_0
  6
CONTINUOUS
 62
    7
 10
105.86186999999995
 20
756.38398749999999
 11
106.13583399999993
 21
756.3304895
  0
LINE
  8
_0-0_0
  6
CONTINUOUS
 62
    7
 10
106.11805700000002
 20
756.77845750000006
 11
106.27835099999993
 21
756.54994150000005
  0
LINE
  8
_0-0_0
  6
CONTINUOUS
 62
    7
 10
106.00029799999993
 20
756.57450849999998
 11
106.27835099999993
 21
756.54994150000005
  0
LINE
  8
_0-0_0
  6
CONTINUOUS
 62
    7
 10
106.21385199999997
 20
756.99360650000006
 11
106.397156
 21
756.78309650000006
  0
LINE
  8
_0-0_0
  6
CONTINUOUS
 62
    7
 10
106.11805700000002
 20
756.77845750000006
 11
106.397156
 21
756.78309650000006
  0
LINE
  8
_0-0_0
  6
CONTINUOUS
 62
    7
 10
106.28662099999997
 20
757.21760549999999
 11
106.49093600000003
 21
757.02738950000003
  0
LINE
  8
_0-0_0
  6
CONTINUOUS
 62
    7
 10
106.21385199999997
 20
756.99360650000006
 11
106.49093600000003
 21
757.02738950000003
  0
LINE
  8
_0-0_0
  6
CONTINUOUS
 62
    7
 10
106.33558700000003
 20
757.44795250000004
 11
106.55866200000003
 21
757.28016649999995
  0
LINE
  8
_0-0_0
  6
CONTINUOUS
 62
    7
 10
106.28662099999997
 20
757.21760549999999
 11
106.55866200000003
 21
757.28016649999995
  0
LINE
  8
_0-0_0
  6
CONTINUOUS
 62
    7
 10
106.36020699999995
 20
757.68217449999997
 11
106.59959400000002
 21
757.53861949999998
  0
LINE
  8
_0-0_0
  6
CONTINUOUS
 62
    7
 10
106.33558700000003
 20
757.44795250000004
 11
106.59959400000002
 21
757.53861949999998
  0
LINE
  8
_0-0_0
  6
CONTINUOUS
 62
    7
 10
106.36020699999995
 20
757.9177095
 11
106.61328900000001
 21
757.79994150000005
  0
LINE
  8
_0-0_0
  6
CONTINUOUS
 62
    7
 10
106.36020699999995
 20
757.68217449999997
 11
106.61328900000001
 21
757.79994150000005
  0
LINE
  8
_0-0_0
  6
CONTINUOUS
 62
    7
 10
106.33558700000003
 20
758.15193150000005
 11
106.59959400000002
 21
758.0612635
  0
LINE
  8
_0-0_0
  6
CONTINUOUS
 62
    7
 10
106.36020699999995
 20
757.9177095
 11
106.59959400000002
 21
758.0612635
  0
LINE
  8
_0-0_0
  6
CONTINUOUS
 62
    7
 10
106.28662099999997
 20
758.38227849999998
 11
106.55866200000003
 21
758.31971750000002
  0
LINE
  8
_0-0_0
  6
CONTINUOUS
 62
    7
 10
106.33558700000003
 20
758.15193150000005
 11
106.55866200000003
 21
758.31971750000002
  0
LINE
  8
_0-0_0
  6
CONTINUOUS
 62
    7
 10
106.21385199999997
 20
758.60627750000003
 11
106.49093600000003
 21
758.57249449999995
  0
LINE
  8
_0-0_0
  6
CONTINUOUS
 62
    7
 10
106.28662099999997
 20
758.38227849999998
 11
106.49093600000003
 21
758.57249449999995
  0
LINE
  8
_0-0_0
  6
CONTINUOUS
 62
    7
 10
106.11805700000002
 20
758.82142650000003
 11
106.397156
 21
758.81678750000003
  0
LINE
  8
_0-0_0
  6
CONTINUOUS
 62
    7
 10
106.21385199999997
 20
758.60627750000003
 11
106.397156
 21
758.81678750000003
  0
CIRCLE
  8
_0-0_0
  6
CONTINUOUS
 62
    7
 10
116.11328900000001
 20
774.39994750000005
 40
2
  0
CIRCLE
  8
_0-0_0
  6
CONTINUOUS
 62
    7
 10
104.11328900000001
 20
757.79994150000005
 40
2
  0
LINE
  8
_0-0_0
  6
CONTINUOUS
 62
    7
 10
116.69540399999994
 20
773.39994750000005
 11
115.53118099999995
 21
773.39994750000005
  0
LINE
  8
_0-0_0
  6
CONTINUOUS
 62
    7
 10
115.53118099999995
 20
773.39994750000005
 11
114.96328700000004
 21
774.39994750000005
  0
LINE
  8
_0-0_0
  6
CONTINUOUS
 62
    7
 10
114.96328700000004
 20
774.39994750000005
 11
115.53118099999995
 21
775.39994750000005
  0
LINE
  8
_0-0_0
  6
CONTINUOUS
 62
    7
 10
115.53118099999995
 20
775.39994750000005
 11
116.69540399999994
 21
775.39994750000005
  0
LINE
  8
_0-0_0
  6
CONTINUOUS
 62
    7
 10
116.69540399999994
 20
775.39994750000005
 11
117.26328999999998
 21
774.39994750000005
  0
LINE
  8
_0-0_0
  6
CONTINUOUS
 62
    7
 10
117.26328999999998
 20
774.39994750000005
 11
116.69540399999994
 21
773.39994750000005
  0
CIRCLE
  8
_0-0_0
  6
CONTINUOUS
 62
    7
 10
110.11328900000001
 20
766.09992950000003
 40
5
  0
LINE
  8
_0-0_0
  6
CONTINUOUS
 62
    7
 10
104.69540399999994
 20
756.79994150000005
 11
103.53118099999995
 21
756.79994150000005
  0
LINE
  8
_0-0_0
  6
CONTINUOUS
 62
    7
 10
103.53118099999995
 20
756.79994150000005
 11
102.96329500000002
 21
757.79994150000005
  0
LINE
  8
_0-0_0
  6
CONTINUOUS
 62
    7
 10
102.96329500000002
 20
757.79994150000005
 11
103.53118099999995
 21
758.79994150000005
  0
LINE
  8
_0-0_0
  6
CONTINUOUS
 62
    7
 10
103.53118099999995
 20
758.79994150000005
 11
104.69540399999994
 21
758.79994150000005
  0
LINE
  8
_0-0_0
  6
CONTINUOUS
 62
    7
 10
104.69540399999994
 20
758.79994150000005
 11
105.26328999999998
 21
757.79994150000005
  0
LINE
  8
_0-0_0
  6
CONTINUOUS
 62
    7
 10
105.26328999999998
 20
757.79994150000005
 11
104.69540399999994
 21
756.79994150000005
  0
CIRCLE
  8
_0-0_0
  6
CONTINUOUS
 62
    7
 10
110.11328900000001
 20
766.09992950000003
 40
4.5381200000000002
  0
CIRCLE
  8
_0-0_0
  6
CONTINUOUS
 62
    7
 10
110.11328900000001
 20
766.09992950000003
 40
4
  0
LINE
  8
_0-0_0
  6
CONTINUOUS
 62
    7
 10
101.98071299999992
 20
776.05525150000005
 11
101.31329299999993
 21
776.05525150000005
  0
ARC
  8
_0-0_0
  6
CONTINUOUS
 62
    7
 10
118.11328900000001
 20
776.52494750000005
 40
0.2
 50
179.94055499999999
 51
269.99997000000002
  0
ARC
  8
_0-0_0
  6
CONTINUOUS
 62
    7
 10
116.61328900000001
 20
757.29994150000005
 40
2
 50
269.99999700000001
 51
273.84026499999999
  0
ARC
  8
_0-0_0
  6
CONTINUOUS
 62
    7
 10
103.61328900000001
 20
774.89994750000005
 40
2
 50
90.000003000000007
 51
93.840255999999997
  0
LINE
  8
_0-0_0
  6
CONTINUOUS
 62
    7
 10
118.41329199999996
 20
776.32493550000004
 11
118.11328900000001
 21
776.32493550000004
  0
LINE
  8
_0-0_0
  6
CONTINUOUS
 62
    7
 10
118.41329199999996
 20
779.27494750000005
 11
118.11328900000001
 21
779.27494750000005
  0
ARC
  8
_0-0_0
  6
CONTINUOUS
 62
    7
 10
102.11328900000001
 20
776.52500950000001
 40
0.2
 50
270.00002499999994
 51
0.0594439999999606
  0
ARC
  8
_0-0_0
  6
CONTINUOUS
 62
    7
 10
118.41325399999994
 20
776.52497849999997
 40
0.200055
 50
270.00964199999999
 51
1.3705509999999435
  0
ARC
  8
_0-0_0
  6
CONTINUOUS
 62
    7
 10
118.41329199999996
 20
779.07493550000004
 40
0.2
 50
359.91222800000003
 51
89.999948000000003
  0
LINE
  8
_0-0_0
  6
CONTINUOUS
 62
    7
 10
101.81329299999993
 20
776.32502750000003
 11
102.11328900000001
 21
776.32502750000003
  0
ARC
  8
_0-0_0
  6
CONTINUOUS
 62
    7
 10
101.81332399999997
 20
776.52507049999997
 40
0.200055
 50
178.629446
 51
269.99035300000003
  0
LINE
  8
_0-0_0
  6
CONTINUOUS
 62
    7
 10
118.81329299999993
 20
781.80000250000001
 11
118.81329299999993
 21
795.00001550000002
  0
ARC
  8
_0-0_0
  6
CONTINUOUS
 62
    7
 10
118.31329299999993
 20
781.80000250000001
 40
0.5
 50
269.99999700000001
 51
0
  0
ARC
  8
_0-0_0
  6
CONTINUOUS
 62
    7
 10
118.75471500000003
 20
795.20002750000003
 40
0.1
 50
135
 51
225
  0
LINE
  8
_0-0_0
  6
CONTINUOUS
 62
    7
 10
118.68400599999995
 20
795.12931849999995
 11
118.81329299999993
 21
795.00001550000002
  0
LINE
  8
_0-0_0
  6
CONTINUOUS
 62
    7
 10
118.31329299999993
 20
781.30000250000001
 11
116.41329199999996
 21
781.30000250000001
  0
ARC
  8
_0-0_0
  6
CONTINUOUS
 62
    7
 10
116.41329199999996
 20
781.80000250000001
 40
0.5
 50
233.12990600000001
 51
269.99999700000001
  0
ARC
  8
_0-0_0
  6
CONTINUOUS
 62
    7
 10
103.71329500000002
 20
781.80000250000001
 40
0.5
 50
269.99999700000001
 51
306.87009999999998
  0
LINE
  8
_0-0_0
  6
CONTINUOUS
 62
    7
 10
103.71329500000002
 20
781.30000250000001
 11
101.81329299999993
 21
781.30000250000001
  0
ARC
  8
_0-0_0
  6
CONTINUOUS
 62
    7
 10
101.81329299999993
 20
781.80000250000001
 40
0.5
 50
180.00000900000003
 51
269.99999700000001
  0
LINE
  8
_0-0_0
  6
CONTINUOUS
 62
    7
 10
101.31329299999993
 20
791.23500049999996
 11
101.31329299999993
 21
781.80000250000001
  0
LINE
  8
_0-0_0
  6
CONTINUOUS
 62
    7
 10
101.31329299999993
 20
791.23500049999996
 11
102.01328999999998
 21
791.23500049999996
  0
LINE
  8
_0-0_0
  6
CONTINUOUS
 62
    7
 10
118.01328999999998
 20
809.80000250000001
 11
118.21932200000003
 21
809.80000250000001
  0
LINE
  8
_0-0_0
  6
CONTINUOUS
 62
    7
 10
118.21932200000003
 20
809.80000250000001
 11
118.81329299999993
 21
809.20603949999997
  0
LINE
  8
_0-0_0
  6
CONTINUOUS
 62
    7
 10
118.81329299999993
 20
804.20002750000003
 11
118.81329299999993
 21
809.20603949999997
  0
LINE
  8
_0-0_0
  6
CONTINUOUS
 62
    7
 10
118.68400599999995
 20
804.07072449999998
 11
118.81329299999993
 21
804.20002750000003
  0
ARC
  8
_0-0_0
  6
CONTINUOUS
 62
    7
 10
118.75471500000003
 20
804.00001550000002
 40
0.1
 50
135
 51
225
  0
LINE
  8
_0-0_0
  6
CONTINUOUS
 62
    7
 10
118.68400599999995
 20
803.92930550000005
 11
118.81329299999993
 21
803.80000250000001
  0
LINE
  8
_0-0_0
  6
CONTINUOUS
 62
    7
 10
118.81329299999993
 20
803.10002150000003
 11
118.81329299999993
 21
803.80000250000001
  0
LINE
  8
_0-0_0
  6
CONTINUOUS
 62
    7
 10
118.68400599999995
 20
802.97071849999998
 11
118.81329299999993
 21
803.10002150000003
  0
ARC
  8
_0-0_0
  6
CONTINUOUS
 62
    7
 10
118.75471500000003
 20
802.90000950000001
 40
0.1
 50
135
 51
225
  0
LINE
  8
_0-0_0
  6
CONTINUOUS
 62
    7
 10
118.68400599999995
 20
802.82929950000005
 11
118.81329299999993
 21
802.70002750000003
  0
LINE
  8
_0-0_0
  6
CONTINUOUS
 62
    7
 10
118.81329299999993
 20
802.00001550000002
 11
118.81329299999993
 21
802.70002750000003
  0
LINE
  8
_0-0_0
  6
CONTINUOUS
 62
    7
 10
118.68400599999995
 20
801.87074250000001
 11
118.81329299999993
 21
802.00001550000002
  0
ARC
  8
_0-0_0
  6
CONTINUOUS
 62
    7
 10
118.75471500000003
 20
801.80000250000001
 40
0.1
 50
135
 51
225
  0
LINE
  8
_0-0_0
  6
CONTINUOUS
 62
    7
 10
118.68400599999995
 20
801.72929350000004
 11
118.81329299999993
 21
801.60002150000003
  0
LINE
  8
_0-0_0
  6
CONTINUOUS
 62
    7
 10
118.81329299999993
 20
800.90000950000001
 11
118.81329299999993
 21
801.60002150000003
  0
LINE
  8
_0-0_0
  6
CONTINUOUS
 62
    7
 10
118.68400599999995
 20
800.7707365
 11
118.81329299999993
 21
800.90000950000001
  0
ARC
  8
_0-0_0
  6
CONTINUOUS
 62
    7
 10
118.75471500000003
 20
800.70002750000003
 40
0.1
 50
135
 51
225
  0
LINE
  8
_0-0_0
  6
CONTINUOUS
 62
    7
 10
118.68400599999995
 20
800.62931849999995
 11
118.81329299999993
 21
800.50001550000002
  0
LINE
  8
_0-0_0
  6
CONTINUOUS
 62
    7
 10
118.81329299999993
 20
799.80000250000001
 11
118.81329299999993
 21
800.50001550000002
  0
LINE
  8
_0-0_0
  6
CONTINUOUS
 62
    7
 10
118.68400599999995
 20
799.67073049999999
 11
118.81329299999993
 21
799.80000250000001
  0
ARC
  8
_0-0_0
  6
CONTINUOUS
 62
    7
 10
118.75471500000003
 20
799.60002150000003
 40
0.1
 50
135
 51
225
  0
LINE
  8
_0-0_0
  6
CONTINUOUS
 62
    7
 10
118.68400599999995
 20
799.52931149999995
 11
118.81329299999993
 21
799.40000950000001
  0
LINE
  8
_0-0_0
  6
CONTINUOUS
 62
    7
 10
118.81329299999993
 20
798.70002750000003
 11
118.81329299999993
 21
799.40000950000001
  0
LINE
  8
_0-0_0
  6
CONTINUOUS
 62
    7
 10
118.68400599999995
 20
798.57072449999998
 11
118.81329299999993
 21
798.70002750000003
  0
ARC
  8
_0-0_0
  6
CONTINUOUS
 62
    7
 10
118.75471500000003
 20
798.50001550000002
 40
0.1
 50
135
 51
225
  0
LINE
  8
_0-0_0
  6
CONTINUOUS
 62
    7
 10
118.68400599999995
 20
798.42930550000005
 11
118.81329299999993
 21
798.30000250000001
  0
LINE
  8
_0-0_0
  6
CONTINUOUS
 62
    7
 10
118.81329299999993
 20
797.60002150000003
 11
118.81329299999993
 21
798.30000250000001
  0
LINE
  8
_0-0_0
  6
CONTINUOUS
 62
    7
 10
118.68400599999995
 20
797.47071849999998
 11
118.81329299999993
 21
797.60002150000003
  0
ARC
  8
_0-0_0
  6
CONTINUOUS
 62
    7
 10
118.75471500000003
 20
797.40000950000001
 40
0.1
 50
135
 51
225
  0
LINE
  8
_0-0_0
  6
CONTINUOUS
 62
    7
 10
118.68400599999995
 20
797.32929950000005
 11
118.81329299999993
 21
797.20002750000003
  0
LINE
  8
_0-0_0
  6
CONTINUOUS
 62
    7
 10
118.81329299999993
 20
796.50001550000002
 11
118.81329299999993
 21
797.20002750000003
  0
LINE
  8
_0-0_0
  6
CONTINUOUS
 62
    7
 10
118.68400599999995
 20
796.37074250000001
 11
118.81329299999993
 21
796.50001550000002
  0
ARC
  8
_0-0_0
  6
CONTINUOUS
 62
    7
 10
118.75471500000003
 20
796.30000250000001
 40
0.1
 50
135
 51
225
  0
LINE
  8
_0-0_0
  6
CONTINUOUS
 62
    7
 10
118.68400599999995
 20
796.22929350000004
 11
118.81329299999993
 21
796.10002150000003
  0
LINE
  8
_0-0_0
  6
CONTINUOUS
 62
    7
 10
118.81329299999993
 20
795.40000950000001
 11
118.81329299999993
 21
796.10002150000003
  0
LINE
  8
_0-0_0
  6
CONTINUOUS
 62
    7
 10
118.68400599999995
 20
795.2707365
 11
118.81329299999993
 21
795.40000950000001
  0
LINE
  8
_0-0_0
  6
CONTINUOUS
 62
    7
 10
118.81329299999993
 20
787.30000250000001
 11
118.91329199999996
 21
787.30000250000001
  0
LINE
  8
_0-0_0
  6
CONTINUOUS
 62
    7
 10
118.91329199999996
 20
786.80000250000001
 11
118.91329199999996
 21
787.30000250000001
  0
LINE
  8
_0-0_0
  6
CONTINUOUS
 62
    7
 10
118.91329199999996
 20
786.80000250000001
 11
118.91329199999996
 21
782.80000250000001
  0
LINE
  8
_0-0_0
  6
CONTINUOUS
 62
    7
 10
118.81329299999993
 20
782.30000250000001
 11
118.91329199999996
 21
782.30000250000001
  0
LINE
  8
_0-0_0
  6
CONTINUOUS
 62
    7
 10
118.91329199999996
 20
782.30000250000001
 11
118.91329199999996
 21
782.80000250000001
  0
LINE
  8
_0-0_0
  6
CONTINUOUS
 62
    7
 10
101.31329299999993
 20
791.30003350000004
 11
101.31329299999993
 21
791.23500049999996
  0
LINE
  8
_0-0_0
  6
CONTINUOUS
 62
    7
 10
117.81329299999993
 20
810.10002150000003
 11
117.81329299999993
 21
810.00001550000002
  0
ARC
  8
_0-0_0
  6
CONTINUOUS
 62
    7
 10
105.31329299999993
 20
810.10002150000003
 40
2.5
 50
90.000003000000007
 51
180.00000900000001
  0
LINE
  8
_0-0_0
  6
CONTINUOUS
 62
    7
 10
101.21329500000002
 20
791.30000250000001
 11
102.01328999999998
 21
791.30000250000001
  0
LINE
  8
_0-0_0
  6
CONTINUOUS
 62
    7
 10
101.71329500000002
 20
813.10002150000003
 11
101.71329500000002
 21
808.87849449999999
  0
LINE
  8
_0-0_0
  6
CONTINUOUS
 62
    7
 10
102.81329299999993
 20
813.10002150000003
 11
102.81329299999993
 21
810.10002150000003
  0
LINE
  8
_0-0_0
  6
CONTINUOUS
 62
    7
 10
101.71329500000002
 20
808.87849449999999
 11
102.01328999999998
 21
808.87849449999999
  0
LINE
  8
_0-0_0
  6
CONTINUOUS
 62
    7
 10
101.71329500000002
 20
818.23991350000006
 11
102.81329299999993
 21
818.23991350000006
  0
LINE
  8
_0-0_0
  6
CONTINUOUS
 62
    7
 10
102.81329299999993
 20
813.10047850000001
 11
102.81329299999993
 21
818.23991350000006
  0
LINE
  8
_0-0_0
  6
CONTINUOUS
 62
    7
 10
101.21329500000002
 20
812.60090649999995
 11
101.21329500000002
 21
817.67213449999997
  0
LINE
  8
_0-0_0
  6
CONTINUOUS
 62
    7
 10
101.71329500000002
 20
818.23991350000006
 11
101.21329500000002
 21
817.67213449999997
  0
ARC
  8
_0-0_0
  6
CONTINUOUS
 62
    7
 10
115.31329299999993
 20
810.10002150000003
 40
2.5
 50
0
 51
90.000003000000007
  0
LINE
  8
_0-0_0
  6
CONTINUOUS
 62
    7
 10
102.81329299999993
 20
810.00001550000002
 11
102.81329299999993
 21
810.10002150000003
  0
LINE
  8
_0-0_0
  6
CONTINUOUS
 62
    7
 10
115.31329299999993
 20
812.60002150000003
 11
105.31329299999993
 21
812.60002150000003
  0
LINE
  8
_0-0_0
  6
CONTINUOUS
 62
    7
 10
119.01328999999998
 20
782.80000250000001
 11
119.01328999999998
 21
782.93037449999997
  0
LINE
  8
_0-0_0
  6
CONTINUOUS
 62
    7
 10
119.01328999999998
 20
786.43037449999997
 11
119.01328999999998
 21
782.93037449999997
  0
LINE
  8
_0-0_0
  6
CONTINUOUS
 62
    7
 10
118.91329199999996
 20
786.70002750000003
 11
119.01328999999998
 21
786.70002750000003
  0
LINE
  8
_0-0_0
  6
CONTINUOUS
 62
    7
 10
119.01328999999998
 20
786.43037449999997
 11
119.01328999999998
 21
786.70002750000003
  0
LINE
  8
_0-0_0
  6
CONTINUOUS
 62
    7
 10
102.81329299999993
 20
820.60002150000003
 11
102.81329299999993
 21
818.23991350000006
  0
LINE
  8
_0-0_0
  6
CONTINUOUS
 62
    7
 10
118.61329699999999
 20
809.20002750000003
 11
117.61329699999999
 21
810.20002750000003
  0
LINE
  8
_0-0_0
  6
CONTINUOUS
 62
    7
 10
118.61328900000001
 20
781.40000950000001
 11
118.61329699999999
 21
809.20002750000003
  0
LINE
  8
_0-0_0
  6
CONTINUOUS
 62
    7
 10
102.01328999999998
 20
781.40000950000001
 11
118.61328900000001
 21
781.40000950000001
  0
LINE
  8
_0-0_0
  6
CONTINUOUS
 62
    7
 10
102.01328999999998
 20
809.20002750000003
 11
102.01328999999998
 21
781.40000950000001
  0
LINE
  8
_0-0_0
  6
CONTINUOUS
 62
    7
 10
101.21329500000002
 20
791.30000250000001
 11
101.21329500000002
 21
808.11283849999995
  0
LINE
  8
_0-0_0
  6
CONTINUOUS
 62
    7
 10
101.21329500000002
 20
812.60002150000003
 11
101.21329500000002
 21
808.11283849999995
  0
ARC
  8
_0-0_0
  6
CONTINUOUS
 62
    7
 10
132.665031
 20
788.11784350000005
 40
37.269466000000001
 50
146.14857699999999
 51
147.55443399999999
  0
LINE
  8
_0-0_0
  6
CONTINUOUS
 62
    7
 10
101.71329500000002
 20
820.60002150000003
 11
101.71329500000002
 21
818.23991350000006
  0
LINE
  8
_0-0_0
  6
CONTINUOUS
 62
    7
 10
101.21329500000002
 20
820.10002150000003
 11
101.21329500000002
 21
817.67213449999997
  0
ARC
  8
_0-0_0
  6
CONTINUOUS
 62
    7
 10
115.04424299999994
 20
809.80000250000001
 40
2.6000000000000001
 50
8.8498839999999994
 51
90.000002999999992
  0
LINE
  8
_0-0_0
  6
CONTINUOUS
 62
    7
 10
115.04424299999994
 20
812.40000950000001
 11
105.58233599999994
 21
812.40000950000001
  0
ARC
  8
_0-0_0
  6
CONTINUOUS
 62
    7
 10
105.58233599999994
 20
809.80000250000001
 40
2.6000000000000001
 50
90.000003000000007
 51
171.150115
  0
LINE
  8
_0-0_0
  6
CONTINUOUS
 62
    7
 10
102.01328999999998
 20
809.20002750000003
 11
103.01328999999998
 21
810.20002750000003
  0
LINE
  8
_0-0_0
  6
CONTINUOUS
 62
    7
 10
117.61329699999999
 20
808.78581250000002
 11
118.61329699999999
 21
809.20002750000003
  0
ARC
  8
_0-0_0
  6
CONTINUOUS
 62
    7
 10
112.07075499999996
 20
820.98612949999995
 40
12.126564999999999
 50
292.155034
 51
297.19674500000002
  0
LINE
  8
_0-0_0
  6
CONTINUOUS
 62
    7
 10
117.61328900000001
 20
782.40000950000001
 11
118.61328900000001
 21
781.40000950000001
  0
LINE
  8
_0-0_0
  6
CONTINUOUS
 62
    7
 10
103.01328999999998
 20
782.40000950000001
 11
102.01328999999998
 21
781.40000950000001
  0
LINE
  8
_0-0_0
  6
CONTINUOUS
 62
    7
 10
103.01328999999998
 20
808.78581250000002
 11
102.01328999999998
 21
809.20002750000003
  0
ARC
  8
_0-0_0
  6
CONTINUOUS
 62
    7
 10
108.55583200000001
 20
820.98612949999995
 40
12.126567
 50
242.80325699999997
 51
247.84494000000001
  0
CIRCLE
  8
_0-0_0
  6
CONTINUOUS
 62
    7
 10
110.31329299999993
 20
789.60002150000003
 40
2.0670000000000002
  0
LINE
  8
_0-0_0
  6
CONTINUOUS
 62
    7
 10
102.81329299999993
 20
813.10002150000003
 11
101.71329500000002
 21
813.10002150000003
  0
LINE
  8
_0-0_0
  6
CONTINUOUS
 62
    7
 10
118.91329199999996
 20
782.80000250000001
 11
119.01328999999998
 21
782.80000250000001
  0
LINE
  8
_0-0_0
  6
CONTINUOUS
 62
    7
 10
118.91329199999996
 20
782.80000250000001
 11
119.01328999999998
 21
782.80000250000001
  0
LINE
  8
_0-0_0
  6
CONTINUOUS
 62
    7
 10
101.21329500000002
 20
812.60002150000003
 11
101.71329500000002
 21
813.10002150000003
  0
LINE
  8
_0-0_0
  6
CONTINUOUS
 62
    7
 10
102.81329299999993
 20
820.60002150000003
 11
101.71329500000002
 21
820.60002150000003
  0
LINE
  8
_0-0_0
  6
CONTINUOUS
 62
    7
 10
101.21329500000002
 20
820.10002150000003
 11
101.71329500000002
 21
820.60002150000003
  0
ENDSEC
  0
EOF
