  0
SECTION
  2
HEADER
  9
$ACADVER
  1
AC1009
  9
$INSBASE
 10
0
 20
0
 30
0
  9
$EXTMIN
 10
0
 20
0
  9
$EXTMAX
 10
841
 20
594
  9
$LIMMIN
 10
0
 20
0
  9
$LIMMAX
 10
841
 20
594
  9
$LTSCALE
 40
1
  0
ENDSEC
  0
SECTION
  2
TABLES
  0
TABLE
  2
LTYPE
 70
     9
  0
LTYPE
  2
CONTINUOUS
 70
    64
  3
実線
 72
    65
 73
     0
 40
0.0
  0
LTYPE
  2
DASHED1
 70
    64
  3
--  --  --  --  --  --  --  --  
 72
    65
 73
     2
 40
2.5
 49
1.25
 49
-1.25
  0
LTYPE
  2
DASHED2
 70
    64
  3
----    ----    ----    ----    
 72
    65
 73
     2
 40
5.0
 49
2.5
 49
-2.5
  0
LTYPE
  2
DASHED3
 70
    64
  3
------  ------  ------  ------  
 72
    65
 73
     2
 40
5.0
 49
3.75
 49
-1.25
  0
LTYPE
  2
CENTER1
 70
    64
  3
----- - ----- - ----- - ----- - 
 72
    65
 73
     4
 40
10.0
 49
6.25
 49
-1.25
 49
1.25
 49
-1.25
  0
LTYPE
  2
CENTER2
 70
    64
  3
----------  --  ----------  --  
 72
    65
 73
     4
 40
20.0
 49
12.5
 49
-2.5
 49
2.5
 49
-2.5
  0
LTYPE
  2
PHANTOM1
 70
    64
  3
--- - - --- - - --- - - --- - - 
 72
    65
 73
     6
 40
10.0
 49
3.25
 49
-1.25
 49
1.25
 49
-1.25
 49
1.25
 49
-1.25
  0
LTYPE
  2
PHANTOM2
 70
    64
  3
--------  -  -  --------  -  -  
 72
    65
 73
     6
 40
20.0
 49
10.0
 49
-2.5
 49
1.25
 49
-2.5
 49
1.25
 49
-2.5
  0
LTYPE
  2
DOT
 70
    64
  3
-   -   -   -   -   -   -   -   
 72
    65
 73
     2
 40
2.5
 49
0.625
 49
-1.875
  0
LTYPE
  2
DUMMY
 70
    64
  3
ダミー
 72
    65
 73
     0
 40
0.0
  0
LTYPE
  2
RAND1
 70
    64
  3
ランダム線1
 72
    65
 73
     4
 40
10.0
 49
1.0
 49
-2.0
 49
3.0
 49
-4.0
  0
LTYPE
  2
RAND2
 70
    64
  3
ランダム線2
 72
    65
 73
     4
 40
14.0
 49
2.0
 49
-3.0
 49
4.0
 49
-5.0
  0
LTYPE
  2
RAND3
 70
    64
  3
ランダム線3
 72
    65
 73
     4
 40
18.0
 49
3.0
 49
-4.0
 49
5.0
 49
-6.0
  0
LTYPE
  2
RAND4
 70
    64
  3
ランダム線4
 72
    65
 73
     4
 40
22.0
 49
4.0
 49
-5.0
 49
6.0
 49
-7.0
  0
LTYPE
  2
RAND5
 70
    64
  3
ランダム線5
 72
    65
 73
     4
 40
26.0
 49
5.0
 49
-6.0
 49
7.0
 49
-8.0
  0
LTYPE
  2
LONG1
 70
    64
  3
----------  --  ----------  --  
 72
    65
 73
     4
 40
40.0
 49
32.5
 49
-2.5
 49
2.5
 49
-2.5
  0
LTYPE
  2
LONG2
 70
    64
  3
--------  -  -  --------  -  -  
 72
    65
 73
     6
 40
40.0
 49
30.0
 49
-2.5
 49
1.25
 49
-2.5
 49
1.25
 49
-2.5
  0
LTYPE
  2
LONG3
 70
    64
  3
+++++++++++++++..+++++++++++++++
 72
    65
 73
     2
 40
40.0
 49
37.5
 49
-2.5
  0
LTYPE
  2
LONG4
 70
    64
  3
+++++++++++++++..+++++++++++++++
 72
    65
 73
     2
 40
80.0
 49
75.0
 49
-5.0
  0
LTYPE
  2
LONG5
 70
    64
  3
----------  --  ----------  --  
 72
    65
 73
     4
 40
60.0
 49
37.5
 49
-7.5
 49
7.5
 49
-7.5
  0
LTYPE
  2
dashed
 70
   64
  3
-------   -------------   ------
 72
   65
 73
    2
 40
7.5
 49
6
 49
-1.5
  0
LTYPE
  2
dashed_spaced
 70
   64
  3
----        --------        ----
 72
   65
 73
    2
 40
12
 49
6
 49
-6
  0
LTYPE
  2
long_dashed_dotted
 70
   64
  3
------------- --- --------------
 72
   65
 73
    4
 40
15.25
 49
12
 49
-1.5
 49
0.25
 49
-1.5
  0
LTYPE
  2
long_dashed_double-dotted
 70
   64
  3
----------- --- --- ------------
 72
   65
 73
    6
 40
17
 49
12
 49
-1.5
 49
0.25
 49
-1.5
 49
0.25
 49
-1.5
  0
LTYPE
  2
long_dashed_triplicate-dotted
 70
   64
  3
--------- --- --- --- ----------
 72
   65
 73
    8
 40
18.75
 49
12
 49
-1.5
 49
0.25
 49
-1.5
 49
0.25
 49
-1.5
 49
0.25
 49
-1.5
  0
LTYPE
  2
dotted
 70
   64
  3
   -       -       -       -    
 72
   65
 73
    2
 40
1.75
 49
0.25
 49
-1.5
  0
LTYPE
  2
chain
 70
   64
  3
-------------- -- --------------
 72
   65
 73
    4
 40
18.5
 49
12
 49
-1.5
 49
3.5
 49
-1.5
  0
LTYPE
  2
chain_double_dash
 70
   64
  3
------------ -- -- -------------
 72
   65
 73
    6
 40
23.5
 49
12
 49
-1.5
 49
3.5
 49
-1.5
 49
3.5
 49
-1.5
  0
LTYPE
  2
dashed_dotted
 70
   64
  3
-----------     -     ----------
 72
   65
 73
    4
 40
9.25
 49
6
 49
-1.5
 49
0.25
 49
-1.5
  0
LTYPE
  2
double-dashed_dotted
 70
   64
  3
------   -----------   -   -----
 72
   65
 73
    6
 40
16.75
 49
6
 49
-1.5
 49
6
 49
-1.5
 49
0.25
 49
-1.5
  0
LTYPE
  2
dashed_double-dotted
 70
   64
  3
---------    -    -    ---------
 72
   65
 73
    6
 40
11
 49
6
 49
-1.5
 49
0.25
 49
-1.5
 49
0.25
 49
-1.5
  0
LTYPE
  2
double-dashed_double-dotted
 70
   64
  3
-----   ---------   -   -   ----
 72
   65
 73
    8
 40
18.5
 49
6
 49
-1.5
 49
6
 49
-1.5
 49
0.25
 49
-1.5
 49
0.25
 49
-1.5
  0
LTYPE
  2
dashed_triplicate-dotted
 70
   64
  3
-------    -    -    -    ------
 72
   65
 73
    8
 40
12.75
 49
6
 49
-1.5
 49
0.25
 49
-1.5
 49
0.25
 49
-1.5
 49
0.25
 49
-1.5
  0
LTYPE
  2
double-dashed_triplicate-dotted
 70
   64
  3
-----  ---------  -  -  -  -----
 72
   65
 73
   10
 40
20.25
 49
6
 49
-1.5
 49
6
 49
-1.5
 49
0.25
 49
-1.5
 49
0.25
 49
-1.5
 49
0.25
 49
-1.5
  0
LTYPE
  2
undefined
 70
   64
  3
--------------------------------
 72
   65
 73
    0
 40
0
  0
ENDTAB
  0
TABLE
  2
STYLE
  5
3
100
AcDbSymbolTable
 70
     1
  0
STYLE
  5
10
100
AcDbSymbolTableRecord
100
AcDbTextStyleTableRecord
  2
STANDARD
 70
     0
 40
0.0
 41
1.0
 50
0.0
 71
     0
 42
0.2
  3
txt
  4
bigfont.shx
  0
STYLE
  5
26
100
AcDbSymbolTableRecord
100
AcDbTextStyleTableRecord
  2
TATEGAKI
 70
    68
 40
0.0
 41
1.0
 50
0.0
 71
     0
 42
1.0
  3
txt
  4
bigfont.shx
  0
ENDTAB
  0
TABLE
  2
LAYER
 70
    2
  0
LAYER
  2
_0-0_0
 70
   64
 62
    7
  6
CONTINUOUS
  0
LAYER
  2
ADD_LINE
 70
   64
 62
    7
  6
CONTINUOUS
  0
ENDTAB
  0
ENDSEC
  0
SECTION
  2
BLOCKS
  0
ENDSEC
  0
SECTION
  2
ENTITIES
  0
LINE
  8
_0-0_0
  6
CONTINUOUS
 62
    7
 10
-54.571037000000047
 20
516.90052749999995
 11
-54.571037000000047
 21
516.89952049999999
  0
LINE
  8
_0-0_0
  6
CONTINUOUS
 62
    7
 10
98.241469999999993
 20
477.96958949999998
 11
96.941466999999989
 21
474.46958949999998
  0
ARC
  8
_0-0_0
  6
CONTINUOUS
 62
    7
 10
98.428954999999974
 20
477.89994750000005
 40
0.2
 50
20.376434999999997
 51
159.62357000000003
  0
ARC
  8
_0-0_0
  6
CONTINUOUS
 62
    7
 10
136.42895499999997
 20
480.79994150000005
 40
2.2000000000000002
 50
180.00000900000003
 51
303.74900400000001
  0
LINE
  8
_0-0_0
  6
CONTINUOUS
 62
    7
 10
134.22894299999996
 20
482.29994150000005
 11
134.22894299999996
 21
480.79994150000005
  0
LINE
  8
_0-0_0
  6
CONTINUOUS
 62
    7
 10
134.22894299999996
 20
482.29994150000005
 11
59.628966999999989
 21
482.29994150000005
  0
LINE
  8
_0-0_0
  6
CONTINUOUS
 62
    7
 10
59.628966999999989
 20
482.29994150000005
 11
59.628966999999989
 21
480.79994150000005
  0
ARC
  8
_0-0_0
  6
CONTINUOUS
 62
    7
 10
57.428954999999974
 20
480.79994150000005
 40
2.2000000000000002
 50
236.25102899999999
 51
0
  0
ARC
  8
_0-0_0
  6
CONTINUOUS
 62
    7
 10
55.928954999999974
 20
478.55494650000003
 40
0.5
 50
56.251010000000008
 51
180.00000900000001
  0
LINE
  8
_0-0_0
  6
CONTINUOUS
 62
    7
 10
55.428954999999974
 20
458.19993550000004
 11
55.428954999999974
 21
458.97706549999998
  0
LINE
  8
_0-0_0
  6
CONTINUOUS
 62
    7
 10
55.428954999999974
 20
458.19993550000004
 11
65.228957999999977
 21
458.19993550000004
  0
ARC
  8
_0-0_0
  6
CONTINUOUS
 62
    7
 10
65.228957999999977
 20
458.39994750000005
 40
0.2
 50
269.99999700000001
 51
0
  0
LINE
  8
_0-0_0
  6
CONTINUOUS
 62
    7
 10
65.428954999999974
 20
460.09992950000003
 11
65.428954999999974
 21
458.39994750000005
  0
ARC
  8
_0-0_0
  6
CONTINUOUS
 62
    7
 10
65.628966999999989
 20
460.09992950000003
 40
0.2
 50
90.000003000000007
 51
180.00000900000001
  0
LINE
  8
_0-0_0
  6
CONTINUOUS
 62
    7
 10
66.128966999999989
 20
460.29994150000005
 11
65.628966999999989
 21
460.29994150000005
  0
ARC
  8
_0-0_0
  6
CONTINUOUS
 62
    7
 10
66.128966999999989
 20
459.79994150000005
 40
0.5
 50
90.000003000000007
 51
180.00000900000001
  0
LINE
  8
_0-0_0
  6
CONTINUOUS
 62
    7
 10
65.628966999999989
 20
458.29994150000005
 11
65.628966999999989
 21
459.79994150000005
  0
LINE
  8
_0-0_0
  6
CONTINUOUS
 62
    7
 10
135.22894299999996
 20
458.29994150000005
 11
65.628966999999989
 21
458.29994150000005
  0
LINE
  8
_0-0_0
  6
CONTINUOUS
 62
    7
 10
135.22894299999996
 20
458.29994150000005
 11
135.22894299999996
 21
459.79994150000005
  0
ARC
  8
_0-0_0
  6
CONTINUOUS
 62
    7
 10
134.72894299999996
 20
459.79994150000005
 40
0.5
 50
0
 51
90.000003000000007
  0
LINE
  8
_0-0_0
  6
CONTINUOUS
 62
    7
 10
135.22894299999996
 20
460.29994150000005
 11
134.72894299999996
 21
460.29994150000005
  0
ARC
  8
_0-0_0
  6
CONTINUOUS
 62
    7
 10
135.22894299999996
 20
460.09992950000003
 40
0.2
 50
0
 51
90.000003000000007
  0
LINE
  8
_0-0_0
  6
CONTINUOUS
 62
    7
 10
135.42895499999997
 20
458.39994750000005
 11
135.42895499999997
 21
460.09992950000003
  0
ARC
  8
_0-0_0
  6
CONTINUOUS
 62
    7
 10
135.62896699999999
 20
458.39994750000005
 40
0.2
 50
180.00000900000003
 51
269.99999700000001
  0
LINE
  8
_0-0_0
  6
CONTINUOUS
 62
    7
 10
135.62896699999999
 20
458.19993550000004
 11
136.42895499999997
 21
458.19993550000004
  0
ARC
  8
_0-0_0
  6
CONTINUOUS
 62
    7
 10
136.42895499999997
 20
460.19993550000004
 40
2
 50
269.99999700000001
 51
0.0000099999999886
  0
LINE
  8
_0-0_0
  6
CONTINUOUS
 62
    7
 10
138.42895499999997
 20
478.55494650000003
 11
138.42895499999997
 21
460.19993550000004
  0
ARC
  8
_0-0_0
  6
CONTINUOUS
 62
    7
 10
137.92895499999997
 20
478.55494650000003
 40
0.5
 50
0
 51
123.74898500000002
  0
LINE
  8
_0-0_0
  6
CONTINUOUS
 62
    7
 10
66.928954999999974
 20
460.49995450000006
 11
66.928954999999974
 21
460.69993550000004
  0
LINE
  8
_0-0_0
  6
CONTINUOUS
 62
    7
 10
66.928954999999974
 20
460.69993550000004
 11
133.92895499999997
 21
460.69993550000004
  0
LINE
  8
_0-0_0
  6
CONTINUOUS
 62
    7
 10
133.92895499999997
 20
460.49995450000006
 11
133.92895499999997
 21
460.69993550000004
  0
ARC
  8
_0-0_0
  6
CONTINUOUS
 62
    7
 10
134.12896699999999
 20
460.49995450000006
 40
0.2
 50
180.00000900000003
 51
269.99999700000001
  0
LINE
  8
_0-0_0
  6
CONTINUOUS
 62
    7
 10
134.12896699999999
 20
460.29994150000005
 11
66.728957999999977
 21
460.29994150000005
  0
ARC
  8
_0-0_0
  6
CONTINUOUS
 62
    7
 10
66.728957999999977
 20
460.49995450000006
 40
0.2
 50
269.99999700000001
 51
0
  0
ARC
  8
_0-0_0
  6
CONTINUOUS
 62
    7
 10
97.128952000000027
 20
474.39994750000005
 40
0.2
 50
159.62357
 51
269.99999700000001
  0
LINE
  8
_0-0_0
  6
CONTINUOUS
 62
    7
 10
97.128952000000027
 20
474.19993550000004
 11
99.728957999999977
 21
474.19993550000004
  0
ARC
  8
_0-0_0
  6
CONTINUOUS
 62
    7
 10
99.728957999999977
 20
474.39994750000005
 40
0.2
 50
269.99999700000001
 51
20.376435000000019
  0
LINE
  8
_0-0_0
  6
CONTINUOUS
 62
    7
 10
99.916442999999958
 20
474.46958949999998
 11
98.616440000000011
 21
477.96958949999998
  0
LINE
  8
_0-0_0
  6
CONTINUOUS
 62
    7
 10
55.428954999999974
 20
477.89994750000005
 11
55.428954999999974
 21
479.87730350000004
  0
LINE
  8
_0-0_0
  6
CONTINUOUS
 62
    7
 10
55.428954999999974
 20
477.89994750000005
 11
55.428954999999974
 21
460.29994150000005
  0
LINE
  8
_0-0_0
  6
CONTINUOUS
 62
    7
 10
55.428954999999974
 20
458.97706549999998
 11
55.428954999999974
 21
460.29994150000005
  0
LINE
  8
_0-0_0
  6
CONTINUOUS
 62
    7
 10
138.42895499999997
 20
484.29994150000005
 11
138.42895499999997
 21
483.29994150000005
  0
LINE
  8
_0-0_0
  6
CONTINUOUS
 62
    7
 10
138.42895499999997
 20
483.29994150000005
 11
138.42895499999997
 21
482.79994150000005
  0
LINE
  8
_0-0_0
  6
CONTINUOUS
 62
    7
 10
138.42895499999997
 20
482.79994150000005
 11
138.42895499999997
 21
480.79994150000005
  0
LINE
  8
_0-0_0
  6
CONTINUOUS
 62
    7
 10
138.42895499999997
 20
480.79994150000005
 11
138.42895499999997
 21
478.55494650000003
  0
LINE
  8
_0-0_0
  6
CONTINUOUS
 62
    7
 10
116.42895499999997
 20
478.29994150000005
 11
116.42895499999997
 21
464.69993550000004
  0
ARC
  8
_0-0_0
  6
CONTINUOUS
 62
    7
 10
119.42895499999997
 20
478.29994150000005
 40
3
 50
90.000003000000007
 51
180.00000900000001
  0
LINE
  8
_0-0_0
  6
CONTINUOUS
 62
    7
 10
132.762878
 20
481.29994150000005
 11
119.42895499999997
 21
481.29994150000005
  0
ARC
  8
_0-0_0
  6
CONTINUOUS
 62
    7
 10
132.762878
 20
480.29994150000005
 40
1
 50
7.7664340000000012
 51
90.000002999999992
  0
ARC
  8
_0-0_0
  6
CONTINUOUS
 62
    7
 10
136.42895499999997
 20
480.79994150000005
 40
2.7000000000000002
 50
187.76643899999999
 51
254.31966600000001
  0
ARC
  8
_0-0_0
  6
CONTINUOUS
 62
    7
 10
135.42895499999997
 20
477.23762450000004
 40
1
 50
0
 51
74.319649999999996
  0
LINE
  8
_0-0_0
  6
CONTINUOUS
 62
    7
 10
136.42895499999997
 20
464.69993550000004
 11
136.42895499999997
 21
477.23762450000004
  0
ARC
  8
_0-0_0
  6
CONTINUOUS
 62
    7
 10
133.42895499999997
 20
464.69993550000004
 40
3
 50
269.99999700000001
 51
0.0000099999999886
  0
LINE
  8
_0-0_0
  6
CONTINUOUS
 62
    7
 10
119.42895499999997
 20
461.69993550000004
 11
133.42895499999997
 21
461.69993550000004
  0
ARC
  8
_0-0_0
  6
CONTINUOUS
 62
    7
 10
119.42895499999997
 20
464.69993550000004
 40
3
 50
180.00000900000003
 51
269.99999700000001
  0
LINE
  8
_0-0_0
  6
CONTINUOUS
 62
    7
 10
62.428954999999974
 20
461.69993550000004
 11
77.428954999999974
 21
461.69993550000004
  0
ARC
  8
_0-0_0
  6
CONTINUOUS
 62
    7
 10
62.428954999999974
 20
464.69993550000004
 40
3
 50
180.00000900000003
 51
269.99999700000001
  0
LINE
  8
_0-0_0
  6
CONTINUOUS
 62
    7
 10
59.428954999999974
 20
478.29994150000005
 11
59.428954999999974
 21
464.69993550000004
  0
ARC
  8
_0-0_0
  6
CONTINUOUS
 62
    7
 10
62.428954999999974
 20
478.29994150000005
 40
3
 50
90.000003000000007
 51
180.00000900000001
  0
LINE
  8
_0-0_0
  6
CONTINUOUS
 62
    7
 10
77.428954999999974
 20
481.29994150000005
 11
62.428954999999974
 21
481.29994150000005
  0
ARC
  8
_0-0_0
  6
CONTINUOUS
 62
    7
 10
77.428954999999974
 20
478.29994150000005
 40
3
 50
0
 51
90.000003000000007
  0
LINE
  8
_0-0_0
  6
CONTINUOUS
 62
    7
 10
80.428954999999974
 20
464.69993550000004
 11
80.428954999999974
 21
478.29994150000005
  0
ARC
  8
_0-0_0
  6
CONTINUOUS
 62
    7
 10
77.428954999999974
 20
464.69993550000004
 40
3
 50
269.99999700000001
 51
0.0000099999999886
  0
LINE
  8
_0-0_0
  6
CONTINUOUS
 62
    7
 10
134.42895499999997
 20
482.29994150000005
 11
134.22894299999996
 21
482.29994150000005
  0
ARC
  8
_0-0_0
  6
CONTINUOUS
 62
    7
 10
136.42895499999997
 20
480.79994150000005
 40
2
 50
180.00000900000003
 51
0.0000000000000254
  0
LINE
  8
_0-0_0
  6
CONTINUOUS
 62
    7
 10
134.42895499999997
 20
482.29994150000005
 11
134.42895499999997
 21
480.79994150000005
  0
LINE
  8
_0-0_0
  6
CONTINUOUS
 62
    7
 10
59.628966999999989
 20
482.29994150000005
 11
59.428954999999974
 21
482.29994150000005
  0
LINE
  8
_0-0_0
  6
CONTINUOUS
 62
    7
 10
59.428954999999974
 20
482.29994150000005
 11
59.428954999999974
 21
480.79994150000005
  0
ARC
  8
_0-0_0
  6
CONTINUOUS
 62
    7
 10
57.428954999999974
 20
480.79994150000005
 40
2
 50
180.00000900000003
 51
0.0000000000000254
  0
LINE
  8
_0-0_0
  6
CONTINUOUS
 62
    7
 10
41.928954999999974
 20
482.79994150000005
 11
41.928954999999974
 21
482.29994150000005
  0
LINE
  8
_0-0_0
  6
CONTINUOUS
 62
    7
 10
55.428954999999974
 20
479.88343750000001
 11
55.428954999999974
 21
480.59992950000003
  0
LINE
  8
_0-0_0
  6
CONTINUOUS
 62
    7
 10
55.428954999999974
 20
479.88343750000001
 11
55.428954999999974
 21
479.87730350000004
  0
LINE
  8
_0-0_0
  6
CONTINUOUS
 62
    7
 10
55.428954999999974
 20
478.66880749999996
 11
55.428954999999974
 21
478.55494650000003
  0
LINE
  8
_0-0_0
  6
CONTINUOUS
 62
    7
 10
43.428954999999974
 20
479.89994750000005
 11
43.428954999999974
 21
477.89994750000005
  0
LINE
  8
_0-0_0
  6
CONTINUOUS
 62
    7
 10
55.428954999999974
 20
479.89994750000005
 11
43.428954999999974
 21
479.89994750000005
  0
LINE
  8
_0-0_0
  6
CONTINUOUS
 62
    7
 10
43.428954999999974
 20
474.39994750000005
 11
43.428954999999974
 21
477.39994750000005
  0
LINE
  8
_0-0_0
  6
CONTINUOUS
 62
    7
 10
43.428954999999974
 20
477.39994750000005
 11
43.428954999999974
 21
477.89994750000005
  0
LINE
  8
_0-0_0
  6
CONTINUOUS
 62
    7
 10
43.428954999999974
 20
474.39994750000005
 11
43.428954999999974
 21
473.89994750000005
  0
ARC
  8
_0-0_0
  6
CONTINUOUS
 62
    7
 10
49.428969999999993
 20
474.59992950000003
 40
0.500016
 50
0.001164
 51
179.99560600000004
  0
LINE
  8
_0-0_0
  6
CONTINUOUS
 62
    7
 10
48.928954999999974
 20
474.59992950000003
 11
48.928954999999974
 21
462.59992950000003
  0
ARC
  8
_0-0_0
  6
CONTINUOUS
 62
    7
 10
49.428969999999993
 20
462.59996049999995
 40
0.500016
 50
180.00117
 51
359.995611
  0
LINE
  8
_0-0_0
  6
CONTINUOUS
 62
    7
 10
49.928954999999974
 20
474.59992950000003
 11
49.928954999999974
 21
462.59992950000003
  0
ARC
  8
_0-0_0
  6
CONTINUOUS
 62
    7
 10
47.928969999999993
 20
474.59992950000003
 40
0.500016
 50
0.001164
 51
179.99560600000004
  0
LINE
  8
_0-0_0
  6
CONTINUOUS
 62
    7
 10
47.428954999999974
 20
474.59992950000003
 11
47.428954999999974
 21
462.59992950000003
  0
ARC
  8
_0-0_0
  6
CONTINUOUS
 62
    7
 10
47.928969999999993
 20
462.59996049999995
 40
0.500016
 50
180.00117
 51
359.995611
  0
LINE
  8
_0-0_0
  6
CONTINUOUS
 62
    7
 10
48.428954999999974
 20
474.59992950000003
 11
48.428954999999974
 21
462.59992950000003
  0
ARC
  8
_0-0_0
  6
CONTINUOUS
 62
    7
 10
46.428969999999993
 20
474.59992950000003
 40
0.500016
 50
0.001164
 51
179.99560600000004
  0
LINE
  8
_0-0_0
  6
CONTINUOUS
 62
    7
 10
45.928954999999974
 20
474.59992950000003
 11
45.928954999999974
 21
462.59992950000003
  0
ARC
  8
_0-0_0
  6
CONTINUOUS
 62
    7
 10
46.428969999999993
 20
462.59996049999995
 40
0.500016
 50
180.00117
 51
359.995611
  0
LINE
  8
_0-0_0
  6
CONTINUOUS
 62
    7
 10
46.928954999999974
 20
474.59992950000003
 11
46.928954999999974
 21
462.59992950000003
  0
ARC
  8
_0-0_0
  6
CONTINUOUS
 62
    7
 10
44.928969999999993
 20
474.59992950000003
 40
0.500016
 50
0.001164
 51
179.99560600000004
  0
LINE
  8
_0-0_0
  6
CONTINUOUS
 62
    7
 10
44.428954999999974
 20
474.59992950000003
 11
44.428954999999974
 21
462.59992950000003
  0
ARC
  8
_0-0_0
  6
CONTINUOUS
 62
    7
 10
44.928969999999993
 20
462.59996049999995
 40
0.500016
 50
180.00117
 51
359.995611
  0
LINE
  8
_0-0_0
  6
CONTINUOUS
 62
    7
 10
45.428954999999974
 20
474.59992950000003
 11
45.428954999999974
 21
462.59992950000003
  0
LINE
  8
_0-0_0
  6
CONTINUOUS
 62
    7
 10
55.428954999999974
 20
458.29994150000005
 11
38.753510000000006
 21
458.29994150000005
  0
LINE
  8
_0-0_0
  6
CONTINUOUS
 62
    7
 10
65.978957999999977
 20
460.27690150000001
 11
65.978957999999977
 21
460.29994150000005
  0
LINE
  8
_0-0_0
  6
CONTINUOUS
 62
    7
 10
134.87896699999999
 20
460.27690150000001
 11
134.87896699999999
 21
460.29994150000005
  0
LINE
  8
_0-0_0
  6
CONTINUOUS
 62
    7
 10
41.928954999999974
 20
482.79994150000005
 11
41.928954999999974
 21
483.29994150000005
  0
LINE
  8
_0-0_0
  6
CONTINUOUS
 62
    7
 10
138.42895499999997
 20
483.29994150000005
 11
41.928954999999974
 21
483.29994150000005
  0
LINE
  8
_0-0_0
  6
CONTINUOUS
 62
    7
 10
41.928954999999974
 20
483.29994150000005
 11
41.928954999999974
 21
484.29994150000005
  0
LINE
  8
_0-0_0
  6
CONTINUOUS
 62
    7
 10
138.42907700000001
 20
484.30000250000001
 11
138.42907700000001
 21
483.80000250000001
  0
LINE
  8
_0-0_0
  6
CONTINUOUS
 62
    7
 10
138.42907700000001
 20
483.80000250000001
 11
138.42907700000001
 21
482.30000250000001
  0
ARC
  8
_0-0_0
  6
CONTINUOUS
 62
    7
 10
128.92895499999997
 20
473.89994750000005
 40
4.5
 50
269.99999700000001
 51
90.000002999999992
  0
LINE
  8
_0-0_0
  6
CONTINUOUS
 62
    7
 10
128.92895499999997
 20
469.39994750000005
 11
123.92895499999997
 21
469.39994750000005
  0
ARC
  8
_0-0_0
  6
CONTINUOUS
 62
    7
 10
123.92895499999997
 20
473.89994750000005
 40
4.5
 50
90.000003000000007
 51
269.99999700000006
  0
LINE
  8
_0-0_0
  6
CONTINUOUS
 62
    7
 10
123.92895499999997
 20
478.39994750000005
 11
128.92895499999997
 21
478.39994750000005
  0
ARC
  8
_0-0_0
  6
CONTINUOUS
 62
    7
 10
72.928954999999974
 20
473.89994750000005
 40
4.5
 50
269.99999700000001
 51
90.000002999999992
  0
LINE
  8
_0-0_0
  6
CONTINUOUS
 62
    7
 10
72.928954999999974
 20
469.39994750000005
 11
67.928954999999974
 21
469.39994750000005
  0
ARC
  8
_0-0_0
  6
CONTINUOUS
 62
    7
 10
67.928954999999974
 20
473.89994750000005
 40
4.5
 50
90.000003000000007
 51
269.99999700000006
  0
LINE
  8
_0-0_0
  6
CONTINUOUS
 62
    7
 10
67.928954999999974
 20
478.39994750000005
 11
72.928954999999974
 21
478.39994750000005
  0
LINE
  8
_0-0_0
  6
CONTINUOUS
 62
    7
 10
55.428954999999974
 20
480.59992950000003
 11
55.428954999999974
 21
482.29994150000005
  0
LINE
  8
_0-0_0
  6
CONTINUOUS
 62
    7
 10
55.428954999999974
 20
482.29994150000005
 11
41.928954999999974
 21
482.29994150000005
  0
LINE
  8
_0-0_0
  6
CONTINUOUS
 62
    7
 10
41.928954999999974
 20
480.59992950000003
 11
41.928954999999974
 21
482.29994150000005
  0
LINE
  8
_0-0_0
  6
CONTINUOUS
 62
    7
 10
43.428954999999974
 20
479.89994750000005
 11
38.753510000000006
 21
479.89994750000005
  0
LINE
  8
_0-0_0
  6
CONTINUOUS
 62
    7
 10
43.428954999999974
 20
474.39994750000005
 11
38.753510000000006
 21
474.39994750000005
  0
LINE
  8
_0-0_0
  6
CONTINUOUS
 62
    7
 10
38.121062999999992
 20
458.40257250000002
 11
38.240569999999991
 21
458.36695850000001
  0
LINE
  8
_0-0_0
  6
CONTINUOUS
 62
    7
 10
38.240569999999991
 20
458.36695850000001
 11
38.362121999999999
 21
458.33906549999995
  0
LINE
  8
_0-0_0
  6
CONTINUOUS
 62
    7
 10
38.362121999999999
 20
458.33906549999995
 11
38.485244999999964
 21
458.31904550000002
  0
LINE
  8
_0-0_0
  6
CONTINUOUS
 62
    7
 10
38.485244999999964
 20
458.31904550000002
 11
38.609466999999995
 21
458.30693050000002
  0
LINE
  8
_0-0_0
  6
CONTINUOUS
 62
    7
 10
38.609466999999995
 20
458.30693050000002
 11
38.734283000000005
 21
458.30278050000004
  0
LINE
  8
_0-0_0
  6
CONTINUOUS
 62
    7
 10
38.734283000000005
 20
458.30278050000004
 11
38.753510000000006
 21
458.30287150000004
  0
ARC
  8
_0-0_0
  6
CONTINUOUS
 62
    7
 10
38.753510000000006
 20
460.29994150000005
 40
2
 50
251.56498899999997
 51
269.99999700000001
  0
LINE
  8
_0-0_0
  6
CONTINUOUS
 62
    7
 10
41.928954999999974
 20
480.59992950000003
 11
55.428954999999974
 21
480.59992950000003
  0
CIRCLE
  8
_0-0_0
  6
CONTINUOUS
 62
    7
 10
136.42895499999997
 20
480.79994150000005
 40
1.4750000000000001
  0
CIRCLE
  8
_0-0_0
  6
CONTINUOUS
 62
    7
 10
57.428954999999974
 20
480.79994150000005
 40
1.4750000000000001
  0
ARC
  8
_0-0_0
  6
CONTINUOUS
 62
    7
 10
38.753510000000006
 20
477.89994750000005
 40
2
 50
90.000003000000007
 51
108.434997
  0
LINE
  8
_0-0_0
  6
CONTINUOUS
 62
    7
 10
33.954619999999977
 20
474.39994750000005
 11
33.26126099999999
 21
474.39994750000005
  0
LINE
  8
_0-0_0
  6
CONTINUOUS
 62
    7
 10
33.954619999999977
 20
474.39994750000005
 11
38.279175000000009
 21
474.39994750000005
  0
LINE
  8
_0-0_0
  6
CONTINUOUS
 62
    7
 10
38.753510000000006
 20
474.39994750000005
 11
38.279175000000009
 21
474.39994750000005
  0
LINE
  8
_0-0_0
  6
CONTINUOUS
 62
    7
 10
33.796509000000015
 20
459.84410049999997
 11
38.121062999999992
 21
458.40257250000002
  0
LINE
  8
_0-0_0
  6
CONTINUOUS
 62
    7
 10
132.97894299999996
 20
473.89994750000005
 11
130.669556
 21
469.89994750000005
  0
LINE
  8
_0-0_0
  6
CONTINUOUS
 62
    7
 10
122.188355
 20
469.89994750000005
 11
130.669556
 21
469.89994750000005
  0
LINE
  8
_0-0_0
  6
CONTINUOUS
 62
    7
 10
122.188355
 20
469.89994750000005
 11
119.87896699999999
 21
473.89994750000005
  0
LINE
  8
_0-0_0
  6
CONTINUOUS
 62
    7
 10
119.87896699999999
 20
473.89994750000005
 11
122.188355
 21
477.89994750000005
  0
LINE
  8
_0-0_0
  6
CONTINUOUS
 62
    7
 10
130.669556
 20
477.89994750000005
 11
122.188355
 21
477.89994750000005
  0
LINE
  8
_0-0_0
  6
CONTINUOUS
 62
    7
 10
130.669556
 20
477.89994750000005
 11
132.97894299999996
 21
473.89994750000005
  0
LINE
  8
_0-0_0
  6
CONTINUOUS
 62
    7
 10
66.188355000000001
 20
477.89994750000005
 11
63.878966999999989
 21
473.89994750000005
  0
LINE
  8
_0-0_0
  6
CONTINUOUS
 62
    7
 10
74.669556
 20
477.89994750000005
 11
66.188355000000001
 21
477.89994750000005
  0
LINE
  8
_0-0_0
  6
CONTINUOUS
 62
    7
 10
76.978957999999977
 20
473.89994750000005
 11
74.669556
 21
477.89994750000005
  0
LINE
  8
_0-0_0
  6
CONTINUOUS
 62
    7
 10
74.669556
 20
469.89994750000005
 11
76.978957999999977
 21
473.89994750000005
  0
LINE
  8
_0-0_0
  6
CONTINUOUS
 62
    7
 10
66.188355000000001
 20
469.89994750000005
 11
74.669556
 21
469.89994750000005
  0
LINE
  8
_0-0_0
  6
CONTINUOUS
 62
    7
 10
63.878966999999989
 20
473.89994750000005
 11
66.188355000000001
 21
469.89994750000005
  0
LINE
  8
_0-0_0
  6
CONTINUOUS
 62
    7
 10
37.678954999999974
 20
479.64994750000005
 11
38.121062999999992
 21
479.79731749999996
  0
LINE
  8
_0-0_0
  6
CONTINUOUS
 62
    7
 10
32.428954999999974
 20
475.14997849999997
 11
32.428954999999974
 21
474.02894549999996
  0
LINE
  8
_0-0_0
  6
CONTINUOUS
 62
    7
 10
32.428954999999974
 20
473.10762050000005
 11
32.428954999999974
 21
474.02894549999996
  0
LINE
  8
_0-0_0
  6
CONTINUOUS
 62
    7
 10
32.728972999999996
 20
471.3119355
 11
32.670165999999995
 21
471.55876150000006
  0
LINE
  8
_0-0_0
  6
CONTINUOUS
 62
    7
 10
32.670165999999995
 20
471.55876150000006
 11
32.620391999999981
 21
471.75111349999997
  0
LINE
  8
_0-0_0
  6
CONTINUOUS
 62
    7
 10
32.620391999999981
 20
471.75111349999997
 11
32.549270999999976
 21
472.01692149999997
  0
LINE
  8
_0-0_0
  6
CONTINUOUS
 62
    7
 10
32.549270999999976
 20
472.01692149999997
 11
32.516311999999971
 21
472.14363049999997
  0
LINE
  8
_0-0_0
  6
CONTINUOUS
 62
    7
 10
32.516311999999971
 20
472.14363049999997
 11
32.491057999999953
 21
472.24705449999999
  0
LINE
  8
_0-0_0
  6
CONTINUOUS
 62
    7
 10
32.491057999999953
 20
472.24705449999999
 11
32.469024999999988
 21
472.3469695
  0
LINE
  8
_0-0_0
  6
CONTINUOUS
 62
    7
 10
32.469024999999988
 20
472.3469695
 11
32.447646999999961
 21
472.4646755
  0
LINE
  8
_0-0_0
  6
CONTINUOUS
 62
    7
 10
32.447646999999961
 20
472.4646755
 11
32.43907200000001
 21
472.52680950000001
  0
LINE
  8
_0-0_0
  6
CONTINUOUS
 62
    7
 10
32.43907200000001
 20
472.52680950000001
 11
32.432982999999979
 21
472.58741750000002
  0
LINE
  8
_0-0_0
  6
CONTINUOUS
 62
    7
 10
32.432982999999979
 20
472.58741750000002
 11
32.429992999999968
 21
472.63667250000003
  0
LINE
  8
_0-0_0
  6
CONTINUOUS
 62
    7
 10
32.429992999999968
 20
472.63667250000003
 11
32.428954999999974
 21
472.68489050000005
  0
LINE
  8
_0-0_0
  6
CONTINUOUS
 62
    7
 10
32.728972999999996
 20
466.88792450000005
 11
32.812423999999965
 21
467.26661650000005
  0
LINE
  8
_0-0_0
  6
CONTINUOUS
 62
    7
 10
32.812423999999965
 20
467.26661650000005
 11
32.852508999999998
 21
467.4581455
  0
LINE
  8
_0-0_0
  6
CONTINUOUS
 62
    7
 10
32.852508999999998
 20
467.4581455
 11
32.908599999999979
 21
467.74815350000006
  0
LINE
  8
_0-0_0
  6
CONTINUOUS
 62
    7
 10
32.908599999999979
 20
467.74815350000006
 11
32.946197999999981
 21
467.96772750000002
  0
LINE
  8
_0-0_0
  6
CONTINUOUS
 62
    7
 10
32.946197999999981
 20
467.96772750000002
 11
32.978850999999963
 21
468.18897949999996
  0
LINE
  8
_0-0_0
  6
CONTINUOUS
 62
    7
 10
32.978850999999963
 20
468.18897949999996
 11
33.006011999999998
 21
468.41578649999997
  0
LINE
  8
_0-0_0
  6
CONTINUOUS
 62
    7
 10
33.006011999999998
 20
468.41578649999997
 11
33.026062000000024
 21
468.64317349999999
  0
LINE
  8
_0-0_0
  6
CONTINUOUS
 62
    7
 10
33.026062000000024
 20
468.64317349999999
 11
33.033233999999993
 21
468.7569125
  0
LINE
  8
_0-0_0
  6
CONTINUOUS
 62
    7
 10
33.033233999999993
 20
468.7569125
 11
33.03839099999999
 21
468.87059050000005
  0
LINE
  8
_0-0_0
  6
CONTINUOUS
 62
    7
 10
33.03839099999999
 20
468.87059050000005
 11
33.042099000000007
 21
469.02201850000006
  0
LINE
  8
_0-0_0
  6
CONTINUOUS
 62
    7
 10
33.042099000000007
 20
469.02201850000006
 11
33.042159999999967
 21
469.1732935
  0
LINE
  8
_0-0_0
  6
CONTINUOUS
 62
    7
 10
33.042159999999967
 20
469.1732935
 11
33.038573999999983
 21
469.32435550000002
  0
LINE
  8
_0-0_0
  6
CONTINUOUS
 62
    7
 10
33.038573999999983
 20
469.32435550000002
 11
33.029083000000014
 21
469.51289350000002
  0
LINE
  8
_0-0_0
  6
CONTINUOUS
 62
    7
 10
33.029083000000014
 20
469.51289350000002
 11
33.014205999999945
 21
469.70112549999999
  0
LINE
  8
_0-0_0
  6
CONTINUOUS
 62
    7
 10
33.014205999999945
 20
469.70112549999999
 11
32.994292999999971
 21
469.88908349999997
  0
LINE
  8
_0-0_0
  6
CONTINUOUS
 62
    7
 10
32.994292999999971
 20
469.88908349999997
 11
32.977904999999964
 21
470.01795949999996
  0
LINE
  8
_0-0_0
  6
CONTINUOUS
 62
    7
 10
32.977904999999964
 20
470.01795949999996
 11
32.959487999999965
 21
470.1465915
  0
LINE
  8
_0-0_0
  6
CONTINUOUS
 62
    7
 10
32.959487999999965
 20
470.1465915
 11
32.935333000000014
 21
470.29853849999995
  0
LINE
  8
_0-0_0
  6
CONTINUOUS
 62
    7
 10
32.935333000000014
 20
470.29853849999995
 11
32.908935999999983
 21
470.44987449999996
  0
LINE
  8
_0-0_0
  6
CONTINUOUS
 62
    7
 10
32.908935999999983
 20
470.44987449999996
 11
32.852753000000007
 21
470.74049349999996
  0
LINE
  8
_0-0_0
  6
CONTINUOUS
 62
    7
 10
32.852753000000007
 20
470.74049349999996
 11
32.812591999999995
 21
470.93244949999996
  0
LINE
  8
_0-0_0
  6
CONTINUOUS
 62
    7
 10
32.812591999999995
 20
470.93244949999996
 11
32.728972999999996
 21
471.3119355
  0
LINE
  8
_0-0_0
  6
CONTINUOUS
 62
    7
 10
32.728957999999977
 20
466.88792450000005
 11
32.670165999999995
 21
466.64106749999996
  0
LINE
  8
_0-0_0
  6
CONTINUOUS
 62
    7
 10
32.670165999999995
 20
466.64106749999996
 11
32.620391999999981
 21
466.44874549999997
  0
LINE
  8
_0-0_0
  6
CONTINUOUS
 62
    7
 10
32.620391999999981
 20
466.44874549999997
 11
32.549285999999995
 21
466.18299850000005
  0
LINE
  8
_0-0_0
  6
CONTINUOUS
 62
    7
 10
32.549285999999995
 20
466.18299850000005
 11
32.51632699999999
 21
466.05632049999997
  0
LINE
  8
_0-0_0
  6
CONTINUOUS
 62
    7
 10
32.51632699999999
 20
466.05632049999997
 11
32.491057999999953
 21
465.95286550000003
  0
LINE
  8
_0-0_0
  6
CONTINUOUS
 62
    7
 10
32.491057999999953
 20
465.95286550000003
 11
32.469024999999988
 21
465.85288949999995
  0
LINE
  8
_0-0_0
  6
CONTINUOUS
 62
    7
 10
32.469024999999988
 20
465.85288949999995
 11
32.447631999999999
 21
465.73518349999995
  0
LINE
  8
_0-0_0
  6
CONTINUOUS
 62
    7
 10
32.447631999999999
 20
465.73518349999995
 11
32.43907200000001
 21
465.67304950000005
  0
LINE
  8
_0-0_0
  6
CONTINUOUS
 62
    7
 10
32.43907200000001
 20
465.67304950000005
 11
32.432982999999979
 21
465.61244150000005
  0
LINE
  8
_0-0_0
  6
CONTINUOUS
 62
    7
 10
32.432982999999979
 20
465.61244150000005
 11
32.429992999999968
 21
465.56321749999995
  0
LINE
  8
_0-0_0
  6
CONTINUOUS
 62
    7
 10
32.429992999999968
 20
465.56321749999995
 11
32.428954999999974
 21
465.51499950000004
  0
LINE
  8
_0-0_0
  6
CONTINUOUS
 62
    7
 10
32.428954999999974
 20
461.74147049999999
 11
32.428954999999974
 21
465.09223950000001
  0
ARC
  8
_0-0_0
  6
CONTINUOUS
 62
    7
 10
34.428954999999974
 20
461.74147049999999
 40
2
 50
180.00000900000003
 51
251.56498900000003
  0
LINE
  8
_0-0_0
  6
CONTINUOUS
 62
    7
 10
136.87896699999999
 20
480.59992950000003
 11
137.52896099999998
 21
480.59992950000003
  0
ARC
  8
_0-0_0
  6
CONTINUOUS
 62
    7
 10
136.87896699999999
 20
480.34992950000003
 40
0.25
 50
90.000003000000007
 51
180.00000900000001
  0
LINE
  8
_0-0_0
  6
CONTINUOUS
 62
    7
 10
136.62896699999999
 20
480.34992950000003
 11
136.62896699999999
 21
479.69993550000004
  0
LINE
  8
_0-0_0
  6
CONTINUOUS
 62
    7
 10
136.22894299999996
 20
479.69993550000004
 11
136.62896699999999
 21
479.69993550000004
  0
LINE
  8
_0-0_0
  6
CONTINUOUS
 62
    7
 10
136.22894299999996
 20
479.69993550000004
 11
136.22894299999996
 21
480.34992950000003
  0
ARC
  8
_0-0_0
  6
CONTINUOUS
 62
    7
 10
135.97894299999996
 20
480.34992950000003
 40
0.25
 50
0
 51
90.000003000000007
  0
LINE
  8
_0-0_0
  6
CONTINUOUS
 62
    7
 10
135.32898
 20
480.59992950000003
 11
135.97894299999996
 21
480.59992950000003
  0
LINE
  8
_0-0_0
  6
CONTINUOUS
 62
    7
 10
135.32898
 20
480.59992950000003
 11
135.32898
 21
480.99995450000006
  0
LINE
  8
_0-0_0
  6
CONTINUOUS
 62
    7
 10
135.97894299999996
 20
480.99995450000006
 11
135.32898
 21
480.99995450000006
  0
ARC
  8
_0-0_0
  6
CONTINUOUS
 62
    7
 10
135.97894299999996
 20
481.24995450000006
 40
0.25
 50
269.99999700000001
 51
0
  0
LINE
  8
_0-0_0
  6
CONTINUOUS
 62
    7
 10
136.22894299999996
 20
481.24995450000006
 11
136.22894299999996
 21
481.89994750000005
  0
LINE
  8
_0-0_0
  6
CONTINUOUS
 62
    7
 10
136.62896699999999
 20
481.89994750000005
 11
136.22894299999996
 21
481.89994750000005
  0
LINE
  8
_0-0_0
  6
CONTINUOUS
 62
    7
 10
136.62896699999999
 20
481.89994750000005
 11
136.62896699999999
 21
481.24995450000006
  0
ARC
  8
_0-0_0
  6
CONTINUOUS
 62
    7
 10
136.87896699999999
 20
481.24995450000006
 40
0.25
 50
180.00000900000003
 51
269.99999700000001
  0
LINE
  8
_0-0_0
  6
CONTINUOUS
 62
    7
 10
137.52896099999998
 20
480.99995450000006
 11
136.87896699999999
 21
480.99995450000006
  0
LINE
  8
_0-0_0
  6
CONTINUOUS
 62
    7
 10
137.52896099999998
 20
480.99995450000006
 11
137.52896099999998
 21
480.59992950000003
  0
LINE
  8
_0-0_0
  6
CONTINUOUS
 62
    7
 10
57.878966999999989
 20
480.59992950000003
 11
58.528960999999981
 21
480.59992950000003
  0
ARC
  8
_0-0_0
  6
CONTINUOUS
 62
    7
 10
57.878966999999989
 20
480.34992950000003
 40
0.25
 50
90.000003000000007
 51
180.00000900000001
  0
LINE
  8
_0-0_0
  6
CONTINUOUS
 62
    7
 10
57.628966999999989
 20
480.34992950000003
 11
57.628966999999989
 21
479.69993550000004
  0
LINE
  8
_0-0_0
  6
CONTINUOUS
 62
    7
 10
57.228957999999977
 20
479.69993550000004
 11
57.628966999999989
 21
479.69993550000004
  0
LINE
  8
_0-0_0
  6
CONTINUOUS
 62
    7
 10
57.228957999999977
 20
479.69993550000004
 11
57.228957999999977
 21
480.34992950000003
  0
ARC
  8
_0-0_0
  6
CONTINUOUS
 62
    7
 10
56.978957999999977
 20
480.34992950000003
 40
0.25
 50
0
 51
90.000003000000007
  0
LINE
  8
_0-0_0
  6
CONTINUOUS
 62
    7
 10
56.328963999999985
 20
480.59992950000003
 11
56.978957999999977
 21
480.59992950000003
  0
LINE
  8
_0-0_0
  6
CONTINUOUS
 62
    7
 10
56.328963999999985
 20
480.59992950000003
 11
56.328963999999985
 21
480.99995450000006
  0
LINE
  8
_0-0_0
  6
CONTINUOUS
 62
    7
 10
56.978957999999977
 20
480.99995450000006
 11
56.328963999999985
 21
480.99995450000006
  0
ARC
  8
_0-0_0
  6
CONTINUOUS
 62
    7
 10
56.978957999999977
 20
481.24995450000006
 40
0.25
 50
269.99999700000001
 51
0
  0
LINE
  8
_0-0_0
  6
CONTINUOUS
 62
    7
 10
57.228957999999977
 20
481.24995450000006
 11
57.228957999999977
 21
481.89994750000005
  0
LINE
  8
_0-0_0
  6
CONTINUOUS
 62
    7
 10
57.628966999999989
 20
481.89994750000005
 11
57.228957999999977
 21
481.89994750000005
  0
LINE
  8
_0-0_0
  6
CONTINUOUS
 62
    7
 10
57.628966999999989
 20
481.89994750000005
 11
57.628966999999989
 21
481.24995450000006
  0
ARC
  8
_0-0_0
  6
CONTINUOUS
 62
    7
 10
57.878966999999989
 20
481.24995450000006
 40
0.25
 50
180.00000900000003
 51
269.99999700000001
  0
LINE
  8
_0-0_0
  6
CONTINUOUS
 62
    7
 10
58.528960999999981
 20
480.99995450000006
 11
57.878966999999989
 21
480.99995450000006
  0
LINE
  8
_0-0_0
  6
CONTINUOUS
 62
    7
 10
58.528960999999981
 20
480.99995450000006
 11
58.528960999999981
 21
480.59992950000003
  0
LINE
  8
_0-0_0
  6
CONTINUOUS
 62
    7
 10
17.428954999999974
 20
478.6253815
 11
17.428954999999974
 21
478.47865249999995
  0
LINE
  8
_0-0_0
  6
CONTINUOUS
 62
    7
 10
17.428954999999974
 20
478.81590249999999
 11
17.428954999999974
 21
478.6253815
  0
LINE
  8
_0-0_0
  6
CONTINUOUS
 62
    7
 10
17.428954999999974
 20
478.99092050000002
 11
17.428954999999974
 21
478.81590249999999
  0
LINE
  8
_0-0_0
  6
CONTINUOUS
 62
    7
 10
17.428954999999974
 20
479.14851350000004
 11
17.428954999999974
 21
478.99092050000002
  0
LINE
  8
_0-0_0
  6
CONTINUOUS
 62
    7
 10
17.428954999999974
 20
479.28694150000001
 11
17.428954999999974
 21
479.14851350000004
  0
LINE
  8
_0-0_0
  6
CONTINUOUS
 62
    7
 10
17.428954999999974
 20
479.40470849999997
 11
17.428954999999974
 21
479.28694150000001
  0
LINE
  8
_0-0_0
  6
CONTINUOUS
 62
    7
 10
17.428954999999974
 20
479.50050350000004
 11
17.428954999999974
 21
479.40470849999997
  0
LINE
  8
_0-0_0
  6
CONTINUOUS
 62
    7
 10
17.428954999999974
 20
479.57328749999999
 11
17.428954999999974
 21
479.50050350000004
  0
LINE
  8
_0-0_0
  6
CONTINUOUS
 62
    7
 10
17.428954999999974
 20
479.62223849999998
 11
17.428954999999974
 21
479.57328749999999
  0
LINE
  8
_0-0_0
  6
CONTINUOUS
 62
    7
 10
17.428954999999974
 20
479.64994750000005
 11
17.428954999999974
 21
479.62223849999998
  0
LINE
  8
_0-0_0
  6
CONTINUOUS
 62
    7
 10
17.428954999999974
 20
479.64994750000005
 11
17.428954999999974
 21
479.64686549999999
  0
LINE
  8
_0-0_0
  6
CONTINUOUS
 62
    7
 10
17.428954999999974
 20
475.1530305
 11
17.428954999999974
 21
475.14994750000005
  0
LINE
  8
_0-0_0
  6
CONTINUOUS
 62
    7
 10
17.428954999999974
 20
475.17765750000001
 11
17.428954999999974
 21
475.14994750000005
  0
LINE
  8
_0-0_0
  6
CONTINUOUS
 62
    7
 10
17.428954999999974
 20
475.2266085
 11
17.428954999999974
 21
475.17765750000001
  0
LINE
  8
_0-0_0
  6
CONTINUOUS
 62
    7
 10
17.428954999999974
 20
475.29939249999995
 11
17.428954999999974
 21
475.2266085
  0
LINE
  8
_0-0_0
  6
CONTINUOUS
 62
    7
 10
17.428954999999974
 20
475.39518750000002
 11
17.428954999999974
 21
475.29939249999995
  0
LINE
  8
_0-0_0
  6
CONTINUOUS
 62
    7
 10
17.428954999999974
 20
475.42536949999999
 11
17.428954999999974
 21
475.39518750000002
  0
LINE
  8
_0-0_0
  6
CONTINUOUS
 62
    7
 10
17.428954999999974
 20
475.51292450000005
 11
17.428954999999974
 21
475.42536949999999
  0
LINE
  8
_0-0_0
  6
CONTINUOUS
 62
    7
 10
17.428954999999974
 20
475.65135150000003
 11
17.428954999999974
 21
475.51292450000005
  0
LINE
  8
_0-0_0
  6
CONTINUOUS
 62
    7
 10
17.428954999999974
 20
475.80894450000005
 11
17.428954999999974
 21
475.65135150000003
  0
LINE
  8
_0-0_0
  6
CONTINUOUS
 62
    7
 10
17.428954999999974
 20
475.98396249999996
 11
17.428954999999974
 21
475.80894450000005
  0
LINE
  8
_0-0_0
  6
CONTINUOUS
 62
    7
 10
17.428954999999974
 20
476.17451449999999
 11
17.428954999999974
 21
475.98396249999996
  0
LINE
  8
_0-0_0
  6
CONTINUOUS
 62
    7
 10
17.428954999999974
 20
476.37846349999995
 11
17.428954999999974
 21
476.17451449999999
  0
LINE
  8
_0-0_0
  6
CONTINUOUS
 62
    7
 10
17.428954999999974
 20
476.59361249999995
 11
17.428954999999974
 21
476.37846349999995
  0
LINE
  8
_0-0_0
  6
CONTINUOUS
 62
    7
 10
17.428954999999974
 20
476.8176115
 11
17.428954999999974
 21
476.59361249999995
  0
LINE
  8
_0-0_0
  6
CONTINUOUS
 62
    7
 10
17.428954999999974
 20
477.04795850000005
 11
17.428954999999974
 21
476.8176115
  0
LINE
  8
_0-0_0
  6
CONTINUOUS
 62
    7
 10
17.428954999999974
 20
477.28218049999998
 11
17.428954999999974
 21
477.04795850000005
  0
LINE
  8
_0-0_0
  6
CONTINUOUS
 62
    7
 10
17.428954999999974
 20
477.51771550000001
 11
17.428954999999974
 21
477.28218049999998
  0
LINE
  8
_0-0_0
  6
CONTINUOUS
 62
    7
 10
17.428954999999974
 20
477.75190750000002
 11
17.428954999999974
 21
477.51771550000001
  0
LINE
  8
_0-0_0
  6
CONTINUOUS
 62
    7
 10
17.428954999999974
 20
477.98228449999999
 11
17.428954999999974
 21
477.75190750000002
  0
LINE
  8
_0-0_0
  6
CONTINUOUS
 62
    7
 10
17.428954999999974
 20
478.20628350000004
 11
17.428954999999974
 21
477.98228449999999
  0
LINE
  8
_0-0_0
  6
CONTINUOUS
 62
    7
 10
17.428954999999974
 20
478.42143250000004
 11
17.428954999999974
 21
478.20628350000004
  0
LINE
  8
_0-0_0
  6
CONTINUOUS
 62
    7
 10
17.428954999999974
 20
478.47865249999995
 11
17.428954999999974
 21
478.42143250000004
  0
LINE
  8
_0-0_0
  6
CONTINUOUS
 62
    7
 10
32.428954999999974
 20
470.66200249999997
 11
32.428954999999974
 21
471.70762649999995
  0
LINE
  8
_0-0_0
  6
CONTINUOUS
 62
    7
 10
32.428954999999974
 20
472.9922335
 11
32.428954999999974
 21
471.70762649999995
  0
LINE
  8
_0-0_0
  6
CONTINUOUS
 62
    7
 10
32.428954999999974
 20
473.10762050000005
 11
32.428954999999974
 21
472.9922335
  0
LINE
  8
_0-0_0
  6
CONTINUOUS
 62
    7
 10
32.428954999999974
 20
470.66200249999997
 11
32.428954999999974
 21
467.53788750000001
  0
LINE
  8
_0-0_0
  6
CONTINUOUS
 62
    7
 10
32.428954999999974
 20
465.09223950000001
 11
32.428954999999974
 21
465.20762649999995
  0
LINE
  8
_0-0_0
  6
CONTINUOUS
 62
    7
 10
32.428954999999974
 20
466.4922335
 11
32.428954999999974
 21
465.20762649999995
  0
LINE
  8
_0-0_0
  6
CONTINUOUS
 62
    7
 10
32.428954999999974
 20
466.4922335
 11
32.428954999999974
 21
467.53788750000001
  0
LINE
  8
_0-0_0
  6
CONTINUOUS
 62
    7
 10
17.428954999999974
 20
462.0253755
 11
17.428954999999974
 21
461.87864650000006
  0
LINE
  8
_0-0_0
  6
CONTINUOUS
 62
    7
 10
17.428954999999974
 20
462.21592650000002
 11
17.428954999999974
 21
462.0253755
  0
LINE
  8
_0-0_0
  6
CONTINUOUS
 62
    7
 10
17.428954999999974
 20
462.39094550000004
 11
17.428954999999974
 21
462.21592650000002
  0
LINE
  8
_0-0_0
  6
CONTINUOUS
 62
    7
 10
17.428954999999974
 20
462.54850750000003
 11
17.428954999999974
 21
462.39094550000004
  0
LINE
  8
_0-0_0
  6
CONTINUOUS
 62
    7
 10
17.428954999999974
 20
462.68696550000004
 11
17.428954999999974
 21
462.54850750000003
  0
LINE
  8
_0-0_0
  6
CONTINUOUS
 62
    7
 10
17.428954999999974
 20
462.80470249999996
 11
17.428954999999974
 21
462.68696550000004
  0
LINE
  8
_0-0_0
  6
CONTINUOUS
 62
    7
 10
17.428954999999974
 20
462.90049750000003
 11
17.428954999999974
 21
462.80470249999996
  0
LINE
  8
_0-0_0
  6
CONTINUOUS
 62
    7
 10
17.428954999999974
 20
462.97328149999998
 11
17.428954999999974
 21
462.90049750000003
  0
LINE
  8
_0-0_0
  6
CONTINUOUS
 62
    7
 10
17.428954999999974
 20
463.02223149999998
 11
17.428954999999974
 21
462.97328149999998
  0
LINE
  8
_0-0_0
  6
CONTINUOUS
 62
    7
 10
17.428954999999974
 20
463.04994150000005
 11
17.428954999999974
 21
463.02223149999998
  0
LINE
  8
_0-0_0
  6
CONTINUOUS
 62
    7
 10
17.428954999999974
 20
463.04994150000005
 11
17.428954999999974
 21
463.04685949999998
  0
LINE
  8
_0-0_0
  6
CONTINUOUS
 62
    7
 10
17.428954999999974
 20
458.55302449999999
 11
17.428954999999974
 21
458.54994150000005
  0
LINE
  8
_0-0_0
  6
CONTINUOUS
 62
    7
 10
17.428954999999974
 20
458.5776515
 11
17.428954999999974
 21
458.54994150000005
  0
LINE
  8
_0-0_0
  6
CONTINUOUS
 62
    7
 10
17.428954999999974
 20
458.62660249999999
 11
17.428954999999974
 21
458.5776515
  0
LINE
  8
_0-0_0
  6
CONTINUOUS
 62
    7
 10
17.428954999999974
 20
458.69938650000006
 11
17.428954999999974
 21
458.62660249999999
  0
LINE
  8
_0-0_0
  6
CONTINUOUS
 62
    7
 10
17.428954999999974
 20
458.79518150000001
 11
17.428954999999974
 21
458.69938650000006
  0
LINE
  8
_0-0_0
  6
CONTINUOUS
 62
    7
 10
17.428954999999974
 20
458.82539350000002
 11
17.428954999999974
 21
458.79518150000001
  0
LINE
  8
_0-0_0
  6
CONTINUOUS
 62
    7
 10
17.428954999999974
 20
458.91291750000005
 11
17.428954999999974
 21
458.82539350000002
  0
LINE
  8
_0-0_0
  6
CONTINUOUS
 62
    7
 10
17.428954999999974
 20
459.05137649999995
 11
17.428954999999974
 21
458.91291750000005
  0
LINE
  8
_0-0_0
  6
CONTINUOUS
 62
    7
 10
17.428954999999974
 20
459.20896849999997
 11
17.428954999999974
 21
459.05137649999995
  0
LINE
  8
_0-0_0
  6
CONTINUOUS
 62
    7
 10
17.428954999999974
 20
459.38398749999999
 11
17.428954999999974
 21
459.20896849999997
  0
LINE
  8
_0-0_0
  6
CONTINUOUS
 62
    7
 10
17.428954999999974
 20
459.57450849999998
 11
17.428954999999974
 21
459.38398749999999
  0
LINE
  8
_0-0_0
  6
CONTINUOUS
 62
    7
 10
17.428954999999974
 20
459.77845750000006
 11
17.428954999999974
 21
459.57450849999998
  0
LINE
  8
_0-0_0
  6
CONTINUOUS
 62
    7
 10
17.428954999999974
 20
459.99360650000006
 11
17.428954999999974
 21
459.77845750000006
  0
LINE
  8
_0-0_0
  6
CONTINUOUS
 62
    7
 10
17.428954999999974
 20
460.21760549999999
 11
17.428954999999974
 21
459.99360650000006
  0
LINE
  8
_0-0_0
  6
CONTINUOUS
 62
    7
 10
17.428954999999974
 20
460.44795250000004
 11
17.428954999999974
 21
460.21760549999999
  0
LINE
  8
_0-0_0
  6
CONTINUOUS
 62
    7
 10
17.428954999999974
 20
460.68217449999997
 11
17.428954999999974
 21
460.44795250000004
  0
LINE
  8
_0-0_0
  6
CONTINUOUS
 62
    7
 10
17.428954999999974
 20
460.9177095
 11
17.428954999999974
 21
460.68217449999997
  0
LINE
  8
_0-0_0
  6
CONTINUOUS
 62
    7
 10
17.428954999999974
 20
461.15193150000005
 11
17.428954999999974
 21
460.9177095
  0
LINE
  8
_0-0_0
  6
CONTINUOUS
 62
    7
 10
17.428954999999974
 20
461.38227849999998
 11
17.428954999999974
 21
461.15193150000005
  0
LINE
  8
_0-0_0
  6
CONTINUOUS
 62
    7
 10
17.428954999999974
 20
461.60627750000003
 11
17.428954999999974
 21
461.38227849999998
  0
LINE
  8
_0-0_0
  6
CONTINUOUS
 62
    7
 10
17.428954999999974
 20
461.82142650000003
 11
17.428954999999974
 21
461.60627750000003
  0
LINE
  8
_0-0_0
  6
CONTINUOUS
 62
    7
 10
17.428954999999974
 20
461.87864650000006
 11
17.428954999999974
 21
461.82142650000003
  0
LINE
  8
_0-0_0
  6
CONTINUOUS
 62
    7
 10
128.42895499999997
 20
471.64994750000005
 11
124.42895499999997
 21
471.64994750000005
  0
ARC
  8
_0-0_0
  6
CONTINUOUS
 62
    7
 10
124.42895499999997
 20
473.89994750000005
 40
2.25
 50
90.000003000000007
 51
269.99999700000006
  0
LINE
  8
_0-0_0
  6
CONTINUOUS
 62
    7
 10
124.42895499999997
 20
476.14994750000005
 11
128.42895499999997
 21
476.14994750000005
  0
ARC
  8
_0-0_0
  6
CONTINUOUS
 62
    7
 10
128.42895499999997
 20
473.89994750000005
 40
2.25
 50
269.99999700000001
 51
90.000002999999992
  0
ARC
  8
_0-0_0
  6
CONTINUOUS
 62
    7
 10
68.428954999999974
 20
473.89994750000005
 40
2.25
 50
90.000003000000007
 51
269.99999700000006
  0
LINE
  8
_0-0_0
  6
CONTINUOUS
 62
    7
 10
68.428954999999974
 20
476.14994750000005
 11
72.428954999999974
 21
476.14994750000005
  0
ARC
  8
_0-0_0
  6
CONTINUOUS
 62
    7
 10
72.428954999999974
 20
473.89994750000005
 40
2.25
 50
269.99999700000001
 51
90.000002999999992
  0
LINE
  8
_0-0_0
  6
CONTINUOUS
 62
    7
 10
72.428954999999974
 20
471.64994750000005
 11
68.428954999999974
 21
471.64994750000005
  0
LINE
  8
_0-0_0
  6
CONTINUOUS
 62
    7
 10
17.428954999999974
 20
478.6253815
 11
17.178954999999974
 21
478.64994750000005
  0
LINE
  8
_0-0_0
  6
CONTINUOUS
 62
    7
 10
17.428954999999974
 20
478.42143250000004
 11
17.178954999999974
 21
478.64994750000005
  0
LINE
  8
_0-0_0
  6
CONTINUOUS
 62
    7
 10
17.428954999999974
 20
478.81590249999999
 11
17.178954999999974
 21
478.86939949999999
  0
LINE
  8
_0-0_0
  6
CONTINUOUS
 62
    7
 10
17.428954999999974
 20
478.6253815
 11
17.178954999999974
 21
478.86939949999999
  0
LINE
  8
_0-0_0
  6
CONTINUOUS
 62
    7
 10
17.428954999999974
 20
478.99092050000002
 11
17.178954999999974
 21
479.07276950000005
  0
LINE
  8
_0-0_0
  6
CONTINUOUS
 62
    7
 10
17.428954999999974
 20
478.81590249999999
 11
17.178954999999974
 21
479.07276950000005
  0
LINE
  8
_0-0_0
  6
CONTINUOUS
 62
    7
 10
17.428954999999974
 20
479.14851350000004
 11
17.178954999999974
 21
479.25779750000004
  0
LINE
  8
_0-0_0
  6
CONTINUOUS
 62
    7
 10
17.428954999999974
 20
478.99092050000002
 11
17.178954999999974
 21
479.25779750000004
  0
LINE
  8
_0-0_0
  6
CONTINUOUS
 62
    7
 10
17.428954999999974
 20
479.28694150000001
 11
17.178954999999974
 21
479.42250049999996
  0
LINE
  8
_0-0_0
  6
CONTINUOUS
 62
    7
 10
17.428954999999974
 20
479.14851350000004
 11
17.178954999999974
 21
479.42250049999996
  0
LINE
  8
_0-0_0
  6
CONTINUOUS
 62
    7
 10
17.428954999999974
 20
479.40470849999997
 11
17.178954999999974
 21
479.56501749999995
  0
LINE
  8
_0-0_0
  6
CONTINUOUS
 62
    7
 10
17.428954999999974
 20
479.28694150000001
 11
17.178954999999974
 21
479.56501749999995
  0
LINE
  8
_0-0_0
  6
CONTINUOUS
 62
    7
 10
17.428954999999974
 20
479.50050350000004
 11
17.178954999999974
 21
479.68379149999998
  0
LINE
  8
_0-0_0
  6
CONTINUOUS
 62
    7
 10
17.428954999999974
 20
479.40470849999997
 11
17.178954999999974
 21
479.68379149999998
  0
LINE
  8
_0-0_0
  6
CONTINUOUS
 62
    7
 10
17.428954999999974
 20
479.57328749999999
 11
17.178954999999974
 21
479.77757250000002
  0
LINE
  8
_0-0_0
  6
CONTINUOUS
 62
    7
 10
17.428954999999974
 20
479.50050350000004
 11
17.178954999999974
 21
479.77757250000002
  0
LINE
  8
_0-0_0
  6
CONTINUOUS
 62
    7
 10
17.428954999999974
 20
479.62223849999998
 11
17.178954999999974
 21
479.84532149999995
  0
LINE
  8
_0-0_0
  6
CONTINUOUS
 62
    7
 10
17.428954999999974
 20
479.57328749999999
 11
17.178954999999974
 21
479.84532149999995
  0
LINE
  8
_0-0_0
  6
CONTINUOUS
 62
    7
 10
17.428954999999974
 20
479.64686549999999
 11
17.178954999999974
 21
479.88624549999997
  0
LINE
  8
_0-0_0
  6
CONTINUOUS
 62
    7
 10
17.428954999999974
 20
479.62223849999998
 11
17.178954999999974
 21
479.88624549999997
  0
LINE
  8
_0-0_0
  6
CONTINUOUS
 62
    7
 10
17.428954999999974
 20
479.64686549999999
 11
17.178954999999974
 21
479.89994750000005
  0
LINE
  8
_0-0_0
  6
CONTINUOUS
 62
    7
 10
17.428954999999974
 20
475.1530305
 11
17.178954999999974
 21
474.89994750000005
  0
LINE
  8
_0-0_0
  6
CONTINUOUS
 62
    7
 10
17.428954999999974
 20
475.17765750000001
 11
17.178954999999974
 21
474.91365050000002
  0
LINE
  8
_0-0_0
  6
CONTINUOUS
 62
    7
 10
17.428954999999974
 20
475.1530305
 11
17.178954999999974
 21
474.91365050000002
  0
LINE
  8
_0-0_0
  6
CONTINUOUS
 62
    7
 10
17.428954999999974
 20
475.2266085
 11
17.178954999999974
 21
474.95457450000004
  0
LINE
  8
_0-0_0
  6
CONTINUOUS
 62
    7
 10
17.428954999999974
 20
475.17765750000001
 11
17.178954999999974
 21
474.95457450000004
  0
LINE
  8
_0-0_0
  6
CONTINUOUS
 62
    7
 10
17.428954999999974
 20
475.29939249999995
 11
17.178954999999974
 21
475.02229250000005
  0
LINE
  8
_0-0_0
  6
CONTINUOUS
 62
    7
 10
17.428954999999974
 20
475.2266085
 11
17.178954999999974
 21
475.02229250000005
  0
LINE
  8
_0-0_0
  6
CONTINUOUS
 62
    7
 10
17.428954999999974
 20
475.39518750000002
 11
17.178954999999974
 21
475.11607349999997
  0
LINE
  8
_0-0_0
  6
CONTINUOUS
 62
    7
 10
17.428954999999974
 20
475.29939249999995
 11
17.178954999999974
 21
475.11607349999997
  0
LINE
  8
_0-0_0
  6
CONTINUOUS
 62
    7
 10
17.428954999999974
 20
475.39518750000002
 11
17.298995999999988
 21
475.31132449999996
  0
LINE
  8
_0-0_0
  6
CONTINUOUS
 62
    7
 10
17.428954999999974
 20
475.51292450000005
 11
17.178954999999974
 21
475.23487850000004
  0
LINE
  8
_0-0_0
  6
CONTINUOUS
 62
    7
 10
17.298995999999988
 20
475.31132449999996
 11
17.178954999999974
 21
475.23487850000004
  0
LINE
  8
_0-0_0
  6
CONTINUOUS
 62
    7
 10
17.428954999999974
 20
475.65135150000003
 11
17.178954999999974
 21
475.37739550000003
  0
LINE
  8
_0-0_0
  6
CONTINUOUS
 62
    7
 10
17.428954999999974
 20
475.51292450000005
 11
17.178954999999974
 21
475.37739550000003
  0
LINE
  8
_0-0_0
  6
CONTINUOUS
 62
    7
 10
17.428954999999974
 20
475.80894450000005
 11
17.178954999999974
 21
475.54206850000003
  0
LINE
  8
_0-0_0
  6
CONTINUOUS
 62
    7
 10
17.428954999999974
 20
475.65135150000003
 11
17.178954999999974
 21
475.54206850000003
  0
LINE
  8
_0-0_0
  6
CONTINUOUS
 62
    7
 10
17.428954999999974
 20
475.98396249999996
 11
17.178954999999974
 21
475.72712650000005
  0
LINE
  8
_0-0_0
  6
CONTINUOUS
 62
    7
 10
17.428954999999974
 20
475.80894450000005
 11
17.178954999999974
 21
475.72712650000005
  0
LINE
  8
_0-0_0
  6
CONTINUOUS
 62
    7
 10
17.428954999999974
 20
476.17451449999999
 11
17.178954999999974
 21
475.9304965
  0
LINE
  8
_0-0_0
  6
CONTINUOUS
 62
    7
 10
17.428954999999974
 20
475.98396249999996
 11
17.178954999999974
 21
475.9304965
  0
LINE
  8
_0-0_0
  6
CONTINUOUS
 62
    7
 10
17.428954999999974
 20
476.37846349999995
 11
17.178954999999974
 21
476.14994750000005
  0
LINE
  8
_0-0_0
  6
CONTINUOUS
 62
    7
 10
17.428954999999974
 20
476.17451449999999
 11
17.178954999999974
 21
476.14994750000005
  0
LINE
  8
_0-0_0
  6
CONTINUOUS
 62
    7
 10
17.428954999999974
 20
476.59361249999995
 11
17.178954999999974
 21
476.38310249999995
  0
LINE
  8
_0-0_0
  6
CONTINUOUS
 62
    7
 10
17.428954999999974
 20
476.37846349999995
 11
17.178954999999974
 21
476.38310249999995
  0
LINE
  8
_0-0_0
  6
CONTINUOUS
 62
    7
 10
17.428954999999974
 20
476.8176115
 11
17.178954999999974
 21
476.62739550000003
  0
LINE
  8
_0-0_0
  6
CONTINUOUS
 62
    7
 10
17.428954999999974
 20
476.59361249999995
 11
17.178954999999974
 21
476.62739550000003
  0
LINE
  8
_0-0_0
  6
CONTINUOUS
 62
    7
 10
17.428954999999974
 20
477.04795850000005
 11
17.178954999999974
 21
476.88017249999996
  0
LINE
  8
_0-0_0
  6
CONTINUOUS
 62
    7
 10
17.428954999999974
 20
476.8176115
 11
17.178954999999974
 21
476.88017249999996
  0
LINE
  8
_0-0_0
  6
CONTINUOUS
 62
    7
 10
17.428954999999974
 20
477.28218049999998
 11
17.178954999999974
 21
477.13862549999999
  0
LINE
  8
_0-0_0
  6
CONTINUOUS
 62
    7
 10
17.428954999999974
 20
477.04795850000005
 11
17.178954999999974
 21
477.13862549999999
  0
LINE
  8
_0-0_0
  6
CONTINUOUS
 62
    7
 10
17.428954999999974
 20
477.51771550000001
 11
17.178954999999974
 21
477.39994750000005
  0
LINE
  8
_0-0_0
  6
CONTINUOUS
 62
    7
 10
17.428954999999974
 20
477.28218049999998
 11
17.178954999999974
 21
477.39994750000005
  0
LINE
  8
_0-0_0
  6
CONTINUOUS
 62
    7
 10
17.428954999999974
 20
477.75190750000002
 11
17.178954999999974
 21
477.6612705
  0
LINE
  8
_0-0_0
  6
CONTINUOUS
 62
    7
 10
17.428954999999974
 20
477.51771550000001
 11
17.178954999999974
 21
477.6612705
  0
LINE
  8
_0-0_0
  6
CONTINUOUS
 62
    7
 10
17.428954999999974
 20
477.98228449999999
 11
17.178954999999974
 21
477.91972350000003
  0
LINE
  8
_0-0_0
  6
CONTINUOUS
 62
    7
 10
17.428954999999974
 20
477.75190750000002
 11
17.178954999999974
 21
477.91972350000003
  0
LINE
  8
_0-0_0
  6
CONTINUOUS
 62
    7
 10
17.428954999999974
 20
478.20628350000004
 11
17.178954999999974
 21
478.17250049999996
  0
LINE
  8
_0-0_0
  6
CONTINUOUS
 62
    7
 10
17.428954999999974
 20
477.98228449999999
 11
17.178954999999974
 21
478.17250049999996
  0
LINE
  8
_0-0_0
  6
CONTINUOUS
 62
    7
 10
17.428954999999974
 20
478.42143250000004
 11
17.178954999999974
 21
478.41679350000004
  0
LINE
  8
_0-0_0
  6
CONTINUOUS
 62
    7
 10
17.428954999999974
 20
478.20628350000004
 11
17.178954999999974
 21
478.41679350000004
  0
LINE
  8
_0-0_0
  6
CONTINUOUS
 62
    7
 10
32.428954999999974
 20
472.9922335
 11
22.721130000000016
 21
472.9922335
  0
LINE
  8
_0-0_0
  6
CONTINUOUS
 62
    7
 10
22.721130000000016
 20
472.9922335
 11
22.666656999999987
 21
473.06217949999996
  0
LINE
  8
_0-0_0
  6
CONTINUOUS
 62
    7
 10
22.666656999999987
 20
473.06217949999996
 11
22.615554999999972
 21
473.13099650000004
  0
LINE
  8
_0-0_0
  6
CONTINUOUS
 62
    7
 10
22.615554999999972
 20
473.13099650000004
 11
22.567916999999966
 21
473.19850150000002
  0
LINE
  8
_0-0_0
  6
CONTINUOUS
 62
    7
 10
22.567916999999966
 20
473.19850150000002
 11
22.52340700000002
 21
473.2650605
  0
LINE
  8
_0-0_0
  6
CONTINUOUS
 62
    7
 10
22.52340700000002
 20
473.2650605
 11
22.468688999999983
 21
473.35261549999996
  0
LINE
  8
_0-0_0
  6
CONTINUOUS
 62
    7
 10
22.468688999999983
 20
473.35261549999996
 11
22.41918899999996
 21
473.43870549999997
  0
LINE
  8
_0-0_0
  6
CONTINUOUS
 62
    7
 10
22.41918899999996
 20
473.43870549999997
 11
22.374725000000012
 21
473.52354449999996
  0
LINE
  8
_0-0_0
  6
CONTINUOUS
 62
    7
 10
22.374725000000012
 20
473.52354449999996
 11
22.327759000000015
 21
473.62385549999999
  0
LINE
  8
_0-0_0
  6
CONTINUOUS
 62
    7
 10
22.327759000000015
 20
473.62385549999999
 11
22.287536999999986
 21
473.72279349999997
  0
LINE
  8
_0-0_0
  6
CONTINUOUS
 62
    7
 10
22.287536999999986
 20
473.72279349999997
 11
22.253875999999991
 21
473.82054149999999
  0
LINE
  8
_0-0_0
  6
CONTINUOUS
 62
    7
 10
22.253875999999991
 20
473.82054149999999
 11
22.22659299999998
 21
473.91734350000002
  0
LINE
  8
_0-0_0
  6
CONTINUOUS
 62
    7
 10
22.22659299999998
 20
473.91734350000002
 11
22.205535999999995
 21
474.01338150000004
  0
LINE
  8
_0-0_0
  6
CONTINUOUS
 62
    7
 10
22.205535999999995
 20
474.01338150000004
 11
22.189606000000026
 21
474.11726350000004
  0
LINE
  8
_0-0_0
  6
CONTINUOUS
 62
    7
 10
22.189606000000026
 20
474.11726350000004
 11
22.180846999999972
 21
474.22068750000005
  0
LINE
  8
_0-0_0
  6
CONTINUOUS
 62
    7
 10
22.180846999999972
 20
474.22068750000005
 11
22.179229999999961
 21
474.32392849999997
  0
LINE
  8
_0-0_0
  6
CONTINUOUS
 62
    7
 10
22.179229999999961
 20
474.32392849999997
 11
22.184691999999984
 21
474.42720050000003
  0
LINE
  8
_0-0_0
  6
CONTINUOUS
 62
    7
 10
22.184691999999984
 20
474.42720050000003
 11
22.197295999999994
 21
474.53080750000004
  0
LINE
  8
_0-0_0
  6
CONTINUOUS
 62
    7
 10
22.197295999999994
 20
474.53080750000004
 11
22.217116999999973
 21
474.63493349999999
  0
LINE
  8
_0-0_0
  6
CONTINUOUS
 62
    7
 10
22.217116999999973
 20
474.63493349999999
 11
22.244262999999989
 21
474.73991350000006
  0
LINE
  8
_0-0_0
  6
CONTINUOUS
 62
    7
 10
22.244262999999989
 20
474.73991350000006
 11
22.278900000000021
 21
474.84593150000001
  0
LINE
  8
_0-0_0
  6
CONTINUOUS
 62
    7
 10
22.278900000000021
 20
474.84593150000001
 11
22.321258999999998
 21
474.95332350000001
  0
LINE
  8
_0-0_0
  6
CONTINUOUS
 62
    7
 10
22.321258999999998
 20
474.95332350000001
 11
22.371567000000027
 21
475.06233250000002
  0
LINE
  8
_0-0_0
  6
CONTINUOUS
 62
    7
 10
22.371567000000027
 20
475.06233250000002
 11
22.417266999999981
 21
475.14997849999997
  0
LINE
  8
_0-0_0
  6
CONTINUOUS
 62
    7
 10
32.428954999999974
 20
471.70762649999995
 11
22.721130000000016
 21
471.70762649999995
  0
LINE
  8
_0-0_0
  6
CONTINUOUS
 62
    7
 10
22.721130000000016
 20
471.70762649999995
 11
22.626801
 21
471.46101350000004
  0
LINE
  8
_0-0_0
  6
CONTINUOUS
 62
    7
 10
22.626801
 20
471.46101350000004
 11
22.542846999999995
 21
471.22105350000004
  0
LINE
  8
_0-0_0
  6
CONTINUOUS
 62
    7
 10
22.542846999999995
 20
471.22105350000004
 11
22.468688999999983
 21
470.98692349999999
  0
LINE
  8
_0-0_0
  6
CONTINUOUS
 62
    7
 10
22.468688999999983
 20
470.98692349999999
 11
22.403809000000024
 21
470.75788850000004
  0
LINE
  8
_0-0_0
  6
CONTINUOUS
 62
    7
 10
22.403809000000024
 20
470.75788850000004
 11
22.347777999999948
 21
470.53321849999998
  0
LINE
  8
_0-0_0
  6
CONTINUOUS
 62
    7
 10
22.347777999999948
 20
470.53321849999998
 11
22.300201000000015
 21
470.31224050000003
  0
LINE
  8
_0-0_0
  6
CONTINUOUS
 62
    7
 10
22.300201000000015
 20
470.31224050000003
 11
22.26080300000001
 21
470.0943145
  0
LINE
  8
_0-0_0
  6
CONTINUOUS
 62
    7
 10
22.26080300000001
 20
470.0943145
 11
22.229308999999944
 21
469.87886049999997
  0
LINE
  8
_0-0_0
  6
CONTINUOUS
 62
    7
 10
22.229308999999944
 20
469.87886049999997
 11
22.205535999999995
 21
469.66532849999999
  0
LINE
  8
_0-0_0
  6
CONTINUOUS
 62
    7
 10
22.205535999999995
 20
469.66532849999999
 11
22.189606000000026
 21
469.45762649999995
  0
LINE
  8
_0-0_0
  6
CONTINUOUS
 62
    7
 10
22.189606000000026
 20
469.45762649999995
 11
22.180846999999972
 21
469.25077850000002
  0
LINE
  8
_0-0_0
  6
CONTINUOUS
 62
    7
 10
22.180846999999972
 20
469.25077850000002
 11
22.179229999999961
 21
469.04429649999997
  0
LINE
  8
_0-0_0
  6
CONTINUOUS
 62
    7
 10
22.179229999999961
 20
469.04429649999997
 11
22.184691999999984
 21
468.83772250000004
  0
LINE
  8
_0-0_0
  6
CONTINUOUS
 62
    7
 10
22.184691999999984
 20
468.83772250000004
 11
22.197295999999994
 21
468.63053850000006
  0
LINE
  8
_0-0_0
  6
CONTINUOUS
 62
    7
 10
22.197295999999994
 20
468.63053850000006
 11
22.217116999999973
 21
468.4222565
  0
LINE
  8
_0-0_0
  6
CONTINUOUS
 62
    7
 10
22.217116999999973
 20
468.4222565
 11
22.244262999999989
 21
468.21232550000002
  0
LINE
  8
_0-0_0
  6
CONTINUOUS
 62
    7
 10
22.244262999999989
 20
468.21232550000002
 11
22.278900000000021
 21
468.00025949999997
  0
LINE
  8
_0-0_0
  6
CONTINUOUS
 62
    7
 10
22.278900000000021
 20
468.00025949999997
 11
22.321258999999998
 21
467.78550749999999
  0
LINE
  8
_0-0_0
  6
CONTINUOUS
 62
    7
 10
22.321258999999998
 20
467.78550749999999
 11
22.371567000000027
 21
467.56748949999997
  0
LINE
  8
_0-0_0
  6
CONTINUOUS
 62
    7
 10
22.371567000000027
 20
467.56748949999997
 11
22.425811999999951
 21
467.36122150000006
  0
LINE
  8
_0-0_0
  6
CONTINUOUS
 62
    7
 10
22.425811999999951
 20
467.36122150000006
 11
22.487518000000023
 21
467.15110749999997
  0
LINE
  8
_0-0_0
  6
CONTINUOUS
 62
    7
 10
22.487518000000023
 20
467.15110749999997
 11
22.55703699999998
 21
466.93663049999998
  0
LINE
  8
_0-0_0
  6
CONTINUOUS
 62
    7
 10
22.55703699999998
 20
466.93663049999998
 11
22.634766000000013
 21
466.71723950000001
  0
LINE
  8
_0-0_0
  6
CONTINUOUS
 62
    7
 10
22.634766000000013
 20
466.71723950000001
 11
22.721130000000016
 21
466.4922335
  0
LINE
  8
_0-0_0
  6
CONTINUOUS
 62
    7
 10
32.428954999999974
 20
466.4922335
 11
22.721130000000016
 21
466.4922335
  0
ARC
  8
_0-0_0
  6
CONTINUOUS
 62
    7
 10
27.592681999999968
 20
472.34992950000003
 40
4.9136889999999998
 50
172.48898299999999
 51
187.51101699999998
  0
LINE
  8
_0-0_0
  6
CONTINUOUS
 62
    7
 10
32.428954999999974
 20
465.20762649999995
 11
22.721130000000016
 21
465.20762649999995
  0
LINE
  8
_0-0_0
  6
CONTINUOUS
 62
    7
 10
22.721130000000016
 20
462.59992950000003
 11
22.666656999999987
 21
462.66987549999999
  0
LINE
  8
_0-0_0
  6
CONTINUOUS
 62
    7
 10
22.666656999999987
 20
462.66987549999999
 11
22.615554999999972
 21
462.73869349999995
  0
LINE
  8
_0-0_0
  6
CONTINUOUS
 62
    7
 10
22.615554999999972
 20
462.73869349999995
 11
22.567916999999966
 21
462.80619750000005
  0
LINE
  8
_0-0_0
  6
CONTINUOUS
 62
    7
 10
22.567916999999966
 20
462.80619750000005
 11
22.52340700000002
 21
462.87275650000004
  0
LINE
  8
_0-0_0
  6
CONTINUOUS
 62
    7
 10
22.52340700000002
 20
462.87275650000004
 11
22.468688999999983
 21
462.96031149999999
  0
LINE
  8
_0-0_0
  6
CONTINUOUS
 62
    7
 10
22.468688999999983
 20
462.96031149999999
 11
22.41918899999996
 21
463.0464015
  0
LINE
  8
_0-0_0
  6
CONTINUOUS
 62
    7
 10
22.41918899999996
 20
463.0464015
 11
22.374725000000012
 21
463.13124049999999
  0
LINE
  8
_0-0_0
  6
CONTINUOUS
 62
    7
 10
22.374725000000012
 20
463.13124049999999
 11
22.327759000000015
 21
463.23155150000002
  0
LINE
  8
_0-0_0
  6
CONTINUOUS
 62
    7
 10
22.327759000000015
 20
463.23155150000002
 11
22.287536999999986
 21
463.3304895
  0
LINE
  8
_0-0_0
  6
CONTINUOUS
 62
    7
 10
22.287536999999986
 20
463.3304895
 11
22.253875999999991
 21
463.42823750000002
  0
LINE
  8
_0-0_0
  6
CONTINUOUS
 62
    7
 10
22.253875999999991
 20
463.42823750000002
 11
22.22659299999998
 21
463.52503950000005
  0
LINE
  8
_0-0_0
  6
CONTINUOUS
 62
    7
 10
22.22659299999998
 20
463.52503950000005
 11
22.205535999999995
 21
463.62107849999995
  0
LINE
  8
_0-0_0
  6
CONTINUOUS
 62
    7
 10
22.205535999999995
 20
463.62107849999995
 11
22.189606000000026
 21
463.72496049999995
  0
LINE
  8
_0-0_0
  6
CONTINUOUS
 62
    7
 10
22.189606000000026
 20
463.72496049999995
 11
22.180846999999972
 21
463.82838449999997
  0
LINE
  8
_0-0_0
  6
CONTINUOUS
 62
    7
 10
22.180846999999972
 20
463.82838449999997
 11
22.179229999999961
 21
463.93159449999996
  0
LINE
  8
_0-0_0
  6
CONTINUOUS
 62
    7
 10
22.179229999999961
 20
463.93159449999996
 11
22.184691999999984
 21
464.03489650000006
  0
LINE
  8
_0-0_0
  6
CONTINUOUS
 62
    7
 10
22.184691999999984
 20
464.03489650000006
 11
22.197295999999994
 21
464.13850349999996
  0
LINE
  8
_0-0_0
  6
CONTINUOUS
 62
    7
 10
22.197295999999994
 20
464.13850349999996
 11
22.217116999999973
 21
464.24262950000002
  0
LINE
  8
_0-0_0
  6
CONTINUOUS
 62
    7
 10
22.217116999999973
 20
464.24262950000002
 11
22.244262999999989
 21
464.34761049999997
  0
LINE
  8
_0-0_0
  6
CONTINUOUS
 62
    7
 10
22.244262999999989
 20
464.34761049999997
 11
22.278900000000021
 21
464.45362850000004
  0
LINE
  8
_0-0_0
  6
CONTINUOUS
 62
    7
 10
22.278900000000021
 20
464.45362850000004
 11
22.321258999999998
 21
464.56101950000004
  0
LINE
  8
_0-0_0
  6
CONTINUOUS
 62
    7
 10
22.321258999999998
 20
464.56101950000004
 11
22.371567000000027
 21
464.66999850000002
  0
LINE
  8
_0-0_0
  6
CONTINUOUS
 62
    7
 10
22.371567000000027
 20
464.66999850000002
 11
22.425811999999951
 21
464.77314750000005
  0
LINE
  8
_0-0_0
  6
CONTINUOUS
 62
    7
 10
22.425811999999951
 20
464.77314750000005
 11
22.487518000000023
 21
464.8782195
  0
LINE
  8
_0-0_0
  6
CONTINUOUS
 62
    7
 10
22.487518000000023
 20
464.8782195
 11
22.55703699999998
 21
464.98542750000001
  0
LINE
  8
_0-0_0
  6
CONTINUOUS
 62
    7
 10
22.55703699999998
 20
464.98542750000001
 11
22.634766000000013
 21
465.09513849999996
  0
LINE
  8
_0-0_0
  6
CONTINUOUS
 62
    7
 10
22.634766000000013
 20
465.09513849999996
 11
22.721130000000016
 21
465.20762649999995
  0
LINE
  8
_0-0_0
  6
CONTINUOUS
 62
    7
 10
32.428954999999974
 20
462.59992950000003
 11
22.721130000000016
 21
462.59992950000003
  0
ARC
  8
_0-0_0
  6
CONTINUOUS
 62
    7
 10
27.602844000000005
 20
465.84904449999999
 40
4.9238749999999998
 50
172.49424200000001
 51
181.535968
  0
ARC
  8
_0-0_0
  6
CONTINUOUS
 62
    7
 10
27.640868999999952
 20
465.85401950000005
 40
4.9620009999999999
 50
181.58130700000004
 51
187.48478900000003
  0
LINE
  8
_0-0_0
  6
CONTINUOUS
 62
    7
 10
22.678954999999974
 20
462.59992950000003
 11
22.721130000000016
 21
462.59992950000003
  0
LINE
  8
_0-0_0
  6
CONTINUOUS
 62
    7
 10
17.428954999999974
 20
462.0253755
 11
17.178954999999974
 21
462.04994150000005
  0
LINE
  8
_0-0_0
  6
CONTINUOUS
 62
    7
 10
17.428954999999974
 20
461.82142650000003
 11
17.178954999999974
 21
462.04994150000005
  0
LINE
  8
_0-0_0
  6
CONTINUOUS
 62
    7
 10
17.428954999999974
 20
462.21592650000002
 11
17.178954999999974
 21
462.26939349999998
  0
LINE
  8
_0-0_0
  6
CONTINUOUS
 62
    7
 10
17.428954999999974
 20
462.0253755
 11
17.178954999999974
 21
462.26939349999998
  0
LINE
  8
_0-0_0
  6
CONTINUOUS
 62
    7
 10
17.428954999999974
 20
462.39094550000004
 11
17.178954999999974
 21
462.47276250000004
  0
LINE
  8
_0-0_0
  6
CONTINUOUS
 62
    7
 10
17.428954999999974
 20
462.21592650000002
 11
17.178954999999974
 21
462.47276250000004
  0
LINE
  8
_0-0_0
  6
CONTINUOUS
 62
    7
 10
17.428954999999974
 20
462.54850750000003
 11
17.178954999999974
 21
462.65779150000003
  0
LINE
  8
_0-0_0
  6
CONTINUOUS
 62
    7
 10
17.428954999999974
 20
462.39094550000004
 11
17.178954999999974
 21
462.65779150000003
  0
LINE
  8
_0-0_0
  6
CONTINUOUS
 62
    7
 10
17.428954999999974
 20
462.68696550000004
 11
17.178954999999974
 21
462.82249449999995
  0
LINE
  8
_0-0_0
  6
CONTINUOUS
 62
    7
 10
17.428954999999974
 20
462.54850750000003
 11
17.178954999999974
 21
462.82249449999995
  0
LINE
  8
_0-0_0
  6
CONTINUOUS
 62
    7
 10
17.428954999999974
 20
462.80470249999996
 11
17.178954999999974
 21
462.96501150000006
  0
LINE
  8
_0-0_0
  6
CONTINUOUS
 62
    7
 10
17.428954999999974
 20
462.68696550000004
 11
17.178954999999974
 21
462.96501150000006
  0
LINE
  8
_0-0_0
  6
CONTINUOUS
 62
    7
 10
17.428954999999974
 20
462.90049750000003
 11
17.178954999999974
 21
463.08381650000001
  0
LINE
  8
_0-0_0
  6
CONTINUOUS
 62
    7
 10
17.428954999999974
 20
462.80470249999996
 11
17.178954999999974
 21
463.08381650000001
  0
LINE
  8
_0-0_0
  6
CONTINUOUS
 62
    7
 10
17.428954999999974
 20
462.97328149999998
 11
17.178954999999974
 21
463.17759650000005
  0
LINE
  8
_0-0_0
  6
CONTINUOUS
 62
    7
 10
17.428954999999974
 20
462.90049750000003
 11
17.178954999999974
 21
463.17759650000005
  0
LINE
  8
_0-0_0
  6
CONTINUOUS
 62
    7
 10
17.428954999999974
 20
463.02223149999998
 11
17.178954999999974
 21
463.24531549999995
  0
LINE
  8
_0-0_0
  6
CONTINUOUS
 62
    7
 10
17.428954999999974
 20
462.97328149999998
 11
17.178954999999974
 21
463.24531549999995
  0
LINE
  8
_0-0_0
  6
CONTINUOUS
 62
    7
 10
17.428954999999974
 20
463.04685949999998
 11
17.178954999999974
 21
463.28623949999997
  0
LINE
  8
_0-0_0
  6
CONTINUOUS
 62
    7
 10
17.428954999999974
 20
463.02223149999998
 11
17.178954999999974
 21
463.28623949999997
  0
LINE
  8
_0-0_0
  6
CONTINUOUS
 62
    7
 10
17.428954999999974
 20
463.04685949999998
 11
17.178954999999974
 21
463.29994150000005
  0
LINE
  8
_0-0_0
  6
CONTINUOUS
 62
    7
 10
17.428954999999974
 20
458.55302449999999
 11
17.178954999999974
 21
458.29994150000005
  0
LINE
  8
_0-0_0
  6
CONTINUOUS
 62
    7
 10
17.428954999999974
 20
458.5776515
 11
17.178954999999974
 21
458.31364450000001
  0
LINE
  8
_0-0_0
  6
CONTINUOUS
 62
    7
 10
17.428954999999974
 20
458.55302449999999
 11
17.178954999999974
 21
458.31364450000001
  0
LINE
  8
_0-0_0
  6
CONTINUOUS
 62
    7
 10
17.428954999999974
 20
458.62660249999999
 11
17.178954999999974
 21
458.35456850000003
  0
LINE
  8
_0-0_0
  6
CONTINUOUS
 62
    7
 10
17.428954999999974
 20
458.5776515
 11
17.178954999999974
 21
458.35456850000003
  0
LINE
  8
_0-0_0
  6
CONTINUOUS
 62
    7
 10
17.428954999999974
 20
458.69938650000006
 11
17.178954999999974
 21
458.42228650000004
  0
LINE
  8
_0-0_0
  6
CONTINUOUS
 62
    7
 10
17.428954999999974
 20
458.62660249999999
 11
17.178954999999974
 21
458.42228650000004
  0
LINE
  8
_0-0_0
  6
CONTINUOUS
 62
    7
 10
17.428954999999974
 20
458.79518150000001
 11
17.178954999999974
 21
458.51606749999996
  0
LINE
  8
_0-0_0
  6
CONTINUOUS
 62
    7
 10
17.428954999999974
 20
458.69938650000006
 11
17.178954999999974
 21
458.51606749999996
  0
LINE
  8
_0-0_0
  6
CONTINUOUS
 62
    7
 10
17.428954999999974
 20
458.79518150000001
 11
17.298995999999988
 21
458.71131849999995
  0
LINE
  8
_0-0_0
  6
CONTINUOUS
 62
    7
 10
17.428954999999974
 20
458.91291750000005
 11
17.178954999999974
 21
458.63487250000003
  0
LINE
  8
_0-0_0
  6
CONTINUOUS
 62
    7
 10
17.298995999999988
 20
458.71131849999995
 11
17.178954999999974
 21
458.63487250000003
  0
LINE
  8
_0-0_0
  6
CONTINUOUS
 62
    7
 10
17.428954999999974
 20
459.05137649999995
 11
17.178954999999974
 21
458.77738950000003
  0
LINE
  8
_0-0_0
  6
CONTINUOUS
 62
    7
 10
17.428954999999974
 20
458.91291750000005
 11
17.178954999999974
 21
458.77738950000003
  0
LINE
  8
_0-0_0
  6
CONTINUOUS
 62
    7
 10
17.428954999999974
 20
459.20896849999997
 11
17.178954999999974
 21
458.94209250000006
  0
LINE
  8
_0-0_0
  6
CONTINUOUS
 62
    7
 10
17.428954999999974
 20
459.05137649999995
 11
17.178954999999974
 21
458.94209250000006
  0
LINE
  8
_0-0_0
  6
CONTINUOUS
 62
    7
 10
17.428954999999974
 20
459.38398749999999
 11
17.178954999999974
 21
459.12712050000005
  0
LINE
  8
_0-0_0
  6
CONTINUOUS
 62
    7
 10
17.428954999999974
 20
459.20896849999997
 11
17.178954999999974
 21
459.12712050000005
  0
LINE
  8
_0-0_0
  6
CONTINUOUS
 62
    7
 10
17.428954999999974
 20
459.57450849999998
 11
17.178954999999974
 21
459.3304895
  0
LINE
  8
_0-0_0
  6
CONTINUOUS
 62
    7
 10
17.428954999999974
 20
459.38398749999999
 11
17.178954999999974
 21
459.3304895
  0
LINE
  8
_0-0_0
  6
CONTINUOUS
 62
    7
 10
17.428954999999974
 20
459.77845750000006
 11
17.178954999999974
 21
459.54994150000005
  0
LINE
  8
_0-0_0
  6
CONTINUOUS
 62
    7
 10
17.428954999999974
 20
459.57450849999998
 11
17.178954999999974
 21
459.54994150000005
  0
LINE
  8
_0-0_0
  6
CONTINUOUS
 62
    7
 10
17.428954999999974
 20
459.99360650000006
 11
17.178954999999974
 21
459.78309650000006
  0
LINE
  8
_0-0_0
  6
CONTINUOUS
 62
    7
 10
17.428954999999974
 20
459.77845750000006
 11
17.178954999999974
 21
459.78309650000006
  0
LINE
  8
_0-0_0
  6
CONTINUOUS
 62
    7
 10
17.428954999999974
 20
460.21760549999999
 11
17.178954999999974
 21
460.02738950000003
  0
LINE
  8
_0-0_0
  6
CONTINUOUS
 62
    7
 10
17.428954999999974
 20
459.99360650000006
 11
17.178954999999974
 21
460.02738950000003
  0
LINE
  8
_0-0_0
  6
CONTINUOUS
 62
    7
 10
17.428954999999974
 20
460.44795250000004
 11
17.178954999999974
 21
460.28016649999995
  0
LINE
  8
_0-0_0
  6
CONTINUOUS
 62
    7
 10
17.428954999999974
 20
460.21760549999999
 11
17.178954999999974
 21
460.28016649999995
  0
LINE
  8
_0-0_0
  6
CONTINUOUS
 62
    7
 10
17.428954999999974
 20
460.68217449999997
 11
17.178954999999974
 21
460.53861949999998
  0
LINE
  8
_0-0_0
  6
CONTINUOUS
 62
    7
 10
17.428954999999974
 20
460.44795250000004
 11
17.178954999999974
 21
460.53861949999998
  0
LINE
  8
_0-0_0
  6
CONTINUOUS
 62
    7
 10
17.428954999999974
 20
460.9177095
 11
17.178954999999974
 21
460.79994150000005
  0
LINE
  8
_0-0_0
  6
CONTINUOUS
 62
    7
 10
17.428954999999974
 20
460.68217449999997
 11
17.178954999999974
 21
460.79994150000005
  0
LINE
  8
_0-0_0
  6
CONTINUOUS
 62
    7
 10
17.428954999999974
 20
461.15193150000005
 11
17.178954999999974
 21
461.0612635
  0
LINE
  8
_0-0_0
  6
CONTINUOUS
 62
    7
 10
17.428954999999974
 20
460.9177095
 11
17.178954999999974
 21
461.0612635
  0
LINE
  8
_0-0_0
  6
CONTINUOUS
 62
    7
 10
17.428954999999974
 20
461.38227849999998
 11
17.178954999999974
 21
461.31971750000002
  0
LINE
  8
_0-0_0
  6
CONTINUOUS
 62
    7
 10
17.428954999999974
 20
461.15193150000005
 11
17.178954999999974
 21
461.31971750000002
  0
LINE
  8
_0-0_0
  6
CONTINUOUS
 62
    7
 10
17.428954999999974
 20
461.60627750000003
 11
17.178954999999974
 21
461.57249449999995
  0
LINE
  8
_0-0_0
  6
CONTINUOUS
 62
    7
 10
17.428954999999974
 20
461.38227849999998
 11
17.178954999999974
 21
461.57249449999995
  0
LINE
  8
_0-0_0
  6
CONTINUOUS
 62
    7
 10
17.428954999999974
 20
461.82142650000003
 11
17.178954999999974
 21
461.81678750000003
  0
LINE
  8
_0-0_0
  6
CONTINUOUS
 62
    7
 10
17.428954999999974
 20
461.60627750000003
 11
17.178954999999974
 21
461.81678750000003
  0
LINE
  8
_0-0_0
  6
CONTINUOUS
 62
    7
 10
7.6789549999999736
 20
478.6253815
 11
7.9289549999999736
 21
478.64994750000005
  0
LINE
  8
_0-0_0
  6
CONTINUOUS
 62
    7
 10
7.9289549999999736
 20
478.64994750000005
 11
17.178954999999974
 21
478.64994750000005
  0
LINE
  8
_0-0_0
  6
CONTINUOUS
 62
    7
 10
7.6789549999999736
 20
478.42143250000004
 11
7.9289549999999736
 21
478.64994750000005
  0
LINE
  8
_0-0_0
  6
CONTINUOUS
 62
    7
 10
7.6789549999999736
 20
478.42143250000004
 11
17.428954999999974
 21
478.42143250000004
  0
LINE
  8
_0-0_0
  6
CONTINUOUS
 62
    7
 10
7.6789549999999736
 20
478.81590249999999
 11
7.9289549999999736
 21
478.86939949999999
  0
LINE
  8
_0-0_0
  6
CONTINUOUS
 62
    7
 10
7.9289549999999736
 20
478.86939949999999
 11
17.178954999999974
 21
478.86939949999999
  0
LINE
  8
_0-0_0
  6
CONTINUOUS
 62
    7
 10
7.6789549999999736
 20
478.6253815
 11
7.9289549999999736
 21
478.86939949999999
  0
LINE
  8
_0-0_0
  6
CONTINUOUS
 62
    7
 10
7.6789549999999736
 20
478.99092050000002
 11
7.9289549999999736
 21
479.07276950000005
  0
LINE
  8
_0-0_0
  6
CONTINUOUS
 62
    7
 10
7.9289549999999736
 20
479.07276950000005
 11
17.178954999999974
 21
479.07276950000005
  0
LINE
  8
_0-0_0
  6
CONTINUOUS
 62
    7
 10
7.6789549999999736
 20
478.81590249999999
 11
7.9289549999999736
 21
479.07276950000005
  0
LINE
  8
_0-0_0
  6
CONTINUOUS
 62
    7
 10
7.6789549999999736
 20
479.14851350000004
 11
7.9289549999999736
 21
479.25779750000004
  0
LINE
  8
_0-0_0
  6
CONTINUOUS
 62
    7
 10
7.9289549999999736
 20
479.25779750000004
 11
17.178954999999974
 21
479.25779750000004
  0
LINE
  8
_0-0_0
  6
CONTINUOUS
 62
    7
 10
7.6789549999999736
 20
478.99092050000002
 11
7.9289549999999736
 21
479.25779750000004
  0
LINE
  8
_0-0_0
  6
CONTINUOUS
 62
    7
 10
7.6789549999999736
 20
479.28694150000001
 11
7.9289549999999736
 21
479.42250049999996
  0
LINE
  8
_0-0_0
  6
CONTINUOUS
 62
    7
 10
7.9289549999999736
 20
479.42250049999996
 11
17.178954999999974
 21
479.42250049999996
  0
LINE
  8
_0-0_0
  6
CONTINUOUS
 62
    7
 10
7.6789549999999736
 20
479.14851350000004
 11
7.9289549999999736
 21
479.42250049999996
  0
LINE
  8
_0-0_0
  6
CONTINUOUS
 62
    7
 10
7.6789549999999736
 20
479.40470849999997
 11
7.9289549999999736
 21
479.56501749999995
  0
LINE
  8
_0-0_0
  6
CONTINUOUS
 62
    7
 10
7.9289549999999736
 20
479.56501749999995
 11
17.178954999999974
 21
479.56501749999995
  0
LINE
  8
_0-0_0
  6
CONTINUOUS
 62
    7
 10
7.6789549999999736
 20
479.28694150000001
 11
7.9289549999999736
 21
479.56501749999995
  0
LINE
  8
_0-0_0
  6
CONTINUOUS
 62
    7
 10
7.6789549999999736
 20
479.50050350000004
 11
7.9289549999999736
 21
479.68379149999998
  0
LINE
  8
_0-0_0
  6
CONTINUOUS
 62
    7
 10
7.9289549999999736
 20
479.68379149999998
 11
17.178954999999974
 21
479.68379149999998
  0
LINE
  8
_0-0_0
  6
CONTINUOUS
 62
    7
 10
7.6789549999999736
 20
479.40470849999997
 11
7.9289549999999736
 21
479.68379149999998
  0
LINE
  8
_0-0_0
  6
CONTINUOUS
 62
    7
 10
7.6789549999999736
 20
479.57328749999999
 11
7.9289549999999736
 21
479.77757250000002
  0
LINE
  8
_0-0_0
  6
CONTINUOUS
 62
    7
 10
7.9289549999999736
 20
479.77757250000002
 11
17.178954999999974
 21
479.77757250000002
  0
LINE
  8
_0-0_0
  6
CONTINUOUS
 62
    7
 10
7.6789549999999736
 20
479.50050350000004
 11
7.9289549999999736
 21
479.77757250000002
  0
LINE
  8
_0-0_0
  6
CONTINUOUS
 62
    7
 10
7.6789549999999736
 20
479.62223849999998
 11
7.9289549999999736
 21
479.84532149999995
  0
LINE
  8
_0-0_0
  6
CONTINUOUS
 62
    7
 10
7.9289549999999736
 20
479.84532149999995
 11
17.178954999999974
 21
479.84532149999995
  0
LINE
  8
_0-0_0
  6
CONTINUOUS
 62
    7
 10
7.6789549999999736
 20
479.57328749999999
 11
7.9289549999999736
 21
479.84532149999995
  0
LINE
  8
_0-0_0
  6
CONTINUOUS
 62
    7
 10
7.6789549999999736
 20
479.64686549999999
 11
7.9289549999999736
 21
479.88624549999997
  0
LINE
  8
_0-0_0
  6
CONTINUOUS
 62
    7
 10
7.9289549999999736
 20
479.88624549999997
 11
17.178954999999974
 21
479.88624549999997
  0
LINE
  8
_0-0_0
  6
CONTINUOUS
 62
    7
 10
7.6789549999999736
 20
479.62223849999998
 11
7.9289549999999736
 21
479.88624549999997
  0
LINE
  8
_0-0_0
  6
CONTINUOUS
 62
    7
 10
7.9289549999999736
 20
479.89994750000005
 11
17.178954999999974
 21
479.89994750000005
  0
LINE
  8
_0-0_0
  6
CONTINUOUS
 62
    7
 10
7.6789549999999736
 20
479.64686549999999
 11
7.9289549999999736
 21
479.89994750000005
  0
LINE
  8
_0-0_0
  6
CONTINUOUS
 62
    7
 10
7.6789549999999736
 20
475.1530305
 11
7.9289549999999736
 21
474.89994750000005
  0
LINE
  8
_0-0_0
  6
CONTINUOUS
 62
    7
 10
7.9289549999999736
 20
474.89994750000005
 11
17.178954999999974
 21
474.89994750000005
  0
LINE
  8
_0-0_0
  6
CONTINUOUS
 62
    7
 10
7.6789549999999736
 20
475.17765750000001
 11
7.9289549999999736
 21
474.91365050000002
  0
LINE
  8
_0-0_0
  6
CONTINUOUS
 62
    7
 10
7.9289549999999736
 20
474.91365050000002
 11
17.178954999999974
 21
474.91365050000002
  0
LINE
  8
_0-0_0
  6
CONTINUOUS
 62
    7
 10
7.6789549999999736
 20
475.1530305
 11
7.9289549999999736
 21
474.91365050000002
  0
LINE
  8
_0-0_0
  6
CONTINUOUS
 62
    7
 10
7.6789549999999736
 20
475.2266085
 11
7.9289549999999736
 21
474.95457450000004
  0
LINE
  8
_0-0_0
  6
CONTINUOUS
 62
    7
 10
7.9289549999999736
 20
474.95457450000004
 11
17.178954999999974
 21
474.95457450000004
  0
LINE
  8
_0-0_0
  6
CONTINUOUS
 62
    7
 10
7.6789549999999736
 20
475.17765750000001
 11
7.9289549999999736
 21
474.95457450000004
  0
LINE
  8
_0-0_0
  6
CONTINUOUS
 62
    7
 10
7.6789549999999736
 20
475.29939249999995
 11
7.9289549999999736
 21
475.02229250000005
  0
LINE
  8
_0-0_0
  6
CONTINUOUS
 62
    7
 10
7.9289549999999736
 20
475.02229250000005
 11
17.178954999999974
 21
475.02229250000005
  0
LINE
  8
_0-0_0
  6
CONTINUOUS
 62
    7
 10
7.6789549999999736
 20
475.2266085
 11
7.9289549999999736
 21
475.02229250000005
  0
LINE
  8
_0-0_0
  6
CONTINUOUS
 62
    7
 10
7.6789549999999736
 20
475.39518750000002
 11
7.9289549999999736
 21
475.11607349999997
  0
LINE
  8
_0-0_0
  6
CONTINUOUS
 62
    7
 10
7.9289549999999736
 20
475.11607349999997
 11
17.178954999999974
 21
475.11607349999997
  0
LINE
  8
_0-0_0
  6
CONTINUOUS
 62
    7
 10
7.6789549999999736
 20
475.29939249999995
 11
7.9289549999999736
 21
475.11607349999997
  0
LINE
  8
_0-0_0
  6
CONTINUOUS
 62
    7
 10
7.9289549999999736
 20
475.23487850000004
 11
17.178954999999974
 21
475.23487850000004
  0
LINE
  8
_0-0_0
  6
CONTINUOUS
 62
    7
 10
7.8089289999999778
 20
475.31132449999996
 11
7.9289549999999736
 21
475.23487850000004
  0
LINE
  8
_0-0_0
  6
CONTINUOUS
 62
    7
 10
7.6789549999999736
 20
475.39518750000002
 11
7.8089289999999778
 21
475.31132449999996
  0
LINE
  8
_0-0_0
  6
CONTINUOUS
 62
    7
 10
7.6789549999999736
 20
475.51292450000005
 11
7.9289549999999736
 21
475.23487850000004
  0
LINE
  8
_0-0_0
  6
CONTINUOUS
 62
    7
 10
7.6789549999999736
 20
475.65135150000003
 11
7.9289549999999736
 21
475.37739550000003
  0
LINE
  8
_0-0_0
  6
CONTINUOUS
 62
    7
 10
7.9289549999999736
 20
475.37739550000003
 11
17.178954999999974
 21
475.37739550000003
  0
LINE
  8
_0-0_0
  6
CONTINUOUS
 62
    7
 10
7.6789549999999736
 20
475.51292450000005
 11
7.9289549999999736
 21
475.37739550000003
  0
LINE
  8
_0-0_0
  6
CONTINUOUS
 62
    7
 10
7.6789549999999736
 20
475.80894450000005
 11
7.9289549999999736
 21
475.54206850000003
  0
LINE
  8
_0-0_0
  6
CONTINUOUS
 62
    7
 10
7.9289549999999736
 20
475.54206850000003
 11
17.178954999999974
 21
475.54206850000003
  0
LINE
  8
_0-0_0
  6
CONTINUOUS
 62
    7
 10
7.6789549999999736
 20
475.65135150000003
 11
7.9289549999999736
 21
475.54206850000003
  0
LINE
  8
_0-0_0
  6
CONTINUOUS
 62
    7
 10
7.6789549999999736
 20
475.98396249999996
 11
7.9289549999999736
 21
475.72712650000005
  0
LINE
  8
_0-0_0
  6
CONTINUOUS
 62
    7
 10
7.9289549999999736
 20
475.72712650000005
 11
17.178954999999974
 21
475.72712650000005
  0
LINE
  8
_0-0_0
  6
CONTINUOUS
 62
    7
 10
7.6789549999999736
 20
475.80894450000005
 11
7.9289549999999736
 21
475.72712650000005
  0
LINE
  8
_0-0_0
  6
CONTINUOUS
 62
    7
 10
7.6789549999999736
 20
476.17451449999999
 11
7.9289549999999736
 21
475.9304965
  0
LINE
  8
_0-0_0
  6
CONTINUOUS
 62
    7
 10
7.9289549999999736
 20
475.9304965
 11
17.178954999999974
 21
475.9304965
  0
LINE
  8
_0-0_0
  6
CONTINUOUS
 62
    7
 10
7.6789549999999736
 20
475.98396249999996
 11
7.9289549999999736
 21
475.9304965
  0
LINE
  8
_0-0_0
  6
CONTINUOUS
 62
    7
 10
7.6789549999999736
 20
476.37846349999995
 11
7.9289549999999736
 21
476.14994750000005
  0
LINE
  8
_0-0_0
  6
CONTINUOUS
 62
    7
 10
7.9289549999999736
 20
476.14994750000005
 11
17.178954999999974
 21
476.14994750000005
  0
LINE
  8
_0-0_0
  6
CONTINUOUS
 62
    7
 10
7.6789549999999736
 20
476.37846349999995
 11
17.428954999999974
 21
476.37846349999995
  0
LINE
  8
_0-0_0
  6
CONTINUOUS
 62
    7
 10
7.6789549999999736
 20
476.17451449999999
 11
7.9289549999999736
 21
476.14994750000005
  0
LINE
  8
_0-0_0
  6
CONTINUOUS
 62
    7
 10
7.6789549999999736
 20
476.59361249999995
 11
7.9289549999999736
 21
476.38310249999995
  0
LINE
  8
_0-0_0
  6
CONTINUOUS
 62
    7
 10
7.9289549999999736
 20
476.38310249999995
 11
17.178954999999974
 21
476.38310249999995
  0
LINE
  8
_0-0_0
  6
CONTINUOUS
 62
    7
 10
7.6789549999999736
 20
476.59361249999995
 11
17.428954999999974
 21
476.59361249999995
  0
LINE
  8
_0-0_0
  6
CONTINUOUS
 62
    7
 10
7.6789549999999736
 20
476.37846349999995
 11
7.9289549999999736
 21
476.38310249999995
  0
LINE
  8
_0-0_0
  6
CONTINUOUS
 62
    7
 10
7.6789549999999736
 20
476.8176115
 11
7.9289549999999736
 21
476.62739550000003
  0
LINE
  8
_0-0_0
  6
CONTINUOUS
 62
    7
 10
7.9289549999999736
 20
476.62739550000003
 11
17.178954999999974
 21
476.62739550000003
  0
LINE
  8
_0-0_0
  6
CONTINUOUS
 62
    7
 10
7.6789549999999736
 20
476.8176115
 11
17.428954999999974
 21
476.8176115
  0
LINE
  8
_0-0_0
  6
CONTINUOUS
 62
    7
 10
7.6789549999999736
 20
476.59361249999995
 11
7.9289549999999736
 21
476.62739550000003
  0
LINE
  8
_0-0_0
  6
CONTINUOUS
 62
    7
 10
7.6789549999999736
 20
477.04795850000005
 11
7.9289549999999736
 21
476.88017249999996
  0
LINE
  8
_0-0_0
  6
CONTINUOUS
 62
    7
 10
7.9289549999999736
 20
476.88017249999996
 11
17.178954999999974
 21
476.88017249999996
  0
LINE
  8
_0-0_0
  6
CONTINUOUS
 62
    7
 10
7.6789549999999736
 20
477.04795850000005
 11
17.428954999999974
 21
477.04795850000005
  0
LINE
  8
_0-0_0
  6
CONTINUOUS
 62
    7
 10
7.6789549999999736
 20
476.8176115
 11
7.9289549999999736
 21
476.88017249999996
  0
LINE
  8
_0-0_0
  6
CONTINUOUS
 62
    7
 10
7.6789549999999736
 20
477.28218049999998
 11
7.9289549999999736
 21
477.13862549999999
  0
LINE
  8
_0-0_0
  6
CONTINUOUS
 62
    7
 10
7.9289549999999736
 20
477.13862549999999
 11
17.178954999999974
 21
477.13862549999999
  0
LINE
  8
_0-0_0
  6
CONTINUOUS
 62
    7
 10
7.6789549999999736
 20
477.28218049999998
 11
17.428954999999974
 21
477.28218049999998
  0
LINE
  8
_0-0_0
  6
CONTINUOUS
 62
    7
 10
7.6789549999999736
 20
477.04795850000005
 11
7.9289549999999736
 21
477.13862549999999
  0
LINE
  8
_0-0_0
  6
CONTINUOUS
 62
    7
 10
7.6789549999999736
 20
477.51771550000001
 11
7.9289549999999736
 21
477.39994750000005
  0
LINE
  8
_0-0_0
  6
CONTINUOUS
 62
    7
 10
7.9289549999999736
 20
477.39994750000005
 11
17.178954999999974
 21
477.39994750000005
  0
LINE
  8
_0-0_0
  6
CONTINUOUS
 62
    7
 10
7.6789549999999736
 20
477.51771550000001
 11
17.428954999999974
 21
477.51771550000001
  0
LINE
  8
_0-0_0
  6
CONTINUOUS
 62
    7
 10
7.6789549999999736
 20
477.28218049999998
 11
7.9289549999999736
 21
477.39994750000005
  0
LINE
  8
_0-0_0
  6
CONTINUOUS
 62
    7
 10
7.6789549999999736
 20
477.75190750000002
 11
7.9289549999999736
 21
477.6612705
  0
LINE
  8
_0-0_0
  6
CONTINUOUS
 62
    7
 10
7.9289549999999736
 20
477.6612705
 11
17.178954999999974
 21
477.6612705
  0
LINE
  8
_0-0_0
  6
CONTINUOUS
 62
    7
 10
7.6789549999999736
 20
477.75190750000002
 11
17.428954999999974
 21
477.75190750000002
  0
LINE
  8
_0-0_0
  6
CONTINUOUS
 62
    7
 10
7.6789549999999736
 20
477.51771550000001
 11
7.9289549999999736
 21
477.6612705
  0
LINE
  8
_0-0_0
  6
CONTINUOUS
 62
    7
 10
7.6789549999999736
 20
477.98228449999999
 11
7.9289549999999736
 21
477.91972350000003
  0
LINE
  8
_0-0_0
  6
CONTINUOUS
 62
    7
 10
7.9289549999999736
 20
477.91972350000003
 11
17.178954999999974
 21
477.91972350000003
  0
LINE
  8
_0-0_0
  6
CONTINUOUS
 62
    7
 10
7.6789549999999736
 20
477.98228449999999
 11
17.428954999999974
 21
477.98228449999999
  0
LINE
  8
_0-0_0
  6
CONTINUOUS
 62
    7
 10
7.6789549999999736
 20
477.75190750000002
 11
7.9289549999999736
 21
477.91972350000003
  0
LINE
  8
_0-0_0
  6
CONTINUOUS
 62
    7
 10
7.6789549999999736
 20
478.20628350000004
 11
7.9289549999999736
 21
478.17250049999996
  0
LINE
  8
_0-0_0
  6
CONTINUOUS
 62
    7
 10
7.9289549999999736
 20
478.17250049999996
 11
17.178954999999974
 21
478.17250049999996
  0
LINE
  8
_0-0_0
  6
CONTINUOUS
 62
    7
 10
7.6789549999999736
 20
478.20628350000004
 11
17.428954999999974
 21
478.20628350000004
  0
LINE
  8
_0-0_0
  6
CONTINUOUS
 62
    7
 10
7.6789549999999736
 20
477.98228449999999
 11
7.9289549999999736
 21
478.17250049999996
  0
LINE
  8
_0-0_0
  6
CONTINUOUS
 62
    7
 10
7.6789549999999736
 20
478.42143250000004
 11
7.9289549999999736
 21
478.41679350000004
  0
LINE
  8
_0-0_0
  6
CONTINUOUS
 62
    7
 10
7.9289549999999736
 20
478.41679350000004
 11
17.178954999999974
 21
478.41679350000004
  0
LINE
  8
_0-0_0
  6
CONTINUOUS
 62
    7
 10
7.6789549999999736
 20
478.20628350000004
 11
7.9289549999999736
 21
478.41679350000004
  0
LINE
  8
_0-0_0
  6
CONTINUOUS
 62
    7
 10
21.428954999999974
 20
474.34992950000003
 11
21.428954999999974
 21
466.36839250000003
  0
LINE
  8
_0-0_0
  6
CONTINUOUS
 62
    7
 10
21.428954999999974
 20
466.36839250000003
 11
21.428954999999974
 21
463.84992950000003
  0
LINE
  8
_0-0_0
  6
CONTINUOUS
 62
    7
 10
7.6789549999999736
 20
462.0253755
 11
7.9289549999999736
 21
462.04994150000005
  0
LINE
  8
_0-0_0
  6
CONTINUOUS
 62
    7
 10
7.9289549999999736
 20
462.04994150000005
 11
17.178954999999974
 21
462.04994150000005
  0
LINE
  8
_0-0_0
  6
CONTINUOUS
 62
    7
 10
7.6789549999999736
 20
461.82142650000003
 11
7.9289549999999736
 21
462.04994150000005
  0
LINE
  8
_0-0_0
  6
CONTINUOUS
 62
    7
 10
7.6789549999999736
 20
461.82142650000003
 11
17.428954999999974
 21
461.82142650000003
  0
LINE
  8
_0-0_0
  6
CONTINUOUS
 62
    7
 10
7.6789549999999736
 20
462.21592650000002
 11
7.9289549999999736
 21
462.26939349999998
  0
LINE
  8
_0-0_0
  6
CONTINUOUS
 62
    7
 10
7.9289549999999736
 20
462.26939349999998
 11
17.178954999999974
 21
462.26939349999998
  0
LINE
  8
_0-0_0
  6
CONTINUOUS
 62
    7
 10
7.6789549999999736
 20
462.0253755
 11
7.9289549999999736
 21
462.26939349999998
  0
LINE
  8
_0-0_0
  6
CONTINUOUS
 62
    7
 10
7.6789549999999736
 20
462.39094550000004
 11
7.9289549999999736
 21
462.47276250000004
  0
LINE
  8
_0-0_0
  6
CONTINUOUS
 62
    7
 10
7.9289549999999736
 20
462.47276250000004
 11
17.178954999999974
 21
462.47276250000004
  0
LINE
  8
_0-0_0
  6
CONTINUOUS
 62
    7
 10
7.6789549999999736
 20
462.21592650000002
 11
7.9289549999999736
 21
462.47276250000004
  0
LINE
  8
_0-0_0
  6
CONTINUOUS
 62
    7
 10
7.6789549999999736
 20
462.54850750000003
 11
7.9289549999999736
 21
462.65779150000003
  0
LINE
  8
_0-0_0
  6
CONTINUOUS
 62
    7
 10
7.9289549999999736
 20
462.65779150000003
 11
17.178954999999974
 21
462.65779150000003
  0
LINE
  8
_0-0_0
  6
CONTINUOUS
 62
    7
 10
7.6789549999999736
 20
462.39094550000004
 11
7.9289549999999736
 21
462.65779150000003
  0
LINE
  8
_0-0_0
  6
CONTINUOUS
 62
    7
 10
7.6789549999999736
 20
462.68696550000004
 11
7.9289549999999736
 21
462.82249449999995
  0
LINE
  8
_0-0_0
  6
CONTINUOUS
 62
    7
 10
7.9289549999999736
 20
462.82249449999995
 11
17.178954999999974
 21
462.82249449999995
  0
LINE
  8
_0-0_0
  6
CONTINUOUS
 62
    7
 10
7.6789549999999736
 20
462.54850750000003
 11
7.9289549999999736
 21
462.82249449999995
  0
LINE
  8
_0-0_0
  6
CONTINUOUS
 62
    7
 10
7.6789549999999736
 20
462.80470249999996
 11
7.9289549999999736
 21
462.96501150000006
  0
LINE
  8
_0-0_0
  6
CONTINUOUS
 62
    7
 10
7.9289549999999736
 20
462.96501150000006
 11
17.178954999999974
 21
462.96501150000006
  0
LINE
  8
_0-0_0
  6
CONTINUOUS
 62
    7
 10
7.6789549999999736
 20
462.68696550000004
 11
7.9289549999999736
 21
462.96501150000006
  0
LINE
  8
_0-0_0
  6
CONTINUOUS
 62
    7
 10
7.6789549999999736
 20
462.90049750000003
 11
7.9289549999999736
 21
463.08381650000001
  0
LINE
  8
_0-0_0
  6
CONTINUOUS
 62
    7
 10
7.9289549999999736
 20
463.08381650000001
 11
17.178954999999974
 21
463.08381650000001
  0
LINE
  8
_0-0_0
  6
CONTINUOUS
 62
    7
 10
7.6789549999999736
 20
462.80470249999996
 11
7.9289549999999736
 21
463.08381650000001
  0
LINE
  8
_0-0_0
  6
CONTINUOUS
 62
    7
 10
7.6789549999999736
 20
462.97328149999998
 11
7.9289549999999736
 21
463.17759650000005
  0
LINE
  8
_0-0_0
  6
CONTINUOUS
 62
    7
 10
7.9289549999999736
 20
463.17759650000005
 11
17.178954999999974
 21
463.17759650000005
  0
LINE
  8
_0-0_0
  6
CONTINUOUS
 62
    7
 10
7.6789549999999736
 20
462.90049750000003
 11
7.9289549999999736
 21
463.17759650000005
  0
LINE
  8
_0-0_0
  6
CONTINUOUS
 62
    7
 10
7.6789549999999736
 20
463.02223149999998
 11
7.9289549999999736
 21
463.24531549999995
  0
LINE
  8
_0-0_0
  6
CONTINUOUS
 62
    7
 10
7.9289549999999736
 20
463.24531549999995
 11
17.178954999999974
 21
463.24531549999995
  0
LINE
  8
_0-0_0
  6
CONTINUOUS
 62
    7
 10
7.6789549999999736
 20
462.97328149999998
 11
7.9289549999999736
 21
463.24531549999995
  0
LINE
  8
_0-0_0
  6
CONTINUOUS
 62
    7
 10
7.6789549999999736
 20
463.04685949999998
 11
7.9289549999999736
 21
463.28623949999997
  0
LINE
  8
_0-0_0
  6
CONTINUOUS
 62
    7
 10
7.9289549999999736
 20
463.28623949999997
 11
17.178954999999974
 21
463.28623949999997
  0
LINE
  8
_0-0_0
  6
CONTINUOUS
 62
    7
 10
7.6789549999999736
 20
463.02223149999998
 11
7.9289549999999736
 21
463.28623949999997
  0
LINE
  8
_0-0_0
  6
CONTINUOUS
 62
    7
 10
7.9289549999999736
 20
463.29994150000005
 11
17.178954999999974
 21
463.29994150000005
  0
LINE
  8
_0-0_0
  6
CONTINUOUS
 62
    7
 10
7.6789549999999736
 20
463.04685949999998
 11
7.9289549999999736
 21
463.29994150000005
  0
LINE
  8
_0-0_0
  6
CONTINUOUS
 62
    7
 10
7.6789549999999736
 20
458.55302449999999
 11
7.9289549999999736
 21
458.29994150000005
  0
LINE
  8
_0-0_0
  6
CONTINUOUS
 62
    7
 10
7.9289549999999736
 20
458.29994150000005
 11
17.178954999999974
 21
458.29994150000005
  0
LINE
  8
_0-0_0
  6
CONTINUOUS
 62
    7
 10
7.6789549999999736
 20
458.5776515
 11
7.9289549999999736
 21
458.31364450000001
  0
LINE
  8
_0-0_0
  6
CONTINUOUS
 62
    7
 10
7.9289549999999736
 20
458.31364450000001
 11
17.178954999999974
 21
458.31364450000001
  0
LINE
  8
_0-0_0
  6
CONTINUOUS
 62
    7
 10
7.6789549999999736
 20
458.55302449999999
 11
7.9289549999999736
 21
458.31364450000001
  0
LINE
  8
_0-0_0
  6
CONTINUOUS
 62
    7
 10
7.6789549999999736
 20
458.62660249999999
 11
7.9289549999999736
 21
458.35456850000003
  0
LINE
  8
_0-0_0
  6
CONTINUOUS
 62
    7
 10
7.9289549999999736
 20
458.35456850000003
 11
17.178954999999974
 21
458.35456850000003
  0
LINE
  8
_0-0_0
  6
CONTINUOUS
 62
    7
 10
7.6789549999999736
 20
458.5776515
 11
7.9289549999999736
 21
458.35456850000003
  0
LINE
  8
_0-0_0
  6
CONTINUOUS
 62
    7
 10
7.6789549999999736
 20
458.69938650000006
 11
7.9289549999999736
 21
458.42228650000004
  0
LINE
  8
_0-0_0
  6
CONTINUOUS
 62
    7
 10
7.9289549999999736
 20
458.42228650000004
 11
17.178954999999974
 21
458.42228650000004
  0
LINE
  8
_0-0_0
  6
CONTINUOUS
 62
    7
 10
7.6789549999999736
 20
458.62660249999999
 11
7.9289549999999736
 21
458.42228650000004
  0
LINE
  8
_0-0_0
  6
CONTINUOUS
 62
    7
 10
7.6789549999999736
 20
458.79518150000001
 11
7.9289549999999736
 21
458.51606749999996
  0
LINE
  8
_0-0_0
  6
CONTINUOUS
 62
    7
 10
7.9289549999999736
 20
458.51606749999996
 11
17.178954999999974
 21
458.51606749999996
  0
LINE
  8
_0-0_0
  6
CONTINUOUS
 62
    7
 10
7.6789549999999736
 20
458.69938650000006
 11
7.9289549999999736
 21
458.51606749999996
  0
LINE
  8
_0-0_0
  6
CONTINUOUS
 62
    7
 10
7.9289549999999736
 20
458.63487250000003
 11
17.178954999999974
 21
458.63487250000003
  0
LINE
  8
_0-0_0
  6
CONTINUOUS
 62
    7
 10
7.8089289999999778
 20
458.71131849999995
 11
7.9289549999999736
 21
458.63487250000003
  0
LINE
  8
_0-0_0
  6
CONTINUOUS
 62
    7
 10
7.6789549999999736
 20
458.79518150000001
 11
7.8089289999999778
 21
458.71131849999995
  0
LINE
  8
_0-0_0
  6
CONTINUOUS
 62
    7
 10
7.6789549999999736
 20
458.91291750000005
 11
7.9289549999999736
 21
458.63487250000003
  0
LINE
  8
_0-0_0
  6
CONTINUOUS
 62
    7
 10
7.6789549999999736
 20
459.05137649999995
 11
7.9289549999999736
 21
458.77738950000003
  0
LINE
  8
_0-0_0
  6
CONTINUOUS
 62
    7
 10
7.9289549999999736
 20
458.77738950000003
 11
17.178954999999974
 21
458.77738950000003
  0
LINE
  8
_0-0_0
  6
CONTINUOUS
 62
    7
 10
7.6789549999999736
 20
458.91291750000005
 11
7.9289549999999736
 21
458.77738950000003
  0
LINE
  8
_0-0_0
  6
CONTINUOUS
 62
    7
 10
7.6789549999999736
 20
459.20896849999997
 11
7.9289549999999736
 21
458.94209250000006
  0
LINE
  8
_0-0_0
  6
CONTINUOUS
 62
    7
 10
7.9289549999999736
 20
458.94209250000006
 11
17.178954999999974
 21
458.94209250000006
  0
LINE
  8
_0-0_0
  6
CONTINUOUS
 62
    7
 10
7.6789549999999736
 20
459.05137649999995
 11
7.9289549999999736
 21
458.94209250000006
  0
LINE
  8
_0-0_0
  6
CONTINUOUS
 62
    7
 10
7.6789549999999736
 20
459.38398749999999
 11
7.9289549999999736
 21
459.12712050000005
  0
LINE
  8
_0-0_0
  6
CONTINUOUS
 62
    7
 10
7.9289549999999736
 20
459.12712050000005
 11
17.178954999999974
 21
459.12712050000005
  0
LINE
  8
_0-0_0
  6
CONTINUOUS
 62
    7
 10
7.6789549999999736
 20
459.20896849999997
 11
7.9289549999999736
 21
459.12712050000005
  0
LINE
  8
_0-0_0
  6
CONTINUOUS
 62
    7
 10
7.6789549999999736
 20
459.57450849999998
 11
7.9289549999999736
 21
459.3304895
  0
LINE
  8
_0-0_0
  6
CONTINUOUS
 62
    7
 10
7.9289549999999736
 20
459.3304895
 11
17.178954999999974
 21
459.3304895
  0
LINE
  8
_0-0_0
  6
CONTINUOUS
 62
    7
 10
7.6789549999999736
 20
459.38398749999999
 11
7.9289549999999736
 21
459.3304895
  0
LINE
  8
_0-0_0
  6
CONTINUOUS
 62
    7
 10
7.6789549999999736
 20
459.77845750000006
 11
7.9289549999999736
 21
459.54994150000005
  0
LINE
  8
_0-0_0
  6
CONTINUOUS
 62
    7
 10
7.9289549999999736
 20
459.54994150000005
 11
17.178954999999974
 21
459.54994150000005
  0
LINE
  8
_0-0_0
  6
CONTINUOUS
 62
    7
 10
7.6789549999999736
 20
459.77845750000006
 11
17.428954999999974
 21
459.77845750000006
  0
LINE
  8
_0-0_0
  6
CONTINUOUS
 62
    7
 10
7.6789549999999736
 20
459.57450849999998
 11
7.9289549999999736
 21
459.54994150000005
  0
LINE
  8
_0-0_0
  6
CONTINUOUS
 62
    7
 10
7.6789549999999736
 20
459.99360650000006
 11
7.9289549999999736
 21
459.78309650000006
  0
LINE
  8
_0-0_0
  6
CONTINUOUS
 62
    7
 10
7.9289549999999736
 20
459.78309650000006
 11
17.178954999999974
 21
459.78309650000006
  0
LINE
  8
_0-0_0
  6
CONTINUOUS
 62
    7
 10
7.6789549999999736
 20
459.99360650000006
 11
17.428954999999974
 21
459.99360650000006
  0
LINE
  8
_0-0_0
  6
CONTINUOUS
 62
    7
 10
7.6789549999999736
 20
459.77845750000006
 11
7.9289549999999736
 21
459.78309650000006
  0
LINE
  8
_0-0_0
  6
CONTINUOUS
 62
    7
 10
7.6789549999999736
 20
460.21760549999999
 11
7.9289549999999736
 21
460.02738950000003
  0
LINE
  8
_0-0_0
  6
CONTINUOUS
 62
    7
 10
7.9289549999999736
 20
460.02738950000003
 11
17.178954999999974
 21
460.02738950000003
  0
LINE
  8
_0-0_0
  6
CONTINUOUS
 62
    7
 10
7.6789549999999736
 20
460.21760549999999
 11
17.428954999999974
 21
460.21760549999999
  0
LINE
  8
_0-0_0
  6
CONTINUOUS
 62
    7
 10
7.6789549999999736
 20
459.99360650000006
 11
7.9289549999999736
 21
460.02738950000003
  0
LINE
  8
_0-0_0
  6
CONTINUOUS
 62
    7
 10
7.6789549999999736
 20
460.44795250000004
 11
7.9289549999999736
 21
460.28016649999995
  0
LINE
  8
_0-0_0
  6
CONTINUOUS
 62
    7
 10
7.9289549999999736
 20
460.28016649999995
 11
17.178954999999974
 21
460.28016649999995
  0
LINE
  8
_0-0_0
  6
CONTINUOUS
 62
    7
 10
7.6789549999999736
 20
460.44795250000004
 11
17.428954999999974
 21
460.44795250000004
  0
LINE
  8
_0-0_0
  6
CONTINUOUS
 62
    7
 10
7.6789549999999736
 20
460.21760549999999
 11
7.9289549999999736
 21
460.28016649999995
  0
LINE
  8
_0-0_0
  6
CONTINUOUS
 62
    7
 10
7.6789549999999736
 20
460.68217449999997
 11
7.9289549999999736
 21
460.53861949999998
  0
LINE
  8
_0-0_0
  6
CONTINUOUS
 62
    7
 10
7.9289549999999736
 20
460.53861949999998
 11
17.178954999999974
 21
460.53861949999998
  0
LINE
  8
_0-0_0
  6
CONTINUOUS
 62
    7
 10
7.6789549999999736
 20
460.68217449999997
 11
17.428954999999974
 21
460.68217449999997
  0
LINE
  8
_0-0_0
  6
CONTINUOUS
 62
    7
 10
7.6789549999999736
 20
460.44795250000004
 11
7.9289549999999736
 21
460.53861949999998
  0
LINE
  8
_0-0_0
  6
CONTINUOUS
 62
    7
 10
7.6789549999999736
 20
460.9177095
 11
7.9289549999999736
 21
460.79994150000005
  0
LINE
  8
_0-0_0
  6
CONTINUOUS
 62
    7
 10
7.9289549999999736
 20
460.79994150000005
 11
17.178954999999974
 21
460.79994150000005
  0
LINE
  8
_0-0_0
  6
CONTINUOUS
 62
    7
 10
7.6789549999999736
 20
460.9177095
 11
17.428954999999974
 21
460.9177095
  0
LINE
  8
_0-0_0
  6
CONTINUOUS
 62
    7
 10
7.6789549999999736
 20
460.68217449999997
 11
7.9289549999999736
 21
460.79994150000005
  0
LINE
  8
_0-0_0
  6
CONTINUOUS
 62
    7
 10
7.6789549999999736
 20
461.15193150000005
 11
7.9289549999999736
 21
461.0612635
  0
LINE
  8
_0-0_0
  6
CONTINUOUS
 62
    7
 10
7.9289549999999736
 20
461.0612635
 11
17.178954999999974
 21
461.0612635
  0
LINE
  8
_0-0_0
  6
CONTINUOUS
 62
    7
 10
7.6789549999999736
 20
461.15193150000005
 11
17.428954999999974
 21
461.15193150000005
  0
LINE
  8
_0-0_0
  6
CONTINUOUS
 62
    7
 10
7.6789549999999736
 20
460.9177095
 11
7.9289549999999736
 21
461.0612635
  0
LINE
  8
_0-0_0
  6
CONTINUOUS
 62
    7
 10
7.6789549999999736
 20
461.38227849999998
 11
7.9289549999999736
 21
461.31971750000002
  0
LINE
  8
_0-0_0
  6
CONTINUOUS
 62
    7
 10
7.9289549999999736
 20
461.31971750000002
 11
17.178954999999974
 21
461.31971750000002
  0
LINE
  8
_0-0_0
  6
CONTINUOUS
 62
    7
 10
7.6789549999999736
 20
461.38227849999998
 11
17.428954999999974
 21
461.38227849999998
  0
LINE
  8
_0-0_0
  6
CONTINUOUS
 62
    7
 10
7.6789549999999736
 20
461.15193150000005
 11
7.9289549999999736
 21
461.31971750000002
  0
LINE
  8
_0-0_0
  6
CONTINUOUS
 62
    7
 10
7.6789549999999736
 20
461.60627750000003
 11
7.9289549999999736
 21
461.57249449999995
  0
LINE
  8
_0-0_0
  6
CONTINUOUS
 62
    7
 10
7.9289549999999736
 20
461.57249449999995
 11
17.178954999999974
 21
461.57249449999995
  0
LINE
  8
_0-0_0
  6
CONTINUOUS
 62
    7
 10
7.6789549999999736
 20
461.60627750000003
 11
17.428954999999974
 21
461.60627750000003
  0
LINE
  8
_0-0_0
  6
CONTINUOUS
 62
    7
 10
7.6789549999999736
 20
461.38227849999998
 11
7.9289549999999736
 21
461.57249449999995
  0
LINE
  8
_0-0_0
  6
CONTINUOUS
 62
    7
 10
7.6789549999999736
 20
461.82142650000003
 11
7.9289549999999736
 21
461.81678750000003
  0
LINE
  8
_0-0_0
  6
CONTINUOUS
 62
    7
 10
7.9289549999999736
 20
461.81678750000003
 11
17.178954999999974
 21
461.81678750000003
  0
LINE
  8
_0-0_0
  6
CONTINUOUS
 62
    7
 10
7.6789549999999736
 20
461.60627750000003
 11
7.9289549999999736
 21
461.81678750000003
  0
LINE
  8
_0-0_0
  6
CONTINUOUS
 62
    7
 10
7.4289549999999736
 20
479.39994750000005
 11
7.4289549999999736
 21
475.6447905
  0
LINE
  8
_0-0_0
  6
CONTINUOUS
 62
    7
 10
7.4289549999999736
 20
475.6447905
 11
7.4289549999999736
 21
475.39994750000005
  0
LINE
  8
_0-0_0
  6
CONTINUOUS
 62
    7
 10
7.4289549999999736
 20
462.79994150000005
 11
7.4289549999999736
 21
459.04478449999999
  0
LINE
  8
_0-0_0
  6
CONTINUOUS
 62
    7
 10
7.4289549999999736
 20
459.04478449999999
 11
7.4289549999999736
 21
458.79994150000005
  0
LINE
  8
_0-0_0
  6
CONTINUOUS
 62
    7
 10
21.028960999999981
 20
474.09992950000003
 11
21.028960999999981
 21
471.59992950000003
  0
LINE
  8
_0-0_0
  6
CONTINUOUS
 62
    7
 10
21.028960999999981
 20
471.59992950000003
 11
21.028960999999981
 21
464.09992950000003
  0
LINE
  8
_0-0_0
  6
CONTINUOUS
 62
    7
 10
20.228972999999996
 20
473.63807650000001
 11
20.228972999999996
 21
471.36900349999996
  0
LINE
  8
_0-0_0
  6
CONTINUOUS
 62
    7
 10
20.228972999999996
 20
471.36900349999996
 11
20.228972999999996
 21
464.56181349999997
  0
LINE
  8
_0-0_0
  6
CONTINUOUS
 62
    7
 10
-37.771042000000023
 20
473.09992950000003
 11
-37.771042000000023
 21
473.09858650000001
  0
LINE
  8
_0-0_0
  6
CONTINUOUS
 62
    7
 10
-37.771042000000023
 20
473.09858650000001
 11
-37.771042000000023
 21
465.09992950000003
  0
LINE
  8
_0-0_0
  6
CONTINUOUS
 62
    7
 10
43.428954999999974
 20
479.64994750000005
 11
17.428954999999974
 21
479.64994750000005
  0
LINE
  8
_0-0_0
  6
CONTINUOUS
 62
    7
 10
43.428954999999974
 20
475.14994750000005
 11
17.428954999999974
 21
475.14994750000005
  0
LINE
  8
_0-0_0
  6
CONTINUOUS
 62
    7
 10
22.228942999999958
 20
463.04994150000005
 11
17.428954999999974
 21
463.04994150000005
  0
LINE
  8
_0-0_0
  6
CONTINUOUS
 62
    7
 10
37.678924999999992
 20
458.54994150000005
 11
17.428954999999974
 21
458.54994150000005
  0
LINE
  8
_0-0_0
  6
CONTINUOUS
 62
    7
 10
17.428954999999974
 20
479.64994750000005
 11
17.178954999999974
 21
479.89994750000005
  0
LINE
  8
_0-0_0
  6
CONTINUOUS
 62
    7
 10
17.428954999999974
 20
475.14994750000005
 11
17.178954999999974
 21
474.89994750000005
  0
LINE
  8
_0-0_0
  6
CONTINUOUS
 62
    7
 10
17.428954999999974
 20
463.04994150000005
 11
17.178954999999974
 21
463.29994150000005
  0
LINE
  8
_0-0_0
  6
CONTINUOUS
 62
    7
 10
17.428954999999974
 20
458.54994150000005
 11
17.178954999999974
 21
458.29994150000005
  0
LINE
  8
_0-0_0
  6
CONTINUOUS
 62
    7
 10
21.428954999999974
 20
474.34992950000003
 11
22.228957999999977
 21
475.14994750000005
  0
LINE
  8
_0-0_0
  6
CONTINUOUS
 62
    7
 10
21.428954999999974
 20
463.84992950000003
 11
22.678954999999974
 21
462.59992950000003
  0
LINE
  8
_0-0_0
  6
CONTINUOUS
 62
    7
 10
7.4289549999999736
 20
479.39994750000005
 11
7.9288030000000163
 21
479.89979549999998
  0
LINE
  8
_0-0_0
  6
CONTINUOUS
 62
    7
 10
7.4289549999999736
 20
475.39994750000005
 11
7.9288030000000163
 21
474.90010050000001
  0
LINE
  8
_0-0_0
  6
CONTINUOUS
 62
    7
 10
7.4289549999999736
 20
462.79994150000005
 11
7.9288030000000163
 21
463.29978949999997
  0
LINE
  8
_0-0_0
  6
CONTINUOUS
 62
    7
 10
7.4289549999999736
 20
458.79994150000005
 11
7.9288030000000163
 21
458.3000945
  0
LINE
  8
_0-0_0
  6
CONTINUOUS
 62
    7
 10
21.428954999999974
 20
474.09992950000003
 11
21.028960999999981
 21
474.09992950000003
  0
LINE
  8
_0-0_0
  6
CONTINUOUS
 62
    7
 10
21.428954999999974
 20
464.09992950000003
 11
21.028960999999981
 21
464.09992950000003
  0
LINE
  8
_0-0_0
  6
CONTINUOUS
 62
    7
 10
20.228972999999996
 20
473.63807650000001
 11
21.028960999999981
 21
474.09992950000003
  0
LINE
  8
_0-0_0
  6
CONTINUOUS
 62
    7
 10
20.228972999999996
 20
464.56181349999997
 11
21.028960999999981
 21
464.09992950000003
  0
LINE
  8
_0-0_0
  6
CONTINUOUS
 62
    7
 10
20.228972999999996
 20
473.09992950000003
 11
-37.771042000000023
 21
473.09992950000003
  0
LINE
  8
_0-0_0
  6
CONTINUOUS
 62
    7
 10
20.228972999999996
 20
465.09992950000003
 11
-37.771042000000023
 21
465.09992950000003
  0
ARC
  8
_0-0_0
  6
CONTINUOUS
 62
    7
 10
36.928954999999974
 20
502.60002150000003
 40
8
 50
215.099627
 51
324.90037799999999
  0
LINE
  8
_0-0_0
  6
CONTINUOUS
 62
    7
 10
27.928954999999974
 20
498.00001550000002
 11
30.383728000000019
 21
498.00001550000002
  0
LINE
  8
_0-0_0
  6
CONTINUOUS
 62
    7
 10
27.928954999999974
 20
484.80000250000001
 11
27.928954999999974
 21
498.00001550000002
  0
LINE
  8
_0-0_0
  6
CONTINUOUS
 62
    7
 10
980.92889400000001
 20
484.80000250000001
 11
980.92889400000001
 21
498.00001550000002
  0
LINE
  8
_0-0_0
  6
CONTINUOUS
 62
    7
 10
978.47418200000004
 20
498.00001550000002
 11
980.92889400000001
 21
498.00001550000002
  0
ARC
  8
_0-0_0
  6
CONTINUOUS
 62
    7
 10
971.92889400000001
 20
502.60002150000003
 40
8
 50
215.099627
 51
324.90037799999999
  0
LINE
  8
_0-0_0
  6
CONTINUOUS
 62
    7
 10
43.474181999999985
 20
498.00001550000002
 11
965.38372799999991
 21
498.00001550000002
  0
LINE
  8
_0-0_0
  6
CONTINUOUS
 62
    7
 10
43.474181999999985
 20
498.00001550000002
 11
43.563171000000011
 21
498.12931849999995
  0
LINE
  8
_0-0_0
  6
CONTINUOUS
 62
    7
 10
965.38372799999991
 20
498.00001550000002
 11
965.29473900000005
 21
498.12931849999995
  0
LINE
  8
_0-0_0
  6
CONTINUOUS
 62
    7
 10
978.65631100000007
 20
498.2707365
 11
978.73773199999994
 21
498.40000950000001
  0
ARC
  8
_0-0_0
  6
CONTINUOUS
 62
    7
 10
971.92889400000001
 20
502.60002150000003
 40
8
 50
328.33175599999993
 51
334.05550899999992
  0
LINE
  8
_0-0_0
  6
CONTINUOUS
 62
    7
 10
979.12261999999998
 20
499.10002150000003
 11
979.21661400000005
 21
499.30000250000001
  0
LINE
  8
_0-0_0
  6
CONTINUOUS
 62
    7
 10
979.21661400000005
 20
499.30000250000001
 11
979.30389400000001
 21
499.50001550000002
  0
ARC
  8
_0-0_0
  6
CONTINUOUS
 62
    7
 10
971.92889400000001
 20
502.60002150000003
 40
8
 50
337.20097500000003
 51
342.54240199999998
  0
LINE
  8
_0-0_0
  6
CONTINUOUS
 62
    7
 10
979.56048599999997
 20
500.20002750000003
 11
979.62042200000008
 21
500.40000950000001
  0
LINE
  8
_0-0_0
  6
CONTINUOUS
 62
    7
 10
979.62042200000008
 20
500.40000950000001
 11
979.67486599999995
 21
500.60002150000003
  0
ARC
  8
_0-0_0
  6
CONTINUOUS
 62
    7
 10
971.92889400000001
 20
502.60002150000003
 40
8
 50
345.52249499999999
 51
350.64797900000002
  0
LINE
  8
_0-0_0
  6
CONTINUOUS
 62
    7
 10
979.82257100000004
 20
501.30000250000001
 11
979.85296600000004
 21
501.50001550000002
  0
LINE
  8
_0-0_0
  6
CONTINUOUS
 62
    7
 10
979.85296600000004
 20
501.50001550000002
 11
979.8781130000001
 21
501.70002750000003
  0
ARC
  8
_0-0_0
  6
CONTINUOUS
 62
    7
 10
971.92889400000001
 20
502.60002150000003
 40
8
 50
353.54056400000002
 51
358.56744600000002
  0
LINE
  8
_0-0_0
  6
CONTINUOUS
 62
    7
 10
979.92645299999992
 20
502.40000950000001
 11
979.92889400000001
 21
502.60002150000003
  0
LINE
  8
_0-0_0
  6
CONTINUOUS
 62
    7
 10
963.93145799999991
 20
502.40000950000001
 11
963.92889400000001
 21
502.60002150000003
  0
ARC
  8
_0-0_0
  6
CONTINUOUS
 62
    7
 10
971.92889400000001
 20
502.60002150000003
 40
8
 50
181.432545
 51
186.45945499999999
  0
LINE
  8
_0-0_0
  6
CONTINUOUS
 62
    7
 10
964.00494399999991
 20
501.50001550000002
 11
963.97967499999993
 21
501.70002750000003
  0
LINE
  8
_0-0_0
  6
CONTINUOUS
 62
    7
 10
964.03521699999999
 20
501.30000250000001
 11
964.00494399999991
 21
501.50001550000002
  0
ARC
  8
_0-0_0
  6
CONTINUOUS
 62
    7
 10
971.92889400000001
 20
502.60002150000003
 40
8
 50
189.35203999999999
 51
194.47751
  0
LINE
  8
_0-0_0
  6
CONTINUOUS
 62
    7
 10
964.23736599999995
 20
500.40000950000001
 11
964.18292200000008
 21
500.60002150000003
  0
LINE
  8
_0-0_0
  6
CONTINUOUS
 62
    7
 10
964.29742399999998
 20
500.20002750000003
 11
964.23736599999995
 21
500.40000950000001
  0
ARC
  8
_0-0_0
  6
CONTINUOUS
 62
    7
 10
971.92889400000001
 20
502.60002150000003
 40
8
 50
197.45760300000001
 51
202.79902999999999
  0
LINE
  8
_0-0_0
  6
CONTINUOUS
 62
    7
 10
964.6412959999999
 20
499.30000250000001
 11
964.55401599999993
 21
499.50001550000002
  0
LINE
  8
_0-0_0
  6
CONTINUOUS
 62
    7
 10
964.73516899999993
 20
499.10002150000003
 11
964.6412959999999
 21
499.30000250000001
  0
ARC
  8
_0-0_0
  6
CONTINUOUS
 62
    7
 10
971.92889400000001
 20
502.60002150000003
 40
8
 50
205.94448199999999
 51
211.66823500000001
  0
LINE
  8
_0-0_0
  6
CONTINUOUS
 62
    7
 10
965.20159899999987
 20
498.2707365
 11
965.12005600000009
 21
498.40000950000001
  0
LINE
  8
_0-0_0
  6
CONTINUOUS
 62
    7
 10
965.20159899999987
 20
498.2707365
 11
965.29473900000005
 21
498.12931849999995
  0
LINE
  8
_0-0_0
  6
CONTINUOUS
 62
    7
 10
978.47418200000004
 20
498.00001550000002
 11
978.5631709999999
 21
498.12931849999995
  0
LINE
  8
_0-0_0
  6
CONTINUOUS
 62
    7
 10
978.65631100000007
 20
498.2707365
 11
978.5631709999999
 21
498.12931849999995
  0
LINE
  8
_0-0_0
  6
CONTINUOUS
 62
    7
 10
980.92889400000001
 20
498.12931849999995
 11
980.92889400000001
 21
498.00001550000002
  0
LINE
  8
_0-0_0
  6
CONTINUOUS
 62
    7
 10
980.92889400000001
 20
506.92930550000005
 11
980.92889400000001
 21
507.07072449999998
  0
LINE
  8
_0-0_0
  6
CONTINUOUS
 62
    7
 10
980.92889400000001
 20
506.92930550000005
 11
980.92889400000001
 21
506.80000250000001
  0
LINE
  8
_0-0_0
  6
CONTINUOUS
 62
    7
 10
980.92889400000001
 20
506.10002150000003
 11
980.92889400000001
 21
506.80000250000001
  0
LINE
  8
_0-0_0
  6
CONTINUOUS
 62
    7
 10
980.92889400000001
 20
505.90000950000001
 11
980.92889400000001
 21
506.10002150000003
  0
LINE
  8
_0-0_0
  6
CONTINUOUS
 62
    7
 10
980.92889400000001
 20
505.90000950000001
 11
980.92889400000001
 21
505.70002750000003
  0
LINE
  8
_0-0_0
  6
CONTINUOUS
 62
    7
 10
980.92889400000001
 20
505.00001550000002
 11
980.92889400000001
 21
505.70002750000003
  0
LINE
  8
_0-0_0
  6
CONTINUOUS
 62
    7
 10
980.92889400000001
 20
504.80000250000001
 11
980.92889400000001
 21
505.00001550000002
  0
LINE
  8
_0-0_0
  6
CONTINUOUS
 62
    7
 10
980.92889400000001
 20
504.80000250000001
 11
980.92889400000001
 21
504.60002150000003
  0
LINE
  8
_0-0_0
  6
CONTINUOUS
 62
    7
 10
980.92889400000001
 20
503.90000950000001
 11
980.92889400000001
 21
504.60002150000003
  0
LINE
  8
_0-0_0
  6
CONTINUOUS
 62
    7
 10
980.92889400000001
 20
503.70002750000003
 11
980.92889400000001
 21
503.90000950000001
  0
LINE
  8
_0-0_0
  6
CONTINUOUS
 62
    7
 10
980.92889400000001
 20
503.70002750000003
 11
980.92889400000001
 21
503.50001550000002
  0
LINE
  8
_0-0_0
  6
CONTINUOUS
 62
    7
 10
980.92889400000001
 20
502.80000250000001
 11
980.92889400000001
 21
503.50001550000002
  0
LINE
  8
_0-0_0
  6
CONTINUOUS
 62
    7
 10
980.92889400000001
 20
502.60002150000003
 11
980.92889400000001
 21
502.80000250000001
  0
LINE
  8
_0-0_0
  6
CONTINUOUS
 62
    7
 10
980.92889400000001
 20
502.60002150000003
 11
980.92889400000001
 21
502.40000950000001
  0
LINE
  8
_0-0_0
  6
CONTINUOUS
 62
    7
 10
980.92889400000001
 20
501.70002750000003
 11
980.92889400000001
 21
502.40000950000001
  0
LINE
  8
_0-0_0
  6
CONTINUOUS
 62
    7
 10
980.92889400000001
 20
501.50001550000002
 11
980.92889400000001
 21
501.70002750000003
  0
LINE
  8
_0-0_0
  6
CONTINUOUS
 62
    7
 10
980.92889400000001
 20
501.50001550000002
 11
980.92889400000001
 21
501.30000250000001
  0
LINE
  8
_0-0_0
  6
CONTINUOUS
 62
    7
 10
980.92889400000001
 20
500.60002150000003
 11
980.92889400000001
 21
501.30000250000001
  0
LINE
  8
_0-0_0
  6
CONTINUOUS
 62
    7
 10
980.92889400000001
 20
500.40000950000001
 11
980.92889400000001
 21
500.60002150000003
  0
LINE
  8
_0-0_0
  6
CONTINUOUS
 62
    7
 10
980.92889400000001
 20
500.40000950000001
 11
980.92889400000001
 21
500.20002750000003
  0
LINE
  8
_0-0_0
  6
CONTINUOUS
 62
    7
 10
980.92889400000001
 20
499.50001550000002
 11
980.92889400000001
 21
500.20002750000003
  0
LINE
  8
_0-0_0
  6
CONTINUOUS
 62
    7
 10
980.92889400000001
 20
499.30000250000001
 11
980.92889400000001
 21
499.50001550000002
  0
LINE
  8
_0-0_0
  6
CONTINUOUS
 62
    7
 10
980.92889400000001
 20
499.30000250000001
 11
980.92889400000001
 21
499.10002150000003
  0
LINE
  8
_0-0_0
  6
CONTINUOUS
 62
    7
 10
980.92889400000001
 20
498.40000950000001
 11
980.92889400000001
 21
499.10002150000003
  0
LINE
  8
_0-0_0
  6
CONTINUOUS
 62
    7
 10
980.92889400000001
 20
498.2707365
 11
980.92889400000001
 21
498.40000950000001
  0
LINE
  8
_0-0_0
  6
CONTINUOUS
 62
    7
 10
980.92889400000001
 20
498.12931849999995
 11
980.92889400000001
 21
498.2707365
  0
LINE
  8
_0-0_0
  6
CONTINUOUS
 62
    7
 10
980.92889400000001
 20
484.30000250000001
 11
980.92889400000001
 21
484.80000250000001
  0
LINE
  8
_0-0_0
  6
CONTINUOUS
 62
    7
 10
980.92889400000001
 20
512.80000250000001
 11
980.92889400000001
 21
512.20603949999997
  0
LINE
  8
_0-0_0
  6
CONTINUOUS
 62
    7
 10
980.92889400000001
 20
507.20002750000003
 11
980.92889400000001
 21
512.20603949999997
  0
LINE
  8
_0-0_0
  6
CONTINUOUS
 62
    7
 10
980.92889400000001
 20
507.07072449999998
 11
980.92889400000001
 21
507.20002750000003
  0
LINE
  8
_0-0_0
  6
CONTINUOUS
 62
    7
 10
27.928954999999974
 20
484.30000250000001
 11
27.928954999999974
 21
484.80000250000001
  0
LINE
  8
_0-0_0
  6
CONTINUOUS
 62
    7
 10
27.928954999999974
 20
484.30000250000001
 11
980.92889400000001
 21
484.30000250000001
  0
LINE
  8
_0-0_0
  6
CONTINUOUS
 62
    7
 10
27.928954999999974
 20
498.12931849999995
 11
27.928954999999974
 21
498.2707365
  0
LINE
  8
_0-0_0
  6
CONTINUOUS
 62
    7
 10
27.928954999999974
 20
498.12931849999995
 11
27.928954999999974
 21
498.00001550000002
  0
LINE
  8
_0-0_0
  6
CONTINUOUS
 62
    7
 10
27.928954999999974
 20
512.80000250000001
 11
27.928954999999974
 21
512.20603949999997
  0
LINE
  8
_0-0_0
  6
CONTINUOUS
 62
    7
 10
27.928954999999974
 20
507.20002750000003
 11
27.928954999999974
 21
512.20603949999997
  0
LINE
  8
_0-0_0
  6
CONTINUOUS
 62
    7
 10
27.928954999999974
 20
507.07072449999998
 11
27.928954999999974
 21
507.20002750000003
  0
LINE
  8
_0-0_0
  6
CONTINUOUS
 62
    7
 10
27.928954999999974
 20
506.92930550000005
 11
27.928954999999974
 21
507.07072449999998
  0
LINE
  8
_0-0_0
  6
CONTINUOUS
 62
    7
 10
27.928954999999974
 20
506.92930550000005
 11
27.928954999999974
 21
506.80000250000001
  0
LINE
  8
_0-0_0
  6
CONTINUOUS
 62
    7
 10
27.928954999999974
 20
506.10002150000003
 11
27.928954999999974
 21
506.80000250000001
  0
LINE
  8
_0-0_0
  6
CONTINUOUS
 62
    7
 10
27.928954999999974
 20
505.97071849999998
 11
27.928954999999974
 21
506.10002150000003
  0
LINE
  8
_0-0_0
  6
CONTINUOUS
 62
    7
 10
27.928954999999974
 20
505.82929950000005
 11
27.928954999999974
 21
505.97071849999998
  0
LINE
  8
_0-0_0
  6
CONTINUOUS
 62
    7
 10
27.928954999999974
 20
505.82929950000005
 11
27.928954999999974
 21
505.70002750000003
  0
LINE
  8
_0-0_0
  6
CONTINUOUS
 62
    7
 10
27.928954999999974
 20
505.00001550000002
 11
27.928954999999974
 21
505.70002750000003
  0
LINE
  8
_0-0_0
  6
CONTINUOUS
 62
    7
 10
27.928954999999974
 20
504.87074250000001
 11
27.928954999999974
 21
505.00001550000002
  0
LINE
  8
_0-0_0
  6
CONTINUOUS
 62
    7
 10
27.928954999999974
 20
504.72929350000004
 11
27.928954999999974
 21
504.87074250000001
  0
LINE
  8
_0-0_0
  6
CONTINUOUS
 62
    7
 10
27.928954999999974
 20
504.72929350000004
 11
27.928954999999974
 21
504.60002150000003
  0
LINE
  8
_0-0_0
  6
CONTINUOUS
 62
    7
 10
27.928954999999974
 20
503.90000950000001
 11
27.928954999999974
 21
504.60002150000003
  0
LINE
  8
_0-0_0
  6
CONTINUOUS
 62
    7
 10
27.928954999999974
 20
503.7707365
 11
27.928954999999974
 21
503.90000950000001
  0
LINE
  8
_0-0_0
  6
CONTINUOUS
 62
    7
 10
27.928954999999974
 20
503.62931849999995
 11
27.928954999999974
 21
503.7707365
  0
LINE
  8
_0-0_0
  6
CONTINUOUS
 62
    7
 10
27.928954999999974
 20
503.62931849999995
 11
27.928954999999974
 21
503.50001550000002
  0
LINE
  8
_0-0_0
  6
CONTINUOUS
 62
    7
 10
27.928954999999974
 20
502.80000250000001
 11
27.928954999999974
 21
503.50001550000002
  0
LINE
  8
_0-0_0
  6
CONTINUOUS
 62
    7
 10
27.928954999999974
 20
502.67073049999999
 11
27.928954999999974
 21
502.80000250000001
  0
LINE
  8
_0-0_0
  6
CONTINUOUS
 62
    7
 10
27.928954999999974
 20
502.52931149999995
 11
27.928954999999974
 21
502.67073049999999
  0
LINE
  8
_0-0_0
  6
CONTINUOUS
 62
    7
 10
27.928954999999974
 20
502.52931149999995
 11
27.928954999999974
 21
502.40000950000001
  0
LINE
  8
_0-0_0
  6
CONTINUOUS
 62
    7
 10
27.928954999999974
 20
501.70002750000003
 11
27.928954999999974
 21
502.40000950000001
  0
LINE
  8
_0-0_0
  6
CONTINUOUS
 62
    7
 10
27.928954999999974
 20
501.57072449999998
 11
27.928954999999974
 21
501.70002750000003
  0
LINE
  8
_0-0_0
  6
CONTINUOUS
 62
    7
 10
27.928954999999974
 20
501.42930550000005
 11
27.928954999999974
 21
501.57072449999998
  0
LINE
  8
_0-0_0
  6
CONTINUOUS
 62
    7
 10
27.928954999999974
 20
501.42930550000005
 11
27.928954999999974
 21
501.30000250000001
  0
LINE
  8
_0-0_0
  6
CONTINUOUS
 62
    7
 10
27.928954999999974
 20
500.60002150000003
 11
27.928954999999974
 21
501.30000250000001
  0
LINE
  8
_0-0_0
  6
CONTINUOUS
 62
    7
 10
27.928954999999974
 20
500.47071849999998
 11
27.928954999999974
 21
500.60002150000003
  0
LINE
  8
_0-0_0
  6
CONTINUOUS
 62
    7
 10
27.928954999999974
 20
500.32929950000005
 11
27.928954999999974
 21
500.47071849999998
  0
LINE
  8
_0-0_0
  6
CONTINUOUS
 62
    7
 10
27.928954999999974
 20
500.32929950000005
 11
27.928954999999974
 21
500.20002750000003
  0
LINE
  8
_0-0_0
  6
CONTINUOUS
 62
    7
 10
27.928954999999974
 20
499.50001550000002
 11
27.928954999999974
 21
500.20002750000003
  0
LINE
  8
_0-0_0
  6
CONTINUOUS
 62
    7
 10
27.928954999999974
 20
499.37074250000001
 11
27.928954999999974
 21
499.50001550000002
  0
LINE
  8
_0-0_0
  6
CONTINUOUS
 62
    7
 10
27.928954999999974
 20
499.22929350000004
 11
27.928954999999974
 21
499.37074250000001
  0
LINE
  8
_0-0_0
  6
CONTINUOUS
 62
    7
 10
27.928954999999974
 20
499.22929350000004
 11
27.928954999999974
 21
499.10002150000003
  0
LINE
  8
_0-0_0
  6
CONTINUOUS
 62
    7
 10
27.928954999999974
 20
498.40000950000001
 11
27.928954999999974
 21
499.10002150000003
  0
LINE
  8
_0-0_0
  6
CONTINUOUS
 62
    7
 10
27.928954999999974
 20
498.2707365
 11
27.928954999999974
 21
498.40000950000001
  0
LINE
  8
_0-0_0
  6
CONTINUOUS
 62
    7
 10
30.383728000000019
 20
498.00001550000002
 11
30.294754000000012
 21
498.12931849999995
  0
LINE
  8
_0-0_0
  6
CONTINUOUS
 62
    7
 10
43.65631099999996
 20
498.2707365
 11
43.563171000000011
 21
498.12931849999995
  0
LINE
  8
_0-0_0
  6
CONTINUOUS
 62
    7
 10
43.65631099999996
 20
498.2707365
 11
43.737777999999992
 21
498.40000950000001
  0
ARC
  8
_0-0_0
  6
CONTINUOUS
 62
    7
 10
36.928954999999974
 20
502.60002150000003
 40
8
 50
328.33175599999993
 51
334.05550899999992
  0
LINE
  8
_0-0_0
  6
CONTINUOUS
 62
    7
 10
44.122710999999981
 20
499.10002150000003
 11
44.216613999999993
 21
499.30000250000001
  0
LINE
  8
_0-0_0
  6
CONTINUOUS
 62
    7
 10
44.216613999999993
 20
499.30000250000001
 11
44.303924999999992
 21
499.50001550000002
  0
ARC
  8
_0-0_0
  6
CONTINUOUS
 62
    7
 10
36.928954999999974
 20
502.60002150000003
 40
8
 50
337.20097500000003
 51
342.54240199999998
  0
LINE
  8
_0-0_0
  6
CONTINUOUS
 62
    7
 10
44.560485999999969
 20
500.20002750000003
 11
44.620513999999957
 21
500.40000950000001
  0
LINE
  8
_0-0_0
  6
CONTINUOUS
 62
    7
 10
44.620513999999957
 20
500.40000950000001
 11
44.674927000000025
 21
500.60002150000003
  0
ARC
  8
_0-0_0
  6
CONTINUOUS
 62
    7
 10
36.928954999999974
 20
502.60002150000003
 40
8
 50
345.52249499999999
 51
350.64797900000002
  0
LINE
  8
_0-0_0
  6
CONTINUOUS
 62
    7
 10
44.822631999999999
 20
501.30000250000001
 11
44.852981999999997
 21
501.50001550000002
  0
LINE
  8
_0-0_0
  6
CONTINUOUS
 62
    7
 10
44.852981999999997
 20
501.50001550000002
 11
44.878173999999944
 21
501.70002750000003
  0
ARC
  8
_0-0_0
  6
CONTINUOUS
 62
    7
 10
36.928954999999974
 20
502.60002150000003
 40
8
 50
353.54056400000002
 51
358.56744600000002
  0
LINE
  8
_0-0_0
  6
CONTINUOUS
 62
    7
 10
44.926468
 20
502.40000950000001
 11
44.928969999999993
 21
502.60002150000003
  0
LINE
  8
_0-0_0
  6
CONTINUOUS
 62
    7
 10
28.929275999999959
 20
502.52931149999995
 11
28.928954999999974
 21
502.60002150000003
  0
LINE
  8
_0-0_0
  6
CONTINUOUS
 62
    7
 10
28.931458000000021
 20
502.40000950000001
 11
28.929275999999959
 21
502.52931149999995
  0
ARC
  8
_0-0_0
  6
CONTINUOUS
 62
    7
 10
36.928954999999974
 20
502.60002150000003
 40
8
 50
181.432545
 51
186.45945499999999
  0
LINE
  8
_0-0_0
  6
CONTINUOUS
 62
    7
 10
28.995452999999998
 20
501.57072449999998
 11
28.979751999999962
 21
501.70002750000003
  0
LINE
  8
_0-0_0
  6
CONTINUOUS
 62
    7
 10
28.995452999999998
 20
501.57072449999998
 11
29.015076000000022
 21
501.42930550000005
  0
LINE
  8
_0-0_0
  6
CONTINUOUS
 62
    7
 10
29.035294000000022
 20
501.30000250000001
 11
29.015076000000022
 21
501.42930550000005
  0
ARC
  8
_0-0_0
  6
CONTINUOUS
 62
    7
 10
36.928954999999974
 20
502.60002150000003
 40
8
 50
189.35203999999999
 51
194.47751
  0
LINE
  8
_0-0_0
  6
CONTINUOUS
 62
    7
 10
29.217529000000013
 20
500.47071849999998
 11
29.182998999999995
 21
500.60002150000003
  0
LINE
  8
_0-0_0
  6
CONTINUOUS
 62
    7
 10
29.217529000000013
 20
500.47071849999998
 11
29.257995999999991
 21
500.32929950000005
  0
LINE
  8
_0-0_0
  6
CONTINUOUS
 62
    7
 10
29.297455000000014
 20
500.20002750000003
 11
29.257995999999991
 21
500.32929950000005
  0
ARC
  8
_0-0_0
  6
CONTINUOUS
 62
    7
 10
36.928954999999974
 20
502.60002150000003
 40
8
 50
197.45760300000001
 51
202.79902999999999
  0
LINE
  8
_0-0_0
  6
CONTINUOUS
 62
    7
 10
29.609694999999988
 20
499.37074250000001
 11
29.55401599999999
 21
499.50001550000002
  0
LINE
  8
_0-0_0
  6
CONTINUOUS
 62
    7
 10
29.609694999999988
 20
499.37074250000001
 11
29.67373699999996
 21
499.22929350000004
  0
LINE
  8
_0-0_0
  6
CONTINUOUS
 62
    7
 10
29.735213999999985
 20
499.10002150000003
 11
29.67373699999996
 21
499.22929350000004
  0
ARC
  8
_0-0_0
  6
CONTINUOUS
 62
    7
 10
36.928954999999974
 20
502.60002150000003
 40
8
 50
205.94448199999999
 51
211.66823500000001
  0
LINE
  8
_0-0_0
  6
CONTINUOUS
 62
    7
 10
30.20161399999995
 20
498.2707365
 11
30.120147999999972
 21
498.40000950000001
  0
LINE
  8
_0-0_0
  6
CONTINUOUS
 62
    7
 10
30.20161399999995
 20
498.2707365
 11
30.294754000000012
 21
498.12931849999995
  0
LINE
  8
_0-0_0
  6
CONTINUOUS
 62
    7
 10
914.92889400000001
 20
490.30000250000001
 11
921.92889400000001
 21
490.30000250000001
  0
ARC
  8
_0-0_0
  6
CONTINUOUS
 62
    7
 10
914.92889400000001
 20
489.80000250000001
 40
0.5
 50
90.000003000000007
 51
180.00000900000001
  0
LINE
  8
_0-0_0
  6
CONTINUOUS
 62
    7
 10
914.42889400000001
 20
489.80000250000001
 11
914.42889400000001
 21
485.80000250000001
  0
ARC
  8
_0-0_0
  6
CONTINUOUS
 62
    7
 10
914.92889400000001
 20
485.80000250000001
 40
0.5
 50
180.00000900000003
 51
269.99999700000001
  0
LINE
  8
_0-0_0
  6
CONTINUOUS
 62
    7
 10
921.92889400000001
 20
485.30000250000001
 11
914.92889400000001
 21
485.30000250000001
  0
ARC
  8
_0-0_0
  6
CONTINUOUS
 62
    7
 10
921.92889400000001
 20
485.80000250000001
 40
0.5
 50
269.99999700000001
 51
0
  0
LINE
  8
_0-0_0
  6
CONTINUOUS
 62
    7
 10
922.42889400000001
 20
485.80000250000001
 11
922.42889400000001
 21
489.80000250000001
  0
ARC
  8
_0-0_0
  6
CONTINUOUS
 62
    7
 10
921.92889400000001
 20
489.80000250000001
 40
0.5
 50
0
 51
90.000003000000007
  0
ARC
  8
_0-0_0
  6
CONTINUOUS
 62
    7
 10
94.928954999999974
 20
489.80000250000001
 40
0.5
 50
90.000003000000007
 51
180.00000900000001
  0
LINE
  8
_0-0_0
  6
CONTINUOUS
 62
    7
 10
94.428954999999974
 20
489.80000250000001
 11
94.428954999999974
 21
485.80000250000001
  0
ARC
  8
_0-0_0
  6
CONTINUOUS
 62
    7
 10
94.928954999999974
 20
485.80000250000001
 40
0.5
 50
180.00000900000003
 51
269.99999700000001
  0
LINE
  8
_0-0_0
  6
CONTINUOUS
 62
    7
 10
101.92895499999997
 20
485.30000250000001
 11
94.928954999999974
 21
485.30000250000001
  0
ARC
  8
_0-0_0
  6
CONTINUOUS
 62
    7
 10
101.92895499999997
 20
485.80000250000001
 40
0.5
 50
269.99999700000001
 51
0
  0
LINE
  8
_0-0_0
  6
CONTINUOUS
 62
    7
 10
102.42895499999997
 20
485.80000250000001
 11
102.42895499999997
 21
489.80000250000001
  0
ARC
  8
_0-0_0
  6
CONTINUOUS
 62
    7
 10
101.92895499999997
 20
489.80000250000001
 40
0.5
 50
0
 51
90.000003000000007
  0
LINE
  8
_0-0_0
  6
CONTINUOUS
 62
    7
 10
94.928954999999974
 20
490.30000250000001
 11
101.92895499999997
 21
490.30000250000001
  0
LINE
  8
_0-0_0
  6
CONTINUOUS
 62
    7
 10
43.737777999999992
 20
498.40000950000001
 11
965.12005600000009
 21
498.40000950000001
  0
LINE
  8
_0-0_0
  6
CONTINUOUS
 62
    7
 10
44.122710999999981
 20
499.10002150000003
 11
964.73516899999993
 21
499.10002150000003
  0
LINE
  8
_0-0_0
  6
CONTINUOUS
 62
    7
 10
44.216613999999993
 20
499.30000250000001
 11
964.6412959999999
 21
499.30000250000001
  0
LINE
  8
_0-0_0
  6
CONTINUOUS
 62
    7
 10
44.303924999999992
 20
499.50001550000002
 11
964.55401599999993
 21
499.50001550000002
  0
LINE
  8
_0-0_0
  6
CONTINUOUS
 62
    7
 10
44.560485999999969
 20
500.20002750000003
 11
964.29742399999998
 21
500.20002750000003
  0
LINE
  8
_0-0_0
  6
CONTINUOUS
 62
    7
 10
44.620513999999957
 20
500.40000950000001
 11
964.23736599999995
 21
500.40000950000001
  0
LINE
  8
_0-0_0
  6
CONTINUOUS
 62
    7
 10
44.674927000000025
 20
500.60002150000003
 11
964.18292200000008
 21
500.60002150000003
  0
LINE
  8
_0-0_0
  6
CONTINUOUS
 62
    7
 10
44.822631999999999
 20
501.30000250000001
 11
964.03521699999999
 21
501.30000250000001
  0
LINE
  8
_0-0_0
  6
CONTINUOUS
 62
    7
 10
44.852981999999997
 20
501.50001550000002
 11
964.00494399999991
 21
501.50001550000002
  0
LINE
  8
_0-0_0
  6
CONTINUOUS
 62
    7
 10
44.878173999999944
 20
501.70002750000003
 11
963.97967499999993
 21
501.70002750000003
  0
LINE
  8
_0-0_0
  6
CONTINUOUS
 62
    7
 10
44.926468
 20
502.40000950000001
 11
963.93145799999991
 21
502.40000950000001
  0
LINE
  8
_0-0_0
  6
CONTINUOUS
 62
    7
 10
44.928969999999993
 20
502.60002150000003
 11
963.92889400000001
 21
502.60002150000003
  0
LINE
  8
_0-0_0
  6
CONTINUOUS
 62
    7
 10
978.47418200000004
 20
507.20002750000003
 11
978.5631709999999
 21
507.07072449999998
  0
ARC
  8
_0-0_0
  6
CONTINUOUS
 62
    7
 10
971.92889400000001
 20
502.60002150000003
 40
8
 50
35.099632
 51
144.900373
  0
LINE
  8
_0-0_0
  6
CONTINUOUS
 62
    7
 10
965.38372799999991
 20
507.20002750000003
 11
965.29473900000005
 21
507.07072449999998
  0
LINE
  8
_0-0_0
  6
CONTINUOUS
 62
    7
 10
965.20159899999987
 20
506.92930550000005
 11
965.29473900000005
 21
507.07072449999998
  0
LINE
  8
_0-0_0
  6
CONTINUOUS
 62
    7
 10
965.20159899999987
 20
506.92930550000005
 11
965.12005600000009
 21
506.80000250000001
  0
ARC
  8
_0-0_0
  6
CONTINUOUS
 62
    7
 10
971.92889400000001
 20
502.60002150000003
 40
8
 50
148.33176499999999
 51
154.05551800000001
  0
LINE
  8
_0-0_0
  6
CONTINUOUS
 62
    7
 10
964.73516899999993
 20
506.10002150000003
 11
964.6412959999999
 21
505.90000950000001
  0
LINE
  8
_0-0_0
  6
CONTINUOUS
 62
    7
 10
964.6412959999999
 20
505.90000950000001
 11
964.55401599999993
 21
505.70002750000003
  0
ARC
  8
_0-0_0
  6
CONTINUOUS
 62
    7
 10
971.92889400000001
 20
502.60002150000003
 40
8
 50
157.20097000000001
 51
162.54239699999999
  0
LINE
  8
_0-0_0
  6
CONTINUOUS
 62
    7
 10
964.29742399999998
 20
505.00001550000002
 11
964.23736599999995
 21
504.80000250000001
  0
LINE
  8
_0-0_0
  6
CONTINUOUS
 62
    7
 10
964.23736599999995
 20
504.80000250000001
 11
964.18292200000008
 21
504.60002150000003
  0
ARC
  8
_0-0_0
  6
CONTINUOUS
 62
    7
 10
971.92889400000001
 20
502.60002150000003
 40
8
 50
165.52249
 51
170.64796000000001
  0
LINE
  8
_0-0_0
  6
CONTINUOUS
 62
    7
 10
964.03521699999999
 20
503.90000950000001
 11
964.00494399999991
 21
503.70002750000003
  0
LINE
  8
_0-0_0
  6
CONTINUOUS
 62
    7
 10
964.00494399999991
 20
503.70002750000003
 11
963.97967499999993
 21
503.50001550000002
  0
ARC
  8
_0-0_0
  6
CONTINUOUS
 62
    7
 10
971.92889400000001
 20
502.60002150000003
 40
8
 50
173.54054500000001
 51
178.567455
  0
LINE
  8
_0-0_0
  6
CONTINUOUS
 62
    7
 10
963.93145799999991
 20
502.80000250000001
 11
963.92889400000001
 21
502.60002150000003
  0
LINE
  8
_0-0_0
  6
CONTINUOUS
 62
    7
 10
979.92645299999992
 20
502.80000250000001
 11
979.92889400000001
 21
502.60002150000003
  0
ARC
  8
_0-0_0
  6
CONTINUOUS
 62
    7
 10
971.92889400000001
 20
502.60002150000003
 40
8
 50
1.432544
 51
6.4594489999999993
  0
LINE
  8
_0-0_0
  6
CONTINUOUS
 62
    7
 10
979.85296600000004
 20
503.70002750000003
 11
979.8781130000001
 21
503.50001550000002
  0
LINE
  8
_0-0_0
  6
CONTINUOUS
 62
    7
 10
979.82257100000004
 20
503.90000950000001
 11
979.85296600000004
 21
503.70002750000003
  0
ARC
  8
_0-0_0
  6
CONTINUOUS
 62
    7
 10
971.92889400000001
 20
502.60002150000003
 40
8
 50
9.3520350000000008
 51
14.477510999999998
  0
LINE
  8
_0-0_0
  6
CONTINUOUS
 62
    7
 10
979.62042200000008
 20
504.80000250000001
 11
979.67486599999995
 21
504.60002150000003
  0
LINE
  8
_0-0_0
  6
CONTINUOUS
 62
    7
 10
979.56048599999997
 20
505.00001550000002
 11
979.62042200000008
 21
504.80000250000001
  0
ARC
  8
_0-0_0
  6
CONTINUOUS
 62
    7
 10
971.92889400000001
 20
502.60002150000003
 40
8
 50
17.457602999999999
 51
22.799030999999999
  0
LINE
  8
_0-0_0
  6
CONTINUOUS
 62
    7
 10
979.21661400000005
 20
505.90000950000001
 11
979.30389400000001
 21
505.70002750000003
  0
LINE
  8
_0-0_0
  6
CONTINUOUS
 62
    7
 10
979.12261999999998
 20
506.10002150000003
 11
979.21661400000005
 21
505.90000950000001
  0
ARC
  8
_0-0_0
  6
CONTINUOUS
 62
    7
 10
971.92889400000001
 20
502.60002150000003
 40
8
 50
25.944476999999999
 51
31.668240000000001
  0
LINE
  8
_0-0_0
  6
CONTINUOUS
 62
    7
 10
978.65631100000007
 20
506.92930550000005
 11
978.73773199999994
 21
506.80000250000001
  0
LINE
  8
_0-0_0
  6
CONTINUOUS
 62
    7
 10
978.65631100000007
 20
506.92930550000005
 11
978.5631709999999
 21
507.07072449999998
  0
CIRCLE
  8
_0-0_0
  6
CONTINUOUS
 62
    7
 10
971.92889400000001
 20
502.60002150000003
 40
7.5
  0
LINE
  8
_0-0_0
  6
CONTINUOUS
 62
    7
 10
979.92645299999992
 20
502.40000950000001
 11
980.92889400000001
 21
502.40000950000001
  0
LINE
  8
_0-0_0
  6
CONTINUOUS
 62
    7
 10
979.92889400000001
 20
502.60002150000003
 11
980.92889400000001
 21
502.60002150000003
  0
LINE
  8
_0-0_0
  6
CONTINUOUS
 62
    7
 10
979.8781130000001
 20
501.70002750000003
 11
980.92889400000001
 21
501.70002750000003
  0
LINE
  8
_0-0_0
  6
CONTINUOUS
 62
    7
 10
979.85296600000004
 20
501.50001550000002
 11
980.92889400000001
 21
501.50001550000002
  0
LINE
  8
_0-0_0
  6
CONTINUOUS
 62
    7
 10
979.82257100000004
 20
501.30000250000001
 11
980.92889400000001
 21
501.30000250000001
  0
LINE
  8
_0-0_0
  6
CONTINUOUS
 62
    7
 10
979.67486599999995
 20
500.60002150000003
 11
980.92889400000001
 21
500.60002150000003
  0
LINE
  8
_0-0_0
  6
CONTINUOUS
 62
    7
 10
979.62042200000008
 20
500.40000950000001
 11
980.92889400000001
 21
500.40000950000001
  0
LINE
  8
_0-0_0
  6
CONTINUOUS
 62
    7
 10
979.56048599999997
 20
500.20002750000003
 11
980.92889400000001
 21
500.20002750000003
  0
LINE
  8
_0-0_0
  6
CONTINUOUS
 62
    7
 10
979.30389400000001
 20
499.50001550000002
 11
980.92889400000001
 21
499.50001550000002
  0
LINE
  8
_0-0_0
  6
CONTINUOUS
 62
    7
 10
979.21661400000005
 20
499.30000250000001
 11
980.92889400000001
 21
499.30000250000001
  0
LINE
  8
_0-0_0
  6
CONTINUOUS
 62
    7
 10
979.12261999999998
 20
499.10002150000003
 11
980.92889400000001
 21
499.10002150000003
  0
LINE
  8
_0-0_0
  6
CONTINUOUS
 62
    7
 10
978.73773199999994
 20
498.40000950000001
 11
980.92889400000001
 21
498.40000950000001
  0
LINE
  8
_0-0_0
  6
CONTINUOUS
 62
    7
 10
978.73773199999994
 20
506.80000250000001
 11
980.92889400000001
 21
506.80000250000001
  0
LINE
  8
_0-0_0
  6
CONTINUOUS
 62
    7
 10
979.12261999999998
 20
506.10002150000003
 11
980.92889400000001
 21
506.10002150000003
  0
LINE
  8
_0-0_0
  6
CONTINUOUS
 62
    7
 10
979.21661400000005
 20
505.90000950000001
 11
980.92889400000001
 21
505.90000950000001
  0
LINE
  8
_0-0_0
  6
CONTINUOUS
 62
    7
 10
979.30389400000001
 20
505.70002750000003
 11
980.92889400000001
 21
505.70002750000003
  0
LINE
  8
_0-0_0
  6
CONTINUOUS
 62
    7
 10
979.56048599999997
 20
505.00001550000002
 11
980.92889400000001
 21
505.00001550000002
  0
LINE
  8
_0-0_0
  6
CONTINUOUS
 62
    7
 10
979.62042200000008
 20
504.80000250000001
 11
980.92889400000001
 21
504.80000250000001
  0
LINE
  8
_0-0_0
  6
CONTINUOUS
 62
    7
 10
979.67486599999995
 20
504.60002150000003
 11
980.92889400000001
 21
504.60002150000003
  0
LINE
  8
_0-0_0
  6
CONTINUOUS
 62
    7
 10
979.82257100000004
 20
503.90000950000001
 11
980.92889400000001
 21
503.90000950000001
  0
LINE
  8
_0-0_0
  6
CONTINUOUS
 62
    7
 10
979.85296600000004
 20
503.70002750000003
 11
980.92889400000001
 21
503.70002750000003
  0
LINE
  8
_0-0_0
  6
CONTINUOUS
 62
    7
 10
979.8781130000001
 20
503.50001550000002
 11
980.92889400000001
 21
503.50001550000002
  0
LINE
  8
_0-0_0
  6
CONTINUOUS
 62
    7
 10
979.92645299999992
 20
502.80000250000001
 11
980.92889400000001
 21
502.80000250000001
  0
LINE
  8
_0-0_0
  6
CONTINUOUS
 62
    7
 10
981.42889400000001
 20
486.10002150000003
 11
980.92889400000001
 21
486.10002150000003
  0
LINE
  8
_0-0_0
  6
CONTINUOUS
 62
    7
 10
981.42889400000001
 20
488.30000250000001
 11
980.92889400000001
 21
488.30000250000001
  0
LINE
  8
_0-0_0
  6
CONTINUOUS
 62
    7
 10
981.42889400000001
 20
490.60002150000003
 11
980.92889400000001
 21
490.60002150000003
  0
LINE
  8
_0-0_0
  6
CONTINUOUS
 62
    7
 10
27.928954999999974
 20
490.60002150000003
 11
27.428954999999974
 21
490.60002150000003
  0
LINE
  8
_0-0_0
  6
CONTINUOUS
 62
    7
 10
980.92889400000001
 20
492.90000950000001
 11
981.42889400000001
 21
492.90000950000001
  0
LINE
  8
_0-0_0
  6
CONTINUOUS
 62
    7
 10
981.42889400000001
 20
513.10002150000003
 11
981.42889400000001
 21
513.00001550000002
  0
LINE
  8
_0-0_0
  6
CONTINUOUS
 62
    7
 10
27.428954999999974
 20
513.10002150000003
 11
27.428954999999974
 21
513.00001550000002
  0
LINE
  8
_0-0_0
  6
CONTINUOUS
 62
    7
 10
27.428954999999974
 20
492.90000950000001
 11
27.928954999999974
 21
492.90000950000001
  0
LINE
  8
_0-0_0
  6
CONTINUOUS
 62
    7
 10
27.928954999999974
 20
512.80000250000001
 11
980.92889400000001
 21
512.80000250000001
  0
LINE
  8
_0-0_0
  6
CONTINUOUS
 62
    7
 10
27.928954999999974
 20
512.20603949999997
 11
980.92889400000001
 21
512.20603949999997
  0
LINE
  8
_0-0_0
  6
CONTINUOUS
 62
    7
 10
978.47418200000004
 20
507.20002750000003
 11
980.92889400000001
 21
507.20002750000003
  0
LINE
  8
_0-0_0
  6
CONTINUOUS
 62
    7
 10
27.928954999999974
 20
507.20002750000003
 11
30.383728000000019
 21
507.20002750000003
  0
ARC
  8
_0-0_0
  6
CONTINUOUS
 62
    7
 10
36.928954999999974
 20
502.60002150000003
 40
8
 50
35.099632
 51
144.900373
  0
LINE
  8
_0-0_0
  6
CONTINUOUS
 62
    7
 10
43.474181999999985
 20
507.20002750000003
 11
965.38372799999991
 21
507.20002750000003
  0
LINE
  8
_0-0_0
  6
CONTINUOUS
 62
    7
 10
27.428954999999974
 20
486.10002150000003
 11
27.928954999999974
 21
486.10002150000003
  0
LINE
  8
_0-0_0
  6
CONTINUOUS
 62
    7
 10
27.928954999999974
 20
488.30000250000001
 11
27.428954999999974
 21
488.30000250000001
  0
LINE
  8
_0-0_0
  6
CONTINUOUS
 62
    7
 10
30.383728000000019
 20
507.20002750000003
 11
30.294754000000012
 21
507.07072449999998
  0
LINE
  8
_0-0_0
  6
CONTINUOUS
 62
    7
 10
30.20161399999995
 20
506.92930550000005
 11
30.294754000000012
 21
507.07072449999998
  0
LINE
  8
_0-0_0
  6
CONTINUOUS
 62
    7
 10
27.928954999999974
 20
506.80000250000001
 11
30.120147999999972
 21
506.80000250000001
  0
LINE
  8
_0-0_0
  6
CONTINUOUS
 62
    7
 10
30.20161399999995
 20
506.92930550000005
 11
30.120147999999972
 21
506.80000250000001
  0
ARC
  8
_0-0_0
  6
CONTINUOUS
 62
    7
 10
36.928954999999974
 20
502.60002150000003
 40
8
 50
148.33176499999999
 51
154.05551800000001
  0
LINE
  8
_0-0_0
  6
CONTINUOUS
 62
    7
 10
27.928954999999974
 20
506.10002150000003
 11
29.735213999999985
 21
506.10002150000003
  0
LINE
  8
_0-0_0
  6
CONTINUOUS
 62
    7
 10
29.735213999999985
 20
506.10002150000003
 11
29.67373699999996
 21
505.97071849999998
  0
LINE
  8
_0-0_0
  6
CONTINUOUS
 62
    7
 10
29.609694999999988
 20
505.82929950000005
 11
29.67373699999996
 21
505.97071849999998
  0
LINE
  8
_0-0_0
  6
CONTINUOUS
 62
    7
 10
27.928954999999974
 20
505.70002750000003
 11
29.55401599999999
 21
505.70002750000003
  0
LINE
  8
_0-0_0
  6
CONTINUOUS
 62
    7
 10
29.609694999999988
 20
505.82929950000005
 11
29.55401599999999
 21
505.70002750000003
  0
ARC
  8
_0-0_0
  6
CONTINUOUS
 62
    7
 10
36.928954999999974
 20
502.60002150000003
 40
8
 50
157.20097000000001
 51
162.54239699999999
  0
LINE
  8
_0-0_0
  6
CONTINUOUS
 62
    7
 10
27.928954999999974
 20
505.00001550000002
 11
29.297455000000014
 21
505.00001550000002
  0
LINE
  8
_0-0_0
  6
CONTINUOUS
 62
    7
 10
29.297455000000014
 20
505.00001550000002
 11
29.257995999999991
 21
504.87074250000001
  0
LINE
  8
_0-0_0
  6
CONTINUOUS
 62
    7
 10
29.217529000000013
 20
504.72929350000004
 11
29.257995999999991
 21
504.87074250000001
  0
LINE
  8
_0-0_0
  6
CONTINUOUS
 62
    7
 10
27.928954999999974
 20
504.60002150000003
 11
29.182998999999995
 21
504.60002150000003
  0
LINE
  8
_0-0_0
  6
CONTINUOUS
 62
    7
 10
29.217529000000013
 20
504.72929350000004
 11
29.182998999999995
 21
504.60002150000003
  0
ARC
  8
_0-0_0
  6
CONTINUOUS
 62
    7
 10
36.928954999999974
 20
502.60002150000003
 40
8
 50
165.52249
 51
170.64796000000001
  0
LINE
  8
_0-0_0
  6
CONTINUOUS
 62
    7
 10
27.928954999999974
 20
503.90000950000001
 11
29.035294000000022
 21
503.90000950000001
  0
LINE
  8
_0-0_0
  6
CONTINUOUS
 62
    7
 10
29.035294000000022
 20
503.90000950000001
 11
29.015076000000022
 21
503.7707365
  0
LINE
  8
_0-0_0
  6
CONTINUOUS
 62
    7
 10
28.995452999999998
 20
503.62931849999995
 11
29.015076000000022
 21
503.7707365
  0
LINE
  8
_0-0_0
  6
CONTINUOUS
 62
    7
 10
27.928954999999974
 20
503.50001550000002
 11
28.979751999999962
 21
503.50001550000002
  0
LINE
  8
_0-0_0
  6
CONTINUOUS
 62
    7
 10
28.995452999999998
 20
503.62931849999995
 11
28.979751999999962
 21
503.50001550000002
  0
ARC
  8
_0-0_0
  6
CONTINUOUS
 62
    7
 10
36.928954999999974
 20
502.60002150000003
 40
8
 50
173.54054500000001
 51
178.567455
  0
LINE
  8
_0-0_0
  6
CONTINUOUS
 62
    7
 10
27.928954999999974
 20
502.80000250000001
 11
28.931458000000021
 21
502.80000250000001
  0
LINE
  8
_0-0_0
  6
CONTINUOUS
 62
    7
 10
28.931458000000021
 20
502.80000250000001
 11
28.929275999999959
 21
502.67073049999999
  0
LINE
  8
_0-0_0
  6
CONTINUOUS
 62
    7
 10
28.928954999999974
 20
502.60002150000003
 11
28.929275999999959
 21
502.67073049999999
  0
LINE
  8
_0-0_0
  6
CONTINUOUS
 62
    7
 10
27.928954999999974
 20
502.40000950000001
 11
28.931458000000021
 21
502.40000950000001
  0
LINE
  8
_0-0_0
  6
CONTINUOUS
 62
    7
 10
27.928954999999974
 20
501.70002750000003
 11
28.979751999999962
 21
501.70002750000003
  0
LINE
  8
_0-0_0
  6
CONTINUOUS
 62
    7
 10
27.928954999999974
 20
501.30000250000001
 11
29.035294000000022
 21
501.30000250000001
  0
LINE
  8
_0-0_0
  6
CONTINUOUS
 62
    7
 10
27.928954999999974
 20
500.60002150000003
 11
29.182998999999995
 21
500.60002150000003
  0
LINE
  8
_0-0_0
  6
CONTINUOUS
 62
    7
 10
27.928954999999974
 20
500.20002750000003
 11
29.297455000000014
 21
500.20002750000003
  0
LINE
  8
_0-0_0
  6
CONTINUOUS
 62
    7
 10
27.928954999999974
 20
499.50001550000002
 11
29.55401599999999
 21
499.50001550000002
  0
LINE
  8
_0-0_0
  6
CONTINUOUS
 62
    7
 10
27.928954999999974
 20
499.10002150000003
 11
29.735213999999985
 21
499.10002150000003
  0
LINE
  8
_0-0_0
  6
CONTINUOUS
 62
    7
 10
27.928954999999974
 20
498.40000950000001
 11
30.120147999999972
 21
498.40000950000001
  0
LINE
  8
_0-0_0
  6
CONTINUOUS
 62
    7
 10
44.926468
 20
502.80000250000001
 11
44.928969999999993
 21
502.60002150000003
  0
ARC
  8
_0-0_0
  6
CONTINUOUS
 62
    7
 10
36.928954999999974
 20
502.60002150000003
 40
8
 50
1.432544
 51
6.4594489999999993
  0
LINE
  8
_0-0_0
  6
CONTINUOUS
 62
    7
 10
44.852981999999997
 20
503.70002750000003
 11
44.878173999999944
 21
503.50001550000002
  0
LINE
  8
_0-0_0
  6
CONTINUOUS
 62
    7
 10
44.822631999999999
 20
503.90000950000001
 11
44.852981999999997
 21
503.70002750000003
  0
ARC
  8
_0-0_0
  6
CONTINUOUS
 62
    7
 10
36.928954999999974
 20
502.60002150000003
 40
8
 50
9.3520350000000008
 51
14.477510999999998
  0
LINE
  8
_0-0_0
  6
CONTINUOUS
 62
    7
 10
44.620513999999957
 20
504.80000250000001
 11
44.674927000000025
 21
504.60002150000003
  0
LINE
  8
_0-0_0
  6
CONTINUOUS
 62
    7
 10
44.560485999999969
 20
505.00001550000002
 11
44.620513999999957
 21
504.80000250000001
  0
ARC
  8
_0-0_0
  6
CONTINUOUS
 62
    7
 10
36.928954999999974
 20
502.60002150000003
 40
8
 50
17.457602999999999
 51
22.799030999999999
  0
LINE
  8
_0-0_0
  6
CONTINUOUS
 62
    7
 10
44.216613999999993
 20
505.90000950000001
 11
44.303924999999992
 21
505.70002750000003
  0
LINE
  8
_0-0_0
  6
CONTINUOUS
 62
    7
 10
44.122710999999981
 20
506.10002150000003
 11
44.216613999999993
 21
505.90000950000001
  0
ARC
  8
_0-0_0
  6
CONTINUOUS
 62
    7
 10
36.928954999999974
 20
502.60002150000003
 40
8
 50
25.944476999999999
 51
31.668240000000001
  0
LINE
  8
_0-0_0
  6
CONTINUOUS
 62
    7
 10
43.65631099999996
 20
506.92930550000005
 11
43.737777999999992
 21
506.80000250000001
  0
LINE
  8
_0-0_0
  6
CONTINUOUS
 62
    7
 10
43.65631099999996
 20
506.92930550000005
 11
43.563171000000011
 21
507.07072449999998
  0
LINE
  8
_0-0_0
  6
CONTINUOUS
 62
    7
 10
43.474181999999985
 20
507.20002750000003
 11
43.563171000000011
 21
507.07072449999998
  0
CIRCLE
  8
_0-0_0
  6
CONTINUOUS
 62
    7
 10
36.928954999999974
 20
502.60002150000003
 40
7.5
  0
LINE
  8
_0-0_0
  6
CONTINUOUS
 62
    7
 10
44.926468
 20
502.80000250000001
 11
963.93145799999991
 21
502.80000250000001
  0
LINE
  8
_0-0_0
  6
CONTINUOUS
 62
    7
 10
44.878173999999944
 20
503.50001550000002
 11
963.97967499999993
 21
503.50001550000002
  0
LINE
  8
_0-0_0
  6
CONTINUOUS
 62
    7
 10
44.852981999999997
 20
503.70002750000003
 11
964.00494399999991
 21
503.70002750000003
  0
LINE
  8
_0-0_0
  6
CONTINUOUS
 62
    7
 10
44.822631999999999
 20
503.90000950000001
 11
964.03521699999999
 21
503.90000950000001
  0
LINE
  8
_0-0_0
  6
CONTINUOUS
 62
    7
 10
44.674927000000025
 20
504.60002150000003
 11
964.18292200000008
 21
504.60002150000003
  0
LINE
  8
_0-0_0
  6
CONTINUOUS
 62
    7
 10
44.620513999999957
 20
504.80000250000001
 11
964.23736599999995
 21
504.80000250000001
  0
LINE
  8
_0-0_0
  6
CONTINUOUS
 62
    7
 10
44.560485999999969
 20
505.00001550000002
 11
964.29742399999998
 21
505.00001550000002
  0
LINE
  8
_0-0_0
  6
CONTINUOUS
 62
    7
 10
44.303924999999992
 20
505.70002750000003
 11
964.55401599999993
 21
505.70002750000003
  0
LINE
  8
_0-0_0
  6
CONTINUOUS
 62
    7
 10
44.216613999999993
 20
505.90000950000001
 11
964.6412959999999
 21
505.90000950000001
  0
LINE
  8
_0-0_0
  6
CONTINUOUS
 62
    7
 10
44.122710999999981
 20
506.10002150000003
 11
964.73516899999993
 21
506.10002150000003
  0
LINE
  8
_0-0_0
  6
CONTINUOUS
 62
    7
 10
43.737777999999992
 20
506.80000250000001
 11
965.12005600000009
 21
506.80000250000001
  0
LINE
  8
_0-0_0
  6
CONTINUOUS
 62
    7
 10
981.42889400000001
 20
484.60002150000003
 11
980.92889400000001
 21
484.60002150000003
  0
LINE
  8
_0-0_0
  6
CONTINUOUS
 62
    7
 10
981.42889400000001
 20
512.20002750000003
 11
981.42889400000001
 21
513.00001550000002
  0
LINE
  8
_0-0_0
  6
CONTINUOUS
 62
    7
 10
981.42889400000001
 20
484.40000950000001
 11
981.42889400000001
 21
512.20002750000003
  0
ARC
  8
_0-0_0
  6
CONTINUOUS
 62
    7
 10
971.92889400000001
 20
503.30000250000001
 40
12.800000000000001
 50
73.932597000000001
 51
106.06740099999999
  0
LINE
  8
_0-0_0
  6
CONTINUOUS
 62
    7
 10
27.428954999999974
 20
512.20002750000003
 11
27.428954999999974
 21
513.00001550000002
  0
LINE
  8
_0-0_0
  6
CONTINUOUS
 62
    7
 10
27.428954999999974
 20
484.40000950000001
 11
27.428954999999974
 21
512.20002750000003
  0
ARC
  8
_0-0_0
  6
CONTINUOUS
 62
    7
 10
36.928954999999974
 20
503.30000250000001
 40
12.800000000000001
 50
73.932597000000001
 51
106.06740099999999
  0
LINE
  8
_0-0_0
  6
CONTINUOUS
 62
    7
 10
494.92895499999997
 20
515.59999049999999
 11
494.92895499999997
 21
521.23991350000006
  0
LINE
  8
_0-0_0
  6
CONTINUOUS
 62
    7
 10
513.92895499999997
 20
521.23991350000006
 11
513.92895499999997
 21
515.59999049999999
  0
LINE
  8
_0-0_0
  6
CONTINUOUS
 62
    7
 10
981.42889400000001
 20
513.10002150000003
 11
981.42889400000001
 21
515.60002150000003
  0
LINE
  8
_0-0_0
  6
CONTINUOUS
 62
    7
 10
27.428954999999974
 20
515.60002150000003
 11
981.42889400000001
 21
515.60002150000003
  0
LINE
  8
_0-0_0
  6
CONTINUOUS
 62
    7
 10
27.428954999999974
 20
513.10002150000003
 11
27.428954999999974
 21
515.60002150000003
  0
LINE
  8
_0-0_0
  6
CONTINUOUS
 62
    7
 10
27.428954999999974
 20
484.60002150000003
 11
27.928954999999974
 21
484.60002150000003
  0
ARC
  8
_0-0_0
  6
CONTINUOUS
 62
    7
 10
919.72894299999996
 20
489.50001550000002
 40
0.2
 50
339.62356199999999
 51
90.000002999999978
  0
LINE
  8
_0-0_0
  6
CONTINUOUS
 62
    7
 10
919.91644299999996
 20
489.43037449999997
 11
918.61639400000001
 21
485.93037449999997
  0
ARC
  8
_0-0_0
  6
CONTINUOUS
 62
    7
 10
918.42889400000001
 20
486.00001550000002
 40
0.2
 50
200.37643
 51
339.62356199999999
  0
LINE
  8
_0-0_0
  6
CONTINUOUS
 62
    7
 10
916.94146699999999
 20
489.43037449999997
 11
918.24139400000001
 21
485.93037449999997
  0
ARC
  8
_0-0_0
  6
CONTINUOUS
 62
    7
 10
917.12896699999999
 20
489.50001550000002
 40
0.2
 50
90.000003000000007
 51
200.37643
  0
LINE
  8
_0-0_0
  6
CONTINUOUS
 62
    7
 10
917.12896699999999
 20
489.70002750000003
 11
919.72894299999996
 21
489.70002750000003
  0
ARC
  8
_0-0_0
  6
CONTINUOUS
 62
    7
 10
99.728957999999977
 20
489.50001550000002
 40
0.2
 50
339.62356199999999
 51
90.000002999999978
  0
LINE
  8
_0-0_0
  6
CONTINUOUS
 62
    7
 10
99.916442999999958
 20
489.43037449999997
 11
98.616440000000011
 21
485.93037449999997
  0
ARC
  8
_0-0_0
  6
CONTINUOUS
 62
    7
 10
98.428954999999974
 20
486.00001550000002
 40
0.2
 50
200.37643
 51
339.62356199999999
  0
LINE
  8
_0-0_0
  6
CONTINUOUS
 62
    7
 10
96.941466999999989
 20
489.43037449999997
 11
98.241469999999993
 21
485.93037449999997
  0
ARC
  8
_0-0_0
  6
CONTINUOUS
 62
    7
 10
97.128952000000027
 20
489.50001550000002
 40
0.2
 50
90.000003000000007
 51
200.37643
  0
LINE
  8
_0-0_0
  6
CONTINUOUS
 62
    7
 10
97.128952000000027
 20
489.70002750000003
 11
99.728957999999977
 21
489.70002750000003
  0
LINE
  8
_0-0_0
  6
CONTINUOUS
 62
    7
 10
982.42889400000001
 20
512.20002750000003
 11
981.42889400000001
 21
512.20002750000003
  0
LINE
  8
_0-0_0
  6
CONTINUOUS
 62
    7
 10
982.42889400000001
 20
513.23701449999999
 11
981.42889400000001
 21
513.23701449999999
  0
LINE
  8
_0-0_0
  6
CONTINUOUS
 62
    7
 10
982.42889400000001
 20
484.40000950000001
 11
981.42889400000001
 21
484.40000950000001
  0
ARC
  8
_0-0_0
  6
CONTINUOUS
 62
    7
 10
504.42895499999997
 20
503.30000250000001
 40
20.299999
 50
62.096725999999997
 51
117.903272
  0
CIRCLE
  8
_0-0_0
  6
CONTINUOUS
 62
    7
 10
504.42895499999997
 20
519.60002150000003
 40
2.5
  0
LINE
  8
_0-0_0
  6
CONTINUOUS
 62
    7
 10
26.428954999999974
 20
512.20002750000003
 11
27.428954999999974
 21
512.20002750000003
  0
LINE
  8
_0-0_0
  6
CONTINUOUS
 62
    7
 10
26.428954999999974
 20
513.20002750000003
 11
27.428954999999974
 21
513.20002750000003
  0
LINE
  8
_0-0_0
  6
CONTINUOUS
 62
    7
 10
26.428954999999974
 20
484.40000950000001
 11
27.428954999999974
 21
484.40000950000001
  0
LINE
  8
_0-0_0
  6
CONTINUOUS
 62
    7
 10
982.42889400000001
 20
515.40000950000001
 11
981.42889400000001
 21
515.40000950000001
  0
LINE
  8
_0-0_0
  6
CONTINUOUS
 62
    7
 10
26.428954999999974
 20
515.40000950000001
 11
27.428954999999974
 21
515.40000950000001
  0
LINE
  8
_0-0_0
  6
CONTINUOUS
 62
    7
 10
983.42889400000001
 20
511.78581250000002
 11
983.42791799999998
 21
511.80430550000005
  0
LINE
  8
_0-0_0
  6
CONTINUOUS
 62
    7
 10
983.42791799999998
 20
511.80430550000005
 11
983.4249880000001
 21
511.82273850000001
  0
LINE
  8
_0-0_0
  6
CONTINUOUS
 62
    7
 10
983.4249880000001
 20
511.82273850000001
 11
983.41973900000005
 21
511.84187350000002
  0
LINE
  8
_0-0_0
  6
CONTINUOUS
 62
    7
 10
983.41973900000005
 20
511.84187350000002
 11
983.41229299999998
 21
511.86091650000003
  0
LINE
  8
_0-0_0
  6
CONTINUOUS
 62
    7
 10
983.41229299999998
 20
511.86091650000003
 11
983.39178499999991
 21
511.8976285
  0
LINE
  8
_0-0_0
  6
CONTINUOUS
 62
    7
 10
983.39178499999991
 20
511.8976285
 11
983.36334199999999
 21
511.93330349999997
  0
LINE
  8
_0-0_0
  6
CONTINUOUS
 62
    7
 10
983.36334199999999
 20
511.93330349999997
 11
983.32745399999988
 21
511.96757449999996
  0
LINE
  8
_0-0_0
  6
CONTINUOUS
 62
    7
 10
983.32745399999988
 20
511.96757449999996
 11
983.27886999999998
 21
512.00404349999997
  0
LINE
  8
_0-0_0
  6
CONTINUOUS
 62
    7
 10
983.27886999999998
 20
512.00404349999997
 11
983.22210699999994
 21
512.0380705
  0
LINE
  8
_0-0_0
  6
CONTINUOUS
 62
    7
 10
983.22210699999994
 20
512.0380705
 11
983.15789800000005
 21
512.0693205
  0
LINE
  8
_0-0_0
  6
CONTINUOUS
 62
    7
 10
983.15789800000005
 20
512.0693205
 11
983.08734100000004
 21
512.09754950000001
  0
LINE
  8
_0-0_0
  6
CONTINUOUS
 62
    7
 10
983.08734100000004
 20
512.09754950000001
 11
983.03924599999993
 21
512.11390649999998
  0
LINE
  8
_0-0_0
  6
CONTINUOUS
 62
    7
 10
983.03924599999993
 20
512.11390649999998
 11
982.98907500000007
 21
512.12892150000005
  0
LINE
  8
_0-0_0
  6
CONTINUOUS
 62
    7
 10
982.98907500000007
 20
512.12892150000005
 11
982.93231200000002
 21
512.14369150000005
  0
LINE
  8
_0-0_0
  6
CONTINUOUS
 62
    7
 10
982.93231200000002
 20
512.14369150000005
 11
982.87371799999994
 21
512.15678349999996
  0
LINE
  8
_0-0_0
  6
CONTINUOUS
 62
    7
 10
982.87371799999994
 20
512.15678349999996
 11
982.75701900000001
 21
512.17707849999999
  0
LINE
  8
_0-0_0
  6
CONTINUOUS
 62
    7
 10
982.75701900000001
 20
512.17707849999999
 11
982.64959699999997
 21
512.18980350000004
  0
LINE
  8
_0-0_0
  6
CONTINUOUS
 62
    7
 10
982.64959699999997
 20
512.18980350000004
 11
982.53985599999999
 21
512.19746350000003
  0
LINE
  8
_0-0_0
  6
CONTINUOUS
 62
    7
 10
982.53985599999999
 20
512.19746350000003
 11
982.42889400000001
 21
512.20002750000003
  0
LINE
  8
_0-0_0
  6
CONTINUOUS
 62
    7
 10
983.42889400000001
 20
511.78581250000002
 11
983.42889400000001
 21
512.78587349999998
  0
LINE
  8
_0-0_0
  6
CONTINUOUS
 62
    7
 10
983.42889400000001
 20
512.78587349999998
 11
983.42596399999991
 21
512.81742850000001
  0
LINE
  8
_0-0_0
  6
CONTINUOUS
 62
    7
 10
983.42596399999991
 20
512.81742850000001
 11
983.41729700000008
 21
512.84950249999997
  0
LINE
  8
_0-0_0
  6
CONTINUOUS
 62
    7
 10
983.41729700000008
 20
512.84950249999997
 11
983.40277099999992
 21
512.88179049999997
  0
LINE
  8
_0-0_0
  6
CONTINUOUS
 62
    7
 10
983.40277099999992
 20
512.88179049999997
 11
983.38250699999992
 21
512.91395550000004
  0
LINE
  8
_0-0_0
  6
CONTINUOUS
 62
    7
 10
983.38250699999992
 20
512.91395550000004
 11
983.36590599999988
 21
512.93516550000004
  0
LINE
  8
_0-0_0
  6
CONTINUOUS
 62
    7
 10
983.36590599999988
 20
512.93516550000004
 11
983.34698500000002
 21
512.95613049999997
  0
LINE
  8
_0-0_0
  6
CONTINUOUS
 62
    7
 10
983.34698500000002
 20
512.95613049999997
 11
983.30218499999989
 21
512.99690250000003
  0
LINE
  8
_0-0_0
  6
CONTINUOUS
 62
    7
 10
983.30218499999989
 20
512.99690250000003
 11
983.24896200000001
 21
513.03565949999995
  0
LINE
  8
_0-0_0
  6
CONTINUOUS
 62
    7
 10
983.24896200000001
 20
513.03565949999995
 11
983.19903600000009
 21
513.06587249999995
  0
LINE
  8
_0-0_0
  6
CONTINUOUS
 62
    7
 10
983.19903600000009
 20
513.06587249999995
 11
983.14434799999992
 21
513.09407050000004
  0
LINE
  8
_0-0_0
  6
CONTINUOUS
 62
    7
 10
983.14434799999992
 20
513.09407050000004
 11
983.08538800000008
 21
513.12013249999995
  0
LINE
  8
_0-0_0
  6
CONTINUOUS
 62
    7
 10
983.08538800000008
 20
513.12013249999995
 11
983.038635
 21
513.13810750000005
  0
LINE
  8
_0-0_0
  6
CONTINUOUS
 62
    7
 10
983.038635
 20
513.13810750000005
 11
982.98992899999996
 21
513.15470849999997
  0
LINE
  8
_0-0_0
  6
CONTINUOUS
 62
    7
 10
982.98992899999996
 20
513.15470849999997
 11
982.8875119999999
 21
513.18360849999999
  0
LINE
  8
_0-0_0
  6
CONTINUOUS
 62
    7
 10
982.8875119999999
 20
513.18360849999999
 11
982.77984600000002
 21
513.2064365
  0
LINE
  8
_0-0_0
  6
CONTINUOUS
 62
    7
 10
982.77984600000002
 20
513.2064365
 11
982.668274
 21
513.22300749999999
  0
LINE
  8
_0-0_0
  6
CONTINUOUS
 62
    7
 10
982.668274
 20
513.22300749999999
 11
982.55413800000008
 21
513.23319949999996
  0
LINE
  8
_0-0_0
  6
CONTINUOUS
 62
    7
 10
982.55413800000008
 20
513.23319949999996
 11
982.42889400000001
 21
513.23701449999999
  0
ARC
  8
_0-0_0
  6
CONTINUOUS
 62
    7
 10
982.42889400000001
 20
485.40000950000001
 40
1
 50
269.99999700000001
 51
0
  0
LINE
  8
_0-0_0
  6
CONTINUOUS
 62
    7
 10
983.42889400000001
 20
485.40000950000001
 11
983.42889400000001
 21
511.78581250000002
  0
LINE
  8
_0-0_0
  6
CONTINUOUS
 62
    7
 10
25.428954999999974
 20
511.78581250000002
 11
25.429961999999989
 21
511.80430550000005
  0
LINE
  8
_0-0_0
  6
CONTINUOUS
 62
    7
 10
25.429961999999989
 20
511.80430550000005
 11
25.432952999999998
 21
511.82273850000001
  0
LINE
  8
_0-0_0
  6
CONTINUOUS
 62
    7
 10
25.432952999999998
 20
511.82273850000001
 11
25.43820199999999
 21
511.84187350000002
  0
LINE
  8
_0-0_0
  6
CONTINUOUS
 62
    7
 10
25.43820199999999
 20
511.84187350000002
 11
25.44557199999997
 21
511.86091650000003
  0
LINE
  8
_0-0_0
  6
CONTINUOUS
 62
    7
 10
25.44557199999997
 20
511.86091650000003
 11
25.466125999999974
 21
511.8976285
  0
LINE
  8
_0-0_0
  6
CONTINUOUS
 62
    7
 10
25.466125999999974
 20
511.8976285
 11
25.494521999999961
 21
511.93330349999997
  0
LINE
  8
_0-0_0
  6
CONTINUOUS
 62
    7
 10
25.494521999999961
 20
511.93330349999997
 11
25.530395999999996
 21
511.96757449999996
  0
LINE
  8
_0-0_0
  6
CONTINUOUS
 62
    7
 10
25.530395999999996
 20
511.96757449999996
 11
25.579025000000001
 21
512.00404349999997
  0
LINE
  8
_0-0_0
  6
CONTINUOUS
 62
    7
 10
25.579025000000001
 20
512.00404349999997
 11
25.63580300000001
 21
512.0380705
  0
LINE
  8
_0-0_0
  6
CONTINUOUS
 62
    7
 10
25.63580300000001
 20
512.0380705
 11
25.699950999999999
 21
512.0693205
  0
LINE
  8
_0-0_0
  6
CONTINUOUS
 62
    7
 10
25.699950999999999
 20
512.0693205
 11
25.770598999999947
 21
512.09754950000001
  0
LINE
  8
_0-0_0
  6
CONTINUOUS
 62
    7
 10
25.770598999999947
 20
512.09754950000001
 11
25.818679999999972
 21
512.11390649999998
  0
LINE
  8
_0-0_0
  6
CONTINUOUS
 62
    7
 10
25.818679999999972
 20
512.11390649999998
 11
25.868820000000028
 21
512.12892150000005
  0
LINE
  8
_0-0_0
  6
CONTINUOUS
 62
    7
 10
25.868820000000028
 20
512.12892150000005
 11
25.925522000000001
 21
512.14369150000005
  0
LINE
  8
_0-0_0
  6
CONTINUOUS
 62
    7
 10
25.925522000000001
 20
512.14369150000005
 11
25.984130999999991
 21
512.15678349999996
  0
LINE
  8
_0-0_0
  6
CONTINUOUS
 62
    7
 10
25.984130999999991
 20
512.15678349999996
 11
26.100906000000009
 21
512.17707849999999
  0
LINE
  8
_0-0_0
  6
CONTINUOUS
 62
    7
 10
26.100906000000009
 20
512.17707849999999
 11
26.208312999999976
 21
512.18980350000004
  0
LINE
  8
_0-0_0
  6
CONTINUOUS
 62
    7
 10
26.208312999999976
 20
512.18980350000004
 11
26.318084999999996
 21
512.19746350000003
  0
LINE
  8
_0-0_0
  6
CONTINUOUS
 62
    7
 10
26.318084999999996
 20
512.19746350000003
 11
26.428954999999974
 21
512.20002750000003
  0
LINE
  8
_0-0_0
  6
CONTINUOUS
 62
    7
 10
25.428954999999974
 20
512.75547749999998
 11
25.431853999999987
 21
512.7863615
  0
LINE
  8
_0-0_0
  6
CONTINUOUS
 62
    7
 10
25.431853999999987
 20
512.7863615
 11
25.440552000000025
 21
512.81782550000003
  0
LINE
  8
_0-0_0
  6
CONTINUOUS
 62
    7
 10
25.440552000000025
 20
512.81782550000003
 11
25.45503199999996
 21
512.84947150000005
  0
LINE
  8
_0-0_0
  6
CONTINUOUS
 62
    7
 10
25.45503199999996
 20
512.84947150000005
 11
25.47520499999996
 21
512.8810575
  0
LINE
  8
_0-0_0
  6
CONTINUOUS
 62
    7
 10
25.47520499999996
 20
512.8810575
 11
25.491729999999961
 21
512.90193150000005
  0
LINE
  8
_0-0_0
  6
CONTINUOUS
 62
    7
 10
25.491729999999961
 20
512.90193150000005
 11
25.510620000000017
 21
512.92256150000003
  0
LINE
  8
_0-0_0
  6
CONTINUOUS
 62
    7
 10
25.510620000000017
 20
512.92256150000003
 11
25.555266999999958
 21
512.96272250000004
  0
LINE
  8
_0-0_0
  6
CONTINUOUS
 62
    7
 10
25.555266999999958
 20
512.96272250000004
 11
25.608397999999966
 21
513.00090050000006
  0
LINE
  8
_0-0_0
  6
CONTINUOUS
 62
    7
 10
25.608397999999966
 20
513.00090050000006
 11
25.658294999999953
 21
513.03071550000004
  0
LINE
  8
_0-0_0
  6
CONTINUOUS
 62
    7
 10
25.658294999999953
 20
513.03071550000004
 11
25.712966999999992
 21
513.05860849999999
  0
LINE
  8
_0-0_0
  6
CONTINUOUS
 62
    7
 10
25.712966999999992
 20
513.05860849999999
 11
25.771941999999967
 21
513.08433549999995
  0
LINE
  8
_0-0_0
  6
CONTINUOUS
 62
    7
 10
25.771941999999967
 20
513.08433549999995
 11
25.818694999999991
 21
513.10212650000005
  0
LINE
  8
_0-0_0
  6
CONTINUOUS
 62
    7
 10
25.818694999999991
 20
513.10212650000005
 11
25.867400999999973
 21
513.11854549999998
  0
LINE
  8
_0-0_0
  6
CONTINUOUS
 62
    7
 10
25.867400999999973
 20
513.11854549999998
 11
25.969832999999994
 21
513.14714049999998
  0
LINE
  8
_0-0_0
  6
CONTINUOUS
 62
    7
 10
25.969832999999994
 20
513.14714049999998
 11
26.077651999999944
 21
513.16972350000003
  0
LINE
  8
_0-0_0
  6
CONTINUOUS
 62
    7
 10
26.077651999999944
 20
513.16972350000003
 11
26.189330999999981
 21
513.18614149999996
  0
LINE
  8
_0-0_0
  6
CONTINUOUS
 62
    7
 10
26.189330999999981
 20
513.18614149999996
 11
26.303496999999993
 21
513.19624350000004
  0
LINE
  8
_0-0_0
  6
CONTINUOUS
 62
    7
 10
26.303496999999993
 20
513.19624350000004
 11
26.428954999999974
 21
513.20002750000003
  0
LINE
  8
_0-0_0
  6
CONTINUOUS
 62
    7
 10
25.428954999999974
 20
511.78581250000002
 11
25.428954999999974
 21
512.75547749999998
  0
ARC
  8
_0-0_0
  6
CONTINUOUS
 62
    7
 10
26.428954999999974
 20
485.40000950000001
 40
1
 50
180.00000900000003
 51
269.99999700000001
  0
LINE
  8
_0-0_0
  6
CONTINUOUS
 62
    7
 10
25.428954999999974
 20
485.40000950000001
 11
25.428954999999974
 21
511.78581250000002
  0
CIRCLE
  8
_0-0_0
  6
CONTINUOUS
 62
    7
 10
36.928954999999974
 20
502.60002150000003
 40
5
  0
CIRCLE
  8
_0-0_0
  6
CONTINUOUS
 62
    7
 10
971.92889400000001
 20
502.60002150000003
 40
5
  0
LINE
  8
_0-0_0
  6
CONTINUOUS
 62
    7
 10
983.42889400000001
 20
512.78587349999998
 11
983.42889400000001
 21
514.40000950000001
  0
ARC
  8
_0-0_0
  6
CONTINUOUS
 62
    7
 10
982.42889400000001
 20
514.40000950000001
 40
1
 50
0
 51
90.000003000000007
  0
ARC
  8
_0-0_0
  6
CONTINUOUS
 62
    7
 10
26.428954999999974
 20
514.40000950000001
 40
1
 50
90.000003000000007
 51
180.00000900000001
  0
LINE
  8
_0-0_0
  6
CONTINUOUS
 62
    7
 10
25.428954999999974
 20
512.75547749999998
 11
25.428954999999974
 21
514.40000950000001
  0
LINE
  8
_0-0_0
  6
CONTINUOUS
 62
    7
 10
-62.386710999999991
 20
482.29994150000005
 11
-62.386710999999991
 21
482.27494750000005
  0
LINE
  8
_0-0_0
  6
CONTINUOUS
 62
    7
 10
-62.386710999999991
 20
479.2228235
 11
-62.386710999999991
 21
479.32493550000004
  0
LINE
  8
_0-0_0
  6
CONTINUOUS
 62
    7
 10
-62.386710999999991
 20
458.19993550000004
 11
-62.386710999999991
 21
458.97706549999998
  0
LINE
  8
_0-0_0
  6
CONTINUOUS
 62
    7
 10
-79.186706000000015
 20
458.19993550000004
 11
-62.386710999999991
 21
458.19993550000004
  0
LINE
  8
_0-0_0
  6
CONTINUOUS
 62
    7
 10
-79.186706000000015
 20
466.09992950000003
 11
-79.186706000000015
 21
458.19993550000004
  0
LINE
  8
_0-0_0
  6
CONTINUOUS
 62
    7
 10
-79.186706000000015
 20
478.55525150000005
 11
-79.186706000000015
 21
472.09992950000003
  0
LINE
  8
_0-0_0
  6
CONTINUOUS
 62
    7
 10
-61.88672600000001
 20
461.69993550000004
 11
-61.686706000000015
 21
461.69993550000004
  0
LINE
  8
_0-0_0
  6
CONTINUOUS
 62
    7
 10
-61.686706000000015
 20
461.69993550000004
 11
-61.686706000000015
 21
464.69993550000004
  0
LINE
  8
_0-0_0
  6
CONTINUOUS
 62
    7
 10
-61.686706000000015
 20
478.29994150000005
 11
-61.686706000000015
 21
464.69993550000004
  0
LINE
  8
_0-0_0
  6
CONTINUOUS
 62
    7
 10
-61.886710999999991
 20
481.29994150000005
 11
-61.686706000000015
 21
481.29994150000005
  0
LINE
  8
_0-0_0
  6
CONTINUOUS
 62
    7
 10
-61.686706000000015
 20
478.29994150000005
 11
-61.686706000000015
 21
481.29994150000005
  0
LINE
  8
_0-0_0
  6
CONTINUOUS
 62
    7
 10
-62.586708000000044
 20
480.59901449999995
 11
-62.586708000000044
 21
479.41981450000003
  0
LINE
  8
_0-0_0
  6
CONTINUOUS
 62
    7
 10
-62.586708000000044
 20
482.79994150000005
 11
-62.586708000000044
 21
482.29994150000005
  0
LINE
  8
_0-0_0
  6
CONTINUOUS
 62
    7
 10
-63.586708000000044
 20
479.88343750000001
 11
-63.586708000000044
 21
480.59992950000003
  0
ARC
  8
_0-0_0
  6
CONTINUOUS
 62
    7
 10
-63.886710999999991
 20
477.89994750000005
 40
2
 50
0
 51
90.000003000000007
  0
LINE
  8
_0-0_0
  6
CONTINUOUS
 62
    7
 10
-61.886710999999991
 20
474.39994750000005
 11
-61.886710999999991
 21
477.39994750000005
  0
LINE
  8
_0-0_0
  6
CONTINUOUS
 62
    7
 10
-61.886710999999991
 20
477.39994750000005
 11
-61.886710999999991
 21
477.89994750000005
  0
LINE
  8
_0-0_0
  6
CONTINUOUS
 62
    7
 10
-61.886710999999991
 20
460.29994150000005
 11
-61.886710999999991
 21
473.89994750000005
  0
LINE
  8
_0-0_0
  6
CONTINUOUS
 62
    7
 10
-61.886710999999991
 20
474.39994750000005
 11
-61.886710999999991
 21
473.89994750000005
  0
ARC
  8
_0-0_0
  6
CONTINUOUS
 62
    7
 10
-63.886710999999991
 20
460.29994150000005
 40
2
 50
273.84026500000004
 51
0.000010000000014
  0
LINE
  8
_0-0_0
  6
CONTINUOUS
 62
    7
 10
-77.186706000000015
 20
479.88343750000001
 11
-77.186706000000015
 21
480.59992950000003
  0
LINE
  8
_0-0_0
  6
CONTINUOUS
 62
    7
 10
-77.186706000000015
 20
479.88343750000001
 11
-77.186706000000015
 21
479.87730350000004
  0
LINE
  8
_0-0_0
  6
CONTINUOUS
 62
    7
 10
-79.186706000000015
 20
478.55525150000005
 11
-79.186706000000015
 21
479.05525150000005
  0
LINE
  8
_0-0_0
  6
CONTINUOUS
 62
    7
 10
-78.886707000000001
 20
477.89994750000005
 11
-78.886707000000001
 21
464.29994150000005
  0
LINE
  8
_0-0_0
  6
CONTINUOUS
 62
    7
 10
-78.886707000000001
 20
463.79994150000005
 11
-78.886707000000001
 21
464.29994150000005
  0
LINE
  8
_0-0_0
  6
CONTINUOUS
 62
    7
 10
-78.886707000000001
 20
460.79994150000005
 11
-78.886707000000001
 21
463.79994150000005
  0
LINE
  8
_0-0_0
  6
CONTINUOUS
 62
    7
 10
-78.886707000000001
 20
460.29994150000005
 11
-78.886707000000001
 21
460.79994150000005
  0
ARC
  8
_0-0_0
  6
CONTINUOUS
 62
    7
 10
-76.886710999999991
 20
477.89994750000005
 40
2
 50
93.840255999999997
 51
180.00000900000001
  0
LINE
  8
_0-0_0
  6
CONTINUOUS
 62
    7
 10
-79.186706000000015
 20
466.09992950000003
 11
-79.186706000000015
 21
472.09992950000003
  0
LINE
  8
_0-0_0
  6
CONTINUOUS
 62
    7
 10
-79.186706000000015
 20
480.59992950000003
 11
-79.186706000000015
 21
479.05525150000005
  0
LINE
  8
_0-0_0
  6
CONTINUOUS
 62
    7
 10
-79.186706000000015
 20
472.09992950000003
 11
-78.886715000000038
 21
472.09992950000003
  0
LINE
  8
_0-0_0
  6
CONTINUOUS
 62
    7
 10
-79.186706000000015
 20
466.09992950000003
 11
-78.886715000000038
 21
466.09992950000003
  0
LINE
  8
_0-0_0
  6
CONTINUOUS
 62
    7
 10
-63.886710999999991
 20
458.29994150000005
 11
-72.886710999999991
 21
458.29994150000005
  0
LINE
  8
_0-0_0
  6
CONTINUOUS
 62
    7
 10
-76.386710999999991
 20
458.29994150000005
 11
-76.886710999999991
 21
458.29994150000005
  0
LINE
  8
_0-0_0
  6
CONTINUOUS
 62
    7
 10
-73.386710999999991
 20
458.29994150000005
 11
-76.386710999999991
 21
458.29994150000005
  0
LINE
  8
_0-0_0
  6
CONTINUOUS
 62
    7
 10
-72.886710999999991
 20
458.29994150000005
 11
-73.386710999999991
 21
458.29994150000005
  0
ARC
  8
_0-0_0
  6
CONTINUOUS
 62
    7
 10
-76.886710999999991
 20
460.29994150000005
 40
2
 50
180.00000900000003
 51
269.99999700000001
  0
ARC
  8
_0-0_0
  6
CONTINUOUS
 62
    7
 10
-63.086708000000044
 20
482.79994150000005
 40
0.5
 50
0
 51
90.000003000000007
  0
LINE
  8
_0-0_0
  6
CONTINUOUS
 62
    7
 10
-64.586708000000044
 20
483.29994150000005
 11
-63.086708000000044
 21
483.29994150000005
  0
ARC
  8
_0-0_0
  6
CONTINUOUS
 62
    7
 10
-64.586708000000044
 20
484.29994150000005
 40
1
 50
180.00000900000003
 51
269.99999700000001
  0
LINE
  8
_0-0_0
  6
CONTINUOUS
 62
    7
 10
-65.586708000000044
 20
484.29994150000005
 11
-65.586708000000044
 21
484.40003950000005
  0
LINE
  8
_0-0_0
  6
CONTINUOUS
 62
    7
 10
-66.086708000000044
 20
483.29994150000005
 11
-66.086708000000044
 21
484.40003950000005
  0
ARC
  8
_0-0_0
  6
CONTINUOUS
 62
    7
 10
-65.086708000000044
 20
483.29994150000005
 40
1
 50
180.00000900000003
 51
269.99999700000001
  0
LINE
  8
_0-0_0
  6
CONTINUOUS
 62
    7
 10
-65.086708000000044
 20
482.29994150000005
 11
-65.28671300000002
 21
482.29994150000005
  0
ARC
  8
_0-0_0
  6
CONTINUOUS
 62
    7
 10
-65.28671300000002
 20
483.29994150000005
 40
1
 50
180.00000900000003
 51
269.99999700000001
  0
ARC
  8
_0-0_0
  6
CONTINUOUS
 62
    7
 10
-75.486710000000016
 20
483.29994150000005
 40
1
 50
269.99999700000001
 51
0
  0
LINE
  8
_0-0_0
  6
CONTINUOUS
 62
    7
 10
-75.486710000000016
 20
482.29994150000005
 11
-76.186706000000015
 21
482.29994150000005
  0
LINE
  8
_0-0_0
  6
CONTINUOUS
 62
    7
 10
-62.386710999999991
 20
482.29994150000005
 11
-62.586708000000044
 21
482.29994150000005
  0
LINE
  8
_0-0_0
  6
CONTINUOUS
 62
    7
 10
-79.186706000000015
 20
480.59992950000003
 11
-62.386710999999991
 21
480.59992950000003
  0
LINE
  8
_0-0_0
  6
CONTINUOUS
 62
    7
 10
-62.386710999999991
 20
480.59992950000003
 11
-62.386710999999991
 21
482.29994150000005
  0
LINE
  8
_0-0_0
  6
CONTINUOUS
 62
    7
 10
-66.28671300000002
 20
484.40003950000005
 11
-66.28671300000002
 21
483.29994150000005
  0
LINE
  8
_0-0_0
  6
CONTINUOUS
 62
    7
 10
-74.486710000000016
 20
483.29994150000005
 11
-74.486710000000016
 21
484.40003950000005
  0
LINE
  8
_0-0_0
  6
CONTINUOUS
 62
    7
 10
-78.186706000000015
 20
482.29994150000005
 11
-79.186706000000015
 21
482.29994150000005
  0
LINE
  8
_0-0_0
  6
CONTINUOUS
 62
    7
 10
-79.186706000000015
 20
480.59992950000003
 11
-79.186706000000015
 21
482.29994150000005
  0
LINE
  8
_0-0_0
  6
CONTINUOUS
 62
    7
 10
-63.886710999999991
 20
479.89994750000005
 11
-64.386710999999991
 21
479.89994750000005
  0
CIRCLE
  8
_0-0_0
  6
CONTINUOUS
 62
    7
 10
-64.386710999999991
 20
477.39994750000005
 40
2.5
  0
LINE
  8
_0-0_0
  6
CONTINUOUS
 62
    7
 10
-76.886710999999991
 20
479.89994750000005
 11
-67.886710999999991
 21
479.89994750000005
  0
LINE
  8
_0-0_0
  6
CONTINUOUS
 62
    7
 10
-64.386710999999991
 20
479.89994750000005
 11
-67.386710999999991
 21
479.89994750000005
  0
LINE
  8
_0-0_0
  6
CONTINUOUS
 62
    7
 10
-67.886710999999991
 20
479.89994750000005
 11
-67.386710999999991
 21
479.89994750000005
  0
ARC
  8
_0-0_0
  6
CONTINUOUS
 62
    7
 10
-62.386710999999991
 20
473.89994750000005
 40
0.5
 50
0
 51
90.000003000000007
  0
LINE
  8
_0-0_0
  6
CONTINUOUS
 62
    7
 10
-63.886710999999991
 20
458.40257250000002
 11
-63.87082700000002
 21
458.37532050000004
  0
LINE
  8
_0-0_0
  6
CONTINUOUS
 62
    7
 10
-63.87082700000002
 20
458.37532050000004
 11
-63.854980000000012
 21
458.35234049999997
  0
LINE
  8
_0-0_0
  6
CONTINUOUS
 62
    7
 10
-63.854980000000012
 20
458.35234049999997
 11
-63.841003000000001
 21
458.33558649999998
  0
LINE
  8
_0-0_0
  6
CONTINUOUS
 62
    7
 10
-63.841003000000001
 20
458.33558649999998
 11
-63.827103000000022
 21
458.3222505
  0
LINE
  8
_0-0_0
  6
CONTINUOUS
 62
    7
 10
-63.827103000000022
 20
458.3222505
 11
-63.814887999999996
 21
458.31333949999998
  0
LINE
  8
_0-0_0
  6
CONTINUOUS
 62
    7
 10
-63.814887999999996
 20
458.31333949999998
 11
-63.802765000000022
 21
458.30711350000001
  0
LINE
  8
_0-0_0
  6
CONTINUOUS
 62
    7
 10
-63.802765000000022
 20
458.30711350000001
 11
-63.791900999999996
 21
458.30384849999996
  0
LINE
  8
_0-0_0
  6
CONTINUOUS
 62
    7
 10
-63.791900999999996
 20
458.30384849999996
 11
-63.781143000000043
 21
458.30278050000004
  0
LINE
  8
_0-0_0
  6
CONTINUOUS
 62
    7
 10
-63.781143000000043
 20
458.30278050000004
 11
-63.778685999999993
 21
458.30287150000004
  0
LINE
  8
_0-0_0
  6
CONTINUOUS
 62
    7
 10
-78.186706000000015
 20
479.41981450000003
 11
-78.186706000000015
 21
480.59901449999995
  0
ARC
  8
_0-0_0
  6
CONTINUOUS
 62
    7
 10
-78.386710999999991
 20
464.29994150000005
 40
0.5
 50
180.00000900000003
 51
269.99999700000001
  0
CIRCLE
  8
_0-0_0
  6
CONTINUOUS
 62
    7
 10
-76.386710999999991
 20
460.79994150000005
 40
2.5
  0
LINE
  8
_0-0_0
  6
CONTINUOUS
 62
    7
 10
-76.886710999999991
 20
479.79731749999996
 11
-76.902588000000037
 21
479.82456950000005
  0
LINE
  8
_0-0_0
  6
CONTINUOUS
 62
    7
 10
-76.902588000000037
 20
479.82456950000005
 11
-76.918434000000047
 21
479.84754950000001
  0
LINE
  8
_0-0_0
  6
CONTINUOUS
 62
    7
 10
-76.918434000000047
 20
479.84754950000001
 11
-76.932411000000002
 21
479.86430350000001
  0
LINE
  8
_0-0_0
  6
CONTINUOUS
 62
    7
 10
-76.932411000000002
 20
479.86430350000001
 11
-76.946312000000034
 21
479.87763949999999
  0
LINE
  8
_0-0_0
  6
CONTINUOUS
 62
    7
 10
-76.946312000000034
 20
479.87763949999999
 11
-76.958527000000004
 21
479.8865505
  0
LINE
  8
_0-0_0
  6
CONTINUOUS
 62
    7
 10
-76.958527000000004
 20
479.8865505
 11
-76.970650000000035
 21
479.89277649999997
  0
LINE
  8
_0-0_0
  6
CONTINUOUS
 62
    7
 10
-76.970650000000035
 20
479.89277649999997
 11
-76.981514000000004
 21
479.89604150000002
  0
LINE
  8
_0-0_0
  6
CONTINUOUS
 62
    7
 10
-76.981514000000004
 20
479.89604150000002
 11
-76.992271000000017
 21
479.89710950000006
  0
LINE
  8
_0-0_0
  6
CONTINUOUS
 62
    7
 10
-76.992271000000017
 20
479.89710950000006
 11
-76.994735999999989
 21
479.89701850000006
  0
LINE
  8
_0-0_0
  6
CONTINUOUS
 62
    7
 10
-79.186706000000015
 20
461.69993550000004
 11
-79.28670900000003
 21
461.69993550000004
  0
LINE
  8
_0-0_0
  6
CONTINUOUS
 62
    7
 10
-79.28670900000003
 20
461.69993550000004
 11
-79.28670900000003
 21
464.69993550000004
  0
LINE
  8
_0-0_0
  6
CONTINUOUS
 62
    7
 10
-79.28670900000003
 20
464.69993550000004
 11
-79.28670900000003
 21
478.29994150000005
  0
LINE
  8
_0-0_0
  6
CONTINUOUS
 62
    7
 10
-79.186706000000015
 20
481.29994150000005
 11
-79.28670900000003
 21
481.29994150000005
  0
LINE
  8
_0-0_0
  6
CONTINUOUS
 62
    7
 10
-79.28670900000003
 20
478.29994150000005
 11
-79.28670900000003
 21
481.29994150000005
  0
ARC
  8
_0-0_0
  6
CONTINUOUS
 62
    7
 10
-72.886710999999991
 20
458.79994150000005
 40
0.5
 50
180.00000900000003
 51
269.99999700000001
  0
ARC
  8
_0-0_0
  6
CONTINUOUS
 62
    7
 10
-76.186706000000015
 20
483.80000250000001
 40
1.5
 50
269.99999700000001
 51
0
  0
ARC
  8
_0-0_0
  6
CONTINUOUS
 62
    7
 10
-77.686706000000015
 20
482.80000250000001
 40
0.5
 50
90.000003000000007
 51
180.00000900000001
  0
LINE
  8
_0-0_0
  6
CONTINUOUS
 62
    7
 10
-77.686706000000015
 20
483.30000250000001
 11
-76.186706000000015
 21
483.30000250000001
  0
ARC
  8
_0-0_0
  6
CONTINUOUS
 62
    7
 10
-76.186706000000015
 20
484.30000250000001
 40
1
 50
269.99999700000001
 51
0
  0
LINE
  8
_0-0_0
  6
CONTINUOUS
 62
    7
 10
-75.186706000000015
 20
484.40003950000005
 11
-75.186706000000015
 21
484.30000250000001
  0
LINE
  8
_0-0_0
  6
CONTINUOUS
 62
    7
 10
-74.686706000000015
 20
484.40003950000005
 11
-74.686706000000015
 21
483.80000250000001
  0
LINE
  8
_0-0_0
  6
CONTINUOUS
 62
    7
 10
-78.186706000000015
 20
482.30000250000001
 11
-78.186706000000015
 21
482.80000250000001
  0
ARC
  8
_0-0_0
  6
CONTINUOUS
 62
    7
 10
-67.886710999999991
 20
479.39994750000005
 40
0.5
 50
0
 51
90.000003000000007
  0
LINE
  8
_0-0_0
  6
CONTINUOUS
 62
    7
 10
-67.386710999999991
 20
479.32295250000004
 11
-67.386710999999991
 21
479.39994750000005
  0
LINE
  8
_0-0_0
  6
CONTINUOUS
 62
    7
 10
-67.386710999999991
 20
477.88145450000002
 11
-67.386710999999991
 21
479.32295250000004
  0
LINE
  8
_0-0_0
  6
CONTINUOUS
 62
    7
 10
-67.386710999999991
 20
477.39994750000005
 11
-67.386710999999991
 21
477.88145450000002
  0
ARC
  8
_0-0_0
  6
CONTINUOUS
 62
    7
 10
-64.386710999999991
 20
477.39994750000005
 40
3
 50
180.00000900000003
 51
269.99999700000001
  0
LINE
  8
_0-0_0
  6
CONTINUOUS
 62
    7
 10
-63.905205000000024
 20
474.39994750000005
 11
-64.386710999999991
 21
474.39994750000005
  0
LINE
  8
_0-0_0
  6
CONTINUOUS
 62
    7
 10
-63.905205000000024
 20
474.39994750000005
 11
-62.463684000000001
 21
474.39994750000005
  0
LINE
  8
_0-0_0
  6
CONTINUOUS
 62
    7
 10
-62.386710999999991
 20
474.39994750000005
 11
-62.463684000000001
 21
474.39994750000005
  0
LINE
  8
_0-0_0
  6
CONTINUOUS
 62
    7
 10
-78.309730000000002
 20
463.79994150000005
 11
-78.386710999999991
 21
463.79994150000005
  0
LINE
  8
_0-0_0
  6
CONTINUOUS
 62
    7
 10
-76.386710999999991
 20
463.79994150000005
 11
-76.868210000000033
 21
463.79994150000005
  0
LINE
  8
_0-0_0
  6
CONTINUOUS
 62
    7
 10
-76.868210000000033
 20
463.79994150000005
 11
-78.309730000000002
 21
463.79994150000005
  0
LINE
  8
_0-0_0
  6
CONTINUOUS
 62
    7
 10
-73.386710999999991
 20
458.79994150000005
 11
-73.386710999999991
 21
458.87690750000002
  0
LINE
  8
_0-0_0
  6
CONTINUOUS
 62
    7
 10
-73.386710999999991
 20
460.31843549999996
 11
-73.386710999999991
 21
458.87690750000002
  0
LINE
  8
_0-0_0
  6
CONTINUOUS
 62
    7
 10
-73.386710999999991
 20
460.31843549999996
 11
-73.386710999999991
 21
460.79994150000005
  0
ARC
  8
_0-0_0
  6
CONTINUOUS
 62
    7
 10
-76.386710999999991
 20
460.79994150000005
 40
3
 50
0
 51
89.999995999999996
  0
LINE
  8
_0-0_0
  6
CONTINUOUS
 62
    7
 10
-61.886710999999991
 20
481.41120850000004
 11
-61.886710999999991
 21
479.52494750000005
  0
LINE
  8
_0-0_0
  6
CONTINUOUS
 62
    7
 10
-61.886710999999991
 20
482.07493550000004
 11
-61.886710999999991
 21
481.41120850000004
  0
ARC
  8
_0-0_0
  6
CONTINUOUS
 62
    7
 10
-67.156593000000044
 20
470.27317749999997
 40
3.063396
 50
19.82113
 51
25.289563000000001
  0
ARC
  8
_0-0_0
  6
CONTINUOUS
 62
    7
 10
-67.156272999999999
 20
467.92655950000005
 40
3.0630519999999999
 50
334.71006
 51
340.17869200000001
  0
ARC
  8
_0-0_0
  6
CONTINUOUS
 62
    7
 10
-73.616821000000016
 20
467.92671150000001
 40
3.063399
 50
199.82113599999997
 51
205.28948099999999
  0
ARC
  8
_0-0_0
  6
CONTINUOUS
 62
    7
 10
-73.617142000000001
 20
470.27333050000004
 40
3.0630549999999999
 50
154.710137
 51
160.17869999999999
  0
ARC
  8
_0-0_0
  6
CONTINUOUS
 62
    7
 10
-70.386710999999991
 20
469.09992950000003
 40
6.5
 50
340.10416099999998
 51
19.895609999999952
  0
ARC
  8
_0-0_0
  6
CONTINUOUS
 62
    7
 10
-70.386710999999991
 20
469.09992950000003
 40
6.5
 50
160.10415599999999
 51
199.895612
  0
LINE
  8
_0-0_0
  6
CONTINUOUS
 62
    7
 10
-78.886707000000001
 20
480.18873550000001
 11
-78.886707000000001
 21
480.59907550000003
  0
LINE
  8
_0-0_0
  6
CONTINUOUS
 62
    7
 10
-78.886707000000001
 20
479.52986150000004
 11
-78.886707000000001
 21
480.18873550000001
  0
LINE
  8
_0-0_0
  6
CONTINUOUS
 62
    7
 10
-71.128379999999993
 20
475.59992950000003
 11
-75.645035000000007
 21
472.9922335
  0
LINE
  8
_0-0_0
  6
CONTINUOUS
 62
    7
 10
-69.645035000000007
 20
475.59992950000003
 11
-71.128379999999993
 21
475.59992950000003
  0
LINE
  8
_0-0_0
  6
CONTINUOUS
 62
    7
 10
-65.128379999999993
 20
472.9922335
 11
-69.645035000000007
 21
475.59992950000003
  0
LINE
  8
_0-0_0
  6
CONTINUOUS
 62
    7
 10
-64.386710999999991
 20
471.70762649999995
 11
-64.386710999999991
 21
466.4922335
  0
LINE
  8
_0-0_0
  6
CONTINUOUS
 62
    7
 10
-65.128379999999993
 20
472.9922335
 11
-64.386710999999991
 21
471.70762649999995
  0
LINE
  8
_0-0_0
  6
CONTINUOUS
 62
    7
 10
-69.645035000000007
 20
462.59992950000003
 11
-65.128379999999993
 21
465.20762649999995
  0
LINE
  8
_0-0_0
  6
CONTINUOUS
 62
    7
 10
-64.834250999999995
 20
465.71708650000005
 11
-64.386710999999991
 21
466.4922335
  0
LINE
  8
_0-0_0
  6
CONTINUOUS
 62
    7
 10
-64.834250999999995
 20
465.71708650000005
 11
-65.128379999999993
 21
465.20762649999995
  0
LINE
  8
_0-0_0
  6
CONTINUOUS
 62
    7
 10
-71.128379999999993
 20
462.59992950000003
 11
-69.645035000000007
 21
462.59992950000003
  0
LINE
  8
_0-0_0
  6
CONTINUOUS
 62
    7
 10
-75.645035000000007
 20
465.20762649999995
 11
-71.128379999999993
 21
462.59992950000003
  0
LINE
  8
_0-0_0
  6
CONTINUOUS
 62
    7
 10
-76.386710999999991
 20
471.70762649999995
 11
-76.386710999999991
 21
466.4922335
  0
LINE
  8
_0-0_0
  6
CONTINUOUS
 62
    7
 10
-75.645035000000007
 20
465.20762649999995
 11
-76.386710999999991
 21
466.4922335
  0
LINE
  8
_0-0_0
  6
CONTINUOUS
 62
    7
 10
-75.939163000000008
 20
472.48280350000005
 11
-76.386710999999991
 21
471.70762649999995
  0
LINE
  8
_0-0_0
  6
CONTINUOUS
 62
    7
 10
-75.939163000000008
 20
472.48280350000005
 11
-75.645035000000007
 21
472.9922335
  0
LINE
  8
_0-0_0
  6
CONTINUOUS
 62
    7
 10
-62.499702000000013
 20
478.6253815
 11
-62.221649000000014
 21
478.64994750000005
  0
LINE
  8
_0-0_0
  6
CONTINUOUS
 62
    7
 10
-62.381942999999978
 20
478.42143250000004
 11
-62.221649000000014
 21
478.64994750000005
  0
LINE
  8
_0-0_0
  6
CONTINUOUS
 62
    7
 10
-62.638130000000046
 20
478.81590249999999
 11
-62.364166000000012
 21
478.86939949999999
  0
LINE
  8
_0-0_0
  6
CONTINUOUS
 62
    7
 10
-62.499702000000013
 20
478.6253815
 11
-62.364166000000012
 21
478.86939949999999
  0
LINE
  8
_0-0_0
  6
CONTINUOUS
 62
    7
 10
-62.79571500000003
 20
478.99092050000002
 11
-62.528847000000042
 21
479.07276950000005
  0
LINE
  8
_0-0_0
  6
CONTINUOUS
 62
    7
 10
-62.638130000000046
 20
478.81590249999999
 11
-62.528847000000042
 21
479.07276950000005
  0
LINE
  8
_0-0_0
  6
CONTINUOUS
 62
    7
 10
-62.970733999999993
 20
479.14851350000004
 11
-62.713882000000012
 21
479.25779750000004
  0
LINE
  8
_0-0_0
  6
CONTINUOUS
 62
    7
 10
-62.79571500000003
 20
478.99092050000002
 11
-62.713882000000012
 21
479.25779750000004
  0
LINE
  8
_0-0_0
  6
CONTINUOUS
 62
    7
 10
-63.161270000000002
 20
479.28694150000001
 11
-62.917243999999982
 21
479.42250049999996
  0
LINE
  8
_0-0_0
  6
CONTINUOUS
 62
    7
 10
-62.970733999999993
 20
479.14851350000004
 11
-62.917243999999982
 21
479.42250049999996
  0
LINE
  8
_0-0_0
  6
CONTINUOUS
 62
    7
 10
-63.365233999999987
 20
479.40470849999997
 11
-63.136710999999991
 21
479.56501749999995
  0
LINE
  8
_0-0_0
  6
CONTINUOUS
 62
    7
 10
-63.161270000000002
 20
479.28694150000001
 11
-63.136710999999991
 21
479.56501749999995
  0
LINE
  8
_0-0_0
  6
CONTINUOUS
 62
    7
 10
-63.580382999999983
 20
479.50050350000004
 11
-63.369865000000004
 21
479.68379149999998
  0
LINE
  8
_0-0_0
  6
CONTINUOUS
 62
    7
 10
-63.365233999999987
 20
479.40470849999997
 11
-63.369865000000004
 21
479.68379149999998
  0
LINE
  8
_0-0_0
  6
CONTINUOUS
 62
    7
 10
-63.804367000000013
 20
479.57328749999999
 11
-63.614166000000012
 21
479.77757250000002
  0
LINE
  8
_0-0_0
  6
CONTINUOUS
 62
    7
 10
-63.580382999999983
 20
479.50050350000004
 11
-63.614166000000012
 21
479.77757250000002
  0
LINE
  8
_0-0_0
  6
CONTINUOUS
 62
    7
 10
-64.034729000000027
 20
479.62223849999998
 11
-63.86692800000003
 21
479.84532149999995
  0
LINE
  8
_0-0_0
  6
CONTINUOUS
 62
    7
 10
-63.804367000000013
 20
479.57328749999999
 11
-63.86692800000003
 21
479.84532149999995
  0
LINE
  8
_0-0_0
  6
CONTINUOUS
 62
    7
 10
-64.268951000000015
 20
479.64686549999999
 11
-64.125389000000041
 21
479.88624549999997
  0
LINE
  8
_0-0_0
  6
CONTINUOUS
 62
    7
 10
-64.034729000000027
 20
479.62223849999998
 11
-64.125389000000041
 21
479.88624549999997
  0
LINE
  8
_0-0_0
  6
CONTINUOUS
 62
    7
 10
-64.504462999999987
 20
479.64686549999999
 11
-64.386710999999991
 21
479.89994750000005
  0
LINE
  8
_0-0_0
  6
CONTINUOUS
 62
    7
 10
-64.268951000000015
 20
479.64686549999999
 11
-64.386710999999991
 21
479.89994750000005
  0
LINE
  8
_0-0_0
  6
CONTINUOUS
 62
    7
 10
-64.73868600000003
 20
479.62223849999998
 11
-64.648025000000018
 21
479.88624549999997
  0
LINE
  8
_0-0_0
  6
CONTINUOUS
 62
    7
 10
-64.504462999999987
 20
479.64686549999999
 11
-64.648025000000018
 21
479.88624549999997
  0
LINE
  8
_0-0_0
  6
CONTINUOUS
 62
    7
 10
-64.969055000000026
 20
479.57328749999999
 11
-64.906486000000029
 21
479.84532149999995
  0
LINE
  8
_0-0_0
  6
CONTINUOUS
 62
    7
 10
-64.73868600000003
 20
479.62223849999998
 11
-64.906486000000029
 21
479.84532149999995
  0
LINE
  8
_0-0_0
  6
CONTINUOUS
 62
    7
 10
-65.193038999999999
 20
479.50050350000004
 11
-65.159248000000048
 21
479.77757250000002
  0
LINE
  8
_0-0_0
  6
CONTINUOUS
 62
    7
 10
-64.969055000000026
 20
479.57328749999999
 11
-65.159248000000048
 21
479.77757250000002
  0
LINE
  8
_0-0_0
  6
CONTINUOUS
 62
    7
 10
-65.408187999999996
 20
479.40470849999997
 11
-65.403548999999998
 21
479.68379149999998
  0
LINE
  8
_0-0_0
  6
CONTINUOUS
 62
    7
 10
-65.193038999999999
 20
479.50050350000004
 11
-65.403548999999998
 21
479.68379149999998
  0
LINE
  8
_0-0_0
  6
CONTINUOUS
 62
    7
 10
-65.527725000000032
 20
479.48857150000003
 11
-65.636710999999991
 21
479.56501749999995
  0
LINE
  8
_0-0_0
  6
CONTINUOUS
 62
    7
 10
-65.408187999999996
 20
479.40470849999997
 11
-65.527725000000032
 21
479.48857150000003
  0
LINE
  8
_0-0_0
  6
CONTINUOUS
 62
    7
 10
-65.612144000000001
 20
479.28694150000001
 11
-65.636710999999991
 21
479.56501749999995
  0
LINE
  8
_0-0_0
  6
CONTINUOUS
 62
    7
 10
-65.802681000000007
 20
479.14851350000004
 11
-65.856171000000018
 21
479.42250049999996
  0
LINE
  8
_0-0_0
  6
CONTINUOUS
 62
    7
 10
-65.612144000000001
 20
479.28694150000001
 11
-65.856171000000018
 21
479.42250049999996
  0
LINE
  8
_0-0_0
  6
CONTINUOUS
 62
    7
 10
-65.97769900000003
 20
478.99092050000002
 11
-66.059540000000027
 21
479.25779750000004
  0
LINE
  8
_0-0_0
  6
CONTINUOUS
 62
    7
 10
-65.802681000000007
 20
479.14851350000004
 11
-66.059540000000027
 21
479.25779750000004
  0
LINE
  8
_0-0_0
  6
CONTINUOUS
 62
    7
 10
-66.135284000000013
 20
478.81590249999999
 11
-66.244568000000015
 21
479.07276950000005
  0
LINE
  8
_0-0_0
  6
CONTINUOUS
 62
    7
 10
-65.97769900000003
 20
478.99092050000002
 11
-66.244568000000015
 21
479.07276950000005
  0
LINE
  8
_0-0_0
  6
CONTINUOUS
 62
    7
 10
-66.273720000000026
 20
478.6253815
 11
-66.409248000000048
 21
478.86939949999999
  0
LINE
  8
_0-0_0
  6
CONTINUOUS
 62
    7
 10
-66.135284000000013
 20
478.81590249999999
 11
-66.409248000000048
 21
478.86939949999999
  0
LINE
  8
_0-0_0
  6
CONTINUOUS
 62
    7
 10
-66.391472000000022
 20
478.42143250000004
 11
-66.551773000000026
 21
478.64994750000005
  0
LINE
  8
_0-0_0
  6
CONTINUOUS
 62
    7
 10
-66.273720000000026
 20
478.6253815
 11
-66.551773000000026
 21
478.64994750000005
  0
LINE
  8
_0-0_0
  6
CONTINUOUS
 62
    7
 10
-66.487266000000034
 20
478.20628350000004
 11
-66.670569999999998
 21
478.41679350000004
  0
LINE
  8
_0-0_0
  6
CONTINUOUS
 62
    7
 10
-66.391472000000022
 20
478.42143250000004
 11
-66.670569999999998
 21
478.41679350000004
  0
LINE
  8
_0-0_0
  6
CONTINUOUS
 62
    7
 10
-66.560043000000007
 20
477.98228449999999
 11
-66.764351000000033
 21
478.17250049999996
  0
LINE
  8
_0-0_0
  6
CONTINUOUS
 62
    7
 10
-66.487266000000034
 20
478.20628350000004
 11
-66.764351000000033
 21
478.17250049999996
  0
LINE
  8
_0-0_0
  6
CONTINUOUS
 62
    7
 10
-66.609009000000015
 20
477.75190750000002
 11
-66.832077000000027
 21
477.91972350000003
  0
LINE
  8
_0-0_0
  6
CONTINUOUS
 62
    7
 10
-66.560043000000007
 20
477.98228449999999
 11
-66.832077000000027
 21
477.91972350000003
  0
LINE
  8
_0-0_0
  6
CONTINUOUS
 62
    7
 10
-66.609009000000015
 20
477.75190750000002
 11
-66.873016000000007
 21
477.6612705
  0
LINE
  8
_0-0_0
  6
CONTINUOUS
 62
    7
 10
-66.633621000000005
 20
477.51768449999997
 11
-66.873016000000007
 21
477.6612705
  0
LINE
  8
_0-0_0
  6
CONTINUOUS
 62
    7
 10
-66.633621000000005
 20
477.28218049999998
 11
-66.886710999999991
 21
477.39994750000005
  0
LINE
  8
_0-0_0
  6
CONTINUOUS
 62
    7
 10
-66.633621000000005
 20
477.51768449999997
 11
-66.886710999999991
 21
477.39994750000005
  0
LINE
  8
_0-0_0
  6
CONTINUOUS
 62
    7
 10
-66.609009000000015
 20
477.04795850000005
 11
-66.873016000000007
 21
477.13862549999999
  0
LINE
  8
_0-0_0
  6
CONTINUOUS
 62
    7
 10
-66.633621000000005
 20
477.28218049999998
 11
-66.873016000000007
 21
477.13862549999999
  0
LINE
  8
_0-0_0
  6
CONTINUOUS
 62
    7
 10
-66.560043000000007
 20
476.8176115
 11
-66.832077000000027
 21
476.88017249999996
  0
LINE
  8
_0-0_0
  6
CONTINUOUS
 62
    7
 10
-66.609009000000015
 20
477.04795850000005
 11
-66.832077000000027
 21
476.88017249999996
  0
LINE
  8
_0-0_0
  6
CONTINUOUS
 62
    7
 10
-66.487266000000034
 20
476.59361249999995
 11
-66.764351000000033
 21
476.62739550000003
  0
LINE
  8
_0-0_0
  6
CONTINUOUS
 62
    7
 10
-66.560043000000007
 20
476.8176115
 11
-66.764351000000033
 21
476.62739550000003
  0
LINE
  8
_0-0_0
  6
CONTINUOUS
 62
    7
 10
-66.391472000000022
 20
476.37846349999995
 11
-66.670569999999998
 21
476.38310249999995
  0
LINE
  8
_0-0_0
  6
CONTINUOUS
 62
    7
 10
-66.487266000000034
 20
476.59361249999995
 11
-66.670569999999998
 21
476.38310249999995
  0
LINE
  8
_0-0_0
  6
CONTINUOUS
 62
    7
 10
-66.273720000000026
 20
476.17451449999999
 11
-66.551773000000026
 21
476.14994750000005
  0
LINE
  8
_0-0_0
  6
CONTINUOUS
 62
    7
 10
-66.391472000000022
 20
476.37846349999995
 11
-66.551773000000026
 21
476.14994750000005
  0
LINE
  8
_0-0_0
  6
CONTINUOUS
 62
    7
 10
-66.135284000000013
 20
475.98396249999996
 11
-66.409248000000048
 21
475.9304965
  0
LINE
  8
_0-0_0
  6
CONTINUOUS
 62
    7
 10
-66.273720000000026
 20
476.17451449999999
 11
-66.409248000000048
 21
475.9304965
  0
LINE
  8
_0-0_0
  6
CONTINUOUS
 62
    7
 10
-65.97769900000003
 20
475.80894450000005
 11
-66.244568000000015
 21
475.72712650000005
  0
LINE
  8
_0-0_0
  6
CONTINUOUS
 62
    7
 10
-66.135284000000013
 20
475.98396249999996
 11
-66.244568000000015
 21
475.72712650000005
  0
LINE
  8
_0-0_0
  6
CONTINUOUS
 62
    7
 10
-65.802681000000007
 20
475.65135150000003
 11
-66.059540000000027
 21
475.54206850000003
  0
LINE
  8
_0-0_0
  6
CONTINUOUS
 62
    7
 10
-65.97769900000003
 20
475.80894450000005
 11
-66.059540000000027
 21
475.54206850000003
  0
LINE
  8
_0-0_0
  6
CONTINUOUS
 62
    7
 10
-65.612144000000001
 20
475.51292450000005
 11
-65.856171000000018
 21
475.37739550000003
  0
LINE
  8
_0-0_0
  6
CONTINUOUS
 62
    7
 10
-65.802681000000007
 20
475.65135150000003
 11
-65.856171000000018
 21
475.37739550000003
  0
LINE
  8
_0-0_0
  6
CONTINUOUS
 62
    7
 10
-65.408187999999996
 20
475.39518750000002
 11
-65.636710999999991
 21
475.23487850000004
  0
LINE
  8
_0-0_0
  6
CONTINUOUS
 62
    7
 10
-65.612144000000001
 20
475.51292450000005
 11
-65.636710999999991
 21
475.23487850000004
  0
LINE
  8
_0-0_0
  6
CONTINUOUS
 62
    7
 10
-65.193038999999999
 20
475.29939249999995
 11
-65.403548999999998
 21
475.11607349999997
  0
LINE
  8
_0-0_0
  6
CONTINUOUS
 62
    7
 10
-65.408187999999996
 20
475.39518750000002
 11
-65.403548999999998
 21
475.11607349999997
  0
LINE
  8
_0-0_0
  6
CONTINUOUS
 62
    7
 10
-64.969055000000026
 20
475.2266085
 11
-65.159248000000048
 21
475.02229250000005
  0
LINE
  8
_0-0_0
  6
CONTINUOUS
 62
    7
 10
-65.193038999999999
 20
475.29939249999995
 11
-65.159248000000048
 21
475.02229250000005
  0
LINE
  8
_0-0_0
  6
CONTINUOUS
 62
    7
 10
-64.73868600000003
 20
475.17765750000001
 11
-64.906486000000029
 21
474.95457450000004
  0
LINE
  8
_0-0_0
  6
CONTINUOUS
 62
    7
 10
-64.969055000000026
 20
475.2266085
 11
-64.906486000000029
 21
474.95457450000004
  0
LINE
  8
_0-0_0
  6
CONTINUOUS
 62
    7
 10
-64.504462999999987
 20
475.1530305
 11
-64.648025000000018
 21
474.91365050000002
  0
LINE
  8
_0-0_0
  6
CONTINUOUS
 62
    7
 10
-64.73868600000003
 20
475.17765750000001
 11
-64.648025000000018
 21
474.91365050000002
  0
LINE
  8
_0-0_0
  6
CONTINUOUS
 62
    7
 10
-64.268951000000015
 20
475.1530305
 11
-64.386710999999991
 21
474.89994750000005
  0
LINE
  8
_0-0_0
  6
CONTINUOUS
 62
    7
 10
-64.504462999999987
 20
475.1530305
 11
-64.386710999999991
 21
474.89994750000005
  0
LINE
  8
_0-0_0
  6
CONTINUOUS
 62
    7
 10
-64.034729000000027
 20
475.17765750000001
 11
-64.125389000000041
 21
474.91365050000002
  0
LINE
  8
_0-0_0
  6
CONTINUOUS
 62
    7
 10
-64.268951000000015
 20
475.1530305
 11
-64.125389000000041
 21
474.91365050000002
  0
LINE
  8
_0-0_0
  6
CONTINUOUS
 62
    7
 10
-63.804367000000013
 20
475.2266085
 11
-63.86692800000003
 21
474.95457450000004
  0
LINE
  8
_0-0_0
  6
CONTINUOUS
 62
    7
 10
-64.034729000000027
 20
475.17765750000001
 11
-63.86692800000003
 21
474.95457450000004
  0
LINE
  8
_0-0_0
  6
CONTINUOUS
 62
    7
 10
-63.580382999999983
 20
475.29939249999995
 11
-63.614166000000012
 21
475.02229250000005
  0
LINE
  8
_0-0_0
  6
CONTINUOUS
 62
    7
 10
-63.804367000000013
 20
475.2266085
 11
-63.614166000000012
 21
475.02229250000005
  0
LINE
  8
_0-0_0
  6
CONTINUOUS
 62
    7
 10
-63.365233999999987
 20
475.39518750000002
 11
-63.369865000000004
 21
475.11607349999997
  0
LINE
  8
_0-0_0
  6
CONTINUOUS
 62
    7
 10
-63.580382999999983
 20
475.29939249999995
 11
-63.369865000000004
 21
475.11607349999997
  0
LINE
  8
_0-0_0
  6
CONTINUOUS
 62
    7
 10
-63.245697000000007
 20
475.31132449999996
 11
-63.136710999999991
 21
475.23487850000004
  0
LINE
  8
_0-0_0
  6
CONTINUOUS
 62
    7
 10
-63.365233999999987
 20
475.39518750000002
 11
-63.245697000000007
 21
475.31132449999996
  0
LINE
  8
_0-0_0
  6
CONTINUOUS
 62
    7
 10
-63.161270000000002
 20
475.51292450000005
 11
-63.136710999999991
 21
475.23487850000004
  0
LINE
  8
_0-0_0
  6
CONTINUOUS
 62
    7
 10
-62.970733999999993
 20
475.65135150000003
 11
-62.917243999999982
 21
475.37739550000003
  0
LINE
  8
_0-0_0
  6
CONTINUOUS
 62
    7
 10
-63.161270000000002
 20
475.51292450000005
 11
-62.917243999999982
 21
475.37739550000003
  0
LINE
  8
_0-0_0
  6
CONTINUOUS
 62
    7
 10
-62.79571500000003
 20
475.80894450000005
 11
-62.713882000000012
 21
475.54206850000003
  0
LINE
  8
_0-0_0
  6
CONTINUOUS
 62
    7
 10
-62.970733999999993
 20
475.65135150000003
 11
-62.713882000000012
 21
475.54206850000003
  0
LINE
  8
_0-0_0
  6
CONTINUOUS
 62
    7
 10
-62.638130000000046
 20
475.98396249999996
 11
-62.528847000000042
 21
475.72712650000005
  0
LINE
  8
_0-0_0
  6
CONTINUOUS
 62
    7
 10
-62.79571500000003
 20
475.80894450000005
 11
-62.528847000000042
 21
475.72712650000005
  0
LINE
  8
_0-0_0
  6
CONTINUOUS
 62
    7
 10
-62.499702000000013
 20
476.17451449999999
 11
-62.364166000000012
 21
475.9304965
  0
LINE
  8
_0-0_0
  6
CONTINUOUS
 62
    7
 10
-62.638130000000046
 20
475.98396249999996
 11
-62.364166000000012
 21
475.9304965
  0
LINE
  8
_0-0_0
  6
CONTINUOUS
 62
    7
 10
-62.381942999999978
 20
476.37846349999995
 11
-62.221649000000014
 21
476.14994750000005
  0
LINE
  8
_0-0_0
  6
CONTINUOUS
 62
    7
 10
-62.499702000000013
 20
476.17451449999999
 11
-62.221649000000014
 21
476.14994750000005
  0
LINE
  8
_0-0_0
  6
CONTINUOUS
 62
    7
 10
-62.286148000000026
 20
476.59361249999995
 11
-62.102844000000005
 21
476.38310249999995
  0
LINE
  8
_0-0_0
  6
CONTINUOUS
 62
    7
 10
-62.381942999999978
 20
476.37846349999995
 11
-62.102844000000005
 21
476.38310249999995
  0
LINE
  8
_0-0_0
  6
CONTINUOUS
 62
    7
 10
-62.213379000000032
 20
476.8176115
 11
-62.009064000000023
 21
476.62739550000003
  0
LINE
  8
_0-0_0
  6
CONTINUOUS
 62
    7
 10
-62.286148000000026
 20
476.59361249999995
 11
-62.009064000000023
 21
476.62739550000003
  0
LINE
  8
_0-0_0
  6
CONTINUOUS
 62
    7
 10
-62.164413000000025
 20
477.04795850000005
 11
-61.94133800000003
 21
476.88017249999996
  0
LINE
  8
_0-0_0
  6
CONTINUOUS
 62
    7
 10
-62.213379000000032
 20
476.8176115
 11
-61.94133800000003
 21
476.88017249999996
  0
LINE
  8
_0-0_0
  6
CONTINUOUS
 62
    7
 10
-62.139792999999997
 20
477.28218049999998
 11
-61.900406000000032
 21
477.13862549999999
  0
LINE
  8
_0-0_0
  6
CONTINUOUS
 62
    7
 10
-62.164413000000025
 20
477.04795850000005
 11
-61.900406000000032
 21
477.13862549999999
  0
LINE
  8
_0-0_0
  6
CONTINUOUS
 62
    7
 10
-62.139792999999997
 20
477.51768449999997
 11
-61.886710999999991
 21
477.39994750000005
  0
LINE
  8
_0-0_0
  6
CONTINUOUS
 62
    7
 10
-62.139792999999997
 20
477.28218049999998
 11
-61.886710999999991
 21
477.39994750000005
  0
LINE
  8
_0-0_0
  6
CONTINUOUS
 62
    7
 10
-62.164413000000025
 20
477.75190750000002
 11
-61.900406000000032
 21
477.6612705
  0
LINE
  8
_0-0_0
  6
CONTINUOUS
 62
    7
 10
-62.139792999999997
 20
477.51768449999997
 11
-61.900406000000032
 21
477.6612705
  0
LINE
  8
_0-0_0
  6
CONTINUOUS
 62
    7
 10
-62.213379000000032
 20
477.98228449999999
 11
-61.94133800000003
 21
477.91972350000003
  0
LINE
  8
_0-0_0
  6
CONTINUOUS
 62
    7
 10
-62.164413000000025
 20
477.75190750000002
 11
-61.94133800000003
 21
477.91972350000003
  0
LINE
  8
_0-0_0
  6
CONTINUOUS
 62
    7
 10
-62.286148000000026
 20
478.20628350000004
 11
-62.009064000000023
 21
478.17250049999996
  0
LINE
  8
_0-0_0
  6
CONTINUOUS
 62
    7
 10
-62.213379000000032
 20
477.98228449999999
 11
-62.009064000000023
 21
478.17250049999996
  0
LINE
  8
_0-0_0
  6
CONTINUOUS
 62
    7
 10
-62.381942999999978
 20
478.42143250000004
 11
-62.102844000000005
 21
478.41679350000004
  0
LINE
  8
_0-0_0
  6
CONTINUOUS
 62
    7
 10
-62.286148000000026
 20
478.20628350000004
 11
-62.102844000000005
 21
478.41679350000004
  0
CIRCLE
  8
_0-0_0
  6
CONTINUOUS
 62
    7
 10
-70.386710999999991
 20
469.09992950000003
 40
5.25
  0
LINE
  8
_0-0_0
  6
CONTINUOUS
 62
    7
 10
-74.499702000000013
 20
462.0253755
 11
-74.221649000000014
 21
462.04994150000005
  0
LINE
  8
_0-0_0
  6
CONTINUOUS
 62
    7
 10
-74.381942999999978
 20
461.82142650000003
 11
-74.221649000000014
 21
462.04994150000005
  0
LINE
  8
_0-0_0
  6
CONTINUOUS
 62
    7
 10
-74.638130000000046
 20
462.21592650000002
 11
-74.364166000000012
 21
462.26939349999998
  0
LINE
  8
_0-0_0
  6
CONTINUOUS
 62
    7
 10
-74.499702000000013
 20
462.0253755
 11
-74.364166000000012
 21
462.26939349999998
  0
LINE
  8
_0-0_0
  6
CONTINUOUS
 62
    7
 10
-74.79571500000003
 20
462.39094550000004
 11
-74.528847000000042
 21
462.47276250000004
  0
LINE
  8
_0-0_0
  6
CONTINUOUS
 62
    7
 10
-74.638130000000046
 20
462.21592650000002
 11
-74.528847000000042
 21
462.47276250000004
  0
LINE
  8
_0-0_0
  6
CONTINUOUS
 62
    7
 10
-74.970733999999993
 20
462.54850750000003
 11
-74.713882000000012
 21
462.65779150000003
  0
LINE
  8
_0-0_0
  6
CONTINUOUS
 62
    7
 10
-74.79571500000003
 20
462.39094550000004
 11
-74.713882000000012
 21
462.65779150000003
  0
LINE
  8
_0-0_0
  6
CONTINUOUS
 62
    7
 10
-75.161270000000002
 20
462.68696550000004
 11
-74.917243999999982
 21
462.82249449999995
  0
LINE
  8
_0-0_0
  6
CONTINUOUS
 62
    7
 10
-74.970733999999993
 20
462.54850750000003
 11
-74.917243999999982
 21
462.82249449999995
  0
LINE
  8
_0-0_0
  6
CONTINUOUS
 62
    7
 10
-75.365227000000004
 20
462.80470249999996
 11
-75.136710999999991
 21
462.96501150000006
  0
LINE
  8
_0-0_0
  6
CONTINUOUS
 62
    7
 10
-75.161270000000002
 20
462.68696550000004
 11
-75.136710999999991
 21
462.96501150000006
  0
LINE
  8
_0-0_0
  6
CONTINUOUS
 62
    7
 10
-75.580382999999983
 20
462.90049750000003
 11
-75.369865000000004
 21
463.08381650000001
  0
LINE
  8
_0-0_0
  6
CONTINUOUS
 62
    7
 10
-75.365227000000004
 20
462.80470249999996
 11
-75.369865000000004
 21
463.08381650000001
  0
LINE
  8
_0-0_0
  6
CONTINUOUS
 62
    7
 10
-75.804367000000013
 20
462.97328149999998
 11
-75.614166000000012
 21
463.17759650000005
  0
LINE
  8
_0-0_0
  6
CONTINUOUS
 62
    7
 10
-75.580382999999983
 20
462.90049750000003
 11
-75.614166000000012
 21
463.17759650000005
  0
LINE
  8
_0-0_0
  6
CONTINUOUS
 62
    7
 10
-76.034729000000027
 20
463.02223149999998
 11
-75.86692800000003
 21
463.24531549999995
  0
LINE
  8
_0-0_0
  6
CONTINUOUS
 62
    7
 10
-75.804367000000013
 20
462.97328149999998
 11
-75.86692800000003
 21
463.24531549999995
  0
LINE
  8
_0-0_0
  6
CONTINUOUS
 62
    7
 10
-76.268951000000015
 20
463.04685949999998
 11
-76.125389000000041
 21
463.28623949999997
  0
LINE
  8
_0-0_0
  6
CONTINUOUS
 62
    7
 10
-76.034729000000027
 20
463.02223149999998
 11
-76.125389000000041
 21
463.28623949999997
  0
LINE
  8
_0-0_0
  6
CONTINUOUS
 62
    7
 10
-76.504462999999987
 20
463.04685949999998
 11
-76.386710999999991
 21
463.29994150000005
  0
LINE
  8
_0-0_0
  6
CONTINUOUS
 62
    7
 10
-76.268951000000015
 20
463.04685949999998
 11
-76.386710999999991
 21
463.29994150000005
  0
LINE
  8
_0-0_0
  6
CONTINUOUS
 62
    7
 10
-76.73868600000003
 20
463.02223149999998
 11
-76.648025000000018
 21
463.28623949999997
  0
LINE
  8
_0-0_0
  6
CONTINUOUS
 62
    7
 10
-76.504462999999987
 20
463.04685949999998
 11
-76.648025000000018
 21
463.28623949999997
  0
LINE
  8
_0-0_0
  6
CONTINUOUS
 62
    7
 10
-76.969055000000026
 20
462.97328149999998
 11
-76.906486000000029
 21
463.24531549999995
  0
LINE
  8
_0-0_0
  6
CONTINUOUS
 62
    7
 10
-76.73868600000003
 20
463.02223149999998
 11
-76.906486000000029
 21
463.24531549999995
  0
LINE
  8
_0-0_0
  6
CONTINUOUS
 62
    7
 10
-77.193038999999999
 20
462.90049750000003
 11
-77.159248000000048
 21
463.17759650000005
  0
LINE
  8
_0-0_0
  6
CONTINUOUS
 62
    7
 10
-76.969055000000026
 20
462.97328149999998
 11
-77.159248000000048
 21
463.17759650000005
  0
LINE
  8
_0-0_0
  6
CONTINUOUS
 62
    7
 10
-77.408187999999996
 20
462.80470249999996
 11
-77.403548999999998
 21
463.08381650000001
  0
LINE
  8
_0-0_0
  6
CONTINUOUS
 62
    7
 10
-77.193038999999999
 20
462.90049750000003
 11
-77.403548999999998
 21
463.08381650000001
  0
LINE
  8
_0-0_0
  6
CONTINUOUS
 62
    7
 10
-77.527725000000032
 20
462.88856450000003
 11
-77.636710999999991
 21
462.96501150000006
  0
LINE
  8
_0-0_0
  6
CONTINUOUS
 62
    7
 10
-77.408187999999996
 20
462.80470249999996
 11
-77.527725000000032
 21
462.88856450000003
  0
LINE
  8
_0-0_0
  6
CONTINUOUS
 62
    7
 10
-77.612144000000001
 20
462.68696550000004
 11
-77.636710999999991
 21
462.96501150000006
  0
LINE
  8
_0-0_0
  6
CONTINUOUS
 62
    7
 10
-77.802681000000007
 20
462.54850750000003
 11
-77.856171000000018
 21
462.82249449999995
  0
LINE
  8
_0-0_0
  6
CONTINUOUS
 62
    7
 10
-77.612144000000001
 20
462.68696550000004
 11
-77.856171000000018
 21
462.82249449999995
  0
LINE
  8
_0-0_0
  6
CONTINUOUS
 62
    7
 10
-77.97769900000003
 20
462.39094550000004
 11
-78.05953199999999
 21
462.65779150000003
  0
LINE
  8
_0-0_0
  6
CONTINUOUS
 62
    7
 10
-77.802681000000007
 20
462.54850750000003
 11
-78.05953199999999
 21
462.65779150000003
  0
LINE
  8
_0-0_0
  6
CONTINUOUS
 62
    7
 10
-78.135284000000013
 20
462.21592650000002
 11
-78.244568000000015
 21
462.47276250000004
  0
LINE
  8
_0-0_0
  6
CONTINUOUS
 62
    7
 10
-77.97769900000003
 20
462.39094550000004
 11
-78.244568000000015
 21
462.47276250000004
  0
LINE
  8
_0-0_0
  6
CONTINUOUS
 62
    7
 10
-78.273720000000026
 20
462.0253755
 11
-78.409248000000048
 21
462.26939349999998
  0
LINE
  8
_0-0_0
  6
CONTINUOUS
 62
    7
 10
-78.135284000000013
 20
462.21592650000002
 11
-78.409248000000048
 21
462.26939349999998
  0
LINE
  8
_0-0_0
  6
CONTINUOUS
 62
    7
 10
-78.391472000000022
 20
461.82142650000003
 11
-78.551773000000026
 21
462.04994150000005
  0
LINE
  8
_0-0_0
  6
CONTINUOUS
 62
    7
 10
-78.273720000000026
 20
462.0253755
 11
-78.551773000000026
 21
462.04994150000005
  0
LINE
  8
_0-0_0
  6
CONTINUOUS
 62
    7
 10
-78.487262999999984
 20
461.60627750000003
 11
-78.670569999999998
 21
461.81678750000003
  0
LINE
  8
_0-0_0
  6
CONTINUOUS
 62
    7
 10
-78.391472000000022
 20
461.82142650000003
 11
-78.670569999999998
 21
461.81678750000003
  0
LINE
  8
_0-0_0
  6
CONTINUOUS
 62
    7
 10
-78.560043000000007
 20
461.38227849999998
 11
-78.764351000000033
 21
461.57249449999995
  0
LINE
  8
_0-0_0
  6
CONTINUOUS
 62
    7
 10
-78.487262999999984
 20
461.60627750000003
 11
-78.764351000000033
 21
461.57249449999995
  0
LINE
  8
_0-0_0
  6
CONTINUOUS
 62
    7
 10
-78.609009000000015
 20
461.15193150000005
 11
-78.832077000000027
 21
461.31971750000002
  0
LINE
  8
_0-0_0
  6
CONTINUOUS
 62
    7
 10
-78.560043000000007
 20
461.38227849999998
 11
-78.832077000000027
 21
461.31971750000002
  0
LINE
  8
_0-0_0
  6
CONTINUOUS
 62
    7
 10
-78.609009000000015
 20
461.15193150000005
 11
-78.873012000000017
 21
461.0612635
  0
LINE
  8
_0-0_0
  6
CONTINUOUS
 62
    7
 10
-78.633624999999995
 20
460.9177095
 11
-78.873012000000017
 21
461.0612635
  0
LINE
  8
_0-0_0
  6
CONTINUOUS
 62
    7
 10
-78.633624999999995
 20
460.68217449999997
 11
-78.886707000000001
 21
460.79994150000005
  0
LINE
  8
_0-0_0
  6
CONTINUOUS
 62
    7
 10
-78.633624999999995
 20
460.9177095
 11
-78.886707000000001
 21
460.79994150000005
  0
LINE
  8
_0-0_0
  6
CONTINUOUS
 62
    7
 10
-78.609009000000015
 20
460.44795250000004
 11
-78.873012000000017
 21
460.53861949999998
  0
LINE
  8
_0-0_0
  6
CONTINUOUS
 62
    7
 10
-78.633624999999995
 20
460.68217449999997
 11
-78.873012000000017
 21
460.53861949999998
  0
LINE
  8
_0-0_0
  6
CONTINUOUS
 62
    7
 10
-78.560043000000007
 20
460.21760549999999
 11
-78.832077000000027
 21
460.28016649999995
  0
LINE
  8
_0-0_0
  6
CONTINUOUS
 62
    7
 10
-78.609009000000015
 20
460.44795250000004
 11
-78.832077000000027
 21
460.28016649999995
  0
LINE
  8
_0-0_0
  6
CONTINUOUS
 62
    7
 10
-78.487262999999984
 20
459.99360650000006
 11
-78.764351000000033
 21
460.02738950000003
  0
LINE
  8
_0-0_0
  6
CONTINUOUS
 62
    7
 10
-78.560043000000007
 20
460.21760549999999
 11
-78.764351000000033
 21
460.02738950000003
  0
LINE
  8
_0-0_0
  6
CONTINUOUS
 62
    7
 10
-78.391472000000022
 20
459.77845750000006
 11
-78.670569999999998
 21
459.78309650000006
  0
LINE
  8
_0-0_0
  6
CONTINUOUS
 62
    7
 10
-78.487262999999984
 20
459.99360650000006
 11
-78.670569999999998
 21
459.78309650000006
  0
LINE
  8
_0-0_0
  6
CONTINUOUS
 62
    7
 10
-78.273720000000026
 20
459.57450849999998
 11
-78.551773000000026
 21
459.54994150000005
  0
LINE
  8
_0-0_0
  6
CONTINUOUS
 62
    7
 10
-78.391472000000022
 20
459.77845750000006
 11
-78.551773000000026
 21
459.54994150000005
  0
LINE
  8
_0-0_0
  6
CONTINUOUS
 62
    7
 10
-78.135284000000013
 20
459.38398749999999
 11
-78.409248000000048
 21
459.3304895
  0
LINE
  8
_0-0_0
  6
CONTINUOUS
 62
    7
 10
-78.273720000000026
 20
459.57450849999998
 11
-78.409248000000048
 21
459.3304895
  0
LINE
  8
_0-0_0
  6
CONTINUOUS
 62
    7
 10
-77.97769900000003
 20
459.20896849999997
 11
-78.244568000000015
 21
459.12712050000005
  0
LINE
  8
_0-0_0
  6
CONTINUOUS
 62
    7
 10
-78.135284000000013
 20
459.38398749999999
 11
-78.244568000000015
 21
459.12712050000005
  0
LINE
  8
_0-0_0
  6
CONTINUOUS
 62
    7
 10
-77.802681000000007
 20
459.05137649999995
 11
-78.05953199999999
 21
458.94209250000006
  0
LINE
  8
_0-0_0
  6
CONTINUOUS
 62
    7
 10
-77.97769900000003
 20
459.20896849999997
 11
-78.05953199999999
 21
458.94209250000006
  0
LINE
  8
_0-0_0
  6
CONTINUOUS
 62
    7
 10
-77.612144000000001
 20
458.91291750000005
 11
-77.856171000000018
 21
458.77738950000003
  0
LINE
  8
_0-0_0
  6
CONTINUOUS
 62
    7
 10
-77.802681000000007
 20
459.05137649999995
 11
-77.856171000000018
 21
458.77738950000003
  0
LINE
  8
_0-0_0
  6
CONTINUOUS
 62
    7
 10
-77.408187999999996
 20
458.79518150000001
 11
-77.636710999999991
 21
458.63487250000003
  0
LINE
  8
_0-0_0
  6
CONTINUOUS
 62
    7
 10
-77.612144000000001
 20
458.91291750000005
 11
-77.636710999999991
 21
458.63487250000003
  0
LINE
  8
_0-0_0
  6
CONTINUOUS
 62
    7
 10
-77.193038999999999
 20
458.69938650000006
 11
-77.403548999999998
 21
458.51606749999996
  0
LINE
  8
_0-0_0
  6
CONTINUOUS
 62
    7
 10
-77.408187999999996
 20
458.79518150000001
 11
-77.403548999999998
 21
458.51606749999996
  0
LINE
  8
_0-0_0
  6
CONTINUOUS
 62
    7
 10
-76.969055000000026
 20
458.62660249999999
 11
-77.159248000000048
 21
458.42228650000004
  0
LINE
  8
_0-0_0
  6
CONTINUOUS
 62
    7
 10
-77.193038999999999
 20
458.69938650000006
 11
-77.159248000000048
 21
458.42228650000004
  0
LINE
  8
_0-0_0
  6
CONTINUOUS
 62
    7
 10
-76.73868600000003
 20
458.5776515
 11
-76.906486000000029
 21
458.35456850000003
  0
LINE
  8
_0-0_0
  6
CONTINUOUS
 62
    7
 10
-76.969055000000026
 20
458.62660249999999
 11
-76.906486000000029
 21
458.35456850000003
  0
LINE
  8
_0-0_0
  6
CONTINUOUS
 62
    7
 10
-76.504462999999987
 20
458.55302449999999
 11
-76.648025000000018
 21
458.31364450000001
  0
LINE
  8
_0-0_0
  6
CONTINUOUS
 62
    7
 10
-76.73868600000003
 20
458.5776515
 11
-76.648025000000018
 21
458.31364450000001
  0
LINE
  8
_0-0_0
  6
CONTINUOUS
 62
    7
 10
-76.268951000000015
 20
458.55302449999999
 11
-76.386710999999991
 21
458.29994150000005
  0
LINE
  8
_0-0_0
  6
CONTINUOUS
 62
    7
 10
-76.504462999999987
 20
458.55302449999999
 11
-76.386710999999991
 21
458.29994150000005
  0
LINE
  8
_0-0_0
  6
CONTINUOUS
 62
    7
 10
-76.034729000000027
 20
458.5776515
 11
-76.125389000000041
 21
458.31364450000001
  0
LINE
  8
_0-0_0
  6
CONTINUOUS
 62
    7
 10
-76.268951000000015
 20
458.55302449999999
 11
-76.125389000000041
 21
458.31364450000001
  0
LINE
  8
_0-0_0
  6
CONTINUOUS
 62
    7
 10
-75.804367000000013
 20
458.62660249999999
 11
-75.86692800000003
 21
458.35456850000003
  0
LINE
  8
_0-0_0
  6
CONTINUOUS
 62
    7
 10
-76.034729000000027
 20
458.5776515
 11
-75.86692800000003
 21
458.35456850000003
  0
LINE
  8
_0-0_0
  6
CONTINUOUS
 62
    7
 10
-75.580382999999983
 20
458.69938650000006
 11
-75.614166000000012
 21
458.42228650000004
  0
LINE
  8
_0-0_0
  6
CONTINUOUS
 62
    7
 10
-75.804367000000013
 20
458.62660249999999
 11
-75.614166000000012
 21
458.42228650000004
  0
LINE
  8
_0-0_0
  6
CONTINUOUS
 62
    7
 10
-75.365227000000004
 20
458.79518150000001
 11
-75.369865000000004
 21
458.51606749999996
  0
LINE
  8
_0-0_0
  6
CONTINUOUS
 62
    7
 10
-75.580382999999983
 20
458.69938650000006
 11
-75.369865000000004
 21
458.51606749999996
  0
LINE
  8
_0-0_0
  6
CONTINUOUS
 62
    7
 10
-75.245697000000007
 20
458.71131849999995
 11
-75.136710999999991
 21
458.63487250000003
  0
LINE
  8
_0-0_0
  6
CONTINUOUS
 62
    7
 10
-75.365227000000004
 20
458.79518150000001
 11
-75.245697000000007
 21
458.71131849999995
  0
LINE
  8
_0-0_0
  6
CONTINUOUS
 62
    7
 10
-75.161270000000002
 20
458.91291750000005
 11
-75.136710999999991
 21
458.63487250000003
  0
LINE
  8
_0-0_0
  6
CONTINUOUS
 62
    7
 10
-74.970733999999993
 20
459.05137649999995
 11
-74.917243999999982
 21
458.77738950000003
  0
LINE
  8
_0-0_0
  6
CONTINUOUS
 62
    7
 10
-75.161270000000002
 20
458.91291750000005
 11
-74.917243999999982
 21
458.77738950000003
  0
LINE
  8
_0-0_0
  6
CONTINUOUS
 62
    7
 10
-74.79571500000003
 20
459.20896849999997
 11
-74.713882000000012
 21
458.94209250000006
  0
LINE
  8
_0-0_0
  6
CONTINUOUS
 62
    7
 10
-74.970733999999993
 20
459.05137649999995
 11
-74.713882000000012
 21
458.94209250000006
  0
LINE
  8
_0-0_0
  6
CONTINUOUS
 62
    7
 10
-74.638130000000046
 20
459.38398749999999
 11
-74.528847000000042
 21
459.12712050000005
  0
LINE
  8
_0-0_0
  6
CONTINUOUS
 62
    7
 10
-74.79571500000003
 20
459.20896849999997
 11
-74.528847000000042
 21
459.12712050000005
  0
LINE
  8
_0-0_0
  6
CONTINUOUS
 62
    7
 10
-74.499702000000013
 20
459.57450849999998
 11
-74.364166000000012
 21
459.3304895
  0
LINE
  8
_0-0_0
  6
CONTINUOUS
 62
    7
 10
-74.638130000000046
 20
459.38398749999999
 11
-74.364166000000012
 21
459.3304895
  0
LINE
  8
_0-0_0
  6
CONTINUOUS
 62
    7
 10
-74.381942999999978
 20
459.77845750000006
 11
-74.221649000000014
 21
459.54994150000005
  0
LINE
  8
_0-0_0
  6
CONTINUOUS
 62
    7
 10
-74.499702000000013
 20
459.57450849999998
 11
-74.221649000000014
 21
459.54994150000005
  0
LINE
  8
_0-0_0
  6
CONTINUOUS
 62
    7
 10
-74.286148000000026
 20
459.99360650000006
 11
-74.102844000000005
 21
459.78309650000006
  0
LINE
  8
_0-0_0
  6
CONTINUOUS
 62
    7
 10
-74.381942999999978
 20
459.77845750000006
 11
-74.102844000000005
 21
459.78309650000006
  0
LINE
  8
_0-0_0
  6
CONTINUOUS
 62
    7
 10
-74.213379000000032
 20
460.21760549999999
 11
-74.009064000000023
 21
460.02738950000003
  0
LINE
  8
_0-0_0
  6
CONTINUOUS
 62
    7
 10
-74.286148000000026
 20
459.99360650000006
 11
-74.009064000000023
 21
460.02738950000003
  0
LINE
  8
_0-0_0
  6
CONTINUOUS
 62
    7
 10
-74.164413000000025
 20
460.44795250000004
 11
-73.94133800000003
 21
460.28016649999995
  0
LINE
  8
_0-0_0
  6
CONTINUOUS
 62
    7
 10
-74.213379000000032
 20
460.21760549999999
 11
-73.94133800000003
 21
460.28016649999995
  0
LINE
  8
_0-0_0
  6
CONTINUOUS
 62
    7
 10
-74.139792999999997
 20
460.68217449999997
 11
-73.900406000000032
 21
460.53861949999998
  0
LINE
  8
_0-0_0
  6
CONTINUOUS
 62
    7
 10
-74.164413000000025
 20
460.44795250000004
 11
-73.900406000000032
 21
460.53861949999998
  0
LINE
  8
_0-0_0
  6
CONTINUOUS
 62
    7
 10
-74.139792999999997
 20
460.9177095
 11
-73.886710999999991
 21
460.79994150000005
  0
LINE
  8
_0-0_0
  6
CONTINUOUS
 62
    7
 10
-74.139792999999997
 20
460.68217449999997
 11
-73.886710999999991
 21
460.79994150000005
  0
LINE
  8
_0-0_0
  6
CONTINUOUS
 62
    7
 10
-74.164413000000025
 20
461.15193150000005
 11
-73.900406000000032
 21
461.0612635
  0
LINE
  8
_0-0_0
  6
CONTINUOUS
 62
    7
 10
-74.139792999999997
 20
460.9177095
 11
-73.900406000000032
 21
461.0612635
  0
LINE
  8
_0-0_0
  6
CONTINUOUS
 62
    7
 10
-74.213379000000032
 20
461.38227849999998
 11
-73.94133800000003
 21
461.31971750000002
  0
LINE
  8
_0-0_0
  6
CONTINUOUS
 62
    7
 10
-74.164413000000025
 20
461.15193150000005
 11
-73.94133800000003
 21
461.31971750000002
  0
LINE
  8
_0-0_0
  6
CONTINUOUS
 62
    7
 10
-74.286148000000026
 20
461.60627750000003
 11
-74.009064000000023
 21
461.57249449999995
  0
LINE
  8
_0-0_0
  6
CONTINUOUS
 62
    7
 10
-74.213379000000032
 20
461.38227849999998
 11
-74.009064000000023
 21
461.57249449999995
  0
LINE
  8
_0-0_0
  6
CONTINUOUS
 62
    7
 10
-74.381942999999978
 20
461.82142650000003
 11
-74.102844000000005
 21
461.81678750000003
  0
LINE
  8
_0-0_0
  6
CONTINUOUS
 62
    7
 10
-74.286148000000026
 20
461.60627750000003
 11
-74.102844000000005
 21
461.81678750000003
  0
CIRCLE
  8
_0-0_0
  6
CONTINUOUS
 62
    7
 10
-64.386710999999991
 20
477.39994750000005
 40
2
  0
CIRCLE
  8
_0-0_0
  6
CONTINUOUS
 62
    7
 10
-76.386710999999991
 20
460.79994150000005
 40
2
  0
LINE
  8
_0-0_0
  6
CONTINUOUS
 62
    7
 10
-63.804596000000004
 20
476.39994750000005
 11
-64.968818999999996
 21
476.39994750000005
  0
LINE
  8
_0-0_0
  6
CONTINUOUS
 62
    7
 10
-64.968818999999996
 20
476.39994750000005
 11
-65.53671300000002
 21
477.39994750000005
  0
LINE
  8
_0-0_0
  6
CONTINUOUS
 62
    7
 10
-65.53671300000002
 20
477.39994750000005
 11
-64.968818999999996
 21
478.39994750000005
  0
LINE
  8
_0-0_0
  6
CONTINUOUS
 62
    7
 10
-64.968818999999996
 20
478.39994750000005
 11
-63.804596000000004
 21
478.39994750000005
  0
LINE
  8
_0-0_0
  6
CONTINUOUS
 62
    7
 10
-63.804596000000004
 20
478.39994750000005
 11
-63.236710000000016
 21
477.39994750000005
  0
LINE
  8
_0-0_0
  6
CONTINUOUS
 62
    7
 10
-63.236710000000016
 20
477.39994750000005
 11
-63.804596000000004
 21
476.39994750000005
  0
CIRCLE
  8
_0-0_0
  6
CONTINUOUS
 62
    7
 10
-70.386710999999991
 20
469.09992950000003
 40
5
  0
LINE
  8
_0-0_0
  6
CONTINUOUS
 62
    7
 10
-75.804596000000004
 20
459.79994150000005
 11
-76.968818999999996
 21
459.79994150000005
  0
LINE
  8
_0-0_0
  6
CONTINUOUS
 62
    7
 10
-76.968818999999996
 20
459.79994150000005
 11
-77.536704999999984
 21
460.79994150000005
  0
LINE
  8
_0-0_0
  6
CONTINUOUS
 62
    7
 10
-77.536704999999984
 20
460.79994150000005
 11
-76.968818999999996
 21
461.79994150000005
  0
LINE
  8
_0-0_0
  6
CONTINUOUS
 62
    7
 10
-76.968818999999996
 20
461.79994150000005
 11
-75.804596000000004
 21
461.79994150000005
  0
LINE
  8
_0-0_0
  6
CONTINUOUS
 62
    7
 10
-75.804596000000004
 20
461.79994150000005
 11
-75.236710000000016
 21
460.79994150000005
  0
LINE
  8
_0-0_0
  6
CONTINUOUS
 62
    7
 10
-75.236710000000016
 20
460.79994150000005
 11
-75.804596000000004
 21
459.79994150000005
  0
CIRCLE
  8
_0-0_0
  6
CONTINUOUS
 62
    7
 10
-70.386710999999991
 20
469.09992950000003
 40
4.5381200000000002
  0
CIRCLE
  8
_0-0_0
  6
CONTINUOUS
 62
    7
 10
-70.386710999999991
 20
469.09992950000003
 40
4
  0
LINE
  8
_0-0_0
  6
CONTINUOUS
 62
    7
 10
-78.51928700000002
 20
479.05525150000005
 11
-79.186706000000015
 21
479.05525150000005
  0
ARC
  8
_0-0_0
  6
CONTINUOUS
 62
    7
 10
-62.386710999999991
 20
479.52494750000005
 40
0.2
 50
179.94055499999999
 51
269.99997000000002
  0
ARC
  8
_0-0_0
  6
CONTINUOUS
 62
    7
 10
-63.886710999999991
 20
460.29994150000005
 40
2
 50
269.99999700000001
 51
273.84026499999999
  0
ARC
  8
_0-0_0
  6
CONTINUOUS
 62
    7
 10
-76.886710999999991
 20
477.89994750000005
 40
2
 50
90.000003000000007
 51
93.840255999999997
  0
LINE
  8
_0-0_0
  6
CONTINUOUS
 62
    7
 10
-62.086708000000044
 20
479.32493550000004
 11
-62.386710999999991
 21
479.32493550000004
  0
LINE
  8
_0-0_0
  6
CONTINUOUS
 62
    7
 10
-62.086708000000044
 20
482.27494750000005
 11
-62.386710999999991
 21
482.27494750000005
  0
ARC
  8
_0-0_0
  6
CONTINUOUS
 62
    7
 10
-78.386710999999991
 20
479.52500950000001
 40
0.2
 50
270.00002499999994
 51
0.0594439999999606
  0
ARC
  8
_0-0_0
  6
CONTINUOUS
 62
    7
 10
-62.086746000000005
 20
479.52497849999997
 40
0.200055
 50
270.00964199999999
 51
1.3705509999999435
  0
ARC
  8
_0-0_0
  6
CONTINUOUS
 62
    7
 10
-62.086708000000044
 20
482.07493550000004
 40
0.2
 50
359.91222800000003
 51
89.999948000000003
  0
LINE
  8
_0-0_0
  6
CONTINUOUS
 62
    7
 10
-78.686706000000015
 20
479.32502750000003
 11
-78.386710999999991
 21
479.32502750000003
  0
ARC
  8
_0-0_0
  6
CONTINUOUS
 62
    7
 10
-78.686676000000034
 20
479.52507049999997
 40
0.200055
 50
178.629446
 51
269.99035300000003
  0
LINE
  8
_0-0_0
  6
CONTINUOUS
 62
    7
 10
-61.686706000000015
 20
484.80000250000001
 11
-61.686706000000015
 21
498.00001550000002
  0
ARC
  8
_0-0_0
  6
CONTINUOUS
 62
    7
 10
-62.186706000000015
 20
484.80000250000001
 40
0.5
 50
269.99999700000001
 51
0
  0
ARC
  8
_0-0_0
  6
CONTINUOUS
 62
    7
 10
-61.745285000000024
 20
498.20002750000003
 40
0.1
 50
135
 51
225
  0
LINE
  8
_0-0_0
  6
CONTINUOUS
 62
    7
 10
-61.815994000000046
 20
498.12931849999995
 11
-61.686706000000015
 21
498.00001550000002
  0
LINE
  8
_0-0_0
  6
CONTINUOUS
 62
    7
 10
-62.186706000000015
 20
484.30000250000001
 11
-64.086708000000044
 21
484.30000250000001
  0
ARC
  8
_0-0_0
  6
CONTINUOUS
 62
    7
 10
-64.086708000000044
 20
484.80000250000001
 40
0.5
 50
233.12990600000001
 51
269.99999700000001
  0
ARC
  8
_0-0_0
  6
CONTINUOUS
 62
    7
 10
-76.786704999999984
 20
484.80000250000001
 40
0.5
 50
269.99999700000001
 51
306.87009999999998
  0
LINE
  8
_0-0_0
  6
CONTINUOUS
 62
    7
 10
-76.786704999999984
 20
484.30000250000001
 11
-78.686706000000015
 21
484.30000250000001
  0
ARC
  8
_0-0_0
  6
CONTINUOUS
 62
    7
 10
-78.686706000000015
 20
484.80000250000001
 40
0.5
 50
180.00000900000003
 51
269.99999700000001
  0
LINE
  8
_0-0_0
  6
CONTINUOUS
 62
    7
 10
-79.186706000000015
 20
494.23500049999996
 11
-79.186706000000015
 21
484.80000250000001
  0
LINE
  8
_0-0_0
  6
CONTINUOUS
 62
    7
 10
-79.186706000000015
 20
494.23500049999996
 11
-78.486710000000016
 21
494.23500049999996
  0
LINE
  8
_0-0_0
  6
CONTINUOUS
 62
    7
 10
-62.486710000000016
 20
512.80000250000001
 11
-62.280678000000023
 21
512.80000250000001
  0
LINE
  8
_0-0_0
  6
CONTINUOUS
 62
    7
 10
-62.280678000000023
 20
512.80000250000001
 11
-61.686706000000015
 21
512.20603949999997
  0
LINE
  8
_0-0_0
  6
CONTINUOUS
 62
    7
 10
-61.686706000000015
 20
507.20002750000003
 11
-61.686706000000015
 21
512.20603949999997
  0
LINE
  8
_0-0_0
  6
CONTINUOUS
 62
    7
 10
-61.815994000000046
 20
507.07072449999998
 11
-61.686706000000015
 21
507.20002750000003
  0
ARC
  8
_0-0_0
  6
CONTINUOUS
 62
    7
 10
-61.745285000000024
 20
507.00001550000002
 40
0.1
 50
135
 51
225
  0
LINE
  8
_0-0_0
  6
CONTINUOUS
 62
    7
 10
-61.815994000000046
 20
506.92930550000005
 11
-61.686706000000015
 21
506.80000250000001
  0
LINE
  8
_0-0_0
  6
CONTINUOUS
 62
    7
 10
-61.686706000000015
 20
506.10002150000003
 11
-61.686706000000015
 21
506.80000250000001
  0
LINE
  8
_0-0_0
  6
CONTINUOUS
 62
    7
 10
-61.815994000000046
 20
505.97071849999998
 11
-61.686706000000015
 21
506.10002150000003
  0
ARC
  8
_0-0_0
  6
CONTINUOUS
 62
    7
 10
-61.745285000000024
 20
505.90000950000001
 40
0.1
 50
135
 51
225
  0
LINE
  8
_0-0_0
  6
CONTINUOUS
 62
    7
 10
-61.815994000000046
 20
505.82929950000005
 11
-61.686706000000015
 21
505.70002750000003
  0
LINE
  8
_0-0_0
  6
CONTINUOUS
 62
    7
 10
-61.686706000000015
 20
505.00001550000002
 11
-61.686706000000015
 21
505.70002750000003
  0
LINE
  8
_0-0_0
  6
CONTINUOUS
 62
    7
 10
-61.815994000000046
 20
504.87074250000001
 11
-61.686706000000015
 21
505.00001550000002
  0
ARC
  8
_0-0_0
  6
CONTINUOUS
 62
    7
 10
-61.745285000000024
 20
504.80000250000001
 40
0.1
 50
135
 51
225
  0
LINE
  8
_0-0_0
  6
CONTINUOUS
 62
    7
 10
-61.815994000000046
 20
504.72929350000004
 11
-61.686706000000015
 21
504.60002150000003
  0
LINE
  8
_0-0_0
  6
CONTINUOUS
 62
    7
 10
-61.686706000000015
 20
503.90000950000001
 11
-61.686706000000015
 21
504.60002150000003
  0
LINE
  8
_0-0_0
  6
CONTINUOUS
 62
    7
 10
-61.815994000000046
 20
503.7707365
 11
-61.686706000000015
 21
503.90000950000001
  0
ARC
  8
_0-0_0
  6
CONTINUOUS
 62
    7
 10
-61.745285000000024
 20
503.70002750000003
 40
0.1
 50
135
 51
225
  0
LINE
  8
_0-0_0
  6
CONTINUOUS
 62
    7
 10
-61.815994000000046
 20
503.62931849999995
 11
-61.686706000000015
 21
503.50001550000002
  0
LINE
  8
_0-0_0
  6
CONTINUOUS
 62
    7
 10
-61.686706000000015
 20
502.80000250000001
 11
-61.686706000000015
 21
503.50001550000002
  0
LINE
  8
_0-0_0
  6
CONTINUOUS
 62
    7
 10
-61.815994000000046
 20
502.67073049999999
 11
-61.686706000000015
 21
502.80000250000001
  0
ARC
  8
_0-0_0
  6
CONTINUOUS
 62
    7
 10
-61.745285000000024
 20
502.60002150000003
 40
0.1
 50
135
 51
225
  0
LINE
  8
_0-0_0
  6
CONTINUOUS
 62
    7
 10
-61.815994000000046
 20
502.52931149999995
 11
-61.686706000000015
 21
502.40000950000001
  0
LINE
  8
_0-0_0
  6
CONTINUOUS
 62
    7
 10
-61.686706000000015
 20
501.70002750000003
 11
-61.686706000000015
 21
502.40000950000001
  0
LINE
  8
_0-0_0
  6
CONTINUOUS
 62
    7
 10
-61.815994000000046
 20
501.57072449999998
 11
-61.686706000000015
 21
501.70002750000003
  0
ARC
  8
_0-0_0
  6
CONTINUOUS
 62
    7
 10
-61.745285000000024
 20
501.50001550000002
 40
0.1
 50
135
 51
225
  0
LINE
  8
_0-0_0
  6
CONTINUOUS
 62
    7
 10
-61.815994000000046
 20
501.42930550000005
 11
-61.686706000000015
 21
501.30000250000001
  0
LINE
  8
_0-0_0
  6
CONTINUOUS
 62
    7
 10
-61.686706000000015
 20
500.60002150000003
 11
-61.686706000000015
 21
501.30000250000001
  0
LINE
  8
_0-0_0
  6
CONTINUOUS
 62
    7
 10
-61.815994000000046
 20
500.47071849999998
 11
-61.686706000000015
 21
500.60002150000003
  0
ARC
  8
_0-0_0
  6
CONTINUOUS
 62
    7
 10
-61.745285000000024
 20
500.40000950000001
 40
0.1
 50
135
 51
225
  0
LINE
  8
_0-0_0
  6
CONTINUOUS
 62
    7
 10
-61.815994000000046
 20
500.32929950000005
 11
-61.686706000000015
 21
500.20002750000003
  0
LINE
  8
_0-0_0
  6
CONTINUOUS
 62
    7
 10
-61.686706000000015
 20
499.50001550000002
 11
-61.686706000000015
 21
500.20002750000003
  0
LINE
  8
_0-0_0
  6
CONTINUOUS
 62
    7
 10
-61.815994000000046
 20
499.37074250000001
 11
-61.686706000000015
 21
499.50001550000002
  0
ARC
  8
_0-0_0
  6
CONTINUOUS
 62
    7
 10
-61.745285000000024
 20
499.30000250000001
 40
0.1
 50
135
 51
225
  0
LINE
  8
_0-0_0
  6
CONTINUOUS
 62
    7
 10
-61.815994000000046
 20
499.22929350000004
 11
-61.686706000000015
 21
499.10002150000003
  0
LINE
  8
_0-0_0
  6
CONTINUOUS
 62
    7
 10
-61.686706000000015
 20
498.40000950000001
 11
-61.686706000000015
 21
499.10002150000003
  0
LINE
  8
_0-0_0
  6
CONTINUOUS
 62
    7
 10
-61.815994000000046
 20
498.2707365
 11
-61.686706000000015
 21
498.40000950000001
  0
LINE
  8
_0-0_0
  6
CONTINUOUS
 62
    7
 10
-61.686706000000015
 20
490.30000250000001
 11
-61.586708000000044
 21
490.30000250000001
  0
LINE
  8
_0-0_0
  6
CONTINUOUS
 62
    7
 10
-61.586708000000044
 20
489.80000250000001
 11
-61.586708000000044
 21
490.30000250000001
  0
LINE
  8
_0-0_0
  6
CONTINUOUS
 62
    7
 10
-61.586708000000044
 20
489.80000250000001
 11
-61.586708000000044
 21
485.80000250000001
  0
LINE
  8
_0-0_0
  6
CONTINUOUS
 62
    7
 10
-61.686706000000015
 20
485.30000250000001
 11
-61.586708000000044
 21
485.30000250000001
  0
LINE
  8
_0-0_0
  6
CONTINUOUS
 62
    7
 10
-61.586708000000044
 20
485.30000250000001
 11
-61.586708000000044
 21
485.80000250000001
  0
LINE
  8
_0-0_0
  6
CONTINUOUS
 62
    7
 10
-79.186706000000015
 20
494.30003350000004
 11
-79.186706000000015
 21
494.23500049999996
  0
LINE
  8
_0-0_0
  6
CONTINUOUS
 62
    7
 10
-62.686706000000015
 20
513.10002150000003
 11
-62.686706000000015
 21
513.00001550000002
  0
ARC
  8
_0-0_0
  6
CONTINUOUS
 62
    7
 10
-75.186706000000015
 20
513.10002150000003
 40
2.5
 50
90.000003000000007
 51
180.00000900000001
  0
LINE
  8
_0-0_0
  6
CONTINUOUS
 62
    7
 10
-79.28670900000003
 20
494.30000250000001
 11
-78.486710000000016
 21
494.30000250000001
  0
LINE
  8
_0-0_0
  6
CONTINUOUS
 62
    7
 10
-78.78670900000003
 20
516.10002150000003
 11
-78.78670900000003
 21
511.87849449999999
  0
LINE
  8
_0-0_0
  6
CONTINUOUS
 62
    7
 10
-77.686706000000015
 20
516.10002150000003
 11
-77.686706000000015
 21
513.10002150000003
  0
LINE
  8
_0-0_0
  6
CONTINUOUS
 62
    7
 10
-78.78670900000003
 20
511.87849449999999
 11
-78.486710000000016
 21
511.87849449999999
  0
LINE
  8
_0-0_0
  6
CONTINUOUS
 62
    7
 10
-78.78670900000003
 20
521.23991350000006
 11
-77.686706000000015
 21
521.23991350000006
  0
LINE
  8
_0-0_0
  6
CONTINUOUS
 62
    7
 10
-77.686706000000015
 20
516.10035649999998
 11
-77.686706000000015
 21
521.23991350000006
  0
LINE
  8
_0-0_0
  6
CONTINUOUS
 62
    7
 10
-79.28670900000003
 20
515.6006625
 11
-79.28670900000003
 21
520.67213449999997
  0
LINE
  8
_0-0_0
  6
CONTINUOUS
 62
    7
 10
-78.78670900000003
 20
521.23991350000006
 11
-79.28670900000003
 21
520.67213449999997
  0
ARC
  8
_0-0_0
  6
CONTINUOUS
 62
    7
 10
-65.186706000000015
 20
513.10002150000003
 40
2.5
 50
0
 51
90.000003000000007
  0
LINE
  8
_0-0_0
  6
CONTINUOUS
 62
    7
 10
-77.686706000000015
 20
513.00001550000002
 11
-77.686706000000015
 21
513.10002150000003
  0
LINE
  8
_0-0_0
  6
CONTINUOUS
 62
    7
 10
-65.186706000000015
 20
515.60002150000003
 11
-75.186706000000015
 21
515.60002150000003
  0
LINE
  8
_0-0_0
  6
CONTINUOUS
 62
    7
 10
-61.486710000000016
 20
485.80000250000001
 11
-61.486710000000016
 21
485.93037449999997
  0
LINE
  8
_0-0_0
  6
CONTINUOUS
 62
    7
 10
-61.486710000000016
 20
489.43037449999997
 11
-61.486710000000016
 21
485.93037449999997
  0
LINE
  8
_0-0_0
  6
CONTINUOUS
 62
    7
 10
-61.586708000000044
 20
489.70002750000003
 11
-61.486710000000016
 21
489.70002750000003
  0
LINE
  8
_0-0_0
  6
CONTINUOUS
 62
    7
 10
-61.486710000000016
 20
489.43037449999997
 11
-61.486710000000016
 21
489.70002750000003
  0
LINE
  8
_0-0_0
  6
CONTINUOUS
 62
    7
 10
-77.686706000000015
 20
523.60002150000003
 11
-77.686706000000015
 21
521.23991350000006
  0
LINE
  8
_0-0_0
  6
CONTINUOUS
 62
    7
 10
-61.886703000000011
 20
512.20002750000003
 11
-62.886703000000011
 21
513.20002750000003
  0
LINE
  8
_0-0_0
  6
CONTINUOUS
 62
    7
 10
-61.886710999999991
 20
484.40000950000001
 11
-61.886703000000011
 21
512.20002750000003
  0
LINE
  8
_0-0_0
  6
CONTINUOUS
 62
    7
 10
-78.486710000000016
 20
484.40000950000001
 11
-61.886710999999991
 21
484.40000950000001
  0
LINE
  8
_0-0_0
  6
CONTINUOUS
 62
    7
 10
-78.486710000000016
 20
512.20002750000003
 11
-78.486710000000016
 21
484.40000950000001
  0
LINE
  8
_0-0_0
  6
CONTINUOUS
 62
    7
 10
-79.28670900000003
 20
494.30000250000001
 11
-79.28670900000003
 21
511.11283849999995
  0
LINE
  8
_0-0_0
  6
CONTINUOUS
 62
    7
 10
-79.28670900000003
 20
515.60002150000003
 11
-79.28670900000003
 21
511.11283849999995
  0
ARC
  8
_0-0_0
  6
CONTINUOUS
 62
    7
 10
-47.834969000000001
 20
491.11784350000005
 40
37.269466000000001
 50
146.14857699999999
 51
147.55443399999999
  0
LINE
  8
_0-0_0
  6
CONTINUOUS
 62
    7
 10
-78.78670900000003
 20
523.60002150000003
 11
-78.78670900000003
 21
521.23991350000006
  0
LINE
  8
_0-0_0
  6
CONTINUOUS
 62
    7
 10
-79.28670900000003
 20
523.10002150000003
 11
-79.28670900000003
 21
520.67213449999997
  0
ARC
  8
_0-0_0
  6
CONTINUOUS
 62
    7
 10
-65.455757000000006
 20
512.80000250000001
 40
2.6000000000000001
 50
8.8498839999999994
 51
90.000002999999992
  0
LINE
  8
_0-0_0
  6
CONTINUOUS
 62
    7
 10
-65.455757000000006
 20
515.40000950000001
 11
-74.917664000000002
 21
515.40000950000001
  0
ARC
  8
_0-0_0
  6
CONTINUOUS
 62
    7
 10
-74.917664000000002
 20
512.80000250000001
 40
2.6000000000000001
 50
90.000003000000007
 51
171.150115
  0
LINE
  8
_0-0_0
  6
CONTINUOUS
 62
    7
 10
-78.486710000000016
 20
512.20002750000003
 11
-77.486710000000016
 21
513.20002750000003
  0
LINE
  8
_0-0_0
  6
CONTINUOUS
 62
    7
 10
-62.886703000000011
 20
511.78581250000002
 11
-61.886703000000011
 21
512.20002750000003
  0
ARC
  8
_0-0_0
  6
CONTINUOUS
 62
    7
 10
-68.429245000000037
 20
523.98612949999995
 40
12.126564999999999
 50
292.155034
 51
297.19674500000002
  0
LINE
  8
_0-0_0
  6
CONTINUOUS
 62
    7
 10
-62.886710999999991
 20
485.40000950000001
 11
-61.886710999999991
 21
484.40000950000001
  0
LINE
  8
_0-0_0
  6
CONTINUOUS
 62
    7
 10
-77.486710000000016
 20
485.40000950000001
 11
-78.486710000000016
 21
484.40000950000001
  0
LINE
  8
_0-0_0
  6
CONTINUOUS
 62
    7
 10
-77.486710000000016
 20
511.78581250000002
 11
-78.486710000000016
 21
512.20002750000003
  0
ARC
  8
_0-0_0
  6
CONTINUOUS
 62
    7
 10
-71.944167999999991
 20
523.98612949999995
 40
12.126567
 50
242.80325699999997
 51
247.84494000000001
  0
CIRCLE
  8
_0-0_0
  6
CONTINUOUS
 62
    7
 10
-70.186706000000015
 20
492.60002150000003
 40
2.0670000000000002
  0
LINE
  8
_0-0_0
  6
CONTINUOUS
 62
    7
 10
-77.686706000000015
 20
516.10002150000003
 11
-78.78670900000003
 21
516.10002150000003
  0
LINE
  8
_0-0_0
  6
CONTINUOUS
 62
    7
 10
-61.586708000000044
 20
485.80000250000001
 11
-61.486710000000016
 21
485.80000250000001
  0
LINE
  8
_0-0_0
  6
CONTINUOUS
 62
    7
 10
-61.586708000000044
 20
485.80000250000001
 11
-61.486710000000016
 21
485.80000250000001
  0
LINE
  8
_0-0_0
  6
CONTINUOUS
 62
    7
 10
-79.28670900000003
 20
515.60002150000003
 11
-78.78670900000003
 21
516.10002150000003
  0
LINE
  8
_0-0_0
  6
CONTINUOUS
 62
    7
 10
-77.686706000000015
 20
523.60002150000003
 11
-78.78670900000003
 21
523.60002150000003
  0
LINE
  8
_0-0_0
  6
CONTINUOUS
 62
    7
 10
-79.28670900000003
 20
523.10002150000003
 11
-78.78670900000003
 21
523.60002150000003
  0
ENDSEC
  0
EOF
