  0
SECTION
  2
HEADER
  9
$ACADVER
  1
AC1009
  9
$INSBASE
 10
0
 20
0
 30
0
  9
$EXTMIN
 10
0
 20
0
  9
$EXTMAX
 10
841
 20
594
  9
$LIMMIN
 10
0
 20
0
  9
$LIMMAX
 10
841
 20
594
  9
$LTSCALE
 40
1
  0
ENDSEC
  0
SECTION
  2
TABLES
  0
TABLE
  2
LTYPE
 70
     9
  0
LTYPE
  2
CONTINUOUS
 70
    64
  3
実線
 72
    65
 73
     0
 40
0.0
  0
LTYPE
  2
DASHED1
 70
    64
  3
--  --  --  --  --  --  --  --  
 72
    65
 73
     2
 40
2.5
 49
1.25
 49
-1.25
  0
LTYPE
  2
DASHED2
 70
    64
  3
----    ----    ----    ----    
 72
    65
 73
     2
 40
5.0
 49
2.5
 49
-2.5
  0
LTYPE
  2
DASHED3
 70
    64
  3
------  ------  ------  ------  
 72
    65
 73
     2
 40
5.0
 49
3.75
 49
-1.25
  0
LTYPE
  2
CENTER1
 70
    64
  3
----- - ----- - ----- - ----- - 
 72
    65
 73
     4
 40
10.0
 49
6.25
 49
-1.25
 49
1.25
 49
-1.25
  0
LTYPE
  2
CENTER2
 70
    64
  3
----------  --  ----------  --  
 72
    65
 73
     4
 40
20.0
 49
12.5
 49
-2.5
 49
2.5
 49
-2.5
  0
LTYPE
  2
PHANTOM1
 70
    64
  3
--- - - --- - - --- - - --- - - 
 72
    65
 73
     6
 40
10.0
 49
3.25
 49
-1.25
 49
1.25
 49
-1.25
 49
1.25
 49
-1.25
  0
LTYPE
  2
PHANTOM2
 70
    64
  3
--------  -  -  --------  -  -  
 72
    65
 73
     6
 40
20.0
 49
10.0
 49
-2.5
 49
1.25
 49
-2.5
 49
1.25
 49
-2.5
  0
LTYPE
  2
DOT
 70
    64
  3
-   -   -   -   -   -   -   -   
 72
    65
 73
     2
 40
2.5
 49
0.625
 49
-1.875
  0
LTYPE
  2
DUMMY
 70
    64
  3
ダミー
 72
    65
 73
     0
 40
0.0
  0
LTYPE
  2
RAND1
 70
    64
  3
ランダム線1
 72
    65
 73
     4
 40
10.0
 49
1.0
 49
-2.0
 49
3.0
 49
-4.0
  0
LTYPE
  2
RAND2
 70
    64
  3
ランダム線2
 72
    65
 73
     4
 40
14.0
 49
2.0
 49
-3.0
 49
4.0
 49
-5.0
  0
LTYPE
  2
RAND3
 70
    64
  3
ランダム線3
 72
    65
 73
     4
 40
18.0
 49
3.0
 49
-4.0
 49
5.0
 49
-6.0
  0
LTYPE
  2
RAND4
 70
    64
  3
ランダム線4
 72
    65
 73
     4
 40
22.0
 49
4.0
 49
-5.0
 49
6.0
 49
-7.0
  0
LTYPE
  2
RAND5
 70
    64
  3
ランダム線5
 72
    65
 73
     4
 40
26.0
 49
5.0
 49
-6.0
 49
7.0
 49
-8.0
  0
LTYPE
  2
LONG1
 70
    64
  3
----------  --  ----------  --  
 72
    65
 73
     4
 40
40.0
 49
32.5
 49
-2.5
 49
2.5
 49
-2.5
  0
LTYPE
  2
LONG2
 70
    64
  3
--------  -  -  --------  -  -  
 72
    65
 73
     6
 40
40.0
 49
30.0
 49
-2.5
 49
1.25
 49
-2.5
 49
1.25
 49
-2.5
  0
LTYPE
  2
LONG3
 70
    64
  3
+++++++++++++++..+++++++++++++++
 72
    65
 73
     2
 40
40.0
 49
37.5
 49
-2.5
  0
LTYPE
  2
LONG4
 70
    64
  3
+++++++++++++++..+++++++++++++++
 72
    65
 73
     2
 40
80.0
 49
75.0
 49
-5.0
  0
LTYPE
  2
LONG5
 70
    64
  3
----------  --  ----------  --  
 72
    65
 73
     4
 40
60.0
 49
37.5
 49
-7.5
 49
7.5
 49
-7.5
  0
LTYPE
  2
dashed
 70
   64
  3
-------   -------------   ------
 72
   65
 73
    2
 40
7.5
 49
6
 49
-1.5
  0
LTYPE
  2
dashed_spaced
 70
   64
  3
----        --------        ----
 72
   65
 73
    2
 40
12
 49
6
 49
-6
  0
LTYPE
  2
long_dashed_dotted
 70
   64
  3
------------- --- --------------
 72
   65
 73
    4
 40
15.25
 49
12
 49
-1.5
 49
0.25
 49
-1.5
  0
LTYPE
  2
long_dashed_double-dotted
 70
   64
  3
----------- --- --- ------------
 72
   65
 73
    6
 40
17
 49
12
 49
-1.5
 49
0.25
 49
-1.5
 49
0.25
 49
-1.5
  0
LTYPE
  2
long_dashed_triplicate-dotted
 70
   64
  3
--------- --- --- --- ----------
 72
   65
 73
    8
 40
18.75
 49
12
 49
-1.5
 49
0.25
 49
-1.5
 49
0.25
 49
-1.5
 49
0.25
 49
-1.5
  0
LTYPE
  2
dotted
 70
   64
  3
   -       -       -       -    
 72
   65
 73
    2
 40
1.75
 49
0.25
 49
-1.5
  0
LTYPE
  2
chain
 70
   64
  3
-------------- -- --------------
 72
   65
 73
    4
 40
18.5
 49
12
 49
-1.5
 49
3.5
 49
-1.5
  0
LTYPE
  2
chain_double_dash
 70
   64
  3
------------ -- -- -------------
 72
   65
 73
    6
 40
23.5
 49
12
 49
-1.5
 49
3.5
 49
-1.5
 49
3.5
 49
-1.5
  0
LTYPE
  2
dashed_dotted
 70
   64
  3
-----------     -     ----------
 72
   65
 73
    4
 40
9.25
 49
6
 49
-1.5
 49
0.25
 49
-1.5
  0
LTYPE
  2
double-dashed_dotted
 70
   64
  3
------   -----------   -   -----
 72
   65
 73
    6
 40
16.75
 49
6
 49
-1.5
 49
6
 49
-1.5
 49
0.25
 49
-1.5
  0
LTYPE
  2
dashed_double-dotted
 70
   64
  3
---------    -    -    ---------
 72
   65
 73
    6
 40
11
 49
6
 49
-1.5
 49
0.25
 49
-1.5
 49
0.25
 49
-1.5
  0
LTYPE
  2
double-dashed_double-dotted
 70
   64
  3
-----   ---------   -   -   ----
 72
   65
 73
    8
 40
18.5
 49
6
 49
-1.5
 49
6
 49
-1.5
 49
0.25
 49
-1.5
 49
0.25
 49
-1.5
  0
LTYPE
  2
dashed_triplicate-dotted
 70
   64
  3
-------    -    -    -    ------
 72
   65
 73
    8
 40
12.75
 49
6
 49
-1.5
 49
0.25
 49
-1.5
 49
0.25
 49
-1.5
 49
0.25
 49
-1.5
  0
LTYPE
  2
double-dashed_triplicate-dotted
 70
   64
  3
-----  ---------  -  -  -  -----
 72
   65
 73
   10
 40
20.25
 49
6
 49
-1.5
 49
6
 49
-1.5
 49
0.25
 49
-1.5
 49
0.25
 49
-1.5
 49
0.25
 49
-1.5
  0
LTYPE
  2
undefined
 70
   64
  3
--------------------------------
 72
   65
 73
    0
 40
0
  0
ENDTAB
  0
TABLE
  2
STYLE
  5
3
100
AcDbSymbolTable
 70
     1
  0
STYLE
  5
10
100
AcDbSymbolTableRecord
100
AcDbTextStyleTableRecord
  2
STANDARD
 70
     0
 40
0.0
 41
1.0
 50
0.0
 71
     0
 42
0.2
  3
txt
  4
bigfont.shx
  0
STYLE
  5
26
100
AcDbSymbolTableRecord
100
AcDbTextStyleTableRecord
  2
TATEGAKI
 70
    68
 40
0.0
 41
1.0
 50
0.0
 71
     0
 42
1.0
  3
txt
  4
bigfont.shx
  0
ENDTAB
  0
TABLE
  2
LAYER
 70
    2
  0
LAYER
  2
_0-0_0
 70
   64
 62
    7
  6
CONTINUOUS
  0
LAYER
  2
ADD_LINE
 70
   64
 62
    7
  6
CONTINUOUS
  0
ENDTAB
  0
ENDSEC
  0
SECTION
  2
BLOCKS
  0
ENDSEC
  0
SECTION
  2
ENTITIES
  0
LINE
  8
_0-0_0
  6
CONTINUOUS
 62
    7
 10
-17.071037000000047
 20
516.90052749999995
 11
-17.071037000000047
 21
516.89952049999999
  0
LINE
  8
_0-0_0
  6
CONTINUOUS
 62
    7
 10
135.74145499999997
 20
477.96958949999998
 11
134.44146699999999
 21
474.46958949999998
  0
ARC
  8
_0-0_0
  6
CONTINUOUS
 62
    7
 10
135.92895499999997
 20
477.89994750000005
 40
0.2
 50
20.376434999999997
 51
159.62357000000003
  0
ARC
  8
_0-0_0
  6
CONTINUOUS
 62
    7
 10
173.92895499999997
 20
480.79994150000005
 40
2.2000000000000002
 50
180.00000900000003
 51
303.74900400000001
  0
LINE
  8
_0-0_0
  6
CONTINUOUS
 62
    7
 10
171.72894299999996
 20
482.29994150000005
 11
171.72894299999996
 21
480.79994150000005
  0
LINE
  8
_0-0_0
  6
CONTINUOUS
 62
    7
 10
171.72894299999996
 20
482.29994150000005
 11
97.128966999999989
 21
482.29994150000005
  0
LINE
  8
_0-0_0
  6
CONTINUOUS
 62
    7
 10
97.128966999999989
 20
482.29994150000005
 11
97.128966999999989
 21
480.79994150000005
  0
ARC
  8
_0-0_0
  6
CONTINUOUS
 62
    7
 10
94.928954999999974
 20
480.79994150000005
 40
2.2000000000000002
 50
236.25102899999999
 51
0
  0
ARC
  8
_0-0_0
  6
CONTINUOUS
 62
    7
 10
93.428954999999974
 20
478.55494650000003
 40
0.5
 50
56.251010000000008
 51
180.00000900000001
  0
LINE
  8
_0-0_0
  6
CONTINUOUS
 62
    7
 10
92.928954999999974
 20
458.19993550000004
 11
92.928954999999974
 21
458.97706549999998
  0
LINE
  8
_0-0_0
  6
CONTINUOUS
 62
    7
 10
92.928954999999974
 20
458.19993550000004
 11
102.72895799999998
 21
458.19993550000004
  0
ARC
  8
_0-0_0
  6
CONTINUOUS
 62
    7
 10
102.72895799999998
 20
458.39994750000005
 40
0.2
 50
269.99999700000001
 51
0
  0
LINE
  8
_0-0_0
  6
CONTINUOUS
 62
    7
 10
102.92895499999997
 20
460.09992950000003
 11
102.92895499999997
 21
458.39994750000005
  0
ARC
  8
_0-0_0
  6
CONTINUOUS
 62
    7
 10
103.12896699999999
 20
460.09992950000003
 40
0.2
 50
90.000003000000007
 51
180.00000900000001
  0
LINE
  8
_0-0_0
  6
CONTINUOUS
 62
    7
 10
103.62896699999999
 20
460.29994150000005
 11
103.12896699999999
 21
460.29994150000005
  0
ARC
  8
_0-0_0
  6
CONTINUOUS
 62
    7
 10
103.62896699999999
 20
459.79994150000005
 40
0.5
 50
90.000003000000007
 51
180.00000900000001
  0
LINE
  8
_0-0_0
  6
CONTINUOUS
 62
    7
 10
103.12896699999999
 20
458.29994150000005
 11
103.12896699999999
 21
459.79994150000005
  0
LINE
  8
_0-0_0
  6
CONTINUOUS
 62
    7
 10
172.72894299999996
 20
458.29994150000005
 11
103.12896699999999
 21
458.29994150000005
  0
LINE
  8
_0-0_0
  6
CONTINUOUS
 62
    7
 10
172.72894299999996
 20
458.29994150000005
 11
172.72894299999996
 21
459.79994150000005
  0
ARC
  8
_0-0_0
  6
CONTINUOUS
 62
    7
 10
172.22894299999996
 20
459.79994150000005
 40
0.5
 50
0
 51
90.000003000000007
  0
LINE
  8
_0-0_0
  6
CONTINUOUS
 62
    7
 10
172.72894299999996
 20
460.29994150000005
 11
172.22894299999996
 21
460.29994150000005
  0
ARC
  8
_0-0_0
  6
CONTINUOUS
 62
    7
 10
172.72894299999996
 20
460.09992950000003
 40
0.2
 50
0
 51
90.000003000000007
  0
LINE
  8
_0-0_0
  6
CONTINUOUS
 62
    7
 10
172.92895499999997
 20
458.39994750000005
 11
172.92895499999997
 21
460.09992950000003
  0
ARC
  8
_0-0_0
  6
CONTINUOUS
 62
    7
 10
173.12896699999999
 20
458.39994750000005
 40
0.2
 50
180.00000900000003
 51
269.99999700000001
  0
LINE
  8
_0-0_0
  6
CONTINUOUS
 62
    7
 10
173.12896699999999
 20
458.19993550000004
 11
173.92895499999997
 21
458.19993550000004
  0
ARC
  8
_0-0_0
  6
CONTINUOUS
 62
    7
 10
173.92895499999997
 20
460.19993550000004
 40
2
 50
269.99999700000001
 51
0.0000099999999886
  0
LINE
  8
_0-0_0
  6
CONTINUOUS
 62
    7
 10
175.92895499999997
 20
478.55494650000003
 11
175.92895499999997
 21
460.19993550000004
  0
ARC
  8
_0-0_0
  6
CONTINUOUS
 62
    7
 10
175.42895499999997
 20
478.55494650000003
 40
0.5
 50
0
 51
123.74898500000002
  0
LINE
  8
_0-0_0
  6
CONTINUOUS
 62
    7
 10
104.42895499999997
 20
460.49995450000006
 11
104.42895499999997
 21
460.69993550000004
  0
LINE
  8
_0-0_0
  6
CONTINUOUS
 62
    7
 10
104.42895499999997
 20
460.69993550000004
 11
171.42895499999997
 21
460.69993550000004
  0
LINE
  8
_0-0_0
  6
CONTINUOUS
 62
    7
 10
171.42895499999997
 20
460.49995450000006
 11
171.42895499999997
 21
460.69993550000004
  0
ARC
  8
_0-0_0
  6
CONTINUOUS
 62
    7
 10
171.62896699999999
 20
460.49995450000006
 40
0.2
 50
180.00000900000003
 51
269.99999700000001
  0
LINE
  8
_0-0_0
  6
CONTINUOUS
 62
    7
 10
171.62896699999999
 20
460.29994150000005
 11
104.22895799999998
 21
460.29994150000005
  0
ARC
  8
_0-0_0
  6
CONTINUOUS
 62
    7
 10
104.22895799999998
 20
460.49995450000006
 40
0.2
 50
269.99999700000001
 51
0
  0
ARC
  8
_0-0_0
  6
CONTINUOUS
 62
    7
 10
134.62896699999999
 20
474.39994750000005
 40
0.2
 50
159.62357
 51
269.99999700000001
  0
LINE
  8
_0-0_0
  6
CONTINUOUS
 62
    7
 10
134.62896699999999
 20
474.19993550000004
 11
137.22894299999996
 21
474.19993550000004
  0
ARC
  8
_0-0_0
  6
CONTINUOUS
 62
    7
 10
137.22894299999996
 20
474.39994750000005
 40
0.2
 50
269.99999700000001
 51
20.376435000000019
  0
LINE
  8
_0-0_0
  6
CONTINUOUS
 62
    7
 10
137.41644299999996
 20
474.46958949999998
 11
136.11645499999997
 21
477.96958949999998
  0
LINE
  8
_0-0_0
  6
CONTINUOUS
 62
    7
 10
92.928954999999974
 20
477.89994750000005
 11
92.928954999999974
 21
479.87730350000004
  0
LINE
  8
_0-0_0
  6
CONTINUOUS
 62
    7
 10
92.928954999999974
 20
477.89994750000005
 11
92.928954999999974
 21
460.29994150000005
  0
LINE
  8
_0-0_0
  6
CONTINUOUS
 62
    7
 10
92.928954999999974
 20
458.97706549999998
 11
92.928954999999974
 21
460.29994150000005
  0
LINE
  8
_0-0_0
  6
CONTINUOUS
 62
    7
 10
175.92895499999997
 20
484.29994150000005
 11
175.92895499999997
 21
483.29994150000005
  0
LINE
  8
_0-0_0
  6
CONTINUOUS
 62
    7
 10
175.92895499999997
 20
483.29994150000005
 11
175.92895499999997
 21
482.79994150000005
  0
LINE
  8
_0-0_0
  6
CONTINUOUS
 62
    7
 10
175.92895499999997
 20
482.79994150000005
 11
175.92895499999997
 21
480.79994150000005
  0
LINE
  8
_0-0_0
  6
CONTINUOUS
 62
    7
 10
175.92895499999997
 20
480.79994150000005
 11
175.92895499999997
 21
478.55494650000003
  0
LINE
  8
_0-0_0
  6
CONTINUOUS
 62
    7
 10
153.92895499999997
 20
478.29994150000005
 11
153.92895499999997
 21
464.69993550000004
  0
ARC
  8
_0-0_0
  6
CONTINUOUS
 62
    7
 10
156.92895499999997
 20
478.29994150000005
 40
3
 50
90.000003000000007
 51
180.00000900000001
  0
LINE
  8
_0-0_0
  6
CONTINUOUS
 62
    7
 10
170.262878
 20
481.29994150000005
 11
156.92895499999997
 21
481.29994150000005
  0
ARC
  8
_0-0_0
  6
CONTINUOUS
 62
    7
 10
170.262878
 20
480.29994150000005
 40
1
 50
7.7664340000000012
 51
90.000002999999992
  0
ARC
  8
_0-0_0
  6
CONTINUOUS
 62
    7
 10
173.92895499999997
 20
480.79994150000005
 40
2.7000000000000002
 50
187.76643899999999
 51
254.31966600000001
  0
ARC
  8
_0-0_0
  6
CONTINUOUS
 62
    7
 10
172.92895499999997
 20
477.23762450000004
 40
1
 50
0
 51
74.319649999999996
  0
LINE
  8
_0-0_0
  6
CONTINUOUS
 62
    7
 10
173.92895499999997
 20
464.69993550000004
 11
173.92895499999997
 21
477.23762450000004
  0
ARC
  8
_0-0_0
  6
CONTINUOUS
 62
    7
 10
170.92895499999997
 20
464.69993550000004
 40
3
 50
269.99999700000001
 51
0.0000099999999886
  0
LINE
  8
_0-0_0
  6
CONTINUOUS
 62
    7
 10
156.92895499999997
 20
461.69993550000004
 11
170.92895499999997
 21
461.69993550000004
  0
ARC
  8
_0-0_0
  6
CONTINUOUS
 62
    7
 10
156.92895499999997
 20
464.69993550000004
 40
3
 50
180.00000900000003
 51
269.99999700000001
  0
LINE
  8
_0-0_0
  6
CONTINUOUS
 62
    7
 10
99.928954999999974
 20
461.69993550000004
 11
114.92895499999997
 21
461.69993550000004
  0
ARC
  8
_0-0_0
  6
CONTINUOUS
 62
    7
 10
99.928954999999974
 20
464.69993550000004
 40
3
 50
180.00000900000003
 51
269.99999700000001
  0
LINE
  8
_0-0_0
  6
CONTINUOUS
 62
    7
 10
96.928954999999974
 20
478.29994150000005
 11
96.928954999999974
 21
464.69993550000004
  0
ARC
  8
_0-0_0
  6
CONTINUOUS
 62
    7
 10
99.928954999999974
 20
478.29994150000005
 40
3
 50
90.000003000000007
 51
180.00000900000001
  0
LINE
  8
_0-0_0
  6
CONTINUOUS
 62
    7
 10
114.92895499999997
 20
481.29994150000005
 11
99.928954999999974
 21
481.29994150000005
  0
ARC
  8
_0-0_0
  6
CONTINUOUS
 62
    7
 10
114.92895499999997
 20
478.29994150000005
 40
3
 50
0
 51
90.000003000000007
  0
LINE
  8
_0-0_0
  6
CONTINUOUS
 62
    7
 10
117.92895499999997
 20
464.69993550000004
 11
117.92895499999997
 21
478.29994150000005
  0
ARC
  8
_0-0_0
  6
CONTINUOUS
 62
    7
 10
114.92895499999997
 20
464.69993550000004
 40
3
 50
269.99999700000001
 51
0.0000099999999886
  0
LINE
  8
_0-0_0
  6
CONTINUOUS
 62
    7
 10
171.92895499999997
 20
482.29994150000005
 11
171.72894299999996
 21
482.29994150000005
  0
ARC
  8
_0-0_0
  6
CONTINUOUS
 62
    7
 10
173.92895499999997
 20
480.79994150000005
 40
2
 50
180.00000900000003
 51
0.0000000000000254
  0
LINE
  8
_0-0_0
  6
CONTINUOUS
 62
    7
 10
171.92895499999997
 20
482.29994150000005
 11
171.92895499999997
 21
480.79994150000005
  0
LINE
  8
_0-0_0
  6
CONTINUOUS
 62
    7
 10
97.128966999999989
 20
482.29994150000005
 11
96.928954999999974
 21
482.29994150000005
  0
LINE
  8
_0-0_0
  6
CONTINUOUS
 62
    7
 10
96.928954999999974
 20
482.29994150000005
 11
96.928954999999974
 21
480.79994150000005
  0
ARC
  8
_0-0_0
  6
CONTINUOUS
 62
    7
 10
94.928954999999974
 20
480.79994150000005
 40
2
 50
180.00000900000003
 51
0.0000000000000254
  0
LINE
  8
_0-0_0
  6
CONTINUOUS
 62
    7
 10
79.428954999999974
 20
482.79994150000005
 11
79.428954999999974
 21
482.29994150000005
  0
LINE
  8
_0-0_0
  6
CONTINUOUS
 62
    7
 10
92.928954999999974
 20
479.88343750000001
 11
92.928954999999974
 21
480.59992950000003
  0
LINE
  8
_0-0_0
  6
CONTINUOUS
 62
    7
 10
92.928954999999974
 20
479.88343750000001
 11
92.928954999999974
 21
479.87730350000004
  0
LINE
  8
_0-0_0
  6
CONTINUOUS
 62
    7
 10
92.928954999999974
 20
478.66880749999996
 11
92.928954999999974
 21
478.55494650000003
  0
LINE
  8
_0-0_0
  6
CONTINUOUS
 62
    7
 10
80.928954999999974
 20
479.89994750000005
 11
80.928954999999974
 21
477.89994750000005
  0
LINE
  8
_0-0_0
  6
CONTINUOUS
 62
    7
 10
92.928954999999974
 20
479.89994750000005
 11
80.928954999999974
 21
479.89994750000005
  0
LINE
  8
_0-0_0
  6
CONTINUOUS
 62
    7
 10
80.928954999999974
 20
474.39994750000005
 11
80.928954999999974
 21
477.39994750000005
  0
LINE
  8
_0-0_0
  6
CONTINUOUS
 62
    7
 10
80.928954999999974
 20
477.39994750000005
 11
80.928954999999974
 21
477.89994750000005
  0
LINE
  8
_0-0_0
  6
CONTINUOUS
 62
    7
 10
80.928954999999974
 20
474.39994750000005
 11
80.928954999999974
 21
473.89994750000005
  0
ARC
  8
_0-0_0
  6
CONTINUOUS
 62
    7
 10
86.928969999999993
 20
474.59992950000003
 40
0.500016
 50
0.001164
 51
179.99560600000004
  0
LINE
  8
_0-0_0
  6
CONTINUOUS
 62
    7
 10
86.428954999999974
 20
474.59992950000003
 11
86.428954999999974
 21
462.59992950000003
  0
ARC
  8
_0-0_0
  6
CONTINUOUS
 62
    7
 10
86.928969999999993
 20
462.59996049999995
 40
0.500016
 50
180.00117
 51
359.995611
  0
LINE
  8
_0-0_0
  6
CONTINUOUS
 62
    7
 10
87.428954999999974
 20
474.59992950000003
 11
87.428954999999974
 21
462.59992950000003
  0
ARC
  8
_0-0_0
  6
CONTINUOUS
 62
    7
 10
85.428969999999993
 20
474.59992950000003
 40
0.500016
 50
0.001164
 51
179.99560600000004
  0
LINE
  8
_0-0_0
  6
CONTINUOUS
 62
    7
 10
84.928954999999974
 20
474.59992950000003
 11
84.928954999999974
 21
462.59992950000003
  0
ARC
  8
_0-0_0
  6
CONTINUOUS
 62
    7
 10
85.428969999999993
 20
462.59996049999995
 40
0.500016
 50
180.00117
 51
359.995611
  0
LINE
  8
_0-0_0
  6
CONTINUOUS
 62
    7
 10
85.928954999999974
 20
474.59992950000003
 11
85.928954999999974
 21
462.59992950000003
  0
ARC
  8
_0-0_0
  6
CONTINUOUS
 62
    7
 10
83.928969999999993
 20
474.59992950000003
 40
0.500016
 50
0.001164
 51
179.99560600000004
  0
LINE
  8
_0-0_0
  6
CONTINUOUS
 62
    7
 10
83.428954999999974
 20
474.59992950000003
 11
83.428954999999974
 21
462.59992950000003
  0
ARC
  8
_0-0_0
  6
CONTINUOUS
 62
    7
 10
83.928969999999993
 20
462.59996049999995
 40
0.500016
 50
180.00117
 51
359.995611
  0
LINE
  8
_0-0_0
  6
CONTINUOUS
 62
    7
 10
84.428954999999974
 20
474.59992950000003
 11
84.428954999999974
 21
462.59992950000003
  0
ARC
  8
_0-0_0
  6
CONTINUOUS
 62
    7
 10
82.428969999999993
 20
474.59992950000003
 40
0.500016
 50
0.001164
 51
179.99560600000004
  0
LINE
  8
_0-0_0
  6
CONTINUOUS
 62
    7
 10
81.928954999999974
 20
474.59992950000003
 11
81.928954999999974
 21
462.59992950000003
  0
ARC
  8
_0-0_0
  6
CONTINUOUS
 62
    7
 10
82.428969999999993
 20
462.59996049999995
 40
0.500016
 50
180.00117
 51
359.995611
  0
LINE
  8
_0-0_0
  6
CONTINUOUS
 62
    7
 10
82.928954999999974
 20
474.59992950000003
 11
82.928954999999974
 21
462.59992950000003
  0
LINE
  8
_0-0_0
  6
CONTINUOUS
 62
    7
 10
92.928954999999974
 20
458.29994150000005
 11
76.253510000000006
 21
458.29994150000005
  0
LINE
  8
_0-0_0
  6
CONTINUOUS
 62
    7
 10
103.47895799999998
 20
460.27690150000001
 11
103.47895799999998
 21
460.29994150000005
  0
LINE
  8
_0-0_0
  6
CONTINUOUS
 62
    7
 10
172.37896699999999
 20
460.27690150000001
 11
172.37896699999999
 21
460.29994150000005
  0
LINE
  8
_0-0_0
  6
CONTINUOUS
 62
    7
 10
79.428954999999974
 20
482.79994150000005
 11
79.428954999999974
 21
483.29994150000005
  0
LINE
  8
_0-0_0
  6
CONTINUOUS
 62
    7
 10
175.92895499999997
 20
483.29994150000005
 11
79.428954999999974
 21
483.29994150000005
  0
LINE
  8
_0-0_0
  6
CONTINUOUS
 62
    7
 10
79.428954999999974
 20
483.29994150000005
 11
79.428954999999974
 21
484.29994150000005
  0
LINE
  8
_0-0_0
  6
CONTINUOUS
 62
    7
 10
175.92907700000001
 20
484.30000250000001
 11
175.92907700000001
 21
483.80000250000001
  0
LINE
  8
_0-0_0
  6
CONTINUOUS
 62
    7
 10
175.92907700000001
 20
483.80000250000001
 11
175.92907700000001
 21
482.30000250000001
  0
ARC
  8
_0-0_0
  6
CONTINUOUS
 62
    7
 10
166.42895499999997
 20
473.89994750000005
 40
4.5
 50
269.99999700000001
 51
90.000002999999992
  0
LINE
  8
_0-0_0
  6
CONTINUOUS
 62
    7
 10
166.42895499999997
 20
469.39994750000005
 11
161.42895499999997
 21
469.39994750000005
  0
ARC
  8
_0-0_0
  6
CONTINUOUS
 62
    7
 10
161.42895499999997
 20
473.89994750000005
 40
4.5
 50
90.000003000000007
 51
269.99999700000006
  0
LINE
  8
_0-0_0
  6
CONTINUOUS
 62
    7
 10
161.42895499999997
 20
478.39994750000005
 11
166.42895499999997
 21
478.39994750000005
  0
ARC
  8
_0-0_0
  6
CONTINUOUS
 62
    7
 10
110.42895499999997
 20
473.89994750000005
 40
4.5
 50
269.99999700000001
 51
90.000002999999992
  0
LINE
  8
_0-0_0
  6
CONTINUOUS
 62
    7
 10
110.42895499999997
 20
469.39994750000005
 11
105.42895499999997
 21
469.39994750000005
  0
ARC
  8
_0-0_0
  6
CONTINUOUS
 62
    7
 10
105.42895499999997
 20
473.89994750000005
 40
4.5
 50
90.000003000000007
 51
269.99999700000006
  0
LINE
  8
_0-0_0
  6
CONTINUOUS
 62
    7
 10
105.42895499999997
 20
478.39994750000005
 11
110.42895499999997
 21
478.39994750000005
  0
LINE
  8
_0-0_0
  6
CONTINUOUS
 62
    7
 10
92.928954999999974
 20
480.59992950000003
 11
92.928954999999974
 21
482.29994150000005
  0
LINE
  8
_0-0_0
  6
CONTINUOUS
 62
    7
 10
92.928954999999974
 20
482.29994150000005
 11
79.428954999999974
 21
482.29994150000005
  0
LINE
  8
_0-0_0
  6
CONTINUOUS
 62
    7
 10
79.428954999999974
 20
480.59992950000003
 11
79.428954999999974
 21
482.29994150000005
  0
LINE
  8
_0-0_0
  6
CONTINUOUS
 62
    7
 10
80.928954999999974
 20
479.89994750000005
 11
76.253510000000006
 21
479.89994750000005
  0
LINE
  8
_0-0_0
  6
CONTINUOUS
 62
    7
 10
80.928954999999974
 20
474.39994750000005
 11
76.253510000000006
 21
474.39994750000005
  0
LINE
  8
_0-0_0
  6
CONTINUOUS
 62
    7
 10
75.621062999999992
 20
458.40257250000002
 11
75.740569999999991
 21
458.36695850000001
  0
LINE
  8
_0-0_0
  6
CONTINUOUS
 62
    7
 10
75.740569999999991
 20
458.36695850000001
 11
75.862121999999999
 21
458.33906549999995
  0
LINE
  8
_0-0_0
  6
CONTINUOUS
 62
    7
 10
75.862121999999999
 20
458.33906549999995
 11
75.985244999999964
 21
458.31904550000002
  0
LINE
  8
_0-0_0
  6
CONTINUOUS
 62
    7
 10
75.985244999999964
 20
458.31904550000002
 11
76.109466999999995
 21
458.30693050000002
  0
LINE
  8
_0-0_0
  6
CONTINUOUS
 62
    7
 10
76.109466999999995
 20
458.30693050000002
 11
76.234283000000005
 21
458.30278050000004
  0
LINE
  8
_0-0_0
  6
CONTINUOUS
 62
    7
 10
76.234283000000005
 20
458.30278050000004
 11
76.253510000000006
 21
458.30287150000004
  0
ARC
  8
_0-0_0
  6
CONTINUOUS
 62
    7
 10
76.253510000000006
 20
460.29994150000005
 40
2
 50
251.56498899999997
 51
269.99999700000001
  0
LINE
  8
_0-0_0
  6
CONTINUOUS
 62
    7
 10
79.428954999999974
 20
480.59992950000003
 11
92.928954999999974
 21
480.59992950000003
  0
CIRCLE
  8
_0-0_0
  6
CONTINUOUS
 62
    7
 10
173.92895499999997
 20
480.79994150000005
 40
1.4750000000000001
  0
CIRCLE
  8
_0-0_0
  6
CONTINUOUS
 62
    7
 10
94.928954999999974
 20
480.79994150000005
 40
1.4750000000000001
  0
ARC
  8
_0-0_0
  6
CONTINUOUS
 62
    7
 10
76.253510000000006
 20
477.89994750000005
 40
2
 50
90.000003000000007
 51
108.434997
  0
LINE
  8
_0-0_0
  6
CONTINUOUS
 62
    7
 10
71.454619999999977
 20
474.39994750000005
 11
70.76126099999999
 21
474.39994750000005
  0
LINE
  8
_0-0_0
  6
CONTINUOUS
 62
    7
 10
71.454619999999977
 20
474.39994750000005
 11
75.779175000000009
 21
474.39994750000005
  0
LINE
  8
_0-0_0
  6
CONTINUOUS
 62
    7
 10
76.253510000000006
 20
474.39994750000005
 11
75.779175000000009
 21
474.39994750000005
  0
LINE
  8
_0-0_0
  6
CONTINUOUS
 62
    7
 10
71.296509000000015
 20
459.84410049999997
 11
75.621062999999992
 21
458.40257250000002
  0
LINE
  8
_0-0_0
  6
CONTINUOUS
 62
    7
 10
170.47894299999996
 20
473.89994750000005
 11
168.169556
 21
469.89994750000005
  0
LINE
  8
_0-0_0
  6
CONTINUOUS
 62
    7
 10
159.688355
 20
469.89994750000005
 11
168.169556
 21
469.89994750000005
  0
LINE
  8
_0-0_0
  6
CONTINUOUS
 62
    7
 10
159.688355
 20
469.89994750000005
 11
157.37896699999999
 21
473.89994750000005
  0
LINE
  8
_0-0_0
  6
CONTINUOUS
 62
    7
 10
157.37896699999999
 20
473.89994750000005
 11
159.688355
 21
477.89994750000005
  0
LINE
  8
_0-0_0
  6
CONTINUOUS
 62
    7
 10
168.169556
 20
477.89994750000005
 11
159.688355
 21
477.89994750000005
  0
LINE
  8
_0-0_0
  6
CONTINUOUS
 62
    7
 10
168.169556
 20
477.89994750000005
 11
170.47894299999996
 21
473.89994750000005
  0
LINE
  8
_0-0_0
  6
CONTINUOUS
 62
    7
 10
103.688355
 20
477.89994750000005
 11
101.37896699999999
 21
473.89994750000005
  0
LINE
  8
_0-0_0
  6
CONTINUOUS
 62
    7
 10
112.169556
 20
477.89994750000005
 11
103.688355
 21
477.89994750000005
  0
LINE
  8
_0-0_0
  6
CONTINUOUS
 62
    7
 10
114.47895799999998
 20
473.89994750000005
 11
112.169556
 21
477.89994750000005
  0
LINE
  8
_0-0_0
  6
CONTINUOUS
 62
    7
 10
112.169556
 20
469.89994750000005
 11
114.47895799999998
 21
473.89994750000005
  0
LINE
  8
_0-0_0
  6
CONTINUOUS
 62
    7
 10
103.688355
 20
469.89994750000005
 11
112.169556
 21
469.89994750000005
  0
LINE
  8
_0-0_0
  6
CONTINUOUS
 62
    7
 10
101.37896699999999
 20
473.89994750000005
 11
103.688355
 21
469.89994750000005
  0
LINE
  8
_0-0_0
  6
CONTINUOUS
 62
    7
 10
75.178954999999974
 20
479.64994750000005
 11
75.621062999999992
 21
479.79731749999996
  0
LINE
  8
_0-0_0
  6
CONTINUOUS
 62
    7
 10
69.928954999999974
 20
475.14997849999997
 11
69.928954999999974
 21
474.02894549999996
  0
LINE
  8
_0-0_0
  6
CONTINUOUS
 62
    7
 10
69.928954999999974
 20
473.10762050000005
 11
69.928954999999974
 21
474.02894549999996
  0
LINE
  8
_0-0_0
  6
CONTINUOUS
 62
    7
 10
70.228972999999996
 20
471.3119355
 11
70.170165999999995
 21
471.55876150000006
  0
LINE
  8
_0-0_0
  6
CONTINUOUS
 62
    7
 10
70.170165999999995
 20
471.55876150000006
 11
70.120391999999981
 21
471.75111349999997
  0
LINE
  8
_0-0_0
  6
CONTINUOUS
 62
    7
 10
70.120391999999981
 20
471.75111349999997
 11
70.049270999999976
 21
472.01692149999997
  0
LINE
  8
_0-0_0
  6
CONTINUOUS
 62
    7
 10
70.049270999999976
 20
472.01692149999997
 11
70.016311999999971
 21
472.14363049999997
  0
LINE
  8
_0-0_0
  6
CONTINUOUS
 62
    7
 10
70.016311999999971
 20
472.14363049999997
 11
69.991057999999953
 21
472.24705449999999
  0
LINE
  8
_0-0_0
  6
CONTINUOUS
 62
    7
 10
69.991057999999953
 20
472.24705449999999
 11
69.969024999999988
 21
472.3469695
  0
LINE
  8
_0-0_0
  6
CONTINUOUS
 62
    7
 10
69.969024999999988
 20
472.3469695
 11
69.947646999999961
 21
472.4646755
  0
LINE
  8
_0-0_0
  6
CONTINUOUS
 62
    7
 10
69.947646999999961
 20
472.4646755
 11
69.93907200000001
 21
472.52680950000001
  0
LINE
  8
_0-0_0
  6
CONTINUOUS
 62
    7
 10
69.93907200000001
 20
472.52680950000001
 11
69.932982999999979
 21
472.58741750000002
  0
LINE
  8
_0-0_0
  6
CONTINUOUS
 62
    7
 10
69.932982999999979
 20
472.58741750000002
 11
69.929992999999968
 21
472.63667250000003
  0
LINE
  8
_0-0_0
  6
CONTINUOUS
 62
    7
 10
69.929992999999968
 20
472.63667250000003
 11
69.928954999999974
 21
472.68489050000005
  0
LINE
  8
_0-0_0
  6
CONTINUOUS
 62
    7
 10
70.228972999999996
 20
466.88792450000005
 11
70.312423999999965
 21
467.26661650000005
  0
LINE
  8
_0-0_0
  6
CONTINUOUS
 62
    7
 10
70.312423999999965
 20
467.26661650000005
 11
70.352508999999998
 21
467.4581455
  0
LINE
  8
_0-0_0
  6
CONTINUOUS
 62
    7
 10
70.352508999999998
 20
467.4581455
 11
70.408599999999979
 21
467.74815350000006
  0
LINE
  8
_0-0_0
  6
CONTINUOUS
 62
    7
 10
70.408599999999979
 20
467.74815350000006
 11
70.446197999999981
 21
467.96772750000002
  0
LINE
  8
_0-0_0
  6
CONTINUOUS
 62
    7
 10
70.446197999999981
 20
467.96772750000002
 11
70.478850999999963
 21
468.18897949999996
  0
LINE
  8
_0-0_0
  6
CONTINUOUS
 62
    7
 10
70.478850999999963
 20
468.18897949999996
 11
70.506011999999998
 21
468.41578649999997
  0
LINE
  8
_0-0_0
  6
CONTINUOUS
 62
    7
 10
70.506011999999998
 20
468.41578649999997
 11
70.526062000000024
 21
468.64317349999999
  0
LINE
  8
_0-0_0
  6
CONTINUOUS
 62
    7
 10
70.526062000000024
 20
468.64317349999999
 11
70.533233999999993
 21
468.7569125
  0
LINE
  8
_0-0_0
  6
CONTINUOUS
 62
    7
 10
70.533233999999993
 20
468.7569125
 11
70.53839099999999
 21
468.87059050000005
  0
LINE
  8
_0-0_0
  6
CONTINUOUS
 62
    7
 10
70.53839099999999
 20
468.87059050000005
 11
70.542099000000007
 21
469.02201850000006
  0
LINE
  8
_0-0_0
  6
CONTINUOUS
 62
    7
 10
70.542099000000007
 20
469.02201850000006
 11
70.542159999999967
 21
469.1732935
  0
LINE
  8
_0-0_0
  6
CONTINUOUS
 62
    7
 10
70.542159999999967
 20
469.1732935
 11
70.538573999999983
 21
469.32435550000002
  0
LINE
  8
_0-0_0
  6
CONTINUOUS
 62
    7
 10
70.538573999999983
 20
469.32435550000002
 11
70.529083000000014
 21
469.51289350000002
  0
LINE
  8
_0-0_0
  6
CONTINUOUS
 62
    7
 10
70.529083000000014
 20
469.51289350000002
 11
70.514205999999945
 21
469.70112549999999
  0
LINE
  8
_0-0_0
  6
CONTINUOUS
 62
    7
 10
70.514205999999945
 20
469.70112549999999
 11
70.494292999999971
 21
469.88908349999997
  0
LINE
  8
_0-0_0
  6
CONTINUOUS
 62
    7
 10
70.494292999999971
 20
469.88908349999997
 11
70.477904999999964
 21
470.01795949999996
  0
LINE
  8
_0-0_0
  6
CONTINUOUS
 62
    7
 10
70.477904999999964
 20
470.01795949999996
 11
70.459487999999965
 21
470.1465915
  0
LINE
  8
_0-0_0
  6
CONTINUOUS
 62
    7
 10
70.459487999999965
 20
470.1465915
 11
70.435333000000014
 21
470.29853849999995
  0
LINE
  8
_0-0_0
  6
CONTINUOUS
 62
    7
 10
70.435333000000014
 20
470.29853849999995
 11
70.408935999999983
 21
470.44987449999996
  0
LINE
  8
_0-0_0
  6
CONTINUOUS
 62
    7
 10
70.408935999999983
 20
470.44987449999996
 11
70.352753000000007
 21
470.74049349999996
  0
LINE
  8
_0-0_0
  6
CONTINUOUS
 62
    7
 10
70.352753000000007
 20
470.74049349999996
 11
70.312591999999995
 21
470.93244949999996
  0
LINE
  8
_0-0_0
  6
CONTINUOUS
 62
    7
 10
70.312591999999995
 20
470.93244949999996
 11
70.228972999999996
 21
471.3119355
  0
LINE
  8
_0-0_0
  6
CONTINUOUS
 62
    7
 10
70.228957999999977
 20
466.88792450000005
 11
70.170165999999995
 21
466.64106749999996
  0
LINE
  8
_0-0_0
  6
CONTINUOUS
 62
    7
 10
70.170165999999995
 20
466.64106749999996
 11
70.120391999999981
 21
466.44874549999997
  0
LINE
  8
_0-0_0
  6
CONTINUOUS
 62
    7
 10
70.120391999999981
 20
466.44874549999997
 11
70.049285999999995
 21
466.18299850000005
  0
LINE
  8
_0-0_0
  6
CONTINUOUS
 62
    7
 10
70.049285999999995
 20
466.18299850000005
 11
70.01632699999999
 21
466.05632049999997
  0
LINE
  8
_0-0_0
  6
CONTINUOUS
 62
    7
 10
70.01632699999999
 20
466.05632049999997
 11
69.991057999999953
 21
465.95286550000003
  0
LINE
  8
_0-0_0
  6
CONTINUOUS
 62
    7
 10
69.991057999999953
 20
465.95286550000003
 11
69.969024999999988
 21
465.85288949999995
  0
LINE
  8
_0-0_0
  6
CONTINUOUS
 62
    7
 10
69.969024999999988
 20
465.85288949999995
 11
69.947631999999999
 21
465.73518349999995
  0
LINE
  8
_0-0_0
  6
CONTINUOUS
 62
    7
 10
69.947631999999999
 20
465.73518349999995
 11
69.93907200000001
 21
465.67304950000005
  0
LINE
  8
_0-0_0
  6
CONTINUOUS
 62
    7
 10
69.93907200000001
 20
465.67304950000005
 11
69.932982999999979
 21
465.61244150000005
  0
LINE
  8
_0-0_0
  6
CONTINUOUS
 62
    7
 10
69.932982999999979
 20
465.61244150000005
 11
69.929992999999968
 21
465.56321749999995
  0
LINE
  8
_0-0_0
  6
CONTINUOUS
 62
    7
 10
69.929992999999968
 20
465.56321749999995
 11
69.928954999999974
 21
465.51499950000004
  0
LINE
  8
_0-0_0
  6
CONTINUOUS
 62
    7
 10
69.928954999999974
 20
461.74147049999999
 11
69.928954999999974
 21
465.09223950000001
  0
ARC
  8
_0-0_0
  6
CONTINUOUS
 62
    7
 10
71.928954999999974
 20
461.74147049999999
 40
2
 50
180.00000900000003
 51
251.56498900000003
  0
LINE
  8
_0-0_0
  6
CONTINUOUS
 62
    7
 10
174.37896699999999
 20
480.59992950000003
 11
175.02896099999998
 21
480.59992950000003
  0
ARC
  8
_0-0_0
  6
CONTINUOUS
 62
    7
 10
174.37896699999999
 20
480.34992950000003
 40
0.25
 50
90.000003000000007
 51
180.00000900000001
  0
LINE
  8
_0-0_0
  6
CONTINUOUS
 62
    7
 10
174.12896699999999
 20
480.34992950000003
 11
174.12896699999999
 21
479.69993550000004
  0
LINE
  8
_0-0_0
  6
CONTINUOUS
 62
    7
 10
173.72894299999996
 20
479.69993550000004
 11
174.12896699999999
 21
479.69993550000004
  0
LINE
  8
_0-0_0
  6
CONTINUOUS
 62
    7
 10
173.72894299999996
 20
479.69993550000004
 11
173.72894299999996
 21
480.34992950000003
  0
ARC
  8
_0-0_0
  6
CONTINUOUS
 62
    7
 10
173.47894299999996
 20
480.34992950000003
 40
0.25
 50
0
 51
90.000003000000007
  0
LINE
  8
_0-0_0
  6
CONTINUOUS
 62
    7
 10
172.82898
 20
480.59992950000003
 11
173.47894299999996
 21
480.59992950000003
  0
LINE
  8
_0-0_0
  6
CONTINUOUS
 62
    7
 10
172.82898
 20
480.59992950000003
 11
172.82898
 21
480.99995450000006
  0
LINE
  8
_0-0_0
  6
CONTINUOUS
 62
    7
 10
173.47894299999996
 20
480.99995450000006
 11
172.82898
 21
480.99995450000006
  0
ARC
  8
_0-0_0
  6
CONTINUOUS
 62
    7
 10
173.47894299999996
 20
481.24995450000006
 40
0.25
 50
269.99999700000001
 51
0
  0
LINE
  8
_0-0_0
  6
CONTINUOUS
 62
    7
 10
173.72894299999996
 20
481.24995450000006
 11
173.72894299999996
 21
481.89994750000005
  0
LINE
  8
_0-0_0
  6
CONTINUOUS
 62
    7
 10
174.12896699999999
 20
481.89994750000005
 11
173.72894299999996
 21
481.89994750000005
  0
LINE
  8
_0-0_0
  6
CONTINUOUS
 62
    7
 10
174.12896699999999
 20
481.89994750000005
 11
174.12896699999999
 21
481.24995450000006
  0
ARC
  8
_0-0_0
  6
CONTINUOUS
 62
    7
 10
174.37896699999999
 20
481.24995450000006
 40
0.25
 50
180.00000900000003
 51
269.99999700000001
  0
LINE
  8
_0-0_0
  6
CONTINUOUS
 62
    7
 10
175.02896099999998
 20
480.99995450000006
 11
174.37896699999999
 21
480.99995450000006
  0
LINE
  8
_0-0_0
  6
CONTINUOUS
 62
    7
 10
175.02896099999998
 20
480.99995450000006
 11
175.02896099999998
 21
480.59992950000003
  0
LINE
  8
_0-0_0
  6
CONTINUOUS
 62
    7
 10
95.378966999999989
 20
480.59992950000003
 11
96.028960999999981
 21
480.59992950000003
  0
ARC
  8
_0-0_0
  6
CONTINUOUS
 62
    7
 10
95.378966999999989
 20
480.34992950000003
 40
0.25
 50
90.000003000000007
 51
180.00000900000001
  0
LINE
  8
_0-0_0
  6
CONTINUOUS
 62
    7
 10
95.128966999999989
 20
480.34992950000003
 11
95.128966999999989
 21
479.69993550000004
  0
LINE
  8
_0-0_0
  6
CONTINUOUS
 62
    7
 10
94.728957999999977
 20
479.69993550000004
 11
95.128966999999989
 21
479.69993550000004
  0
LINE
  8
_0-0_0
  6
CONTINUOUS
 62
    7
 10
94.728957999999977
 20
479.69993550000004
 11
94.728957999999977
 21
480.34992950000003
  0
ARC
  8
_0-0_0
  6
CONTINUOUS
 62
    7
 10
94.478957999999977
 20
480.34992950000003
 40
0.25
 50
0
 51
90.000003000000007
  0
LINE
  8
_0-0_0
  6
CONTINUOUS
 62
    7
 10
93.828963999999985
 20
480.59992950000003
 11
94.478957999999977
 21
480.59992950000003
  0
LINE
  8
_0-0_0
  6
CONTINUOUS
 62
    7
 10
93.828963999999985
 20
480.59992950000003
 11
93.828963999999985
 21
480.99995450000006
  0
LINE
  8
_0-0_0
  6
CONTINUOUS
 62
    7
 10
94.478957999999977
 20
480.99995450000006
 11
93.828963999999985
 21
480.99995450000006
  0
ARC
  8
_0-0_0
  6
CONTINUOUS
 62
    7
 10
94.478957999999977
 20
481.24995450000006
 40
0.25
 50
269.99999700000001
 51
0
  0
LINE
  8
_0-0_0
  6
CONTINUOUS
 62
    7
 10
94.728957999999977
 20
481.24995450000006
 11
94.728957999999977
 21
481.89994750000005
  0
LINE
  8
_0-0_0
  6
CONTINUOUS
 62
    7
 10
95.128966999999989
 20
481.89994750000005
 11
94.728957999999977
 21
481.89994750000005
  0
LINE
  8
_0-0_0
  6
CONTINUOUS
 62
    7
 10
95.128966999999989
 20
481.89994750000005
 11
95.128966999999989
 21
481.24995450000006
  0
ARC
  8
_0-0_0
  6
CONTINUOUS
 62
    7
 10
95.378966999999989
 20
481.24995450000006
 40
0.25
 50
180.00000900000003
 51
269.99999700000001
  0
LINE
  8
_0-0_0
  6
CONTINUOUS
 62
    7
 10
96.028960999999981
 20
480.99995450000006
 11
95.378966999999989
 21
480.99995450000006
  0
LINE
  8
_0-0_0
  6
CONTINUOUS
 62
    7
 10
96.028960999999981
 20
480.99995450000006
 11
96.028960999999981
 21
480.59992950000003
  0
LINE
  8
_0-0_0
  6
CONTINUOUS
 62
    7
 10
54.928954999999974
 20
478.6253815
 11
54.928954999999974
 21
478.47865249999995
  0
LINE
  8
_0-0_0
  6
CONTINUOUS
 62
    7
 10
54.928954999999974
 20
478.81590249999999
 11
54.928954999999974
 21
478.6253815
  0
LINE
  8
_0-0_0
  6
CONTINUOUS
 62
    7
 10
54.928954999999974
 20
478.99092050000002
 11
54.928954999999974
 21
478.81590249999999
  0
LINE
  8
_0-0_0
  6
CONTINUOUS
 62
    7
 10
54.928954999999974
 20
479.14851350000004
 11
54.928954999999974
 21
478.99092050000002
  0
LINE
  8
_0-0_0
  6
CONTINUOUS
 62
    7
 10
54.928954999999974
 20
479.28694150000001
 11
54.928954999999974
 21
479.14851350000004
  0
LINE
  8
_0-0_0
  6
CONTINUOUS
 62
    7
 10
54.928954999999974
 20
479.40470849999997
 11
54.928954999999974
 21
479.28694150000001
  0
LINE
  8
_0-0_0
  6
CONTINUOUS
 62
    7
 10
54.928954999999974
 20
479.50050350000004
 11
54.928954999999974
 21
479.40470849999997
  0
LINE
  8
_0-0_0
  6
CONTINUOUS
 62
    7
 10
54.928954999999974
 20
479.57328749999999
 11
54.928954999999974
 21
479.50050350000004
  0
LINE
  8
_0-0_0
  6
CONTINUOUS
 62
    7
 10
54.928954999999974
 20
479.62223849999998
 11
54.928954999999974
 21
479.57328749999999
  0
LINE
  8
_0-0_0
  6
CONTINUOUS
 62
    7
 10
54.928954999999974
 20
479.64994750000005
 11
54.928954999999974
 21
479.62223849999998
  0
LINE
  8
_0-0_0
  6
CONTINUOUS
 62
    7
 10
54.928954999999974
 20
479.64994750000005
 11
54.928954999999974
 21
479.64686549999999
  0
LINE
  8
_0-0_0
  6
CONTINUOUS
 62
    7
 10
54.928954999999974
 20
475.1530305
 11
54.928954999999974
 21
475.14994750000005
  0
LINE
  8
_0-0_0
  6
CONTINUOUS
 62
    7
 10
54.928954999999974
 20
475.17765750000001
 11
54.928954999999974
 21
475.14994750000005
  0
LINE
  8
_0-0_0
  6
CONTINUOUS
 62
    7
 10
54.928954999999974
 20
475.2266085
 11
54.928954999999974
 21
475.17765750000001
  0
LINE
  8
_0-0_0
  6
CONTINUOUS
 62
    7
 10
54.928954999999974
 20
475.29939249999995
 11
54.928954999999974
 21
475.2266085
  0
LINE
  8
_0-0_0
  6
CONTINUOUS
 62
    7
 10
54.928954999999974
 20
475.39518750000002
 11
54.928954999999974
 21
475.29939249999995
  0
LINE
  8
_0-0_0
  6
CONTINUOUS
 62
    7
 10
54.928954999999974
 20
475.42536949999999
 11
54.928954999999974
 21
475.39518750000002
  0
LINE
  8
_0-0_0
  6
CONTINUOUS
 62
    7
 10
54.928954999999974
 20
475.51292450000005
 11
54.928954999999974
 21
475.42536949999999
  0
LINE
  8
_0-0_0
  6
CONTINUOUS
 62
    7
 10
54.928954999999974
 20
475.65135150000003
 11
54.928954999999974
 21
475.51292450000005
  0
LINE
  8
_0-0_0
  6
CONTINUOUS
 62
    7
 10
54.928954999999974
 20
475.80894450000005
 11
54.928954999999974
 21
475.65135150000003
  0
LINE
  8
_0-0_0
  6
CONTINUOUS
 62
    7
 10
54.928954999999974
 20
475.98396249999996
 11
54.928954999999974
 21
475.80894450000005
  0
LINE
  8
_0-0_0
  6
CONTINUOUS
 62
    7
 10
54.928954999999974
 20
476.17451449999999
 11
54.928954999999974
 21
475.98396249999996
  0
LINE
  8
_0-0_0
  6
CONTINUOUS
 62
    7
 10
54.928954999999974
 20
476.37846349999995
 11
54.928954999999974
 21
476.17451449999999
  0
LINE
  8
_0-0_0
  6
CONTINUOUS
 62
    7
 10
54.928954999999974
 20
476.59361249999995
 11
54.928954999999974
 21
476.37846349999995
  0
LINE
  8
_0-0_0
  6
CONTINUOUS
 62
    7
 10
54.928954999999974
 20
476.8176115
 11
54.928954999999974
 21
476.59361249999995
  0
LINE
  8
_0-0_0
  6
CONTINUOUS
 62
    7
 10
54.928954999999974
 20
477.04795850000005
 11
54.928954999999974
 21
476.8176115
  0
LINE
  8
_0-0_0
  6
CONTINUOUS
 62
    7
 10
54.928954999999974
 20
477.28218049999998
 11
54.928954999999974
 21
477.04795850000005
  0
LINE
  8
_0-0_0
  6
CONTINUOUS
 62
    7
 10
54.928954999999974
 20
477.51771550000001
 11
54.928954999999974
 21
477.28218049999998
  0
LINE
  8
_0-0_0
  6
CONTINUOUS
 62
    7
 10
54.928954999999974
 20
477.75190750000002
 11
54.928954999999974
 21
477.51771550000001
  0
LINE
  8
_0-0_0
  6
CONTINUOUS
 62
    7
 10
54.928954999999974
 20
477.98228449999999
 11
54.928954999999974
 21
477.75190750000002
  0
LINE
  8
_0-0_0
  6
CONTINUOUS
 62
    7
 10
54.928954999999974
 20
478.20628350000004
 11
54.928954999999974
 21
477.98228449999999
  0
LINE
  8
_0-0_0
  6
CONTINUOUS
 62
    7
 10
54.928954999999974
 20
478.42143250000004
 11
54.928954999999974
 21
478.20628350000004
  0
LINE
  8
_0-0_0
  6
CONTINUOUS
 62
    7
 10
54.928954999999974
 20
478.47865249999995
 11
54.928954999999974
 21
478.42143250000004
  0
LINE
  8
_0-0_0
  6
CONTINUOUS
 62
    7
 10
69.928954999999974
 20
470.66200249999997
 11
69.928954999999974
 21
471.70762649999995
  0
LINE
  8
_0-0_0
  6
CONTINUOUS
 62
    7
 10
69.928954999999974
 20
472.9922335
 11
69.928954999999974
 21
471.70762649999995
  0
LINE
  8
_0-0_0
  6
CONTINUOUS
 62
    7
 10
69.928954999999974
 20
473.10762050000005
 11
69.928954999999974
 21
472.9922335
  0
LINE
  8
_0-0_0
  6
CONTINUOUS
 62
    7
 10
69.928954999999974
 20
470.66200249999997
 11
69.928954999999974
 21
467.53788750000001
  0
LINE
  8
_0-0_0
  6
CONTINUOUS
 62
    7
 10
69.928954999999974
 20
465.09223950000001
 11
69.928954999999974
 21
465.20762649999995
  0
LINE
  8
_0-0_0
  6
CONTINUOUS
 62
    7
 10
69.928954999999974
 20
466.4922335
 11
69.928954999999974
 21
465.20762649999995
  0
LINE
  8
_0-0_0
  6
CONTINUOUS
 62
    7
 10
69.928954999999974
 20
466.4922335
 11
69.928954999999974
 21
467.53788750000001
  0
LINE
  8
_0-0_0
  6
CONTINUOUS
 62
    7
 10
54.928954999999974
 20
462.0253755
 11
54.928954999999974
 21
461.87864650000006
  0
LINE
  8
_0-0_0
  6
CONTINUOUS
 62
    7
 10
54.928954999999974
 20
462.21592650000002
 11
54.928954999999974
 21
462.0253755
  0
LINE
  8
_0-0_0
  6
CONTINUOUS
 62
    7
 10
54.928954999999974
 20
462.39094550000004
 11
54.928954999999974
 21
462.21592650000002
  0
LINE
  8
_0-0_0
  6
CONTINUOUS
 62
    7
 10
54.928954999999974
 20
462.54850750000003
 11
54.928954999999974
 21
462.39094550000004
  0
LINE
  8
_0-0_0
  6
CONTINUOUS
 62
    7
 10
54.928954999999974
 20
462.68696550000004
 11
54.928954999999974
 21
462.54850750000003
  0
LINE
  8
_0-0_0
  6
CONTINUOUS
 62
    7
 10
54.928954999999974
 20
462.80470249999996
 11
54.928954999999974
 21
462.68696550000004
  0
LINE
  8
_0-0_0
  6
CONTINUOUS
 62
    7
 10
54.928954999999974
 20
462.90049750000003
 11
54.928954999999974
 21
462.80470249999996
  0
LINE
  8
_0-0_0
  6
CONTINUOUS
 62
    7
 10
54.928954999999974
 20
462.97328149999998
 11
54.928954999999974
 21
462.90049750000003
  0
LINE
  8
_0-0_0
  6
CONTINUOUS
 62
    7
 10
54.928954999999974
 20
463.02223149999998
 11
54.928954999999974
 21
462.97328149999998
  0
LINE
  8
_0-0_0
  6
CONTINUOUS
 62
    7
 10
54.928954999999974
 20
463.04994150000005
 11
54.928954999999974
 21
463.02223149999998
  0
LINE
  8
_0-0_0
  6
CONTINUOUS
 62
    7
 10
54.928954999999974
 20
463.04994150000005
 11
54.928954999999974
 21
463.04685949999998
  0
LINE
  8
_0-0_0
  6
CONTINUOUS
 62
    7
 10
54.928954999999974
 20
458.55302449999999
 11
54.928954999999974
 21
458.54994150000005
  0
LINE
  8
_0-0_0
  6
CONTINUOUS
 62
    7
 10
54.928954999999974
 20
458.5776515
 11
54.928954999999974
 21
458.54994150000005
  0
LINE
  8
_0-0_0
  6
CONTINUOUS
 62
    7
 10
54.928954999999974
 20
458.62660249999999
 11
54.928954999999974
 21
458.5776515
  0
LINE
  8
_0-0_0
  6
CONTINUOUS
 62
    7
 10
54.928954999999974
 20
458.69938650000006
 11
54.928954999999974
 21
458.62660249999999
  0
LINE
  8
_0-0_0
  6
CONTINUOUS
 62
    7
 10
54.928954999999974
 20
458.79518150000001
 11
54.928954999999974
 21
458.69938650000006
  0
LINE
  8
_0-0_0
  6
CONTINUOUS
 62
    7
 10
54.928954999999974
 20
458.82539350000002
 11
54.928954999999974
 21
458.79518150000001
  0
LINE
  8
_0-0_0
  6
CONTINUOUS
 62
    7
 10
54.928954999999974
 20
458.91291750000005
 11
54.928954999999974
 21
458.82539350000002
  0
LINE
  8
_0-0_0
  6
CONTINUOUS
 62
    7
 10
54.928954999999974
 20
459.05137649999995
 11
54.928954999999974
 21
458.91291750000005
  0
LINE
  8
_0-0_0
  6
CONTINUOUS
 62
    7
 10
54.928954999999974
 20
459.20896849999997
 11
54.928954999999974
 21
459.05137649999995
  0
LINE
  8
_0-0_0
  6
CONTINUOUS
 62
    7
 10
54.928954999999974
 20
459.38398749999999
 11
54.928954999999974
 21
459.20896849999997
  0
LINE
  8
_0-0_0
  6
CONTINUOUS
 62
    7
 10
54.928954999999974
 20
459.57450849999998
 11
54.928954999999974
 21
459.38398749999999
  0
LINE
  8
_0-0_0
  6
CONTINUOUS
 62
    7
 10
54.928954999999974
 20
459.77845750000006
 11
54.928954999999974
 21
459.57450849999998
  0
LINE
  8
_0-0_0
  6
CONTINUOUS
 62
    7
 10
54.928954999999974
 20
459.99360650000006
 11
54.928954999999974
 21
459.77845750000006
  0
LINE
  8
_0-0_0
  6
CONTINUOUS
 62
    7
 10
54.928954999999974
 20
460.21760549999999
 11
54.928954999999974
 21
459.99360650000006
  0
LINE
  8
_0-0_0
  6
CONTINUOUS
 62
    7
 10
54.928954999999974
 20
460.44795250000004
 11
54.928954999999974
 21
460.21760549999999
  0
LINE
  8
_0-0_0
  6
CONTINUOUS
 62
    7
 10
54.928954999999974
 20
460.68217449999997
 11
54.928954999999974
 21
460.44795250000004
  0
LINE
  8
_0-0_0
  6
CONTINUOUS
 62
    7
 10
54.928954999999974
 20
460.9177095
 11
54.928954999999974
 21
460.68217449999997
  0
LINE
  8
_0-0_0
  6
CONTINUOUS
 62
    7
 10
54.928954999999974
 20
461.15193150000005
 11
54.928954999999974
 21
460.9177095
  0
LINE
  8
_0-0_0
  6
CONTINUOUS
 62
    7
 10
54.928954999999974
 20
461.38227849999998
 11
54.928954999999974
 21
461.15193150000005
  0
LINE
  8
_0-0_0
  6
CONTINUOUS
 62
    7
 10
54.928954999999974
 20
461.60627750000003
 11
54.928954999999974
 21
461.38227849999998
  0
LINE
  8
_0-0_0
  6
CONTINUOUS
 62
    7
 10
54.928954999999974
 20
461.82142650000003
 11
54.928954999999974
 21
461.60627750000003
  0
LINE
  8
_0-0_0
  6
CONTINUOUS
 62
    7
 10
54.928954999999974
 20
461.87864650000006
 11
54.928954999999974
 21
461.82142650000003
  0
LINE
  8
_0-0_0
  6
CONTINUOUS
 62
    7
 10
165.92895499999997
 20
471.64994750000005
 11
161.92895499999997
 21
471.64994750000005
  0
ARC
  8
_0-0_0
  6
CONTINUOUS
 62
    7
 10
161.92895499999997
 20
473.89994750000005
 40
2.25
 50
90.000003000000007
 51
269.99999700000006
  0
LINE
  8
_0-0_0
  6
CONTINUOUS
 62
    7
 10
161.92895499999997
 20
476.14994750000005
 11
165.92895499999997
 21
476.14994750000005
  0
ARC
  8
_0-0_0
  6
CONTINUOUS
 62
    7
 10
165.92895499999997
 20
473.89994750000005
 40
2.25
 50
269.99999700000001
 51
90.000002999999992
  0
ARC
  8
_0-0_0
  6
CONTINUOUS
 62
    7
 10
105.92895499999997
 20
473.89994750000005
 40
2.25
 50
90.000003000000007
 51
269.99999700000006
  0
LINE
  8
_0-0_0
  6
CONTINUOUS
 62
    7
 10
105.92895499999997
 20
476.14994750000005
 11
109.92895499999997
 21
476.14994750000005
  0
ARC
  8
_0-0_0
  6
CONTINUOUS
 62
    7
 10
109.92895499999997
 20
473.89994750000005
 40
2.25
 50
269.99999700000001
 51
90.000002999999992
  0
LINE
  8
_0-0_0
  6
CONTINUOUS
 62
    7
 10
109.92895499999997
 20
471.64994750000005
 11
105.92895499999997
 21
471.64994750000005
  0
LINE
  8
_0-0_0
  6
CONTINUOUS
 62
    7
 10
54.928954999999974
 20
478.6253815
 11
54.678954999999974
 21
478.64994750000005
  0
LINE
  8
_0-0_0
  6
CONTINUOUS
 62
    7
 10
54.928954999999974
 20
478.42143250000004
 11
54.678954999999974
 21
478.64994750000005
  0
LINE
  8
_0-0_0
  6
CONTINUOUS
 62
    7
 10
54.928954999999974
 20
478.81590249999999
 11
54.678954999999974
 21
478.86939949999999
  0
LINE
  8
_0-0_0
  6
CONTINUOUS
 62
    7
 10
54.928954999999974
 20
478.6253815
 11
54.678954999999974
 21
478.86939949999999
  0
LINE
  8
_0-0_0
  6
CONTINUOUS
 62
    7
 10
54.928954999999974
 20
478.99092050000002
 11
54.678954999999974
 21
479.07276950000005
  0
LINE
  8
_0-0_0
  6
CONTINUOUS
 62
    7
 10
54.928954999999974
 20
478.81590249999999
 11
54.678954999999974
 21
479.07276950000005
  0
LINE
  8
_0-0_0
  6
CONTINUOUS
 62
    7
 10
54.928954999999974
 20
479.14851350000004
 11
54.678954999999974
 21
479.25779750000004
  0
LINE
  8
_0-0_0
  6
CONTINUOUS
 62
    7
 10
54.928954999999974
 20
478.99092050000002
 11
54.678954999999974
 21
479.25779750000004
  0
LINE
  8
_0-0_0
  6
CONTINUOUS
 62
    7
 10
54.928954999999974
 20
479.28694150000001
 11
54.678954999999974
 21
479.42250049999996
  0
LINE
  8
_0-0_0
  6
CONTINUOUS
 62
    7
 10
54.928954999999974
 20
479.14851350000004
 11
54.678954999999974
 21
479.42250049999996
  0
LINE
  8
_0-0_0
  6
CONTINUOUS
 62
    7
 10
54.928954999999974
 20
479.40470849999997
 11
54.678954999999974
 21
479.56501749999995
  0
LINE
  8
_0-0_0
  6
CONTINUOUS
 62
    7
 10
54.928954999999974
 20
479.28694150000001
 11
54.678954999999974
 21
479.56501749999995
  0
LINE
  8
_0-0_0
  6
CONTINUOUS
 62
    7
 10
54.928954999999974
 20
479.50050350000004
 11
54.678954999999974
 21
479.68379149999998
  0
LINE
  8
_0-0_0
  6
CONTINUOUS
 62
    7
 10
54.928954999999974
 20
479.40470849999997
 11
54.678954999999974
 21
479.68379149999998
  0
LINE
  8
_0-0_0
  6
CONTINUOUS
 62
    7
 10
54.928954999999974
 20
479.57328749999999
 11
54.678954999999974
 21
479.77757250000002
  0
LINE
  8
_0-0_0
  6
CONTINUOUS
 62
    7
 10
54.928954999999974
 20
479.50050350000004
 11
54.678954999999974
 21
479.77757250000002
  0
LINE
  8
_0-0_0
  6
CONTINUOUS
 62
    7
 10
54.928954999999974
 20
479.62223849999998
 11
54.678954999999974
 21
479.84532149999995
  0
LINE
  8
_0-0_0
  6
CONTINUOUS
 62
    7
 10
54.928954999999974
 20
479.57328749999999
 11
54.678954999999974
 21
479.84532149999995
  0
LINE
  8
_0-0_0
  6
CONTINUOUS
 62
    7
 10
54.928954999999974
 20
479.64686549999999
 11
54.678954999999974
 21
479.88624549999997
  0
LINE
  8
_0-0_0
  6
CONTINUOUS
 62
    7
 10
54.928954999999974
 20
479.62223849999998
 11
54.678954999999974
 21
479.88624549999997
  0
LINE
  8
_0-0_0
  6
CONTINUOUS
 62
    7
 10
54.928954999999974
 20
479.64686549999999
 11
54.678954999999974
 21
479.89994750000005
  0
LINE
  8
_0-0_0
  6
CONTINUOUS
 62
    7
 10
54.928954999999974
 20
475.1530305
 11
54.678954999999974
 21
474.89994750000005
  0
LINE
  8
_0-0_0
  6
CONTINUOUS
 62
    7
 10
54.928954999999974
 20
475.17765750000001
 11
54.678954999999974
 21
474.91365050000002
  0
LINE
  8
_0-0_0
  6
CONTINUOUS
 62
    7
 10
54.928954999999974
 20
475.1530305
 11
54.678954999999974
 21
474.91365050000002
  0
LINE
  8
_0-0_0
  6
CONTINUOUS
 62
    7
 10
54.928954999999974
 20
475.2266085
 11
54.678954999999974
 21
474.95457450000004
  0
LINE
  8
_0-0_0
  6
CONTINUOUS
 62
    7
 10
54.928954999999974
 20
475.17765750000001
 11
54.678954999999974
 21
474.95457450000004
  0
LINE
  8
_0-0_0
  6
CONTINUOUS
 62
    7
 10
54.928954999999974
 20
475.29939249999995
 11
54.678954999999974
 21
475.02229250000005
  0
LINE
  8
_0-0_0
  6
CONTINUOUS
 62
    7
 10
54.928954999999974
 20
475.2266085
 11
54.678954999999974
 21
475.02229250000005
  0
LINE
  8
_0-0_0
  6
CONTINUOUS
 62
    7
 10
54.928954999999974
 20
475.39518750000002
 11
54.678954999999974
 21
475.11607349999997
  0
LINE
  8
_0-0_0
  6
CONTINUOUS
 62
    7
 10
54.928954999999974
 20
475.29939249999995
 11
54.678954999999974
 21
475.11607349999997
  0
LINE
  8
_0-0_0
  6
CONTINUOUS
 62
    7
 10
54.928954999999974
 20
475.39518750000002
 11
54.798995999999988
 21
475.31132449999996
  0
LINE
  8
_0-0_0
  6
CONTINUOUS
 62
    7
 10
54.928954999999974
 20
475.51292450000005
 11
54.678954999999974
 21
475.23487850000004
  0
LINE
  8
_0-0_0
  6
CONTINUOUS
 62
    7
 10
54.798995999999988
 20
475.31132449999996
 11
54.678954999999974
 21
475.23487850000004
  0
LINE
  8
_0-0_0
  6
CONTINUOUS
 62
    7
 10
54.928954999999974
 20
475.65135150000003
 11
54.678954999999974
 21
475.37739550000003
  0
LINE
  8
_0-0_0
  6
CONTINUOUS
 62
    7
 10
54.928954999999974
 20
475.51292450000005
 11
54.678954999999974
 21
475.37739550000003
  0
LINE
  8
_0-0_0
  6
CONTINUOUS
 62
    7
 10
54.928954999999974
 20
475.80894450000005
 11
54.678954999999974
 21
475.54206850000003
  0
LINE
  8
_0-0_0
  6
CONTINUOUS
 62
    7
 10
54.928954999999974
 20
475.65135150000003
 11
54.678954999999974
 21
475.54206850000003
  0
LINE
  8
_0-0_0
  6
CONTINUOUS
 62
    7
 10
54.928954999999974
 20
475.98396249999996
 11
54.678954999999974
 21
475.72712650000005
  0
LINE
  8
_0-0_0
  6
CONTINUOUS
 62
    7
 10
54.928954999999974
 20
475.80894450000005
 11
54.678954999999974
 21
475.72712650000005
  0
LINE
  8
_0-0_0
  6
CONTINUOUS
 62
    7
 10
54.928954999999974
 20
476.17451449999999
 11
54.678954999999974
 21
475.9304965
  0
LINE
  8
_0-0_0
  6
CONTINUOUS
 62
    7
 10
54.928954999999974
 20
475.98396249999996
 11
54.678954999999974
 21
475.9304965
  0
LINE
  8
_0-0_0
  6
CONTINUOUS
 62
    7
 10
54.928954999999974
 20
476.37846349999995
 11
54.678954999999974
 21
476.14994750000005
  0
LINE
  8
_0-0_0
  6
CONTINUOUS
 62
    7
 10
54.928954999999974
 20
476.17451449999999
 11
54.678954999999974
 21
476.14994750000005
  0
LINE
  8
_0-0_0
  6
CONTINUOUS
 62
    7
 10
54.928954999999974
 20
476.59361249999995
 11
54.678954999999974
 21
476.38310249999995
  0
LINE
  8
_0-0_0
  6
CONTINUOUS
 62
    7
 10
54.928954999999974
 20
476.37846349999995
 11
54.678954999999974
 21
476.38310249999995
  0
LINE
  8
_0-0_0
  6
CONTINUOUS
 62
    7
 10
54.928954999999974
 20
476.8176115
 11
54.678954999999974
 21
476.62739550000003
  0
LINE
  8
_0-0_0
  6
CONTINUOUS
 62
    7
 10
54.928954999999974
 20
476.59361249999995
 11
54.678954999999974
 21
476.62739550000003
  0
LINE
  8
_0-0_0
  6
CONTINUOUS
 62
    7
 10
54.928954999999974
 20
477.04795850000005
 11
54.678954999999974
 21
476.88017249999996
  0
LINE
  8
_0-0_0
  6
CONTINUOUS
 62
    7
 10
54.928954999999974
 20
476.8176115
 11
54.678954999999974
 21
476.88017249999996
  0
LINE
  8
_0-0_0
  6
CONTINUOUS
 62
    7
 10
54.928954999999974
 20
477.28218049999998
 11
54.678954999999974
 21
477.13862549999999
  0
LINE
  8
_0-0_0
  6
CONTINUOUS
 62
    7
 10
54.928954999999974
 20
477.04795850000005
 11
54.678954999999974
 21
477.13862549999999
  0
LINE
  8
_0-0_0
  6
CONTINUOUS
 62
    7
 10
54.928954999999974
 20
477.51771550000001
 11
54.678954999999974
 21
477.39994750000005
  0
LINE
  8
_0-0_0
  6
CONTINUOUS
 62
    7
 10
54.928954999999974
 20
477.28218049999998
 11
54.678954999999974
 21
477.39994750000005
  0
LINE
  8
_0-0_0
  6
CONTINUOUS
 62
    7
 10
54.928954999999974
 20
477.75190750000002
 11
54.678954999999974
 21
477.6612705
  0
LINE
  8
_0-0_0
  6
CONTINUOUS
 62
    7
 10
54.928954999999974
 20
477.51771550000001
 11
54.678954999999974
 21
477.6612705
  0
LINE
  8
_0-0_0
  6
CONTINUOUS
 62
    7
 10
54.928954999999974
 20
477.98228449999999
 11
54.678954999999974
 21
477.91972350000003
  0
LINE
  8
_0-0_0
  6
CONTINUOUS
 62
    7
 10
54.928954999999974
 20
477.75190750000002
 11
54.678954999999974
 21
477.91972350000003
  0
LINE
  8
_0-0_0
  6
CONTINUOUS
 62
    7
 10
54.928954999999974
 20
478.20628350000004
 11
54.678954999999974
 21
478.17250049999996
  0
LINE
  8
_0-0_0
  6
CONTINUOUS
 62
    7
 10
54.928954999999974
 20
477.98228449999999
 11
54.678954999999974
 21
478.17250049999996
  0
LINE
  8
_0-0_0
  6
CONTINUOUS
 62
    7
 10
54.928954999999974
 20
478.42143250000004
 11
54.678954999999974
 21
478.41679350000004
  0
LINE
  8
_0-0_0
  6
CONTINUOUS
 62
    7
 10
54.928954999999974
 20
478.20628350000004
 11
54.678954999999974
 21
478.41679350000004
  0
LINE
  8
_0-0_0
  6
CONTINUOUS
 62
    7
 10
69.928954999999974
 20
472.9922335
 11
60.221130000000016
 21
472.9922335
  0
LINE
  8
_0-0_0
  6
CONTINUOUS
 62
    7
 10
60.221130000000016
 20
472.9922335
 11
60.166656999999987
 21
473.06217949999996
  0
LINE
  8
_0-0_0
  6
CONTINUOUS
 62
    7
 10
60.166656999999987
 20
473.06217949999996
 11
60.115554999999972
 21
473.13099650000004
  0
LINE
  8
_0-0_0
  6
CONTINUOUS
 62
    7
 10
60.115554999999972
 20
473.13099650000004
 11
60.067916999999966
 21
473.19850150000002
  0
LINE
  8
_0-0_0
  6
CONTINUOUS
 62
    7
 10
60.067916999999966
 20
473.19850150000002
 11
60.02340700000002
 21
473.2650605
  0
LINE
  8
_0-0_0
  6
CONTINUOUS
 62
    7
 10
60.02340700000002
 20
473.2650605
 11
59.968688999999983
 21
473.35261549999996
  0
LINE
  8
_0-0_0
  6
CONTINUOUS
 62
    7
 10
59.968688999999983
 20
473.35261549999996
 11
59.91918899999996
 21
473.43870549999997
  0
LINE
  8
_0-0_0
  6
CONTINUOUS
 62
    7
 10
59.91918899999996
 20
473.43870549999997
 11
59.874725000000012
 21
473.52354449999996
  0
LINE
  8
_0-0_0
  6
CONTINUOUS
 62
    7
 10
59.874725000000012
 20
473.52354449999996
 11
59.827759000000015
 21
473.62385549999999
  0
LINE
  8
_0-0_0
  6
CONTINUOUS
 62
    7
 10
59.827759000000015
 20
473.62385549999999
 11
59.787536999999986
 21
473.72279349999997
  0
LINE
  8
_0-0_0
  6
CONTINUOUS
 62
    7
 10
59.787536999999986
 20
473.72279349999997
 11
59.753875999999991
 21
473.82054149999999
  0
LINE
  8
_0-0_0
  6
CONTINUOUS
 62
    7
 10
59.753875999999991
 20
473.82054149999999
 11
59.72659299999998
 21
473.91734350000002
  0
LINE
  8
_0-0_0
  6
CONTINUOUS
 62
    7
 10
59.72659299999998
 20
473.91734350000002
 11
59.705535999999995
 21
474.01338150000004
  0
LINE
  8
_0-0_0
  6
CONTINUOUS
 62
    7
 10
59.705535999999995
 20
474.01338150000004
 11
59.689606000000026
 21
474.11726350000004
  0
LINE
  8
_0-0_0
  6
CONTINUOUS
 62
    7
 10
59.689606000000026
 20
474.11726350000004
 11
59.680846999999972
 21
474.22068750000005
  0
LINE
  8
_0-0_0
  6
CONTINUOUS
 62
    7
 10
59.680846999999972
 20
474.22068750000005
 11
59.679229999999961
 21
474.32392849999997
  0
LINE
  8
_0-0_0
  6
CONTINUOUS
 62
    7
 10
59.679229999999961
 20
474.32392849999997
 11
59.684691999999984
 21
474.42720050000003
  0
LINE
  8
_0-0_0
  6
CONTINUOUS
 62
    7
 10
59.684691999999984
 20
474.42720050000003
 11
59.697295999999994
 21
474.53080750000004
  0
LINE
  8
_0-0_0
  6
CONTINUOUS
 62
    7
 10
59.697295999999994
 20
474.53080750000004
 11
59.717116999999973
 21
474.63493349999999
  0
LINE
  8
_0-0_0
  6
CONTINUOUS
 62
    7
 10
59.717116999999973
 20
474.63493349999999
 11
59.744262999999989
 21
474.73991350000006
  0
LINE
  8
_0-0_0
  6
CONTINUOUS
 62
    7
 10
59.744262999999989
 20
474.73991350000006
 11
59.778900000000021
 21
474.84593150000001
  0
LINE
  8
_0-0_0
  6
CONTINUOUS
 62
    7
 10
59.778900000000021
 20
474.84593150000001
 11
59.821258999999998
 21
474.95332350000001
  0
LINE
  8
_0-0_0
  6
CONTINUOUS
 62
    7
 10
59.821258999999998
 20
474.95332350000001
 11
59.871567000000027
 21
475.06233250000002
  0
LINE
  8
_0-0_0
  6
CONTINUOUS
 62
    7
 10
59.871567000000027
 20
475.06233250000002
 11
59.917266999999981
 21
475.14997849999997
  0
LINE
  8
_0-0_0
  6
CONTINUOUS
 62
    7
 10
69.928954999999974
 20
471.70762649999995
 11
60.221130000000016
 21
471.70762649999995
  0
LINE
  8
_0-0_0
  6
CONTINUOUS
 62
    7
 10
60.221130000000016
 20
471.70762649999995
 11
60.126801
 21
471.46101350000004
  0
LINE
  8
_0-0_0
  6
CONTINUOUS
 62
    7
 10
60.126801
 20
471.46101350000004
 11
60.042846999999995
 21
471.22105350000004
  0
LINE
  8
_0-0_0
  6
CONTINUOUS
 62
    7
 10
60.042846999999995
 20
471.22105350000004
 11
59.968688999999983
 21
470.98692349999999
  0
LINE
  8
_0-0_0
  6
CONTINUOUS
 62
    7
 10
59.968688999999983
 20
470.98692349999999
 11
59.903809000000024
 21
470.75788850000004
  0
LINE
  8
_0-0_0
  6
CONTINUOUS
 62
    7
 10
59.903809000000024
 20
470.75788850000004
 11
59.847777999999948
 21
470.53321849999998
  0
LINE
  8
_0-0_0
  6
CONTINUOUS
 62
    7
 10
59.847777999999948
 20
470.53321849999998
 11
59.800201000000015
 21
470.31224050000003
  0
LINE
  8
_0-0_0
  6
CONTINUOUS
 62
    7
 10
59.800201000000015
 20
470.31224050000003
 11
59.76080300000001
 21
470.0943145
  0
LINE
  8
_0-0_0
  6
CONTINUOUS
 62
    7
 10
59.76080300000001
 20
470.0943145
 11
59.729308999999944
 21
469.87886049999997
  0
LINE
  8
_0-0_0
  6
CONTINUOUS
 62
    7
 10
59.729308999999944
 20
469.87886049999997
 11
59.705535999999995
 21
469.66532849999999
  0
LINE
  8
_0-0_0
  6
CONTINUOUS
 62
    7
 10
59.705535999999995
 20
469.66532849999999
 11
59.689606000000026
 21
469.45762649999995
  0
LINE
  8
_0-0_0
  6
CONTINUOUS
 62
    7
 10
59.689606000000026
 20
469.45762649999995
 11
59.680846999999972
 21
469.25077850000002
  0
LINE
  8
_0-0_0
  6
CONTINUOUS
 62
    7
 10
59.680846999999972
 20
469.25077850000002
 11
59.679229999999961
 21
469.04429649999997
  0
LINE
  8
_0-0_0
  6
CONTINUOUS
 62
    7
 10
59.679229999999961
 20
469.04429649999997
 11
59.684691999999984
 21
468.83772250000004
  0
LINE
  8
_0-0_0
  6
CONTINUOUS
 62
    7
 10
59.684691999999984
 20
468.83772250000004
 11
59.697295999999994
 21
468.63053850000006
  0
LINE
  8
_0-0_0
  6
CONTINUOUS
 62
    7
 10
59.697295999999994
 20
468.63053850000006
 11
59.717116999999973
 21
468.4222565
  0
LINE
  8
_0-0_0
  6
CONTINUOUS
 62
    7
 10
59.717116999999973
 20
468.4222565
 11
59.744262999999989
 21
468.21232550000002
  0
LINE
  8
_0-0_0
  6
CONTINUOUS
 62
    7
 10
59.744262999999989
 20
468.21232550000002
 11
59.778900000000021
 21
468.00025949999997
  0
LINE
  8
_0-0_0
  6
CONTINUOUS
 62
    7
 10
59.778900000000021
 20
468.00025949999997
 11
59.821258999999998
 21
467.78550749999999
  0
LINE
  8
_0-0_0
  6
CONTINUOUS
 62
    7
 10
59.821258999999998
 20
467.78550749999999
 11
59.871567000000027
 21
467.56748949999997
  0
LINE
  8
_0-0_0
  6
CONTINUOUS
 62
    7
 10
59.871567000000027
 20
467.56748949999997
 11
59.925811999999951
 21
467.36122150000006
  0
LINE
  8
_0-0_0
  6
CONTINUOUS
 62
    7
 10
59.925811999999951
 20
467.36122150000006
 11
59.987518000000023
 21
467.15110749999997
  0
LINE
  8
_0-0_0
  6
CONTINUOUS
 62
    7
 10
59.987518000000023
 20
467.15110749999997
 11
60.05703699999998
 21
466.93663049999998
  0
LINE
  8
_0-0_0
  6
CONTINUOUS
 62
    7
 10
60.05703699999998
 20
466.93663049999998
 11
60.134766000000013
 21
466.71723950000001
  0
LINE
  8
_0-0_0
  6
CONTINUOUS
 62
    7
 10
60.134766000000013
 20
466.71723950000001
 11
60.221130000000016
 21
466.4922335
  0
LINE
  8
_0-0_0
  6
CONTINUOUS
 62
    7
 10
69.928954999999974
 20
466.4922335
 11
60.221130000000016
 21
466.4922335
  0
ARC
  8
_0-0_0
  6
CONTINUOUS
 62
    7
 10
65.092681999999968
 20
472.34992950000003
 40
4.9136889999999998
 50
172.48898299999999
 51
187.51101699999998
  0
LINE
  8
_0-0_0
  6
CONTINUOUS
 62
    7
 10
69.928954999999974
 20
465.20762649999995
 11
60.221130000000016
 21
465.20762649999995
  0
LINE
  8
_0-0_0
  6
CONTINUOUS
 62
    7
 10
60.221130000000016
 20
462.59992950000003
 11
60.166656999999987
 21
462.66987549999999
  0
LINE
  8
_0-0_0
  6
CONTINUOUS
 62
    7
 10
60.166656999999987
 20
462.66987549999999
 11
60.115554999999972
 21
462.73869349999995
  0
LINE
  8
_0-0_0
  6
CONTINUOUS
 62
    7
 10
60.115554999999972
 20
462.73869349999995
 11
60.067916999999966
 21
462.80619750000005
  0
LINE
  8
_0-0_0
  6
CONTINUOUS
 62
    7
 10
60.067916999999966
 20
462.80619750000005
 11
60.02340700000002
 21
462.87275650000004
  0
LINE
  8
_0-0_0
  6
CONTINUOUS
 62
    7
 10
60.02340700000002
 20
462.87275650000004
 11
59.968688999999983
 21
462.96031149999999
  0
LINE
  8
_0-0_0
  6
CONTINUOUS
 62
    7
 10
59.968688999999983
 20
462.96031149999999
 11
59.91918899999996
 21
463.0464015
  0
LINE
  8
_0-0_0
  6
CONTINUOUS
 62
    7
 10
59.91918899999996
 20
463.0464015
 11
59.874725000000012
 21
463.13124049999999
  0
LINE
  8
_0-0_0
  6
CONTINUOUS
 62
    7
 10
59.874725000000012
 20
463.13124049999999
 11
59.827759000000015
 21
463.23155150000002
  0
LINE
  8
_0-0_0
  6
CONTINUOUS
 62
    7
 10
59.827759000000015
 20
463.23155150000002
 11
59.787536999999986
 21
463.3304895
  0
LINE
  8
_0-0_0
  6
CONTINUOUS
 62
    7
 10
59.787536999999986
 20
463.3304895
 11
59.753875999999991
 21
463.42823750000002
  0
LINE
  8
_0-0_0
  6
CONTINUOUS
 62
    7
 10
59.753875999999991
 20
463.42823750000002
 11
59.72659299999998
 21
463.52503950000005
  0
LINE
  8
_0-0_0
  6
CONTINUOUS
 62
    7
 10
59.72659299999998
 20
463.52503950000005
 11
59.705535999999995
 21
463.62107849999995
  0
LINE
  8
_0-0_0
  6
CONTINUOUS
 62
    7
 10
59.705535999999995
 20
463.62107849999995
 11
59.689606000000026
 21
463.72496049999995
  0
LINE
  8
_0-0_0
  6
CONTINUOUS
 62
    7
 10
59.689606000000026
 20
463.72496049999995
 11
59.680846999999972
 21
463.82838449999997
  0
LINE
  8
_0-0_0
  6
CONTINUOUS
 62
    7
 10
59.680846999999972
 20
463.82838449999997
 11
59.679229999999961
 21
463.93159449999996
  0
LINE
  8
_0-0_0
  6
CONTINUOUS
 62
    7
 10
59.679229999999961
 20
463.93159449999996
 11
59.684691999999984
 21
464.03489650000006
  0
LINE
  8
_0-0_0
  6
CONTINUOUS
 62
    7
 10
59.684691999999984
 20
464.03489650000006
 11
59.697295999999994
 21
464.13850349999996
  0
LINE
  8
_0-0_0
  6
CONTINUOUS
 62
    7
 10
59.697295999999994
 20
464.13850349999996
 11
59.717116999999973
 21
464.24262950000002
  0
LINE
  8
_0-0_0
  6
CONTINUOUS
 62
    7
 10
59.717116999999973
 20
464.24262950000002
 11
59.744262999999989
 21
464.34761049999997
  0
LINE
  8
_0-0_0
  6
CONTINUOUS
 62
    7
 10
59.744262999999989
 20
464.34761049999997
 11
59.778900000000021
 21
464.45362850000004
  0
LINE
  8
_0-0_0
  6
CONTINUOUS
 62
    7
 10
59.778900000000021
 20
464.45362850000004
 11
59.821258999999998
 21
464.56101950000004
  0
LINE
  8
_0-0_0
  6
CONTINUOUS
 62
    7
 10
59.821258999999998
 20
464.56101950000004
 11
59.871567000000027
 21
464.66999850000002
  0
LINE
  8
_0-0_0
  6
CONTINUOUS
 62
    7
 10
59.871567000000027
 20
464.66999850000002
 11
59.925811999999951
 21
464.77314750000005
  0
LINE
  8
_0-0_0
  6
CONTINUOUS
 62
    7
 10
59.925811999999951
 20
464.77314750000005
 11
59.987518000000023
 21
464.8782195
  0
LINE
  8
_0-0_0
  6
CONTINUOUS
 62
    7
 10
59.987518000000023
 20
464.8782195
 11
60.05703699999998
 21
464.98542750000001
  0
LINE
  8
_0-0_0
  6
CONTINUOUS
 62
    7
 10
60.05703699999998
 20
464.98542750000001
 11
60.134766000000013
 21
465.09513849999996
  0
LINE
  8
_0-0_0
  6
CONTINUOUS
 62
    7
 10
60.134766000000013
 20
465.09513849999996
 11
60.221130000000016
 21
465.20762649999995
  0
LINE
  8
_0-0_0
  6
CONTINUOUS
 62
    7
 10
69.928954999999974
 20
462.59992950000003
 11
60.221130000000016
 21
462.59992950000003
  0
ARC
  8
_0-0_0
  6
CONTINUOUS
 62
    7
 10
65.102844000000005
 20
465.84904449999999
 40
4.9238749999999998
 50
172.49424200000001
 51
181.535968
  0
ARC
  8
_0-0_0
  6
CONTINUOUS
 62
    7
 10
65.140868999999952
 20
465.85401950000005
 40
4.9620009999999999
 50
181.58130700000004
 51
187.48478900000003
  0
LINE
  8
_0-0_0
  6
CONTINUOUS
 62
    7
 10
60.178954999999974
 20
462.59992950000003
 11
60.221130000000016
 21
462.59992950000003
  0
LINE
  8
_0-0_0
  6
CONTINUOUS
 62
    7
 10
54.928954999999974
 20
462.0253755
 11
54.678954999999974
 21
462.04994150000005
  0
LINE
  8
_0-0_0
  6
CONTINUOUS
 62
    7
 10
54.928954999999974
 20
461.82142650000003
 11
54.678954999999974
 21
462.04994150000005
  0
LINE
  8
_0-0_0
  6
CONTINUOUS
 62
    7
 10
54.928954999999974
 20
462.21592650000002
 11
54.678954999999974
 21
462.26939349999998
  0
LINE
  8
_0-0_0
  6
CONTINUOUS
 62
    7
 10
54.928954999999974
 20
462.0253755
 11
54.678954999999974
 21
462.26939349999998
  0
LINE
  8
_0-0_0
  6
CONTINUOUS
 62
    7
 10
54.928954999999974
 20
462.39094550000004
 11
54.678954999999974
 21
462.47276250000004
  0
LINE
  8
_0-0_0
  6
CONTINUOUS
 62
    7
 10
54.928954999999974
 20
462.21592650000002
 11
54.678954999999974
 21
462.47276250000004
  0
LINE
  8
_0-0_0
  6
CONTINUOUS
 62
    7
 10
54.928954999999974
 20
462.54850750000003
 11
54.678954999999974
 21
462.65779150000003
  0
LINE
  8
_0-0_0
  6
CONTINUOUS
 62
    7
 10
54.928954999999974
 20
462.39094550000004
 11
54.678954999999974
 21
462.65779150000003
  0
LINE
  8
_0-0_0
  6
CONTINUOUS
 62
    7
 10
54.928954999999974
 20
462.68696550000004
 11
54.678954999999974
 21
462.82249449999995
  0
LINE
  8
_0-0_0
  6
CONTINUOUS
 62
    7
 10
54.928954999999974
 20
462.54850750000003
 11
54.678954999999974
 21
462.82249449999995
  0
LINE
  8
_0-0_0
  6
CONTINUOUS
 62
    7
 10
54.928954999999974
 20
462.80470249999996
 11
54.678954999999974
 21
462.96501150000006
  0
LINE
  8
_0-0_0
  6
CONTINUOUS
 62
    7
 10
54.928954999999974
 20
462.68696550000004
 11
54.678954999999974
 21
462.96501150000006
  0
LINE
  8
_0-0_0
  6
CONTINUOUS
 62
    7
 10
54.928954999999974
 20
462.90049750000003
 11
54.678954999999974
 21
463.08381650000001
  0
LINE
  8
_0-0_0
  6
CONTINUOUS
 62
    7
 10
54.928954999999974
 20
462.80470249999996
 11
54.678954999999974
 21
463.08381650000001
  0
LINE
  8
_0-0_0
  6
CONTINUOUS
 62
    7
 10
54.928954999999974
 20
462.97328149999998
 11
54.678954999999974
 21
463.17759650000005
  0
LINE
  8
_0-0_0
  6
CONTINUOUS
 62
    7
 10
54.928954999999974
 20
462.90049750000003
 11
54.678954999999974
 21
463.17759650000005
  0
LINE
  8
_0-0_0
  6
CONTINUOUS
 62
    7
 10
54.928954999999974
 20
463.02223149999998
 11
54.678954999999974
 21
463.24531549999995
  0
LINE
  8
_0-0_0
  6
CONTINUOUS
 62
    7
 10
54.928954999999974
 20
462.97328149999998
 11
54.678954999999974
 21
463.24531549999995
  0
LINE
  8
_0-0_0
  6
CONTINUOUS
 62
    7
 10
54.928954999999974
 20
463.04685949999998
 11
54.678954999999974
 21
463.28623949999997
  0
LINE
  8
_0-0_0
  6
CONTINUOUS
 62
    7
 10
54.928954999999974
 20
463.02223149999998
 11
54.678954999999974
 21
463.28623949999997
  0
LINE
  8
_0-0_0
  6
CONTINUOUS
 62
    7
 10
54.928954999999974
 20
463.04685949999998
 11
54.678954999999974
 21
463.29994150000005
  0
LINE
  8
_0-0_0
  6
CONTINUOUS
 62
    7
 10
54.928954999999974
 20
458.55302449999999
 11
54.678954999999974
 21
458.29994150000005
  0
LINE
  8
_0-0_0
  6
CONTINUOUS
 62
    7
 10
54.928954999999974
 20
458.5776515
 11
54.678954999999974
 21
458.31364450000001
  0
LINE
  8
_0-0_0
  6
CONTINUOUS
 62
    7
 10
54.928954999999974
 20
458.55302449999999
 11
54.678954999999974
 21
458.31364450000001
  0
LINE
  8
_0-0_0
  6
CONTINUOUS
 62
    7
 10
54.928954999999974
 20
458.62660249999999
 11
54.678954999999974
 21
458.35456850000003
  0
LINE
  8
_0-0_0
  6
CONTINUOUS
 62
    7
 10
54.928954999999974
 20
458.5776515
 11
54.678954999999974
 21
458.35456850000003
  0
LINE
  8
_0-0_0
  6
CONTINUOUS
 62
    7
 10
54.928954999999974
 20
458.69938650000006
 11
54.678954999999974
 21
458.42228650000004
  0
LINE
  8
_0-0_0
  6
CONTINUOUS
 62
    7
 10
54.928954999999974
 20
458.62660249999999
 11
54.678954999999974
 21
458.42228650000004
  0
LINE
  8
_0-0_0
  6
CONTINUOUS
 62
    7
 10
54.928954999999974
 20
458.79518150000001
 11
54.678954999999974
 21
458.51606749999996
  0
LINE
  8
_0-0_0
  6
CONTINUOUS
 62
    7
 10
54.928954999999974
 20
458.69938650000006
 11
54.678954999999974
 21
458.51606749999996
  0
LINE
  8
_0-0_0
  6
CONTINUOUS
 62
    7
 10
54.928954999999974
 20
458.79518150000001
 11
54.798995999999988
 21
458.71131849999995
  0
LINE
  8
_0-0_0
  6
CONTINUOUS
 62
    7
 10
54.928954999999974
 20
458.91291750000005
 11
54.678954999999974
 21
458.63487250000003
  0
LINE
  8
_0-0_0
  6
CONTINUOUS
 62
    7
 10
54.798995999999988
 20
458.71131849999995
 11
54.678954999999974
 21
458.63487250000003
  0
LINE
  8
_0-0_0
  6
CONTINUOUS
 62
    7
 10
54.928954999999974
 20
459.05137649999995
 11
54.678954999999974
 21
458.77738950000003
  0
LINE
  8
_0-0_0
  6
CONTINUOUS
 62
    7
 10
54.928954999999974
 20
458.91291750000005
 11
54.678954999999974
 21
458.77738950000003
  0
LINE
  8
_0-0_0
  6
CONTINUOUS
 62
    7
 10
54.928954999999974
 20
459.20896849999997
 11
54.678954999999974
 21
458.94209250000006
  0
LINE
  8
_0-0_0
  6
CONTINUOUS
 62
    7
 10
54.928954999999974
 20
459.05137649999995
 11
54.678954999999974
 21
458.94209250000006
  0
LINE
  8
_0-0_0
  6
CONTINUOUS
 62
    7
 10
54.928954999999974
 20
459.38398749999999
 11
54.678954999999974
 21
459.12712050000005
  0
LINE
  8
_0-0_0
  6
CONTINUOUS
 62
    7
 10
54.928954999999974
 20
459.20896849999997
 11
54.678954999999974
 21
459.12712050000005
  0
LINE
  8
_0-0_0
  6
CONTINUOUS
 62
    7
 10
54.928954999999974
 20
459.57450849999998
 11
54.678954999999974
 21
459.3304895
  0
LINE
  8
_0-0_0
  6
CONTINUOUS
 62
    7
 10
54.928954999999974
 20
459.38398749999999
 11
54.678954999999974
 21
459.3304895
  0
LINE
  8
_0-0_0
  6
CONTINUOUS
 62
    7
 10
54.928954999999974
 20
459.77845750000006
 11
54.678954999999974
 21
459.54994150000005
  0
LINE
  8
_0-0_0
  6
CONTINUOUS
 62
    7
 10
54.928954999999974
 20
459.57450849999998
 11
54.678954999999974
 21
459.54994150000005
  0
LINE
  8
_0-0_0
  6
CONTINUOUS
 62
    7
 10
54.928954999999974
 20
459.99360650000006
 11
54.678954999999974
 21
459.78309650000006
  0
LINE
  8
_0-0_0
  6
CONTINUOUS
 62
    7
 10
54.928954999999974
 20
459.77845750000006
 11
54.678954999999974
 21
459.78309650000006
  0
LINE
  8
_0-0_0
  6
CONTINUOUS
 62
    7
 10
54.928954999999974
 20
460.21760549999999
 11
54.678954999999974
 21
460.02738950000003
  0
LINE
  8
_0-0_0
  6
CONTINUOUS
 62
    7
 10
54.928954999999974
 20
459.99360650000006
 11
54.678954999999974
 21
460.02738950000003
  0
LINE
  8
_0-0_0
  6
CONTINUOUS
 62
    7
 10
54.928954999999974
 20
460.44795250000004
 11
54.678954999999974
 21
460.28016649999995
  0
LINE
  8
_0-0_0
  6
CONTINUOUS
 62
    7
 10
54.928954999999974
 20
460.21760549999999
 11
54.678954999999974
 21
460.28016649999995
  0
LINE
  8
_0-0_0
  6
CONTINUOUS
 62
    7
 10
54.928954999999974
 20
460.68217449999997
 11
54.678954999999974
 21
460.53861949999998
  0
LINE
  8
_0-0_0
  6
CONTINUOUS
 62
    7
 10
54.928954999999974
 20
460.44795250000004
 11
54.678954999999974
 21
460.53861949999998
  0
LINE
  8
_0-0_0
  6
CONTINUOUS
 62
    7
 10
54.928954999999974
 20
460.9177095
 11
54.678954999999974
 21
460.79994150000005
  0
LINE
  8
_0-0_0
  6
CONTINUOUS
 62
    7
 10
54.928954999999974
 20
460.68217449999997
 11
54.678954999999974
 21
460.79994150000005
  0
LINE
  8
_0-0_0
  6
CONTINUOUS
 62
    7
 10
54.928954999999974
 20
461.15193150000005
 11
54.678954999999974
 21
461.0612635
  0
LINE
  8
_0-0_0
  6
CONTINUOUS
 62
    7
 10
54.928954999999974
 20
460.9177095
 11
54.678954999999974
 21
461.0612635
  0
LINE
  8
_0-0_0
  6
CONTINUOUS
 62
    7
 10
54.928954999999974
 20
461.38227849999998
 11
54.678954999999974
 21
461.31971750000002
  0
LINE
  8
_0-0_0
  6
CONTINUOUS
 62
    7
 10
54.928954999999974
 20
461.15193150000005
 11
54.678954999999974
 21
461.31971750000002
  0
LINE
  8
_0-0_0
  6
CONTINUOUS
 62
    7
 10
54.928954999999974
 20
461.60627750000003
 11
54.678954999999974
 21
461.57249449999995
  0
LINE
  8
_0-0_0
  6
CONTINUOUS
 62
    7
 10
54.928954999999974
 20
461.38227849999998
 11
54.678954999999974
 21
461.57249449999995
  0
LINE
  8
_0-0_0
  6
CONTINUOUS
 62
    7
 10
54.928954999999974
 20
461.82142650000003
 11
54.678954999999974
 21
461.81678750000003
  0
LINE
  8
_0-0_0
  6
CONTINUOUS
 62
    7
 10
54.928954999999974
 20
461.60627750000003
 11
54.678954999999974
 21
461.81678750000003
  0
LINE
  8
_0-0_0
  6
CONTINUOUS
 62
    7
 10
45.178954999999974
 20
478.6253815
 11
45.428954999999974
 21
478.64994750000005
  0
LINE
  8
_0-0_0
  6
CONTINUOUS
 62
    7
 10
45.428954999999974
 20
478.64994750000005
 11
54.678954999999974
 21
478.64994750000005
  0
LINE
  8
_0-0_0
  6
CONTINUOUS
 62
    7
 10
45.178954999999974
 20
478.42143250000004
 11
45.428954999999974
 21
478.64994750000005
  0
LINE
  8
_0-0_0
  6
CONTINUOUS
 62
    7
 10
45.178954999999974
 20
478.42143250000004
 11
54.928954999999974
 21
478.42143250000004
  0
LINE
  8
_0-0_0
  6
CONTINUOUS
 62
    7
 10
45.178954999999974
 20
478.81590249999999
 11
45.428954999999974
 21
478.86939949999999
  0
LINE
  8
_0-0_0
  6
CONTINUOUS
 62
    7
 10
45.428954999999974
 20
478.86939949999999
 11
54.678954999999974
 21
478.86939949999999
  0
LINE
  8
_0-0_0
  6
CONTINUOUS
 62
    7
 10
45.178954999999974
 20
478.6253815
 11
45.428954999999974
 21
478.86939949999999
  0
LINE
  8
_0-0_0
  6
CONTINUOUS
 62
    7
 10
45.178954999999974
 20
478.99092050000002
 11
45.428954999999974
 21
479.07276950000005
  0
LINE
  8
_0-0_0
  6
CONTINUOUS
 62
    7
 10
45.428954999999974
 20
479.07276950000005
 11
54.678954999999974
 21
479.07276950000005
  0
LINE
  8
_0-0_0
  6
CONTINUOUS
 62
    7
 10
45.178954999999974
 20
478.81590249999999
 11
45.428954999999974
 21
479.07276950000005
  0
LINE
  8
_0-0_0
  6
CONTINUOUS
 62
    7
 10
45.178954999999974
 20
479.14851350000004
 11
45.428954999999974
 21
479.25779750000004
  0
LINE
  8
_0-0_0
  6
CONTINUOUS
 62
    7
 10
45.428954999999974
 20
479.25779750000004
 11
54.678954999999974
 21
479.25779750000004
  0
LINE
  8
_0-0_0
  6
CONTINUOUS
 62
    7
 10
45.178954999999974
 20
478.99092050000002
 11
45.428954999999974
 21
479.25779750000004
  0
LINE
  8
_0-0_0
  6
CONTINUOUS
 62
    7
 10
45.178954999999974
 20
479.28694150000001
 11
45.428954999999974
 21
479.42250049999996
  0
LINE
  8
_0-0_0
  6
CONTINUOUS
 62
    7
 10
45.428954999999974
 20
479.42250049999996
 11
54.678954999999974
 21
479.42250049999996
  0
LINE
  8
_0-0_0
  6
CONTINUOUS
 62
    7
 10
45.178954999999974
 20
479.14851350000004
 11
45.428954999999974
 21
479.42250049999996
  0
LINE
  8
_0-0_0
  6
CONTINUOUS
 62
    7
 10
45.178954999999974
 20
479.40470849999997
 11
45.428954999999974
 21
479.56501749999995
  0
LINE
  8
_0-0_0
  6
CONTINUOUS
 62
    7
 10
45.428954999999974
 20
479.56501749999995
 11
54.678954999999974
 21
479.56501749999995
  0
LINE
  8
_0-0_0
  6
CONTINUOUS
 62
    7
 10
45.178954999999974
 20
479.28694150000001
 11
45.428954999999974
 21
479.56501749999995
  0
LINE
  8
_0-0_0
  6
CONTINUOUS
 62
    7
 10
45.178954999999974
 20
479.50050350000004
 11
45.428954999999974
 21
479.68379149999998
  0
LINE
  8
_0-0_0
  6
CONTINUOUS
 62
    7
 10
45.428954999999974
 20
479.68379149999998
 11
54.678954999999974
 21
479.68379149999998
  0
LINE
  8
_0-0_0
  6
CONTINUOUS
 62
    7
 10
45.178954999999974
 20
479.40470849999997
 11
45.428954999999974
 21
479.68379149999998
  0
LINE
  8
_0-0_0
  6
CONTINUOUS
 62
    7
 10
45.178954999999974
 20
479.57328749999999
 11
45.428954999999974
 21
479.77757250000002
  0
LINE
  8
_0-0_0
  6
CONTINUOUS
 62
    7
 10
45.428954999999974
 20
479.77757250000002
 11
54.678954999999974
 21
479.77757250000002
  0
LINE
  8
_0-0_0
  6
CONTINUOUS
 62
    7
 10
45.178954999999974
 20
479.50050350000004
 11
45.428954999999974
 21
479.77757250000002
  0
LINE
  8
_0-0_0
  6
CONTINUOUS
 62
    7
 10
45.178954999999974
 20
479.62223849999998
 11
45.428954999999974
 21
479.84532149999995
  0
LINE
  8
_0-0_0
  6
CONTINUOUS
 62
    7
 10
45.428954999999974
 20
479.84532149999995
 11
54.678954999999974
 21
479.84532149999995
  0
LINE
  8
_0-0_0
  6
CONTINUOUS
 62
    7
 10
45.178954999999974
 20
479.57328749999999
 11
45.428954999999974
 21
479.84532149999995
  0
LINE
  8
_0-0_0
  6
CONTINUOUS
 62
    7
 10
45.178954999999974
 20
479.64686549999999
 11
45.428954999999974
 21
479.88624549999997
  0
LINE
  8
_0-0_0
  6
CONTINUOUS
 62
    7
 10
45.428954999999974
 20
479.88624549999997
 11
54.678954999999974
 21
479.88624549999997
  0
LINE
  8
_0-0_0
  6
CONTINUOUS
 62
    7
 10
45.178954999999974
 20
479.62223849999998
 11
45.428954999999974
 21
479.88624549999997
  0
LINE
  8
_0-0_0
  6
CONTINUOUS
 62
    7
 10
45.428954999999974
 20
479.89994750000005
 11
54.678954999999974
 21
479.89994750000005
  0
LINE
  8
_0-0_0
  6
CONTINUOUS
 62
    7
 10
45.178954999999974
 20
479.64686549999999
 11
45.428954999999974
 21
479.89994750000005
  0
LINE
  8
_0-0_0
  6
CONTINUOUS
 62
    7
 10
45.178954999999974
 20
475.1530305
 11
45.428954999999974
 21
474.89994750000005
  0
LINE
  8
_0-0_0
  6
CONTINUOUS
 62
    7
 10
45.428954999999974
 20
474.89994750000005
 11
54.678954999999974
 21
474.89994750000005
  0
LINE
  8
_0-0_0
  6
CONTINUOUS
 62
    7
 10
45.178954999999974
 20
475.17765750000001
 11
45.428954999999974
 21
474.91365050000002
  0
LINE
  8
_0-0_0
  6
CONTINUOUS
 62
    7
 10
45.428954999999974
 20
474.91365050000002
 11
54.678954999999974
 21
474.91365050000002
  0
LINE
  8
_0-0_0
  6
CONTINUOUS
 62
    7
 10
45.178954999999974
 20
475.1530305
 11
45.428954999999974
 21
474.91365050000002
  0
LINE
  8
_0-0_0
  6
CONTINUOUS
 62
    7
 10
45.178954999999974
 20
475.2266085
 11
45.428954999999974
 21
474.95457450000004
  0
LINE
  8
_0-0_0
  6
CONTINUOUS
 62
    7
 10
45.428954999999974
 20
474.95457450000004
 11
54.678954999999974
 21
474.95457450000004
  0
LINE
  8
_0-0_0
  6
CONTINUOUS
 62
    7
 10
45.178954999999974
 20
475.17765750000001
 11
45.428954999999974
 21
474.95457450000004
  0
LINE
  8
_0-0_0
  6
CONTINUOUS
 62
    7
 10
45.178954999999974
 20
475.29939249999995
 11
45.428954999999974
 21
475.02229250000005
  0
LINE
  8
_0-0_0
  6
CONTINUOUS
 62
    7
 10
45.428954999999974
 20
475.02229250000005
 11
54.678954999999974
 21
475.02229250000005
  0
LINE
  8
_0-0_0
  6
CONTINUOUS
 62
    7
 10
45.178954999999974
 20
475.2266085
 11
45.428954999999974
 21
475.02229250000005
  0
LINE
  8
_0-0_0
  6
CONTINUOUS
 62
    7
 10
45.178954999999974
 20
475.39518750000002
 11
45.428954999999974
 21
475.11607349999997
  0
LINE
  8
_0-0_0
  6
CONTINUOUS
 62
    7
 10
45.428954999999974
 20
475.11607349999997
 11
54.678954999999974
 21
475.11607349999997
  0
LINE
  8
_0-0_0
  6
CONTINUOUS
 62
    7
 10
45.178954999999974
 20
475.29939249999995
 11
45.428954999999974
 21
475.11607349999997
  0
LINE
  8
_0-0_0
  6
CONTINUOUS
 62
    7
 10
45.428954999999974
 20
475.23487850000004
 11
54.678954999999974
 21
475.23487850000004
  0
LINE
  8
_0-0_0
  6
CONTINUOUS
 62
    7
 10
45.308928999999978
 20
475.31132449999996
 11
45.428954999999974
 21
475.23487850000004
  0
LINE
  8
_0-0_0
  6
CONTINUOUS
 62
    7
 10
45.178954999999974
 20
475.39518750000002
 11
45.308928999999978
 21
475.31132449999996
  0
LINE
  8
_0-0_0
  6
CONTINUOUS
 62
    7
 10
45.178954999999974
 20
475.51292450000005
 11
45.428954999999974
 21
475.23487850000004
  0
LINE
  8
_0-0_0
  6
CONTINUOUS
 62
    7
 10
45.178954999999974
 20
475.65135150000003
 11
45.428954999999974
 21
475.37739550000003
  0
LINE
  8
_0-0_0
  6
CONTINUOUS
 62
    7
 10
45.428954999999974
 20
475.37739550000003
 11
54.678954999999974
 21
475.37739550000003
  0
LINE
  8
_0-0_0
  6
CONTINUOUS
 62
    7
 10
45.178954999999974
 20
475.51292450000005
 11
45.428954999999974
 21
475.37739550000003
  0
LINE
  8
_0-0_0
  6
CONTINUOUS
 62
    7
 10
45.178954999999974
 20
475.80894450000005
 11
45.428954999999974
 21
475.54206850000003
  0
LINE
  8
_0-0_0
  6
CONTINUOUS
 62
    7
 10
45.428954999999974
 20
475.54206850000003
 11
54.678954999999974
 21
475.54206850000003
  0
LINE
  8
_0-0_0
  6
CONTINUOUS
 62
    7
 10
45.178954999999974
 20
475.65135150000003
 11
45.428954999999974
 21
475.54206850000003
  0
LINE
  8
_0-0_0
  6
CONTINUOUS
 62
    7
 10
45.178954999999974
 20
475.98396249999996
 11
45.428954999999974
 21
475.72712650000005
  0
LINE
  8
_0-0_0
  6
CONTINUOUS
 62
    7
 10
45.428954999999974
 20
475.72712650000005
 11
54.678954999999974
 21
475.72712650000005
  0
LINE
  8
_0-0_0
  6
CONTINUOUS
 62
    7
 10
45.178954999999974
 20
475.80894450000005
 11
45.428954999999974
 21
475.72712650000005
  0
LINE
  8
_0-0_0
  6
CONTINUOUS
 62
    7
 10
45.178954999999974
 20
476.17451449999999
 11
45.428954999999974
 21
475.9304965
  0
LINE
  8
_0-0_0
  6
CONTINUOUS
 62
    7
 10
45.428954999999974
 20
475.9304965
 11
54.678954999999974
 21
475.9304965
  0
LINE
  8
_0-0_0
  6
CONTINUOUS
 62
    7
 10
45.178954999999974
 20
475.98396249999996
 11
45.428954999999974
 21
475.9304965
  0
LINE
  8
_0-0_0
  6
CONTINUOUS
 62
    7
 10
45.178954999999974
 20
476.37846349999995
 11
45.428954999999974
 21
476.14994750000005
  0
LINE
  8
_0-0_0
  6
CONTINUOUS
 62
    7
 10
45.428954999999974
 20
476.14994750000005
 11
54.678954999999974
 21
476.14994750000005
  0
LINE
  8
_0-0_0
  6
CONTINUOUS
 62
    7
 10
45.178954999999974
 20
476.37846349999995
 11
54.928954999999974
 21
476.37846349999995
  0
LINE
  8
_0-0_0
  6
CONTINUOUS
 62
    7
 10
45.178954999999974
 20
476.17451449999999
 11
45.428954999999974
 21
476.14994750000005
  0
LINE
  8
_0-0_0
  6
CONTINUOUS
 62
    7
 10
45.178954999999974
 20
476.59361249999995
 11
45.428954999999974
 21
476.38310249999995
  0
LINE
  8
_0-0_0
  6
CONTINUOUS
 62
    7
 10
45.428954999999974
 20
476.38310249999995
 11
54.678954999999974
 21
476.38310249999995
  0
LINE
  8
_0-0_0
  6
CONTINUOUS
 62
    7
 10
45.178954999999974
 20
476.59361249999995
 11
54.928954999999974
 21
476.59361249999995
  0
LINE
  8
_0-0_0
  6
CONTINUOUS
 62
    7
 10
45.178954999999974
 20
476.37846349999995
 11
45.428954999999974
 21
476.38310249999995
  0
LINE
  8
_0-0_0
  6
CONTINUOUS
 62
    7
 10
45.178954999999974
 20
476.8176115
 11
45.428954999999974
 21
476.62739550000003
  0
LINE
  8
_0-0_0
  6
CONTINUOUS
 62
    7
 10
45.428954999999974
 20
476.62739550000003
 11
54.678954999999974
 21
476.62739550000003
  0
LINE
  8
_0-0_0
  6
CONTINUOUS
 62
    7
 10
45.178954999999974
 20
476.8176115
 11
54.928954999999974
 21
476.8176115
  0
LINE
  8
_0-0_0
  6
CONTINUOUS
 62
    7
 10
45.178954999999974
 20
476.59361249999995
 11
45.428954999999974
 21
476.62739550000003
  0
LINE
  8
_0-0_0
  6
CONTINUOUS
 62
    7
 10
45.178954999999974
 20
477.04795850000005
 11
45.428954999999974
 21
476.88017249999996
  0
LINE
  8
_0-0_0
  6
CONTINUOUS
 62
    7
 10
45.428954999999974
 20
476.88017249999996
 11
54.678954999999974
 21
476.88017249999996
  0
LINE
  8
_0-0_0
  6
CONTINUOUS
 62
    7
 10
45.178954999999974
 20
477.04795850000005
 11
54.928954999999974
 21
477.04795850000005
  0
LINE
  8
_0-0_0
  6
CONTINUOUS
 62
    7
 10
45.178954999999974
 20
476.8176115
 11
45.428954999999974
 21
476.88017249999996
  0
LINE
  8
_0-0_0
  6
CONTINUOUS
 62
    7
 10
45.178954999999974
 20
477.28218049999998
 11
45.428954999999974
 21
477.13862549999999
  0
LINE
  8
_0-0_0
  6
CONTINUOUS
 62
    7
 10
45.428954999999974
 20
477.13862549999999
 11
54.678954999999974
 21
477.13862549999999
  0
LINE
  8
_0-0_0
  6
CONTINUOUS
 62
    7
 10
45.178954999999974
 20
477.28218049999998
 11
54.928954999999974
 21
477.28218049999998
  0
LINE
  8
_0-0_0
  6
CONTINUOUS
 62
    7
 10
45.178954999999974
 20
477.04795850000005
 11
45.428954999999974
 21
477.13862549999999
  0
LINE
  8
_0-0_0
  6
CONTINUOUS
 62
    7
 10
45.178954999999974
 20
477.51771550000001
 11
45.428954999999974
 21
477.39994750000005
  0
LINE
  8
_0-0_0
  6
CONTINUOUS
 62
    7
 10
45.428954999999974
 20
477.39994750000005
 11
54.678954999999974
 21
477.39994750000005
  0
LINE
  8
_0-0_0
  6
CONTINUOUS
 62
    7
 10
45.178954999999974
 20
477.51771550000001
 11
54.928954999999974
 21
477.51771550000001
  0
LINE
  8
_0-0_0
  6
CONTINUOUS
 62
    7
 10
45.178954999999974
 20
477.28218049999998
 11
45.428954999999974
 21
477.39994750000005
  0
LINE
  8
_0-0_0
  6
CONTINUOUS
 62
    7
 10
45.178954999999974
 20
477.75190750000002
 11
45.428954999999974
 21
477.6612705
  0
LINE
  8
_0-0_0
  6
CONTINUOUS
 62
    7
 10
45.428954999999974
 20
477.6612705
 11
54.678954999999974
 21
477.6612705
  0
LINE
  8
_0-0_0
  6
CONTINUOUS
 62
    7
 10
45.178954999999974
 20
477.75190750000002
 11
54.928954999999974
 21
477.75190750000002
  0
LINE
  8
_0-0_0
  6
CONTINUOUS
 62
    7
 10
45.178954999999974
 20
477.51771550000001
 11
45.428954999999974
 21
477.6612705
  0
LINE
  8
_0-0_0
  6
CONTINUOUS
 62
    7
 10
45.178954999999974
 20
477.98228449999999
 11
45.428954999999974
 21
477.91972350000003
  0
LINE
  8
_0-0_0
  6
CONTINUOUS
 62
    7
 10
45.428954999999974
 20
477.91972350000003
 11
54.678954999999974
 21
477.91972350000003
  0
LINE
  8
_0-0_0
  6
CONTINUOUS
 62
    7
 10
45.178954999999974
 20
477.98228449999999
 11
54.928954999999974
 21
477.98228449999999
  0
LINE
  8
_0-0_0
  6
CONTINUOUS
 62
    7
 10
45.178954999999974
 20
477.75190750000002
 11
45.428954999999974
 21
477.91972350000003
  0
LINE
  8
_0-0_0
  6
CONTINUOUS
 62
    7
 10
45.178954999999974
 20
478.20628350000004
 11
45.428954999999974
 21
478.17250049999996
  0
LINE
  8
_0-0_0
  6
CONTINUOUS
 62
    7
 10
45.428954999999974
 20
478.17250049999996
 11
54.678954999999974
 21
478.17250049999996
  0
LINE
  8
_0-0_0
  6
CONTINUOUS
 62
    7
 10
45.178954999999974
 20
478.20628350000004
 11
54.928954999999974
 21
478.20628350000004
  0
LINE
  8
_0-0_0
  6
CONTINUOUS
 62
    7
 10
45.178954999999974
 20
477.98228449999999
 11
45.428954999999974
 21
478.17250049999996
  0
LINE
  8
_0-0_0
  6
CONTINUOUS
 62
    7
 10
45.178954999999974
 20
478.42143250000004
 11
45.428954999999974
 21
478.41679350000004
  0
LINE
  8
_0-0_0
  6
CONTINUOUS
 62
    7
 10
45.428954999999974
 20
478.41679350000004
 11
54.678954999999974
 21
478.41679350000004
  0
LINE
  8
_0-0_0
  6
CONTINUOUS
 62
    7
 10
45.178954999999974
 20
478.20628350000004
 11
45.428954999999974
 21
478.41679350000004
  0
LINE
  8
_0-0_0
  6
CONTINUOUS
 62
    7
 10
58.928954999999974
 20
474.34992950000003
 11
58.928954999999974
 21
466.36839250000003
  0
LINE
  8
_0-0_0
  6
CONTINUOUS
 62
    7
 10
58.928954999999974
 20
466.36839250000003
 11
58.928954999999974
 21
463.84992950000003
  0
LINE
  8
_0-0_0
  6
CONTINUOUS
 62
    7
 10
45.178954999999974
 20
462.0253755
 11
45.428954999999974
 21
462.04994150000005
  0
LINE
  8
_0-0_0
  6
CONTINUOUS
 62
    7
 10
45.428954999999974
 20
462.04994150000005
 11
54.678954999999974
 21
462.04994150000005
  0
LINE
  8
_0-0_0
  6
CONTINUOUS
 62
    7
 10
45.178954999999974
 20
461.82142650000003
 11
45.428954999999974
 21
462.04994150000005
  0
LINE
  8
_0-0_0
  6
CONTINUOUS
 62
    7
 10
45.178954999999974
 20
461.82142650000003
 11
54.928954999999974
 21
461.82142650000003
  0
LINE
  8
_0-0_0
  6
CONTINUOUS
 62
    7
 10
45.178954999999974
 20
462.21592650000002
 11
45.428954999999974
 21
462.26939349999998
  0
LINE
  8
_0-0_0
  6
CONTINUOUS
 62
    7
 10
45.428954999999974
 20
462.26939349999998
 11
54.678954999999974
 21
462.26939349999998
  0
LINE
  8
_0-0_0
  6
CONTINUOUS
 62
    7
 10
45.178954999999974
 20
462.0253755
 11
45.428954999999974
 21
462.26939349999998
  0
LINE
  8
_0-0_0
  6
CONTINUOUS
 62
    7
 10
45.178954999999974
 20
462.39094550000004
 11
45.428954999999974
 21
462.47276250000004
  0
LINE
  8
_0-0_0
  6
CONTINUOUS
 62
    7
 10
45.428954999999974
 20
462.47276250000004
 11
54.678954999999974
 21
462.47276250000004
  0
LINE
  8
_0-0_0
  6
CONTINUOUS
 62
    7
 10
45.178954999999974
 20
462.21592650000002
 11
45.428954999999974
 21
462.47276250000004
  0
LINE
  8
_0-0_0
  6
CONTINUOUS
 62
    7
 10
45.178954999999974
 20
462.54850750000003
 11
45.428954999999974
 21
462.65779150000003
  0
LINE
  8
_0-0_0
  6
CONTINUOUS
 62
    7
 10
45.428954999999974
 20
462.65779150000003
 11
54.678954999999974
 21
462.65779150000003
  0
LINE
  8
_0-0_0
  6
CONTINUOUS
 62
    7
 10
45.178954999999974
 20
462.39094550000004
 11
45.428954999999974
 21
462.65779150000003
  0
LINE
  8
_0-0_0
  6
CONTINUOUS
 62
    7
 10
45.178954999999974
 20
462.68696550000004
 11
45.428954999999974
 21
462.82249449999995
  0
LINE
  8
_0-0_0
  6
CONTINUOUS
 62
    7
 10
45.428954999999974
 20
462.82249449999995
 11
54.678954999999974
 21
462.82249449999995
  0
LINE
  8
_0-0_0
  6
CONTINUOUS
 62
    7
 10
45.178954999999974
 20
462.54850750000003
 11
45.428954999999974
 21
462.82249449999995
  0
LINE
  8
_0-0_0
  6
CONTINUOUS
 62
    7
 10
45.178954999999974
 20
462.80470249999996
 11
45.428954999999974
 21
462.96501150000006
  0
LINE
  8
_0-0_0
  6
CONTINUOUS
 62
    7
 10
45.428954999999974
 20
462.96501150000006
 11
54.678954999999974
 21
462.96501150000006
  0
LINE
  8
_0-0_0
  6
CONTINUOUS
 62
    7
 10
45.178954999999974
 20
462.68696550000004
 11
45.428954999999974
 21
462.96501150000006
  0
LINE
  8
_0-0_0
  6
CONTINUOUS
 62
    7
 10
45.178954999999974
 20
462.90049750000003
 11
45.428954999999974
 21
463.08381650000001
  0
LINE
  8
_0-0_0
  6
CONTINUOUS
 62
    7
 10
45.428954999999974
 20
463.08381650000001
 11
54.678954999999974
 21
463.08381650000001
  0
LINE
  8
_0-0_0
  6
CONTINUOUS
 62
    7
 10
45.178954999999974
 20
462.80470249999996
 11
45.428954999999974
 21
463.08381650000001
  0
LINE
  8
_0-0_0
  6
CONTINUOUS
 62
    7
 10
45.178954999999974
 20
462.97328149999998
 11
45.428954999999974
 21
463.17759650000005
  0
LINE
  8
_0-0_0
  6
CONTINUOUS
 62
    7
 10
45.428954999999974
 20
463.17759650000005
 11
54.678954999999974
 21
463.17759650000005
  0
LINE
  8
_0-0_0
  6
CONTINUOUS
 62
    7
 10
45.178954999999974
 20
462.90049750000003
 11
45.428954999999974
 21
463.17759650000005
  0
LINE
  8
_0-0_0
  6
CONTINUOUS
 62
    7
 10
45.178954999999974
 20
463.02223149999998
 11
45.428954999999974
 21
463.24531549999995
  0
LINE
  8
_0-0_0
  6
CONTINUOUS
 62
    7
 10
45.428954999999974
 20
463.24531549999995
 11
54.678954999999974
 21
463.24531549999995
  0
LINE
  8
_0-0_0
  6
CONTINUOUS
 62
    7
 10
45.178954999999974
 20
462.97328149999998
 11
45.428954999999974
 21
463.24531549999995
  0
LINE
  8
_0-0_0
  6
CONTINUOUS
 62
    7
 10
45.178954999999974
 20
463.04685949999998
 11
45.428954999999974
 21
463.28623949999997
  0
LINE
  8
_0-0_0
  6
CONTINUOUS
 62
    7
 10
45.428954999999974
 20
463.28623949999997
 11
54.678954999999974
 21
463.28623949999997
  0
LINE
  8
_0-0_0
  6
CONTINUOUS
 62
    7
 10
45.178954999999974
 20
463.02223149999998
 11
45.428954999999974
 21
463.28623949999997
  0
LINE
  8
_0-0_0
  6
CONTINUOUS
 62
    7
 10
45.428954999999974
 20
463.29994150000005
 11
54.678954999999974
 21
463.29994150000005
  0
LINE
  8
_0-0_0
  6
CONTINUOUS
 62
    7
 10
45.178954999999974
 20
463.04685949999998
 11
45.428954999999974
 21
463.29994150000005
  0
LINE
  8
_0-0_0
  6
CONTINUOUS
 62
    7
 10
45.178954999999974
 20
458.55302449999999
 11
45.428954999999974
 21
458.29994150000005
  0
LINE
  8
_0-0_0
  6
CONTINUOUS
 62
    7
 10
45.428954999999974
 20
458.29994150000005
 11
54.678954999999974
 21
458.29994150000005
  0
LINE
  8
_0-0_0
  6
CONTINUOUS
 62
    7
 10
45.178954999999974
 20
458.5776515
 11
45.428954999999974
 21
458.31364450000001
  0
LINE
  8
_0-0_0
  6
CONTINUOUS
 62
    7
 10
45.428954999999974
 20
458.31364450000001
 11
54.678954999999974
 21
458.31364450000001
  0
LINE
  8
_0-0_0
  6
CONTINUOUS
 62
    7
 10
45.178954999999974
 20
458.55302449999999
 11
45.428954999999974
 21
458.31364450000001
  0
LINE
  8
_0-0_0
  6
CONTINUOUS
 62
    7
 10
45.178954999999974
 20
458.62660249999999
 11
45.428954999999974
 21
458.35456850000003
  0
LINE
  8
_0-0_0
  6
CONTINUOUS
 62
    7
 10
45.428954999999974
 20
458.35456850000003
 11
54.678954999999974
 21
458.35456850000003
  0
LINE
  8
_0-0_0
  6
CONTINUOUS
 62
    7
 10
45.178954999999974
 20
458.5776515
 11
45.428954999999974
 21
458.35456850000003
  0
LINE
  8
_0-0_0
  6
CONTINUOUS
 62
    7
 10
45.178954999999974
 20
458.69938650000006
 11
45.428954999999974
 21
458.42228650000004
  0
LINE
  8
_0-0_0
  6
CONTINUOUS
 62
    7
 10
45.428954999999974
 20
458.42228650000004
 11
54.678954999999974
 21
458.42228650000004
  0
LINE
  8
_0-0_0
  6
CONTINUOUS
 62
    7
 10
45.178954999999974
 20
458.62660249999999
 11
45.428954999999974
 21
458.42228650000004
  0
LINE
  8
_0-0_0
  6
CONTINUOUS
 62
    7
 10
45.178954999999974
 20
458.79518150000001
 11
45.428954999999974
 21
458.51606749999996
  0
LINE
  8
_0-0_0
  6
CONTINUOUS
 62
    7
 10
45.428954999999974
 20
458.51606749999996
 11
54.678954999999974
 21
458.51606749999996
  0
LINE
  8
_0-0_0
  6
CONTINUOUS
 62
    7
 10
45.178954999999974
 20
458.69938650000006
 11
45.428954999999974
 21
458.51606749999996
  0
LINE
  8
_0-0_0
  6
CONTINUOUS
 62
    7
 10
45.428954999999974
 20
458.63487250000003
 11
54.678954999999974
 21
458.63487250000003
  0
LINE
  8
_0-0_0
  6
CONTINUOUS
 62
    7
 10
45.308928999999978
 20
458.71131849999995
 11
45.428954999999974
 21
458.63487250000003
  0
LINE
  8
_0-0_0
  6
CONTINUOUS
 62
    7
 10
45.178954999999974
 20
458.79518150000001
 11
45.308928999999978
 21
458.71131849999995
  0
LINE
  8
_0-0_0
  6
CONTINUOUS
 62
    7
 10
45.178954999999974
 20
458.91291750000005
 11
45.428954999999974
 21
458.63487250000003
  0
LINE
  8
_0-0_0
  6
CONTINUOUS
 62
    7
 10
45.178954999999974
 20
459.05137649999995
 11
45.428954999999974
 21
458.77738950000003
  0
LINE
  8
_0-0_0
  6
CONTINUOUS
 62
    7
 10
45.428954999999974
 20
458.77738950000003
 11
54.678954999999974
 21
458.77738950000003
  0
LINE
  8
_0-0_0
  6
CONTINUOUS
 62
    7
 10
45.178954999999974
 20
458.91291750000005
 11
45.428954999999974
 21
458.77738950000003
  0
LINE
  8
_0-0_0
  6
CONTINUOUS
 62
    7
 10
45.178954999999974
 20
459.20896849999997
 11
45.428954999999974
 21
458.94209250000006
  0
LINE
  8
_0-0_0
  6
CONTINUOUS
 62
    7
 10
45.428954999999974
 20
458.94209250000006
 11
54.678954999999974
 21
458.94209250000006
  0
LINE
  8
_0-0_0
  6
CONTINUOUS
 62
    7
 10
45.178954999999974
 20
459.05137649999995
 11
45.428954999999974
 21
458.94209250000006
  0
LINE
  8
_0-0_0
  6
CONTINUOUS
 62
    7
 10
45.178954999999974
 20
459.38398749999999
 11
45.428954999999974
 21
459.12712050000005
  0
LINE
  8
_0-0_0
  6
CONTINUOUS
 62
    7
 10
45.428954999999974
 20
459.12712050000005
 11
54.678954999999974
 21
459.12712050000005
  0
LINE
  8
_0-0_0
  6
CONTINUOUS
 62
    7
 10
45.178954999999974
 20
459.20896849999997
 11
45.428954999999974
 21
459.12712050000005
  0
LINE
  8
_0-0_0
  6
CONTINUOUS
 62
    7
 10
45.178954999999974
 20
459.57450849999998
 11
45.428954999999974
 21
459.3304895
  0
LINE
  8
_0-0_0
  6
CONTINUOUS
 62
    7
 10
45.428954999999974
 20
459.3304895
 11
54.678954999999974
 21
459.3304895
  0
LINE
  8
_0-0_0
  6
CONTINUOUS
 62
    7
 10
45.178954999999974
 20
459.38398749999999
 11
45.428954999999974
 21
459.3304895
  0
LINE
  8
_0-0_0
  6
CONTINUOUS
 62
    7
 10
45.178954999999974
 20
459.77845750000006
 11
45.428954999999974
 21
459.54994150000005
  0
LINE
  8
_0-0_0
  6
CONTINUOUS
 62
    7
 10
45.428954999999974
 20
459.54994150000005
 11
54.678954999999974
 21
459.54994150000005
  0
LINE
  8
_0-0_0
  6
CONTINUOUS
 62
    7
 10
45.178954999999974
 20
459.77845750000006
 11
54.928954999999974
 21
459.77845750000006
  0
LINE
  8
_0-0_0
  6
CONTINUOUS
 62
    7
 10
45.178954999999974
 20
459.57450849999998
 11
45.428954999999974
 21
459.54994150000005
  0
LINE
  8
_0-0_0
  6
CONTINUOUS
 62
    7
 10
45.178954999999974
 20
459.99360650000006
 11
45.428954999999974
 21
459.78309650000006
  0
LINE
  8
_0-0_0
  6
CONTINUOUS
 62
    7
 10
45.428954999999974
 20
459.78309650000006
 11
54.678954999999974
 21
459.78309650000006
  0
LINE
  8
_0-0_0
  6
CONTINUOUS
 62
    7
 10
45.178954999999974
 20
459.99360650000006
 11
54.928954999999974
 21
459.99360650000006
  0
LINE
  8
_0-0_0
  6
CONTINUOUS
 62
    7
 10
45.178954999999974
 20
459.77845750000006
 11
45.428954999999974
 21
459.78309650000006
  0
LINE
  8
_0-0_0
  6
CONTINUOUS
 62
    7
 10
45.178954999999974
 20
460.21760549999999
 11
45.428954999999974
 21
460.02738950000003
  0
LINE
  8
_0-0_0
  6
CONTINUOUS
 62
    7
 10
45.428954999999974
 20
460.02738950000003
 11
54.678954999999974
 21
460.02738950000003
  0
LINE
  8
_0-0_0
  6
CONTINUOUS
 62
    7
 10
45.178954999999974
 20
460.21760549999999
 11
54.928954999999974
 21
460.21760549999999
  0
LINE
  8
_0-0_0
  6
CONTINUOUS
 62
    7
 10
45.178954999999974
 20
459.99360650000006
 11
45.428954999999974
 21
460.02738950000003
  0
LINE
  8
_0-0_0
  6
CONTINUOUS
 62
    7
 10
45.178954999999974
 20
460.44795250000004
 11
45.428954999999974
 21
460.28016649999995
  0
LINE
  8
_0-0_0
  6
CONTINUOUS
 62
    7
 10
45.428954999999974
 20
460.28016649999995
 11
54.678954999999974
 21
460.28016649999995
  0
LINE
  8
_0-0_0
  6
CONTINUOUS
 62
    7
 10
45.178954999999974
 20
460.44795250000004
 11
54.928954999999974
 21
460.44795250000004
  0
LINE
  8
_0-0_0
  6
CONTINUOUS
 62
    7
 10
45.178954999999974
 20
460.21760549999999
 11
45.428954999999974
 21
460.28016649999995
  0
LINE
  8
_0-0_0
  6
CONTINUOUS
 62
    7
 10
45.178954999999974
 20
460.68217449999997
 11
45.428954999999974
 21
460.53861949999998
  0
LINE
  8
_0-0_0
  6
CONTINUOUS
 62
    7
 10
45.428954999999974
 20
460.53861949999998
 11
54.678954999999974
 21
460.53861949999998
  0
LINE
  8
_0-0_0
  6
CONTINUOUS
 62
    7
 10
45.178954999999974
 20
460.68217449999997
 11
54.928954999999974
 21
460.68217449999997
  0
LINE
  8
_0-0_0
  6
CONTINUOUS
 62
    7
 10
45.178954999999974
 20
460.44795250000004
 11
45.428954999999974
 21
460.53861949999998
  0
LINE
  8
_0-0_0
  6
CONTINUOUS
 62
    7
 10
45.178954999999974
 20
460.9177095
 11
45.428954999999974
 21
460.79994150000005
  0
LINE
  8
_0-0_0
  6
CONTINUOUS
 62
    7
 10
45.428954999999974
 20
460.79994150000005
 11
54.678954999999974
 21
460.79994150000005
  0
LINE
  8
_0-0_0
  6
CONTINUOUS
 62
    7
 10
45.178954999999974
 20
460.9177095
 11
54.928954999999974
 21
460.9177095
  0
LINE
  8
_0-0_0
  6
CONTINUOUS
 62
    7
 10
45.178954999999974
 20
460.68217449999997
 11
45.428954999999974
 21
460.79994150000005
  0
LINE
  8
_0-0_0
  6
CONTINUOUS
 62
    7
 10
45.178954999999974
 20
461.15193150000005
 11
45.428954999999974
 21
461.0612635
  0
LINE
  8
_0-0_0
  6
CONTINUOUS
 62
    7
 10
45.428954999999974
 20
461.0612635
 11
54.678954999999974
 21
461.0612635
  0
LINE
  8
_0-0_0
  6
CONTINUOUS
 62
    7
 10
45.178954999999974
 20
461.15193150000005
 11
54.928954999999974
 21
461.15193150000005
  0
LINE
  8
_0-0_0
  6
CONTINUOUS
 62
    7
 10
45.178954999999974
 20
460.9177095
 11
45.428954999999974
 21
461.0612635
  0
LINE
  8
_0-0_0
  6
CONTINUOUS
 62
    7
 10
45.178954999999974
 20
461.38227849999998
 11
45.428954999999974
 21
461.31971750000002
  0
LINE
  8
_0-0_0
  6
CONTINUOUS
 62
    7
 10
45.428954999999974
 20
461.31971750000002
 11
54.678954999999974
 21
461.31971750000002
  0
LINE
  8
_0-0_0
  6
CONTINUOUS
 62
    7
 10
45.178954999999974
 20
461.38227849999998
 11
54.928954999999974
 21
461.38227849999998
  0
LINE
  8
_0-0_0
  6
CONTINUOUS
 62
    7
 10
45.178954999999974
 20
461.15193150000005
 11
45.428954999999974
 21
461.31971750000002
  0
LINE
  8
_0-0_0
  6
CONTINUOUS
 62
    7
 10
45.178954999999974
 20
461.60627750000003
 11
45.428954999999974
 21
461.57249449999995
  0
LINE
  8
_0-0_0
  6
CONTINUOUS
 62
    7
 10
45.428954999999974
 20
461.57249449999995
 11
54.678954999999974
 21
461.57249449999995
  0
LINE
  8
_0-0_0
  6
CONTINUOUS
 62
    7
 10
45.178954999999974
 20
461.60627750000003
 11
54.928954999999974
 21
461.60627750000003
  0
LINE
  8
_0-0_0
  6
CONTINUOUS
 62
    7
 10
45.178954999999974
 20
461.38227849999998
 11
45.428954999999974
 21
461.57249449999995
  0
LINE
  8
_0-0_0
  6
CONTINUOUS
 62
    7
 10
45.178954999999974
 20
461.82142650000003
 11
45.428954999999974
 21
461.81678750000003
  0
LINE
  8
_0-0_0
  6
CONTINUOUS
 62
    7
 10
45.428954999999974
 20
461.81678750000003
 11
54.678954999999974
 21
461.81678750000003
  0
LINE
  8
_0-0_0
  6
CONTINUOUS
 62
    7
 10
45.178954999999974
 20
461.60627750000003
 11
45.428954999999974
 21
461.81678750000003
  0
LINE
  8
_0-0_0
  6
CONTINUOUS
 62
    7
 10
44.928954999999974
 20
479.39994750000005
 11
44.928954999999974
 21
475.6447905
  0
LINE
  8
_0-0_0
  6
CONTINUOUS
 62
    7
 10
44.928954999999974
 20
475.6447905
 11
44.928954999999974
 21
475.39994750000005
  0
LINE
  8
_0-0_0
  6
CONTINUOUS
 62
    7
 10
44.928954999999974
 20
462.79994150000005
 11
44.928954999999974
 21
459.04478449999999
  0
LINE
  8
_0-0_0
  6
CONTINUOUS
 62
    7
 10
44.928954999999974
 20
459.04478449999999
 11
44.928954999999974
 21
458.79994150000005
  0
LINE
  8
_0-0_0
  6
CONTINUOUS
 62
    7
 10
58.528960999999981
 20
474.09992950000003
 11
58.528960999999981
 21
471.59992950000003
  0
LINE
  8
_0-0_0
  6
CONTINUOUS
 62
    7
 10
58.528960999999981
 20
471.59992950000003
 11
58.528960999999981
 21
464.09992950000003
  0
LINE
  8
_0-0_0
  6
CONTINUOUS
 62
    7
 10
57.728972999999996
 20
473.63807650000001
 11
57.728972999999996
 21
471.36900349999996
  0
LINE
  8
_0-0_0
  6
CONTINUOUS
 62
    7
 10
57.728972999999996
 20
471.36900349999996
 11
57.728972999999996
 21
464.56181349999997
  0
LINE
  8
_0-0_0
  6
CONTINUOUS
 62
    7
 10
-0.2710420000000226
 20
473.09992950000003
 11
-0.2710420000000226
 21
473.09858650000001
  0
LINE
  8
_0-0_0
  6
CONTINUOUS
 62
    7
 10
-0.2710420000000226
 20
473.09858650000001
 11
-0.2710420000000226
 21
465.09992950000003
  0
LINE
  8
_0-0_0
  6
CONTINUOUS
 62
    7
 10
80.928954999999974
 20
479.64994750000005
 11
54.928954999999974
 21
479.64994750000005
  0
LINE
  8
_0-0_0
  6
CONTINUOUS
 62
    7
 10
80.928954999999974
 20
475.14994750000005
 11
54.928954999999974
 21
475.14994750000005
  0
LINE
  8
_0-0_0
  6
CONTINUOUS
 62
    7
 10
59.728942999999958
 20
463.04994150000005
 11
54.928954999999974
 21
463.04994150000005
  0
LINE
  8
_0-0_0
  6
CONTINUOUS
 62
    7
 10
75.178924999999992
 20
458.54994150000005
 11
54.928954999999974
 21
458.54994150000005
  0
LINE
  8
_0-0_0
  6
CONTINUOUS
 62
    7
 10
54.928954999999974
 20
479.64994750000005
 11
54.678954999999974
 21
479.89994750000005
  0
LINE
  8
_0-0_0
  6
CONTINUOUS
 62
    7
 10
54.928954999999974
 20
475.14994750000005
 11
54.678954999999974
 21
474.89994750000005
  0
LINE
  8
_0-0_0
  6
CONTINUOUS
 62
    7
 10
54.928954999999974
 20
463.04994150000005
 11
54.678954999999974
 21
463.29994150000005
  0
LINE
  8
_0-0_0
  6
CONTINUOUS
 62
    7
 10
54.928954999999974
 20
458.54994150000005
 11
54.678954999999974
 21
458.29994150000005
  0
LINE
  8
_0-0_0
  6
CONTINUOUS
 62
    7
 10
58.928954999999974
 20
474.34992950000003
 11
59.728957999999977
 21
475.14994750000005
  0
LINE
  8
_0-0_0
  6
CONTINUOUS
 62
    7
 10
58.928954999999974
 20
463.84992950000003
 11
60.178954999999974
 21
462.59992950000003
  0
LINE
  8
_0-0_0
  6
CONTINUOUS
 62
    7
 10
44.928954999999974
 20
479.39994750000005
 11
45.428803000000016
 21
479.89979549999998
  0
LINE
  8
_0-0_0
  6
CONTINUOUS
 62
    7
 10
44.928954999999974
 20
475.39994750000005
 11
45.428803000000016
 21
474.90010050000001
  0
LINE
  8
_0-0_0
  6
CONTINUOUS
 62
    7
 10
44.928954999999974
 20
462.79994150000005
 11
45.428803000000016
 21
463.29978949999997
  0
LINE
  8
_0-0_0
  6
CONTINUOUS
 62
    7
 10
44.928954999999974
 20
458.79994150000005
 11
45.428803000000016
 21
458.3000945
  0
LINE
  8
_0-0_0
  6
CONTINUOUS
 62
    7
 10
58.928954999999974
 20
474.09992950000003
 11
58.528960999999981
 21
474.09992950000003
  0
LINE
  8
_0-0_0
  6
CONTINUOUS
 62
    7
 10
58.928954999999974
 20
464.09992950000003
 11
58.528960999999981
 21
464.09992950000003
  0
LINE
  8
_0-0_0
  6
CONTINUOUS
 62
    7
 10
57.728972999999996
 20
473.63807650000001
 11
58.528960999999981
 21
474.09992950000003
  0
LINE
  8
_0-0_0
  6
CONTINUOUS
 62
    7
 10
57.728972999999996
 20
464.56181349999997
 11
58.528960999999981
 21
464.09992950000003
  0
LINE
  8
_0-0_0
  6
CONTINUOUS
 62
    7
 10
57.728972999999996
 20
473.09992950000003
 11
-0.2710420000000226
 21
473.09992950000003
  0
LINE
  8
_0-0_0
  6
CONTINUOUS
 62
    7
 10
57.728972999999996
 20
465.09992950000003
 11
-0.2710420000000226
 21
465.09992950000003
  0
ARC
  8
_0-0_0
  6
CONTINUOUS
 62
    7
 10
74.428954999999974
 20
502.60002150000003
 40
8
 50
215.099627
 51
324.90037799999999
  0
LINE
  8
_0-0_0
  6
CONTINUOUS
 62
    7
 10
65.428954999999974
 20
498.00001550000002
 11
67.883728000000019
 21
498.00001550000002
  0
LINE
  8
_0-0_0
  6
CONTINUOUS
 62
    7
 10
65.428954999999974
 20
484.80000250000001
 11
65.428954999999974
 21
498.00001550000002
  0
LINE
  8
_0-0_0
  6
CONTINUOUS
 62
    7
 10
968.42889400000001
 20
484.80000250000001
 11
968.42889400000001
 21
498.00001550000002
  0
LINE
  8
_0-0_0
  6
CONTINUOUS
 62
    7
 10
965.97418200000004
 20
498.00001550000002
 11
968.42889400000001
 21
498.00001550000002
  0
ARC
  8
_0-0_0
  6
CONTINUOUS
 62
    7
 10
959.42889400000001
 20
502.60002150000003
 40
8
 50
215.099627
 51
324.90037799999999
  0
LINE
  8
_0-0_0
  6
CONTINUOUS
 62
    7
 10
80.974181999999985
 20
498.00001550000002
 11
952.88372799999991
 21
498.00001550000002
  0
LINE
  8
_0-0_0
  6
CONTINUOUS
 62
    7
 10
80.974181999999985
 20
498.00001550000002
 11
81.063171000000011
 21
498.12931849999995
  0
LINE
  8
_0-0_0
  6
CONTINUOUS
 62
    7
 10
952.88372799999991
 20
498.00001550000002
 11
952.79473900000005
 21
498.12931849999995
  0
LINE
  8
_0-0_0
  6
CONTINUOUS
 62
    7
 10
966.15631100000007
 20
498.2707365
 11
966.23773199999994
 21
498.40000950000001
  0
ARC
  8
_0-0_0
  6
CONTINUOUS
 62
    7
 10
959.42889400000001
 20
502.60002150000003
 40
8
 50
328.33175599999993
 51
334.05550899999992
  0
LINE
  8
_0-0_0
  6
CONTINUOUS
 62
    7
 10
966.62261999999998
 20
499.10002150000003
 11
966.71661400000005
 21
499.30000250000001
  0
LINE
  8
_0-0_0
  6
CONTINUOUS
 62
    7
 10
966.71661400000005
 20
499.30000250000001
 11
966.80389400000001
 21
499.50001550000002
  0
ARC
  8
_0-0_0
  6
CONTINUOUS
 62
    7
 10
959.42889400000001
 20
502.60002150000003
 40
8
 50
337.20097500000003
 51
342.54240199999998
  0
LINE
  8
_0-0_0
  6
CONTINUOUS
 62
    7
 10
967.06048599999997
 20
500.20002750000003
 11
967.12042200000008
 21
500.40000950000001
  0
LINE
  8
_0-0_0
  6
CONTINUOUS
 62
    7
 10
967.12042200000008
 20
500.40000950000001
 11
967.17486599999995
 21
500.60002150000003
  0
ARC
  8
_0-0_0
  6
CONTINUOUS
 62
    7
 10
959.42889400000001
 20
502.60002150000003
 40
8
 50
345.52249499999999
 51
350.64797900000002
  0
LINE
  8
_0-0_0
  6
CONTINUOUS
 62
    7
 10
967.32257100000004
 20
501.30000250000001
 11
967.35296600000004
 21
501.50001550000002
  0
LINE
  8
_0-0_0
  6
CONTINUOUS
 62
    7
 10
967.35296600000004
 20
501.50001550000002
 11
967.3781130000001
 21
501.70002750000003
  0
ARC
  8
_0-0_0
  6
CONTINUOUS
 62
    7
 10
959.42889400000001
 20
502.60002150000003
 40
8
 50
353.54056400000002
 51
358.56744600000002
  0
LINE
  8
_0-0_0
  6
CONTINUOUS
 62
    7
 10
967.42645299999992
 20
502.40000950000001
 11
967.42889400000001
 21
502.60002150000003
  0
LINE
  8
_0-0_0
  6
CONTINUOUS
 62
    7
 10
951.43145799999991
 20
502.40000950000001
 11
951.42889400000001
 21
502.60002150000003
  0
ARC
  8
_0-0_0
  6
CONTINUOUS
 62
    7
 10
959.42889400000001
 20
502.60002150000003
 40
8
 50
181.432545
 51
186.45945499999999
  0
LINE
  8
_0-0_0
  6
CONTINUOUS
 62
    7
 10
951.50494399999991
 20
501.50001550000002
 11
951.47967499999993
 21
501.70002750000003
  0
LINE
  8
_0-0_0
  6
CONTINUOUS
 62
    7
 10
951.53521699999999
 20
501.30000250000001
 11
951.50494399999991
 21
501.50001550000002
  0
ARC
  8
_0-0_0
  6
CONTINUOUS
 62
    7
 10
959.42889400000001
 20
502.60002150000003
 40
8
 50
189.35203999999999
 51
194.47751
  0
LINE
  8
_0-0_0
  6
CONTINUOUS
 62
    7
 10
951.73736599999995
 20
500.40000950000001
 11
951.68292200000008
 21
500.60002150000003
  0
LINE
  8
_0-0_0
  6
CONTINUOUS
 62
    7
 10
951.79742399999998
 20
500.20002750000003
 11
951.73736599999995
 21
500.40000950000001
  0
ARC
  8
_0-0_0
  6
CONTINUOUS
 62
    7
 10
959.42889400000001
 20
502.60002150000003
 40
8
 50
197.45760300000001
 51
202.79902999999999
  0
LINE
  8
_0-0_0
  6
CONTINUOUS
 62
    7
 10
952.1412959999999
 20
499.30000250000001
 11
952.05401599999993
 21
499.50001550000002
  0
LINE
  8
_0-0_0
  6
CONTINUOUS
 62
    7
 10
952.23516899999993
 20
499.10002150000003
 11
952.1412959999999
 21
499.30000250000001
  0
ARC
  8
_0-0_0
  6
CONTINUOUS
 62
    7
 10
959.42889400000001
 20
502.60002150000003
 40
8
 50
205.94448199999999
 51
211.66823500000001
  0
LINE
  8
_0-0_0
  6
CONTINUOUS
 62
    7
 10
952.70159899999987
 20
498.2707365
 11
952.62005600000009
 21
498.40000950000001
  0
LINE
  8
_0-0_0
  6
CONTINUOUS
 62
    7
 10
952.70159899999987
 20
498.2707365
 11
952.79473900000005
 21
498.12931849999995
  0
LINE
  8
_0-0_0
  6
CONTINUOUS
 62
    7
 10
965.97418200000004
 20
498.00001550000002
 11
966.0631709999999
 21
498.12931849999995
  0
LINE
  8
_0-0_0
  6
CONTINUOUS
 62
    7
 10
966.15631100000007
 20
498.2707365
 11
966.0631709999999
 21
498.12931849999995
  0
LINE
  8
_0-0_0
  6
CONTINUOUS
 62
    7
 10
968.42889400000001
 20
498.12931849999995
 11
968.42889400000001
 21
498.00001550000002
  0
LINE
  8
_0-0_0
  6
CONTINUOUS
 62
    7
 10
968.42889400000001
 20
506.92930550000005
 11
968.42889400000001
 21
507.07072449999998
  0
LINE
  8
_0-0_0
  6
CONTINUOUS
 62
    7
 10
968.42889400000001
 20
506.92930550000005
 11
968.42889400000001
 21
506.80000250000001
  0
LINE
  8
_0-0_0
  6
CONTINUOUS
 62
    7
 10
968.42889400000001
 20
506.10002150000003
 11
968.42889400000001
 21
506.80000250000001
  0
LINE
  8
_0-0_0
  6
CONTINUOUS
 62
    7
 10
968.42889400000001
 20
505.90000950000001
 11
968.42889400000001
 21
506.10002150000003
  0
LINE
  8
_0-0_0
  6
CONTINUOUS
 62
    7
 10
968.42889400000001
 20
505.90000950000001
 11
968.42889400000001
 21
505.70002750000003
  0
LINE
  8
_0-0_0
  6
CONTINUOUS
 62
    7
 10
968.42889400000001
 20
505.00001550000002
 11
968.42889400000001
 21
505.70002750000003
  0
LINE
  8
_0-0_0
  6
CONTINUOUS
 62
    7
 10
968.42889400000001
 20
504.80000250000001
 11
968.42889400000001
 21
505.00001550000002
  0
LINE
  8
_0-0_0
  6
CONTINUOUS
 62
    7
 10
968.42889400000001
 20
504.80000250000001
 11
968.42889400000001
 21
504.60002150000003
  0
LINE
  8
_0-0_0
  6
CONTINUOUS
 62
    7
 10
968.42889400000001
 20
503.90000950000001
 11
968.42889400000001
 21
504.60002150000003
  0
LINE
  8
_0-0_0
  6
CONTINUOUS
 62
    7
 10
968.42889400000001
 20
503.70002750000003
 11
968.42889400000001
 21
503.90000950000001
  0
LINE
  8
_0-0_0
  6
CONTINUOUS
 62
    7
 10
968.42889400000001
 20
503.70002750000003
 11
968.42889400000001
 21
503.50001550000002
  0
LINE
  8
_0-0_0
  6
CONTINUOUS
 62
    7
 10
968.42889400000001
 20
502.80000250000001
 11
968.42889400000001
 21
503.50001550000002
  0
LINE
  8
_0-0_0
  6
CONTINUOUS
 62
    7
 10
968.42889400000001
 20
502.60002150000003
 11
968.42889400000001
 21
502.80000250000001
  0
LINE
  8
_0-0_0
  6
CONTINUOUS
 62
    7
 10
968.42889400000001
 20
502.60002150000003
 11
968.42889400000001
 21
502.40000950000001
  0
LINE
  8
_0-0_0
  6
CONTINUOUS
 62
    7
 10
968.42889400000001
 20
501.70002750000003
 11
968.42889400000001
 21
502.40000950000001
  0
LINE
  8
_0-0_0
  6
CONTINUOUS
 62
    7
 10
968.42889400000001
 20
501.50001550000002
 11
968.42889400000001
 21
501.70002750000003
  0
LINE
  8
_0-0_0
  6
CONTINUOUS
 62
    7
 10
968.42889400000001
 20
501.50001550000002
 11
968.42889400000001
 21
501.30000250000001
  0
LINE
  8
_0-0_0
  6
CONTINUOUS
 62
    7
 10
968.42889400000001
 20
500.60002150000003
 11
968.42889400000001
 21
501.30000250000001
  0
LINE
  8
_0-0_0
  6
CONTINUOUS
 62
    7
 10
968.42889400000001
 20
500.40000950000001
 11
968.42889400000001
 21
500.60002150000003
  0
LINE
  8
_0-0_0
  6
CONTINUOUS
 62
    7
 10
968.42889400000001
 20
500.40000950000001
 11
968.42889400000001
 21
500.20002750000003
  0
LINE
  8
_0-0_0
  6
CONTINUOUS
 62
    7
 10
968.42889400000001
 20
499.50001550000002
 11
968.42889400000001
 21
500.20002750000003
  0
LINE
  8
_0-0_0
  6
CONTINUOUS
 62
    7
 10
968.42889400000001
 20
499.30000250000001
 11
968.42889400000001
 21
499.50001550000002
  0
LINE
  8
_0-0_0
  6
CONTINUOUS
 62
    7
 10
968.42889400000001
 20
499.30000250000001
 11
968.42889400000001
 21
499.10002150000003
  0
LINE
  8
_0-0_0
  6
CONTINUOUS
 62
    7
 10
968.42889400000001
 20
498.40000950000001
 11
968.42889400000001
 21
499.10002150000003
  0
LINE
  8
_0-0_0
  6
CONTINUOUS
 62
    7
 10
968.42889400000001
 20
498.2707365
 11
968.42889400000001
 21
498.40000950000001
  0
LINE
  8
_0-0_0
  6
CONTINUOUS
 62
    7
 10
968.42889400000001
 20
498.12931849999995
 11
968.42889400000001
 21
498.2707365
  0
LINE
  8
_0-0_0
  6
CONTINUOUS
 62
    7
 10
968.42889400000001
 20
484.30000250000001
 11
968.42889400000001
 21
484.80000250000001
  0
LINE
  8
_0-0_0
  6
CONTINUOUS
 62
    7
 10
968.42889400000001
 20
512.80000250000001
 11
968.42889400000001
 21
512.20603949999997
  0
LINE
  8
_0-0_0
  6
CONTINUOUS
 62
    7
 10
968.42889400000001
 20
507.20002750000003
 11
968.42889400000001
 21
512.20603949999997
  0
LINE
  8
_0-0_0
  6
CONTINUOUS
 62
    7
 10
968.42889400000001
 20
507.07072449999998
 11
968.42889400000001
 21
507.20002750000003
  0
LINE
  8
_0-0_0
  6
CONTINUOUS
 62
    7
 10
65.428954999999974
 20
484.30000250000001
 11
65.428954999999974
 21
484.80000250000001
  0
LINE
  8
_0-0_0
  6
CONTINUOUS
 62
    7
 10
65.428954999999974
 20
484.30000250000001
 11
968.42889400000001
 21
484.30000250000001
  0
LINE
  8
_0-0_0
  6
CONTINUOUS
 62
    7
 10
65.428954999999974
 20
498.12931849999995
 11
65.428954999999974
 21
498.2707365
  0
LINE
  8
_0-0_0
  6
CONTINUOUS
 62
    7
 10
65.428954999999974
 20
498.12931849999995
 11
65.428954999999974
 21
498.00001550000002
  0
LINE
  8
_0-0_0
  6
CONTINUOUS
 62
    7
 10
65.428954999999974
 20
512.80000250000001
 11
65.428954999999974
 21
512.20603949999997
  0
LINE
  8
_0-0_0
  6
CONTINUOUS
 62
    7
 10
65.428954999999974
 20
507.20002750000003
 11
65.428954999999974
 21
512.20603949999997
  0
LINE
  8
_0-0_0
  6
CONTINUOUS
 62
    7
 10
65.428954999999974
 20
507.07072449999998
 11
65.428954999999974
 21
507.20002750000003
  0
LINE
  8
_0-0_0
  6
CONTINUOUS
 62
    7
 10
65.428954999999974
 20
506.92930550000005
 11
65.428954999999974
 21
507.07072449999998
  0
LINE
  8
_0-0_0
  6
CONTINUOUS
 62
    7
 10
65.428954999999974
 20
506.92930550000005
 11
65.428954999999974
 21
506.80000250000001
  0
LINE
  8
_0-0_0
  6
CONTINUOUS
 62
    7
 10
65.428954999999974
 20
506.10002150000003
 11
65.428954999999974
 21
506.80000250000001
  0
LINE
  8
_0-0_0
  6
CONTINUOUS
 62
    7
 10
65.428954999999974
 20
505.97071849999998
 11
65.428954999999974
 21
506.10002150000003
  0
LINE
  8
_0-0_0
  6
CONTINUOUS
 62
    7
 10
65.428954999999974
 20
505.82929950000005
 11
65.428954999999974
 21
505.97071849999998
  0
LINE
  8
_0-0_0
  6
CONTINUOUS
 62
    7
 10
65.428954999999974
 20
505.82929950000005
 11
65.428954999999974
 21
505.70002750000003
  0
LINE
  8
_0-0_0
  6
CONTINUOUS
 62
    7
 10
65.428954999999974
 20
505.00001550000002
 11
65.428954999999974
 21
505.70002750000003
  0
LINE
  8
_0-0_0
  6
CONTINUOUS
 62
    7
 10
65.428954999999974
 20
504.87074250000001
 11
65.428954999999974
 21
505.00001550000002
  0
LINE
  8
_0-0_0
  6
CONTINUOUS
 62
    7
 10
65.428954999999974
 20
504.72929350000004
 11
65.428954999999974
 21
504.87074250000001
  0
LINE
  8
_0-0_0
  6
CONTINUOUS
 62
    7
 10
65.428954999999974
 20
504.72929350000004
 11
65.428954999999974
 21
504.60002150000003
  0
LINE
  8
_0-0_0
  6
CONTINUOUS
 62
    7
 10
65.428954999999974
 20
503.90000950000001
 11
65.428954999999974
 21
504.60002150000003
  0
LINE
  8
_0-0_0
  6
CONTINUOUS
 62
    7
 10
65.428954999999974
 20
503.7707365
 11
65.428954999999974
 21
503.90000950000001
  0
LINE
  8
_0-0_0
  6
CONTINUOUS
 62
    7
 10
65.428954999999974
 20
503.62931849999995
 11
65.428954999999974
 21
503.7707365
  0
LINE
  8
_0-0_0
  6
CONTINUOUS
 62
    7
 10
65.428954999999974
 20
503.62931849999995
 11
65.428954999999974
 21
503.50001550000002
  0
LINE
  8
_0-0_0
  6
CONTINUOUS
 62
    7
 10
65.428954999999974
 20
502.80000250000001
 11
65.428954999999974
 21
503.50001550000002
  0
LINE
  8
_0-0_0
  6
CONTINUOUS
 62
    7
 10
65.428954999999974
 20
502.67073049999999
 11
65.428954999999974
 21
502.80000250000001
  0
LINE
  8
_0-0_0
  6
CONTINUOUS
 62
    7
 10
65.428954999999974
 20
502.52931149999995
 11
65.428954999999974
 21
502.67073049999999
  0
LINE
  8
_0-0_0
  6
CONTINUOUS
 62
    7
 10
65.428954999999974
 20
502.52931149999995
 11
65.428954999999974
 21
502.40000950000001
  0
LINE
  8
_0-0_0
  6
CONTINUOUS
 62
    7
 10
65.428954999999974
 20
501.70002750000003
 11
65.428954999999974
 21
502.40000950000001
  0
LINE
  8
_0-0_0
  6
CONTINUOUS
 62
    7
 10
65.428954999999974
 20
501.57072449999998
 11
65.428954999999974
 21
501.70002750000003
  0
LINE
  8
_0-0_0
  6
CONTINUOUS
 62
    7
 10
65.428954999999974
 20
501.42930550000005
 11
65.428954999999974
 21
501.57072449999998
  0
LINE
  8
_0-0_0
  6
CONTINUOUS
 62
    7
 10
65.428954999999974
 20
501.42930550000005
 11
65.428954999999974
 21
501.30000250000001
  0
LINE
  8
_0-0_0
  6
CONTINUOUS
 62
    7
 10
65.428954999999974
 20
500.60002150000003
 11
65.428954999999974
 21
501.30000250000001
  0
LINE
  8
_0-0_0
  6
CONTINUOUS
 62
    7
 10
65.428954999999974
 20
500.47071849999998
 11
65.428954999999974
 21
500.60002150000003
  0
LINE
  8
_0-0_0
  6
CONTINUOUS
 62
    7
 10
65.428954999999974
 20
500.32929950000005
 11
65.428954999999974
 21
500.47071849999998
  0
LINE
  8
_0-0_0
  6
CONTINUOUS
 62
    7
 10
65.428954999999974
 20
500.32929950000005
 11
65.428954999999974
 21
500.20002750000003
  0
LINE
  8
_0-0_0
  6
CONTINUOUS
 62
    7
 10
65.428954999999974
 20
499.50001550000002
 11
65.428954999999974
 21
500.20002750000003
  0
LINE
  8
_0-0_0
  6
CONTINUOUS
 62
    7
 10
65.428954999999974
 20
499.37074250000001
 11
65.428954999999974
 21
499.50001550000002
  0
LINE
  8
_0-0_0
  6
CONTINUOUS
 62
    7
 10
65.428954999999974
 20
499.22929350000004
 11
65.428954999999974
 21
499.37074250000001
  0
LINE
  8
_0-0_0
  6
CONTINUOUS
 62
    7
 10
65.428954999999974
 20
499.22929350000004
 11
65.428954999999974
 21
499.10002150000003
  0
LINE
  8
_0-0_0
  6
CONTINUOUS
 62
    7
 10
65.428954999999974
 20
498.40000950000001
 11
65.428954999999974
 21
499.10002150000003
  0
LINE
  8
_0-0_0
  6
CONTINUOUS
 62
    7
 10
65.428954999999974
 20
498.2707365
 11
65.428954999999974
 21
498.40000950000001
  0
LINE
  8
_0-0_0
  6
CONTINUOUS
 62
    7
 10
67.883728000000019
 20
498.00001550000002
 11
67.794754000000012
 21
498.12931849999995
  0
LINE
  8
_0-0_0
  6
CONTINUOUS
 62
    7
 10
81.15631099999996
 20
498.2707365
 11
81.063171000000011
 21
498.12931849999995
  0
LINE
  8
_0-0_0
  6
CONTINUOUS
 62
    7
 10
81.15631099999996
 20
498.2707365
 11
81.237777999999992
 21
498.40000950000001
  0
ARC
  8
_0-0_0
  6
CONTINUOUS
 62
    7
 10
74.428954999999974
 20
502.60002150000003
 40
8
 50
328.33175599999993
 51
334.05550899999992
  0
LINE
  8
_0-0_0
  6
CONTINUOUS
 62
    7
 10
81.622710999999981
 20
499.10002150000003
 11
81.716613999999993
 21
499.30000250000001
  0
LINE
  8
_0-0_0
  6
CONTINUOUS
 62
    7
 10
81.716613999999993
 20
499.30000250000001
 11
81.803924999999992
 21
499.50001550000002
  0
ARC
  8
_0-0_0
  6
CONTINUOUS
 62
    7
 10
74.428954999999974
 20
502.60002150000003
 40
8
 50
337.20097500000003
 51
342.54240199999998
  0
LINE
  8
_0-0_0
  6
CONTINUOUS
 62
    7
 10
82.060485999999969
 20
500.20002750000003
 11
82.120513999999957
 21
500.40000950000001
  0
LINE
  8
_0-0_0
  6
CONTINUOUS
 62
    7
 10
82.120513999999957
 20
500.40000950000001
 11
82.174927000000025
 21
500.60002150000003
  0
ARC
  8
_0-0_0
  6
CONTINUOUS
 62
    7
 10
74.428954999999974
 20
502.60002150000003
 40
8
 50
345.52249499999999
 51
350.64797900000002
  0
LINE
  8
_0-0_0
  6
CONTINUOUS
 62
    7
 10
82.322631999999999
 20
501.30000250000001
 11
82.352981999999997
 21
501.50001550000002
  0
LINE
  8
_0-0_0
  6
CONTINUOUS
 62
    7
 10
82.352981999999997
 20
501.50001550000002
 11
82.378173999999944
 21
501.70002750000003
  0
ARC
  8
_0-0_0
  6
CONTINUOUS
 62
    7
 10
74.428954999999974
 20
502.60002150000003
 40
8
 50
353.54056400000002
 51
358.56744600000002
  0
LINE
  8
_0-0_0
  6
CONTINUOUS
 62
    7
 10
82.426468
 20
502.40000950000001
 11
82.428969999999993
 21
502.60002150000003
  0
LINE
  8
_0-0_0
  6
CONTINUOUS
 62
    7
 10
66.429275999999959
 20
502.52931149999995
 11
66.428954999999974
 21
502.60002150000003
  0
LINE
  8
_0-0_0
  6
CONTINUOUS
 62
    7
 10
66.431458000000021
 20
502.40000950000001
 11
66.429275999999959
 21
502.52931149999995
  0
ARC
  8
_0-0_0
  6
CONTINUOUS
 62
    7
 10
74.428954999999974
 20
502.60002150000003
 40
8
 50
181.432545
 51
186.45945499999999
  0
LINE
  8
_0-0_0
  6
CONTINUOUS
 62
    7
 10
66.495452999999998
 20
501.57072449999998
 11
66.479751999999962
 21
501.70002750000003
  0
LINE
  8
_0-0_0
  6
CONTINUOUS
 62
    7
 10
66.495452999999998
 20
501.57072449999998
 11
66.515076000000022
 21
501.42930550000005
  0
LINE
  8
_0-0_0
  6
CONTINUOUS
 62
    7
 10
66.535294000000022
 20
501.30000250000001
 11
66.515076000000022
 21
501.42930550000005
  0
ARC
  8
_0-0_0
  6
CONTINUOUS
 62
    7
 10
74.428954999999974
 20
502.60002150000003
 40
8
 50
189.35203999999999
 51
194.47751
  0
LINE
  8
_0-0_0
  6
CONTINUOUS
 62
    7
 10
66.717529000000013
 20
500.47071849999998
 11
66.682998999999995
 21
500.60002150000003
  0
LINE
  8
_0-0_0
  6
CONTINUOUS
 62
    7
 10
66.717529000000013
 20
500.47071849999998
 11
66.757995999999991
 21
500.32929950000005
  0
LINE
  8
_0-0_0
  6
CONTINUOUS
 62
    7
 10
66.797455000000014
 20
500.20002750000003
 11
66.757995999999991
 21
500.32929950000005
  0
ARC
  8
_0-0_0
  6
CONTINUOUS
 62
    7
 10
74.428954999999974
 20
502.60002150000003
 40
8
 50
197.45760300000001
 51
202.79902999999999
  0
LINE
  8
_0-0_0
  6
CONTINUOUS
 62
    7
 10
67.109694999999988
 20
499.37074250000001
 11
67.05401599999999
 21
499.50001550000002
  0
LINE
  8
_0-0_0
  6
CONTINUOUS
 62
    7
 10
67.109694999999988
 20
499.37074250000001
 11
67.17373699999996
 21
499.22929350000004
  0
LINE
  8
_0-0_0
  6
CONTINUOUS
 62
    7
 10
67.235213999999985
 20
499.10002150000003
 11
67.17373699999996
 21
499.22929350000004
  0
ARC
  8
_0-0_0
  6
CONTINUOUS
 62
    7
 10
74.428954999999974
 20
502.60002150000003
 40
8
 50
205.94448199999999
 51
211.66823500000001
  0
LINE
  8
_0-0_0
  6
CONTINUOUS
 62
    7
 10
67.70161399999995
 20
498.2707365
 11
67.620147999999972
 21
498.40000950000001
  0
LINE
  8
_0-0_0
  6
CONTINUOUS
 62
    7
 10
67.70161399999995
 20
498.2707365
 11
67.794754000000012
 21
498.12931849999995
  0
LINE
  8
_0-0_0
  6
CONTINUOUS
 62
    7
 10
902.42889400000001
 20
490.30000250000001
 11
909.42889400000001
 21
490.30000250000001
  0
ARC
  8
_0-0_0
  6
CONTINUOUS
 62
    7
 10
902.42889400000001
 20
489.80000250000001
 40
0.5
 50
90.000003000000007
 51
180.00000900000001
  0
LINE
  8
_0-0_0
  6
CONTINUOUS
 62
    7
 10
901.92889400000001
 20
489.80000250000001
 11
901.92889400000001
 21
485.80000250000001
  0
ARC
  8
_0-0_0
  6
CONTINUOUS
 62
    7
 10
902.42889400000001
 20
485.80000250000001
 40
0.5
 50
180.00000900000003
 51
269.99999700000001
  0
LINE
  8
_0-0_0
  6
CONTINUOUS
 62
    7
 10
909.42889400000001
 20
485.30000250000001
 11
902.42889400000001
 21
485.30000250000001
  0
ARC
  8
_0-0_0
  6
CONTINUOUS
 62
    7
 10
909.42889400000001
 20
485.80000250000001
 40
0.5
 50
269.99999700000001
 51
0
  0
LINE
  8
_0-0_0
  6
CONTINUOUS
 62
    7
 10
909.92889400000001
 20
485.80000250000001
 11
909.92889400000001
 21
489.80000250000001
  0
ARC
  8
_0-0_0
  6
CONTINUOUS
 62
    7
 10
909.42889400000001
 20
489.80000250000001
 40
0.5
 50
0
 51
90.000003000000007
  0
ARC
  8
_0-0_0
  6
CONTINUOUS
 62
    7
 10
132.42895499999997
 20
489.80000250000001
 40
0.5
 50
90.000003000000007
 51
180.00000900000001
  0
LINE
  8
_0-0_0
  6
CONTINUOUS
 62
    7
 10
131.92895499999997
 20
489.80000250000001
 11
131.92895499999997
 21
485.80000250000001
  0
ARC
  8
_0-0_0
  6
CONTINUOUS
 62
    7
 10
132.42895499999997
 20
485.80000250000001
 40
0.5
 50
180.00000900000003
 51
269.99999700000001
  0
LINE
  8
_0-0_0
  6
CONTINUOUS
 62
    7
 10
139.42895499999997
 20
485.30000250000001
 11
132.42895499999997
 21
485.30000250000001
  0
ARC
  8
_0-0_0
  6
CONTINUOUS
 62
    7
 10
139.42895499999997
 20
485.80000250000001
 40
0.5
 50
269.99999700000001
 51
0
  0
LINE
  8
_0-0_0
  6
CONTINUOUS
 62
    7
 10
139.92895499999997
 20
485.80000250000001
 11
139.92895499999997
 21
489.80000250000001
  0
ARC
  8
_0-0_0
  6
CONTINUOUS
 62
    7
 10
139.42895499999997
 20
489.80000250000001
 40
0.5
 50
0
 51
90.000003000000007
  0
LINE
  8
_0-0_0
  6
CONTINUOUS
 62
    7
 10
132.42895499999997
 20
490.30000250000001
 11
139.42895499999997
 21
490.30000250000001
  0
LINE
  8
_0-0_0
  6
CONTINUOUS
 62
    7
 10
81.237777999999992
 20
498.40000950000001
 11
952.62005600000009
 21
498.40000950000001
  0
LINE
  8
_0-0_0
  6
CONTINUOUS
 62
    7
 10
81.622710999999981
 20
499.10002150000003
 11
952.23516899999993
 21
499.10002150000003
  0
LINE
  8
_0-0_0
  6
CONTINUOUS
 62
    7
 10
81.716613999999993
 20
499.30000250000001
 11
952.1412959999999
 21
499.30000250000001
  0
LINE
  8
_0-0_0
  6
CONTINUOUS
 62
    7
 10
81.803924999999992
 20
499.50001550000002
 11
952.05401599999993
 21
499.50001550000002
  0
LINE
  8
_0-0_0
  6
CONTINUOUS
 62
    7
 10
82.060485999999969
 20
500.20002750000003
 11
951.79742399999998
 21
500.20002750000003
  0
LINE
  8
_0-0_0
  6
CONTINUOUS
 62
    7
 10
82.120513999999957
 20
500.40000950000001
 11
951.73736599999995
 21
500.40000950000001
  0
LINE
  8
_0-0_0
  6
CONTINUOUS
 62
    7
 10
82.174927000000025
 20
500.60002150000003
 11
951.68292200000008
 21
500.60002150000003
  0
LINE
  8
_0-0_0
  6
CONTINUOUS
 62
    7
 10
82.322631999999999
 20
501.30000250000001
 11
951.53521699999999
 21
501.30000250000001
  0
LINE
  8
_0-0_0
  6
CONTINUOUS
 62
    7
 10
82.352981999999997
 20
501.50001550000002
 11
951.50494399999991
 21
501.50001550000002
  0
LINE
  8
_0-0_0
  6
CONTINUOUS
 62
    7
 10
82.378173999999944
 20
501.70002750000003
 11
951.47967499999993
 21
501.70002750000003
  0
LINE
  8
_0-0_0
  6
CONTINUOUS
 62
    7
 10
82.426468
 20
502.40000950000001
 11
951.43145799999991
 21
502.40000950000001
  0
LINE
  8
_0-0_0
  6
CONTINUOUS
 62
    7
 10
82.428969999999993
 20
502.60002150000003
 11
951.42889400000001
 21
502.60002150000003
  0
LINE
  8
_0-0_0
  6
CONTINUOUS
 62
    7
 10
965.97418200000004
 20
507.20002750000003
 11
966.0631709999999
 21
507.07072449999998
  0
ARC
  8
_0-0_0
  6
CONTINUOUS
 62
    7
 10
959.42889400000001
 20
502.60002150000003
 40
8
 50
35.099632
 51
144.900373
  0
LINE
  8
_0-0_0
  6
CONTINUOUS
 62
    7
 10
952.88372799999991
 20
507.20002750000003
 11
952.79473900000005
 21
507.07072449999998
  0
LINE
  8
_0-0_0
  6
CONTINUOUS
 62
    7
 10
952.70159899999987
 20
506.92930550000005
 11
952.79473900000005
 21
507.07072449999998
  0
LINE
  8
_0-0_0
  6
CONTINUOUS
 62
    7
 10
952.70159899999987
 20
506.92930550000005
 11
952.62005600000009
 21
506.80000250000001
  0
ARC
  8
_0-0_0
  6
CONTINUOUS
 62
    7
 10
959.42889400000001
 20
502.60002150000003
 40
8
 50
148.33176499999999
 51
154.05551800000001
  0
LINE
  8
_0-0_0
  6
CONTINUOUS
 62
    7
 10
952.23516899999993
 20
506.10002150000003
 11
952.1412959999999
 21
505.90000950000001
  0
LINE
  8
_0-0_0
  6
CONTINUOUS
 62
    7
 10
952.1412959999999
 20
505.90000950000001
 11
952.05401599999993
 21
505.70002750000003
  0
ARC
  8
_0-0_0
  6
CONTINUOUS
 62
    7
 10
959.42889400000001
 20
502.60002150000003
 40
8
 50
157.20097000000001
 51
162.54239699999999
  0
LINE
  8
_0-0_0
  6
CONTINUOUS
 62
    7
 10
951.79742399999998
 20
505.00001550000002
 11
951.73736599999995
 21
504.80000250000001
  0
LINE
  8
_0-0_0
  6
CONTINUOUS
 62
    7
 10
951.73736599999995
 20
504.80000250000001
 11
951.68292200000008
 21
504.60002150000003
  0
ARC
  8
_0-0_0
  6
CONTINUOUS
 62
    7
 10
959.42889400000001
 20
502.60002150000003
 40
8
 50
165.52249
 51
170.64796000000001
  0
LINE
  8
_0-0_0
  6
CONTINUOUS
 62
    7
 10
951.53521699999999
 20
503.90000950000001
 11
951.50494399999991
 21
503.70002750000003
  0
LINE
  8
_0-0_0
  6
CONTINUOUS
 62
    7
 10
951.50494399999991
 20
503.70002750000003
 11
951.47967499999993
 21
503.50001550000002
  0
ARC
  8
_0-0_0
  6
CONTINUOUS
 62
    7
 10
959.42889400000001
 20
502.60002150000003
 40
8
 50
173.54054500000001
 51
178.567455
  0
LINE
  8
_0-0_0
  6
CONTINUOUS
 62
    7
 10
951.43145799999991
 20
502.80000250000001
 11
951.42889400000001
 21
502.60002150000003
  0
LINE
  8
_0-0_0
  6
CONTINUOUS
 62
    7
 10
967.42645299999992
 20
502.80000250000001
 11
967.42889400000001
 21
502.60002150000003
  0
ARC
  8
_0-0_0
  6
CONTINUOUS
 62
    7
 10
959.42889400000001
 20
502.60002150000003
 40
8
 50
1.432544
 51
6.4594489999999993
  0
LINE
  8
_0-0_0
  6
CONTINUOUS
 62
    7
 10
967.35296600000004
 20
503.70002750000003
 11
967.3781130000001
 21
503.50001550000002
  0
LINE
  8
_0-0_0
  6
CONTINUOUS
 62
    7
 10
967.32257100000004
 20
503.90000950000001
 11
967.35296600000004
 21
503.70002750000003
  0
ARC
  8
_0-0_0
  6
CONTINUOUS
 62
    7
 10
959.42889400000001
 20
502.60002150000003
 40
8
 50
9.3520350000000008
 51
14.477510999999998
  0
LINE
  8
_0-0_0
  6
CONTINUOUS
 62
    7
 10
967.12042200000008
 20
504.80000250000001
 11
967.17486599999995
 21
504.60002150000003
  0
LINE
  8
_0-0_0
  6
CONTINUOUS
 62
    7
 10
967.06048599999997
 20
505.00001550000002
 11
967.12042200000008
 21
504.80000250000001
  0
ARC
  8
_0-0_0
  6
CONTINUOUS
 62
    7
 10
959.42889400000001
 20
502.60002150000003
 40
8
 50
17.457602999999999
 51
22.799030999999999
  0
LINE
  8
_0-0_0
  6
CONTINUOUS
 62
    7
 10
966.71661400000005
 20
505.90000950000001
 11
966.80389400000001
 21
505.70002750000003
  0
LINE
  8
_0-0_0
  6
CONTINUOUS
 62
    7
 10
966.62261999999998
 20
506.10002150000003
 11
966.71661400000005
 21
505.90000950000001
  0
ARC
  8
_0-0_0
  6
CONTINUOUS
 62
    7
 10
959.42889400000001
 20
502.60002150000003
 40
8
 50
25.944476999999999
 51
31.668240000000001
  0
LINE
  8
_0-0_0
  6
CONTINUOUS
 62
    7
 10
966.15631100000007
 20
506.92930550000005
 11
966.23773199999994
 21
506.80000250000001
  0
LINE
  8
_0-0_0
  6
CONTINUOUS
 62
    7
 10
966.15631100000007
 20
506.92930550000005
 11
966.0631709999999
 21
507.07072449999998
  0
CIRCLE
  8
_0-0_0
  6
CONTINUOUS
 62
    7
 10
959.42889400000001
 20
502.60002150000003
 40
7.5
  0
LINE
  8
_0-0_0
  6
CONTINUOUS
 62
    7
 10
967.42645299999992
 20
502.40000950000001
 11
968.42889400000001
 21
502.40000950000001
  0
LINE
  8
_0-0_0
  6
CONTINUOUS
 62
    7
 10
967.42889400000001
 20
502.60002150000003
 11
968.42889400000001
 21
502.60002150000003
  0
LINE
  8
_0-0_0
  6
CONTINUOUS
 62
    7
 10
967.3781130000001
 20
501.70002750000003
 11
968.42889400000001
 21
501.70002750000003
  0
LINE
  8
_0-0_0
  6
CONTINUOUS
 62
    7
 10
967.35296600000004
 20
501.50001550000002
 11
968.42889400000001
 21
501.50001550000002
  0
LINE
  8
_0-0_0
  6
CONTINUOUS
 62
    7
 10
967.32257100000004
 20
501.30000250000001
 11
968.42889400000001
 21
501.30000250000001
  0
LINE
  8
_0-0_0
  6
CONTINUOUS
 62
    7
 10
967.17486599999995
 20
500.60002150000003
 11
968.42889400000001
 21
500.60002150000003
  0
LINE
  8
_0-0_0
  6
CONTINUOUS
 62
    7
 10
967.12042200000008
 20
500.40000950000001
 11
968.42889400000001
 21
500.40000950000001
  0
LINE
  8
_0-0_0
  6
CONTINUOUS
 62
    7
 10
967.06048599999997
 20
500.20002750000003
 11
968.42889400000001
 21
500.20002750000003
  0
LINE
  8
_0-0_0
  6
CONTINUOUS
 62
    7
 10
966.80389400000001
 20
499.50001550000002
 11
968.42889400000001
 21
499.50001550000002
  0
LINE
  8
_0-0_0
  6
CONTINUOUS
 62
    7
 10
966.71661400000005
 20
499.30000250000001
 11
968.42889400000001
 21
499.30000250000001
  0
LINE
  8
_0-0_0
  6
CONTINUOUS
 62
    7
 10
966.62261999999998
 20
499.10002150000003
 11
968.42889400000001
 21
499.10002150000003
  0
LINE
  8
_0-0_0
  6
CONTINUOUS
 62
    7
 10
966.23773199999994
 20
498.40000950000001
 11
968.42889400000001
 21
498.40000950000001
  0
LINE
  8
_0-0_0
  6
CONTINUOUS
 62
    7
 10
966.23773199999994
 20
506.80000250000001
 11
968.42889400000001
 21
506.80000250000001
  0
LINE
  8
_0-0_0
  6
CONTINUOUS
 62
    7
 10
966.62261999999998
 20
506.10002150000003
 11
968.42889400000001
 21
506.10002150000003
  0
LINE
  8
_0-0_0
  6
CONTINUOUS
 62
    7
 10
966.71661400000005
 20
505.90000950000001
 11
968.42889400000001
 21
505.90000950000001
  0
LINE
  8
_0-0_0
  6
CONTINUOUS
 62
    7
 10
966.80389400000001
 20
505.70002750000003
 11
968.42889400000001
 21
505.70002750000003
  0
LINE
  8
_0-0_0
  6
CONTINUOUS
 62
    7
 10
967.06048599999997
 20
505.00001550000002
 11
968.42889400000001
 21
505.00001550000002
  0
LINE
  8
_0-0_0
  6
CONTINUOUS
 62
    7
 10
967.12042200000008
 20
504.80000250000001
 11
968.42889400000001
 21
504.80000250000001
  0
LINE
  8
_0-0_0
  6
CONTINUOUS
 62
    7
 10
967.17486599999995
 20
504.60002150000003
 11
968.42889400000001
 21
504.60002150000003
  0
LINE
  8
_0-0_0
  6
CONTINUOUS
 62
    7
 10
967.32257100000004
 20
503.90000950000001
 11
968.42889400000001
 21
503.90000950000001
  0
LINE
  8
_0-0_0
  6
CONTINUOUS
 62
    7
 10
967.35296600000004
 20
503.70002750000003
 11
968.42889400000001
 21
503.70002750000003
  0
LINE
  8
_0-0_0
  6
CONTINUOUS
 62
    7
 10
967.3781130000001
 20
503.50001550000002
 11
968.42889400000001
 21
503.50001550000002
  0
LINE
  8
_0-0_0
  6
CONTINUOUS
 62
    7
 10
967.42645299999992
 20
502.80000250000001
 11
968.42889400000001
 21
502.80000250000001
  0
LINE
  8
_0-0_0
  6
CONTINUOUS
 62
    7
 10
968.92889400000001
 20
486.10002150000003
 11
968.42889400000001
 21
486.10002150000003
  0
LINE
  8
_0-0_0
  6
CONTINUOUS
 62
    7
 10
968.92889400000001
 20
488.30000250000001
 11
968.42889400000001
 21
488.30000250000001
  0
LINE
  8
_0-0_0
  6
CONTINUOUS
 62
    7
 10
968.92889400000001
 20
490.60002150000003
 11
968.42889400000001
 21
490.60002150000003
  0
LINE
  8
_0-0_0
  6
CONTINUOUS
 62
    7
 10
65.428954999999974
 20
490.60002150000003
 11
64.928954999999974
 21
490.60002150000003
  0
LINE
  8
_0-0_0
  6
CONTINUOUS
 62
    7
 10
968.42889400000001
 20
492.90000950000001
 11
968.92889400000001
 21
492.90000950000001
  0
LINE
  8
_0-0_0
  6
CONTINUOUS
 62
    7
 10
968.92889400000001
 20
513.10002150000003
 11
968.92889400000001
 21
513.00001550000002
  0
LINE
  8
_0-0_0
  6
CONTINUOUS
 62
    7
 10
64.928954999999974
 20
513.10002150000003
 11
64.928954999999974
 21
513.00001550000002
  0
LINE
  8
_0-0_0
  6
CONTINUOUS
 62
    7
 10
64.928954999999974
 20
492.90000950000001
 11
65.428954999999974
 21
492.90000950000001
  0
LINE
  8
_0-0_0
  6
CONTINUOUS
 62
    7
 10
65.428954999999974
 20
512.80000250000001
 11
968.42889400000001
 21
512.80000250000001
  0
LINE
  8
_0-0_0
  6
CONTINUOUS
 62
    7
 10
65.428954999999974
 20
512.20603949999997
 11
968.42889400000001
 21
512.20603949999997
  0
LINE
  8
_0-0_0
  6
CONTINUOUS
 62
    7
 10
965.97418200000004
 20
507.20002750000003
 11
968.42889400000001
 21
507.20002750000003
  0
LINE
  8
_0-0_0
  6
CONTINUOUS
 62
    7
 10
65.428954999999974
 20
507.20002750000003
 11
67.883728000000019
 21
507.20002750000003
  0
ARC
  8
_0-0_0
  6
CONTINUOUS
 62
    7
 10
74.428954999999974
 20
502.60002150000003
 40
8
 50
35.099632
 51
144.900373
  0
LINE
  8
_0-0_0
  6
CONTINUOUS
 62
    7
 10
80.974181999999985
 20
507.20002750000003
 11
952.88372799999991
 21
507.20002750000003
  0
LINE
  8
_0-0_0
  6
CONTINUOUS
 62
    7
 10
64.928954999999974
 20
486.10002150000003
 11
65.428954999999974
 21
486.10002150000003
  0
LINE
  8
_0-0_0
  6
CONTINUOUS
 62
    7
 10
65.428954999999974
 20
488.30000250000001
 11
64.928954999999974
 21
488.30000250000001
  0
LINE
  8
_0-0_0
  6
CONTINUOUS
 62
    7
 10
67.883728000000019
 20
507.20002750000003
 11
67.794754000000012
 21
507.07072449999998
  0
LINE
  8
_0-0_0
  6
CONTINUOUS
 62
    7
 10
67.70161399999995
 20
506.92930550000005
 11
67.794754000000012
 21
507.07072449999998
  0
LINE
  8
_0-0_0
  6
CONTINUOUS
 62
    7
 10
65.428954999999974
 20
506.80000250000001
 11
67.620147999999972
 21
506.80000250000001
  0
LINE
  8
_0-0_0
  6
CONTINUOUS
 62
    7
 10
67.70161399999995
 20
506.92930550000005
 11
67.620147999999972
 21
506.80000250000001
  0
ARC
  8
_0-0_0
  6
CONTINUOUS
 62
    7
 10
74.428954999999974
 20
502.60002150000003
 40
8
 50
148.33176499999999
 51
154.05551800000001
  0
LINE
  8
_0-0_0
  6
CONTINUOUS
 62
    7
 10
65.428954999999974
 20
506.10002150000003
 11
67.235213999999985
 21
506.10002150000003
  0
LINE
  8
_0-0_0
  6
CONTINUOUS
 62
    7
 10
67.235213999999985
 20
506.10002150000003
 11
67.17373699999996
 21
505.97071849999998
  0
LINE
  8
_0-0_0
  6
CONTINUOUS
 62
    7
 10
67.109694999999988
 20
505.82929950000005
 11
67.17373699999996
 21
505.97071849999998
  0
LINE
  8
_0-0_0
  6
CONTINUOUS
 62
    7
 10
65.428954999999974
 20
505.70002750000003
 11
67.05401599999999
 21
505.70002750000003
  0
LINE
  8
_0-0_0
  6
CONTINUOUS
 62
    7
 10
67.109694999999988
 20
505.82929950000005
 11
67.05401599999999
 21
505.70002750000003
  0
ARC
  8
_0-0_0
  6
CONTINUOUS
 62
    7
 10
74.428954999999974
 20
502.60002150000003
 40
8
 50
157.20097000000001
 51
162.54239699999999
  0
LINE
  8
_0-0_0
  6
CONTINUOUS
 62
    7
 10
65.428954999999974
 20
505.00001550000002
 11
66.797455000000014
 21
505.00001550000002
  0
LINE
  8
_0-0_0
  6
CONTINUOUS
 62
    7
 10
66.797455000000014
 20
505.00001550000002
 11
66.757995999999991
 21
504.87074250000001
  0
LINE
  8
_0-0_0
  6
CONTINUOUS
 62
    7
 10
66.717529000000013
 20
504.72929350000004
 11
66.757995999999991
 21
504.87074250000001
  0
LINE
  8
_0-0_0
  6
CONTINUOUS
 62
    7
 10
65.428954999999974
 20
504.60002150000003
 11
66.682998999999995
 21
504.60002150000003
  0
LINE
  8
_0-0_0
  6
CONTINUOUS
 62
    7
 10
66.717529000000013
 20
504.72929350000004
 11
66.682998999999995
 21
504.60002150000003
  0
ARC
  8
_0-0_0
  6
CONTINUOUS
 62
    7
 10
74.428954999999974
 20
502.60002150000003
 40
8
 50
165.52249
 51
170.64796000000001
  0
LINE
  8
_0-0_0
  6
CONTINUOUS
 62
    7
 10
65.428954999999974
 20
503.90000950000001
 11
66.535294000000022
 21
503.90000950000001
  0
LINE
  8
_0-0_0
  6
CONTINUOUS
 62
    7
 10
66.535294000000022
 20
503.90000950000001
 11
66.515076000000022
 21
503.7707365
  0
LINE
  8
_0-0_0
  6
CONTINUOUS
 62
    7
 10
66.495452999999998
 20
503.62931849999995
 11
66.515076000000022
 21
503.7707365
  0
LINE
  8
_0-0_0
  6
CONTINUOUS
 62
    7
 10
65.428954999999974
 20
503.50001550000002
 11
66.479751999999962
 21
503.50001550000002
  0
LINE
  8
_0-0_0
  6
CONTINUOUS
 62
    7
 10
66.495452999999998
 20
503.62931849999995
 11
66.479751999999962
 21
503.50001550000002
  0
ARC
  8
_0-0_0
  6
CONTINUOUS
 62
    7
 10
74.428954999999974
 20
502.60002150000003
 40
8
 50
173.54054500000001
 51
178.567455
  0
LINE
  8
_0-0_0
  6
CONTINUOUS
 62
    7
 10
65.428954999999974
 20
502.80000250000001
 11
66.431458000000021
 21
502.80000250000001
  0
LINE
  8
_0-0_0
  6
CONTINUOUS
 62
    7
 10
66.431458000000021
 20
502.80000250000001
 11
66.429275999999959
 21
502.67073049999999
  0
LINE
  8
_0-0_0
  6
CONTINUOUS
 62
    7
 10
66.428954999999974
 20
502.60002150000003
 11
66.429275999999959
 21
502.67073049999999
  0
LINE
  8
_0-0_0
  6
CONTINUOUS
 62
    7
 10
65.428954999999974
 20
502.40000950000001
 11
66.431458000000021
 21
502.40000950000001
  0
LINE
  8
_0-0_0
  6
CONTINUOUS
 62
    7
 10
65.428954999999974
 20
501.70002750000003
 11
66.479751999999962
 21
501.70002750000003
  0
LINE
  8
_0-0_0
  6
CONTINUOUS
 62
    7
 10
65.428954999999974
 20
501.30000250000001
 11
66.535294000000022
 21
501.30000250000001
  0
LINE
  8
_0-0_0
  6
CONTINUOUS
 62
    7
 10
65.428954999999974
 20
500.60002150000003
 11
66.682998999999995
 21
500.60002150000003
  0
LINE
  8
_0-0_0
  6
CONTINUOUS
 62
    7
 10
65.428954999999974
 20
500.20002750000003
 11
66.797455000000014
 21
500.20002750000003
  0
LINE
  8
_0-0_0
  6
CONTINUOUS
 62
    7
 10
65.428954999999974
 20
499.50001550000002
 11
67.05401599999999
 21
499.50001550000002
  0
LINE
  8
_0-0_0
  6
CONTINUOUS
 62
    7
 10
65.428954999999974
 20
499.10002150000003
 11
67.235213999999985
 21
499.10002150000003
  0
LINE
  8
_0-0_0
  6
CONTINUOUS
 62
    7
 10
65.428954999999974
 20
498.40000950000001
 11
67.620147999999972
 21
498.40000950000001
  0
LINE
  8
_0-0_0
  6
CONTINUOUS
 62
    7
 10
82.426468
 20
502.80000250000001
 11
82.428969999999993
 21
502.60002150000003
  0
ARC
  8
_0-0_0
  6
CONTINUOUS
 62
    7
 10
74.428954999999974
 20
502.60002150000003
 40
8
 50
1.432544
 51
6.4594489999999993
  0
LINE
  8
_0-0_0
  6
CONTINUOUS
 62
    7
 10
82.352981999999997
 20
503.70002750000003
 11
82.378173999999944
 21
503.50001550000002
  0
LINE
  8
_0-0_0
  6
CONTINUOUS
 62
    7
 10
82.322631999999999
 20
503.90000950000001
 11
82.352981999999997
 21
503.70002750000003
  0
ARC
  8
_0-0_0
  6
CONTINUOUS
 62
    7
 10
74.428954999999974
 20
502.60002150000003
 40
8
 50
9.3520350000000008
 51
14.477510999999998
  0
LINE
  8
_0-0_0
  6
CONTINUOUS
 62
    7
 10
82.120513999999957
 20
504.80000250000001
 11
82.174927000000025
 21
504.60002150000003
  0
LINE
  8
_0-0_0
  6
CONTINUOUS
 62
    7
 10
82.060485999999969
 20
505.00001550000002
 11
82.120513999999957
 21
504.80000250000001
  0
ARC
  8
_0-0_0
  6
CONTINUOUS
 62
    7
 10
74.428954999999974
 20
502.60002150000003
 40
8
 50
17.457602999999999
 51
22.799030999999999
  0
LINE
  8
_0-0_0
  6
CONTINUOUS
 62
    7
 10
81.716613999999993
 20
505.90000950000001
 11
81.803924999999992
 21
505.70002750000003
  0
LINE
  8
_0-0_0
  6
CONTINUOUS
 62
    7
 10
81.622710999999981
 20
506.10002150000003
 11
81.716613999999993
 21
505.90000950000001
  0
ARC
  8
_0-0_0
  6
CONTINUOUS
 62
    7
 10
74.428954999999974
 20
502.60002150000003
 40
8
 50
25.944476999999999
 51
31.668240000000001
  0
LINE
  8
_0-0_0
  6
CONTINUOUS
 62
    7
 10
81.15631099999996
 20
506.92930550000005
 11
81.237777999999992
 21
506.80000250000001
  0
LINE
  8
_0-0_0
  6
CONTINUOUS
 62
    7
 10
81.15631099999996
 20
506.92930550000005
 11
81.063171000000011
 21
507.07072449999998
  0
LINE
  8
_0-0_0
  6
CONTINUOUS
 62
    7
 10
80.974181999999985
 20
507.20002750000003
 11
81.063171000000011
 21
507.07072449999998
  0
CIRCLE
  8
_0-0_0
  6
CONTINUOUS
 62
    7
 10
74.428954999999974
 20
502.60002150000003
 40
7.5
  0
LINE
  8
_0-0_0
  6
CONTINUOUS
 62
    7
 10
82.426468
 20
502.80000250000001
 11
951.43145799999991
 21
502.80000250000001
  0
LINE
  8
_0-0_0
  6
CONTINUOUS
 62
    7
 10
82.378173999999944
 20
503.50001550000002
 11
951.47967499999993
 21
503.50001550000002
  0
LINE
  8
_0-0_0
  6
CONTINUOUS
 62
    7
 10
82.352981999999997
 20
503.70002750000003
 11
951.50494399999991
 21
503.70002750000003
  0
LINE
  8
_0-0_0
  6
CONTINUOUS
 62
    7
 10
82.322631999999999
 20
503.90000950000001
 11
951.53521699999999
 21
503.90000950000001
  0
LINE
  8
_0-0_0
  6
CONTINUOUS
 62
    7
 10
82.174927000000025
 20
504.60002150000003
 11
951.68292200000008
 21
504.60002150000003
  0
LINE
  8
_0-0_0
  6
CONTINUOUS
 62
    7
 10
82.120513999999957
 20
504.80000250000001
 11
951.73736599999995
 21
504.80000250000001
  0
LINE
  8
_0-0_0
  6
CONTINUOUS
 62
    7
 10
82.060485999999969
 20
505.00001550000002
 11
951.79742399999998
 21
505.00001550000002
  0
LINE
  8
_0-0_0
  6
CONTINUOUS
 62
    7
 10
81.803924999999992
 20
505.70002750000003
 11
952.05401599999993
 21
505.70002750000003
  0
LINE
  8
_0-0_0
  6
CONTINUOUS
 62
    7
 10
81.716613999999993
 20
505.90000950000001
 11
952.1412959999999
 21
505.90000950000001
  0
LINE
  8
_0-0_0
  6
CONTINUOUS
 62
    7
 10
81.622710999999981
 20
506.10002150000003
 11
952.23516899999993
 21
506.10002150000003
  0
LINE
  8
_0-0_0
  6
CONTINUOUS
 62
    7
 10
81.237777999999992
 20
506.80000250000001
 11
952.62005600000009
 21
506.80000250000001
  0
LINE
  8
_0-0_0
  6
CONTINUOUS
 62
    7
 10
968.92889400000001
 20
484.60002150000003
 11
968.42889400000001
 21
484.60002150000003
  0
LINE
  8
_0-0_0
  6
CONTINUOUS
 62
    7
 10
968.92889400000001
 20
512.20002750000003
 11
968.92889400000001
 21
513.00001550000002
  0
LINE
  8
_0-0_0
  6
CONTINUOUS
 62
    7
 10
968.92889400000001
 20
484.40000950000001
 11
968.92889400000001
 21
512.20002750000003
  0
ARC
  8
_0-0_0
  6
CONTINUOUS
 62
    7
 10
959.42889400000001
 20
503.30000250000001
 40
12.800000000000001
 50
73.932597000000001
 51
106.06740099999999
  0
LINE
  8
_0-0_0
  6
CONTINUOUS
 62
    7
 10
64.928954999999974
 20
512.20002750000003
 11
64.928954999999974
 21
513.00001550000002
  0
LINE
  8
_0-0_0
  6
CONTINUOUS
 62
    7
 10
64.928954999999974
 20
484.40000950000001
 11
64.928954999999974
 21
512.20002750000003
  0
ARC
  8
_0-0_0
  6
CONTINUOUS
 62
    7
 10
74.428954999999974
 20
503.30000250000001
 40
12.800000000000001
 50
73.932597000000001
 51
106.06740099999999
  0
LINE
  8
_0-0_0
  6
CONTINUOUS
 62
    7
 10
507.42895499999997
 20
515.59999049999999
 11
507.42895499999997
 21
521.23991350000006
  0
LINE
  8
_0-0_0
  6
CONTINUOUS
 62
    7
 10
526.42895499999997
 20
521.23991350000006
 11
526.42895499999997
 21
515.59999049999999
  0
LINE
  8
_0-0_0
  6
CONTINUOUS
 62
    7
 10
968.92889400000001
 20
513.10002150000003
 11
968.92889400000001
 21
515.60002150000003
  0
LINE
  8
_0-0_0
  6
CONTINUOUS
 62
    7
 10
64.928954999999974
 20
515.60002150000003
 11
968.92889400000001
 21
515.60002150000003
  0
LINE
  8
_0-0_0
  6
CONTINUOUS
 62
    7
 10
64.928954999999974
 20
513.10002150000003
 11
64.928954999999974
 21
515.60002150000003
  0
LINE
  8
_0-0_0
  6
CONTINUOUS
 62
    7
 10
64.928954999999974
 20
484.60002150000003
 11
65.428954999999974
 21
484.60002150000003
  0
ARC
  8
_0-0_0
  6
CONTINUOUS
 62
    7
 10
907.22894299999996
 20
489.50001550000002
 40
0.2
 50
339.62356199999999
 51
90.000002999999978
  0
LINE
  8
_0-0_0
  6
CONTINUOUS
 62
    7
 10
907.41644299999996
 20
489.43037449999997
 11
906.11639400000001
 21
485.93037449999997
  0
ARC
  8
_0-0_0
  6
CONTINUOUS
 62
    7
 10
905.92889400000001
 20
486.00001550000002
 40
0.2
 50
200.37643
 51
339.62356199999999
  0
LINE
  8
_0-0_0
  6
CONTINUOUS
 62
    7
 10
904.44146699999999
 20
489.43037449999997
 11
905.74139400000001
 21
485.93037449999997
  0
ARC
  8
_0-0_0
  6
CONTINUOUS
 62
    7
 10
904.62896699999999
 20
489.50001550000002
 40
0.2
 50
90.000003000000007
 51
200.37643
  0
LINE
  8
_0-0_0
  6
CONTINUOUS
 62
    7
 10
904.62896699999999
 20
489.70002750000003
 11
907.22894299999996
 21
489.70002750000003
  0
ARC
  8
_0-0_0
  6
CONTINUOUS
 62
    7
 10
137.22894299999996
 20
489.50001550000002
 40
0.2
 50
339.62356199999999
 51
90.000002999999978
  0
LINE
  8
_0-0_0
  6
CONTINUOUS
 62
    7
 10
137.41644299999996
 20
489.43037449999997
 11
136.11645499999997
 21
485.93037449999997
  0
ARC
  8
_0-0_0
  6
CONTINUOUS
 62
    7
 10
135.92895499999997
 20
486.00001550000002
 40
0.2
 50
200.37643
 51
339.62356199999999
  0
LINE
  8
_0-0_0
  6
CONTINUOUS
 62
    7
 10
134.44146699999999
 20
489.43037449999997
 11
135.74145499999997
 21
485.93037449999997
  0
ARC
  8
_0-0_0
  6
CONTINUOUS
 62
    7
 10
134.62896699999999
 20
489.50001550000002
 40
0.2
 50
90.000003000000007
 51
200.37643
  0
LINE
  8
_0-0_0
  6
CONTINUOUS
 62
    7
 10
134.62896699999999
 20
489.70002750000003
 11
137.22894299999996
 21
489.70002750000003
  0
LINE
  8
_0-0_0
  6
CONTINUOUS
 62
    7
 10
969.92889400000001
 20
512.20002750000003
 11
968.92889400000001
 21
512.20002750000003
  0
LINE
  8
_0-0_0
  6
CONTINUOUS
 62
    7
 10
969.92889400000001
 20
513.23701449999999
 11
968.92889400000001
 21
513.23701449999999
  0
LINE
  8
_0-0_0
  6
CONTINUOUS
 62
    7
 10
969.92889400000001
 20
484.40000950000001
 11
968.92889400000001
 21
484.40000950000001
  0
ARC
  8
_0-0_0
  6
CONTINUOUS
 62
    7
 10
516.92895499999997
 20
503.30000250000001
 40
20.299999
 50
62.096725999999997
 51
117.903272
  0
CIRCLE
  8
_0-0_0
  6
CONTINUOUS
 62
    7
 10
516.92895499999997
 20
519.60002150000003
 40
2.5
  0
LINE
  8
_0-0_0
  6
CONTINUOUS
 62
    7
 10
63.928954999999974
 20
512.20002750000003
 11
64.928954999999974
 21
512.20002750000003
  0
LINE
  8
_0-0_0
  6
CONTINUOUS
 62
    7
 10
63.928954999999974
 20
513.20002750000003
 11
64.928954999999974
 21
513.20002750000003
  0
LINE
  8
_0-0_0
  6
CONTINUOUS
 62
    7
 10
63.928954999999974
 20
484.40000950000001
 11
64.928954999999974
 21
484.40000950000001
  0
LINE
  8
_0-0_0
  6
CONTINUOUS
 62
    7
 10
969.92889400000001
 20
515.40000950000001
 11
968.92889400000001
 21
515.40000950000001
  0
LINE
  8
_0-0_0
  6
CONTINUOUS
 62
    7
 10
63.928954999999974
 20
515.40000950000001
 11
64.928954999999974
 21
515.40000950000001
  0
LINE
  8
_0-0_0
  6
CONTINUOUS
 62
    7
 10
970.92889400000001
 20
511.78581250000002
 11
970.92791799999998
 21
511.80430550000005
  0
LINE
  8
_0-0_0
  6
CONTINUOUS
 62
    7
 10
970.92791799999998
 20
511.80430550000005
 11
970.9249880000001
 21
511.82273850000001
  0
LINE
  8
_0-0_0
  6
CONTINUOUS
 62
    7
 10
970.9249880000001
 20
511.82273850000001
 11
970.91973900000005
 21
511.84187350000002
  0
LINE
  8
_0-0_0
  6
CONTINUOUS
 62
    7
 10
970.91973900000005
 20
511.84187350000002
 11
970.91229299999998
 21
511.86091650000003
  0
LINE
  8
_0-0_0
  6
CONTINUOUS
 62
    7
 10
970.91229299999998
 20
511.86091650000003
 11
970.89178499999991
 21
511.8976285
  0
LINE
  8
_0-0_0
  6
CONTINUOUS
 62
    7
 10
970.89178499999991
 20
511.8976285
 11
970.86334199999999
 21
511.93330349999997
  0
LINE
  8
_0-0_0
  6
CONTINUOUS
 62
    7
 10
970.86334199999999
 20
511.93330349999997
 11
970.82745399999988
 21
511.96757449999996
  0
LINE
  8
_0-0_0
  6
CONTINUOUS
 62
    7
 10
970.82745399999988
 20
511.96757449999996
 11
970.77886999999998
 21
512.00404349999997
  0
LINE
  8
_0-0_0
  6
CONTINUOUS
 62
    7
 10
970.77886999999998
 20
512.00404349999997
 11
970.72210699999994
 21
512.0380705
  0
LINE
  8
_0-0_0
  6
CONTINUOUS
 62
    7
 10
970.72210699999994
 20
512.0380705
 11
970.65789800000005
 21
512.0693205
  0
LINE
  8
_0-0_0
  6
CONTINUOUS
 62
    7
 10
970.65789800000005
 20
512.0693205
 11
970.58734100000004
 21
512.09754950000001
  0
LINE
  8
_0-0_0
  6
CONTINUOUS
 62
    7
 10
970.58734100000004
 20
512.09754950000001
 11
970.53924599999993
 21
512.11390649999998
  0
LINE
  8
_0-0_0
  6
CONTINUOUS
 62
    7
 10
970.53924599999993
 20
512.11390649999998
 11
970.48907500000007
 21
512.12892150000005
  0
LINE
  8
_0-0_0
  6
CONTINUOUS
 62
    7
 10
970.48907500000007
 20
512.12892150000005
 11
970.43231200000002
 21
512.14369150000005
  0
LINE
  8
_0-0_0
  6
CONTINUOUS
 62
    7
 10
970.43231200000002
 20
512.14369150000005
 11
970.37371799999994
 21
512.15678349999996
  0
LINE
  8
_0-0_0
  6
CONTINUOUS
 62
    7
 10
970.37371799999994
 20
512.15678349999996
 11
970.25701900000001
 21
512.17707849999999
  0
LINE
  8
_0-0_0
  6
CONTINUOUS
 62
    7
 10
970.25701900000001
 20
512.17707849999999
 11
970.14959699999997
 21
512.18980350000004
  0
LINE
  8
_0-0_0
  6
CONTINUOUS
 62
    7
 10
970.14959699999997
 20
512.18980350000004
 11
970.03985599999999
 21
512.19746350000003
  0
LINE
  8
_0-0_0
  6
CONTINUOUS
 62
    7
 10
970.03985599999999
 20
512.19746350000003
 11
969.92889400000001
 21
512.20002750000003
  0
LINE
  8
_0-0_0
  6
CONTINUOUS
 62
    7
 10
970.92889400000001
 20
511.78581250000002
 11
970.92889400000001
 21
512.78587349999998
  0
LINE
  8
_0-0_0
  6
CONTINUOUS
 62
    7
 10
970.92889400000001
 20
512.78587349999998
 11
970.92596399999991
 21
512.81742850000001
  0
LINE
  8
_0-0_0
  6
CONTINUOUS
 62
    7
 10
970.92596399999991
 20
512.81742850000001
 11
970.91729700000008
 21
512.84950249999997
  0
LINE
  8
_0-0_0
  6
CONTINUOUS
 62
    7
 10
970.91729700000008
 20
512.84950249999997
 11
970.90277099999992
 21
512.88179049999997
  0
LINE
  8
_0-0_0
  6
CONTINUOUS
 62
    7
 10
970.90277099999992
 20
512.88179049999997
 11
970.88250699999992
 21
512.91395550000004
  0
LINE
  8
_0-0_0
  6
CONTINUOUS
 62
    7
 10
970.88250699999992
 20
512.91395550000004
 11
970.86590599999988
 21
512.93516550000004
  0
LINE
  8
_0-0_0
  6
CONTINUOUS
 62
    7
 10
970.86590599999988
 20
512.93516550000004
 11
970.84698500000002
 21
512.95613049999997
  0
LINE
  8
_0-0_0
  6
CONTINUOUS
 62
    7
 10
970.84698500000002
 20
512.95613049999997
 11
970.80218499999989
 21
512.99690250000003
  0
LINE
  8
_0-0_0
  6
CONTINUOUS
 62
    7
 10
970.80218499999989
 20
512.99690250000003
 11
970.74896200000001
 21
513.03565949999995
  0
LINE
  8
_0-0_0
  6
CONTINUOUS
 62
    7
 10
970.74896200000001
 20
513.03565949999995
 11
970.69903600000009
 21
513.06587249999995
  0
LINE
  8
_0-0_0
  6
CONTINUOUS
 62
    7
 10
970.69903600000009
 20
513.06587249999995
 11
970.64434799999992
 21
513.09407050000004
  0
LINE
  8
_0-0_0
  6
CONTINUOUS
 62
    7
 10
970.64434799999992
 20
513.09407050000004
 11
970.58538800000008
 21
513.12013249999995
  0
LINE
  8
_0-0_0
  6
CONTINUOUS
 62
    7
 10
970.58538800000008
 20
513.12013249999995
 11
970.538635
 21
513.13810750000005
  0
LINE
  8
_0-0_0
  6
CONTINUOUS
 62
    7
 10
970.538635
 20
513.13810750000005
 11
970.48992899999996
 21
513.15470849999997
  0
LINE
  8
_0-0_0
  6
CONTINUOUS
 62
    7
 10
970.48992899999996
 20
513.15470849999997
 11
970.3875119999999
 21
513.18360849999999
  0
LINE
  8
_0-0_0
  6
CONTINUOUS
 62
    7
 10
970.3875119999999
 20
513.18360849999999
 11
970.27984600000002
 21
513.2064365
  0
LINE
  8
_0-0_0
  6
CONTINUOUS
 62
    7
 10
970.27984600000002
 20
513.2064365
 11
970.168274
 21
513.22300749999999
  0
LINE
  8
_0-0_0
  6
CONTINUOUS
 62
    7
 10
970.168274
 20
513.22300749999999
 11
970.05413800000008
 21
513.23319949999996
  0
LINE
  8
_0-0_0
  6
CONTINUOUS
 62
    7
 10
970.05413800000008
 20
513.23319949999996
 11
969.92889400000001
 21
513.23701449999999
  0
ARC
  8
_0-0_0
  6
CONTINUOUS
 62
    7
 10
969.92889400000001
 20
485.40000950000001
 40
1
 50
269.99999700000001
 51
0
  0
LINE
  8
_0-0_0
  6
CONTINUOUS
 62
    7
 10
970.92889400000001
 20
485.40000950000001
 11
970.92889400000001
 21
511.78581250000002
  0
LINE
  8
_0-0_0
  6
CONTINUOUS
 62
    7
 10
62.928954999999974
 20
511.78581250000002
 11
62.929961999999989
 21
511.80430550000005
  0
LINE
  8
_0-0_0
  6
CONTINUOUS
 62
    7
 10
62.929961999999989
 20
511.80430550000005
 11
62.932952999999998
 21
511.82273850000001
  0
LINE
  8
_0-0_0
  6
CONTINUOUS
 62
    7
 10
62.932952999999998
 20
511.82273850000001
 11
62.93820199999999
 21
511.84187350000002
  0
LINE
  8
_0-0_0
  6
CONTINUOUS
 62
    7
 10
62.93820199999999
 20
511.84187350000002
 11
62.94557199999997
 21
511.86091650000003
  0
LINE
  8
_0-0_0
  6
CONTINUOUS
 62
    7
 10
62.94557199999997
 20
511.86091650000003
 11
62.966125999999974
 21
511.8976285
  0
LINE
  8
_0-0_0
  6
CONTINUOUS
 62
    7
 10
62.966125999999974
 20
511.8976285
 11
62.994521999999961
 21
511.93330349999997
  0
LINE
  8
_0-0_0
  6
CONTINUOUS
 62
    7
 10
62.994521999999961
 20
511.93330349999997
 11
63.030395999999996
 21
511.96757449999996
  0
LINE
  8
_0-0_0
  6
CONTINUOUS
 62
    7
 10
63.030395999999996
 20
511.96757449999996
 11
63.079025000000001
 21
512.00404349999997
  0
LINE
  8
_0-0_0
  6
CONTINUOUS
 62
    7
 10
63.079025000000001
 20
512.00404349999997
 11
63.13580300000001
 21
512.0380705
  0
LINE
  8
_0-0_0
  6
CONTINUOUS
 62
    7
 10
63.13580300000001
 20
512.0380705
 11
63.199950999999999
 21
512.0693205
  0
LINE
  8
_0-0_0
  6
CONTINUOUS
 62
    7
 10
63.199950999999999
 20
512.0693205
 11
63.270598999999947
 21
512.09754950000001
  0
LINE
  8
_0-0_0
  6
CONTINUOUS
 62
    7
 10
63.270598999999947
 20
512.09754950000001
 11
63.318679999999972
 21
512.11390649999998
  0
LINE
  8
_0-0_0
  6
CONTINUOUS
 62
    7
 10
63.318679999999972
 20
512.11390649999998
 11
63.368820000000028
 21
512.12892150000005
  0
LINE
  8
_0-0_0
  6
CONTINUOUS
 62
    7
 10
63.368820000000028
 20
512.12892150000005
 11
63.425522000000001
 21
512.14369150000005
  0
LINE
  8
_0-0_0
  6
CONTINUOUS
 62
    7
 10
63.425522000000001
 20
512.14369150000005
 11
63.484130999999991
 21
512.15678349999996
  0
LINE
  8
_0-0_0
  6
CONTINUOUS
 62
    7
 10
63.484130999999991
 20
512.15678349999996
 11
63.600906000000009
 21
512.17707849999999
  0
LINE
  8
_0-0_0
  6
CONTINUOUS
 62
    7
 10
63.600906000000009
 20
512.17707849999999
 11
63.708312999999976
 21
512.18980350000004
  0
LINE
  8
_0-0_0
  6
CONTINUOUS
 62
    7
 10
63.708312999999976
 20
512.18980350000004
 11
63.818084999999996
 21
512.19746350000003
  0
LINE
  8
_0-0_0
  6
CONTINUOUS
 62
    7
 10
63.818084999999996
 20
512.19746350000003
 11
63.928954999999974
 21
512.20002750000003
  0
LINE
  8
_0-0_0
  6
CONTINUOUS
 62
    7
 10
62.928954999999974
 20
512.75547749999998
 11
62.931853999999987
 21
512.7863615
  0
LINE
  8
_0-0_0
  6
CONTINUOUS
 62
    7
 10
62.931853999999987
 20
512.7863615
 11
62.940552000000025
 21
512.81782550000003
  0
LINE
  8
_0-0_0
  6
CONTINUOUS
 62
    7
 10
62.940552000000025
 20
512.81782550000003
 11
62.95503199999996
 21
512.84947150000005
  0
LINE
  8
_0-0_0
  6
CONTINUOUS
 62
    7
 10
62.95503199999996
 20
512.84947150000005
 11
62.97520499999996
 21
512.8810575
  0
LINE
  8
_0-0_0
  6
CONTINUOUS
 62
    7
 10
62.97520499999996
 20
512.8810575
 11
62.991729999999961
 21
512.90193150000005
  0
LINE
  8
_0-0_0
  6
CONTINUOUS
 62
    7
 10
62.991729999999961
 20
512.90193150000005
 11
63.010620000000017
 21
512.92256150000003
  0
LINE
  8
_0-0_0
  6
CONTINUOUS
 62
    7
 10
63.010620000000017
 20
512.92256150000003
 11
63.055266999999958
 21
512.96272250000004
  0
LINE
  8
_0-0_0
  6
CONTINUOUS
 62
    7
 10
63.055266999999958
 20
512.96272250000004
 11
63.108397999999966
 21
513.00090050000006
  0
LINE
  8
_0-0_0
  6
CONTINUOUS
 62
    7
 10
63.108397999999966
 20
513.00090050000006
 11
63.158294999999953
 21
513.03071550000004
  0
LINE
  8
_0-0_0
  6
CONTINUOUS
 62
    7
 10
63.158294999999953
 20
513.03071550000004
 11
63.212966999999992
 21
513.05860849999999
  0
LINE
  8
_0-0_0
  6
CONTINUOUS
 62
    7
 10
63.212966999999992
 20
513.05860849999999
 11
63.271941999999967
 21
513.08433549999995
  0
LINE
  8
_0-0_0
  6
CONTINUOUS
 62
    7
 10
63.271941999999967
 20
513.08433549999995
 11
63.318694999999991
 21
513.10212650000005
  0
LINE
  8
_0-0_0
  6
CONTINUOUS
 62
    7
 10
63.318694999999991
 20
513.10212650000005
 11
63.367400999999973
 21
513.11854549999998
  0
LINE
  8
_0-0_0
  6
CONTINUOUS
 62
    7
 10
63.367400999999973
 20
513.11854549999998
 11
63.469832999999994
 21
513.14714049999998
  0
LINE
  8
_0-0_0
  6
CONTINUOUS
 62
    7
 10
63.469832999999994
 20
513.14714049999998
 11
63.577651999999944
 21
513.16972350000003
  0
LINE
  8
_0-0_0
  6
CONTINUOUS
 62
    7
 10
63.577651999999944
 20
513.16972350000003
 11
63.689330999999981
 21
513.18614149999996
  0
LINE
  8
_0-0_0
  6
CONTINUOUS
 62
    7
 10
63.689330999999981
 20
513.18614149999996
 11
63.803496999999993
 21
513.19624350000004
  0
LINE
  8
_0-0_0
  6
CONTINUOUS
 62
    7
 10
63.803496999999993
 20
513.19624350000004
 11
63.928954999999974
 21
513.20002750000003
  0
LINE
  8
_0-0_0
  6
CONTINUOUS
 62
    7
 10
62.928954999999974
 20
511.78581250000002
 11
62.928954999999974
 21
512.75547749999998
  0
ARC
  8
_0-0_0
  6
CONTINUOUS
 62
    7
 10
63.928954999999974
 20
485.40000950000001
 40
1
 50
180.00000900000003
 51
269.99999700000001
  0
LINE
  8
_0-0_0
  6
CONTINUOUS
 62
    7
 10
62.928954999999974
 20
485.40000950000001
 11
62.928954999999974
 21
511.78581250000002
  0
CIRCLE
  8
_0-0_0
  6
CONTINUOUS
 62
    7
 10
74.428954999999974
 20
502.60002150000003
 40
5
  0
CIRCLE
  8
_0-0_0
  6
CONTINUOUS
 62
    7
 10
959.42889400000001
 20
502.60002150000003
 40
5
  0
LINE
  8
_0-0_0
  6
CONTINUOUS
 62
    7
 10
970.92889400000001
 20
512.78587349999998
 11
970.92889400000001
 21
514.40000950000001
  0
ARC
  8
_0-0_0
  6
CONTINUOUS
 62
    7
 10
969.92889400000001
 20
514.40000950000001
 40
1
 50
0
 51
90.000003000000007
  0
ARC
  8
_0-0_0
  6
CONTINUOUS
 62
    7
 10
63.928954999999974
 20
514.40000950000001
 40
1
 50
90.000003000000007
 51
180.00000900000001
  0
LINE
  8
_0-0_0
  6
CONTINUOUS
 62
    7
 10
62.928954999999974
 20
512.75547749999998
 11
62.928954999999974
 21
514.40000950000001
  0
LINE
  8
_0-0_0
  6
CONTINUOUS
 62
    7
 10
-24.886710999999991
 20
482.29994150000005
 11
-24.886710999999991
 21
482.27494750000005
  0
LINE
  8
_0-0_0
  6
CONTINUOUS
 62
    7
 10
-24.886710999999991
 20
479.2228235
 11
-24.886710999999991
 21
479.32493550000004
  0
LINE
  8
_0-0_0
  6
CONTINUOUS
 62
    7
 10
-24.886710999999991
 20
458.19993550000004
 11
-24.886710999999991
 21
458.97706549999998
  0
LINE
  8
_0-0_0
  6
CONTINUOUS
 62
    7
 10
-41.686706000000015
 20
458.19993550000004
 11
-24.886710999999991
 21
458.19993550000004
  0
LINE
  8
_0-0_0
  6
CONTINUOUS
 62
    7
 10
-41.686706000000015
 20
466.09992950000003
 11
-41.686706000000015
 21
458.19993550000004
  0
LINE
  8
_0-0_0
  6
CONTINUOUS
 62
    7
 10
-41.686706000000015
 20
478.55525150000005
 11
-41.686706000000015
 21
472.09992950000003
  0
LINE
  8
_0-0_0
  6
CONTINUOUS
 62
    7
 10
-24.38672600000001
 20
461.69993550000004
 11
-24.186706000000015
 21
461.69993550000004
  0
LINE
  8
_0-0_0
  6
CONTINUOUS
 62
    7
 10
-24.186706000000015
 20
461.69993550000004
 11
-24.186706000000015
 21
464.69993550000004
  0
LINE
  8
_0-0_0
  6
CONTINUOUS
 62
    7
 10
-24.186706000000015
 20
478.29994150000005
 11
-24.186706000000015
 21
464.69993550000004
  0
LINE
  8
_0-0_0
  6
CONTINUOUS
 62
    7
 10
-24.386710999999991
 20
481.29994150000005
 11
-24.186706000000015
 21
481.29994150000005
  0
LINE
  8
_0-0_0
  6
CONTINUOUS
 62
    7
 10
-24.186706000000015
 20
478.29994150000005
 11
-24.186706000000015
 21
481.29994150000005
  0
LINE
  8
_0-0_0
  6
CONTINUOUS
 62
    7
 10
-25.086708000000044
 20
480.59901449999995
 11
-25.086708000000044
 21
479.41981450000003
  0
LINE
  8
_0-0_0
  6
CONTINUOUS
 62
    7
 10
-25.086708000000044
 20
482.79994150000005
 11
-25.086708000000044
 21
482.29994150000005
  0
LINE
  8
_0-0_0
  6
CONTINUOUS
 62
    7
 10
-26.086708000000044
 20
479.88343750000001
 11
-26.086708000000044
 21
480.59992950000003
  0
ARC
  8
_0-0_0
  6
CONTINUOUS
 62
    7
 10
-26.386710999999991
 20
477.89994750000005
 40
2
 50
0
 51
90.000003000000007
  0
LINE
  8
_0-0_0
  6
CONTINUOUS
 62
    7
 10
-24.386710999999991
 20
474.39994750000005
 11
-24.386710999999991
 21
477.39994750000005
  0
LINE
  8
_0-0_0
  6
CONTINUOUS
 62
    7
 10
-24.386710999999991
 20
477.39994750000005
 11
-24.386710999999991
 21
477.89994750000005
  0
LINE
  8
_0-0_0
  6
CONTINUOUS
 62
    7
 10
-24.386710999999991
 20
460.29994150000005
 11
-24.386710999999991
 21
473.89994750000005
  0
LINE
  8
_0-0_0
  6
CONTINUOUS
 62
    7
 10
-24.386710999999991
 20
474.39994750000005
 11
-24.386710999999991
 21
473.89994750000005
  0
ARC
  8
_0-0_0
  6
CONTINUOUS
 62
    7
 10
-26.386710999999991
 20
460.29994150000005
 40
2
 50
273.84026500000004
 51
0.000010000000014
  0
LINE
  8
_0-0_0
  6
CONTINUOUS
 62
    7
 10
-39.686706000000015
 20
479.88343750000001
 11
-39.686706000000015
 21
480.59992950000003
  0
LINE
  8
_0-0_0
  6
CONTINUOUS
 62
    7
 10
-39.686706000000015
 20
479.88343750000001
 11
-39.686706000000015
 21
479.87730350000004
  0
LINE
  8
_0-0_0
  6
CONTINUOUS
 62
    7
 10
-41.686706000000015
 20
478.55525150000005
 11
-41.686706000000015
 21
479.05525150000005
  0
LINE
  8
_0-0_0
  6
CONTINUOUS
 62
    7
 10
-41.386710999999991
 20
477.89994750000005
 11
-41.386710999999991
 21
464.29994150000005
  0
LINE
  8
_0-0_0
  6
CONTINUOUS
 62
    7
 10
-41.386710999999991
 20
463.79994150000005
 11
-41.386710999999991
 21
464.29994150000005
  0
LINE
  8
_0-0_0
  6
CONTINUOUS
 62
    7
 10
-41.386710999999991
 20
460.79994150000005
 11
-41.386710999999991
 21
463.79994150000005
  0
LINE
  8
_0-0_0
  6
CONTINUOUS
 62
    7
 10
-41.386710999999991
 20
460.29994150000005
 11
-41.386710999999991
 21
460.79994150000005
  0
ARC
  8
_0-0_0
  6
CONTINUOUS
 62
    7
 10
-39.386710999999991
 20
477.89994750000005
 40
2
 50
93.840255999999997
 51
180.00000900000001
  0
LINE
  8
_0-0_0
  6
CONTINUOUS
 62
    7
 10
-41.686706000000015
 20
466.09992950000003
 11
-41.686706000000015
 21
472.09992950000003
  0
LINE
  8
_0-0_0
  6
CONTINUOUS
 62
    7
 10
-41.686706000000015
 20
480.59992950000003
 11
-41.686706000000015
 21
479.05525150000005
  0
LINE
  8
_0-0_0
  6
CONTINUOUS
 62
    7
 10
-41.686706000000015
 20
472.09992950000003
 11
-41.386719000000028
 21
472.09992950000003
  0
LINE
  8
_0-0_0
  6
CONTINUOUS
 62
    7
 10
-41.686706000000015
 20
466.09992950000003
 11
-41.386719000000028
 21
466.09992950000003
  0
LINE
  8
_0-0_0
  6
CONTINUOUS
 62
    7
 10
-26.386710999999991
 20
458.29994150000005
 11
-35.386710999999991
 21
458.29994150000005
  0
LINE
  8
_0-0_0
  6
CONTINUOUS
 62
    7
 10
-38.886710999999991
 20
458.29994150000005
 11
-39.386710999999991
 21
458.29994150000005
  0
LINE
  8
_0-0_0
  6
CONTINUOUS
 62
    7
 10
-35.886710999999991
 20
458.29994150000005
 11
-38.886710999999991
 21
458.29994150000005
  0
LINE
  8
_0-0_0
  6
CONTINUOUS
 62
    7
 10
-35.386710999999991
 20
458.29994150000005
 11
-35.886710999999991
 21
458.29994150000005
  0
ARC
  8
_0-0_0
  6
CONTINUOUS
 62
    7
 10
-39.386710999999991
 20
460.29994150000005
 40
2
 50
180.00000900000003
 51
269.99999700000001
  0
ARC
  8
_0-0_0
  6
CONTINUOUS
 62
    7
 10
-25.586708000000044
 20
482.79994150000005
 40
0.5
 50
0
 51
90.000003000000007
  0
LINE
  8
_0-0_0
  6
CONTINUOUS
 62
    7
 10
-27.086708000000044
 20
483.29994150000005
 11
-25.586708000000044
 21
483.29994150000005
  0
ARC
  8
_0-0_0
  6
CONTINUOUS
 62
    7
 10
-27.086708000000044
 20
484.29994150000005
 40
1
 50
180.00000900000003
 51
269.99999700000001
  0
LINE
  8
_0-0_0
  6
CONTINUOUS
 62
    7
 10
-28.086708000000044
 20
484.29994150000005
 11
-28.086708000000044
 21
484.40003950000005
  0
LINE
  8
_0-0_0
  6
CONTINUOUS
 62
    7
 10
-28.586708000000044
 20
483.29994150000005
 11
-28.586708000000044
 21
484.40003950000005
  0
ARC
  8
_0-0_0
  6
CONTINUOUS
 62
    7
 10
-27.586708000000044
 20
483.29994150000005
 40
1
 50
180.00000900000003
 51
269.99999700000001
  0
LINE
  8
_0-0_0
  6
CONTINUOUS
 62
    7
 10
-27.586708000000044
 20
482.29994150000005
 11
-27.78671300000002
 21
482.29994150000005
  0
ARC
  8
_0-0_0
  6
CONTINUOUS
 62
    7
 10
-27.78671300000002
 20
483.29994150000005
 40
1
 50
180.00000900000003
 51
269.99999700000001
  0
ARC
  8
_0-0_0
  6
CONTINUOUS
 62
    7
 10
-37.986710000000016
 20
483.29994150000005
 40
1
 50
269.99999700000001
 51
0
  0
LINE
  8
_0-0_0
  6
CONTINUOUS
 62
    7
 10
-37.986710000000016
 20
482.29994150000005
 11
-38.686706000000015
 21
482.29994150000005
  0
LINE
  8
_0-0_0
  6
CONTINUOUS
 62
    7
 10
-24.886710999999991
 20
482.29994150000005
 11
-25.086708000000044
 21
482.29994150000005
  0
LINE
  8
_0-0_0
  6
CONTINUOUS
 62
    7
 10
-41.686706000000015
 20
480.59992950000003
 11
-24.886710999999991
 21
480.59992950000003
  0
LINE
  8
_0-0_0
  6
CONTINUOUS
 62
    7
 10
-24.886710999999991
 20
480.59992950000003
 11
-24.886710999999991
 21
482.29994150000005
  0
LINE
  8
_0-0_0
  6
CONTINUOUS
 62
    7
 10
-28.78671300000002
 20
484.40003950000005
 11
-28.78671300000002
 21
483.29994150000005
  0
LINE
  8
_0-0_0
  6
CONTINUOUS
 62
    7
 10
-36.986710000000016
 20
483.29994150000005
 11
-36.986710000000016
 21
484.40003950000005
  0
LINE
  8
_0-0_0
  6
CONTINUOUS
 62
    7
 10
-40.686706000000015
 20
482.29994150000005
 11
-41.686706000000015
 21
482.29994150000005
  0
LINE
  8
_0-0_0
  6
CONTINUOUS
 62
    7
 10
-41.686706000000015
 20
480.59992950000003
 11
-41.686706000000015
 21
482.29994150000005
  0
LINE
  8
_0-0_0
  6
CONTINUOUS
 62
    7
 10
-26.386710999999991
 20
479.89994750000005
 11
-26.886710999999991
 21
479.89994750000005
  0
CIRCLE
  8
_0-0_0
  6
CONTINUOUS
 62
    7
 10
-26.886710999999991
 20
477.39994750000005
 40
2.5
  0
LINE
  8
_0-0_0
  6
CONTINUOUS
 62
    7
 10
-39.386710999999991
 20
479.89994750000005
 11
-30.386710999999991
 21
479.89994750000005
  0
LINE
  8
_0-0_0
  6
CONTINUOUS
 62
    7
 10
-26.886710999999991
 20
479.89994750000005
 11
-29.886710999999991
 21
479.89994750000005
  0
LINE
  8
_0-0_0
  6
CONTINUOUS
 62
    7
 10
-30.386710999999991
 20
479.89994750000005
 11
-29.886710999999991
 21
479.89994750000005
  0
ARC
  8
_0-0_0
  6
CONTINUOUS
 62
    7
 10
-24.886710999999991
 20
473.89994750000005
 40
0.5
 50
0
 51
90.000003000000007
  0
LINE
  8
_0-0_0
  6
CONTINUOUS
 62
    7
 10
-26.386710999999991
 20
458.40257250000002
 11
-26.37082700000002
 21
458.37532050000004
  0
LINE
  8
_0-0_0
  6
CONTINUOUS
 62
    7
 10
-26.37082700000002
 20
458.37532050000004
 11
-26.354980000000012
 21
458.35234049999997
  0
LINE
  8
_0-0_0
  6
CONTINUOUS
 62
    7
 10
-26.354980000000012
 20
458.35234049999997
 11
-26.341003000000001
 21
458.33558649999998
  0
LINE
  8
_0-0_0
  6
CONTINUOUS
 62
    7
 10
-26.341003000000001
 20
458.33558649999998
 11
-26.327103000000022
 21
458.3222505
  0
LINE
  8
_0-0_0
  6
CONTINUOUS
 62
    7
 10
-26.327103000000022
 20
458.3222505
 11
-26.314887999999996
 21
458.31333949999998
  0
LINE
  8
_0-0_0
  6
CONTINUOUS
 62
    7
 10
-26.314887999999996
 20
458.31333949999998
 11
-26.302765000000022
 21
458.30711350000001
  0
LINE
  8
_0-0_0
  6
CONTINUOUS
 62
    7
 10
-26.302765000000022
 20
458.30711350000001
 11
-26.291900999999996
 21
458.30384849999996
  0
LINE
  8
_0-0_0
  6
CONTINUOUS
 62
    7
 10
-26.291900999999996
 20
458.30384849999996
 11
-26.281143000000043
 21
458.30278050000004
  0
LINE
  8
_0-0_0
  6
CONTINUOUS
 62
    7
 10
-26.281143000000043
 20
458.30278050000004
 11
-26.278685999999993
 21
458.30287150000004
  0
LINE
  8
_0-0_0
  6
CONTINUOUS
 62
    7
 10
-40.686706000000015
 20
479.41981450000003
 11
-40.686706000000015
 21
480.59901449999995
  0
ARC
  8
_0-0_0
  6
CONTINUOUS
 62
    7
 10
-40.886710999999991
 20
464.29994150000005
 40
0.5
 50
180.00000900000003
 51
269.99999700000001
  0
CIRCLE
  8
_0-0_0
  6
CONTINUOUS
 62
    7
 10
-38.886710999999991
 20
460.79994150000005
 40
2.5
  0
LINE
  8
_0-0_0
  6
CONTINUOUS
 62
    7
 10
-39.386710999999991
 20
479.79731749999996
 11
-39.402588000000037
 21
479.82456950000005
  0
LINE
  8
_0-0_0
  6
CONTINUOUS
 62
    7
 10
-39.402588000000037
 20
479.82456950000005
 11
-39.418434000000047
 21
479.84754950000001
  0
LINE
  8
_0-0_0
  6
CONTINUOUS
 62
    7
 10
-39.418434000000047
 20
479.84754950000001
 11
-39.432411000000002
 21
479.86430350000001
  0
LINE
  8
_0-0_0
  6
CONTINUOUS
 62
    7
 10
-39.432411000000002
 20
479.86430350000001
 11
-39.446312000000034
 21
479.87763949999999
  0
LINE
  8
_0-0_0
  6
CONTINUOUS
 62
    7
 10
-39.446312000000034
 20
479.87763949999999
 11
-39.458527000000004
 21
479.8865505
  0
LINE
  8
_0-0_0
  6
CONTINUOUS
 62
    7
 10
-39.458527000000004
 20
479.8865505
 11
-39.470650000000035
 21
479.89277649999997
  0
LINE
  8
_0-0_0
  6
CONTINUOUS
 62
    7
 10
-39.470650000000035
 20
479.89277649999997
 11
-39.481514000000004
 21
479.89604150000002
  0
LINE
  8
_0-0_0
  6
CONTINUOUS
 62
    7
 10
-39.481514000000004
 20
479.89604150000002
 11
-39.492271000000017
 21
479.89710950000006
  0
LINE
  8
_0-0_0
  6
CONTINUOUS
 62
    7
 10
-39.492271000000017
 20
479.89710950000006
 11
-39.494735999999989
 21
479.89701850000006
  0
LINE
  8
_0-0_0
  6
CONTINUOUS
 62
    7
 10
-41.686706000000015
 20
461.69993550000004
 11
-41.786704999999984
 21
461.69993550000004
  0
LINE
  8
_0-0_0
  6
CONTINUOUS
 62
    7
 10
-41.786704999999984
 20
461.69993550000004
 11
-41.786704999999984
 21
464.69993550000004
  0
LINE
  8
_0-0_0
  6
CONTINUOUS
 62
    7
 10
-41.786704999999984
 20
464.69993550000004
 11
-41.786704999999984
 21
478.29994150000005
  0
LINE
  8
_0-0_0
  6
CONTINUOUS
 62
    7
 10
-41.686706000000015
 20
481.29994150000005
 11
-41.786704999999984
 21
481.29994150000005
  0
LINE
  8
_0-0_0
  6
CONTINUOUS
 62
    7
 10
-41.786704999999984
 20
478.29994150000005
 11
-41.786704999999984
 21
481.29994150000005
  0
ARC
  8
_0-0_0
  6
CONTINUOUS
 62
    7
 10
-35.386710999999991
 20
458.79994150000005
 40
0.5
 50
180.00000900000003
 51
269.99999700000001
  0
ARC
  8
_0-0_0
  6
CONTINUOUS
 62
    7
 10
-38.686706000000015
 20
483.80000250000001
 40
1.5
 50
269.99999700000001
 51
0
  0
ARC
  8
_0-0_0
  6
CONTINUOUS
 62
    7
 10
-40.186706000000015
 20
482.80000250000001
 40
0.5
 50
90.000003000000007
 51
180.00000900000001
  0
LINE
  8
_0-0_0
  6
CONTINUOUS
 62
    7
 10
-40.186706000000015
 20
483.30000250000001
 11
-38.686706000000015
 21
483.30000250000001
  0
ARC
  8
_0-0_0
  6
CONTINUOUS
 62
    7
 10
-38.686706000000015
 20
484.30000250000001
 40
1
 50
269.99999700000001
 51
0
  0
LINE
  8
_0-0_0
  6
CONTINUOUS
 62
    7
 10
-37.686706000000015
 20
484.40003950000005
 11
-37.686706000000015
 21
484.30000250000001
  0
LINE
  8
_0-0_0
  6
CONTINUOUS
 62
    7
 10
-37.186706000000015
 20
484.40003950000005
 11
-37.186706000000015
 21
483.80000250000001
  0
LINE
  8
_0-0_0
  6
CONTINUOUS
 62
    7
 10
-40.686706000000015
 20
482.30000250000001
 11
-40.686706000000015
 21
482.80000250000001
  0
ARC
  8
_0-0_0
  6
CONTINUOUS
 62
    7
 10
-30.386710999999991
 20
479.39994750000005
 40
0.5
 50
0
 51
90.000003000000007
  0
LINE
  8
_0-0_0
  6
CONTINUOUS
 62
    7
 10
-29.886710999999991
 20
479.32295250000004
 11
-29.886710999999991
 21
479.39994750000005
  0
LINE
  8
_0-0_0
  6
CONTINUOUS
 62
    7
 10
-29.886710999999991
 20
477.88145450000002
 11
-29.886710999999991
 21
479.32295250000004
  0
LINE
  8
_0-0_0
  6
CONTINUOUS
 62
    7
 10
-29.886710999999991
 20
477.39994750000005
 11
-29.886710999999991
 21
477.88145450000002
  0
ARC
  8
_0-0_0
  6
CONTINUOUS
 62
    7
 10
-26.886710999999991
 20
477.39994750000005
 40
3
 50
180.00000900000003
 51
269.99999700000001
  0
LINE
  8
_0-0_0
  6
CONTINUOUS
 62
    7
 10
-26.405205000000024
 20
474.39994750000005
 11
-26.886710999999991
 21
474.39994750000005
  0
LINE
  8
_0-0_0
  6
CONTINUOUS
 62
    7
 10
-26.405205000000024
 20
474.39994750000005
 11
-24.963684000000001
 21
474.39994750000005
  0
LINE
  8
_0-0_0
  6
CONTINUOUS
 62
    7
 10
-24.886710999999991
 20
474.39994750000005
 11
-24.963684000000001
 21
474.39994750000005
  0
LINE
  8
_0-0_0
  6
CONTINUOUS
 62
    7
 10
-40.809730000000002
 20
463.79994150000005
 11
-40.886710999999991
 21
463.79994150000005
  0
LINE
  8
_0-0_0
  6
CONTINUOUS
 62
    7
 10
-38.886710999999991
 20
463.79994150000005
 11
-39.368210000000033
 21
463.79994150000005
  0
LINE
  8
_0-0_0
  6
CONTINUOUS
 62
    7
 10
-39.368210000000033
 20
463.79994150000005
 11
-40.809730000000002
 21
463.79994150000005
  0
LINE
  8
_0-0_0
  6
CONTINUOUS
 62
    7
 10
-35.886710999999991
 20
458.79994150000005
 11
-35.886710999999991
 21
458.87690750000002
  0
LINE
  8
_0-0_0
  6
CONTINUOUS
 62
    7
 10
-35.886710999999991
 20
460.31843549999996
 11
-35.886710999999991
 21
458.87690750000002
  0
LINE
  8
_0-0_0
  6
CONTINUOUS
 62
    7
 10
-35.886710999999991
 20
460.31843549999996
 11
-35.886710999999991
 21
460.79994150000005
  0
ARC
  8
_0-0_0
  6
CONTINUOUS
 62
    7
 10
-38.886710999999991
 20
460.79994150000005
 40
3
 50
0
 51
89.999995999999996
  0
LINE
  8
_0-0_0
  6
CONTINUOUS
 62
    7
 10
-24.386710999999991
 20
481.41120850000004
 11
-24.386710999999991
 21
479.52494750000005
  0
LINE
  8
_0-0_0
  6
CONTINUOUS
 62
    7
 10
-24.386710999999991
 20
482.07493550000004
 11
-24.386710999999991
 21
481.41120850000004
  0
ARC
  8
_0-0_0
  6
CONTINUOUS
 62
    7
 10
-29.656593000000044
 20
470.27317749999997
 40
3.063396
 50
19.82113
 51
25.289563000000001
  0
ARC
  8
_0-0_0
  6
CONTINUOUS
 62
    7
 10
-29.656272999999999
 20
467.92655950000005
 40
3.0630519999999999
 50
334.71006
 51
340.17869200000001
  0
ARC
  8
_0-0_0
  6
CONTINUOUS
 62
    7
 10
-36.116821000000016
 20
467.92671150000001
 40
3.063399
 50
199.82113599999997
 51
205.28948099999999
  0
ARC
  8
_0-0_0
  6
CONTINUOUS
 62
    7
 10
-36.117142000000001
 20
470.27333050000004
 40
3.0630549999999999
 50
154.710137
 51
160.17869999999999
  0
ARC
  8
_0-0_0
  6
CONTINUOUS
 62
    7
 10
-32.886710999999991
 20
469.09992950000003
 40
6.5
 50
340.10416099999998
 51
19.895609999999952
  0
ARC
  8
_0-0_0
  6
CONTINUOUS
 62
    7
 10
-32.886710999999991
 20
469.09992950000003
 40
6.5
 50
160.10415599999999
 51
199.895612
  0
LINE
  8
_0-0_0
  6
CONTINUOUS
 62
    7
 10
-41.386710999999991
 20
480.18873550000001
 11
-41.386710999999991
 21
480.59907550000003
  0
LINE
  8
_0-0_0
  6
CONTINUOUS
 62
    7
 10
-41.386710999999991
 20
479.52986150000004
 11
-41.386710999999991
 21
480.18873550000001
  0
LINE
  8
_0-0_0
  6
CONTINUOUS
 62
    7
 10
-33.628379999999993
 20
475.59992950000003
 11
-38.145035000000007
 21
472.9922335
  0
LINE
  8
_0-0_0
  6
CONTINUOUS
 62
    7
 10
-32.145035000000007
 20
475.59992950000003
 11
-33.628379999999993
 21
475.59992950000003
  0
LINE
  8
_0-0_0
  6
CONTINUOUS
 62
    7
 10
-27.628379999999993
 20
472.9922335
 11
-32.145035000000007
 21
475.59992950000003
  0
LINE
  8
_0-0_0
  6
CONTINUOUS
 62
    7
 10
-26.886710999999991
 20
471.70762649999995
 11
-26.886710999999991
 21
466.4922335
  0
LINE
  8
_0-0_0
  6
CONTINUOUS
 62
    7
 10
-27.628379999999993
 20
472.9922335
 11
-26.886710999999991
 21
471.70762649999995
  0
LINE
  8
_0-0_0
  6
CONTINUOUS
 62
    7
 10
-32.145035000000007
 20
462.59992950000003
 11
-27.628379999999993
 21
465.20762649999995
  0
LINE
  8
_0-0_0
  6
CONTINUOUS
 62
    7
 10
-27.334250999999995
 20
465.71708650000005
 11
-26.886710999999991
 21
466.4922335
  0
LINE
  8
_0-0_0
  6
CONTINUOUS
 62
    7
 10
-27.334250999999995
 20
465.71708650000005
 11
-27.628379999999993
 21
465.20762649999995
  0
LINE
  8
_0-0_0
  6
CONTINUOUS
 62
    7
 10
-33.628379999999993
 20
462.59992950000003
 11
-32.145035000000007
 21
462.59992950000003
  0
LINE
  8
_0-0_0
  6
CONTINUOUS
 62
    7
 10
-38.145035000000007
 20
465.20762649999995
 11
-33.628379999999993
 21
462.59992950000003
  0
LINE
  8
_0-0_0
  6
CONTINUOUS
 62
    7
 10
-38.886710999999991
 20
471.70762649999995
 11
-38.886710999999991
 21
466.4922335
  0
LINE
  8
_0-0_0
  6
CONTINUOUS
 62
    7
 10
-38.145035000000007
 20
465.20762649999995
 11
-38.886710999999991
 21
466.4922335
  0
LINE
  8
_0-0_0
  6
CONTINUOUS
 62
    7
 10
-38.439163000000008
 20
472.48280350000005
 11
-38.886710999999991
 21
471.70762649999995
  0
LINE
  8
_0-0_0
  6
CONTINUOUS
 62
    7
 10
-38.439163000000008
 20
472.48280350000005
 11
-38.145035000000007
 21
472.9922335
  0
LINE
  8
_0-0_0
  6
CONTINUOUS
 62
    7
 10
-24.999702000000013
 20
478.6253815
 11
-24.721649000000014
 21
478.64994750000005
  0
LINE
  8
_0-0_0
  6
CONTINUOUS
 62
    7
 10
-24.881942999999978
 20
478.42143250000004
 11
-24.721649000000014
 21
478.64994750000005
  0
LINE
  8
_0-0_0
  6
CONTINUOUS
 62
    7
 10
-25.138130000000046
 20
478.81590249999999
 11
-24.864166000000012
 21
478.86939949999999
  0
LINE
  8
_0-0_0
  6
CONTINUOUS
 62
    7
 10
-24.999702000000013
 20
478.6253815
 11
-24.864166000000012
 21
478.86939949999999
  0
LINE
  8
_0-0_0
  6
CONTINUOUS
 62
    7
 10
-25.29571500000003
 20
478.99092050000002
 11
-25.028847000000042
 21
479.07276950000005
  0
LINE
  8
_0-0_0
  6
CONTINUOUS
 62
    7
 10
-25.138130000000046
 20
478.81590249999999
 11
-25.028847000000042
 21
479.07276950000005
  0
LINE
  8
_0-0_0
  6
CONTINUOUS
 62
    7
 10
-25.470733999999993
 20
479.14851350000004
 11
-25.213882000000012
 21
479.25779750000004
  0
LINE
  8
_0-0_0
  6
CONTINUOUS
 62
    7
 10
-25.29571500000003
 20
478.99092050000002
 11
-25.213882000000012
 21
479.25779750000004
  0
LINE
  8
_0-0_0
  6
CONTINUOUS
 62
    7
 10
-25.661270000000002
 20
479.28694150000001
 11
-25.417243999999982
 21
479.42250049999996
  0
LINE
  8
_0-0_0
  6
CONTINUOUS
 62
    7
 10
-25.470733999999993
 20
479.14851350000004
 11
-25.417243999999982
 21
479.42250049999996
  0
LINE
  8
_0-0_0
  6
CONTINUOUS
 62
    7
 10
-25.865233999999987
 20
479.40470849999997
 11
-25.636710999999991
 21
479.56501749999995
  0
LINE
  8
_0-0_0
  6
CONTINUOUS
 62
    7
 10
-25.661270000000002
 20
479.28694150000001
 11
-25.636710999999991
 21
479.56501749999995
  0
LINE
  8
_0-0_0
  6
CONTINUOUS
 62
    7
 10
-26.080382999999983
 20
479.50050350000004
 11
-25.869865000000004
 21
479.68379149999998
  0
LINE
  8
_0-0_0
  6
CONTINUOUS
 62
    7
 10
-25.865233999999987
 20
479.40470849999997
 11
-25.869865000000004
 21
479.68379149999998
  0
LINE
  8
_0-0_0
  6
CONTINUOUS
 62
    7
 10
-26.304367000000013
 20
479.57328749999999
 11
-26.114166000000012
 21
479.77757250000002
  0
LINE
  8
_0-0_0
  6
CONTINUOUS
 62
    7
 10
-26.080382999999983
 20
479.50050350000004
 11
-26.114166000000012
 21
479.77757250000002
  0
LINE
  8
_0-0_0
  6
CONTINUOUS
 62
    7
 10
-26.534729000000027
 20
479.62223849999998
 11
-26.36692800000003
 21
479.84532149999995
  0
LINE
  8
_0-0_0
  6
CONTINUOUS
 62
    7
 10
-26.304367000000013
 20
479.57328749999999
 11
-26.36692800000003
 21
479.84532149999995
  0
LINE
  8
_0-0_0
  6
CONTINUOUS
 62
    7
 10
-26.768951000000015
 20
479.64686549999999
 11
-26.625389000000041
 21
479.88624549999997
  0
LINE
  8
_0-0_0
  6
CONTINUOUS
 62
    7
 10
-26.534729000000027
 20
479.62223849999998
 11
-26.625389000000041
 21
479.88624549999997
  0
LINE
  8
_0-0_0
  6
CONTINUOUS
 62
    7
 10
-27.004462999999987
 20
479.64686549999999
 11
-26.886710999999991
 21
479.89994750000005
  0
LINE
  8
_0-0_0
  6
CONTINUOUS
 62
    7
 10
-26.768951000000015
 20
479.64686549999999
 11
-26.886710999999991
 21
479.89994750000005
  0
LINE
  8
_0-0_0
  6
CONTINUOUS
 62
    7
 10
-27.23868600000003
 20
479.62223849999998
 11
-27.148025000000018
 21
479.88624549999997
  0
LINE
  8
_0-0_0
  6
CONTINUOUS
 62
    7
 10
-27.004462999999987
 20
479.64686549999999
 11
-27.148025000000018
 21
479.88624549999997
  0
LINE
  8
_0-0_0
  6
CONTINUOUS
 62
    7
 10
-27.469055000000026
 20
479.57328749999999
 11
-27.406486000000029
 21
479.84532149999995
  0
LINE
  8
_0-0_0
  6
CONTINUOUS
 62
    7
 10
-27.23868600000003
 20
479.62223849999998
 11
-27.406486000000029
 21
479.84532149999995
  0
LINE
  8
_0-0_0
  6
CONTINUOUS
 62
    7
 10
-27.693038999999999
 20
479.50050350000004
 11
-27.659248000000048
 21
479.77757250000002
  0
LINE
  8
_0-0_0
  6
CONTINUOUS
 62
    7
 10
-27.469055000000026
 20
479.57328749999999
 11
-27.659248000000048
 21
479.77757250000002
  0
LINE
  8
_0-0_0
  6
CONTINUOUS
 62
    7
 10
-27.908187999999996
 20
479.40470849999997
 11
-27.903548999999998
 21
479.68379149999998
  0
LINE
  8
_0-0_0
  6
CONTINUOUS
 62
    7
 10
-27.693038999999999
 20
479.50050350000004
 11
-27.903548999999998
 21
479.68379149999998
  0
LINE
  8
_0-0_0
  6
CONTINUOUS
 62
    7
 10
-28.027725000000032
 20
479.48857150000003
 11
-28.136710999999991
 21
479.56501749999995
  0
LINE
  8
_0-0_0
  6
CONTINUOUS
 62
    7
 10
-27.908187999999996
 20
479.40470849999997
 11
-28.027725000000032
 21
479.48857150000003
  0
LINE
  8
_0-0_0
  6
CONTINUOUS
 62
    7
 10
-28.112144000000001
 20
479.28694150000001
 11
-28.136710999999991
 21
479.56501749999995
  0
LINE
  8
_0-0_0
  6
CONTINUOUS
 62
    7
 10
-28.302681000000007
 20
479.14851350000004
 11
-28.356171000000018
 21
479.42250049999996
  0
LINE
  8
_0-0_0
  6
CONTINUOUS
 62
    7
 10
-28.112144000000001
 20
479.28694150000001
 11
-28.356171000000018
 21
479.42250049999996
  0
LINE
  8
_0-0_0
  6
CONTINUOUS
 62
    7
 10
-28.47769900000003
 20
478.99092050000002
 11
-28.559540000000027
 21
479.25779750000004
  0
LINE
  8
_0-0_0
  6
CONTINUOUS
 62
    7
 10
-28.302681000000007
 20
479.14851350000004
 11
-28.559540000000027
 21
479.25779750000004
  0
LINE
  8
_0-0_0
  6
CONTINUOUS
 62
    7
 10
-28.635284000000013
 20
478.81590249999999
 11
-28.744568000000015
 21
479.07276950000005
  0
LINE
  8
_0-0_0
  6
CONTINUOUS
 62
    7
 10
-28.47769900000003
 20
478.99092050000002
 11
-28.744568000000015
 21
479.07276950000005
  0
LINE
  8
_0-0_0
  6
CONTINUOUS
 62
    7
 10
-28.773720000000026
 20
478.6253815
 11
-28.909248000000048
 21
478.86939949999999
  0
LINE
  8
_0-0_0
  6
CONTINUOUS
 62
    7
 10
-28.635284000000013
 20
478.81590249999999
 11
-28.909248000000048
 21
478.86939949999999
  0
LINE
  8
_0-0_0
  6
CONTINUOUS
 62
    7
 10
-28.891472000000022
 20
478.42143250000004
 11
-29.051773000000026
 21
478.64994750000005
  0
LINE
  8
_0-0_0
  6
CONTINUOUS
 62
    7
 10
-28.773720000000026
 20
478.6253815
 11
-29.051773000000026
 21
478.64994750000005
  0
LINE
  8
_0-0_0
  6
CONTINUOUS
 62
    7
 10
-28.987266000000034
 20
478.20628350000004
 11
-29.170569999999998
 21
478.41679350000004
  0
LINE
  8
_0-0_0
  6
CONTINUOUS
 62
    7
 10
-28.891472000000022
 20
478.42143250000004
 11
-29.170569999999998
 21
478.41679350000004
  0
LINE
  8
_0-0_0
  6
CONTINUOUS
 62
    7
 10
-29.060043000000007
 20
477.98228449999999
 11
-29.264351000000033
 21
478.17250049999996
  0
LINE
  8
_0-0_0
  6
CONTINUOUS
 62
    7
 10
-28.987266000000034
 20
478.20628350000004
 11
-29.264351000000033
 21
478.17250049999996
  0
LINE
  8
_0-0_0
  6
CONTINUOUS
 62
    7
 10
-29.109009000000015
 20
477.75190750000002
 11
-29.332077000000027
 21
477.91972350000003
  0
LINE
  8
_0-0_0
  6
CONTINUOUS
 62
    7
 10
-29.060043000000007
 20
477.98228449999999
 11
-29.332077000000027
 21
477.91972350000003
  0
LINE
  8
_0-0_0
  6
CONTINUOUS
 62
    7
 10
-29.109009000000015
 20
477.75190750000002
 11
-29.373016000000007
 21
477.6612705
  0
LINE
  8
_0-0_0
  6
CONTINUOUS
 62
    7
 10
-29.133621000000005
 20
477.51768449999997
 11
-29.373016000000007
 21
477.6612705
  0
LINE
  8
_0-0_0
  6
CONTINUOUS
 62
    7
 10
-29.133621000000005
 20
477.28218049999998
 11
-29.386710999999991
 21
477.39994750000005
  0
LINE
  8
_0-0_0
  6
CONTINUOUS
 62
    7
 10
-29.133621000000005
 20
477.51768449999997
 11
-29.386710999999991
 21
477.39994750000005
  0
LINE
  8
_0-0_0
  6
CONTINUOUS
 62
    7
 10
-29.109009000000015
 20
477.04795850000005
 11
-29.373016000000007
 21
477.13862549999999
  0
LINE
  8
_0-0_0
  6
CONTINUOUS
 62
    7
 10
-29.133621000000005
 20
477.28218049999998
 11
-29.373016000000007
 21
477.13862549999999
  0
LINE
  8
_0-0_0
  6
CONTINUOUS
 62
    7
 10
-29.060043000000007
 20
476.8176115
 11
-29.332077000000027
 21
476.88017249999996
  0
LINE
  8
_0-0_0
  6
CONTINUOUS
 62
    7
 10
-29.109009000000015
 20
477.04795850000005
 11
-29.332077000000027
 21
476.88017249999996
  0
LINE
  8
_0-0_0
  6
CONTINUOUS
 62
    7
 10
-28.987266000000034
 20
476.59361249999995
 11
-29.264351000000033
 21
476.62739550000003
  0
LINE
  8
_0-0_0
  6
CONTINUOUS
 62
    7
 10
-29.060043000000007
 20
476.8176115
 11
-29.264351000000033
 21
476.62739550000003
  0
LINE
  8
_0-0_0
  6
CONTINUOUS
 62
    7
 10
-28.891472000000022
 20
476.37846349999995
 11
-29.170569999999998
 21
476.38310249999995
  0
LINE
  8
_0-0_0
  6
CONTINUOUS
 62
    7
 10
-28.987266000000034
 20
476.59361249999995
 11
-29.170569999999998
 21
476.38310249999995
  0
LINE
  8
_0-0_0
  6
CONTINUOUS
 62
    7
 10
-28.773720000000026
 20
476.17451449999999
 11
-29.051773000000026
 21
476.14994750000005
  0
LINE
  8
_0-0_0
  6
CONTINUOUS
 62
    7
 10
-28.891472000000022
 20
476.37846349999995
 11
-29.051773000000026
 21
476.14994750000005
  0
LINE
  8
_0-0_0
  6
CONTINUOUS
 62
    7
 10
-28.635284000000013
 20
475.98396249999996
 11
-28.909248000000048
 21
475.9304965
  0
LINE
  8
_0-0_0
  6
CONTINUOUS
 62
    7
 10
-28.773720000000026
 20
476.17451449999999
 11
-28.909248000000048
 21
475.9304965
  0
LINE
  8
_0-0_0
  6
CONTINUOUS
 62
    7
 10
-28.47769900000003
 20
475.80894450000005
 11
-28.744568000000015
 21
475.72712650000005
  0
LINE
  8
_0-0_0
  6
CONTINUOUS
 62
    7
 10
-28.635284000000013
 20
475.98396249999996
 11
-28.744568000000015
 21
475.72712650000005
  0
LINE
  8
_0-0_0
  6
CONTINUOUS
 62
    7
 10
-28.302681000000007
 20
475.65135150000003
 11
-28.559540000000027
 21
475.54206850000003
  0
LINE
  8
_0-0_0
  6
CONTINUOUS
 62
    7
 10
-28.47769900000003
 20
475.80894450000005
 11
-28.559540000000027
 21
475.54206850000003
  0
LINE
  8
_0-0_0
  6
CONTINUOUS
 62
    7
 10
-28.112144000000001
 20
475.51292450000005
 11
-28.356171000000018
 21
475.37739550000003
  0
LINE
  8
_0-0_0
  6
CONTINUOUS
 62
    7
 10
-28.302681000000007
 20
475.65135150000003
 11
-28.356171000000018
 21
475.37739550000003
  0
LINE
  8
_0-0_0
  6
CONTINUOUS
 62
    7
 10
-27.908187999999996
 20
475.39518750000002
 11
-28.136710999999991
 21
475.23487850000004
  0
LINE
  8
_0-0_0
  6
CONTINUOUS
 62
    7
 10
-28.112144000000001
 20
475.51292450000005
 11
-28.136710999999991
 21
475.23487850000004
  0
LINE
  8
_0-0_0
  6
CONTINUOUS
 62
    7
 10
-27.693038999999999
 20
475.29939249999995
 11
-27.903548999999998
 21
475.11607349999997
  0
LINE
  8
_0-0_0
  6
CONTINUOUS
 62
    7
 10
-27.908187999999996
 20
475.39518750000002
 11
-27.903548999999998
 21
475.11607349999997
  0
LINE
  8
_0-0_0
  6
CONTINUOUS
 62
    7
 10
-27.469055000000026
 20
475.2266085
 11
-27.659248000000048
 21
475.02229250000005
  0
LINE
  8
_0-0_0
  6
CONTINUOUS
 62
    7
 10
-27.693038999999999
 20
475.29939249999995
 11
-27.659248000000048
 21
475.02229250000005
  0
LINE
  8
_0-0_0
  6
CONTINUOUS
 62
    7
 10
-27.23868600000003
 20
475.17765750000001
 11
-27.406486000000029
 21
474.95457450000004
  0
LINE
  8
_0-0_0
  6
CONTINUOUS
 62
    7
 10
-27.469055000000026
 20
475.2266085
 11
-27.406486000000029
 21
474.95457450000004
  0
LINE
  8
_0-0_0
  6
CONTINUOUS
 62
    7
 10
-27.004462999999987
 20
475.1530305
 11
-27.148025000000018
 21
474.91365050000002
  0
LINE
  8
_0-0_0
  6
CONTINUOUS
 62
    7
 10
-27.23868600000003
 20
475.17765750000001
 11
-27.148025000000018
 21
474.91365050000002
  0
LINE
  8
_0-0_0
  6
CONTINUOUS
 62
    7
 10
-26.768951000000015
 20
475.1530305
 11
-26.886710999999991
 21
474.89994750000005
  0
LINE
  8
_0-0_0
  6
CONTINUOUS
 62
    7
 10
-27.004462999999987
 20
475.1530305
 11
-26.886710999999991
 21
474.89994750000005
  0
LINE
  8
_0-0_0
  6
CONTINUOUS
 62
    7
 10
-26.534729000000027
 20
475.17765750000001
 11
-26.625389000000041
 21
474.91365050000002
  0
LINE
  8
_0-0_0
  6
CONTINUOUS
 62
    7
 10
-26.768951000000015
 20
475.1530305
 11
-26.625389000000041
 21
474.91365050000002
  0
LINE
  8
_0-0_0
  6
CONTINUOUS
 62
    7
 10
-26.304367000000013
 20
475.2266085
 11
-26.36692800000003
 21
474.95457450000004
  0
LINE
  8
_0-0_0
  6
CONTINUOUS
 62
    7
 10
-26.534729000000027
 20
475.17765750000001
 11
-26.36692800000003
 21
474.95457450000004
  0
LINE
  8
_0-0_0
  6
CONTINUOUS
 62
    7
 10
-26.080382999999983
 20
475.29939249999995
 11
-26.114166000000012
 21
475.02229250000005
  0
LINE
  8
_0-0_0
  6
CONTINUOUS
 62
    7
 10
-26.304367000000013
 20
475.2266085
 11
-26.114166000000012
 21
475.02229250000005
  0
LINE
  8
_0-0_0
  6
CONTINUOUS
 62
    7
 10
-25.865233999999987
 20
475.39518750000002
 11
-25.869865000000004
 21
475.11607349999997
  0
LINE
  8
_0-0_0
  6
CONTINUOUS
 62
    7
 10
-26.080382999999983
 20
475.29939249999995
 11
-25.869865000000004
 21
475.11607349999997
  0
LINE
  8
_0-0_0
  6
CONTINUOUS
 62
    7
 10
-25.745697000000007
 20
475.31132449999996
 11
-25.636710999999991
 21
475.23487850000004
  0
LINE
  8
_0-0_0
  6
CONTINUOUS
 62
    7
 10
-25.865233999999987
 20
475.39518750000002
 11
-25.745697000000007
 21
475.31132449999996
  0
LINE
  8
_0-0_0
  6
CONTINUOUS
 62
    7
 10
-25.661270000000002
 20
475.51292450000005
 11
-25.636710999999991
 21
475.23487850000004
  0
LINE
  8
_0-0_0
  6
CONTINUOUS
 62
    7
 10
-25.470733999999993
 20
475.65135150000003
 11
-25.417243999999982
 21
475.37739550000003
  0
LINE
  8
_0-0_0
  6
CONTINUOUS
 62
    7
 10
-25.661270000000002
 20
475.51292450000005
 11
-25.417243999999982
 21
475.37739550000003
  0
LINE
  8
_0-0_0
  6
CONTINUOUS
 62
    7
 10
-25.29571500000003
 20
475.80894450000005
 11
-25.213882000000012
 21
475.54206850000003
  0
LINE
  8
_0-0_0
  6
CONTINUOUS
 62
    7
 10
-25.470733999999993
 20
475.65135150000003
 11
-25.213882000000012
 21
475.54206850000003
  0
LINE
  8
_0-0_0
  6
CONTINUOUS
 62
    7
 10
-25.138130000000046
 20
475.98396249999996
 11
-25.028847000000042
 21
475.72712650000005
  0
LINE
  8
_0-0_0
  6
CONTINUOUS
 62
    7
 10
-25.29571500000003
 20
475.80894450000005
 11
-25.028847000000042
 21
475.72712650000005
  0
LINE
  8
_0-0_0
  6
CONTINUOUS
 62
    7
 10
-24.999702000000013
 20
476.17451449999999
 11
-24.864166000000012
 21
475.9304965
  0
LINE
  8
_0-0_0
  6
CONTINUOUS
 62
    7
 10
-25.138130000000046
 20
475.98396249999996
 11
-24.864166000000012
 21
475.9304965
  0
LINE
  8
_0-0_0
  6
CONTINUOUS
 62
    7
 10
-24.881942999999978
 20
476.37846349999995
 11
-24.721649000000014
 21
476.14994750000005
  0
LINE
  8
_0-0_0
  6
CONTINUOUS
 62
    7
 10
-24.999702000000013
 20
476.17451449999999
 11
-24.721649000000014
 21
476.14994750000005
  0
LINE
  8
_0-0_0
  6
CONTINUOUS
 62
    7
 10
-24.786148000000026
 20
476.59361249999995
 11
-24.602844000000005
 21
476.38310249999995
  0
LINE
  8
_0-0_0
  6
CONTINUOUS
 62
    7
 10
-24.881942999999978
 20
476.37846349999995
 11
-24.602844000000005
 21
476.38310249999995
  0
LINE
  8
_0-0_0
  6
CONTINUOUS
 62
    7
 10
-24.713379000000032
 20
476.8176115
 11
-24.509064000000023
 21
476.62739550000003
  0
LINE
  8
_0-0_0
  6
CONTINUOUS
 62
    7
 10
-24.786148000000026
 20
476.59361249999995
 11
-24.509064000000023
 21
476.62739550000003
  0
LINE
  8
_0-0_0
  6
CONTINUOUS
 62
    7
 10
-24.664413000000025
 20
477.04795850000005
 11
-24.44133800000003
 21
476.88017249999996
  0
LINE
  8
_0-0_0
  6
CONTINUOUS
 62
    7
 10
-24.713379000000032
 20
476.8176115
 11
-24.44133800000003
 21
476.88017249999996
  0
LINE
  8
_0-0_0
  6
CONTINUOUS
 62
    7
 10
-24.639792999999997
 20
477.28218049999998
 11
-24.400406000000032
 21
477.13862549999999
  0
LINE
  8
_0-0_0
  6
CONTINUOUS
 62
    7
 10
-24.664413000000025
 20
477.04795850000005
 11
-24.400406000000032
 21
477.13862549999999
  0
LINE
  8
_0-0_0
  6
CONTINUOUS
 62
    7
 10
-24.639792999999997
 20
477.51768449999997
 11
-24.386710999999991
 21
477.39994750000005
  0
LINE
  8
_0-0_0
  6
CONTINUOUS
 62
    7
 10
-24.639792999999997
 20
477.28218049999998
 11
-24.386710999999991
 21
477.39994750000005
  0
LINE
  8
_0-0_0
  6
CONTINUOUS
 62
    7
 10
-24.664413000000025
 20
477.75190750000002
 11
-24.400406000000032
 21
477.6612705
  0
LINE
  8
_0-0_0
  6
CONTINUOUS
 62
    7
 10
-24.639792999999997
 20
477.51768449999997
 11
-24.400406000000032
 21
477.6612705
  0
LINE
  8
_0-0_0
  6
CONTINUOUS
 62
    7
 10
-24.713379000000032
 20
477.98228449999999
 11
-24.44133800000003
 21
477.91972350000003
  0
LINE
  8
_0-0_0
  6
CONTINUOUS
 62
    7
 10
-24.664413000000025
 20
477.75190750000002
 11
-24.44133800000003
 21
477.91972350000003
  0
LINE
  8
_0-0_0
  6
CONTINUOUS
 62
    7
 10
-24.786148000000026
 20
478.20628350000004
 11
-24.509064000000023
 21
478.17250049999996
  0
LINE
  8
_0-0_0
  6
CONTINUOUS
 62
    7
 10
-24.713379000000032
 20
477.98228449999999
 11
-24.509064000000023
 21
478.17250049999996
  0
LINE
  8
_0-0_0
  6
CONTINUOUS
 62
    7
 10
-24.881942999999978
 20
478.42143250000004
 11
-24.602844000000005
 21
478.41679350000004
  0
LINE
  8
_0-0_0
  6
CONTINUOUS
 62
    7
 10
-24.786148000000026
 20
478.20628350000004
 11
-24.602844000000005
 21
478.41679350000004
  0
CIRCLE
  8
_0-0_0
  6
CONTINUOUS
 62
    7
 10
-32.886710999999991
 20
469.09992950000003
 40
5.25
  0
LINE
  8
_0-0_0
  6
CONTINUOUS
 62
    7
 10
-36.999702000000013
 20
462.0253755
 11
-36.721649000000014
 21
462.04994150000005
  0
LINE
  8
_0-0_0
  6
CONTINUOUS
 62
    7
 10
-36.881942999999978
 20
461.82142650000003
 11
-36.721649000000014
 21
462.04994150000005
  0
LINE
  8
_0-0_0
  6
CONTINUOUS
 62
    7
 10
-37.138130000000046
 20
462.21592650000002
 11
-36.864166000000012
 21
462.26939349999998
  0
LINE
  8
_0-0_0
  6
CONTINUOUS
 62
    7
 10
-36.999702000000013
 20
462.0253755
 11
-36.864166000000012
 21
462.26939349999998
  0
LINE
  8
_0-0_0
  6
CONTINUOUS
 62
    7
 10
-37.29571500000003
 20
462.39094550000004
 11
-37.028847000000042
 21
462.47276250000004
  0
LINE
  8
_0-0_0
  6
CONTINUOUS
 62
    7
 10
-37.138130000000046
 20
462.21592650000002
 11
-37.028847000000042
 21
462.47276250000004
  0
LINE
  8
_0-0_0
  6
CONTINUOUS
 62
    7
 10
-37.470733999999993
 20
462.54850750000003
 11
-37.213882000000012
 21
462.65779150000003
  0
LINE
  8
_0-0_0
  6
CONTINUOUS
 62
    7
 10
-37.29571500000003
 20
462.39094550000004
 11
-37.213882000000012
 21
462.65779150000003
  0
LINE
  8
_0-0_0
  6
CONTINUOUS
 62
    7
 10
-37.661270000000002
 20
462.68696550000004
 11
-37.417243999999982
 21
462.82249449999995
  0
LINE
  8
_0-0_0
  6
CONTINUOUS
 62
    7
 10
-37.470733999999993
 20
462.54850750000003
 11
-37.417243999999982
 21
462.82249449999995
  0
LINE
  8
_0-0_0
  6
CONTINUOUS
 62
    7
 10
-37.865227000000004
 20
462.80470249999996
 11
-37.636710999999991
 21
462.96501150000006
  0
LINE
  8
_0-0_0
  6
CONTINUOUS
 62
    7
 10
-37.661270000000002
 20
462.68696550000004
 11
-37.636710999999991
 21
462.96501150000006
  0
LINE
  8
_0-0_0
  6
CONTINUOUS
 62
    7
 10
-38.080382999999983
 20
462.90049750000003
 11
-37.869865000000004
 21
463.08381650000001
  0
LINE
  8
_0-0_0
  6
CONTINUOUS
 62
    7
 10
-37.865227000000004
 20
462.80470249999996
 11
-37.869865000000004
 21
463.08381650000001
  0
LINE
  8
_0-0_0
  6
CONTINUOUS
 62
    7
 10
-38.304367000000013
 20
462.97328149999998
 11
-38.114166000000012
 21
463.17759650000005
  0
LINE
  8
_0-0_0
  6
CONTINUOUS
 62
    7
 10
-38.080382999999983
 20
462.90049750000003
 11
-38.114166000000012
 21
463.17759650000005
  0
LINE
  8
_0-0_0
  6
CONTINUOUS
 62
    7
 10
-38.534729000000027
 20
463.02223149999998
 11
-38.36692800000003
 21
463.24531549999995
  0
LINE
  8
_0-0_0
  6
CONTINUOUS
 62
    7
 10
-38.304367000000013
 20
462.97328149999998
 11
-38.36692800000003
 21
463.24531549999995
  0
LINE
  8
_0-0_0
  6
CONTINUOUS
 62
    7
 10
-38.768951000000015
 20
463.04685949999998
 11
-38.625389000000041
 21
463.28623949999997
  0
LINE
  8
_0-0_0
  6
CONTINUOUS
 62
    7
 10
-38.534729000000027
 20
463.02223149999998
 11
-38.625389000000041
 21
463.28623949999997
  0
LINE
  8
_0-0_0
  6
CONTINUOUS
 62
    7
 10
-39.004462999999987
 20
463.04685949999998
 11
-38.886710999999991
 21
463.29994150000005
  0
LINE
  8
_0-0_0
  6
CONTINUOUS
 62
    7
 10
-38.768951000000015
 20
463.04685949999998
 11
-38.886710999999991
 21
463.29994150000005
  0
LINE
  8
_0-0_0
  6
CONTINUOUS
 62
    7
 10
-39.23868600000003
 20
463.02223149999998
 11
-39.148025000000018
 21
463.28623949999997
  0
LINE
  8
_0-0_0
  6
CONTINUOUS
 62
    7
 10
-39.004462999999987
 20
463.04685949999998
 11
-39.148025000000018
 21
463.28623949999997
  0
LINE
  8
_0-0_0
  6
CONTINUOUS
 62
    7
 10
-39.469055000000026
 20
462.97328149999998
 11
-39.406486000000029
 21
463.24531549999995
  0
LINE
  8
_0-0_0
  6
CONTINUOUS
 62
    7
 10
-39.23868600000003
 20
463.02223149999998
 11
-39.406486000000029
 21
463.24531549999995
  0
LINE
  8
_0-0_0
  6
CONTINUOUS
 62
    7
 10
-39.693038999999999
 20
462.90049750000003
 11
-39.659248000000048
 21
463.17759650000005
  0
LINE
  8
_0-0_0
  6
CONTINUOUS
 62
    7
 10
-39.469055000000026
 20
462.97328149999998
 11
-39.659248000000048
 21
463.17759650000005
  0
LINE
  8
_0-0_0
  6
CONTINUOUS
 62
    7
 10
-39.908187999999996
 20
462.80470249999996
 11
-39.903548999999998
 21
463.08381650000001
  0
LINE
  8
_0-0_0
  6
CONTINUOUS
 62
    7
 10
-39.693038999999999
 20
462.90049750000003
 11
-39.903548999999998
 21
463.08381650000001
  0
LINE
  8
_0-0_0
  6
CONTINUOUS
 62
    7
 10
-40.027725000000032
 20
462.88856450000003
 11
-40.136710999999991
 21
462.96501150000006
  0
LINE
  8
_0-0_0
  6
CONTINUOUS
 62
    7
 10
-39.908187999999996
 20
462.80470249999996
 11
-40.027725000000032
 21
462.88856450000003
  0
LINE
  8
_0-0_0
  6
CONTINUOUS
 62
    7
 10
-40.112144000000001
 20
462.68696550000004
 11
-40.136710999999991
 21
462.96501150000006
  0
LINE
  8
_0-0_0
  6
CONTINUOUS
 62
    7
 10
-40.302681000000007
 20
462.54850750000003
 11
-40.356171000000018
 21
462.82249449999995
  0
LINE
  8
_0-0_0
  6
CONTINUOUS
 62
    7
 10
-40.112144000000001
 20
462.68696550000004
 11
-40.356171000000018
 21
462.82249449999995
  0
LINE
  8
_0-0_0
  6
CONTINUOUS
 62
    7
 10
-40.47769900000003
 20
462.39094550000004
 11
-40.55953199999999
 21
462.65779150000003
  0
LINE
  8
_0-0_0
  6
CONTINUOUS
 62
    7
 10
-40.302681000000007
 20
462.54850750000003
 11
-40.55953199999999
 21
462.65779150000003
  0
LINE
  8
_0-0_0
  6
CONTINUOUS
 62
    7
 10
-40.635284000000013
 20
462.21592650000002
 11
-40.744568000000015
 21
462.47276250000004
  0
LINE
  8
_0-0_0
  6
CONTINUOUS
 62
    7
 10
-40.47769900000003
 20
462.39094550000004
 11
-40.744568000000015
 21
462.47276250000004
  0
LINE
  8
_0-0_0
  6
CONTINUOUS
 62
    7
 10
-40.773720000000026
 20
462.0253755
 11
-40.909248000000048
 21
462.26939349999998
  0
LINE
  8
_0-0_0
  6
CONTINUOUS
 62
    7
 10
-40.635284000000013
 20
462.21592650000002
 11
-40.909248000000048
 21
462.26939349999998
  0
LINE
  8
_0-0_0
  6
CONTINUOUS
 62
    7
 10
-40.891472000000022
 20
461.82142650000003
 11
-41.051773000000026
 21
462.04994150000005
  0
LINE
  8
_0-0_0
  6
CONTINUOUS
 62
    7
 10
-40.773720000000026
 20
462.0253755
 11
-41.051773000000026
 21
462.04994150000005
  0
LINE
  8
_0-0_0
  6
CONTINUOUS
 62
    7
 10
-40.987266000000034
 20
461.60627750000003
 11
-41.170569999999998
 21
461.81678750000003
  0
LINE
  8
_0-0_0
  6
CONTINUOUS
 62
    7
 10
-40.891472000000022
 20
461.82142650000003
 11
-41.170569999999998
 21
461.81678750000003
  0
LINE
  8
_0-0_0
  6
CONTINUOUS
 62
    7
 10
-41.060043000000007
 20
461.38227849999998
 11
-41.264351000000033
 21
461.57249449999995
  0
LINE
  8
_0-0_0
  6
CONTINUOUS
 62
    7
 10
-40.987266000000034
 20
461.60627750000003
 11
-41.264351000000033
 21
461.57249449999995
  0
LINE
  8
_0-0_0
  6
CONTINUOUS
 62
    7
 10
-41.109009000000015
 20
461.15193150000005
 11
-41.332077000000027
 21
461.31971750000002
  0
LINE
  8
_0-0_0
  6
CONTINUOUS
 62
    7
 10
-41.060043000000007
 20
461.38227849999998
 11
-41.332077000000027
 21
461.31971750000002
  0
LINE
  8
_0-0_0
  6
CONTINUOUS
 62
    7
 10
-41.109009000000015
 20
461.15193150000005
 11
-41.373016000000007
 21
461.0612635
  0
LINE
  8
_0-0_0
  6
CONTINUOUS
 62
    7
 10
-41.133629000000042
 20
460.9177095
 11
-41.373016000000007
 21
461.0612635
  0
LINE
  8
_0-0_0
  6
CONTINUOUS
 62
    7
 10
-41.133629000000042
 20
460.68217449999997
 11
-41.386710999999991
 21
460.79994150000005
  0
LINE
  8
_0-0_0
  6
CONTINUOUS
 62
    7
 10
-41.133629000000042
 20
460.9177095
 11
-41.386710999999991
 21
460.79994150000005
  0
LINE
  8
_0-0_0
  6
CONTINUOUS
 62
    7
 10
-41.109009000000015
 20
460.44795250000004
 11
-41.373016000000007
 21
460.53861949999998
  0
LINE
  8
_0-0_0
  6
CONTINUOUS
 62
    7
 10
-41.133629000000042
 20
460.68217449999997
 11
-41.373016000000007
 21
460.53861949999998
  0
LINE
  8
_0-0_0
  6
CONTINUOUS
 62
    7
 10
-41.060043000000007
 20
460.21760549999999
 11
-41.332077000000027
 21
460.28016649999995
  0
LINE
  8
_0-0_0
  6
CONTINUOUS
 62
    7
 10
-41.109009000000015
 20
460.44795250000004
 11
-41.332077000000027
 21
460.28016649999995
  0
LINE
  8
_0-0_0
  6
CONTINUOUS
 62
    7
 10
-40.987266000000034
 20
459.99360650000006
 11
-41.264351000000033
 21
460.02738950000003
  0
LINE
  8
_0-0_0
  6
CONTINUOUS
 62
    7
 10
-41.060043000000007
 20
460.21760549999999
 11
-41.264351000000033
 21
460.02738950000003
  0
LINE
  8
_0-0_0
  6
CONTINUOUS
 62
    7
 10
-40.891472000000022
 20
459.77845750000006
 11
-41.170569999999998
 21
459.78309650000006
  0
LINE
  8
_0-0_0
  6
CONTINUOUS
 62
    7
 10
-40.987266000000034
 20
459.99360650000006
 11
-41.170569999999998
 21
459.78309650000006
  0
LINE
  8
_0-0_0
  6
CONTINUOUS
 62
    7
 10
-40.773720000000026
 20
459.57450849999998
 11
-41.051773000000026
 21
459.54994150000005
  0
LINE
  8
_0-0_0
  6
CONTINUOUS
 62
    7
 10
-40.891472000000022
 20
459.77845750000006
 11
-41.051773000000026
 21
459.54994150000005
  0
LINE
  8
_0-0_0
  6
CONTINUOUS
 62
    7
 10
-40.635284000000013
 20
459.38398749999999
 11
-40.909248000000048
 21
459.3304895
  0
LINE
  8
_0-0_0
  6
CONTINUOUS
 62
    7
 10
-40.773720000000026
 20
459.57450849999998
 11
-40.909248000000048
 21
459.3304895
  0
LINE
  8
_0-0_0
  6
CONTINUOUS
 62
    7
 10
-40.47769900000003
 20
459.20896849999997
 11
-40.744568000000015
 21
459.12712050000005
  0
LINE
  8
_0-0_0
  6
CONTINUOUS
 62
    7
 10
-40.635284000000013
 20
459.38398749999999
 11
-40.744568000000015
 21
459.12712050000005
  0
LINE
  8
_0-0_0
  6
CONTINUOUS
 62
    7
 10
-40.302681000000007
 20
459.05137649999995
 11
-40.55953199999999
 21
458.94209250000006
  0
LINE
  8
_0-0_0
  6
CONTINUOUS
 62
    7
 10
-40.47769900000003
 20
459.20896849999997
 11
-40.55953199999999
 21
458.94209250000006
  0
LINE
  8
_0-0_0
  6
CONTINUOUS
 62
    7
 10
-40.112144000000001
 20
458.91291750000005
 11
-40.356171000000018
 21
458.77738950000003
  0
LINE
  8
_0-0_0
  6
CONTINUOUS
 62
    7
 10
-40.302681000000007
 20
459.05137649999995
 11
-40.356171000000018
 21
458.77738950000003
  0
LINE
  8
_0-0_0
  6
CONTINUOUS
 62
    7
 10
-39.908187999999996
 20
458.79518150000001
 11
-40.136710999999991
 21
458.63487250000003
  0
LINE
  8
_0-0_0
  6
CONTINUOUS
 62
    7
 10
-40.112144000000001
 20
458.91291750000005
 11
-40.136710999999991
 21
458.63487250000003
  0
LINE
  8
_0-0_0
  6
CONTINUOUS
 62
    7
 10
-39.693038999999999
 20
458.69938650000006
 11
-39.903548999999998
 21
458.51606749999996
  0
LINE
  8
_0-0_0
  6
CONTINUOUS
 62
    7
 10
-39.908187999999996
 20
458.79518150000001
 11
-39.903548999999998
 21
458.51606749999996
  0
LINE
  8
_0-0_0
  6
CONTINUOUS
 62
    7
 10
-39.469055000000026
 20
458.62660249999999
 11
-39.659248000000048
 21
458.42228650000004
  0
LINE
  8
_0-0_0
  6
CONTINUOUS
 62
    7
 10
-39.693038999999999
 20
458.69938650000006
 11
-39.659248000000048
 21
458.42228650000004
  0
LINE
  8
_0-0_0
  6
CONTINUOUS
 62
    7
 10
-39.23868600000003
 20
458.5776515
 11
-39.406486000000029
 21
458.35456850000003
  0
LINE
  8
_0-0_0
  6
CONTINUOUS
 62
    7
 10
-39.469055000000026
 20
458.62660249999999
 11
-39.406486000000029
 21
458.35456850000003
  0
LINE
  8
_0-0_0
  6
CONTINUOUS
 62
    7
 10
-39.004462999999987
 20
458.55302449999999
 11
-39.148025000000018
 21
458.31364450000001
  0
LINE
  8
_0-0_0
  6
CONTINUOUS
 62
    7
 10
-39.23868600000003
 20
458.5776515
 11
-39.148025000000018
 21
458.31364450000001
  0
LINE
  8
_0-0_0
  6
CONTINUOUS
 62
    7
 10
-38.768951000000015
 20
458.55302449999999
 11
-38.886710999999991
 21
458.29994150000005
  0
LINE
  8
_0-0_0
  6
CONTINUOUS
 62
    7
 10
-39.004462999999987
 20
458.55302449999999
 11
-38.886710999999991
 21
458.29994150000005
  0
LINE
  8
_0-0_0
  6
CONTINUOUS
 62
    7
 10
-38.534729000000027
 20
458.5776515
 11
-38.625389000000041
 21
458.31364450000001
  0
LINE
  8
_0-0_0
  6
CONTINUOUS
 62
    7
 10
-38.768951000000015
 20
458.55302449999999
 11
-38.625389000000041
 21
458.31364450000001
  0
LINE
  8
_0-0_0
  6
CONTINUOUS
 62
    7
 10
-38.304367000000013
 20
458.62660249999999
 11
-38.36692800000003
 21
458.35456850000003
  0
LINE
  8
_0-0_0
  6
CONTINUOUS
 62
    7
 10
-38.534729000000027
 20
458.5776515
 11
-38.36692800000003
 21
458.35456850000003
  0
LINE
  8
_0-0_0
  6
CONTINUOUS
 62
    7
 10
-38.080382999999983
 20
458.69938650000006
 11
-38.114166000000012
 21
458.42228650000004
  0
LINE
  8
_0-0_0
  6
CONTINUOUS
 62
    7
 10
-38.304367000000013
 20
458.62660249999999
 11
-38.114166000000012
 21
458.42228650000004
  0
LINE
  8
_0-0_0
  6
CONTINUOUS
 62
    7
 10
-37.865227000000004
 20
458.79518150000001
 11
-37.869865000000004
 21
458.51606749999996
  0
LINE
  8
_0-0_0
  6
CONTINUOUS
 62
    7
 10
-38.080382999999983
 20
458.69938650000006
 11
-37.869865000000004
 21
458.51606749999996
  0
LINE
  8
_0-0_0
  6
CONTINUOUS
 62
    7
 10
-37.745697000000007
 20
458.71131849999995
 11
-37.636710999999991
 21
458.63487250000003
  0
LINE
  8
_0-0_0
  6
CONTINUOUS
 62
    7
 10
-37.865227000000004
 20
458.79518150000001
 11
-37.745697000000007
 21
458.71131849999995
  0
LINE
  8
_0-0_0
  6
CONTINUOUS
 62
    7
 10
-37.661270000000002
 20
458.91291750000005
 11
-37.636710999999991
 21
458.63487250000003
  0
LINE
  8
_0-0_0
  6
CONTINUOUS
 62
    7
 10
-37.470733999999993
 20
459.05137649999995
 11
-37.417243999999982
 21
458.77738950000003
  0
LINE
  8
_0-0_0
  6
CONTINUOUS
 62
    7
 10
-37.661270000000002
 20
458.91291750000005
 11
-37.417243999999982
 21
458.77738950000003
  0
LINE
  8
_0-0_0
  6
CONTINUOUS
 62
    7
 10
-37.29571500000003
 20
459.20896849999997
 11
-37.213882000000012
 21
458.94209250000006
  0
LINE
  8
_0-0_0
  6
CONTINUOUS
 62
    7
 10
-37.470733999999993
 20
459.05137649999995
 11
-37.213882000000012
 21
458.94209250000006
  0
LINE
  8
_0-0_0
  6
CONTINUOUS
 62
    7
 10
-37.138130000000046
 20
459.38398749999999
 11
-37.028847000000042
 21
459.12712050000005
  0
LINE
  8
_0-0_0
  6
CONTINUOUS
 62
    7
 10
-37.29571500000003
 20
459.20896849999997
 11
-37.028847000000042
 21
459.12712050000005
  0
LINE
  8
_0-0_0
  6
CONTINUOUS
 62
    7
 10
-36.999702000000013
 20
459.57450849999998
 11
-36.864166000000012
 21
459.3304895
  0
LINE
  8
_0-0_0
  6
CONTINUOUS
 62
    7
 10
-37.138130000000046
 20
459.38398749999999
 11
-36.864166000000012
 21
459.3304895
  0
LINE
  8
_0-0_0
  6
CONTINUOUS
 62
    7
 10
-36.881942999999978
 20
459.77845750000006
 11
-36.721649000000014
 21
459.54994150000005
  0
LINE
  8
_0-0_0
  6
CONTINUOUS
 62
    7
 10
-36.999702000000013
 20
459.57450849999998
 11
-36.721649000000014
 21
459.54994150000005
  0
LINE
  8
_0-0_0
  6
CONTINUOUS
 62
    7
 10
-36.786148000000026
 20
459.99360650000006
 11
-36.602844000000005
 21
459.78309650000006
  0
LINE
  8
_0-0_0
  6
CONTINUOUS
 62
    7
 10
-36.881942999999978
 20
459.77845750000006
 11
-36.602844000000005
 21
459.78309650000006
  0
LINE
  8
_0-0_0
  6
CONTINUOUS
 62
    7
 10
-36.713379000000032
 20
460.21760549999999
 11
-36.509064000000023
 21
460.02738950000003
  0
LINE
  8
_0-0_0
  6
CONTINUOUS
 62
    7
 10
-36.786148000000026
 20
459.99360650000006
 11
-36.509064000000023
 21
460.02738950000003
  0
LINE
  8
_0-0_0
  6
CONTINUOUS
 62
    7
 10
-36.664413000000025
 20
460.44795250000004
 11
-36.44133800000003
 21
460.28016649999995
  0
LINE
  8
_0-0_0
  6
CONTINUOUS
 62
    7
 10
-36.713379000000032
 20
460.21760549999999
 11
-36.44133800000003
 21
460.28016649999995
  0
LINE
  8
_0-0_0
  6
CONTINUOUS
 62
    7
 10
-36.639792999999997
 20
460.68217449999997
 11
-36.400406000000032
 21
460.53861949999998
  0
LINE
  8
_0-0_0
  6
CONTINUOUS
 62
    7
 10
-36.664413000000025
 20
460.44795250000004
 11
-36.400406000000032
 21
460.53861949999998
  0
LINE
  8
_0-0_0
  6
CONTINUOUS
 62
    7
 10
-36.639792999999997
 20
460.9177095
 11
-36.386710999999991
 21
460.79994150000005
  0
LINE
  8
_0-0_0
  6
CONTINUOUS
 62
    7
 10
-36.639792999999997
 20
460.68217449999997
 11
-36.386710999999991
 21
460.79994150000005
  0
LINE
  8
_0-0_0
  6
CONTINUOUS
 62
    7
 10
-36.664413000000025
 20
461.15193150000005
 11
-36.400406000000032
 21
461.0612635
  0
LINE
  8
_0-0_0
  6
CONTINUOUS
 62
    7
 10
-36.639792999999997
 20
460.9177095
 11
-36.400406000000032
 21
461.0612635
  0
LINE
  8
_0-0_0
  6
CONTINUOUS
 62
    7
 10
-36.713379000000032
 20
461.38227849999998
 11
-36.44133800000003
 21
461.31971750000002
  0
LINE
  8
_0-0_0
  6
CONTINUOUS
 62
    7
 10
-36.664413000000025
 20
461.15193150000005
 11
-36.44133800000003
 21
461.31971750000002
  0
LINE
  8
_0-0_0
  6
CONTINUOUS
 62
    7
 10
-36.786148000000026
 20
461.60627750000003
 11
-36.509064000000023
 21
461.57249449999995
  0
LINE
  8
_0-0_0
  6
CONTINUOUS
 62
    7
 10
-36.713379000000032
 20
461.38227849999998
 11
-36.509064000000023
 21
461.57249449999995
  0
LINE
  8
_0-0_0
  6
CONTINUOUS
 62
    7
 10
-36.881942999999978
 20
461.82142650000003
 11
-36.602844000000005
 21
461.81678750000003
  0
LINE
  8
_0-0_0
  6
CONTINUOUS
 62
    7
 10
-36.786148000000026
 20
461.60627750000003
 11
-36.602844000000005
 21
461.81678750000003
  0
CIRCLE
  8
_0-0_0
  6
CONTINUOUS
 62
    7
 10
-26.886710999999991
 20
477.39994750000005
 40
2
  0
CIRCLE
  8
_0-0_0
  6
CONTINUOUS
 62
    7
 10
-38.886710999999991
 20
460.79994150000005
 40
2
  0
LINE
  8
_0-0_0
  6
CONTINUOUS
 62
    7
 10
-26.304596000000004
 20
476.39994750000005
 11
-27.468818999999996
 21
476.39994750000005
  0
LINE
  8
_0-0_0
  6
CONTINUOUS
 62
    7
 10
-27.468818999999996
 20
476.39994750000005
 11
-28.03671300000002
 21
477.39994750000005
  0
LINE
  8
_0-0_0
  6
CONTINUOUS
 62
    7
 10
-28.03671300000002
 20
477.39994750000005
 11
-27.468818999999996
 21
478.39994750000005
  0
LINE
  8
_0-0_0
  6
CONTINUOUS
 62
    7
 10
-27.468818999999996
 20
478.39994750000005
 11
-26.304596000000004
 21
478.39994750000005
  0
LINE
  8
_0-0_0
  6
CONTINUOUS
 62
    7
 10
-26.304596000000004
 20
478.39994750000005
 11
-25.736710000000016
 21
477.39994750000005
  0
LINE
  8
_0-0_0
  6
CONTINUOUS
 62
    7
 10
-25.736710000000016
 20
477.39994750000005
 11
-26.304596000000004
 21
476.39994750000005
  0
CIRCLE
  8
_0-0_0
  6
CONTINUOUS
 62
    7
 10
-32.886710999999991
 20
469.09992950000003
 40
5
  0
LINE
  8
_0-0_0
  6
CONTINUOUS
 62
    7
 10
-38.304596000000004
 20
459.79994150000005
 11
-39.468818999999996
 21
459.79994150000005
  0
LINE
  8
_0-0_0
  6
CONTINUOUS
 62
    7
 10
-39.468818999999996
 20
459.79994150000005
 11
-40.036704999999984
 21
460.79994150000005
  0
LINE
  8
_0-0_0
  6
CONTINUOUS
 62
    7
 10
-40.036704999999984
 20
460.79994150000005
 11
-39.468818999999996
 21
461.79994150000005
  0
LINE
  8
_0-0_0
  6
CONTINUOUS
 62
    7
 10
-39.468818999999996
 20
461.79994150000005
 11
-38.304596000000004
 21
461.79994150000005
  0
LINE
  8
_0-0_0
  6
CONTINUOUS
 62
    7
 10
-38.304596000000004
 20
461.79994150000005
 11
-37.736710000000016
 21
460.79994150000005
  0
LINE
  8
_0-0_0
  6
CONTINUOUS
 62
    7
 10
-37.736710000000016
 20
460.79994150000005
 11
-38.304596000000004
 21
459.79994150000005
  0
CIRCLE
  8
_0-0_0
  6
CONTINUOUS
 62
    7
 10
-32.886710999999991
 20
469.09992950000003
 40
4.5381200000000002
  0
CIRCLE
  8
_0-0_0
  6
CONTINUOUS
 62
    7
 10
-32.886710999999991
 20
469.09992950000003
 40
4
  0
LINE
  8
_0-0_0
  6
CONTINUOUS
 62
    7
 10
-41.01928700000002
 20
479.05525150000005
 11
-41.686706000000015
 21
479.05525150000005
  0
ARC
  8
_0-0_0
  6
CONTINUOUS
 62
    7
 10
-24.886710999999991
 20
479.52494750000005
 40
0.2
 50
179.94055499999999
 51
269.99997000000002
  0
ARC
  8
_0-0_0
  6
CONTINUOUS
 62
    7
 10
-26.386710999999991
 20
460.29994150000005
 40
2
 50
269.99999700000001
 51
273.84026499999999
  0
ARC
  8
_0-0_0
  6
CONTINUOUS
 62
    7
 10
-39.386710999999991
 20
477.89994750000005
 40
2
 50
90.000003000000007
 51
93.840255999999997
  0
LINE
  8
_0-0_0
  6
CONTINUOUS
 62
    7
 10
-24.586708000000044
 20
479.32493550000004
 11
-24.886710999999991
 21
479.32493550000004
  0
LINE
  8
_0-0_0
  6
CONTINUOUS
 62
    7
 10
-24.586708000000044
 20
482.27494750000005
 11
-24.886710999999991
 21
482.27494750000005
  0
ARC
  8
_0-0_0
  6
CONTINUOUS
 62
    7
 10
-40.886710999999991
 20
479.52500950000001
 40
0.2
 50
270.00002499999994
 51
0.0594439999999606
  0
ARC
  8
_0-0_0
  6
CONTINUOUS
 62
    7
 10
-24.586746000000005
 20
479.52497849999997
 40
0.200055
 50
270.00964199999999
 51
1.3705509999999435
  0
ARC
  8
_0-0_0
  6
CONTINUOUS
 62
    7
 10
-24.586708000000044
 20
482.07493550000004
 40
0.2
 50
359.91222800000003
 51
89.999948000000003
  0
LINE
  8
_0-0_0
  6
CONTINUOUS
 62
    7
 10
-41.186706000000015
 20
479.32502750000003
 11
-40.886710999999991
 21
479.32502750000003
  0
ARC
  8
_0-0_0
  6
CONTINUOUS
 62
    7
 10
-41.186676000000034
 20
479.52507049999997
 40
0.200055
 50
178.629446
 51
269.99035300000003
  0
LINE
  8
_0-0_0
  6
CONTINUOUS
 62
    7
 10
-24.186706000000015
 20
484.80000250000001
 11
-24.186706000000015
 21
498.00001550000002
  0
ARC
  8
_0-0_0
  6
CONTINUOUS
 62
    7
 10
-24.686706000000015
 20
484.80000250000001
 40
0.5
 50
269.99999700000001
 51
0
  0
ARC
  8
_0-0_0
  6
CONTINUOUS
 62
    7
 10
-24.245285000000024
 20
498.20002750000003
 40
0.1
 50
135
 51
225
  0
LINE
  8
_0-0_0
  6
CONTINUOUS
 62
    7
 10
-24.315994000000046
 20
498.12931849999995
 11
-24.186706000000015
 21
498.00001550000002
  0
LINE
  8
_0-0_0
  6
CONTINUOUS
 62
    7
 10
-24.686706000000015
 20
484.30000250000001
 11
-26.586708000000044
 21
484.30000250000001
  0
ARC
  8
_0-0_0
  6
CONTINUOUS
 62
    7
 10
-26.586708000000044
 20
484.80000250000001
 40
0.5
 50
233.12990600000001
 51
269.99999700000001
  0
ARC
  8
_0-0_0
  6
CONTINUOUS
 62
    7
 10
-39.286704999999984
 20
484.80000250000001
 40
0.5
 50
269.99999700000001
 51
306.87009999999998
  0
LINE
  8
_0-0_0
  6
CONTINUOUS
 62
    7
 10
-39.286704999999984
 20
484.30000250000001
 11
-41.186706000000015
 21
484.30000250000001
  0
ARC
  8
_0-0_0
  6
CONTINUOUS
 62
    7
 10
-41.186706000000015
 20
484.80000250000001
 40
0.5
 50
180.00000900000003
 51
269.99999700000001
  0
LINE
  8
_0-0_0
  6
CONTINUOUS
 62
    7
 10
-41.686706000000015
 20
494.23500049999996
 11
-41.686706000000015
 21
484.80000250000001
  0
LINE
  8
_0-0_0
  6
CONTINUOUS
 62
    7
 10
-41.686706000000015
 20
494.23500049999996
 11
-40.986710000000016
 21
494.23500049999996
  0
LINE
  8
_0-0_0
  6
CONTINUOUS
 62
    7
 10
-24.986710000000016
 20
512.80000250000001
 11
-24.780678000000023
 21
512.80000250000001
  0
LINE
  8
_0-0_0
  6
CONTINUOUS
 62
    7
 10
-24.780678000000023
 20
512.80000250000001
 11
-24.186706000000015
 21
512.20603949999997
  0
LINE
  8
_0-0_0
  6
CONTINUOUS
 62
    7
 10
-24.186706000000015
 20
507.20002750000003
 11
-24.186706000000015
 21
512.20603949999997
  0
LINE
  8
_0-0_0
  6
CONTINUOUS
 62
    7
 10
-24.315994000000046
 20
507.07072449999998
 11
-24.186706000000015
 21
507.20002750000003
  0
ARC
  8
_0-0_0
  6
CONTINUOUS
 62
    7
 10
-24.245285000000024
 20
507.00001550000002
 40
0.1
 50
135
 51
225
  0
LINE
  8
_0-0_0
  6
CONTINUOUS
 62
    7
 10
-24.315994000000046
 20
506.92930550000005
 11
-24.186706000000015
 21
506.80000250000001
  0
LINE
  8
_0-0_0
  6
CONTINUOUS
 62
    7
 10
-24.186706000000015
 20
506.10002150000003
 11
-24.186706000000015
 21
506.80000250000001
  0
LINE
  8
_0-0_0
  6
CONTINUOUS
 62
    7
 10
-24.315994000000046
 20
505.97071849999998
 11
-24.186706000000015
 21
506.10002150000003
  0
ARC
  8
_0-0_0
  6
CONTINUOUS
 62
    7
 10
-24.245285000000024
 20
505.90000950000001
 40
0.1
 50
135
 51
225
  0
LINE
  8
_0-0_0
  6
CONTINUOUS
 62
    7
 10
-24.315994000000046
 20
505.82929950000005
 11
-24.186706000000015
 21
505.70002750000003
  0
LINE
  8
_0-0_0
  6
CONTINUOUS
 62
    7
 10
-24.186706000000015
 20
505.00001550000002
 11
-24.186706000000015
 21
505.70002750000003
  0
LINE
  8
_0-0_0
  6
CONTINUOUS
 62
    7
 10
-24.315994000000046
 20
504.87074250000001
 11
-24.186706000000015
 21
505.00001550000002
  0
ARC
  8
_0-0_0
  6
CONTINUOUS
 62
    7
 10
-24.245285000000024
 20
504.80000250000001
 40
0.1
 50
135
 51
225
  0
LINE
  8
_0-0_0
  6
CONTINUOUS
 62
    7
 10
-24.315994000000046
 20
504.72929350000004
 11
-24.186706000000015
 21
504.60002150000003
  0
LINE
  8
_0-0_0
  6
CONTINUOUS
 62
    7
 10
-24.186706000000015
 20
503.90000950000001
 11
-24.186706000000015
 21
504.60002150000003
  0
LINE
  8
_0-0_0
  6
CONTINUOUS
 62
    7
 10
-24.315994000000046
 20
503.7707365
 11
-24.186706000000015
 21
503.90000950000001
  0
ARC
  8
_0-0_0
  6
CONTINUOUS
 62
    7
 10
-24.245285000000024
 20
503.70002750000003
 40
0.1
 50
135
 51
225
  0
LINE
  8
_0-0_0
  6
CONTINUOUS
 62
    7
 10
-24.315994000000046
 20
503.62931849999995
 11
-24.186706000000015
 21
503.50001550000002
  0
LINE
  8
_0-0_0
  6
CONTINUOUS
 62
    7
 10
-24.186706000000015
 20
502.80000250000001
 11
-24.186706000000015
 21
503.50001550000002
  0
LINE
  8
_0-0_0
  6
CONTINUOUS
 62
    7
 10
-24.315994000000046
 20
502.67073049999999
 11
-24.186706000000015
 21
502.80000250000001
  0
ARC
  8
_0-0_0
  6
CONTINUOUS
 62
    7
 10
-24.245285000000024
 20
502.60002150000003
 40
0.1
 50
135
 51
225
  0
LINE
  8
_0-0_0
  6
CONTINUOUS
 62
    7
 10
-24.315994000000046
 20
502.52931149999995
 11
-24.186706000000015
 21
502.40000950000001
  0
LINE
  8
_0-0_0
  6
CONTINUOUS
 62
    7
 10
-24.186706000000015
 20
501.70002750000003
 11
-24.186706000000015
 21
502.40000950000001
  0
LINE
  8
_0-0_0
  6
CONTINUOUS
 62
    7
 10
-24.315994000000046
 20
501.57072449999998
 11
-24.186706000000015
 21
501.70002750000003
  0
ARC
  8
_0-0_0
  6
CONTINUOUS
 62
    7
 10
-24.245285000000024
 20
501.50001550000002
 40
0.1
 50
135
 51
225
  0
LINE
  8
_0-0_0
  6
CONTINUOUS
 62
    7
 10
-24.315994000000046
 20
501.42930550000005
 11
-24.186706000000015
 21
501.30000250000001
  0
LINE
  8
_0-0_0
  6
CONTINUOUS
 62
    7
 10
-24.186706000000015
 20
500.60002150000003
 11
-24.186706000000015
 21
501.30000250000001
  0
LINE
  8
_0-0_0
  6
CONTINUOUS
 62
    7
 10
-24.315994000000046
 20
500.47071849999998
 11
-24.186706000000015
 21
500.60002150000003
  0
ARC
  8
_0-0_0
  6
CONTINUOUS
 62
    7
 10
-24.245285000000024
 20
500.40000950000001
 40
0.1
 50
135
 51
225
  0
LINE
  8
_0-0_0
  6
CONTINUOUS
 62
    7
 10
-24.315994000000046
 20
500.32929950000005
 11
-24.186706000000015
 21
500.20002750000003
  0
LINE
  8
_0-0_0
  6
CONTINUOUS
 62
    7
 10
-24.186706000000015
 20
499.50001550000002
 11
-24.186706000000015
 21
500.20002750000003
  0
LINE
  8
_0-0_0
  6
CONTINUOUS
 62
    7
 10
-24.315994000000046
 20
499.37074250000001
 11
-24.186706000000015
 21
499.50001550000002
  0
ARC
  8
_0-0_0
  6
CONTINUOUS
 62
    7
 10
-24.245285000000024
 20
499.30000250000001
 40
0.1
 50
135
 51
225
  0
LINE
  8
_0-0_0
  6
CONTINUOUS
 62
    7
 10
-24.315994000000046
 20
499.22929350000004
 11
-24.186706000000015
 21
499.10002150000003
  0
LINE
  8
_0-0_0
  6
CONTINUOUS
 62
    7
 10
-24.186706000000015
 20
498.40000950000001
 11
-24.186706000000015
 21
499.10002150000003
  0
LINE
  8
_0-0_0
  6
CONTINUOUS
 62
    7
 10
-24.315994000000046
 20
498.2707365
 11
-24.186706000000015
 21
498.40000950000001
  0
LINE
  8
_0-0_0
  6
CONTINUOUS
 62
    7
 10
-24.186706000000015
 20
490.30000250000001
 11
-24.086708000000044
 21
490.30000250000001
  0
LINE
  8
_0-0_0
  6
CONTINUOUS
 62
    7
 10
-24.086708000000044
 20
489.80000250000001
 11
-24.086708000000044
 21
490.30000250000001
  0
LINE
  8
_0-0_0
  6
CONTINUOUS
 62
    7
 10
-24.086708000000044
 20
489.80000250000001
 11
-24.086708000000044
 21
485.80000250000001
  0
LINE
  8
_0-0_0
  6
CONTINUOUS
 62
    7
 10
-24.186706000000015
 20
485.30000250000001
 11
-24.086708000000044
 21
485.30000250000001
  0
LINE
  8
_0-0_0
  6
CONTINUOUS
 62
    7
 10
-24.086708000000044
 20
485.30000250000001
 11
-24.086708000000044
 21
485.80000250000001
  0
LINE
  8
_0-0_0
  6
CONTINUOUS
 62
    7
 10
-41.686706000000015
 20
494.30003350000004
 11
-41.686706000000015
 21
494.23500049999996
  0
LINE
  8
_0-0_0
  6
CONTINUOUS
 62
    7
 10
-25.186706000000015
 20
513.10002150000003
 11
-25.186706000000015
 21
513.00001550000002
  0
ARC
  8
_0-0_0
  6
CONTINUOUS
 62
    7
 10
-37.686706000000015
 20
513.10002150000003
 40
2.5
 50
90.000003000000007
 51
180.00000900000001
  0
LINE
  8
_0-0_0
  6
CONTINUOUS
 62
    7
 10
-41.786704999999984
 20
494.30000250000001
 11
-40.986710000000016
 21
494.30000250000001
  0
LINE
  8
_0-0_0
  6
CONTINUOUS
 62
    7
 10
-41.286704999999984
 20
516.10002150000003
 11
-41.286704999999984
 21
511.87849449999999
  0
LINE
  8
_0-0_0
  6
CONTINUOUS
 62
    7
 10
-40.186706000000015
 20
516.10002150000003
 11
-40.186706000000015
 21
513.10002150000003
  0
LINE
  8
_0-0_0
  6
CONTINUOUS
 62
    7
 10
-41.286704999999984
 20
511.87849449999999
 11
-40.986710000000016
 21
511.87849449999999
  0
LINE
  8
_0-0_0
  6
CONTINUOUS
 62
    7
 10
-41.286704999999984
 20
521.23991350000006
 11
-40.186706000000015
 21
521.23991350000006
  0
LINE
  8
_0-0_0
  6
CONTINUOUS
 62
    7
 10
-40.186706000000015
 20
516.10032650000005
 11
-40.186706000000015
 21
521.23991350000006
  0
LINE
  8
_0-0_0
  6
CONTINUOUS
 62
    7
 10
-41.786704999999984
 20
515.60063149999996
 11
-41.786704999999984
 21
520.67213449999997
  0
LINE
  8
_0-0_0
  6
CONTINUOUS
 62
    7
 10
-41.286704999999984
 20
521.23991350000006
 11
-41.786704999999984
 21
520.67213449999997
  0
ARC
  8
_0-0_0
  6
CONTINUOUS
 62
    7
 10
-27.686706000000015
 20
513.10002150000003
 40
2.5
 50
0
 51
90.000003000000007
  0
LINE
  8
_0-0_0
  6
CONTINUOUS
 62
    7
 10
-40.186706000000015
 20
513.00001550000002
 11
-40.186706000000015
 21
513.10002150000003
  0
LINE
  8
_0-0_0
  6
CONTINUOUS
 62
    7
 10
-27.686706000000015
 20
515.60002150000003
 11
-37.686706000000015
 21
515.60002150000003
  0
LINE
  8
_0-0_0
  6
CONTINUOUS
 62
    7
 10
-23.986710000000016
 20
485.80000250000001
 11
-23.986710000000016
 21
485.93037449999997
  0
LINE
  8
_0-0_0
  6
CONTINUOUS
 62
    7
 10
-23.986710000000016
 20
489.43037449999997
 11
-23.986710000000016
 21
485.93037449999997
  0
LINE
  8
_0-0_0
  6
CONTINUOUS
 62
    7
 10
-24.086708000000044
 20
489.70002750000003
 11
-23.986710000000016
 21
489.70002750000003
  0
LINE
  8
_0-0_0
  6
CONTINUOUS
 62
    7
 10
-23.986710000000016
 20
489.43037449999997
 11
-23.986710000000016
 21
489.70002750000003
  0
LINE
  8
_0-0_0
  6
CONTINUOUS
 62
    7
 10
-40.186706000000015
 20
523.60002150000003
 11
-40.186706000000015
 21
521.23991350000006
  0
LINE
  8
_0-0_0
  6
CONTINUOUS
 62
    7
 10
-24.386703000000011
 20
512.20002750000003
 11
-25.386703000000011
 21
513.20002750000003
  0
LINE
  8
_0-0_0
  6
CONTINUOUS
 62
    7
 10
-24.386710999999991
 20
484.40000950000001
 11
-24.386703000000011
 21
512.20002750000003
  0
LINE
  8
_0-0_0
  6
CONTINUOUS
 62
    7
 10
-40.986710000000016
 20
484.40000950000001
 11
-24.386710999999991
 21
484.40000950000001
  0
LINE
  8
_0-0_0
  6
CONTINUOUS
 62
    7
 10
-40.986710000000016
 20
512.20002750000003
 11
-40.986710000000016
 21
484.40000950000001
  0
LINE
  8
_0-0_0
  6
CONTINUOUS
 62
    7
 10
-41.786704999999984
 20
494.30000250000001
 11
-41.786704999999984
 21
511.11283849999995
  0
LINE
  8
_0-0_0
  6
CONTINUOUS
 62
    7
 10
-41.786704999999984
 20
515.60002150000003
 11
-41.786704999999984
 21
511.11283849999995
  0
ARC
  8
_0-0_0
  6
CONTINUOUS
 62
    7
 10
-10.334969000000001
 20
491.11784350000005
 40
37.269466000000001
 50
146.14857699999999
 51
147.55443399999999
  0
LINE
  8
_0-0_0
  6
CONTINUOUS
 62
    7
 10
-41.286704999999984
 20
523.60002150000003
 11
-41.286704999999984
 21
521.23991350000006
  0
LINE
  8
_0-0_0
  6
CONTINUOUS
 62
    7
 10
-41.786704999999984
 20
523.10002150000003
 11
-41.786704999999984
 21
520.67213449999997
  0
ARC
  8
_0-0_0
  6
CONTINUOUS
 62
    7
 10
-27.955757000000006
 20
512.80000250000001
 40
2.6000000000000001
 50
8.8498839999999994
 51
90.000002999999992
  0
LINE
  8
_0-0_0
  6
CONTINUOUS
 62
    7
 10
-27.955757000000006
 20
515.40000950000001
 11
-37.417664000000002
 21
515.40000950000001
  0
ARC
  8
_0-0_0
  6
CONTINUOUS
 62
    7
 10
-37.417664000000002
 20
512.80000250000001
 40
2.6000000000000001
 50
90.000003000000007
 51
171.150115
  0
LINE
  8
_0-0_0
  6
CONTINUOUS
 62
    7
 10
-40.986710000000016
 20
512.20002750000003
 11
-39.986710000000016
 21
513.20002750000003
  0
LINE
  8
_0-0_0
  6
CONTINUOUS
 62
    7
 10
-25.386703000000011
 20
511.78581250000002
 11
-24.386703000000011
 21
512.20002750000003
  0
ARC
  8
_0-0_0
  6
CONTINUOUS
 62
    7
 10
-30.929245000000037
 20
523.98612949999995
 40
12.126564999999999
 50
292.155034
 51
297.19674500000002
  0
LINE
  8
_0-0_0
  6
CONTINUOUS
 62
    7
 10
-25.386710999999991
 20
485.40000950000001
 11
-24.386710999999991
 21
484.40000950000001
  0
LINE
  8
_0-0_0
  6
CONTINUOUS
 62
    7
 10
-39.986710000000016
 20
485.40000950000001
 11
-40.986710000000016
 21
484.40000950000001
  0
LINE
  8
_0-0_0
  6
CONTINUOUS
 62
    7
 10
-39.986710000000016
 20
511.78581250000002
 11
-40.986710000000016
 21
512.20002750000003
  0
ARC
  8
_0-0_0
  6
CONTINUOUS
 62
    7
 10
-34.444167999999991
 20
523.98612949999995
 40
12.126567
 50
242.80325699999997
 51
247.84494000000001
  0
CIRCLE
  8
_0-0_0
  6
CONTINUOUS
 62
    7
 10
-32.686706000000015
 20
492.60002150000003
 40
2.0670000000000002
  0
LINE
  8
_0-0_0
  6
CONTINUOUS
 62
    7
 10
-40.186706000000015
 20
516.10002150000003
 11
-41.286704999999984
 21
516.10002150000003
  0
LINE
  8
_0-0_0
  6
CONTINUOUS
 62
    7
 10
-24.086708000000044
 20
485.80000250000001
 11
-23.986710000000016
 21
485.80000250000001
  0
LINE
  8
_0-0_0
  6
CONTINUOUS
 62
    7
 10
-24.086708000000044
 20
485.80000250000001
 11
-23.986710000000016
 21
485.80000250000001
  0
LINE
  8
_0-0_0
  6
CONTINUOUS
 62
    7
 10
-41.786704999999984
 20
515.60002150000003
 11
-41.286704999999984
 21
516.10002150000003
  0
LINE
  8
_0-0_0
  6
CONTINUOUS
 62
    7
 10
-40.186706000000015
 20
523.60002150000003
 11
-41.286704999999984
 21
523.60002150000003
  0
LINE
  8
_0-0_0
  6
CONTINUOUS
 62
    7
 10
-41.786704999999984
 20
523.10002150000003
 11
-41.286704999999984
 21
523.60002150000003
  0
ENDSEC
  0
EOF
