  0
SECTION
  2
HEADER
  9
$ACADVER
  1
AC1009
  9
$INSBASE
 10
0
 20
0
 30
0
  9
$EXTMIN
 10
0
 20
0
  9
$EXTMAX
 10
841
 20
594
  9
$LIMMIN
 10
0
 20
0
  9
$LIMMAX
 10
841
 20
594
  9
$LTSCALE
 40
1
  0
ENDSEC
  0
SECTION
  2
TABLES
  0
TABLE
  2
LTYPE
 70
     9
  0
LTYPE
  2
CONTINUOUS
 70
    64
  3
実線
 72
    65
 73
     0
 40
0.0
  0
LTYPE
  2
DASHED1
 70
    64
  3
--  --  --  --  --  --  --  --  
 72
    65
 73
     2
 40
2.5
 49
1.25
 49
-1.25
  0
LTYPE
  2
DASHED2
 70
    64
  3
----    ----    ----    ----    
 72
    65
 73
     2
 40
5.0
 49
2.5
 49
-2.5
  0
LTYPE
  2
DASHED3
 70
    64
  3
------  ------  ------  ------  
 72
    65
 73
     2
 40
5.0
 49
3.75
 49
-1.25
  0
LTYPE
  2
CENTER1
 70
    64
  3
----- - ----- - ----- - ----- - 
 72
    65
 73
     4
 40
10.0
 49
6.25
 49
-1.25
 49
1.25
 49
-1.25
  0
LTYPE
  2
CENTER2
 70
    64
  3
----------  --  ----------  --  
 72
    65
 73
     4
 40
20.0
 49
12.5
 49
-2.5
 49
2.5
 49
-2.5
  0
LTYPE
  2
PHANTOM1
 70
    64
  3
--- - - --- - - --- - - --- - - 
 72
    65
 73
     6
 40
10.0
 49
3.25
 49
-1.25
 49
1.25
 49
-1.25
 49
1.25
 49
-1.25
  0
LTYPE
  2
PHANTOM2
 70
    64
  3
--------  -  -  --------  -  -  
 72
    65
 73
     6
 40
20.0
 49
10.0
 49
-2.5
 49
1.25
 49
-2.5
 49
1.25
 49
-2.5
  0
LTYPE
  2
DOT
 70
    64
  3
-   -   -   -   -   -   -   -   
 72
    65
 73
     2
 40
2.5
 49
0.625
 49
-1.875
  0
LTYPE
  2
DUMMY
 70
    64
  3
ダミー
 72
    65
 73
     0
 40
0.0
  0
LTYPE
  2
RAND1
 70
    64
  3
ランダム線1
 72
    65
 73
     4
 40
10.0
 49
1.0
 49
-2.0
 49
3.0
 49
-4.0
  0
LTYPE
  2
RAND2
 70
    64
  3
ランダム線2
 72
    65
 73
     4
 40
14.0
 49
2.0
 49
-3.0
 49
4.0
 49
-5.0
  0
LTYPE
  2
RAND3
 70
    64
  3
ランダム線3
 72
    65
 73
     4
 40
18.0
 49
3.0
 49
-4.0
 49
5.0
 49
-6.0
  0
LTYPE
  2
RAND4
 70
    64
  3
ランダム線4
 72
    65
 73
     4
 40
22.0
 49
4.0
 49
-5.0
 49
6.0
 49
-7.0
  0
LTYPE
  2
RAND5
 70
    64
  3
ランダム線5
 72
    65
 73
     4
 40
26.0
 49
5.0
 49
-6.0
 49
7.0
 49
-8.0
  0
LTYPE
  2
LONG1
 70
    64
  3
----------  --  ----------  --  
 72
    65
 73
     4
 40
40.0
 49
32.5
 49
-2.5
 49
2.5
 49
-2.5
  0
LTYPE
  2
LONG2
 70
    64
  3
--------  -  -  --------  -  -  
 72
    65
 73
     6
 40
40.0
 49
30.0
 49
-2.5
 49
1.25
 49
-2.5
 49
1.25
 49
-2.5
  0
LTYPE
  2
LONG3
 70
    64
  3
+++++++++++++++..+++++++++++++++
 72
    65
 73
     2
 40
40.0
 49
37.5
 49
-2.5
  0
LTYPE
  2
LONG4
 70
    64
  3
+++++++++++++++..+++++++++++++++
 72
    65
 73
     2
 40
80.0
 49
75.0
 49
-5.0
  0
LTYPE
  2
LONG5
 70
    64
  3
----------  --  ----------  --  
 72
    65
 73
     4
 40
60.0
 49
37.5
 49
-7.5
 49
7.5
 49
-7.5
  0
LTYPE
  2
dashed
 70
   64
  3
-------   -------------   ------
 72
   65
 73
    2
 40
7.5
 49
6
 49
-1.5
  0
LTYPE
  2
dashed_spaced
 70
   64
  3
----        --------        ----
 72
   65
 73
    2
 40
12
 49
6
 49
-6
  0
LTYPE
  2
long_dashed_dotted
 70
   64
  3
------------- --- --------------
 72
   65
 73
    4
 40
15.25
 49
12
 49
-1.5
 49
0.25
 49
-1.5
  0
LTYPE
  2
long_dashed_double-dotted
 70
   64
  3
----------- --- --- ------------
 72
   65
 73
    6
 40
17
 49
12
 49
-1.5
 49
0.25
 49
-1.5
 49
0.25
 49
-1.5
  0
LTYPE
  2
long_dashed_triplicate-dotted
 70
   64
  3
--------- --- --- --- ----------
 72
   65
 73
    8
 40
18.75
 49
12
 49
-1.5
 49
0.25
 49
-1.5
 49
0.25
 49
-1.5
 49
0.25
 49
-1.5
  0
LTYPE
  2
dotted
 70
   64
  3
   -       -       -       -    
 72
   65
 73
    2
 40
1.75
 49
0.25
 49
-1.5
  0
LTYPE
  2
chain
 70
   64
  3
-------------- -- --------------
 72
   65
 73
    4
 40
18.5
 49
12
 49
-1.5
 49
3.5
 49
-1.5
  0
LTYPE
  2
chain_double_dash
 70
   64
  3
------------ -- -- -------------
 72
   65
 73
    6
 40
23.5
 49
12
 49
-1.5
 49
3.5
 49
-1.5
 49
3.5
 49
-1.5
  0
LTYPE
  2
dashed_dotted
 70
   64
  3
-----------     -     ----------
 72
   65
 73
    4
 40
9.25
 49
6
 49
-1.5
 49
0.25
 49
-1.5
  0
LTYPE
  2
double-dashed_dotted
 70
   64
  3
------   -----------   -   -----
 72
   65
 73
    6
 40
16.75
 49
6
 49
-1.5
 49
6
 49
-1.5
 49
0.25
 49
-1.5
  0
LTYPE
  2
dashed_double-dotted
 70
   64
  3
---------    -    -    ---------
 72
   65
 73
    6
 40
11
 49
6
 49
-1.5
 49
0.25
 49
-1.5
 49
0.25
 49
-1.5
  0
LTYPE
  2
double-dashed_double-dotted
 70
   64
  3
-----   ---------   -   -   ----
 72
   65
 73
    8
 40
18.5
 49
6
 49
-1.5
 49
6
 49
-1.5
 49
0.25
 49
-1.5
 49
0.25
 49
-1.5
  0
LTYPE
  2
dashed_triplicate-dotted
 70
   64
  3
-------    -    -    -    ------
 72
   65
 73
    8
 40
12.75
 49
6
 49
-1.5
 49
0.25
 49
-1.5
 49
0.25
 49
-1.5
 49
0.25
 49
-1.5
  0
LTYPE
  2
double-dashed_triplicate-dotted
 70
   64
  3
-----  ---------  -  -  -  -----
 72
   65
 73
   10
 40
20.25
 49
6
 49
-1.5
 49
6
 49
-1.5
 49
0.25
 49
-1.5
 49
0.25
 49
-1.5
 49
0.25
 49
-1.5
  0
LTYPE
  2
undefined
 70
   64
  3
--------------------------------
 72
   65
 73
    0
 40
0
  0
ENDTAB
  0
TABLE
  2
STYLE
  5
3
100
AcDbSymbolTable
 70
     1
  0
STYLE
  5
10
100
AcDbSymbolTableRecord
100
AcDbTextStyleTableRecord
  2
STANDARD
 70
     0
 40
0.0
 41
1.0
 50
0.0
 71
     0
 42
0.2
  3
txt
  4
bigfont.shx
  0
STYLE
  5
26
100
AcDbSymbolTableRecord
100
AcDbTextStyleTableRecord
  2
TATEGAKI
 70
    68
 40
0.0
 41
1.0
 50
0.0
 71
     0
 42
1.0
  3
txt
  4
bigfont.shx
  0
ENDTAB
  0
TABLE
  2
LAYER
 70
    2
  0
LAYER
  2
_0-0_0
 70
   64
 62
    7
  6
CONTINUOUS
  0
LAYER
  2
ADD_LINE
 70
   64
 62
    7
  6
CONTINUOUS
  0
ENDTAB
  0
ENDSEC
  0
SECTION
  2
BLOCKS
  0
ENDSEC
  0
SECTION
  2
ENTITIES
  0
LINE
  8
_0-0_0
  6
CONTINUOUS
 62
    7
 10
95.428954999999974
 20
521.92515549999996
 11
95.428954999999974
 21
521.9241485
  0
LINE
  8
_0-0_0
  6
CONTINUOUS
 62
    7
 10
248.24145499999997
 20
482.99421749999999
 11
246.94146699999999
 21
479.49421749999999
  0
ARC
  8
_0-0_0
  6
CONTINUOUS
 62
    7
 10
248.42895499999997
 20
482.92457550000006
 40
0.2
 50
20.376434999999997
 51
159.62357000000003
  0
ARC
  8
_0-0_0
  6
CONTINUOUS
 62
    7
 10
286.42895499999997
 20
485.82456950000005
 40
2.2000000000000002
 50
180.00000900000003
 51
303.74900400000001
  0
LINE
  8
_0-0_0
  6
CONTINUOUS
 62
    7
 10
284.22894299999996
 20
487.32456950000005
 11
284.22894299999996
 21
485.82456950000005
  0
LINE
  8
_0-0_0
  6
CONTINUOUS
 62
    7
 10
284.22894299999996
 20
487.32456950000005
 11
209.62896699999999
 21
487.32456950000005
  0
LINE
  8
_0-0_0
  6
CONTINUOUS
 62
    7
 10
209.62896699999999
 20
487.32456950000005
 11
209.62896699999999
 21
485.82456950000005
  0
ARC
  8
_0-0_0
  6
CONTINUOUS
 62
    7
 10
207.42895499999997
 20
485.82456950000005
 40
2.2000000000000002
 50
236.25102899999999
 51
0
  0
ARC
  8
_0-0_0
  6
CONTINUOUS
 62
    7
 10
205.92895499999997
 20
483.57957450000004
 40
0.5
 50
56.251010000000008
 51
180.00000900000001
  0
LINE
  8
_0-0_0
  6
CONTINUOUS
 62
    7
 10
205.42895499999997
 20
463.22456350000004
 11
205.42895499999997
 21
464.00169349999999
  0
LINE
  8
_0-0_0
  6
CONTINUOUS
 62
    7
 10
205.42895499999997
 20
463.22456350000004
 11
215.22894299999996
 21
463.22456350000004
  0
ARC
  8
_0-0_0
  6
CONTINUOUS
 62
    7
 10
215.22894299999996
 20
463.42457550000006
 40
0.2
 50
269.99999700000001
 51
0
  0
LINE
  8
_0-0_0
  6
CONTINUOUS
 62
    7
 10
215.42895499999997
 20
465.12458849999996
 11
215.42895499999997
 21
463.42457550000006
  0
ARC
  8
_0-0_0
  6
CONTINUOUS
 62
    7
 10
215.62896699999999
 20
465.12458849999996
 40
0.2
 50
90.000003000000007
 51
180.00000900000001
  0
LINE
  8
_0-0_0
  6
CONTINUOUS
 62
    7
 10
216.12896699999999
 20
465.32456950000005
 11
215.62896699999999
 21
465.32456950000005
  0
ARC
  8
_0-0_0
  6
CONTINUOUS
 62
    7
 10
216.12896699999999
 20
464.82456950000005
 40
0.5
 50
90.000003000000007
 51
180.00000900000001
  0
LINE
  8
_0-0_0
  6
CONTINUOUS
 62
    7
 10
215.62896699999999
 20
463.32456950000005
 11
215.62896699999999
 21
464.82456950000005
  0
LINE
  8
_0-0_0
  6
CONTINUOUS
 62
    7
 10
285.22894299999996
 20
463.32456950000005
 11
215.62896699999999
 21
463.32456950000005
  0
LINE
  8
_0-0_0
  6
CONTINUOUS
 62
    7
 10
285.22894299999996
 20
463.32456950000005
 11
285.22894299999996
 21
464.82456950000005
  0
ARC
  8
_0-0_0
  6
CONTINUOUS
 62
    7
 10
284.72894299999996
 20
464.82456950000005
 40
0.5
 50
0
 51
90.000003000000007
  0
LINE
  8
_0-0_0
  6
CONTINUOUS
 62
    7
 10
285.22894299999996
 20
465.32456950000005
 11
284.72894299999996
 21
465.32456950000005
  0
ARC
  8
_0-0_0
  6
CONTINUOUS
 62
    7
 10
285.22894299999996
 20
465.12458849999996
 40
0.2
 50
0
 51
90.000003000000007
  0
LINE
  8
_0-0_0
  6
CONTINUOUS
 62
    7
 10
285.42895499999997
 20
463.42457550000006
 11
285.42895499999997
 21
465.12458849999996
  0
ARC
  8
_0-0_0
  6
CONTINUOUS
 62
    7
 10
285.62896699999999
 20
463.42457550000006
 40
0.2
 50
180.00000900000003
 51
269.99999700000001
  0
LINE
  8
_0-0_0
  6
CONTINUOUS
 62
    7
 10
285.62896699999999
 20
463.22456350000004
 11
286.42895499999997
 21
463.22456350000004
  0
ARC
  8
_0-0_0
  6
CONTINUOUS
 62
    7
 10
286.42895499999997
 20
465.22456350000004
 40
2
 50
269.99999700000001
 51
0.0000099999999886
  0
LINE
  8
_0-0_0
  6
CONTINUOUS
 62
    7
 10
288.42895499999997
 20
483.57957450000004
 11
288.42895499999997
 21
465.22456350000004
  0
ARC
  8
_0-0_0
  6
CONTINUOUS
 62
    7
 10
287.92895499999997
 20
483.57957450000004
 40
0.5
 50
0
 51
123.74898500000002
  0
LINE
  8
_0-0_0
  6
CONTINUOUS
 62
    7
 10
216.92895499999997
 20
465.52458250000007
 11
216.92895499999997
 21
465.72456350000004
  0
LINE
  8
_0-0_0
  6
CONTINUOUS
 62
    7
 10
216.92895499999997
 20
465.72456350000004
 11
283.92895499999997
 21
465.72456350000004
  0
LINE
  8
_0-0_0
  6
CONTINUOUS
 62
    7
 10
283.92895499999997
 20
465.52458250000007
 11
283.92895499999997
 21
465.72456350000004
  0
ARC
  8
_0-0_0
  6
CONTINUOUS
 62
    7
 10
284.12896699999999
 20
465.52458250000007
 40
0.2
 50
180.00000900000003
 51
269.99999700000001
  0
LINE
  8
_0-0_0
  6
CONTINUOUS
 62
    7
 10
284.12896699999999
 20
465.32456950000005
 11
216.72894299999996
 21
465.32456950000005
  0
ARC
  8
_0-0_0
  6
CONTINUOUS
 62
    7
 10
216.72894299999996
 20
465.52458250000007
 40
0.2
 50
269.99999700000001
 51
0
  0
ARC
  8
_0-0_0
  6
CONTINUOUS
 62
    7
 10
247.12896699999999
 20
479.42457550000006
 40
0.2
 50
159.62357
 51
269.99999700000001
  0
LINE
  8
_0-0_0
  6
CONTINUOUS
 62
    7
 10
247.12896699999999
 20
479.22456350000004
 11
249.72894299999996
 21
479.22456350000004
  0
ARC
  8
_0-0_0
  6
CONTINUOUS
 62
    7
 10
249.72894299999996
 20
479.42457550000006
 40
0.2
 50
269.99999700000001
 51
20.376435000000019
  0
LINE
  8
_0-0_0
  6
CONTINUOUS
 62
    7
 10
249.91644299999996
 20
479.49421749999999
 11
248.61645499999997
 21
482.99421749999999
  0
LINE
  8
_0-0_0
  6
CONTINUOUS
 62
    7
 10
205.42895499999997
 20
482.92457550000006
 11
205.42895499999997
 21
484.90193150000005
  0
LINE
  8
_0-0_0
  6
CONTINUOUS
 62
    7
 10
205.42895499999997
 20
482.92457550000006
 11
205.42895499999997
 21
465.32456950000005
  0
LINE
  8
_0-0_0
  6
CONTINUOUS
 62
    7
 10
205.42895499999997
 20
464.00169349999999
 11
205.42895499999997
 21
465.32456950000005
  0
LINE
  8
_0-0_0
  6
CONTINUOUS
 62
    7
 10
288.42895499999997
 20
489.32456950000005
 11
288.42895499999997
 21
488.32456950000005
  0
LINE
  8
_0-0_0
  6
CONTINUOUS
 62
    7
 10
288.42895499999997
 20
488.32456950000005
 11
288.42895499999997
 21
487.82456950000005
  0
LINE
  8
_0-0_0
  6
CONTINUOUS
 62
    7
 10
288.42895499999997
 20
487.82456950000005
 11
288.42895499999997
 21
485.82456950000005
  0
LINE
  8
_0-0_0
  6
CONTINUOUS
 62
    7
 10
288.42895499999997
 20
485.82456950000005
 11
288.42895499999997
 21
483.57957450000004
  0
LINE
  8
_0-0_0
  6
CONTINUOUS
 62
    7
 10
266.42895499999997
 20
483.32456950000005
 11
266.42895499999997
 21
469.72456350000004
  0
ARC
  8
_0-0_0
  6
CONTINUOUS
 62
    7
 10
269.42895499999997
 20
483.32456950000005
 40
3
 50
90.000003000000007
 51
180.00000900000001
  0
LINE
  8
_0-0_0
  6
CONTINUOUS
 62
    7
 10
282.762878
 20
486.32456950000005
 11
269.42895499999997
 21
486.32456950000005
  0
ARC
  8
_0-0_0
  6
CONTINUOUS
 62
    7
 10
282.762878
 20
485.32456950000005
 40
1
 50
7.7664340000000012
 51
90.000002999999992
  0
ARC
  8
_0-0_0
  6
CONTINUOUS
 62
    7
 10
286.42895499999997
 20
485.82456950000005
 40
2.7000000000000002
 50
187.76643899999999
 51
254.31966600000001
  0
ARC
  8
_0-0_0
  6
CONTINUOUS
 62
    7
 10
285.42895499999997
 20
482.26228349999997
 40
1
 50
0
 51
74.319649999999996
  0
LINE
  8
_0-0_0
  6
CONTINUOUS
 62
    7
 10
286.42895499999997
 20
469.72456350000004
 11
286.42895499999997
 21
482.26228349999997
  0
ARC
  8
_0-0_0
  6
CONTINUOUS
 62
    7
 10
283.42895499999997
 20
469.72456350000004
 40
3
 50
269.99999700000001
 51
0.0000099999999886
  0
LINE
  8
_0-0_0
  6
CONTINUOUS
 62
    7
 10
269.42895499999997
 20
466.72456350000004
 11
283.42895499999997
 21
466.72456350000004
  0
ARC
  8
_0-0_0
  6
CONTINUOUS
 62
    7
 10
269.42895499999997
 20
469.72456350000004
 40
3
 50
180.00000900000003
 51
269.99999700000001
  0
LINE
  8
_0-0_0
  6
CONTINUOUS
 62
    7
 10
212.42895499999997
 20
466.72456350000004
 11
227.42895499999997
 21
466.72456350000004
  0
ARC
  8
_0-0_0
  6
CONTINUOUS
 62
    7
 10
212.42895499999997
 20
469.72456350000004
 40
3
 50
180.00000900000003
 51
269.99999700000001
  0
LINE
  8
_0-0_0
  6
CONTINUOUS
 62
    7
 10
209.42895499999997
 20
483.32456950000005
 11
209.42895499999997
 21
469.72456350000004
  0
ARC
  8
_0-0_0
  6
CONTINUOUS
 62
    7
 10
212.42895499999997
 20
483.32456950000005
 40
3
 50
90.000003000000007
 51
180.00000900000001
  0
LINE
  8
_0-0_0
  6
CONTINUOUS
 62
    7
 10
227.42895499999997
 20
486.32456950000005
 11
212.42895499999997
 21
486.32456950000005
  0
ARC
  8
_0-0_0
  6
CONTINUOUS
 62
    7
 10
227.42895499999997
 20
483.32456950000005
 40
3
 50
0
 51
90.000003000000007
  0
LINE
  8
_0-0_0
  6
CONTINUOUS
 62
    7
 10
230.42895499999997
 20
469.72456350000004
 11
230.42895499999997
 21
483.32456950000005
  0
ARC
  8
_0-0_0
  6
CONTINUOUS
 62
    7
 10
227.42895499999997
 20
469.72456350000004
 40
3
 50
269.99999700000001
 51
0.0000099999999886
  0
LINE
  8
_0-0_0
  6
CONTINUOUS
 62
    7
 10
284.42895499999997
 20
487.32456950000005
 11
284.22894299999996
 21
487.32456950000005
  0
ARC
  8
_0-0_0
  6
CONTINUOUS
 62
    7
 10
286.42895499999997
 20
485.82456950000005
 40
2
 50
180.00000900000003
 51
0.0000000000000254
  0
LINE
  8
_0-0_0
  6
CONTINUOUS
 62
    7
 10
284.42895499999997
 20
487.32456950000005
 11
284.42895499999997
 21
485.82456950000005
  0
LINE
  8
_0-0_0
  6
CONTINUOUS
 62
    7
 10
209.62896699999999
 20
487.32456950000005
 11
209.42895499999997
 21
487.32456950000005
  0
LINE
  8
_0-0_0
  6
CONTINUOUS
 62
    7
 10
209.42895499999997
 20
487.32456950000005
 11
209.42895499999997
 21
485.82456950000005
  0
ARC
  8
_0-0_0
  6
CONTINUOUS
 62
    7
 10
207.42895499999997
 20
485.82456950000005
 40
2
 50
180.00000900000003
 51
0.0000000000000254
  0
LINE
  8
_0-0_0
  6
CONTINUOUS
 62
    7
 10
191.92895499999997
 20
487.82456950000005
 11
191.92895499999997
 21
487.32456950000005
  0
LINE
  8
_0-0_0
  6
CONTINUOUS
 62
    7
 10
205.42895499999997
 20
484.90806550000002
 11
205.42895499999997
 21
485.62455750000004
  0
LINE
  8
_0-0_0
  6
CONTINUOUS
 62
    7
 10
205.42895499999997
 20
484.90806550000002
 11
205.42895499999997
 21
484.90193150000005
  0
LINE
  8
_0-0_0
  6
CONTINUOUS
 62
    7
 10
205.42895499999997
 20
483.69343549999996
 11
205.42895499999997
 21
483.57957450000004
  0
LINE
  8
_0-0_0
  6
CONTINUOUS
 62
    7
 10
193.42895499999997
 20
484.92457550000006
 11
193.42895499999997
 21
482.92457550000006
  0
LINE
  8
_0-0_0
  6
CONTINUOUS
 62
    7
 10
205.42895499999997
 20
484.92457550000006
 11
193.42895499999997
 21
484.92457550000006
  0
LINE
  8
_0-0_0
  6
CONTINUOUS
 62
    7
 10
193.42895499999997
 20
479.42457550000006
 11
193.42895499999997
 21
482.42457550000006
  0
LINE
  8
_0-0_0
  6
CONTINUOUS
 62
    7
 10
193.42895499999997
 20
482.42457550000006
 11
193.42895499999997
 21
482.92457550000006
  0
LINE
  8
_0-0_0
  6
CONTINUOUS
 62
    7
 10
193.42895499999997
 20
479.42457550000006
 11
193.42895499999997
 21
478.92457550000006
  0
ARC
  8
_0-0_0
  6
CONTINUOUS
 62
    7
 10
199.42895499999997
 20
479.62455750000004
 40
0.500016
 50
0.001164
 51
179.99560600000004
  0
LINE
  8
_0-0_0
  6
CONTINUOUS
 62
    7
 10
198.92895499999997
 20
479.62455750000004
 11
198.92895499999997
 21
467.62455750000004
  0
ARC
  8
_0-0_0
  6
CONTINUOUS
 62
    7
 10
199.42895499999997
 20
467.62458849999996
 40
0.500016
 50
180.00117
 51
359.995611
  0
LINE
  8
_0-0_0
  6
CONTINUOUS
 62
    7
 10
199.92895499999997
 20
479.62455750000004
 11
199.92895499999997
 21
467.62455750000004
  0
ARC
  8
_0-0_0
  6
CONTINUOUS
 62
    7
 10
197.92895499999997
 20
479.62455750000004
 40
0.500016
 50
0.001164
 51
179.99560600000004
  0
LINE
  8
_0-0_0
  6
CONTINUOUS
 62
    7
 10
197.42895499999997
 20
479.62455750000004
 11
197.42895499999997
 21
467.62455750000004
  0
ARC
  8
_0-0_0
  6
CONTINUOUS
 62
    7
 10
197.92895499999997
 20
467.62458849999996
 40
0.500016
 50
180.00117
 51
359.995611
  0
LINE
  8
_0-0_0
  6
CONTINUOUS
 62
    7
 10
198.42895499999997
 20
479.62455750000004
 11
198.42895499999997
 21
467.62455750000004
  0
ARC
  8
_0-0_0
  6
CONTINUOUS
 62
    7
 10
196.42895499999997
 20
479.62455750000004
 40
0.500016
 50
0.001164
 51
179.99560600000004
  0
LINE
  8
_0-0_0
  6
CONTINUOUS
 62
    7
 10
195.92895499999997
 20
479.62455750000004
 11
195.92895499999997
 21
467.62455750000004
  0
ARC
  8
_0-0_0
  6
CONTINUOUS
 62
    7
 10
196.42895499999997
 20
467.62458849999996
 40
0.500016
 50
180.00117
 51
359.995611
  0
LINE
  8
_0-0_0
  6
CONTINUOUS
 62
    7
 10
196.92895499999997
 20
479.62455750000004
 11
196.92895499999997
 21
467.62455750000004
  0
ARC
  8
_0-0_0
  6
CONTINUOUS
 62
    7
 10
194.92895499999997
 20
479.62455750000004
 40
0.500016
 50
0.001164
 51
179.99560600000004
  0
LINE
  8
_0-0_0
  6
CONTINUOUS
 62
    7
 10
194.42895499999997
 20
479.62455750000004
 11
194.42895499999997
 21
467.62455750000004
  0
ARC
  8
_0-0_0
  6
CONTINUOUS
 62
    7
 10
194.92895499999997
 20
467.62458849999996
 40
0.500016
 50
180.00117
 51
359.995611
  0
LINE
  8
_0-0_0
  6
CONTINUOUS
 62
    7
 10
195.42895499999997
 20
479.62455750000004
 11
195.42895499999997
 21
467.62455750000004
  0
LINE
  8
_0-0_0
  6
CONTINUOUS
 62
    7
 10
205.42895499999997
 20
463.32456950000005
 11
188.75351000000001
 21
463.32456950000005
  0
LINE
  8
_0-0_0
  6
CONTINUOUS
 62
    7
 10
215.97894299999996
 20
465.30152950000002
 11
215.97894299999996
 21
465.32456950000005
  0
LINE
  8
_0-0_0
  6
CONTINUOUS
 62
    7
 10
284.87896699999999
 20
465.30152950000002
 11
284.87896699999999
 21
465.32456950000005
  0
LINE
  8
_0-0_0
  6
CONTINUOUS
 62
    7
 10
191.92895499999997
 20
487.82456950000005
 11
191.92895499999997
 21
488.32456950000005
  0
LINE
  8
_0-0_0
  6
CONTINUOUS
 62
    7
 10
288.42895499999997
 20
488.32456950000005
 11
191.92895499999997
 21
488.32456950000005
  0
LINE
  8
_0-0_0
  6
CONTINUOUS
 62
    7
 10
191.92895499999997
 20
488.32456950000005
 11
191.92895499999997
 21
489.32456950000005
  0
LINE
  8
_0-0_0
  6
CONTINUOUS
 62
    7
 10
288.42907700000001
 20
489.32463050000001
 11
288.42907700000001
 21
488.82463050000001
  0
LINE
  8
_0-0_0
  6
CONTINUOUS
 62
    7
 10
288.42907700000001
 20
488.82463050000001
 11
288.42907700000001
 21
487.32463050000001
  0
ARC
  8
_0-0_0
  6
CONTINUOUS
 62
    7
 10
278.92895499999997
 20
478.92457550000006
 40
4.5
 50
269.99999700000001
 51
90.000002999999992
  0
LINE
  8
_0-0_0
  6
CONTINUOUS
 62
    7
 10
278.92895499999997
 20
474.42457550000006
 11
273.92895499999997
 21
474.42457550000006
  0
ARC
  8
_0-0_0
  6
CONTINUOUS
 62
    7
 10
273.92895499999997
 20
478.92457550000006
 40
4.5
 50
90.000003000000007
 51
269.99999700000006
  0
LINE
  8
_0-0_0
  6
CONTINUOUS
 62
    7
 10
273.92895499999997
 20
483.42457550000006
 11
278.92895499999997
 21
483.42457550000006
  0
ARC
  8
_0-0_0
  6
CONTINUOUS
 62
    7
 10
222.92895499999997
 20
478.92457550000006
 40
4.5
 50
269.99999700000001
 51
90.000002999999992
  0
LINE
  8
_0-0_0
  6
CONTINUOUS
 62
    7
 10
222.92895499999997
 20
474.42457550000006
 11
217.92895499999997
 21
474.42457550000006
  0
ARC
  8
_0-0_0
  6
CONTINUOUS
 62
    7
 10
217.92895499999997
 20
478.92457550000006
 40
4.5
 50
90.000003000000007
 51
269.99999700000006
  0
LINE
  8
_0-0_0
  6
CONTINUOUS
 62
    7
 10
217.92895499999997
 20
483.42457550000006
 11
222.92895499999997
 21
483.42457550000006
  0
LINE
  8
_0-0_0
  6
CONTINUOUS
 62
    7
 10
205.42895499999997
 20
485.62455750000004
 11
205.42895499999997
 21
487.32456950000005
  0
LINE
  8
_0-0_0
  6
CONTINUOUS
 62
    7
 10
205.42895499999997
 20
487.32456950000005
 11
191.92895499999997
 21
487.32456950000005
  0
LINE
  8
_0-0_0
  6
CONTINUOUS
 62
    7
 10
191.92895499999997
 20
485.62455750000004
 11
191.92895499999997
 21
487.32456950000005
  0
LINE
  8
_0-0_0
  6
CONTINUOUS
 62
    7
 10
193.42895499999997
 20
484.92457550000006
 11
188.75351000000001
 21
484.92457550000006
  0
LINE
  8
_0-0_0
  6
CONTINUOUS
 62
    7
 10
193.42895499999997
 20
479.42457550000006
 11
188.75351000000001
 21
479.42457550000006
  0
LINE
  8
_0-0_0
  6
CONTINUOUS
 62
    7
 10
188.12106299999999
 20
463.42720050000003
 11
188.24056999999999
 21
463.39158650000002
  0
LINE
  8
_0-0_0
  6
CONTINUOUS
 62
    7
 10
188.24056999999999
 20
463.39158650000002
 11
188.362122
 21
463.36369350000007
  0
LINE
  8
_0-0_0
  6
CONTINUOUS
 62
    7
 10
188.362122
 20
463.36369350000007
 11
188.48523
 21
463.34367350000002
  0
LINE
  8
_0-0_0
  6
CONTINUOUS
 62
    7
 10
188.48523
 20
463.34367350000002
 11
188.609467
 21
463.33155850000003
  0
LINE
  8
_0-0_0
  6
CONTINUOUS
 62
    7
 10
188.609467
 20
463.33155850000003
 11
188.734283
 21
463.32740750000005
  0
LINE
  8
_0-0_0
  6
CONTINUOUS
 62
    7
 10
188.734283
 20
463.32740750000005
 11
188.75351000000001
 21
463.32749950000004
  0
ARC
  8
_0-0_0
  6
CONTINUOUS
 62
    7
 10
188.75351000000001
 20
465.32456950000005
 40
2
 50
251.56498899999997
 51
269.99999700000001
  0
LINE
  8
_0-0_0
  6
CONTINUOUS
 62
    7
 10
191.92895499999997
 20
485.62455750000004
 11
205.42895499999997
 21
485.62455750000004
  0
CIRCLE
  8
_0-0_0
  6
CONTINUOUS
 62
    7
 10
286.42895499999997
 20
485.82456950000005
 40
1.4750000000000001
  0
CIRCLE
  8
_0-0_0
  6
CONTINUOUS
 62
    7
 10
207.42895499999997
 20
485.82456950000005
 40
1.4750000000000001
  0
ARC
  8
_0-0_0
  6
CONTINUOUS
 62
    7
 10
188.75351000000001
 20
482.92457550000006
 40
2
 50
90.000003000000007
 51
108.434997
  0
LINE
  8
_0-0_0
  6
CONTINUOUS
 62
    7
 10
183.95461999999998
 20
479.42457550000006
 11
183.26126099999999
 21
479.42457550000006
  0
LINE
  8
_0-0_0
  6
CONTINUOUS
 62
    7
 10
183.95461999999998
 20
479.42457550000006
 11
188.27917500000001
 21
479.42457550000006
  0
LINE
  8
_0-0_0
  6
CONTINUOUS
 62
    7
 10
188.75351000000001
 20
479.42457550000006
 11
188.27917500000001
 21
479.42457550000006
  0
LINE
  8
_0-0_0
  6
CONTINUOUS
 62
    7
 10
183.79650899999996
 20
464.86872849999997
 11
188.12106299999999
 21
463.42720050000003
  0
LINE
  8
_0-0_0
  6
CONTINUOUS
 62
    7
 10
282.97894299999996
 20
478.92457550000006
 11
280.669556
 21
474.92457550000006
  0
LINE
  8
_0-0_0
  6
CONTINUOUS
 62
    7
 10
272.188355
 20
474.92457550000006
 11
280.669556
 21
474.92457550000006
  0
LINE
  8
_0-0_0
  6
CONTINUOUS
 62
    7
 10
272.188355
 20
474.92457550000006
 11
269.87896699999999
 21
478.92457550000006
  0
LINE
  8
_0-0_0
  6
CONTINUOUS
 62
    7
 10
269.87896699999999
 20
478.92457550000006
 11
272.188355
 21
482.92457550000006
  0
LINE
  8
_0-0_0
  6
CONTINUOUS
 62
    7
 10
280.669556
 20
482.92457550000006
 11
272.188355
 21
482.92457550000006
  0
LINE
  8
_0-0_0
  6
CONTINUOUS
 62
    7
 10
280.669556
 20
482.92457550000006
 11
282.97894299999996
 21
478.92457550000006
  0
LINE
  8
_0-0_0
  6
CONTINUOUS
 62
    7
 10
216.188355
 20
482.92457550000006
 11
213.87896699999999
 21
478.92457550000006
  0
LINE
  8
_0-0_0
  6
CONTINUOUS
 62
    7
 10
224.669556
 20
482.92457550000006
 11
216.188355
 21
482.92457550000006
  0
LINE
  8
_0-0_0
  6
CONTINUOUS
 62
    7
 10
226.97894299999996
 20
478.92457550000006
 11
224.669556
 21
482.92457550000006
  0
LINE
  8
_0-0_0
  6
CONTINUOUS
 62
    7
 10
224.669556
 20
474.92457550000006
 11
226.97894299999996
 21
478.92457550000006
  0
LINE
  8
_0-0_0
  6
CONTINUOUS
 62
    7
 10
216.188355
 20
474.92457550000006
 11
224.669556
 21
474.92457550000006
  0
LINE
  8
_0-0_0
  6
CONTINUOUS
 62
    7
 10
213.87896699999999
 20
478.92457550000006
 11
216.188355
 21
474.92457550000006
  0
LINE
  8
_0-0_0
  6
CONTINUOUS
 62
    7
 10
187.67895499999997
 20
484.67457550000006
 11
188.12106299999999
 21
484.82194549999997
  0
LINE
  8
_0-0_0
  6
CONTINUOUS
 62
    7
 10
182.42895499999997
 20
480.17460649999998
 11
182.42895499999997
 21
479.05357349999997
  0
LINE
  8
_0-0_0
  6
CONTINUOUS
 62
    7
 10
182.42895499999997
 20
478.13224850000006
 11
182.42895499999997
 21
479.05357349999997
  0
LINE
  8
_0-0_0
  6
CONTINUOUS
 62
    7
 10
182.728973
 20
476.33656350000001
 11
182.67016599999999
 21
476.58338950000007
  0
LINE
  8
_0-0_0
  6
CONTINUOUS
 62
    7
 10
182.67016599999999
 20
476.58338950000007
 11
182.62039199999998
 21
476.77574149999998
  0
LINE
  8
_0-0_0
  6
CONTINUOUS
 62
    7
 10
182.62039199999998
 20
476.77574149999998
 11
182.54925499999996
 21
477.04151950000005
  0
LINE
  8
_0-0_0
  6
CONTINUOUS
 62
    7
 10
182.54925499999996
 20
477.04151950000005
 11
182.51629600000001
 21
477.16825849999998
  0
LINE
  8
_0-0_0
  6
CONTINUOUS
 62
    7
 10
182.51629600000001
 20
477.16825849999998
 11
182.49105800000001
 21
477.2716825
  0
LINE
  8
_0-0_0
  6
CONTINUOUS
 62
    7
 10
182.49105800000001
 20
477.2716825
 11
182.46902499999999
 21
477.37159750000001
  0
LINE
  8
_0-0_0
  6
CONTINUOUS
 62
    7
 10
182.46902499999999
 20
477.37159750000001
 11
182.447632
 21
477.48930350000001
  0
LINE
  8
_0-0_0
  6
CONTINUOUS
 62
    7
 10
182.447632
 20
477.48930350000001
 11
182.43908699999997
 21
477.55143750000002
  0
LINE
  8
_0-0_0
  6
CONTINUOUS
 62
    7
 10
182.43908699999997
 20
477.55143750000002
 11
182.43298299999998
 21
477.61204550000002
  0
LINE
  8
_0-0_0
  6
CONTINUOUS
 62
    7
 10
182.43298299999998
 20
477.61204550000002
 11
182.42999299999997
 21
477.66130050000004
  0
LINE
  8
_0-0_0
  6
CONTINUOUS
 62
    7
 10
182.42999299999997
 20
477.66130050000004
 11
182.42895499999997
 21
477.70951850000006
  0
LINE
  8
_0-0_0
  6
CONTINUOUS
 62
    7
 10
182.728973
 20
471.91255250000006
 11
182.81243899999998
 21
472.29124450000006
  0
LINE
  8
_0-0_0
  6
CONTINUOUS
 62
    7
 10
182.81243899999998
 20
472.29124450000006
 11
182.852509
 21
472.48274249999997
  0
LINE
  8
_0-0_0
  6
CONTINUOUS
 62
    7
 10
182.852509
 20
472.48274249999997
 11
182.90859999999998
 21
472.77278150000006
  0
LINE
  8
_0-0_0
  6
CONTINUOUS
 62
    7
 10
182.90859999999998
 20
472.77278150000006
 11
182.94619799999998
 21
472.99235550000003
  0
LINE
  8
_0-0_0
  6
CONTINUOUS
 62
    7
 10
182.94619799999998
 20
472.99235550000003
 11
182.97885099999996
 21
473.21360749999997
  0
LINE
  8
_0-0_0
  6
CONTINUOUS
 62
    7
 10
182.97885099999996
 20
473.21360749999997
 11
183.006012
 21
473.44041449999997
  0
LINE
  8
_0-0_0
  6
CONTINUOUS
 62
    7
 10
183.006012
 20
473.44041449999997
 11
183.02606199999997
 21
473.6678015
  0
LINE
  8
_0-0_0
  6
CONTINUOUS
 62
    7
 10
183.02606199999997
 20
473.6678015
 11
183.03323399999999
 21
473.78154050000001
  0
LINE
  8
_0-0_0
  6
CONTINUOUS
 62
    7
 10
183.03323399999999
 20
473.78154050000001
 11
183.03839099999999
 21
473.89521850000006
  0
LINE
  8
_0-0_0
  6
CONTINUOUS
 62
    7
 10
183.03839099999999
 20
473.89521850000006
 11
183.04211399999997
 21
474.04664650000007
  0
LINE
  8
_0-0_0
  6
CONTINUOUS
 62
    7
 10
183.04211399999997
 20
474.04664650000007
 11
183.04217499999999
 21
474.19792150000001
  0
LINE
  8
_0-0_0
  6
CONTINUOUS
 62
    7
 10
183.04217499999999
 20
474.19792150000001
 11
183.03857399999998
 21
474.34895349999999
  0
LINE
  8
_0-0_0
  6
CONTINUOUS
 62
    7
 10
183.03857399999998
 20
474.34895349999999
 11
183.02908300000001
 21
474.53752150000003
  0
LINE
  8
_0-0_0
  6
CONTINUOUS
 62
    7
 10
183.02908300000001
 20
474.53752150000003
 11
183.01422099999996
 21
474.7257535
  0
LINE
  8
_0-0_0
  6
CONTINUOUS
 62
    7
 10
183.01422099999996
 20
474.7257535
 11
182.99429299999997
 21
474.91371149999998
  0
LINE
  8
_0-0_0
  6
CONTINUOUS
 62
    7
 10
182.99429299999997
 20
474.91371149999998
 11
182.97790499999996
 21
475.04258749999997
  0
LINE
  8
_0-0_0
  6
CONTINUOUS
 62
    7
 10
182.97790499999996
 20
475.04258749999997
 11
182.959473
 21
475.17121950000001
  0
LINE
  8
_0-0_0
  6
CONTINUOUS
 62
    7
 10
182.959473
 20
475.17121950000001
 11
182.93533300000001
 21
475.32316649999996
  0
LINE
  8
_0-0_0
  6
CONTINUOUS
 62
    7
 10
182.93533300000001
 20
475.32316649999996
 11
182.90893599999998
 21
475.47450249999997
  0
LINE
  8
_0-0_0
  6
CONTINUOUS
 62
    7
 10
182.90893599999998
 20
475.47450249999997
 11
182.85275300000001
 21
475.76512149999996
  0
LINE
  8
_0-0_0
  6
CONTINUOUS
 62
    7
 10
182.85275300000001
 20
475.76512149999996
 11
182.812592
 21
475.95707749999997
  0
LINE
  8
_0-0_0
  6
CONTINUOUS
 62
    7
 10
182.812592
 20
475.95707749999997
 11
182.728973
 21
476.33656350000001
  0
LINE
  8
_0-0_0
  6
CONTINUOUS
 62
    7
 10
182.72894299999996
 20
471.91255250000006
 11
182.67016599999999
 21
471.66569549999997
  0
LINE
  8
_0-0_0
  6
CONTINUOUS
 62
    7
 10
182.67016599999999
 20
471.66569549999997
 11
182.62039199999998
 21
471.47337349999998
  0
LINE
  8
_0-0_0
  6
CONTINUOUS
 62
    7
 10
182.62039199999998
 20
471.47337349999998
 11
182.549286
 21
471.20762650000006
  0
LINE
  8
_0-0_0
  6
CONTINUOUS
 62
    7
 10
182.549286
 20
471.20762650000006
 11
182.51632699999999
 21
471.08094849999998
  0
LINE
  8
_0-0_0
  6
CONTINUOUS
 62
    7
 10
182.51632699999999
 20
471.08094849999998
 11
182.49105800000001
 21
470.97749350000004
  0
LINE
  8
_0-0_0
  6
CONTINUOUS
 62
    7
 10
182.49105800000001
 20
470.97749350000004
 11
182.46902499999999
 21
470.87751750000007
  0
LINE
  8
_0-0_0
  6
CONTINUOUS
 62
    7
 10
182.46902499999999
 20
470.87751750000007
 11
182.447632
 21
470.75981149999996
  0
LINE
  8
_0-0_0
  6
CONTINUOUS
 62
    7
 10
182.447632
 20
470.75981149999996
 11
182.43908699999997
 21
470.69767750000005
  0
LINE
  8
_0-0_0
  6
CONTINUOUS
 62
    7
 10
182.43908699999997
 20
470.69767750000005
 11
182.43298299999998
 21
470.63710049999997
  0
LINE
  8
_0-0_0
  6
CONTINUOUS
 62
    7
 10
182.43298299999998
 20
470.63710049999997
 11
182.42999299999997
 21
470.58784449999996
  0
LINE
  8
_0-0_0
  6
CONTINUOUS
 62
    7
 10
182.42999299999997
 20
470.58784449999996
 11
182.42895499999997
 21
470.53962750000005
  0
LINE
  8
_0-0_0
  6
CONTINUOUS
 62
    7
 10
182.42895499999997
 20
466.7660985
 11
182.42895499999997
 21
470.11686750000001
  0
ARC
  8
_0-0_0
  6
CONTINUOUS
 62
    7
 10
184.42895499999997
 20
466.7660985
 40
2
 50
180.00000900000003
 51
251.56498900000003
  0
LINE
  8
_0-0_0
  6
CONTINUOUS
 62
    7
 10
286.87896699999999
 20
485.62455750000004
 11
287.52896099999998
 21
485.62455750000004
  0
ARC
  8
_0-0_0
  6
CONTINUOUS
 62
    7
 10
286.87896699999999
 20
485.37455750000004
 40
0.25
 50
90.000003000000007
 51
180.00000900000001
  0
LINE
  8
_0-0_0
  6
CONTINUOUS
 62
    7
 10
286.62896699999999
 20
485.37455750000004
 11
286.62896699999999
 21
484.72456350000004
  0
LINE
  8
_0-0_0
  6
CONTINUOUS
 62
    7
 10
286.22894299999996
 20
484.72456350000004
 11
286.62896699999999
 21
484.72456350000004
  0
LINE
  8
_0-0_0
  6
CONTINUOUS
 62
    7
 10
286.22894299999996
 20
484.72456350000004
 11
286.22894299999996
 21
485.37455750000004
  0
ARC
  8
_0-0_0
  6
CONTINUOUS
 62
    7
 10
285.97894299999996
 20
485.37455750000004
 40
0.25
 50
0
 51
90.000003000000007
  0
LINE
  8
_0-0_0
  6
CONTINUOUS
 62
    7
 10
285.32898
 20
485.62455750000004
 11
285.97894299999996
 21
485.62455750000004
  0
LINE
  8
_0-0_0
  6
CONTINUOUS
 62
    7
 10
285.32898
 20
485.62455750000004
 11
285.32898
 21
486.02458250000007
  0
LINE
  8
_0-0_0
  6
CONTINUOUS
 62
    7
 10
285.97894299999996
 20
486.02458250000007
 11
285.32898
 21
486.02458250000007
  0
ARC
  8
_0-0_0
  6
CONTINUOUS
 62
    7
 10
285.97894299999996
 20
486.27458250000007
 40
0.25
 50
269.99999700000001
 51
0
  0
LINE
  8
_0-0_0
  6
CONTINUOUS
 62
    7
 10
286.22894299999996
 20
486.27458250000007
 11
286.22894299999996
 21
486.92457550000006
  0
LINE
  8
_0-0_0
  6
CONTINUOUS
 62
    7
 10
286.62896699999999
 20
486.92457550000006
 11
286.22894299999996
 21
486.92457550000006
  0
LINE
  8
_0-0_0
  6
CONTINUOUS
 62
    7
 10
286.62896699999999
 20
486.92457550000006
 11
286.62896699999999
 21
486.27458250000007
  0
ARC
  8
_0-0_0
  6
CONTINUOUS
 62
    7
 10
286.87896699999999
 20
486.27458250000007
 40
0.25
 50
180.00000900000003
 51
269.99999700000001
  0
LINE
  8
_0-0_0
  6
CONTINUOUS
 62
    7
 10
287.52896099999998
 20
486.02458250000007
 11
286.87896699999999
 21
486.02458250000007
  0
LINE
  8
_0-0_0
  6
CONTINUOUS
 62
    7
 10
287.52896099999998
 20
486.02458250000007
 11
287.52896099999998
 21
485.62455750000004
  0
LINE
  8
_0-0_0
  6
CONTINUOUS
 62
    7
 10
207.87896699999999
 20
485.62455750000004
 11
208.52896099999998
 21
485.62455750000004
  0
ARC
  8
_0-0_0
  6
CONTINUOUS
 62
    7
 10
207.87896699999999
 20
485.37455750000004
 40
0.25
 50
90.000003000000007
 51
180.00000900000001
  0
LINE
  8
_0-0_0
  6
CONTINUOUS
 62
    7
 10
207.62896699999999
 20
485.37455750000004
 11
207.62896699999999
 21
484.72456350000004
  0
LINE
  8
_0-0_0
  6
CONTINUOUS
 62
    7
 10
207.22894299999996
 20
484.72456350000004
 11
207.62896699999999
 21
484.72456350000004
  0
LINE
  8
_0-0_0
  6
CONTINUOUS
 62
    7
 10
207.22894299999996
 20
484.72456350000004
 11
207.22894299999996
 21
485.37455750000004
  0
ARC
  8
_0-0_0
  6
CONTINUOUS
 62
    7
 10
206.97894299999996
 20
485.37455750000004
 40
0.25
 50
0
 51
90.000003000000007
  0
LINE
  8
_0-0_0
  6
CONTINUOUS
 62
    7
 10
206.32898
 20
485.62455750000004
 11
206.97894299999996
 21
485.62455750000004
  0
LINE
  8
_0-0_0
  6
CONTINUOUS
 62
    7
 10
206.32898
 20
485.62455750000004
 11
206.32898
 21
486.02458250000007
  0
LINE
  8
_0-0_0
  6
CONTINUOUS
 62
    7
 10
206.97894299999996
 20
486.02458250000007
 11
206.32898
 21
486.02458250000007
  0
ARC
  8
_0-0_0
  6
CONTINUOUS
 62
    7
 10
206.97894299999996
 20
486.27458250000007
 40
0.25
 50
269.99999700000001
 51
0
  0
LINE
  8
_0-0_0
  6
CONTINUOUS
 62
    7
 10
207.22894299999996
 20
486.27458250000007
 11
207.22894299999996
 21
486.92457550000006
  0
LINE
  8
_0-0_0
  6
CONTINUOUS
 62
    7
 10
207.62896699999999
 20
486.92457550000006
 11
207.22894299999996
 21
486.92457550000006
  0
LINE
  8
_0-0_0
  6
CONTINUOUS
 62
    7
 10
207.62896699999999
 20
486.92457550000006
 11
207.62896699999999
 21
486.27458250000007
  0
ARC
  8
_0-0_0
  6
CONTINUOUS
 62
    7
 10
207.87896699999999
 20
486.27458250000007
 40
0.25
 50
180.00000900000003
 51
269.99999700000001
  0
LINE
  8
_0-0_0
  6
CONTINUOUS
 62
    7
 10
208.52896099999998
 20
486.02458250000007
 11
207.87896699999999
 21
486.02458250000007
  0
LINE
  8
_0-0_0
  6
CONTINUOUS
 62
    7
 10
208.52896099999998
 20
486.02458250000007
 11
208.52896099999998
 21
485.62455750000004
  0
LINE
  8
_0-0_0
  6
CONTINUOUS
 62
    7
 10
167.42895499999997
 20
483.65000950000001
 11
167.42895499999997
 21
483.50328049999996
  0
LINE
  8
_0-0_0
  6
CONTINUOUS
 62
    7
 10
167.42895499999997
 20
483.8405305
 11
167.42895499999997
 21
483.65000950000001
  0
LINE
  8
_0-0_0
  6
CONTINUOUS
 62
    7
 10
167.42895499999997
 20
484.01554850000002
 11
167.42895499999997
 21
483.8405305
  0
LINE
  8
_0-0_0
  6
CONTINUOUS
 62
    7
 10
167.42895499999997
 20
484.17314150000004
 11
167.42895499999997
 21
484.01554850000002
  0
LINE
  8
_0-0_0
  6
CONTINUOUS
 62
    7
 10
167.42895499999997
 20
484.31156950000002
 11
167.42895499999997
 21
484.17314150000004
  0
LINE
  8
_0-0_0
  6
CONTINUOUS
 62
    7
 10
167.42895499999997
 20
484.42933649999998
 11
167.42895499999997
 21
484.31156950000002
  0
LINE
  8
_0-0_0
  6
CONTINUOUS
 62
    7
 10
167.42895499999997
 20
484.52513150000004
 11
167.42895499999997
 21
484.42933649999998
  0
LINE
  8
_0-0_0
  6
CONTINUOUS
 62
    7
 10
167.42895499999997
 20
484.5979155
 11
167.42895499999997
 21
484.52513150000004
  0
LINE
  8
_0-0_0
  6
CONTINUOUS
 62
    7
 10
167.42895499999997
 20
484.64686549999999
 11
167.42895499999997
 21
484.5979155
  0
LINE
  8
_0-0_0
  6
CONTINUOUS
 62
    7
 10
167.42895499999997
 20
484.67457550000006
 11
167.42895499999997
 21
484.64686549999999
  0
LINE
  8
_0-0_0
  6
CONTINUOUS
 62
    7
 10
167.42895499999997
 20
484.67457550000006
 11
167.42895499999997
 21
484.6714935
  0
LINE
  8
_0-0_0
  6
CONTINUOUS
 62
    7
 10
167.42895499999997
 20
480.17765850000001
 11
167.42895499999997
 21
480.17457550000006
  0
LINE
  8
_0-0_0
  6
CONTINUOUS
 62
    7
 10
167.42895499999997
 20
480.20228550000002
 11
167.42895499999997
 21
480.17457550000006
  0
LINE
  8
_0-0_0
  6
CONTINUOUS
 62
    7
 10
167.42895499999997
 20
480.2512365
 11
167.42895499999997
 21
480.20228550000002
  0
LINE
  8
_0-0_0
  6
CONTINUOUS
 62
    7
 10
167.42895499999997
 20
480.32402049999996
 11
167.42895499999997
 21
480.2512365
  0
LINE
  8
_0-0_0
  6
CONTINUOUS
 62
    7
 10
167.42895499999997
 20
480.41981550000003
 11
167.42895499999997
 21
480.32402049999996
  0
LINE
  8
_0-0_0
  6
CONTINUOUS
 62
    7
 10
167.42895499999997
 20
480.44999749999999
 11
167.42895499999997
 21
480.41981550000003
  0
LINE
  8
_0-0_0
  6
CONTINUOUS
 62
    7
 10
167.42895499999997
 20
480.53755250000006
 11
167.42895499999997
 21
480.44999749999999
  0
LINE
  8
_0-0_0
  6
CONTINUOUS
 62
    7
 10
167.42895499999997
 20
480.67597950000004
 11
167.42895499999997
 21
480.53755250000006
  0
LINE
  8
_0-0_0
  6
CONTINUOUS
 62
    7
 10
167.42895499999997
 20
480.83357250000006
 11
167.42895499999997
 21
480.67597950000004
  0
LINE
  8
_0-0_0
  6
CONTINUOUS
 62
    7
 10
167.42895499999997
 20
481.00859049999997
 11
167.42895499999997
 21
480.83357250000006
  0
LINE
  8
_0-0_0
  6
CONTINUOUS
 62
    7
 10
167.42895499999997
 20
481.19914249999999
 11
167.42895499999997
 21
481.00859049999997
  0
LINE
  8
_0-0_0
  6
CONTINUOUS
 62
    7
 10
167.42895499999997
 20
481.40309149999996
 11
167.42895499999997
 21
481.19914249999999
  0
LINE
  8
_0-0_0
  6
CONTINUOUS
 62
    7
 10
167.42895499999997
 20
481.61824049999996
 11
167.42895499999997
 21
481.40309149999996
  0
LINE
  8
_0-0_0
  6
CONTINUOUS
 62
    7
 10
167.42895499999997
 20
481.84223950000001
 11
167.42895499999997
 21
481.61824049999996
  0
LINE
  8
_0-0_0
  6
CONTINUOUS
 62
    7
 10
167.42895499999997
 20
482.07258650000006
 11
167.42895499999997
 21
481.84223950000001
  0
LINE
  8
_0-0_0
  6
CONTINUOUS
 62
    7
 10
167.42895499999997
 20
482.30680849999999
 11
167.42895499999997
 21
482.07258650000006
  0
LINE
  8
_0-0_0
  6
CONTINUOUS
 62
    7
 10
167.42895499999997
 20
482.54231249999998
 11
167.42895499999997
 21
482.30680849999999
  0
LINE
  8
_0-0_0
  6
CONTINUOUS
 62
    7
 10
167.42895499999997
 20
482.77653550000002
 11
167.42895499999997
 21
482.54231249999998
  0
LINE
  8
_0-0_0
  6
CONTINUOUS
 62
    7
 10
167.42895499999997
 20
483.0069125
 11
167.42895499999997
 21
482.77653550000002
  0
LINE
  8
_0-0_0
  6
CONTINUOUS
 62
    7
 10
167.42895499999997
 20
483.23091150000005
 11
167.42895499999997
 21
483.0069125
  0
LINE
  8
_0-0_0
  6
CONTINUOUS
 62
    7
 10
167.42895499999997
 20
483.44606050000004
 11
167.42895499999997
 21
483.23091150000005
  0
LINE
  8
_0-0_0
  6
CONTINUOUS
 62
    7
 10
167.42895499999997
 20
483.50328049999996
 11
167.42895499999997
 21
483.44606050000004
  0
LINE
  8
_0-0_0
  6
CONTINUOUS
 62
    7
 10
182.42895499999997
 20
475.68663049999998
 11
182.42895499999997
 21
476.73225450000007
  0
LINE
  8
_0-0_0
  6
CONTINUOUS
 62
    7
 10
182.42895499999997
 20
478.0168615
 11
182.42895499999997
 21
476.73225450000007
  0
LINE
  8
_0-0_0
  6
CONTINUOUS
 62
    7
 10
182.42895499999997
 20
478.13224850000006
 11
182.42895499999997
 21
478.0168615
  0
LINE
  8
_0-0_0
  6
CONTINUOUS
 62
    7
 10
182.42895499999997
 20
475.68663049999998
 11
182.42895499999997
 21
472.56251550000002
  0
LINE
  8
_0-0_0
  6
CONTINUOUS
 62
    7
 10
182.42895499999997
 20
470.11686750000001
 11
182.42895499999997
 21
470.23225450000007
  0
LINE
  8
_0-0_0
  6
CONTINUOUS
 62
    7
 10
182.42895499999997
 20
471.5168615
 11
182.42895499999997
 21
470.23225450000007
  0
LINE
  8
_0-0_0
  6
CONTINUOUS
 62
    7
 10
182.42895499999997
 20
471.5168615
 11
182.42895499999997
 21
472.56251550000002
  0
LINE
  8
_0-0_0
  6
CONTINUOUS
 62
    7
 10
167.42895499999997
 20
467.0500035
 11
167.42895499999997
 21
466.90327450000007
  0
LINE
  8
_0-0_0
  6
CONTINUOUS
 62
    7
 10
167.42895499999997
 20
467.24055450000003
 11
167.42895499999997
 21
467.0500035
  0
LINE
  8
_0-0_0
  6
CONTINUOUS
 62
    7
 10
167.42895499999997
 20
467.41557350000005
 11
167.42895499999997
 21
467.24055450000003
  0
LINE
  8
_0-0_0
  6
CONTINUOUS
 62
    7
 10
167.42895499999997
 20
467.57313550000003
 11
167.42895499999997
 21
467.41557350000005
  0
LINE
  8
_0-0_0
  6
CONTINUOUS
 62
    7
 10
167.42895499999997
 20
467.71159350000005
 11
167.42895499999997
 21
467.57313550000003
  0
LINE
  8
_0-0_0
  6
CONTINUOUS
 62
    7
 10
167.42895499999997
 20
467.82933049999997
 11
167.42895499999997
 21
467.71159350000005
  0
LINE
  8
_0-0_0
  6
CONTINUOUS
 62
    7
 10
167.42895499999997
 20
467.92512550000004
 11
167.42895499999997
 21
467.82933049999997
  0
LINE
  8
_0-0_0
  6
CONTINUOUS
 62
    7
 10
167.42895499999997
 20
467.99790949999999
 11
167.42895499999997
 21
467.92512550000004
  0
LINE
  8
_0-0_0
  6
CONTINUOUS
 62
    7
 10
167.42895499999997
 20
468.04685949999998
 11
167.42895499999997
 21
467.99790949999999
  0
LINE
  8
_0-0_0
  6
CONTINUOUS
 62
    7
 10
167.42895499999997
 20
468.07456950000005
 11
167.42895499999997
 21
468.04685949999998
  0
LINE
  8
_0-0_0
  6
CONTINUOUS
 62
    7
 10
167.42895499999997
 20
468.07456950000005
 11
167.42895499999997
 21
468.07148749999999
  0
LINE
  8
_0-0_0
  6
CONTINUOUS
 62
    7
 10
167.42895499999997
 20
463.5776525
 11
167.42895499999997
 21
463.57456950000005
  0
LINE
  8
_0-0_0
  6
CONTINUOUS
 62
    7
 10
167.42895499999997
 20
463.60227950000001
 11
167.42895499999997
 21
463.57456950000005
  0
LINE
  8
_0-0_0
  6
CONTINUOUS
 62
    7
 10
167.42895499999997
 20
463.6512295
 11
167.42895499999997
 21
463.60227950000001
  0
LINE
  8
_0-0_0
  6
CONTINUOUS
 62
    7
 10
167.42895499999997
 20
463.72401450000007
 11
167.42895499999997
 21
463.6512295
  0
LINE
  8
_0-0_0
  6
CONTINUOUS
 62
    7
 10
167.42895499999997
 20
463.81980950000002
 11
167.42895499999997
 21
463.72401450000007
  0
LINE
  8
_0-0_0
  6
CONTINUOUS
 62
    7
 10
167.42895499999997
 20
463.85002150000003
 11
167.42895499999997
 21
463.81980950000002
  0
LINE
  8
_0-0_0
  6
CONTINUOUS
 62
    7
 10
167.42895499999997
 20
463.93754550000006
 11
167.42895499999997
 21
463.85002150000003
  0
LINE
  8
_0-0_0
  6
CONTINUOUS
 62
    7
 10
167.42895499999997
 20
464.07600450000007
 11
167.42895499999997
 21
463.93754550000006
  0
LINE
  8
_0-0_0
  6
CONTINUOUS
 62
    7
 10
167.42895499999997
 20
464.23359649999998
 11
167.42895499999997
 21
464.07600450000007
  0
LINE
  8
_0-0_0
  6
CONTINUOUS
 62
    7
 10
167.42895499999997
 20
464.40858449999996
 11
167.42895499999997
 21
464.23359649999998
  0
LINE
  8
_0-0_0
  6
CONTINUOUS
 62
    7
 10
167.42895499999997
 20
464.59913649999999
 11
167.42895499999997
 21
464.40858449999996
  0
LINE
  8
_0-0_0
  6
CONTINUOUS
 62
    7
 10
167.42895499999997
 20
464.80308550000007
 11
167.42895499999997
 21
464.59913649999999
  0
LINE
  8
_0-0_0
  6
CONTINUOUS
 62
    7
 10
167.42895499999997
 20
465.01823450000006
 11
167.42895499999997
 21
464.80308550000007
  0
LINE
  8
_0-0_0
  6
CONTINUOUS
 62
    7
 10
167.42895499999997
 20
465.2422335
 11
167.42895499999997
 21
465.01823450000006
  0
LINE
  8
_0-0_0
  6
CONTINUOUS
 62
    7
 10
167.42895499999997
 20
465.47258050000005
 11
167.42895499999997
 21
465.2422335
  0
LINE
  8
_0-0_0
  6
CONTINUOUS
 62
    7
 10
167.42895499999997
 20
465.70680249999998
 11
167.42895499999997
 21
465.47258050000005
  0
LINE
  8
_0-0_0
  6
CONTINUOUS
 62
    7
 10
167.42895499999997
 20
465.94233750000001
 11
167.42895499999997
 21
465.70680249999998
  0
LINE
  8
_0-0_0
  6
CONTINUOUS
 62
    7
 10
167.42895499999997
 20
466.17655950000005
 11
167.42895499999997
 21
465.94233750000001
  0
LINE
  8
_0-0_0
  6
CONTINUOUS
 62
    7
 10
167.42895499999997
 20
466.40690649999999
 11
167.42895499999997
 21
466.17655950000005
  0
LINE
  8
_0-0_0
  6
CONTINUOUS
 62
    7
 10
167.42895499999997
 20
466.63090550000004
 11
167.42895499999997
 21
466.40690649999999
  0
LINE
  8
_0-0_0
  6
CONTINUOUS
 62
    7
 10
167.42895499999997
 20
466.84605450000004
 11
167.42895499999997
 21
466.63090550000004
  0
LINE
  8
_0-0_0
  6
CONTINUOUS
 62
    7
 10
167.42895499999997
 20
466.90327450000007
 11
167.42895499999997
 21
466.84605450000004
  0
LINE
  8
_0-0_0
  6
CONTINUOUS
 62
    7
 10
278.42895499999997
 20
476.67457550000006
 11
274.42895499999997
 21
476.67457550000006
  0
ARC
  8
_0-0_0
  6
CONTINUOUS
 62
    7
 10
274.42895499999997
 20
478.92457550000006
 40
2.25
 50
90.000003000000007
 51
269.99999700000006
  0
LINE
  8
_0-0_0
  6
CONTINUOUS
 62
    7
 10
274.42895499999997
 20
481.17457550000006
 11
278.42895499999997
 21
481.17457550000006
  0
ARC
  8
_0-0_0
  6
CONTINUOUS
 62
    7
 10
278.42895499999997
 20
478.92457550000006
 40
2.25
 50
269.99999700000001
 51
90.000002999999992
  0
ARC
  8
_0-0_0
  6
CONTINUOUS
 62
    7
 10
218.42895499999997
 20
478.92457550000006
 40
2.25
 50
90.000003000000007
 51
269.99999700000006
  0
LINE
  8
_0-0_0
  6
CONTINUOUS
 62
    7
 10
218.42895499999997
 20
481.17457550000006
 11
222.42895499999997
 21
481.17457550000006
  0
ARC
  8
_0-0_0
  6
CONTINUOUS
 62
    7
 10
222.42895499999997
 20
478.92457550000006
 40
2.25
 50
269.99999700000001
 51
90.000002999999992
  0
LINE
  8
_0-0_0
  6
CONTINUOUS
 62
    7
 10
222.42895499999997
 20
476.67457550000006
 11
218.42895499999997
 21
476.67457550000006
  0
LINE
  8
_0-0_0
  6
CONTINUOUS
 62
    7
 10
167.42895499999997
 20
483.65000950000001
 11
167.17895499999997
 21
483.67457550000006
  0
LINE
  8
_0-0_0
  6
CONTINUOUS
 62
    7
 10
167.42895499999997
 20
483.44606050000004
 11
167.17895499999997
 21
483.67457550000006
  0
LINE
  8
_0-0_0
  6
CONTINUOUS
 62
    7
 10
167.42895499999997
 20
483.8405305
 11
167.17895499999997
 21
483.89402749999999
  0
LINE
  8
_0-0_0
  6
CONTINUOUS
 62
    7
 10
167.42895499999997
 20
483.65000950000001
 11
167.17895499999997
 21
483.89402749999999
  0
LINE
  8
_0-0_0
  6
CONTINUOUS
 62
    7
 10
167.42895499999997
 20
484.01554850000002
 11
167.17895499999997
 21
484.09739650000006
  0
LINE
  8
_0-0_0
  6
CONTINUOUS
 62
    7
 10
167.42895499999997
 20
483.8405305
 11
167.17895499999997
 21
484.09739650000006
  0
LINE
  8
_0-0_0
  6
CONTINUOUS
 62
    7
 10
167.42895499999997
 20
484.17314150000004
 11
167.17895499999997
 21
484.28242550000004
  0
LINE
  8
_0-0_0
  6
CONTINUOUS
 62
    7
 10
167.42895499999997
 20
484.01554850000002
 11
167.17895499999997
 21
484.28242550000004
  0
LINE
  8
_0-0_0
  6
CONTINUOUS
 62
    7
 10
167.42895499999997
 20
484.31156950000002
 11
167.17895499999997
 21
484.44712849999996
  0
LINE
  8
_0-0_0
  6
CONTINUOUS
 62
    7
 10
167.42895499999997
 20
484.17314150000004
 11
167.17895499999997
 21
484.44712849999996
  0
LINE
  8
_0-0_0
  6
CONTINUOUS
 62
    7
 10
167.42895499999997
 20
484.42933649999998
 11
167.17895499999997
 21
484.58964549999996
  0
LINE
  8
_0-0_0
  6
CONTINUOUS
 62
    7
 10
167.42895499999997
 20
484.31156950000002
 11
167.17895499999997
 21
484.58964549999996
  0
LINE
  8
_0-0_0
  6
CONTINUOUS
 62
    7
 10
167.42895499999997
 20
484.52513150000004
 11
167.17895499999997
 21
484.70845050000003
  0
LINE
  8
_0-0_0
  6
CONTINUOUS
 62
    7
 10
167.42895499999997
 20
484.42933649999998
 11
167.17895499999997
 21
484.70845050000003
  0
LINE
  8
_0-0_0
  6
CONTINUOUS
 62
    7
 10
167.42895499999997
 20
484.5979155
 11
167.17895499999997
 21
484.80220050000003
  0
LINE
  8
_0-0_0
  6
CONTINUOUS
 62
    7
 10
167.42895499999997
 20
484.52513150000004
 11
167.17895499999997
 21
484.80220050000003
  0
LINE
  8
_0-0_0
  6
CONTINUOUS
 62
    7
 10
167.42895499999997
 20
484.64686549999999
 11
167.17895499999997
 21
484.86994949999996
  0
LINE
  8
_0-0_0
  6
CONTINUOUS
 62
    7
 10
167.42895499999997
 20
484.5979155
 11
167.17895499999997
 21
484.86994949999996
  0
LINE
  8
_0-0_0
  6
CONTINUOUS
 62
    7
 10
167.42895499999997
 20
484.6714935
 11
167.17895499999997
 21
484.91087349999998
  0
LINE
  8
_0-0_0
  6
CONTINUOUS
 62
    7
 10
167.42895499999997
 20
484.64686549999999
 11
167.17895499999997
 21
484.91087349999998
  0
LINE
  8
_0-0_0
  6
CONTINUOUS
 62
    7
 10
167.42895499999997
 20
484.6714935
 11
167.17895499999997
 21
484.92457550000006
  0
LINE
  8
_0-0_0
  6
CONTINUOUS
 62
    7
 10
167.42895499999997
 20
480.17765850000001
 11
167.17895499999997
 21
479.92457550000006
  0
LINE
  8
_0-0_0
  6
CONTINUOUS
 62
    7
 10
167.42895499999997
 20
480.20228550000002
 11
167.17895499999997
 21
479.93827850000002
  0
LINE
  8
_0-0_0
  6
CONTINUOUS
 62
    7
 10
167.42895499999997
 20
480.17765850000001
 11
167.17895499999997
 21
479.93827850000002
  0
LINE
  8
_0-0_0
  6
CONTINUOUS
 62
    7
 10
167.42895499999997
 20
480.2512365
 11
167.17895499999997
 21
479.97920250000004
  0
LINE
  8
_0-0_0
  6
CONTINUOUS
 62
    7
 10
167.42895499999997
 20
480.20228550000002
 11
167.17895499999997
 21
479.97920250000004
  0
LINE
  8
_0-0_0
  6
CONTINUOUS
 62
    7
 10
167.42895499999997
 20
480.32402049999996
 11
167.17895499999997
 21
480.04692050000006
  0
LINE
  8
_0-0_0
  6
CONTINUOUS
 62
    7
 10
167.42895499999997
 20
480.2512365
 11
167.17895499999997
 21
480.04692050000006
  0
LINE
  8
_0-0_0
  6
CONTINUOUS
 62
    7
 10
167.42895499999997
 20
480.41981550000003
 11
167.17895499999997
 21
480.14070149999998
  0
LINE
  8
_0-0_0
  6
CONTINUOUS
 62
    7
 10
167.42895499999997
 20
480.32402049999996
 11
167.17895499999997
 21
480.14070149999998
  0
LINE
  8
_0-0_0
  6
CONTINUOUS
 62
    7
 10
167.42895499999997
 20
480.41981550000003
 11
167.29901100000001
 21
480.33595249999996
  0
LINE
  8
_0-0_0
  6
CONTINUOUS
 62
    7
 10
167.42895499999997
 20
480.53755250000006
 11
167.17895499999997
 21
480.25950650000004
  0
LINE
  8
_0-0_0
  6
CONTINUOUS
 62
    7
 10
167.29901100000001
 20
480.33595249999996
 11
167.17895499999997
 21
480.25950650000004
  0
LINE
  8
_0-0_0
  6
CONTINUOUS
 62
    7
 10
167.42895499999997
 20
480.67597950000004
 11
167.17895499999997
 21
480.40202350000004
  0
LINE
  8
_0-0_0
  6
CONTINUOUS
 62
    7
 10
167.42895499999997
 20
480.53755250000006
 11
167.17895499999997
 21
480.40202350000004
  0
LINE
  8
_0-0_0
  6
CONTINUOUS
 62
    7
 10
167.42895499999997
 20
480.83357250000006
 11
167.17895499999997
 21
480.56669650000003
  0
LINE
  8
_0-0_0
  6
CONTINUOUS
 62
    7
 10
167.42895499999997
 20
480.67597950000004
 11
167.17895499999997
 21
480.56669650000003
  0
LINE
  8
_0-0_0
  6
CONTINUOUS
 62
    7
 10
167.42895499999997
 20
481.00859049999997
 11
167.17895499999997
 21
480.75175450000006
  0
LINE
  8
_0-0_0
  6
CONTINUOUS
 62
    7
 10
167.42895499999997
 20
480.83357250000006
 11
167.17895499999997
 21
480.75175450000006
  0
LINE
  8
_0-0_0
  6
CONTINUOUS
 62
    7
 10
167.42895499999997
 20
481.19914249999999
 11
167.17895499999997
 21
480.95509349999998
  0
LINE
  8
_0-0_0
  6
CONTINUOUS
 62
    7
 10
167.42895499999997
 20
481.00859049999997
 11
167.17895499999997
 21
480.95509349999998
  0
LINE
  8
_0-0_0
  6
CONTINUOUS
 62
    7
 10
167.42895499999997
 20
481.40309149999996
 11
167.17895499999997
 21
481.17457550000006
  0
LINE
  8
_0-0_0
  6
CONTINUOUS
 62
    7
 10
167.42895499999997
 20
481.19914249999999
 11
167.17895499999997
 21
481.17457550000006
  0
LINE
  8
_0-0_0
  6
CONTINUOUS
 62
    7
 10
167.42895499999997
 20
481.61824049999996
 11
167.17895499999997
 21
481.40773049999996
  0
LINE
  8
_0-0_0
  6
CONTINUOUS
 62
    7
 10
167.42895499999997
 20
481.40309149999996
 11
167.17895499999997
 21
481.40773049999996
  0
LINE
  8
_0-0_0
  6
CONTINUOUS
 62
    7
 10
167.42895499999997
 20
481.84223950000001
 11
167.17895499999997
 21
481.65202350000004
  0
LINE
  8
_0-0_0
  6
CONTINUOUS
 62
    7
 10
167.42895499999997
 20
481.61824049999996
 11
167.17895499999997
 21
481.65202350000004
  0
LINE
  8
_0-0_0
  6
CONTINUOUS
 62
    7
 10
167.42895499999997
 20
482.07258650000006
 11
167.17895499999997
 21
481.90480049999996
  0
LINE
  8
_0-0_0
  6
CONTINUOUS
 62
    7
 10
167.42895499999997
 20
481.84223950000001
 11
167.17895499999997
 21
481.90480049999996
  0
LINE
  8
_0-0_0
  6
CONTINUOUS
 62
    7
 10
167.42895499999997
 20
482.30680849999999
 11
167.17895499999997
 21
482.1632535
  0
LINE
  8
_0-0_0
  6
CONTINUOUS
 62
    7
 10
167.42895499999997
 20
482.07258650000006
 11
167.17895499999997
 21
482.1632535
  0
LINE
  8
_0-0_0
  6
CONTINUOUS
 62
    7
 10
167.42895499999997
 20
482.54231249999998
 11
167.17895499999997
 21
482.42457550000006
  0
LINE
  8
_0-0_0
  6
CONTINUOUS
 62
    7
 10
167.42895499999997
 20
482.30680849999999
 11
167.17895499999997
 21
482.42457550000006
  0
LINE
  8
_0-0_0
  6
CONTINUOUS
 62
    7
 10
167.42895499999997
 20
482.77653550000002
 11
167.17895499999997
 21
482.68589750000001
  0
LINE
  8
_0-0_0
  6
CONTINUOUS
 62
    7
 10
167.42895499999997
 20
482.54231249999998
 11
167.17895499999997
 21
482.68589750000001
  0
LINE
  8
_0-0_0
  6
CONTINUOUS
 62
    7
 10
167.42895499999997
 20
483.0069125
 11
167.17895499999997
 21
482.94435150000004
  0
LINE
  8
_0-0_0
  6
CONTINUOUS
 62
    7
 10
167.42895499999997
 20
482.77653550000002
 11
167.17895499999997
 21
482.94435150000004
  0
LINE
  8
_0-0_0
  6
CONTINUOUS
 62
    7
 10
167.42895499999997
 20
483.23091150000005
 11
167.17895499999997
 21
483.19712849999996
  0
LINE
  8
_0-0_0
  6
CONTINUOUS
 62
    7
 10
167.42895499999997
 20
483.0069125
 11
167.17895499999997
 21
483.19712849999996
  0
LINE
  8
_0-0_0
  6
CONTINUOUS
 62
    7
 10
167.42895499999997
 20
483.44606050000004
 11
167.17895499999997
 21
483.44142150000005
  0
LINE
  8
_0-0_0
  6
CONTINUOUS
 62
    7
 10
167.42895499999997
 20
483.23091150000005
 11
167.17895499999997
 21
483.44142150000005
  0
LINE
  8
_0-0_0
  6
CONTINUOUS
 62
    7
 10
182.42895499999997
 20
478.0168615
 11
172.72112999999996
 21
478.0168615
  0
LINE
  8
_0-0_0
  6
CONTINUOUS
 62
    7
 10
172.72112999999996
 20
478.0168615
 11
172.66665699999999
 21
478.08680749999996
  0
LINE
  8
_0-0_0
  6
CONTINUOUS
 62
    7
 10
172.66665699999999
 20
478.08680749999996
 11
172.61554000000001
 21
478.15562450000004
  0
LINE
  8
_0-0_0
  6
CONTINUOUS
 62
    7
 10
172.61554000000001
 20
478.15562450000004
 11
172.56793199999998
 21
478.22315950000007
  0
LINE
  8
_0-0_0
  6
CONTINUOUS
 62
    7
 10
172.56793199999998
 20
478.22315950000007
 11
172.52340699999996
 21
478.28968850000001
  0
LINE
  8
_0-0_0
  6
CONTINUOUS
 62
    7
 10
172.52340699999996
 20
478.28968850000001
 11
172.46868899999998
 21
478.37724349999996
  0
LINE
  8
_0-0_0
  6
CONTINUOUS
 62
    7
 10
172.46868899999998
 20
478.37724349999996
 11
172.41918899999996
 21
478.46333349999998
  0
LINE
  8
_0-0_0
  6
CONTINUOUS
 62
    7
 10
172.41918899999996
 20
478.46333349999998
 11
172.37472500000001
 21
478.54817249999996
  0
LINE
  8
_0-0_0
  6
CONTINUOUS
 62
    7
 10
172.37472500000001
 20
478.54817249999996
 11
172.32775899999996
 21
478.6484835
  0
LINE
  8
_0-0_0
  6
CONTINUOUS
 62
    7
 10
172.32775899999996
 20
478.6484835
 11
172.28753699999999
 21
478.74742149999997
  0
LINE
  8
_0-0_0
  6
CONTINUOUS
 62
    7
 10
172.28753699999999
 20
478.74742149999997
 11
172.25387599999999
 21
478.8451695
  0
LINE
  8
_0-0_0
  6
CONTINUOUS
 62
    7
 10
172.25387599999999
 20
478.8451695
 11
172.22659299999998
 21
478.94197050000002
  0
LINE
  8
_0-0_0
  6
CONTINUOUS
 62
    7
 10
172.22659299999998
 20
478.94197050000002
 11
172.205536
 21
479.03804049999997
  0
LINE
  8
_0-0_0
  6
CONTINUOUS
 62
    7
 10
172.205536
 20
479.03804049999997
 11
172.18960599999997
 21
479.14189150000004
  0
LINE
  8
_0-0_0
  6
CONTINUOUS
 62
    7
 10
172.18960599999997
 20
479.14189150000004
 11
172.18084699999997
 21
479.24531550000006
  0
LINE
  8
_0-0_0
  6
CONTINUOUS
 62
    7
 10
172.18084699999997
 20
479.24531550000006
 11
172.17922999999996
 21
479.34852650000005
  0
LINE
  8
_0-0_0
  6
CONTINUOUS
 62
    7
 10
172.17922999999996
 20
479.34852650000005
 11
172.18469199999998
 21
479.45182850000003
  0
LINE
  8
_0-0_0
  6
CONTINUOUS
 62
    7
 10
172.18469199999998
 20
479.45182850000003
 11
172.19729599999999
 21
479.55543550000004
  0
LINE
  8
_0-0_0
  6
CONTINUOUS
 62
    7
 10
172.19729599999999
 20
479.55543550000004
 11
172.21710200000001
 21
479.6595615
  0
LINE
  8
_0-0_0
  6
CONTINUOUS
 62
    7
 10
172.21710200000001
 20
479.6595615
 11
172.24426299999999
 21
479.76454150000006
  0
LINE
  8
_0-0_0
  6
CONTINUOUS
 62
    7
 10
172.24426299999999
 20
479.76454150000006
 11
172.27889999999996
 21
479.87055950000001
  0
LINE
  8
_0-0_0
  6
CONTINUOUS
 62
    7
 10
172.27889999999996
 20
479.87055950000001
 11
172.321259
 21
479.97795150000002
  0
LINE
  8
_0-0_0
  6
CONTINUOUS
 62
    7
 10
172.321259
 20
479.97795150000002
 11
172.37158199999999
 21
480.08695950000003
  0
LINE
  8
_0-0_0
  6
CONTINUOUS
 62
    7
 10
172.37158199999999
 20
480.08695950000003
 11
172.41726699999998
 21
480.17460649999998
  0
LINE
  8
_0-0_0
  6
CONTINUOUS
 62
    7
 10
182.42895499999997
 20
476.73225450000007
 11
172.72112999999996
 21
476.73225450000007
  0
LINE
  8
_0-0_0
  6
CONTINUOUS
 62
    7
 10
172.72112999999996
 20
476.73225450000007
 11
172.626801
 21
476.48564150000004
  0
LINE
  8
_0-0_0
  6
CONTINUOUS
 62
    7
 10
172.626801
 20
476.48564150000004
 11
172.54284699999999
 21
476.24568150000005
  0
LINE
  8
_0-0_0
  6
CONTINUOUS
 62
    7
 10
172.54284699999999
 20
476.24568150000005
 11
172.46868899999998
 21
476.0115515
  0
LINE
  8
_0-0_0
  6
CONTINUOUS
 62
    7
 10
172.46868899999998
 20
476.0115515
 11
172.40380899999997
 21
475.78251650000004
  0
LINE
  8
_0-0_0
  6
CONTINUOUS
 62
    7
 10
172.40380899999997
 20
475.78251650000004
 11
172.34777800000001
 21
475.55784649999998
  0
LINE
  8
_0-0_0
  6
CONTINUOUS
 62
    7
 10
172.34777800000001
 20
475.55784649999998
 11
172.30020099999996
 21
475.33686850000004
  0
LINE
  8
_0-0_0
  6
CONTINUOUS
 62
    7
 10
172.30020099999996
 20
475.33686850000004
 11
172.26080300000001
 21
475.1189425
  0
LINE
  8
_0-0_0
  6
CONTINUOUS
 62
    7
 10
172.26080300000001
 20
475.1189425
 11
172.229309
 21
474.90348849999998
  0
LINE
  8
_0-0_0
  6
CONTINUOUS
 62
    7
 10
172.229309
 20
474.90348849999998
 11
172.205536
 21
474.68995649999999
  0
LINE
  8
_0-0_0
  6
CONTINUOUS
 62
    7
 10
172.205536
 20
474.68995649999999
 11
172.18960599999997
 21
474.48225450000007
  0
LINE
  8
_0-0_0
  6
CONTINUOUS
 62
    7
 10
172.18960599999997
 20
474.48225450000007
 11
172.18084699999997
 21
474.27540650000003
  0
LINE
  8
_0-0_0
  6
CONTINUOUS
 62
    7
 10
172.18084699999997
 20
474.27540650000003
 11
172.17922999999996
 21
474.06892449999998
  0
LINE
  8
_0-0_0
  6
CONTINUOUS
 62
    7
 10
172.17922999999996
 20
474.06892449999998
 11
172.18469199999998
 21
473.86235050000005
  0
LINE
  8
_0-0_0
  6
CONTINUOUS
 62
    7
 10
172.18469199999998
 20
473.86235050000005
 11
172.19729599999999
 21
473.65516650000006
  0
LINE
  8
_0-0_0
  6
CONTINUOUS
 62
    7
 10
172.19729599999999
 20
473.65516650000006
 11
172.21710200000001
 21
473.44688450000001
  0
LINE
  8
_0-0_0
  6
CONTINUOUS
 62
    7
 10
172.21710200000001
 20
473.44688450000001
 11
172.24426299999999
 21
473.23695350000003
  0
LINE
  8
_0-0_0
  6
CONTINUOUS
 62
    7
 10
172.24426299999999
 20
473.23695350000003
 11
172.27889999999996
 21
473.02488749999998
  0
LINE
  8
_0-0_0
  6
CONTINUOUS
 62
    7
 10
172.27889999999996
 20
473.02488749999998
 11
172.321259
 21
472.8101355
  0
LINE
  8
_0-0_0
  6
CONTINUOUS
 62
    7
 10
172.321259
 20
472.8101355
 11
172.37158199999999
 21
472.59211749999997
  0
LINE
  8
_0-0_0
  6
CONTINUOUS
 62
    7
 10
172.37158199999999
 20
472.59211749999997
 11
172.42581200000001
 21
472.38584950000006
  0
LINE
  8
_0-0_0
  6
CONTINUOUS
 62
    7
 10
172.42581200000001
 20
472.38584950000006
 11
172.48751799999997
 21
472.17573549999997
  0
LINE
  8
_0-0_0
  6
CONTINUOUS
 62
    7
 10
172.48751799999997
 20
472.17573549999997
 11
172.55703699999998
 21
471.96125849999999
  0
LINE
  8
_0-0_0
  6
CONTINUOUS
 62
    7
 10
172.55703699999998
 20
471.96125849999999
 11
172.63476600000001
 21
471.74186750000001
  0
LINE
  8
_0-0_0
  6
CONTINUOUS
 62
    7
 10
172.63476600000001
 20
471.74186750000001
 11
172.72112999999996
 21
471.5168615
  0
LINE
  8
_0-0_0
  6
CONTINUOUS
 62
    7
 10
182.42895499999997
 20
471.5168615
 11
172.72112999999996
 21
471.5168615
  0
ARC
  8
_0-0_0
  6
CONTINUOUS
 62
    7
 10
177.59268199999997
 20
477.37455750000004
 40
4.9136889999999998
 50
172.48898299999999
 51
187.51101699999998
  0
LINE
  8
_0-0_0
  6
CONTINUOUS
 62
    7
 10
182.42895499999997
 20
470.23225450000007
 11
172.72112999999996
 21
470.23225450000007
  0
LINE
  8
_0-0_0
  6
CONTINUOUS
 62
    7
 10
172.72112999999996
 20
467.62455750000004
 11
172.66665699999999
 21
467.6945035
  0
LINE
  8
_0-0_0
  6
CONTINUOUS
 62
    7
 10
172.66665699999999
 20
467.6945035
 11
172.61554000000001
 21
467.76332149999996
  0
LINE
  8
_0-0_0
  6
CONTINUOUS
 62
    7
 10
172.61554000000001
 20
467.76332149999996
 11
172.56793199999998
 21
467.83082550000006
  0
LINE
  8
_0-0_0
  6
CONTINUOUS
 62
    7
 10
172.56793199999998
 20
467.83082550000006
 11
172.52340699999996
 21
467.89738450000004
  0
LINE
  8
_0-0_0
  6
CONTINUOUS
 62
    7
 10
172.52340699999996
 20
467.89738450000004
 11
172.46868899999998
 21
467.9849395
  0
LINE
  8
_0-0_0
  6
CONTINUOUS
 62
    7
 10
172.46868899999998
 20
467.9849395
 11
172.41918899999996
 21
468.07102950000001
  0
LINE
  8
_0-0_0
  6
CONTINUOUS
 62
    7
 10
172.41918899999996
 20
468.07102950000001
 11
172.37472500000001
 21
468.1558685
  0
LINE
  8
_0-0_0
  6
CONTINUOUS
 62
    7
 10
172.37472500000001
 20
468.1558685
 11
172.32775899999996
 21
468.25617950000003
  0
LINE
  8
_0-0_0
  6
CONTINUOUS
 62
    7
 10
172.32775899999996
 20
468.25617950000003
 11
172.28753699999999
 21
468.35511750000001
  0
LINE
  8
_0-0_0
  6
CONTINUOUS
 62
    7
 10
172.28753699999999
 20
468.35511750000001
 11
172.25387599999999
 21
468.45286550000003
  0
LINE
  8
_0-0_0
  6
CONTINUOUS
 62
    7
 10
172.25387599999999
 20
468.45286550000003
 11
172.22659299999998
 21
468.54966750000006
  0
LINE
  8
_0-0_0
  6
CONTINUOUS
 62
    7
 10
172.22659299999998
 20
468.54966750000006
 11
172.205536
 21
468.64570649999996
  0
LINE
  8
_0-0_0
  6
CONTINUOUS
 62
    7
 10
172.205536
 20
468.64570649999996
 11
172.18960599999997
 21
468.74958849999996
  0
LINE
  8
_0-0_0
  6
CONTINUOUS
 62
    7
 10
172.18960599999997
 20
468.74958849999996
 11
172.18084699999997
 21
468.85301249999998
  0
LINE
  8
_0-0_0
  6
CONTINUOUS
 62
    7
 10
172.18084699999997
 20
468.85301249999998
 11
172.17922999999996
 21
468.9562535
  0
LINE
  8
_0-0_0
  6
CONTINUOUS
 62
    7
 10
172.17922999999996
 20
468.9562535
 11
172.18469199999998
 21
469.05952450000007
  0
LINE
  8
_0-0_0
  6
CONTINUOUS
 62
    7
 10
172.18469199999998
 20
469.05952450000007
 11
172.19729599999999
 21
469.16313149999996
  0
LINE
  8
_0-0_0
  6
CONTINUOUS
 62
    7
 10
172.19729599999999
 20
469.16313149999996
 11
172.21710200000001
 21
469.26725750000003
  0
LINE
  8
_0-0_0
  6
CONTINUOUS
 62
    7
 10
172.21710200000001
 20
469.26725750000003
 11
172.24426299999999
 21
469.37223849999998
  0
LINE
  8
_0-0_0
  6
CONTINUOUS
 62
    7
 10
172.24426299999999
 20
469.37223849999998
 11
172.27889999999996
 21
469.47825650000004
  0
LINE
  8
_0-0_0
  6
CONTINUOUS
 62
    7
 10
172.27889999999996
 20
469.47825650000004
 11
172.321259
 21
469.58564750000005
  0
LINE
  8
_0-0_0
  6
CONTINUOUS
 62
    7
 10
172.321259
 20
469.58564750000005
 11
172.37158199999999
 21
469.69462550000003
  0
LINE
  8
_0-0_0
  6
CONTINUOUS
 62
    7
 10
172.37158199999999
 20
469.69462550000003
 11
172.42581200000001
 21
469.79777550000006
  0
LINE
  8
_0-0_0
  6
CONTINUOUS
 62
    7
 10
172.42581200000001
 20
469.79777550000006
 11
172.48751799999997
 21
469.90284750000001
  0
LINE
  8
_0-0_0
  6
CONTINUOUS
 62
    7
 10
172.48751799999997
 20
469.90284750000001
 11
172.55703699999998
 21
470.01008650000006
  0
LINE
  8
_0-0_0
  6
CONTINUOUS
 62
    7
 10
172.55703699999998
 20
470.01008650000006
 11
172.63476600000001
 21
470.11976649999997
  0
LINE
  8
_0-0_0
  6
CONTINUOUS
 62
    7
 10
172.63476600000001
 20
470.11976649999997
 11
172.72112999999996
 21
470.23225450000007
  0
LINE
  8
_0-0_0
  6
CONTINUOUS
 62
    7
 10
182.42895499999997
 20
467.62455750000004
 11
172.72112999999996
 21
467.62455750000004
  0
ARC
  8
_0-0_0
  6
CONTINUOUS
 62
    7
 10
177.602844
 20
470.8736725
 40
4.9238749999999998
 50
172.49424200000001
 51
181.535968
  0
ARC
  8
_0-0_0
  6
CONTINUOUS
 62
    7
 10
177.64086900000001
 20
470.87864650000006
 40
4.9620009999999999
 50
181.58130700000004
 51
187.48478900000003
  0
LINE
  8
_0-0_0
  6
CONTINUOUS
 62
    7
 10
172.67895499999997
 20
467.62455750000004
 11
172.72112999999996
 21
467.62455750000004
  0
LINE
  8
_0-0_0
  6
CONTINUOUS
 62
    7
 10
167.42895499999997
 20
467.0500035
 11
167.17895499999997
 21
467.07456950000005
  0
LINE
  8
_0-0_0
  6
CONTINUOUS
 62
    7
 10
167.42895499999997
 20
466.84605450000004
 11
167.17895499999997
 21
467.07456950000005
  0
LINE
  8
_0-0_0
  6
CONTINUOUS
 62
    7
 10
167.42895499999997
 20
467.24055450000003
 11
167.17895499999997
 21
467.29402149999999
  0
LINE
  8
_0-0_0
  6
CONTINUOUS
 62
    7
 10
167.42895499999997
 20
467.0500035
 11
167.17895499999997
 21
467.29402149999999
  0
LINE
  8
_0-0_0
  6
CONTINUOUS
 62
    7
 10
167.42895499999997
 20
467.41557350000005
 11
167.17895499999997
 21
467.49739050000005
  0
LINE
  8
_0-0_0
  6
CONTINUOUS
 62
    7
 10
167.42895499999997
 20
467.24055450000003
 11
167.17895499999997
 21
467.49739050000005
  0
LINE
  8
_0-0_0
  6
CONTINUOUS
 62
    7
 10
167.42895499999997
 20
467.57313550000003
 11
167.17895499999997
 21
467.68241850000004
  0
LINE
  8
_0-0_0
  6
CONTINUOUS
 62
    7
 10
167.42895499999997
 20
467.41557350000005
 11
167.17895499999997
 21
467.68241850000004
  0
LINE
  8
_0-0_0
  6
CONTINUOUS
 62
    7
 10
167.42895499999997
 20
467.71159350000005
 11
167.17895499999997
 21
467.84712249999995
  0
LINE
  8
_0-0_0
  6
CONTINUOUS
 62
    7
 10
167.42895499999997
 20
467.57313550000003
 11
167.17895499999997
 21
467.84712249999995
  0
LINE
  8
_0-0_0
  6
CONTINUOUS
 62
    7
 10
167.42895499999997
 20
467.82933049999997
 11
167.17895499999997
 21
467.98963950000007
  0
LINE
  8
_0-0_0
  6
CONTINUOUS
 62
    7
 10
167.42895499999997
 20
467.71159350000005
 11
167.17895499999997
 21
467.98963950000007
  0
LINE
  8
_0-0_0
  6
CONTINUOUS
 62
    7
 10
167.42895499999997
 20
467.92512550000004
 11
167.17895499999997
 21
468.10844450000002
  0
LINE
  8
_0-0_0
  6
CONTINUOUS
 62
    7
 10
167.42895499999997
 20
467.82933049999997
 11
167.17895499999997
 21
468.10844450000002
  0
LINE
  8
_0-0_0
  6
CONTINUOUS
 62
    7
 10
167.42895499999997
 20
467.99790949999999
 11
167.17895499999997
 21
468.20222450000006
  0
LINE
  8
_0-0_0
  6
CONTINUOUS
 62
    7
 10
167.42895499999997
 20
467.92512550000004
 11
167.17895499999997
 21
468.20222450000006
  0
LINE
  8
_0-0_0
  6
CONTINUOUS
 62
    7
 10
167.42895499999997
 20
468.04685949999998
 11
167.17895499999997
 21
468.26994350000007
  0
LINE
  8
_0-0_0
  6
CONTINUOUS
 62
    7
 10
167.42895499999997
 20
467.99790949999999
 11
167.17895499999997
 21
468.26994350000007
  0
LINE
  8
_0-0_0
  6
CONTINUOUS
 62
    7
 10
167.42895499999997
 20
468.07148749999999
 11
167.17895499999997
 21
468.31086749999997
  0
LINE
  8
_0-0_0
  6
CONTINUOUS
 62
    7
 10
167.42895499999997
 20
468.04685949999998
 11
167.17895499999997
 21
468.31086749999997
  0
LINE
  8
_0-0_0
  6
CONTINUOUS
 62
    7
 10
167.42895499999997
 20
468.07148749999999
 11
167.17895499999997
 21
468.32456950000005
  0
LINE
  8
_0-0_0
  6
CONTINUOUS
 62
    7
 10
167.42895499999997
 20
463.5776525
 11
167.17895499999997
 21
463.32456950000005
  0
LINE
  8
_0-0_0
  6
CONTINUOUS
 62
    7
 10
167.42895499999997
 20
463.60227950000001
 11
167.17895499999997
 21
463.33827250000002
  0
LINE
  8
_0-0_0
  6
CONTINUOUS
 62
    7
 10
167.42895499999997
 20
463.5776525
 11
167.17895499999997
 21
463.33827250000002
  0
LINE
  8
_0-0_0
  6
CONTINUOUS
 62
    7
 10
167.42895499999997
 20
463.6512295
 11
167.17895499999997
 21
463.37919650000003
  0
LINE
  8
_0-0_0
  6
CONTINUOUS
 62
    7
 10
167.42895499999997
 20
463.60227950000001
 11
167.17895499999997
 21
463.37919650000003
  0
LINE
  8
_0-0_0
  6
CONTINUOUS
 62
    7
 10
167.42895499999997
 20
463.72401450000007
 11
167.17895499999997
 21
463.44691450000005
  0
LINE
  8
_0-0_0
  6
CONTINUOUS
 62
    7
 10
167.42895499999997
 20
463.6512295
 11
167.17895499999997
 21
463.44691450000005
  0
LINE
  8
_0-0_0
  6
CONTINUOUS
 62
    7
 10
167.42895499999997
 20
463.81980950000002
 11
167.17895499999997
 21
463.54069549999997
  0
LINE
  8
_0-0_0
  6
CONTINUOUS
 62
    7
 10
167.42895499999997
 20
463.72401450000007
 11
167.17895499999997
 21
463.54069549999997
  0
LINE
  8
_0-0_0
  6
CONTINUOUS
 62
    7
 10
167.42895499999997
 20
463.81980950000002
 11
167.29901100000001
 21
463.73594650000007
  0
LINE
  8
_0-0_0
  6
CONTINUOUS
 62
    7
 10
167.42895499999997
 20
463.93754550000006
 11
167.17895499999997
 21
463.65950050000004
  0
LINE
  8
_0-0_0
  6
CONTINUOUS
 62
    7
 10
167.29901100000001
 20
463.73594650000007
 11
167.17895499999997
 21
463.65950050000004
  0
LINE
  8
_0-0_0
  6
CONTINUOUS
 62
    7
 10
167.42895499999997
 20
464.07600450000007
 11
167.17895499999997
 21
463.80201750000003
  0
LINE
  8
_0-0_0
  6
CONTINUOUS
 62
    7
 10
167.42895499999997
 20
463.93754550000006
 11
167.17895499999997
 21
463.80201750000003
  0
LINE
  8
_0-0_0
  6
CONTINUOUS
 62
    7
 10
167.42895499999997
 20
464.23359649999998
 11
167.17895499999997
 21
463.96672050000006
  0
LINE
  8
_0-0_0
  6
CONTINUOUS
 62
    7
 10
167.42895499999997
 20
464.07600450000007
 11
167.17895499999997
 21
463.96672050000006
  0
LINE
  8
_0-0_0
  6
CONTINUOUS
 62
    7
 10
167.42895499999997
 20
464.40858449999996
 11
167.17895499999997
 21
464.15174850000005
  0
LINE
  8
_0-0_0
  6
CONTINUOUS
 62
    7
 10
167.42895499999997
 20
464.23359649999998
 11
167.17895499999997
 21
464.15174850000005
  0
LINE
  8
_0-0_0
  6
CONTINUOUS
 62
    7
 10
167.42895499999997
 20
464.59913649999999
 11
167.17895499999997
 21
464.35511750000001
  0
LINE
  8
_0-0_0
  6
CONTINUOUS
 62
    7
 10
167.42895499999997
 20
464.40858449999996
 11
167.17895499999997
 21
464.35511750000001
  0
LINE
  8
_0-0_0
  6
CONTINUOUS
 62
    7
 10
167.42895499999997
 20
464.80308550000007
 11
167.17895499999997
 21
464.57456950000005
  0
LINE
  8
_0-0_0
  6
CONTINUOUS
 62
    7
 10
167.42895499999997
 20
464.59913649999999
 11
167.17895499999997
 21
464.57456950000005
  0
LINE
  8
_0-0_0
  6
CONTINUOUS
 62
    7
 10
167.42895499999997
 20
465.01823450000006
 11
167.17895499999997
 21
464.80772450000006
  0
LINE
  8
_0-0_0
  6
CONTINUOUS
 62
    7
 10
167.42895499999997
 20
464.80308550000007
 11
167.17895499999997
 21
464.80772450000006
  0
LINE
  8
_0-0_0
  6
CONTINUOUS
 62
    7
 10
167.42895499999997
 20
465.2422335
 11
167.17895499999997
 21
465.05201750000003
  0
LINE
  8
_0-0_0
  6
CONTINUOUS
 62
    7
 10
167.42895499999997
 20
465.01823450000006
 11
167.17895499999997
 21
465.05201750000003
  0
LINE
  8
_0-0_0
  6
CONTINUOUS
 62
    7
 10
167.42895499999997
 20
465.47258050000005
 11
167.17895499999997
 21
465.30479449999996
  0
LINE
  8
_0-0_0
  6
CONTINUOUS
 62
    7
 10
167.42895499999997
 20
465.2422335
 11
167.17895499999997
 21
465.30479449999996
  0
LINE
  8
_0-0_0
  6
CONTINUOUS
 62
    7
 10
167.42895499999997
 20
465.70680249999998
 11
167.17895499999997
 21
465.56324749999999
  0
LINE
  8
_0-0_0
  6
CONTINUOUS
 62
    7
 10
167.42895499999997
 20
465.47258050000005
 11
167.17895499999997
 21
465.56324749999999
  0
LINE
  8
_0-0_0
  6
CONTINUOUS
 62
    7
 10
167.42895499999997
 20
465.94233750000001
 11
167.17895499999997
 21
465.82456950000005
  0
LINE
  8
_0-0_0
  6
CONTINUOUS
 62
    7
 10
167.42895499999997
 20
465.70680249999998
 11
167.17895499999997
 21
465.82456950000005
  0
LINE
  8
_0-0_0
  6
CONTINUOUS
 62
    7
 10
167.42895499999997
 20
466.17655950000005
 11
167.17895499999997
 21
466.0858915
  0
LINE
  8
_0-0_0
  6
CONTINUOUS
 62
    7
 10
167.42895499999997
 20
465.94233750000001
 11
167.17895499999997
 21
466.0858915
  0
LINE
  8
_0-0_0
  6
CONTINUOUS
 62
    7
 10
167.42895499999997
 20
466.40690649999999
 11
167.17895499999997
 21
466.34434550000003
  0
LINE
  8
_0-0_0
  6
CONTINUOUS
 62
    7
 10
167.42895499999997
 20
466.17655950000005
 11
167.17895499999997
 21
466.34434550000003
  0
LINE
  8
_0-0_0
  6
CONTINUOUS
 62
    7
 10
167.42895499999997
 20
466.63090550000004
 11
167.17895499999997
 21
466.59712249999995
  0
LINE
  8
_0-0_0
  6
CONTINUOUS
 62
    7
 10
167.42895499999997
 20
466.40690649999999
 11
167.17895499999997
 21
466.59712249999995
  0
LINE
  8
_0-0_0
  6
CONTINUOUS
 62
    7
 10
167.42895499999997
 20
466.84605450000004
 11
167.17895499999997
 21
466.84141550000004
  0
LINE
  8
_0-0_0
  6
CONTINUOUS
 62
    7
 10
167.42895499999997
 20
466.63090550000004
 11
167.17895499999997
 21
466.84141550000004
  0
LINE
  8
_0-0_0
  6
CONTINUOUS
 62
    7
 10
157.67895499999997
 20
483.65000950000001
 11
157.92895499999997
 21
483.67457550000006
  0
LINE
  8
_0-0_0
  6
CONTINUOUS
 62
    7
 10
157.92895499999997
 20
483.67457550000006
 11
167.17895499999997
 21
483.67457550000006
  0
LINE
  8
_0-0_0
  6
CONTINUOUS
 62
    7
 10
157.67895499999997
 20
483.44606050000004
 11
157.92895499999997
 21
483.67457550000006
  0
LINE
  8
_0-0_0
  6
CONTINUOUS
 62
    7
 10
157.67895499999997
 20
483.44606050000004
 11
167.42895499999997
 21
483.44606050000004
  0
LINE
  8
_0-0_0
  6
CONTINUOUS
 62
    7
 10
157.67895499999997
 20
483.8405305
 11
157.92895499999997
 21
483.89402749999999
  0
LINE
  8
_0-0_0
  6
CONTINUOUS
 62
    7
 10
157.92895499999997
 20
483.89402749999999
 11
167.17895499999997
 21
483.89402749999999
  0
LINE
  8
_0-0_0
  6
CONTINUOUS
 62
    7
 10
157.67895499999997
 20
483.65000950000001
 11
157.92895499999997
 21
483.89402749999999
  0
LINE
  8
_0-0_0
  6
CONTINUOUS
 62
    7
 10
157.67895499999997
 20
484.01554850000002
 11
157.92895499999997
 21
484.09739650000006
  0
LINE
  8
_0-0_0
  6
CONTINUOUS
 62
    7
 10
157.92895499999997
 20
484.09739650000006
 11
167.17895499999997
 21
484.09739650000006
  0
LINE
  8
_0-0_0
  6
CONTINUOUS
 62
    7
 10
157.67895499999997
 20
483.8405305
 11
157.92895499999997
 21
484.09739650000006
  0
LINE
  8
_0-0_0
  6
CONTINUOUS
 62
    7
 10
157.67895499999997
 20
484.17314150000004
 11
157.92895499999997
 21
484.28242550000004
  0
LINE
  8
_0-0_0
  6
CONTINUOUS
 62
    7
 10
157.92895499999997
 20
484.28242550000004
 11
167.17895499999997
 21
484.28242550000004
  0
LINE
  8
_0-0_0
  6
CONTINUOUS
 62
    7
 10
157.67895499999997
 20
484.01554850000002
 11
157.92895499999997
 21
484.28242550000004
  0
LINE
  8
_0-0_0
  6
CONTINUOUS
 62
    7
 10
157.67895499999997
 20
484.31156950000002
 11
157.92895499999997
 21
484.44712849999996
  0
LINE
  8
_0-0_0
  6
CONTINUOUS
 62
    7
 10
157.92895499999997
 20
484.44712849999996
 11
167.17895499999997
 21
484.44712849999996
  0
LINE
  8
_0-0_0
  6
CONTINUOUS
 62
    7
 10
157.67895499999997
 20
484.17314150000004
 11
157.92895499999997
 21
484.44712849999996
  0
LINE
  8
_0-0_0
  6
CONTINUOUS
 62
    7
 10
157.67895499999997
 20
484.42933649999998
 11
157.92895499999997
 21
484.58964549999996
  0
LINE
  8
_0-0_0
  6
CONTINUOUS
 62
    7
 10
157.92895499999997
 20
484.58964549999996
 11
167.17895499999997
 21
484.58964549999996
  0
LINE
  8
_0-0_0
  6
CONTINUOUS
 62
    7
 10
157.67895499999997
 20
484.31156950000002
 11
157.92895499999997
 21
484.58964549999996
  0
LINE
  8
_0-0_0
  6
CONTINUOUS
 62
    7
 10
157.67895499999997
 20
484.52513150000004
 11
157.92895499999997
 21
484.70845050000003
  0
LINE
  8
_0-0_0
  6
CONTINUOUS
 62
    7
 10
157.92895499999997
 20
484.70845050000003
 11
167.17895499999997
 21
484.70845050000003
  0
LINE
  8
_0-0_0
  6
CONTINUOUS
 62
    7
 10
157.67895499999997
 20
484.42933649999998
 11
157.92895499999997
 21
484.70845050000003
  0
LINE
  8
_0-0_0
  6
CONTINUOUS
 62
    7
 10
157.67895499999997
 20
484.5979155
 11
157.92895499999997
 21
484.80220050000003
  0
LINE
  8
_0-0_0
  6
CONTINUOUS
 62
    7
 10
157.92895499999997
 20
484.80220050000003
 11
167.17895499999997
 21
484.80220050000003
  0
LINE
  8
_0-0_0
  6
CONTINUOUS
 62
    7
 10
157.67895499999997
 20
484.52513150000004
 11
157.92895499999997
 21
484.80220050000003
  0
LINE
  8
_0-0_0
  6
CONTINUOUS
 62
    7
 10
157.67895499999997
 20
484.64686549999999
 11
157.92895499999997
 21
484.86994949999996
  0
LINE
  8
_0-0_0
  6
CONTINUOUS
 62
    7
 10
157.92895499999997
 20
484.86994949999996
 11
167.17895499999997
 21
484.86994949999996
  0
LINE
  8
_0-0_0
  6
CONTINUOUS
 62
    7
 10
157.67895499999997
 20
484.5979155
 11
157.92895499999997
 21
484.86994949999996
  0
LINE
  8
_0-0_0
  6
CONTINUOUS
 62
    7
 10
157.67895499999997
 20
484.6714935
 11
157.92895499999997
 21
484.91087349999998
  0
LINE
  8
_0-0_0
  6
CONTINUOUS
 62
    7
 10
157.92895499999997
 20
484.91087349999998
 11
167.17895499999997
 21
484.91087349999998
  0
LINE
  8
_0-0_0
  6
CONTINUOUS
 62
    7
 10
157.67895499999997
 20
484.64686549999999
 11
157.92895499999997
 21
484.91087349999998
  0
LINE
  8
_0-0_0
  6
CONTINUOUS
 62
    7
 10
157.92895499999997
 20
484.92457550000006
 11
167.17895499999997
 21
484.92457550000006
  0
LINE
  8
_0-0_0
  6
CONTINUOUS
 62
    7
 10
157.67895499999997
 20
484.6714935
 11
157.92895499999997
 21
484.92457550000006
  0
LINE
  8
_0-0_0
  6
CONTINUOUS
 62
    7
 10
157.67895499999997
 20
480.17765850000001
 11
157.92895499999997
 21
479.92457550000006
  0
LINE
  8
_0-0_0
  6
CONTINUOUS
 62
    7
 10
157.92895499999997
 20
479.92457550000006
 11
167.17895499999997
 21
479.92457550000006
  0
LINE
  8
_0-0_0
  6
CONTINUOUS
 62
    7
 10
157.67895499999997
 20
480.20228550000002
 11
157.92895499999997
 21
479.93827850000002
  0
LINE
  8
_0-0_0
  6
CONTINUOUS
 62
    7
 10
157.92895499999997
 20
479.93827850000002
 11
167.17895499999997
 21
479.93827850000002
  0
LINE
  8
_0-0_0
  6
CONTINUOUS
 62
    7
 10
157.67895499999997
 20
480.17765850000001
 11
157.92895499999997
 21
479.93827850000002
  0
LINE
  8
_0-0_0
  6
CONTINUOUS
 62
    7
 10
157.67895499999997
 20
480.2512365
 11
157.92895499999997
 21
479.97920250000004
  0
LINE
  8
_0-0_0
  6
CONTINUOUS
 62
    7
 10
157.92895499999997
 20
479.97920250000004
 11
167.17895499999997
 21
479.97920250000004
  0
LINE
  8
_0-0_0
  6
CONTINUOUS
 62
    7
 10
157.67895499999997
 20
480.20228550000002
 11
157.92895499999997
 21
479.97920250000004
  0
LINE
  8
_0-0_0
  6
CONTINUOUS
 62
    7
 10
157.67895499999997
 20
480.32402049999996
 11
157.92895499999997
 21
480.04692050000006
  0
LINE
  8
_0-0_0
  6
CONTINUOUS
 62
    7
 10
157.92895499999997
 20
480.04692050000006
 11
167.17895499999997
 21
480.04692050000006
  0
LINE
  8
_0-0_0
  6
CONTINUOUS
 62
    7
 10
157.67895499999997
 20
480.2512365
 11
157.92895499999997
 21
480.04692050000006
  0
LINE
  8
_0-0_0
  6
CONTINUOUS
 62
    7
 10
157.67895499999997
 20
480.41981550000003
 11
157.92895499999997
 21
480.14070149999998
  0
LINE
  8
_0-0_0
  6
CONTINUOUS
 62
    7
 10
157.92895499999997
 20
480.14070149999998
 11
167.17895499999997
 21
480.14070149999998
  0
LINE
  8
_0-0_0
  6
CONTINUOUS
 62
    7
 10
157.67895499999997
 20
480.32402049999996
 11
157.92895499999997
 21
480.14070149999998
  0
LINE
  8
_0-0_0
  6
CONTINUOUS
 62
    7
 10
157.92895499999997
 20
480.25950650000004
 11
167.17895499999997
 21
480.25950650000004
  0
LINE
  8
_0-0_0
  6
CONTINUOUS
 62
    7
 10
157.80892899999998
 20
480.33595249999996
 11
157.92895499999997
 21
480.25950650000004
  0
LINE
  8
_0-0_0
  6
CONTINUOUS
 62
    7
 10
157.67895499999997
 20
480.41981550000003
 11
157.80892899999998
 21
480.33595249999996
  0
LINE
  8
_0-0_0
  6
CONTINUOUS
 62
    7
 10
157.67895499999997
 20
480.53755250000006
 11
157.92895499999997
 21
480.25950650000004
  0
LINE
  8
_0-0_0
  6
CONTINUOUS
 62
    7
 10
157.67895499999997
 20
480.67597950000004
 11
157.92895499999997
 21
480.40202350000004
  0
LINE
  8
_0-0_0
  6
CONTINUOUS
 62
    7
 10
157.92895499999997
 20
480.40202350000004
 11
167.17895499999997
 21
480.40202350000004
  0
LINE
  8
_0-0_0
  6
CONTINUOUS
 62
    7
 10
157.67895499999997
 20
480.53755250000006
 11
157.92895499999997
 21
480.40202350000004
  0
LINE
  8
_0-0_0
  6
CONTINUOUS
 62
    7
 10
157.67895499999997
 20
480.83357250000006
 11
157.92895499999997
 21
480.56669650000003
  0
LINE
  8
_0-0_0
  6
CONTINUOUS
 62
    7
 10
157.92895499999997
 20
480.56669650000003
 11
167.17895499999997
 21
480.56669650000003
  0
LINE
  8
_0-0_0
  6
CONTINUOUS
 62
    7
 10
157.67895499999997
 20
480.67597950000004
 11
157.92895499999997
 21
480.56669650000003
  0
LINE
  8
_0-0_0
  6
CONTINUOUS
 62
    7
 10
157.67895499999997
 20
481.00859049999997
 11
157.92895499999997
 21
480.75175450000006
  0
LINE
  8
_0-0_0
  6
CONTINUOUS
 62
    7
 10
157.92895499999997
 20
480.75175450000006
 11
167.17895499999997
 21
480.75175450000006
  0
LINE
  8
_0-0_0
  6
CONTINUOUS
 62
    7
 10
157.67895499999997
 20
480.83357250000006
 11
157.92895499999997
 21
480.75175450000006
  0
LINE
  8
_0-0_0
  6
CONTINUOUS
 62
    7
 10
157.67895499999997
 20
481.19914249999999
 11
157.92895499999997
 21
480.95509349999998
  0
LINE
  8
_0-0_0
  6
CONTINUOUS
 62
    7
 10
157.92895499999997
 20
480.95509349999998
 11
167.17895499999997
 21
480.95509349999998
  0
LINE
  8
_0-0_0
  6
CONTINUOUS
 62
    7
 10
157.67895499999997
 20
481.00859049999997
 11
157.92895499999997
 21
480.95509349999998
  0
LINE
  8
_0-0_0
  6
CONTINUOUS
 62
    7
 10
157.67895499999997
 20
481.40309149999996
 11
157.92895499999997
 21
481.17457550000006
  0
LINE
  8
_0-0_0
  6
CONTINUOUS
 62
    7
 10
157.92895499999997
 20
481.17457550000006
 11
167.17895499999997
 21
481.17457550000006
  0
LINE
  8
_0-0_0
  6
CONTINUOUS
 62
    7
 10
157.67895499999997
 20
481.40309149999996
 11
167.42895499999997
 21
481.40309149999996
  0
LINE
  8
_0-0_0
  6
CONTINUOUS
 62
    7
 10
157.67895499999997
 20
481.19914249999999
 11
157.92895499999997
 21
481.17457550000006
  0
LINE
  8
_0-0_0
  6
CONTINUOUS
 62
    7
 10
157.67895499999997
 20
481.61824049999996
 11
157.92895499999997
 21
481.40773049999996
  0
LINE
  8
_0-0_0
  6
CONTINUOUS
 62
    7
 10
157.92895499999997
 20
481.40773049999996
 11
167.17895499999997
 21
481.40773049999996
  0
LINE
  8
_0-0_0
  6
CONTINUOUS
 62
    7
 10
157.67895499999997
 20
481.61824049999996
 11
167.42895499999997
 21
481.61824049999996
  0
LINE
  8
_0-0_0
  6
CONTINUOUS
 62
    7
 10
157.67895499999997
 20
481.40309149999996
 11
157.92895499999997
 21
481.40773049999996
  0
LINE
  8
_0-0_0
  6
CONTINUOUS
 62
    7
 10
157.67895499999997
 20
481.84223950000001
 11
157.92895499999997
 21
481.65202350000004
  0
LINE
  8
_0-0_0
  6
CONTINUOUS
 62
    7
 10
157.92895499999997
 20
481.65202350000004
 11
167.17895499999997
 21
481.65202350000004
  0
LINE
  8
_0-0_0
  6
CONTINUOUS
 62
    7
 10
157.67895499999997
 20
481.84223950000001
 11
167.42895499999997
 21
481.84223950000001
  0
LINE
  8
_0-0_0
  6
CONTINUOUS
 62
    7
 10
157.67895499999997
 20
481.61824049999996
 11
157.92895499999997
 21
481.65202350000004
  0
LINE
  8
_0-0_0
  6
CONTINUOUS
 62
    7
 10
157.67895499999997
 20
482.07258650000006
 11
157.92895499999997
 21
481.90480049999996
  0
LINE
  8
_0-0_0
  6
CONTINUOUS
 62
    7
 10
157.92895499999997
 20
481.90480049999996
 11
167.17895499999997
 21
481.90480049999996
  0
LINE
  8
_0-0_0
  6
CONTINUOUS
 62
    7
 10
157.67895499999997
 20
482.07258650000006
 11
167.42895499999997
 21
482.07258650000006
  0
LINE
  8
_0-0_0
  6
CONTINUOUS
 62
    7
 10
157.67895499999997
 20
481.84223950000001
 11
157.92895499999997
 21
481.90480049999996
  0
LINE
  8
_0-0_0
  6
CONTINUOUS
 62
    7
 10
157.67895499999997
 20
482.30680849999999
 11
157.92895499999997
 21
482.1632535
  0
LINE
  8
_0-0_0
  6
CONTINUOUS
 62
    7
 10
157.92895499999997
 20
482.1632535
 11
167.17895499999997
 21
482.1632535
  0
LINE
  8
_0-0_0
  6
CONTINUOUS
 62
    7
 10
157.67895499999997
 20
482.30680849999999
 11
167.42895499999997
 21
482.30680849999999
  0
LINE
  8
_0-0_0
  6
CONTINUOUS
 62
    7
 10
157.67895499999997
 20
482.07258650000006
 11
157.92895499999997
 21
482.1632535
  0
LINE
  8
_0-0_0
  6
CONTINUOUS
 62
    7
 10
157.67895499999997
 20
482.54231249999998
 11
157.92895499999997
 21
482.42457550000006
  0
LINE
  8
_0-0_0
  6
CONTINUOUS
 62
    7
 10
157.92895499999997
 20
482.42457550000006
 11
167.17895499999997
 21
482.42457550000006
  0
LINE
  8
_0-0_0
  6
CONTINUOUS
 62
    7
 10
157.67895499999997
 20
482.54231249999998
 11
167.42895499999997
 21
482.54231249999998
  0
LINE
  8
_0-0_0
  6
CONTINUOUS
 62
    7
 10
157.67895499999997
 20
482.30680849999999
 11
157.92895499999997
 21
482.42457550000006
  0
LINE
  8
_0-0_0
  6
CONTINUOUS
 62
    7
 10
157.67895499999997
 20
482.77653550000002
 11
157.92895499999997
 21
482.68589750000001
  0
LINE
  8
_0-0_0
  6
CONTINUOUS
 62
    7
 10
157.92895499999997
 20
482.68589750000001
 11
167.17895499999997
 21
482.68589750000001
  0
LINE
  8
_0-0_0
  6
CONTINUOUS
 62
    7
 10
157.67895499999997
 20
482.77653550000002
 11
167.42895499999997
 21
482.77653550000002
  0
LINE
  8
_0-0_0
  6
CONTINUOUS
 62
    7
 10
157.67895499999997
 20
482.54231249999998
 11
157.92895499999997
 21
482.68589750000001
  0
LINE
  8
_0-0_0
  6
CONTINUOUS
 62
    7
 10
157.67895499999997
 20
483.0069125
 11
157.92895499999997
 21
482.94435150000004
  0
LINE
  8
_0-0_0
  6
CONTINUOUS
 62
    7
 10
157.92895499999997
 20
482.94435150000004
 11
167.17895499999997
 21
482.94435150000004
  0
LINE
  8
_0-0_0
  6
CONTINUOUS
 62
    7
 10
157.67895499999997
 20
483.0069125
 11
167.42895499999997
 21
483.0069125
  0
LINE
  8
_0-0_0
  6
CONTINUOUS
 62
    7
 10
157.67895499999997
 20
482.77653550000002
 11
157.92895499999997
 21
482.94435150000004
  0
LINE
  8
_0-0_0
  6
CONTINUOUS
 62
    7
 10
157.67895499999997
 20
483.23091150000005
 11
157.92895499999997
 21
483.19712849999996
  0
LINE
  8
_0-0_0
  6
CONTINUOUS
 62
    7
 10
157.92895499999997
 20
483.19712849999996
 11
167.17895499999997
 21
483.19712849999996
  0
LINE
  8
_0-0_0
  6
CONTINUOUS
 62
    7
 10
157.67895499999997
 20
483.23091150000005
 11
167.42895499999997
 21
483.23091150000005
  0
LINE
  8
_0-0_0
  6
CONTINUOUS
 62
    7
 10
157.67895499999997
 20
483.0069125
 11
157.92895499999997
 21
483.19712849999996
  0
LINE
  8
_0-0_0
  6
CONTINUOUS
 62
    7
 10
157.67895499999997
 20
483.44606050000004
 11
157.92895499999997
 21
483.44142150000005
  0
LINE
  8
_0-0_0
  6
CONTINUOUS
 62
    7
 10
157.92895499999997
 20
483.44142150000005
 11
167.17895499999997
 21
483.44142150000005
  0
LINE
  8
_0-0_0
  6
CONTINUOUS
 62
    7
 10
157.67895499999997
 20
483.23091150000005
 11
157.92895499999997
 21
483.44142150000005
  0
LINE
  8
_0-0_0
  6
CONTINUOUS
 62
    7
 10
171.42895499999997
 20
479.37455750000004
 11
171.42895499999997
 21
471.39302050000003
  0
LINE
  8
_0-0_0
  6
CONTINUOUS
 62
    7
 10
171.42895499999997
 20
471.39302050000003
 11
171.42895499999997
 21
468.87455750000004
  0
LINE
  8
_0-0_0
  6
CONTINUOUS
 62
    7
 10
157.67895499999997
 20
467.0500035
 11
157.92895499999997
 21
467.07456950000005
  0
LINE
  8
_0-0_0
  6
CONTINUOUS
 62
    7
 10
157.92895499999997
 20
467.07456950000005
 11
167.17895499999997
 21
467.07456950000005
  0
LINE
  8
_0-0_0
  6
CONTINUOUS
 62
    7
 10
157.67895499999997
 20
466.84605450000004
 11
157.92895499999997
 21
467.07456950000005
  0
LINE
  8
_0-0_0
  6
CONTINUOUS
 62
    7
 10
157.67895499999997
 20
466.84605450000004
 11
167.42895499999997
 21
466.84605450000004
  0
LINE
  8
_0-0_0
  6
CONTINUOUS
 62
    7
 10
157.67895499999997
 20
467.24055450000003
 11
157.92895499999997
 21
467.29402149999999
  0
LINE
  8
_0-0_0
  6
CONTINUOUS
 62
    7
 10
157.92895499999997
 20
467.29402149999999
 11
167.17895499999997
 21
467.29402149999999
  0
LINE
  8
_0-0_0
  6
CONTINUOUS
 62
    7
 10
157.67895499999997
 20
467.0500035
 11
157.92895499999997
 21
467.29402149999999
  0
LINE
  8
_0-0_0
  6
CONTINUOUS
 62
    7
 10
157.67895499999997
 20
467.41557350000005
 11
157.92895499999997
 21
467.49739050000005
  0
LINE
  8
_0-0_0
  6
CONTINUOUS
 62
    7
 10
157.92895499999997
 20
467.49739050000005
 11
167.17895499999997
 21
467.49739050000005
  0
LINE
  8
_0-0_0
  6
CONTINUOUS
 62
    7
 10
157.67895499999997
 20
467.24055450000003
 11
157.92895499999997
 21
467.49739050000005
  0
LINE
  8
_0-0_0
  6
CONTINUOUS
 62
    7
 10
157.67895499999997
 20
467.57313550000003
 11
157.92895499999997
 21
467.68241850000004
  0
LINE
  8
_0-0_0
  6
CONTINUOUS
 62
    7
 10
157.92895499999997
 20
467.68241850000004
 11
167.17895499999997
 21
467.68241850000004
  0
LINE
  8
_0-0_0
  6
CONTINUOUS
 62
    7
 10
157.67895499999997
 20
467.41557350000005
 11
157.92895499999997
 21
467.68241850000004
  0
LINE
  8
_0-0_0
  6
CONTINUOUS
 62
    7
 10
157.67895499999997
 20
467.71159350000005
 11
157.92895499999997
 21
467.84712249999995
  0
LINE
  8
_0-0_0
  6
CONTINUOUS
 62
    7
 10
157.92895499999997
 20
467.84712249999995
 11
167.17895499999997
 21
467.84712249999995
  0
LINE
  8
_0-0_0
  6
CONTINUOUS
 62
    7
 10
157.67895499999997
 20
467.57313550000003
 11
157.92895499999997
 21
467.84712249999995
  0
LINE
  8
_0-0_0
  6
CONTINUOUS
 62
    7
 10
157.67895499999997
 20
467.82933049999997
 11
157.92895499999997
 21
467.98963950000007
  0
LINE
  8
_0-0_0
  6
CONTINUOUS
 62
    7
 10
157.92895499999997
 20
467.98963950000007
 11
167.17895499999997
 21
467.98963950000007
  0
LINE
  8
_0-0_0
  6
CONTINUOUS
 62
    7
 10
157.67895499999997
 20
467.71159350000005
 11
157.92895499999997
 21
467.98963950000007
  0
LINE
  8
_0-0_0
  6
CONTINUOUS
 62
    7
 10
157.67895499999997
 20
467.92512550000004
 11
157.92895499999997
 21
468.10844450000002
  0
LINE
  8
_0-0_0
  6
CONTINUOUS
 62
    7
 10
157.92895499999997
 20
468.10844450000002
 11
167.17895499999997
 21
468.10844450000002
  0
LINE
  8
_0-0_0
  6
CONTINUOUS
 62
    7
 10
157.67895499999997
 20
467.82933049999997
 11
157.92895499999997
 21
468.10844450000002
  0
LINE
  8
_0-0_0
  6
CONTINUOUS
 62
    7
 10
157.67895499999997
 20
467.99790949999999
 11
157.92895499999997
 21
468.20222450000006
  0
LINE
  8
_0-0_0
  6
CONTINUOUS
 62
    7
 10
157.92895499999997
 20
468.20222450000006
 11
167.17895499999997
 21
468.20222450000006
  0
LINE
  8
_0-0_0
  6
CONTINUOUS
 62
    7
 10
157.67895499999997
 20
467.92512550000004
 11
157.92895499999997
 21
468.20222450000006
  0
LINE
  8
_0-0_0
  6
CONTINUOUS
 62
    7
 10
157.67895499999997
 20
468.04685949999998
 11
157.92895499999997
 21
468.26994350000007
  0
LINE
  8
_0-0_0
  6
CONTINUOUS
 62
    7
 10
157.92895499999997
 20
468.26994350000007
 11
167.17895499999997
 21
468.26994350000007
  0
LINE
  8
_0-0_0
  6
CONTINUOUS
 62
    7
 10
157.67895499999997
 20
467.99790949999999
 11
157.92895499999997
 21
468.26994350000007
  0
LINE
  8
_0-0_0
  6
CONTINUOUS
 62
    7
 10
157.67895499999997
 20
468.07148749999999
 11
157.92895499999997
 21
468.31086749999997
  0
LINE
  8
_0-0_0
  6
CONTINUOUS
 62
    7
 10
157.92895499999997
 20
468.31086749999997
 11
167.17895499999997
 21
468.31086749999997
  0
LINE
  8
_0-0_0
  6
CONTINUOUS
 62
    7
 10
157.67895499999997
 20
468.04685949999998
 11
157.92895499999997
 21
468.31086749999997
  0
LINE
  8
_0-0_0
  6
CONTINUOUS
 62
    7
 10
157.92895499999997
 20
468.32456950000005
 11
167.17895499999997
 21
468.32456950000005
  0
LINE
  8
_0-0_0
  6
CONTINUOUS
 62
    7
 10
157.67895499999997
 20
468.07148749999999
 11
157.92895499999997
 21
468.32456950000005
  0
LINE
  8
_0-0_0
  6
CONTINUOUS
 62
    7
 10
157.67895499999997
 20
463.5776525
 11
157.92895499999997
 21
463.32456950000005
  0
LINE
  8
_0-0_0
  6
CONTINUOUS
 62
    7
 10
157.92895499999997
 20
463.32456950000005
 11
167.17895499999997
 21
463.32456950000005
  0
LINE
  8
_0-0_0
  6
CONTINUOUS
 62
    7
 10
157.67895499999997
 20
463.60227950000001
 11
157.92895499999997
 21
463.33827250000002
  0
LINE
  8
_0-0_0
  6
CONTINUOUS
 62
    7
 10
157.92895499999997
 20
463.33827250000002
 11
167.17895499999997
 21
463.33827250000002
  0
LINE
  8
_0-0_0
  6
CONTINUOUS
 62
    7
 10
157.67895499999997
 20
463.5776525
 11
157.92895499999997
 21
463.33827250000002
  0
LINE
  8
_0-0_0
  6
CONTINUOUS
 62
    7
 10
157.67895499999997
 20
463.6512295
 11
157.92895499999997
 21
463.37919650000003
  0
LINE
  8
_0-0_0
  6
CONTINUOUS
 62
    7
 10
157.92895499999997
 20
463.37919650000003
 11
167.17895499999997
 21
463.37919650000003
  0
LINE
  8
_0-0_0
  6
CONTINUOUS
 62
    7
 10
157.67895499999997
 20
463.60227950000001
 11
157.92895499999997
 21
463.37919650000003
  0
LINE
  8
_0-0_0
  6
CONTINUOUS
 62
    7
 10
157.67895499999997
 20
463.72401450000007
 11
157.92895499999997
 21
463.44691450000005
  0
LINE
  8
_0-0_0
  6
CONTINUOUS
 62
    7
 10
157.92895499999997
 20
463.44691450000005
 11
167.17895499999997
 21
463.44691450000005
  0
LINE
  8
_0-0_0
  6
CONTINUOUS
 62
    7
 10
157.67895499999997
 20
463.6512295
 11
157.92895499999997
 21
463.44691450000005
  0
LINE
  8
_0-0_0
  6
CONTINUOUS
 62
    7
 10
157.67895499999997
 20
463.81980950000002
 11
157.92895499999997
 21
463.54069549999997
  0
LINE
  8
_0-0_0
  6
CONTINUOUS
 62
    7
 10
157.92895499999997
 20
463.54069549999997
 11
167.17895499999997
 21
463.54069549999997
  0
LINE
  8
_0-0_0
  6
CONTINUOUS
 62
    7
 10
157.67895499999997
 20
463.72401450000007
 11
157.92895499999997
 21
463.54069549999997
  0
LINE
  8
_0-0_0
  6
CONTINUOUS
 62
    7
 10
157.92895499999997
 20
463.65950050000004
 11
167.17895499999997
 21
463.65950050000004
  0
LINE
  8
_0-0_0
  6
CONTINUOUS
 62
    7
 10
157.80892899999998
 20
463.73594650000007
 11
157.92895499999997
 21
463.65950050000004
  0
LINE
  8
_0-0_0
  6
CONTINUOUS
 62
    7
 10
157.67895499999997
 20
463.81980950000002
 11
157.80892899999998
 21
463.73594650000007
  0
LINE
  8
_0-0_0
  6
CONTINUOUS
 62
    7
 10
157.67895499999997
 20
463.93754550000006
 11
157.92895499999997
 21
463.65950050000004
  0
LINE
  8
_0-0_0
  6
CONTINUOUS
 62
    7
 10
157.67895499999997
 20
464.07600450000007
 11
157.92895499999997
 21
463.80201750000003
  0
LINE
  8
_0-0_0
  6
CONTINUOUS
 62
    7
 10
157.92895499999997
 20
463.80201750000003
 11
167.17895499999997
 21
463.80201750000003
  0
LINE
  8
_0-0_0
  6
CONTINUOUS
 62
    7
 10
157.67895499999997
 20
463.93754550000006
 11
157.92895499999997
 21
463.80201750000003
  0
LINE
  8
_0-0_0
  6
CONTINUOUS
 62
    7
 10
157.67895499999997
 20
464.23359649999998
 11
157.92895499999997
 21
463.96672050000006
  0
LINE
  8
_0-0_0
  6
CONTINUOUS
 62
    7
 10
157.92895499999997
 20
463.96672050000006
 11
167.17895499999997
 21
463.96672050000006
  0
LINE
  8
_0-0_0
  6
CONTINUOUS
 62
    7
 10
157.67895499999997
 20
464.07600450000007
 11
157.92895499999997
 21
463.96672050000006
  0
LINE
  8
_0-0_0
  6
CONTINUOUS
 62
    7
 10
157.67895499999997
 20
464.40858449999996
 11
157.92895499999997
 21
464.15174850000005
  0
LINE
  8
_0-0_0
  6
CONTINUOUS
 62
    7
 10
157.92895499999997
 20
464.15174850000005
 11
167.17895499999997
 21
464.15174850000005
  0
LINE
  8
_0-0_0
  6
CONTINUOUS
 62
    7
 10
157.67895499999997
 20
464.23359649999998
 11
157.92895499999997
 21
464.15174850000005
  0
LINE
  8
_0-0_0
  6
CONTINUOUS
 62
    7
 10
157.67895499999997
 20
464.59913649999999
 11
157.92895499999997
 21
464.35511750000001
  0
LINE
  8
_0-0_0
  6
CONTINUOUS
 62
    7
 10
157.92895499999997
 20
464.35511750000001
 11
167.17895499999997
 21
464.35511750000001
  0
LINE
  8
_0-0_0
  6
CONTINUOUS
 62
    7
 10
157.67895499999997
 20
464.40858449999996
 11
157.92895499999997
 21
464.35511750000001
  0
LINE
  8
_0-0_0
  6
CONTINUOUS
 62
    7
 10
157.67895499999997
 20
464.80308550000007
 11
157.92895499999997
 21
464.57456950000005
  0
LINE
  8
_0-0_0
  6
CONTINUOUS
 62
    7
 10
157.92895499999997
 20
464.57456950000005
 11
167.17895499999997
 21
464.57456950000005
  0
LINE
  8
_0-0_0
  6
CONTINUOUS
 62
    7
 10
157.67895499999997
 20
464.80308550000007
 11
167.42895499999997
 21
464.80308550000007
  0
LINE
  8
_0-0_0
  6
CONTINUOUS
 62
    7
 10
157.67895499999997
 20
464.59913649999999
 11
157.92895499999997
 21
464.57456950000005
  0
LINE
  8
_0-0_0
  6
CONTINUOUS
 62
    7
 10
157.67895499999997
 20
465.01823450000006
 11
157.92895499999997
 21
464.80772450000006
  0
LINE
  8
_0-0_0
  6
CONTINUOUS
 62
    7
 10
157.92895499999997
 20
464.80772450000006
 11
167.17895499999997
 21
464.80772450000006
  0
LINE
  8
_0-0_0
  6
CONTINUOUS
 62
    7
 10
157.67895499999997
 20
465.01823450000006
 11
167.42895499999997
 21
465.01823450000006
  0
LINE
  8
_0-0_0
  6
CONTINUOUS
 62
    7
 10
157.67895499999997
 20
464.80308550000007
 11
157.92895499999997
 21
464.80772450000006
  0
LINE
  8
_0-0_0
  6
CONTINUOUS
 62
    7
 10
157.67895499999997
 20
465.2422335
 11
157.92895499999997
 21
465.05201750000003
  0
LINE
  8
_0-0_0
  6
CONTINUOUS
 62
    7
 10
157.92895499999997
 20
465.05201750000003
 11
167.17895499999997
 21
465.05201750000003
  0
LINE
  8
_0-0_0
  6
CONTINUOUS
 62
    7
 10
157.67895499999997
 20
465.2422335
 11
167.42895499999997
 21
465.2422335
  0
LINE
  8
_0-0_0
  6
CONTINUOUS
 62
    7
 10
157.67895499999997
 20
465.01823450000006
 11
157.92895499999997
 21
465.05201750000003
  0
LINE
  8
_0-0_0
  6
CONTINUOUS
 62
    7
 10
157.67895499999997
 20
465.47258050000005
 11
157.92895499999997
 21
465.30479449999996
  0
LINE
  8
_0-0_0
  6
CONTINUOUS
 62
    7
 10
157.92895499999997
 20
465.30479449999996
 11
167.17895499999997
 21
465.30479449999996
  0
LINE
  8
_0-0_0
  6
CONTINUOUS
 62
    7
 10
157.67895499999997
 20
465.47258050000005
 11
167.42895499999997
 21
465.47258050000005
  0
LINE
  8
_0-0_0
  6
CONTINUOUS
 62
    7
 10
157.67895499999997
 20
465.2422335
 11
157.92895499999997
 21
465.30479449999996
  0
LINE
  8
_0-0_0
  6
CONTINUOUS
 62
    7
 10
157.67895499999997
 20
465.70680249999998
 11
157.92895499999997
 21
465.56324749999999
  0
LINE
  8
_0-0_0
  6
CONTINUOUS
 62
    7
 10
157.92895499999997
 20
465.56324749999999
 11
167.17895499999997
 21
465.56324749999999
  0
LINE
  8
_0-0_0
  6
CONTINUOUS
 62
    7
 10
157.67895499999997
 20
465.70680249999998
 11
167.42895499999997
 21
465.70680249999998
  0
LINE
  8
_0-0_0
  6
CONTINUOUS
 62
    7
 10
157.67895499999997
 20
465.47258050000005
 11
157.92895499999997
 21
465.56324749999999
  0
LINE
  8
_0-0_0
  6
CONTINUOUS
 62
    7
 10
157.67895499999997
 20
465.94233750000001
 11
157.92895499999997
 21
465.82456950000005
  0
LINE
  8
_0-0_0
  6
CONTINUOUS
 62
    7
 10
157.92895499999997
 20
465.82456950000005
 11
167.17895499999997
 21
465.82456950000005
  0
LINE
  8
_0-0_0
  6
CONTINUOUS
 62
    7
 10
157.67895499999997
 20
465.94233750000001
 11
167.42895499999997
 21
465.94233750000001
  0
LINE
  8
_0-0_0
  6
CONTINUOUS
 62
    7
 10
157.67895499999997
 20
465.70680249999998
 11
157.92895499999997
 21
465.82456950000005
  0
LINE
  8
_0-0_0
  6
CONTINUOUS
 62
    7
 10
157.67895499999997
 20
466.17655950000005
 11
157.92895499999997
 21
466.0858915
  0
LINE
  8
_0-0_0
  6
CONTINUOUS
 62
    7
 10
157.92895499999997
 20
466.0858915
 11
167.17895499999997
 21
466.0858915
  0
LINE
  8
_0-0_0
  6
CONTINUOUS
 62
    7
 10
157.67895499999997
 20
466.17655950000005
 11
167.42895499999997
 21
466.17655950000005
  0
LINE
  8
_0-0_0
  6
CONTINUOUS
 62
    7
 10
157.67895499999997
 20
465.94233750000001
 11
157.92895499999997
 21
466.0858915
  0
LINE
  8
_0-0_0
  6
CONTINUOUS
 62
    7
 10
157.67895499999997
 20
466.40690649999999
 11
157.92895499999997
 21
466.34434550000003
  0
LINE
  8
_0-0_0
  6
CONTINUOUS
 62
    7
 10
157.92895499999997
 20
466.34434550000003
 11
167.17895499999997
 21
466.34434550000003
  0
LINE
  8
_0-0_0
  6
CONTINUOUS
 62
    7
 10
157.67895499999997
 20
466.40690649999999
 11
167.42895499999997
 21
466.40690649999999
  0
LINE
  8
_0-0_0
  6
CONTINUOUS
 62
    7
 10
157.67895499999997
 20
466.17655950000005
 11
157.92895499999997
 21
466.34434550000003
  0
LINE
  8
_0-0_0
  6
CONTINUOUS
 62
    7
 10
157.67895499999997
 20
466.63090550000004
 11
157.92895499999997
 21
466.59712249999995
  0
LINE
  8
_0-0_0
  6
CONTINUOUS
 62
    7
 10
157.92895499999997
 20
466.59712249999995
 11
167.17895499999997
 21
466.59712249999995
  0
LINE
  8
_0-0_0
  6
CONTINUOUS
 62
    7
 10
157.67895499999997
 20
466.63090550000004
 11
167.42895499999997
 21
466.63090550000004
  0
LINE
  8
_0-0_0
  6
CONTINUOUS
 62
    7
 10
157.67895499999997
 20
466.40690649999999
 11
157.92895499999997
 21
466.59712249999995
  0
LINE
  8
_0-0_0
  6
CONTINUOUS
 62
    7
 10
157.67895499999997
 20
466.84605450000004
 11
157.92895499999997
 21
466.84141550000004
  0
LINE
  8
_0-0_0
  6
CONTINUOUS
 62
    7
 10
157.92895499999997
 20
466.84141550000004
 11
167.17895499999997
 21
466.84141550000004
  0
LINE
  8
_0-0_0
  6
CONTINUOUS
 62
    7
 10
157.67895499999997
 20
466.63090550000004
 11
157.92895499999997
 21
466.84141550000004
  0
LINE
  8
_0-0_0
  6
CONTINUOUS
 62
    7
 10
157.42895499999997
 20
484.42457550000006
 11
157.42895499999997
 21
480.66941850000001
  0
LINE
  8
_0-0_0
  6
CONTINUOUS
 62
    7
 10
157.42895499999997
 20
480.66941850000001
 11
157.42895499999997
 21
480.42457550000006
  0
LINE
  8
_0-0_0
  6
CONTINUOUS
 62
    7
 10
157.42895499999997
 20
467.82456950000005
 11
157.42895499999997
 21
464.0694125
  0
LINE
  8
_0-0_0
  6
CONTINUOUS
 62
    7
 10
157.42895499999997
 20
464.0694125
 11
157.42895499999997
 21
463.82456950000005
  0
LINE
  8
_0-0_0
  6
CONTINUOUS
 62
    7
 10
171.02896099999998
 20
479.12455750000004
 11
171.02896099999998
 21
476.62455750000004
  0
LINE
  8
_0-0_0
  6
CONTINUOUS
 62
    7
 10
171.02896099999998
 20
476.62455750000004
 11
171.02896099999998
 21
469.12455750000004
  0
LINE
  8
_0-0_0
  6
CONTINUOUS
 62
    7
 10
170.228973
 20
478.66270450000002
 11
170.228973
 21
476.39363149999997
  0
LINE
  8
_0-0_0
  6
CONTINUOUS
 62
    7
 10
170.228973
 20
476.39363149999997
 11
170.228973
 21
469.58644149999998
  0
LINE
  8
_0-0_0
  6
CONTINUOUS
 62
    7
 10
112.22895799999998
 20
478.12455750000004
 11
112.22895799999998
 21
478.12321450000002
  0
LINE
  8
_0-0_0
  6
CONTINUOUS
 62
    7
 10
112.22895799999998
 20
478.12321450000002
 11
112.22895799999998
 21
470.12455750000004
  0
LINE
  8
_0-0_0
  6
CONTINUOUS
 62
    7
 10
193.42895499999997
 20
484.67457550000006
 11
167.42895499999997
 21
484.67457550000006
  0
LINE
  8
_0-0_0
  6
CONTINUOUS
 62
    7
 10
193.42895499999997
 20
480.17457550000006
 11
167.42895499999997
 21
480.17457550000006
  0
LINE
  8
_0-0_0
  6
CONTINUOUS
 62
    7
 10
172.22894299999996
 20
468.07456950000005
 11
167.42895499999997
 21
468.07456950000005
  0
LINE
  8
_0-0_0
  6
CONTINUOUS
 62
    7
 10
187.67892499999999
 20
463.57456950000005
 11
167.42895499999997
 21
463.57456950000005
  0
LINE
  8
_0-0_0
  6
CONTINUOUS
 62
    7
 10
167.42895499999997
 20
484.67457550000006
 11
167.17895499999997
 21
484.92457550000006
  0
LINE
  8
_0-0_0
  6
CONTINUOUS
 62
    7
 10
167.42895499999997
 20
480.17457550000006
 11
167.17895499999997
 21
479.92457550000006
  0
LINE
  8
_0-0_0
  6
CONTINUOUS
 62
    7
 10
167.42895499999997
 20
468.07456950000005
 11
167.17895499999997
 21
468.32456950000005
  0
LINE
  8
_0-0_0
  6
CONTINUOUS
 62
    7
 10
167.42895499999997
 20
463.57456950000005
 11
167.17895499999997
 21
463.32456950000005
  0
LINE
  8
_0-0_0
  6
CONTINUOUS
 62
    7
 10
171.42895499999997
 20
479.37455750000004
 11
172.22894299999996
 21
480.17457550000006
  0
LINE
  8
_0-0_0
  6
CONTINUOUS
 62
    7
 10
171.42895499999997
 20
468.87455750000004
 11
172.67895499999997
 21
467.62455750000004
  0
LINE
  8
_0-0_0
  6
CONTINUOUS
 62
    7
 10
157.42895499999997
 20
484.42457550000006
 11
157.92880300000002
 21
484.92442349999999
  0
LINE
  8
_0-0_0
  6
CONTINUOUS
 62
    7
 10
157.42895499999997
 20
480.42457550000006
 11
157.92880300000002
 21
479.92472850000001
  0
LINE
  8
_0-0_0
  6
CONTINUOUS
 62
    7
 10
157.42895499999997
 20
467.82456950000005
 11
157.92880300000002
 21
468.32441749999998
  0
LINE
  8
_0-0_0
  6
CONTINUOUS
 62
    7
 10
157.42895499999997
 20
463.82456950000005
 11
157.92880300000002
 21
463.32472250000001
  0
LINE
  8
_0-0_0
  6
CONTINUOUS
 62
    7
 10
171.42895499999997
 20
479.12455750000004
 11
171.02896099999998
 21
479.12455750000004
  0
LINE
  8
_0-0_0
  6
CONTINUOUS
 62
    7
 10
171.42895499999997
 20
469.12455750000004
 11
171.02896099999998
 21
469.12455750000004
  0
LINE
  8
_0-0_0
  6
CONTINUOUS
 62
    7
 10
170.228973
 20
478.66270450000002
 11
171.02896099999998
 21
479.12455750000004
  0
LINE
  8
_0-0_0
  6
CONTINUOUS
 62
    7
 10
170.228973
 20
469.58644149999998
 11
171.02896099999998
 21
469.12455750000004
  0
LINE
  8
_0-0_0
  6
CONTINUOUS
 62
    7
 10
170.228973
 20
478.12455750000004
 11
112.22895799999998
 21
478.12455750000004
  0
LINE
  8
_0-0_0
  6
CONTINUOUS
 62
    7
 10
170.228973
 20
470.12455750000004
 11
112.22895799999998
 21
470.12455750000004
  0
LINE
  8
_0-0_0
  6
CONTINUOUS
 62
    7
 10
177.92895499999997
 20
503.02464350000002
 11
180.38372799999996
 21
503.02464350000002
  0
LINE
  8
_0-0_0
  6
CONTINUOUS
 62
    7
 10
177.92895499999997
 20
489.82463050000001
 11
177.92895499999997
 21
503.02464350000002
  0
LINE
  8
_0-0_0
  6
CONTINUOUS
 62
    7
 10
930.92895499999997
 20
489.82463050000001
 11
930.92895499999997
 21
503.02464350000002
  0
LINE
  8
_0-0_0
  6
CONTINUOUS
 62
    7
 10
928.47418200000004
 20
503.02464350000002
 11
930.92895499999997
 21
503.02464350000002
  0
ARC
  8
_0-0_0
  6
CONTINUOUS
 62
    7
 10
921.92895499999997
 20
507.62464950000003
 40
8
 50
215.099627
 51
324.90037799999999
  0
LINE
  8
_0-0_0
  6
CONTINUOUS
 62
    7
 10
193.47418199999998
 20
503.02464350000002
 11
915.38372800000002
 21
503.02464350000002
  0
ARC
  8
_0-0_0
  6
CONTINUOUS
 62
    7
 10
186.92895499999997
 20
507.62464950000003
 40
8
 50
215.099627
 51
324.90037799999999
  0
LINE
  8
_0-0_0
  6
CONTINUOUS
 62
    7
 10
180.38372799999996
 20
503.02464350000002
 11
180.29473899999999
 21
503.15394649999996
  0
LINE
  8
_0-0_0
  6
CONTINUOUS
 62
    7
 10
193.47418199999998
 20
503.02464350000002
 11
193.56317100000001
 21
503.15394649999996
  0
LINE
  8
_0-0_0
  6
CONTINUOUS
 62
    7
 10
193.65631099999996
 20
503.29536450000001
 11
193.56317100000001
 21
503.15394649999996
  0
LINE
  8
_0-0_0
  6
CONTINUOUS
 62
    7
 10
193.65631099999996
 20
503.29536450000001
 11
193.73779300000001
 21
503.42463650000002
  0
ARC
  8
_0-0_0
  6
CONTINUOUS
 62
    7
 10
186.92895499999997
 20
507.62464950000003
 40
8
 50
328.33175599999993
 51
334.05550899999992
  0
LINE
  8
_0-0_0
  6
CONTINUOUS
 62
    7
 10
194.12271099999998
 20
504.12464950000003
 11
194.18420399999997
 21
504.25392150000005
  0
LINE
  8
_0-0_0
  6
CONTINUOUS
 62
    7
 10
194.24822999999998
 20
504.39534049999997
 11
194.18420399999997
 21
504.25392150000005
  0
LINE
  8
_0-0_0
  6
CONTINUOUS
 62
    7
 10
194.24822999999998
 20
504.39534049999997
 11
194.30392499999999
 21
504.52464350000002
  0
ARC
  8
_0-0_0
  6
CONTINUOUS
 62
    7
 10
186.92895499999997
 20
507.62464950000003
 40
8
 50
337.20097500000003
 51
342.54240199999998
  0
LINE
  8
_0-0_0
  6
CONTINUOUS
 62
    7
 10
194.56048599999997
 20
505.22465550000004
 11
194.59994499999999
 21
505.35392750000005
  0
LINE
  8
_0-0_0
  6
CONTINUOUS
 62
    7
 10
194.64038099999999
 20
505.49534649999998
 11
194.59994499999999
 21
505.35392750000005
  0
LINE
  8
_0-0_0
  6
CONTINUOUS
 62
    7
 10
194.64038099999999
 20
505.49534649999998
 11
194.67492699999997
 21
505.62464950000003
  0
ARC
  8
_0-0_0
  6
CONTINUOUS
 62
    7
 10
186.92895499999997
 20
507.62464950000003
 40
8
 50
345.52249499999999
 51
350.64797900000002
  0
LINE
  8
_0-0_0
  6
CONTINUOUS
 62
    7
 10
194.822632
 20
506.32463050000001
 11
194.84283499999998
 21
506.45393350000006
  0
LINE
  8
_0-0_0
  6
CONTINUOUS
 62
    7
 10
194.86248799999998
 20
506.59535249999999
 11
194.84283499999998
 21
506.45393350000006
  0
LINE
  8
_0-0_0
  6
CONTINUOUS
 62
    7
 10
194.86248799999998
 20
506.59535249999999
 11
194.878174
 21
506.72465550000004
  0
ARC
  8
_0-0_0
  6
CONTINUOUS
 62
    7
 10
186.92895499999997
 20
507.62464950000003
 40
8
 50
353.54056400000002
 51
358.56744600000002
  0
LINE
  8
_0-0_0
  6
CONTINUOUS
 62
    7
 10
194.92645299999998
 20
507.42463650000002
 11
194.92865
 21
507.55393949999996
  0
LINE
  8
_0-0_0
  6
CONTINUOUS
 62
    7
 10
194.92865
 20
507.55393949999996
 11
194.92895499999997
 21
507.62464950000003
  0
LINE
  8
_0-0_0
  6
CONTINUOUS
 62
    7
 10
178.92926
 20
507.55393949999996
 11
178.92895499999997
 21
507.62464950000003
  0
LINE
  8
_0-0_0
  6
CONTINUOUS
 62
    7
 10
178.93145799999996
 20
507.42463650000002
 11
178.92926
 21
507.55393949999996
  0
ARC
  8
_0-0_0
  6
CONTINUOUS
 62
    7
 10
186.92895499999997
 20
507.62464950000003
 40
8
 50
181.432545
 51
186.45945499999999
  0
LINE
  8
_0-0_0
  6
CONTINUOUS
 62
    7
 10
178.995453
 20
506.59535249999999
 11
178.979736
 21
506.72465550000004
  0
LINE
  8
_0-0_0
  6
CONTINUOUS
 62
    7
 10
178.995453
 20
506.59535249999999
 11
179.01507599999997
 21
506.45393350000006
  0
LINE
  8
_0-0_0
  6
CONTINUOUS
 62
    7
 10
179.03527800000001
 20
506.32463050000001
 11
179.01507599999997
 21
506.45393350000006
  0
ARC
  8
_0-0_0
  6
CONTINUOUS
 62
    7
 10
186.92895499999997
 20
507.62464950000003
 40
8
 50
189.35203999999999
 51
194.47751
  0
LINE
  8
_0-0_0
  6
CONTINUOUS
 62
    7
 10
179.21752900000001
 20
505.49534649999998
 11
179.18298299999998
 21
505.62464950000003
  0
LINE
  8
_0-0_0
  6
CONTINUOUS
 62
    7
 10
179.21752900000001
 20
505.49534649999998
 11
179.25799599999999
 21
505.35392750000005
  0
LINE
  8
_0-0_0
  6
CONTINUOUS
 62
    7
 10
179.29745500000001
 20
505.22465550000004
 11
179.25799599999999
 21
505.35392750000005
  0
ARC
  8
_0-0_0
  6
CONTINUOUS
 62
    7
 10
186.92895499999997
 20
507.62464950000003
 40
8
 50
197.45760300000001
 51
202.79902999999999
  0
LINE
  8
_0-0_0
  6
CONTINUOUS
 62
    7
 10
179.60967999999997
 20
504.39534049999997
 11
179.55401599999999
 21
504.52464350000002
  0
LINE
  8
_0-0_0
  6
CONTINUOUS
 62
    7
 10
179.60967999999997
 20
504.39534049999997
 11
179.67373699999996
 21
504.25392150000005
  0
LINE
  8
_0-0_0
  6
CONTINUOUS
 62
    7
 10
179.73523
 20
504.12464950000003
 11
179.67373699999996
 21
504.25392150000005
  0
ARC
  8
_0-0_0
  6
CONTINUOUS
 62
    7
 10
186.92895499999997
 20
507.62464950000003
 40
8
 50
205.94448199999999
 51
211.66823500000001
  0
LINE
  8
_0-0_0
  6
CONTINUOUS
 62
    7
 10
180.20159899999999
 20
503.29536450000001
 11
180.12014799999997
 21
503.42463650000002
  0
LINE
  8
_0-0_0
  6
CONTINUOUS
 62
    7
 10
180.20159899999999
 20
503.29536450000001
 11
180.29473899999999
 21
503.15394649999996
  0
LINE
  8
_0-0_0
  6
CONTINUOUS
 62
    7
 10
915.38372800000002
 20
503.02464350000002
 11
915.29473899999994
 21
503.15394649999996
  0
LINE
  8
_0-0_0
  6
CONTINUOUS
 62
    7
 10
913.92926
 20
507.55393949999996
 11
913.92895499999997
 21
507.62464950000003
  0
LINE
  8
_0-0_0
  6
CONTINUOUS
 62
    7
 10
913.93145800000002
 20
507.42463650000002
 11
913.92926
 21
507.55393949999996
  0
ARC
  8
_0-0_0
  6
CONTINUOUS
 62
    7
 10
921.92895499999997
 20
507.62464950000003
 40
8
 50
181.432545
 51
186.45945499999999
  0
LINE
  8
_0-0_0
  6
CONTINUOUS
 62
    7
 10
913.99542199999996
 20
506.59535249999999
 11
913.979736
 21
506.72465550000004
  0
LINE
  8
_0-0_0
  6
CONTINUOUS
 62
    7
 10
913.99542199999996
 20
506.59535249999999
 11
914.01507600000002
 21
506.45393350000006
  0
LINE
  8
_0-0_0
  6
CONTINUOUS
 62
    7
 10
914.03527799999995
 20
506.32463050000001
 11
914.01507600000002
 21
506.45393350000006
  0
ARC
  8
_0-0_0
  6
CONTINUOUS
 62
    7
 10
921.92895499999997
 20
507.62464950000003
 40
8
 50
189.35203999999999
 51
194.47751
  0
LINE
  8
_0-0_0
  6
CONTINUOUS
 62
    7
 10
914.21752900000001
 20
505.49534649999998
 11
914.18298300000004
 21
505.62464950000003
  0
LINE
  8
_0-0_0
  6
CONTINUOUS
 62
    7
 10
914.21752900000001
 20
505.49534649999998
 11
914.25799599999993
 21
505.35392750000005
  0
LINE
  8
_0-0_0
  6
CONTINUOUS
 62
    7
 10
914.29742399999998
 20
505.22465550000004
 11
914.25799599999993
 21
505.35392750000005
  0
ARC
  8
_0-0_0
  6
CONTINUOUS
 62
    7
 10
921.92895499999997
 20
507.62464950000003
 40
8
 50
197.45760300000001
 51
202.79902999999999
  0
LINE
  8
_0-0_0
  6
CONTINUOUS
 62
    7
 10
914.60968000000003
 20
504.39534049999997
 11
914.55401599999993
 21
504.52464350000002
  0
LINE
  8
_0-0_0
  6
CONTINUOUS
 62
    7
 10
914.60968000000003
 20
504.39534049999997
 11
914.67370600000004
 21
504.25392150000005
  0
LINE
  8
_0-0_0
  6
CONTINUOUS
 62
    7
 10
914.73523
 20
504.12464950000003
 11
914.67370600000004
 21
504.25392150000005
  0
ARC
  8
_0-0_0
  6
CONTINUOUS
 62
    7
 10
921.92895499999997
 20
507.62464950000003
 40
8
 50
205.94448199999999
 51
211.66823500000001
  0
LINE
  8
_0-0_0
  6
CONTINUOUS
 62
    7
 10
915.20159899999999
 20
503.29536450000001
 11
915.12011699999994
 21
503.42463650000002
  0
LINE
  8
_0-0_0
  6
CONTINUOUS
 62
    7
 10
915.20159899999999
 20
503.29536450000001
 11
915.29473899999994
 21
503.15394649999996
  0
LINE
  8
_0-0_0
  6
CONTINUOUS
 62
    7
 10
928.47418200000004
 20
503.02464350000002
 11
928.56317100000001
 21
503.15394649999996
  0
LINE
  8
_0-0_0
  6
CONTINUOUS
 62
    7
 10
928.65631099999996
 20
503.29536450000001
 11
928.56317100000001
 21
503.15394649999996
  0
LINE
  8
_0-0_0
  6
CONTINUOUS
 62
    7
 10
928.65631099999996
 20
503.29536450000001
 11
928.73779300000001
 21
503.42463650000002
  0
ARC
  8
_0-0_0
  6
CONTINUOUS
 62
    7
 10
921.92895499999997
 20
507.62464950000003
 40
8
 50
328.33175599999993
 51
334.05550899999992
  0
LINE
  8
_0-0_0
  6
CONTINUOUS
 62
    7
 10
929.12268099999994
 20
504.12464950000003
 11
929.18420400000002
 21
504.25392150000005
  0
LINE
  8
_0-0_0
  6
CONTINUOUS
 62
    7
 10
929.24823000000004
 20
504.39534049999997
 11
929.18420400000002
 21
504.25392150000005
  0
LINE
  8
_0-0_0
  6
CONTINUOUS
 62
    7
 10
929.24823000000004
 20
504.39534049999997
 11
929.30389400000001
 21
504.52464350000002
  0
ARC
  8
_0-0_0
  6
CONTINUOUS
 62
    7
 10
921.92895499999997
 20
507.62464950000003
 40
8
 50
337.20097500000003
 51
342.54240199999998
  0
LINE
  8
_0-0_0
  6
CONTINUOUS
 62
    7
 10
929.56048599999997
 20
505.22465550000004
 11
929.59991500000001
 21
505.35392750000005
  0
LINE
  8
_0-0_0
  6
CONTINUOUS
 62
    7
 10
929.64038099999993
 20
505.49534649999998
 11
929.59991500000001
 21
505.35392750000005
  0
LINE
  8
_0-0_0
  6
CONTINUOUS
 62
    7
 10
929.64038099999993
 20
505.49534649999998
 11
929.67492700000003
 21
505.62464950000003
  0
ARC
  8
_0-0_0
  6
CONTINUOUS
 62
    7
 10
921.92895499999997
 20
507.62464950000003
 40
8
 50
345.52249499999999
 51
350.64797900000002
  0
LINE
  8
_0-0_0
  6
CONTINUOUS
 62
    7
 10
929.822632
 20
506.32463050000001
 11
929.84283500000004
 21
506.45393350000006
  0
LINE
  8
_0-0_0
  6
CONTINUOUS
 62
    7
 10
929.86248799999998
 20
506.59535249999999
 11
929.84283500000004
 21
506.45393350000006
  0
LINE
  8
_0-0_0
  6
CONTINUOUS
 62
    7
 10
929.86248799999998
 20
506.59535249999999
 11
929.87817399999994
 21
506.72465550000004
  0
ARC
  8
_0-0_0
  6
CONTINUOUS
 62
    7
 10
921.92895499999997
 20
507.62464950000003
 40
8
 50
353.54056400000002
 51
358.56744600000002
  0
LINE
  8
_0-0_0
  6
CONTINUOUS
 62
    7
 10
929.92645300000004
 20
507.42463650000002
 11
929.92864999999995
 21
507.55393949999996
  0
LINE
  8
_0-0_0
  6
CONTINUOUS
 62
    7
 10
929.92864999999995
 20
507.55393949999996
 11
929.92895499999997
 21
507.62464950000003
  0
LINE
  8
_0-0_0
  6
CONTINUOUS
 62
    7
 10
930.92895499999997
 20
503.15394649999996
 11
930.92895499999997
 21
503.02464350000002
  0
LINE
  8
_0-0_0
  6
CONTINUOUS
 62
    7
 10
930.92895499999997
 20
511.95393350000006
 11
930.92895499999997
 21
512.09535249999999
  0
LINE
  8
_0-0_0
  6
CONTINUOUS
 62
    7
 10
930.92895499999997
 20
511.95393350000006
 11
930.92895499999997
 21
511.82463050000001
  0
LINE
  8
_0-0_0
  6
CONTINUOUS
 62
    7
 10
930.92895499999997
 20
511.12464950000003
 11
930.92895499999997
 21
511.82463050000001
  0
LINE
  8
_0-0_0
  6
CONTINUOUS
 62
    7
 10
930.92895499999997
 20
510.99534649999998
 11
930.92895499999997
 21
511.12464950000003
  0
LINE
  8
_0-0_0
  6
CONTINUOUS
 62
    7
 10
930.92895499999997
 20
510.85392750000005
 11
930.92895499999997
 21
510.99534649999998
  0
LINE
  8
_0-0_0
  6
CONTINUOUS
 62
    7
 10
930.92895499999997
 20
510.85392750000005
 11
930.92895499999997
 21
510.72465550000004
  0
LINE
  8
_0-0_0
  6
CONTINUOUS
 62
    7
 10
930.92895499999997
 20
510.02464350000002
 11
930.92895499999997
 21
510.72465550000004
  0
LINE
  8
_0-0_0
  6
CONTINUOUS
 62
    7
 10
930.92895499999997
 20
509.89534049999997
 11
930.92895499999997
 21
510.02464350000002
  0
LINE
  8
_0-0_0
  6
CONTINUOUS
 62
    7
 10
930.92895499999997
 20
509.75392150000005
 11
930.92895499999997
 21
509.89534049999997
  0
LINE
  8
_0-0_0
  6
CONTINUOUS
 62
    7
 10
930.92895499999997
 20
509.75392150000005
 11
930.92895499999997
 21
509.62464950000003
  0
LINE
  8
_0-0_0
  6
CONTINUOUS
 62
    7
 10
930.92895499999997
 20
508.92463650000002
 11
930.92895499999997
 21
509.62464950000003
  0
LINE
  8
_0-0_0
  6
CONTINUOUS
 62
    7
 10
930.92895499999997
 20
508.79536450000001
 11
930.92895499999997
 21
508.92463650000002
  0
LINE
  8
_0-0_0
  6
CONTINUOUS
 62
    7
 10
930.92895499999997
 20
508.65394649999996
 11
930.92895499999997
 21
508.79536450000001
  0
LINE
  8
_0-0_0
  6
CONTINUOUS
 62
    7
 10
930.92895499999997
 20
508.65394649999996
 11
930.92895499999997
 21
508.52464350000002
  0
LINE
  8
_0-0_0
  6
CONTINUOUS
 62
    7
 10
930.92895499999997
 20
507.82463050000001
 11
930.92895499999997
 21
508.52464350000002
  0
LINE
  8
_0-0_0
  6
CONTINUOUS
 62
    7
 10
930.92895499999997
 20
507.6953585
 11
930.92895499999997
 21
507.82463050000001
  0
LINE
  8
_0-0_0
  6
CONTINUOUS
 62
    7
 10
930.92895499999997
 20
507.55393949999996
 11
930.92895499999997
 21
507.6953585
  0
LINE
  8
_0-0_0
  6
CONTINUOUS
 62
    7
 10
930.92895499999997
 20
507.55393949999996
 11
930.92895499999997
 21
507.42463650000002
  0
LINE
  8
_0-0_0
  6
CONTINUOUS
 62
    7
 10
930.92895499999997
 20
506.72465550000004
 11
930.92895499999997
 21
507.42463650000002
  0
LINE
  8
_0-0_0
  6
CONTINUOUS
 62
    7
 10
930.92895499999997
 20
506.59535249999999
 11
930.92895499999997
 21
506.72465550000004
  0
LINE
  8
_0-0_0
  6
CONTINUOUS
 62
    7
 10
930.92895499999997
 20
506.45393350000006
 11
930.92895499999997
 21
506.59535249999999
  0
LINE
  8
_0-0_0
  6
CONTINUOUS
 62
    7
 10
930.92895499999997
 20
506.45393350000006
 11
930.92895499999997
 21
506.32463050000001
  0
LINE
  8
_0-0_0
  6
CONTINUOUS
 62
    7
 10
930.92895499999997
 20
505.62464950000003
 11
930.92895499999997
 21
506.32463050000001
  0
LINE
  8
_0-0_0
  6
CONTINUOUS
 62
    7
 10
930.92895499999997
 20
505.49534649999998
 11
930.92895499999997
 21
505.62464950000003
  0
LINE
  8
_0-0_0
  6
CONTINUOUS
 62
    7
 10
930.92895499999997
 20
505.35392750000005
 11
930.92895499999997
 21
505.49534649999998
  0
LINE
  8
_0-0_0
  6
CONTINUOUS
 62
    7
 10
930.92895499999997
 20
505.35392750000005
 11
930.92895499999997
 21
505.22465550000004
  0
LINE
  8
_0-0_0
  6
CONTINUOUS
 62
    7
 10
930.92895499999997
 20
504.52464350000002
 11
930.92895499999997
 21
505.22465550000004
  0
LINE
  8
_0-0_0
  6
CONTINUOUS
 62
    7
 10
930.92895499999997
 20
504.39534049999997
 11
930.92895499999997
 21
504.52464350000002
  0
LINE
  8
_0-0_0
  6
CONTINUOUS
 62
    7
 10
930.92895499999997
 20
504.25392150000005
 11
930.92895499999997
 21
504.39534049999997
  0
LINE
  8
_0-0_0
  6
CONTINUOUS
 62
    7
 10
930.92895499999997
 20
504.25392150000005
 11
930.92895499999997
 21
504.12464950000003
  0
LINE
  8
_0-0_0
  6
CONTINUOUS
 62
    7
 10
930.92895499999997
 20
503.42463650000002
 11
930.92895499999997
 21
504.12464950000003
  0
LINE
  8
_0-0_0
  6
CONTINUOUS
 62
    7
 10
930.92895499999997
 20
503.29536450000001
 11
930.92895499999997
 21
503.42463650000002
  0
LINE
  8
_0-0_0
  6
CONTINUOUS
 62
    7
 10
930.92895499999997
 20
503.15394649999996
 11
930.92895499999997
 21
503.29536450000001
  0
LINE
  8
_0-0_0
  6
CONTINUOUS
 62
    7
 10
930.92895499999997
 20
489.32463050000001
 11
930.92895499999997
 21
489.82463050000001
  0
LINE
  8
_0-0_0
  6
CONTINUOUS
 62
    7
 10
930.92895499999997
 20
517.82463050000001
 11
930.92895499999997
 21
517.23066749999998
  0
LINE
  8
_0-0_0
  6
CONTINUOUS
 62
    7
 10
930.92895499999997
 20
512.22465550000004
 11
930.92895499999997
 21
517.23066749999998
  0
LINE
  8
_0-0_0
  6
CONTINUOUS
 62
    7
 10
930.92895499999997
 20
512.09535249999999
 11
930.92895499999997
 21
512.22465550000004
  0
LINE
  8
_0-0_0
  6
CONTINUOUS
 62
    7
 10
177.92895499999997
 20
489.32463050000001
 11
177.92895499999997
 21
489.82463050000001
  0
LINE
  8
_0-0_0
  6
CONTINUOUS
 62
    7
 10
177.92895499999997
 20
489.32463050000001
 11
930.92895499999997
 21
489.32463050000001
  0
LINE
  8
_0-0_0
  6
CONTINUOUS
 62
    7
 10
177.92895499999997
 20
503.15394649999996
 11
177.92895499999997
 21
503.29536450000001
  0
LINE
  8
_0-0_0
  6
CONTINUOUS
 62
    7
 10
177.92895499999997
 20
503.15394649999996
 11
177.92895499999997
 21
503.02464350000002
  0
LINE
  8
_0-0_0
  6
CONTINUOUS
 62
    7
 10
177.92895499999997
 20
517.82463050000001
 11
177.92895499999997
 21
517.23066749999998
  0
LINE
  8
_0-0_0
  6
CONTINUOUS
 62
    7
 10
177.92895499999997
 20
512.22465550000004
 11
177.92895499999997
 21
517.23066749999998
  0
LINE
  8
_0-0_0
  6
CONTINUOUS
 62
    7
 10
177.92895499999997
 20
512.09535249999999
 11
177.92895499999997
 21
512.22465550000004
  0
LINE
  8
_0-0_0
  6
CONTINUOUS
 62
    7
 10
177.92895499999997
 20
511.95393350000006
 11
177.92895499999997
 21
512.09535249999999
  0
LINE
  8
_0-0_0
  6
CONTINUOUS
 62
    7
 10
177.92895499999997
 20
511.95393350000006
 11
177.92895499999997
 21
511.82463050000001
  0
LINE
  8
_0-0_0
  6
CONTINUOUS
 62
    7
 10
177.92895499999997
 20
511.12464950000003
 11
177.92895499999997
 21
511.82463050000001
  0
LINE
  8
_0-0_0
  6
CONTINUOUS
 62
    7
 10
177.92895499999997
 20
510.99534649999998
 11
177.92895499999997
 21
511.12464950000003
  0
LINE
  8
_0-0_0
  6
CONTINUOUS
 62
    7
 10
177.92895499999997
 20
510.85392750000005
 11
177.92895499999997
 21
510.99534649999998
  0
LINE
  8
_0-0_0
  6
CONTINUOUS
 62
    7
 10
177.92895499999997
 20
510.85392750000005
 11
177.92895499999997
 21
510.72465550000004
  0
LINE
  8
_0-0_0
  6
CONTINUOUS
 62
    7
 10
177.92895499999997
 20
510.02464350000002
 11
177.92895499999997
 21
510.72465550000004
  0
LINE
  8
_0-0_0
  6
CONTINUOUS
 62
    7
 10
177.92895499999997
 20
509.89534049999997
 11
177.92895499999997
 21
510.02464350000002
  0
LINE
  8
_0-0_0
  6
CONTINUOUS
 62
    7
 10
177.92895499999997
 20
509.75392150000005
 11
177.92895499999997
 21
509.89534049999997
  0
LINE
  8
_0-0_0
  6
CONTINUOUS
 62
    7
 10
177.92895499999997
 20
509.75392150000005
 11
177.92895499999997
 21
509.62464950000003
  0
LINE
  8
_0-0_0
  6
CONTINUOUS
 62
    7
 10
177.92895499999997
 20
508.92463650000002
 11
177.92895499999997
 21
509.62464950000003
  0
LINE
  8
_0-0_0
  6
CONTINUOUS
 62
    7
 10
177.92895499999997
 20
508.79536450000001
 11
177.92895499999997
 21
508.92463650000002
  0
LINE
  8
_0-0_0
  6
CONTINUOUS
 62
    7
 10
177.92895499999997
 20
508.65394649999996
 11
177.92895499999997
 21
508.79536450000001
  0
LINE
  8
_0-0_0
  6
CONTINUOUS
 62
    7
 10
177.92895499999997
 20
508.65394649999996
 11
177.92895499999997
 21
508.52464350000002
  0
LINE
  8
_0-0_0
  6
CONTINUOUS
 62
    7
 10
177.92895499999997
 20
507.82463050000001
 11
177.92895499999997
 21
508.52464350000002
  0
LINE
  8
_0-0_0
  6
CONTINUOUS
 62
    7
 10
177.92895499999997
 20
507.6953585
 11
177.92895499999997
 21
507.82463050000001
  0
LINE
  8
_0-0_0
  6
CONTINUOUS
 62
    7
 10
177.92895499999997
 20
507.55393949999996
 11
177.92895499999997
 21
507.6953585
  0
LINE
  8
_0-0_0
  6
CONTINUOUS
 62
    7
 10
177.92895499999997
 20
507.55393949999996
 11
177.92895499999997
 21
507.42463650000002
  0
LINE
  8
_0-0_0
  6
CONTINUOUS
 62
    7
 10
177.92895499999997
 20
506.72465550000004
 11
177.92895499999997
 21
507.42463650000002
  0
LINE
  8
_0-0_0
  6
CONTINUOUS
 62
    7
 10
177.92895499999997
 20
506.59535249999999
 11
177.92895499999997
 21
506.72465550000004
  0
LINE
  8
_0-0_0
  6
CONTINUOUS
 62
    7
 10
177.92895499999997
 20
506.45393350000006
 11
177.92895499999997
 21
506.59535249999999
  0
LINE
  8
_0-0_0
  6
CONTINUOUS
 62
    7
 10
177.92895499999997
 20
506.45393350000006
 11
177.92895499999997
 21
506.32463050000001
  0
LINE
  8
_0-0_0
  6
CONTINUOUS
 62
    7
 10
177.92895499999997
 20
505.62464950000003
 11
177.92895499999997
 21
506.32463050000001
  0
LINE
  8
_0-0_0
  6
CONTINUOUS
 62
    7
 10
177.92895499999997
 20
505.49534649999998
 11
177.92895499999997
 21
505.62464950000003
  0
LINE
  8
_0-0_0
  6
CONTINUOUS
 62
    7
 10
177.92895499999997
 20
505.35392750000005
 11
177.92895499999997
 21
505.49534649999998
  0
LINE
  8
_0-0_0
  6
CONTINUOUS
 62
    7
 10
177.92895499999997
 20
505.35392750000005
 11
177.92895499999997
 21
505.22465550000004
  0
LINE
  8
_0-0_0
  6
CONTINUOUS
 62
    7
 10
177.92895499999997
 20
504.52464350000002
 11
177.92895499999997
 21
505.22465550000004
  0
LINE
  8
_0-0_0
  6
CONTINUOUS
 62
    7
 10
177.92895499999997
 20
504.39534049999997
 11
177.92895499999997
 21
504.52464350000002
  0
LINE
  8
_0-0_0
  6
CONTINUOUS
 62
    7
 10
177.92895499999997
 20
504.25392150000005
 11
177.92895499999997
 21
504.39534049999997
  0
LINE
  8
_0-0_0
  6
CONTINUOUS
 62
    7
 10
177.92895499999997
 20
504.25392150000005
 11
177.92895499999997
 21
504.12464950000003
  0
LINE
  8
_0-0_0
  6
CONTINUOUS
 62
    7
 10
177.92895499999997
 20
503.42463650000002
 11
177.92895499999997
 21
504.12464950000003
  0
LINE
  8
_0-0_0
  6
CONTINUOUS
 62
    7
 10
177.92895499999997
 20
503.29536450000001
 11
177.92895499999997
 21
503.42463650000002
  0
LINE
  8
_0-0_0
  6
CONTINUOUS
 62
    7
 10
864.92895499999997
 20
495.32466150000005
 11
871.92895499999997
 21
495.32466150000005
  0
ARC
  8
_0-0_0
  6
CONTINUOUS
 62
    7
 10
864.92895499999997
 20
494.82466150000005
 40
0.5
 50
90.000003000000007
 51
180.00000900000001
  0
LINE
  8
_0-0_0
  6
CONTINUOUS
 62
    7
 10
864.42895499999997
 20
494.82466150000005
 11
864.42895499999997
 21
490.82463050000001
  0
ARC
  8
_0-0_0
  6
CONTINUOUS
 62
    7
 10
864.92895499999997
 20
490.82463050000001
 40
0.5
 50
180.00000900000003
 51
269.99999700000001
  0
LINE
  8
_0-0_0
  6
CONTINUOUS
 62
    7
 10
871.92895499999997
 20
490.32463050000001
 11
864.92895499999997
 21
490.32463050000001
  0
ARC
  8
_0-0_0
  6
CONTINUOUS
 62
    7
 10
871.92895499999997
 20
490.82463050000001
 40
0.5
 50
269.99999700000001
 51
0
  0
LINE
  8
_0-0_0
  6
CONTINUOUS
 62
    7
 10
872.42895499999997
 20
490.82463050000001
 11
872.42895499999997
 21
494.82466150000005
  0
ARC
  8
_0-0_0
  6
CONTINUOUS
 62
    7
 10
871.92895499999997
 20
494.82466150000005
 40
0.5
 50
0
 51
90.000003000000007
  0
ARC
  8
_0-0_0
  6
CONTINUOUS
 62
    7
 10
244.92895499999997
 20
494.82466150000005
 40
0.5
 50
90.000003000000007
 51
180.00000900000001
  0
LINE
  8
_0-0_0
  6
CONTINUOUS
 62
    7
 10
244.42895499999997
 20
494.82466150000005
 11
244.42895499999997
 21
490.82463050000001
  0
ARC
  8
_0-0_0
  6
CONTINUOUS
 62
    7
 10
244.92895499999997
 20
490.82463050000001
 40
0.5
 50
180.00000900000003
 51
269.99999700000001
  0
LINE
  8
_0-0_0
  6
CONTINUOUS
 62
    7
 10
251.92895499999997
 20
490.32463050000001
 11
244.92895499999997
 21
490.32463050000001
  0
ARC
  8
_0-0_0
  6
CONTINUOUS
 62
    7
 10
251.92895499999997
 20
490.82463050000001
 40
0.5
 50
269.99999700000001
 51
0
  0
LINE
  8
_0-0_0
  6
CONTINUOUS
 62
    7
 10
252.42895499999997
 20
490.82463050000001
 11
252.42895499999997
 21
494.82466150000005
  0
ARC
  8
_0-0_0
  6
CONTINUOUS
 62
    7
 10
251.92895499999997
 20
494.82466150000005
 40
0.5
 50
0
 51
90.000003000000007
  0
LINE
  8
_0-0_0
  6
CONTINUOUS
 62
    7
 10
244.92895499999997
 20
495.32466150000005
 11
251.92895499999997
 21
495.32466150000005
  0
LINE
  8
_0-0_0
  6
CONTINUOUS
 62
    7
 10
177.92895499999997
 20
503.42463650000002
 11
180.12014799999997
 21
503.42463650000002
  0
LINE
  8
_0-0_0
  6
CONTINUOUS
 62
    7
 10
177.92895499999997
 20
504.12464950000003
 11
179.73523
 21
504.12464950000003
  0
LINE
  8
_0-0_0
  6
CONTINUOUS
 62
    7
 10
177.92895499999997
 20
504.52464350000002
 11
179.55401599999999
 21
504.52464350000002
  0
LINE
  8
_0-0_0
  6
CONTINUOUS
 62
    7
 10
177.92895499999997
 20
505.22465550000004
 11
179.29745500000001
 21
505.22465550000004
  0
LINE
  8
_0-0_0
  6
CONTINUOUS
 62
    7
 10
177.92895499999997
 20
505.62464950000003
 11
179.18298299999998
 21
505.62464950000003
  0
LINE
  8
_0-0_0
  6
CONTINUOUS
 62
    7
 10
177.92895499999997
 20
506.32463050000001
 11
179.03527800000001
 21
506.32463050000001
  0
LINE
  8
_0-0_0
  6
CONTINUOUS
 62
    7
 10
177.92895499999997
 20
506.72465550000004
 11
178.979736
 21
506.72465550000004
  0
LINE
  8
_0-0_0
  6
CONTINUOUS
 62
    7
 10
177.92895499999997
 20
507.42463650000002
 11
178.93145799999996
 21
507.42463650000002
  0
LINE
  8
_0-0_0
  6
CONTINUOUS
 62
    7
 10
178.92895499999997
 20
507.62464950000003
 11
178.92926
 21
507.6953585
  0
LINE
  8
_0-0_0
  6
CONTINUOUS
 62
    7
 10
194.92895499999997
 20
507.62464950000003
 11
194.92865
 21
507.6953585
  0
LINE
  8
_0-0_0
  6
CONTINUOUS
 62
    7
 10
194.92645299999998
 20
507.82463050000001
 11
194.92865
 21
507.6953585
  0
ARC
  8
_0-0_0
  6
CONTINUOUS
 62
    7
 10
186.92895499999997
 20
507.62464950000003
 40
8
 50
1.432544
 51
6.4594489999999993
  0
LINE
  8
_0-0_0
  6
CONTINUOUS
 62
    7
 10
194.86248799999998
 20
508.65394649999996
 11
194.878174
 21
508.52464350000002
  0
LINE
  8
_0-0_0
  6
CONTINUOUS
 62
    7
 10
194.86248799999998
 20
508.65394649999996
 11
194.84283499999998
 21
508.79536450000001
  0
LINE
  8
_0-0_0
  6
CONTINUOUS
 62
    7
 10
194.822632
 20
508.92463650000002
 11
194.84283499999998
 21
508.79536450000001
  0
ARC
  8
_0-0_0
  6
CONTINUOUS
 62
    7
 10
186.92895499999997
 20
507.62464950000003
 40
8
 50
9.3520350000000008
 51
14.477510999999998
  0
LINE
  8
_0-0_0
  6
CONTINUOUS
 62
    7
 10
194.64038099999999
 20
509.75392150000005
 11
194.67492699999997
 21
509.62464950000003
  0
LINE
  8
_0-0_0
  6
CONTINUOUS
 62
    7
 10
194.64038099999999
 20
509.75392150000005
 11
194.59994499999999
 21
509.89534049999997
  0
LINE
  8
_0-0_0
  6
CONTINUOUS
 62
    7
 10
194.56048599999997
 20
510.02464350000002
 11
194.59994499999999
 21
509.89534049999997
  0
ARC
  8
_0-0_0
  6
CONTINUOUS
 62
    7
 10
186.92895499999997
 20
507.62464950000003
 40
8
 50
17.457602999999999
 51
22.799030999999999
  0
LINE
  8
_0-0_0
  6
CONTINUOUS
 62
    7
 10
194.24822999999998
 20
510.85392750000005
 11
194.30392499999999
 21
510.72465550000004
  0
LINE
  8
_0-0_0
  6
CONTINUOUS
 62
    7
 10
194.24822999999998
 20
510.85392750000005
 11
194.18420399999997
 21
510.99534649999998
  0
LINE
  8
_0-0_0
  6
CONTINUOUS
 62
    7
 10
194.12271099999998
 20
511.12464950000003
 11
194.18420399999997
 21
510.99534649999998
  0
ARC
  8
_0-0_0
  6
CONTINUOUS
 62
    7
 10
186.92895499999997
 20
507.62464950000003
 40
8
 50
25.944476999999999
 51
31.668240000000001
  0
LINE
  8
_0-0_0
  6
CONTINUOUS
 62
    7
 10
193.65631099999996
 20
511.95393350000006
 11
193.73779300000001
 21
511.82463050000001
  0
LINE
  8
_0-0_0
  6
CONTINUOUS
 62
    7
 10
193.65631099999996
 20
511.95393350000006
 11
193.56317100000001
 21
512.09535249999999
  0
LINE
  8
_0-0_0
  6
CONTINUOUS
 62
    7
 10
193.47418199999998
 20
512.22465550000004
 11
193.56317100000001
 21
512.09535249999999
  0
ARC
  8
_0-0_0
  6
CONTINUOUS
 62
    7
 10
186.92895499999997
 20
507.62464950000003
 40
8
 50
35.099632
 51
144.900373
  0
LINE
  8
_0-0_0
  6
CONTINUOUS
 62
    7
 10
180.38372799999996
 20
512.22465550000004
 11
180.29473899999999
 21
512.09535249999999
  0
LINE
  8
_0-0_0
  6
CONTINUOUS
 62
    7
 10
180.20159899999999
 20
511.95393350000006
 11
180.29473899999999
 21
512.09535249999999
  0
LINE
  8
_0-0_0
  6
CONTINUOUS
 62
    7
 10
180.20159899999999
 20
511.95393350000006
 11
180.12014799999997
 21
511.82463050000001
  0
ARC
  8
_0-0_0
  6
CONTINUOUS
 62
    7
 10
186.92895499999997
 20
507.62464950000003
 40
8
 50
148.33176499999999
 51
154.05551800000001
  0
LINE
  8
_0-0_0
  6
CONTINUOUS
 62
    7
 10
179.73523
 20
511.12464950000003
 11
179.67373699999996
 21
510.99534649999998
  0
LINE
  8
_0-0_0
  6
CONTINUOUS
 62
    7
 10
179.60967999999997
 20
510.85392750000005
 11
179.67373699999996
 21
510.99534649999998
  0
LINE
  8
_0-0_0
  6
CONTINUOUS
 62
    7
 10
179.60967999999997
 20
510.85392750000005
 11
179.55401599999999
 21
510.72465550000004
  0
ARC
  8
_0-0_0
  6
CONTINUOUS
 62
    7
 10
186.92895499999997
 20
507.62464950000003
 40
8
 50
157.20097000000001
 51
162.54239699999999
  0
LINE
  8
_0-0_0
  6
CONTINUOUS
 62
    7
 10
179.29745500000001
 20
510.02464350000002
 11
179.25799599999999
 21
509.89534049999997
  0
LINE
  8
_0-0_0
  6
CONTINUOUS
 62
    7
 10
179.21752900000001
 20
509.75392150000005
 11
179.25799599999999
 21
509.89534049999997
  0
LINE
  8
_0-0_0
  6
CONTINUOUS
 62
    7
 10
179.21752900000001
 20
509.75392150000005
 11
179.18298299999998
 21
509.62464950000003
  0
ARC
  8
_0-0_0
  6
CONTINUOUS
 62
    7
 10
186.92895499999997
 20
507.62464950000003
 40
8
 50
165.52249
 51
170.64796000000001
  0
LINE
  8
_0-0_0
  6
CONTINUOUS
 62
    7
 10
179.03527800000001
 20
508.92463650000002
 11
179.01507599999997
 21
508.79536450000001
  0
LINE
  8
_0-0_0
  6
CONTINUOUS
 62
    7
 10
178.995453
 20
508.65394649999996
 11
179.01507599999997
 21
508.79536450000001
  0
LINE
  8
_0-0_0
  6
CONTINUOUS
 62
    7
 10
178.995453
 20
508.65394649999996
 11
178.979736
 21
508.52464350000002
  0
ARC
  8
_0-0_0
  6
CONTINUOUS
 62
    7
 10
186.92895499999997
 20
507.62464950000003
 40
8
 50
173.54054500000001
 51
178.567455
  0
LINE
  8
_0-0_0
  6
CONTINUOUS
 62
    7
 10
178.93145799999996
 20
507.82463050000001
 11
178.92926
 21
507.6953585
  0
CIRCLE
  8
_0-0_0
  6
CONTINUOUS
 62
    7
 10
186.92895499999997
 20
507.62464950000003
 40
7.5
  0
LINE
  8
_0-0_0
  6
CONTINUOUS
 62
    7
 10
913.92895499999997
 20
507.62464950000003
 11
913.92926
 21
507.6953585
  0
LINE
  8
_0-0_0
  6
CONTINUOUS
 62
    7
 10
194.92645299999998
 20
507.42463650000002
 11
913.93145800000002
 21
507.42463650000002
  0
LINE
  8
_0-0_0
  6
CONTINUOUS
 62
    7
 10
194.878174
 20
506.72465550000004
 11
913.979736
 21
506.72465550000004
  0
LINE
  8
_0-0_0
  6
CONTINUOUS
 62
    7
 10
194.822632
 20
506.32463050000001
 11
914.03527799999995
 21
506.32463050000001
  0
LINE
  8
_0-0_0
  6
CONTINUOUS
 62
    7
 10
194.67492699999997
 20
505.62464950000003
 11
914.18298300000004
 21
505.62464950000003
  0
LINE
  8
_0-0_0
  6
CONTINUOUS
 62
    7
 10
194.56048599999997
 20
505.22465550000004
 11
914.29742399999998
 21
505.22465550000004
  0
LINE
  8
_0-0_0
  6
CONTINUOUS
 62
    7
 10
194.30392499999999
 20
504.52464350000002
 11
914.55401599999993
 21
504.52464350000002
  0
LINE
  8
_0-0_0
  6
CONTINUOUS
 62
    7
 10
194.12271099999998
 20
504.12464950000003
 11
914.73523
 21
504.12464950000003
  0
LINE
  8
_0-0_0
  6
CONTINUOUS
 62
    7
 10
193.73779300000001
 20
503.42463650000002
 11
915.12011699999994
 21
503.42463650000002
  0
LINE
  8
_0-0_0
  6
CONTINUOUS
 62
    7
 10
929.92895499999997
 20
507.62464950000003
 11
929.92864999999995
 21
507.6953585
  0
LINE
  8
_0-0_0
  6
CONTINUOUS
 62
    7
 10
929.92645300000004
 20
507.42463650000002
 11
930.92895499999997
 21
507.42463650000002
  0
LINE
  8
_0-0_0
  6
CONTINUOUS
 62
    7
 10
929.87817399999994
 20
506.72465550000004
 11
930.92895499999997
 21
506.72465550000004
  0
LINE
  8
_0-0_0
  6
CONTINUOUS
 62
    7
 10
929.822632
 20
506.32463050000001
 11
930.92895499999997
 21
506.32463050000001
  0
LINE
  8
_0-0_0
  6
CONTINUOUS
 62
    7
 10
929.67492700000003
 20
505.62464950000003
 11
930.92895499999997
 21
505.62464950000003
  0
LINE
  8
_0-0_0
  6
CONTINUOUS
 62
    7
 10
929.56048599999997
 20
505.22465550000004
 11
930.92895499999997
 21
505.22465550000004
  0
LINE
  8
_0-0_0
  6
CONTINUOUS
 62
    7
 10
929.30389400000001
 20
504.52464350000002
 11
930.92895499999997
 21
504.52464350000002
  0
LINE
  8
_0-0_0
  6
CONTINUOUS
 62
    7
 10
929.12268099999994
 20
504.12464950000003
 11
930.92895499999997
 21
504.12464950000003
  0
LINE
  8
_0-0_0
  6
CONTINUOUS
 62
    7
 10
928.73779300000001
 20
503.42463650000002
 11
930.92895499999997
 21
503.42463650000002
  0
LINE
  8
_0-0_0
  6
CONTINUOUS
 62
    7
 10
928.47418200000004
 20
512.22465550000004
 11
928.56317100000001
 21
512.09535249999999
  0
ARC
  8
_0-0_0
  6
CONTINUOUS
 62
    7
 10
921.92895499999997
 20
507.62464950000003
 40
8
 50
35.099632
 51
144.900373
  0
LINE
  8
_0-0_0
  6
CONTINUOUS
 62
    7
 10
915.38372800000002
 20
512.22465550000004
 11
915.29473899999994
 21
512.09535249999999
  0
LINE
  8
_0-0_0
  6
CONTINUOUS
 62
    7
 10
915.20159899999999
 20
511.95393350000006
 11
915.29473899999994
 21
512.09535249999999
  0
LINE
  8
_0-0_0
  6
CONTINUOUS
 62
    7
 10
915.20159899999999
 20
511.95393350000006
 11
915.12011699999994
 21
511.82463050000001
  0
ARC
  8
_0-0_0
  6
CONTINUOUS
 62
    7
 10
921.92895499999997
 20
507.62464950000003
 40
8
 50
148.33176499999999
 51
154.05551800000001
  0
LINE
  8
_0-0_0
  6
CONTINUOUS
 62
    7
 10
914.73523
 20
511.12464950000003
 11
914.67370600000004
 21
510.99534649999998
  0
LINE
  8
_0-0_0
  6
CONTINUOUS
 62
    7
 10
914.60968000000003
 20
510.85392750000005
 11
914.67370600000004
 21
510.99534649999998
  0
LINE
  8
_0-0_0
  6
CONTINUOUS
 62
    7
 10
914.60968000000003
 20
510.85392750000005
 11
914.55401599999993
 21
510.72465550000004
  0
ARC
  8
_0-0_0
  6
CONTINUOUS
 62
    7
 10
921.92895499999997
 20
507.62464950000003
 40
8
 50
157.20097000000001
 51
162.54239699999999
  0
LINE
  8
_0-0_0
  6
CONTINUOUS
 62
    7
 10
914.29742399999998
 20
510.02464350000002
 11
914.25799599999993
 21
509.89534049999997
  0
LINE
  8
_0-0_0
  6
CONTINUOUS
 62
    7
 10
914.21752900000001
 20
509.75392150000005
 11
914.25799599999993
 21
509.89534049999997
  0
LINE
  8
_0-0_0
  6
CONTINUOUS
 62
    7
 10
914.21752900000001
 20
509.75392150000005
 11
914.18298300000004
 21
509.62464950000003
  0
ARC
  8
_0-0_0
  6
CONTINUOUS
 62
    7
 10
921.92895499999997
 20
507.62464950000003
 40
8
 50
165.52249
 51
170.64796000000001
  0
LINE
  8
_0-0_0
  6
CONTINUOUS
 62
    7
 10
914.03527799999995
 20
508.92463650000002
 11
914.01507600000002
 21
508.79536450000001
  0
LINE
  8
_0-0_0
  6
CONTINUOUS
 62
    7
 10
913.99542199999996
 20
508.65394649999996
 11
914.01507600000002
 21
508.79536450000001
  0
LINE
  8
_0-0_0
  6
CONTINUOUS
 62
    7
 10
913.99542199999996
 20
508.65394649999996
 11
913.979736
 21
508.52464350000002
  0
ARC
  8
_0-0_0
  6
CONTINUOUS
 62
    7
 10
921.92895499999997
 20
507.62464950000003
 40
8
 50
173.54054500000001
 51
178.567455
  0
LINE
  8
_0-0_0
  6
CONTINUOUS
 62
    7
 10
913.93145800000002
 20
507.82463050000001
 11
913.92926
 21
507.6953585
  0
LINE
  8
_0-0_0
  6
CONTINUOUS
 62
    7
 10
929.92645300000004
 20
507.82463050000001
 11
929.92864999999995
 21
507.6953585
  0
ARC
  8
_0-0_0
  6
CONTINUOUS
 62
    7
 10
921.92895499999997
 20
507.62464950000003
 40
8
 50
1.432544
 51
6.4594489999999993
  0
LINE
  8
_0-0_0
  6
CONTINUOUS
 62
    7
 10
929.86248799999998
 20
508.65394649999996
 11
929.87817399999994
 21
508.52464350000002
  0
LINE
  8
_0-0_0
  6
CONTINUOUS
 62
    7
 10
929.86248799999998
 20
508.65394649999996
 11
929.84283500000004
 21
508.79536450000001
  0
LINE
  8
_0-0_0
  6
CONTINUOUS
 62
    7
 10
929.822632
 20
508.92463650000002
 11
929.84283500000004
 21
508.79536450000001
  0
ARC
  8
_0-0_0
  6
CONTINUOUS
 62
    7
 10
921.92895499999997
 20
507.62464950000003
 40
8
 50
9.3520350000000008
 51
14.477510999999998
  0
LINE
  8
_0-0_0
  6
CONTINUOUS
 62
    7
 10
929.64038099999993
 20
509.75392150000005
 11
929.67492700000003
 21
509.62464950000003
  0
LINE
  8
_0-0_0
  6
CONTINUOUS
 62
    7
 10
929.64038099999993
 20
509.75392150000005
 11
929.59991500000001
 21
509.89534049999997
  0
LINE
  8
_0-0_0
  6
CONTINUOUS
 62
    7
 10
929.56048599999997
 20
510.02464350000002
 11
929.59991500000001
 21
509.89534049999997
  0
ARC
  8
_0-0_0
  6
CONTINUOUS
 62
    7
 10
921.92895499999997
 20
507.62464950000003
 40
8
 50
17.457602999999999
 51
22.799030999999999
  0
LINE
  8
_0-0_0
  6
CONTINUOUS
 62
    7
 10
929.24823000000004
 20
510.85392750000005
 11
929.30389400000001
 21
510.72465550000004
  0
LINE
  8
_0-0_0
  6
CONTINUOUS
 62
    7
 10
929.24823000000004
 20
510.85392750000005
 11
929.18420400000002
 21
510.99534649999998
  0
LINE
  8
_0-0_0
  6
CONTINUOUS
 62
    7
 10
929.12268099999994
 20
511.12464950000003
 11
929.18420400000002
 21
510.99534649999998
  0
ARC
  8
_0-0_0
  6
CONTINUOUS
 62
    7
 10
921.92895499999997
 20
507.62464950000003
 40
8
 50
25.944476999999999
 51
31.668240000000001
  0
LINE
  8
_0-0_0
  6
CONTINUOUS
 62
    7
 10
928.65631099999996
 20
511.95393350000006
 11
928.73779300000001
 21
511.82463050000001
  0
LINE
  8
_0-0_0
  6
CONTINUOUS
 62
    7
 10
928.65631099999996
 20
511.95393350000006
 11
928.56317100000001
 21
512.09535249999999
  0
CIRCLE
  8
_0-0_0
  6
CONTINUOUS
 62
    7
 10
921.92895499999997
 20
507.62464950000003
 40
7.5
  0
LINE
  8
_0-0_0
  6
CONTINUOUS
 62
    7
 10
928.73779300000001
 20
511.82463050000001
 11
930.92895499999997
 21
511.82463050000001
  0
LINE
  8
_0-0_0
  6
CONTINUOUS
 62
    7
 10
929.12268099999994
 20
511.12464950000003
 11
930.92895499999997
 21
511.12464950000003
  0
LINE
  8
_0-0_0
  6
CONTINUOUS
 62
    7
 10
929.30389400000001
 20
510.72465550000004
 11
930.92895499999997
 21
510.72465550000004
  0
LINE
  8
_0-0_0
  6
CONTINUOUS
 62
    7
 10
929.56048599999997
 20
510.02464350000002
 11
930.92895499999997
 21
510.02464350000002
  0
LINE
  8
_0-0_0
  6
CONTINUOUS
 62
    7
 10
929.67492700000003
 20
509.62464950000003
 11
930.92895499999997
 21
509.62464950000003
  0
LINE
  8
_0-0_0
  6
CONTINUOUS
 62
    7
 10
929.822632
 20
508.92463650000002
 11
930.92895499999997
 21
508.92463650000002
  0
LINE
  8
_0-0_0
  6
CONTINUOUS
 62
    7
 10
929.87817399999994
 20
508.52464350000002
 11
930.92895499999997
 21
508.52464350000002
  0
LINE
  8
_0-0_0
  6
CONTINUOUS
 62
    7
 10
929.92645300000004
 20
507.82463050000001
 11
930.92895499999997
 21
507.82463050000001
  0
LINE
  8
_0-0_0
  6
CONTINUOUS
 62
    7
 10
931.42895499999997
 20
491.12464950000003
 11
930.92895499999997
 21
491.12464950000003
  0
LINE
  8
_0-0_0
  6
CONTINUOUS
 62
    7
 10
931.42895499999997
 20
493.32463050000001
 11
930.92895499999997
 21
493.32463050000001
  0
LINE
  8
_0-0_0
  6
CONTINUOUS
 62
    7
 10
931.42895499999997
 20
495.62464950000003
 11
930.92895499999997
 21
495.62464950000003
  0
LINE
  8
_0-0_0
  6
CONTINUOUS
 62
    7
 10
930.92895499999997
 20
497.92463650000002
 11
931.42895499999997
 21
497.92463650000002
  0
LINE
  8
_0-0_0
  6
CONTINUOUS
 62
    7
 10
931.42895499999997
 20
518.12464950000003
 11
931.42895499999997
 21
518.02464350000002
  0
LINE
  8
_0-0_0
  6
CONTINUOUS
 62
    7
 10
177.42895499999997
 20
518.12464950000003
 11
177.42895499999997
 21
518.02464350000002
  0
LINE
  8
_0-0_0
  6
CONTINUOUS
 62
    7
 10
177.42895499999997
 20
497.92463650000002
 11
177.92895499999997
 21
497.92463650000002
  0
LINE
  8
_0-0_0
  6
CONTINUOUS
 62
    7
 10
177.92895499999997
 20
517.82463050000001
 11
930.92895499999997
 21
517.82463050000001
  0
LINE
  8
_0-0_0
  6
CONTINUOUS
 62
    7
 10
177.92895499999997
 20
517.23066749999998
 11
930.92895499999997
 21
517.23066749999998
  0
LINE
  8
_0-0_0
  6
CONTINUOUS
 62
    7
 10
193.47418199999998
 20
512.22465550000004
 11
915.38372800000002
 21
512.22465550000004
  0
LINE
  8
_0-0_0
  6
CONTINUOUS
 62
    7
 10
928.47418200000004
 20
512.22465550000004
 11
930.92895499999997
 21
512.22465550000004
  0
LINE
  8
_0-0_0
  6
CONTINUOUS
 62
    7
 10
177.92895499999997
 20
512.22465550000004
 11
180.38372799999996
 21
512.22465550000004
  0
LINE
  8
_0-0_0
  6
CONTINUOUS
 62
    7
 10
177.42895499999997
 20
491.12464950000003
 11
177.92895499999997
 21
491.12464950000003
  0
LINE
  8
_0-0_0
  6
CONTINUOUS
 62
    7
 10
177.42895499999997
 20
493.32463050000001
 11
177.92895499999997
 21
493.32463050000001
  0
LINE
  8
_0-0_0
  6
CONTINUOUS
 62
    7
 10
177.42895499999997
 20
495.62464950000003
 11
177.92895499999997
 21
495.62464950000003
  0
LINE
  8
_0-0_0
  6
CONTINUOUS
 62
    7
 10
177.92895499999997
 20
511.82463050000001
 11
180.12014799999997
 21
511.82463050000001
  0
LINE
  8
_0-0_0
  6
CONTINUOUS
 62
    7
 10
177.92895499999997
 20
511.12464950000003
 11
179.73523
 21
511.12464950000003
  0
LINE
  8
_0-0_0
  6
CONTINUOUS
 62
    7
 10
177.92895499999997
 20
510.72465550000004
 11
179.55401599999999
 21
510.72465550000004
  0
LINE
  8
_0-0_0
  6
CONTINUOUS
 62
    7
 10
177.92895499999997
 20
510.02464350000002
 11
179.29745500000001
 21
510.02464350000002
  0
LINE
  8
_0-0_0
  6
CONTINUOUS
 62
    7
 10
177.92895499999997
 20
509.62464950000003
 11
179.18298299999998
 21
509.62464950000003
  0
LINE
  8
_0-0_0
  6
CONTINUOUS
 62
    7
 10
177.92895499999997
 20
508.92463650000002
 11
179.03527800000001
 21
508.92463650000002
  0
LINE
  8
_0-0_0
  6
CONTINUOUS
 62
    7
 10
177.92895499999997
 20
508.52464350000002
 11
178.979736
 21
508.52464350000002
  0
LINE
  8
_0-0_0
  6
CONTINUOUS
 62
    7
 10
177.92895499999997
 20
507.82463050000001
 11
178.93145799999996
 21
507.82463050000001
  0
LINE
  8
_0-0_0
  6
CONTINUOUS
 62
    7
 10
193.73779300000001
 20
511.82463050000001
 11
915.12011699999994
 21
511.82463050000001
  0
LINE
  8
_0-0_0
  6
CONTINUOUS
 62
    7
 10
194.12271099999998
 20
511.12464950000003
 11
914.73523
 21
511.12464950000003
  0
LINE
  8
_0-0_0
  6
CONTINUOUS
 62
    7
 10
194.30392499999999
 20
510.72465550000004
 11
914.55401599999993
 21
510.72465550000004
  0
LINE
  8
_0-0_0
  6
CONTINUOUS
 62
    7
 10
194.56048599999997
 20
510.02464350000002
 11
914.29742399999998
 21
510.02464350000002
  0
LINE
  8
_0-0_0
  6
CONTINUOUS
 62
    7
 10
194.67492699999997
 20
509.62464950000003
 11
914.18298300000004
 21
509.62464950000003
  0
LINE
  8
_0-0_0
  6
CONTINUOUS
 62
    7
 10
194.822632
 20
508.92463650000002
 11
914.03527799999995
 21
508.92463650000002
  0
LINE
  8
_0-0_0
  6
CONTINUOUS
 62
    7
 10
194.878174
 20
508.52464350000002
 11
913.979736
 21
508.52464350000002
  0
LINE
  8
_0-0_0
  6
CONTINUOUS
 62
    7
 10
194.92645299999998
 20
507.82463050000001
 11
913.93145800000002
 21
507.82463050000001
  0
LINE
  8
_0-0_0
  6
CONTINUOUS
 62
    7
 10
931.42895499999997
 20
489.62464950000003
 11
930.92895499999997
 21
489.62464950000003
  0
LINE
  8
_0-0_0
  6
CONTINUOUS
 62
    7
 10
931.42895499999997
 20
517.22465550000004
 11
931.42895499999997
 21
518.02464350000002
  0
LINE
  8
_0-0_0
  6
CONTINUOUS
 62
    7
 10
931.42895499999997
 20
489.42463650000002
 11
931.42895499999997
 21
517.22465550000004
  0
LINE
  8
_0-0_0
  6
CONTINUOUS
 62
    7
 10
177.42895499999997
 20
517.22465550000004
 11
177.42895499999997
 21
518.02464350000002
  0
LINE
  8
_0-0_0
  6
CONTINUOUS
 62
    7
 10
177.42895499999997
 20
489.42463650000002
 11
177.42895499999997
 21
517.22465550000004
  0
ARC
  8
_0-0_0
  6
CONTINUOUS
 62
    7
 10
186.92895499999997
 20
508.32463050000001
 40
12.800000000000001
 50
73.932597000000001
 51
106.06740099999999
  0
ARC
  8
_0-0_0
  6
CONTINUOUS
 62
    7
 10
921.92895499999997
 20
508.32463050000001
 40
12.800000000000001
 50
73.932597000000001
 51
106.06740099999999
  0
LINE
  8
_0-0_0
  6
CONTINUOUS
 62
    7
 10
931.42895499999997
 20
518.12464950000003
 11
931.42895499999997
 21
520.62464950000003
  0
LINE
  8
_0-0_0
  6
CONTINUOUS
 62
    7
 10
177.42895499999997
 20
520.62464950000003
 11
931.42895499999997
 21
520.62464950000003
  0
LINE
  8
_0-0_0
  6
CONTINUOUS
 62
    7
 10
177.42895499999997
 20
518.12464950000003
 11
177.42895499999997
 21
520.62464950000003
  0
LINE
  8
_0-0_0
  6
CONTINUOUS
 62
    7
 10
177.42895499999997
 20
489.62464950000003
 11
177.92895499999997
 21
489.62464950000003
  0
ARC
  8
_0-0_0
  6
CONTINUOUS
 62
    7
 10
869.72894299999996
 20
494.52464350000002
 40
0.2
 50
339.62356199999999
 51
90.000002999999978
  0
LINE
  8
_0-0_0
  6
CONTINUOUS
 62
    7
 10
869.91644299999996
 20
494.45500149999998
 11
868.61645499999997
 21
490.95500149999998
  0
ARC
  8
_0-0_0
  6
CONTINUOUS
 62
    7
 10
868.42895499999997
 20
491.02464350000002
 40
0.2
 50
200.37643
 51
339.62356199999999
  0
LINE
  8
_0-0_0
  6
CONTINUOUS
 62
    7
 10
866.94146699999999
 20
494.45500149999998
 11
868.24145499999997
 21
490.95500149999998
  0
ARC
  8
_0-0_0
  6
CONTINUOUS
 62
    7
 10
867.12896699999999
 20
494.52464350000002
 40
0.2
 50
90.000003000000007
 51
200.37643
  0
LINE
  8
_0-0_0
  6
CONTINUOUS
 62
    7
 10
867.12896699999999
 20
494.72465550000004
 11
869.72894299999996
 21
494.72465550000004
  0
ARC
  8
_0-0_0
  6
CONTINUOUS
 62
    7
 10
249.72894299999996
 20
494.52464350000002
 40
0.2
 50
339.62356199999999
 51
90.000002999999978
  0
LINE
  8
_0-0_0
  6
CONTINUOUS
 62
    7
 10
249.91644299999996
 20
494.45500149999998
 11
248.61645499999997
 21
490.95500149999998
  0
ARC
  8
_0-0_0
  6
CONTINUOUS
 62
    7
 10
248.42895499999997
 20
491.02464350000002
 40
0.2
 50
200.37643
 51
339.62356199999999
  0
LINE
  8
_0-0_0
  6
CONTINUOUS
 62
    7
 10
246.94146699999999
 20
494.45500149999998
 11
248.24145499999997
 21
490.95500149999998
  0
ARC
  8
_0-0_0
  6
CONTINUOUS
 62
    7
 10
247.12896699999999
 20
494.52464350000002
 40
0.2
 50
90.000003000000007
 51
200.37643
  0
LINE
  8
_0-0_0
  6
CONTINUOUS
 62
    7
 10
247.12896699999999
 20
494.72465550000004
 11
249.72894299999996
 21
494.72465550000004
  0
CIRCLE
  8
_0-0_0
  6
CONTINUOUS
 62
    7
 10
186.92895499999997
 20
507.62464950000003
 40
5
  0
CIRCLE
  8
_0-0_0
  6
CONTINUOUS
 62
    7
 10
921.92895499999997
 20
507.62464950000003
 40
5
  0
LINE
  8
_0-0_0
  6
CONTINUOUS
 62
    7
 10
932.42889400000001
 20
517.22465550000004
 11
931.42895499999997
 21
517.22465550000004
  0
LINE
  8
_0-0_0
  6
CONTINUOUS
 62
    7
 10
932.42889400000001
 20
518.26161249999996
 11
931.42895499999997
 21
518.26161249999996
  0
LINE
  8
_0-0_0
  6
CONTINUOUS
 62
    7
 10
932.42889400000001
 20
489.42463650000002
 11
931.42895499999997
 21
489.42463650000002
  0
LINE
  8
_0-0_0
  6
CONTINUOUS
 62
    7
 10
176.42895499999997
 20
517.22465550000004
 11
177.42895499999997
 21
517.22465550000004
  0
LINE
  8
_0-0_0
  6
CONTINUOUS
 62
    7
 10
176.42895499999997
 20
518.22465550000004
 11
177.42895499999997
 21
518.22465550000004
  0
LINE
  8
_0-0_0
  6
CONTINUOUS
 62
    7
 10
176.42895499999997
 20
489.42463650000002
 11
177.42895499999997
 21
489.42463650000002
  0
LINE
  8
_0-0_0
  6
CONTINUOUS
 62
    7
 10
932.42889400000001
 20
520.42463650000002
 11
931.42895499999997
 21
520.42463650000002
  0
LINE
  8
_0-0_0
  6
CONTINUOUS
 62
    7
 10
176.42895499999997
 20
520.42463650000002
 11
177.42895499999997
 21
520.42463650000002
  0
LINE
  8
_0-0_0
  6
CONTINUOUS
 62
    7
 10
933.42889400000001
 20
516.81044050000003
 11
933.42791799999998
 21
516.82893350000006
  0
LINE
  8
_0-0_0
  6
CONTINUOUS
 62
    7
 10
933.42791799999998
 20
516.82893350000006
 11
933.4249880000001
 21
516.84736650000002
  0
LINE
  8
_0-0_0
  6
CONTINUOUS
 62
    7
 10
933.4249880000001
 20
516.84736650000002
 11
933.41973900000005
 21
516.86650050000003
  0
LINE
  8
_0-0_0
  6
CONTINUOUS
 62
    7
 10
933.41973900000005
 20
516.86650050000003
 11
933.41229299999998
 21
516.8855135
  0
LINE
  8
_0-0_0
  6
CONTINUOUS
 62
    7
 10
933.41229299999998
 20
516.8855135
 11
933.39178499999991
 21
516.9222565
  0
LINE
  8
_0-0_0
  6
CONTINUOUS
 62
    7
 10
933.39178499999991
 20
516.9222565
 11
933.36334199999999
 21
516.95793149999997
  0
LINE
  8
_0-0_0
  6
CONTINUOUS
 62
    7
 10
933.36334199999999
 20
516.95793149999997
 11
933.32745399999988
 21
516.99220249999996
  0
LINE
  8
_0-0_0
  6
CONTINUOUS
 62
    7
 10
933.32745399999988
 20
516.99220249999996
 11
933.27886999999998
 21
517.02867149999997
  0
LINE
  8
_0-0_0
  6
CONTINUOUS
 62
    7
 10
933.27886999999998
 20
517.02867149999997
 11
933.22210699999994
 21
517.06269850000001
  0
LINE
  8
_0-0_0
  6
CONTINUOUS
 62
    7
 10
933.22210699999994
 20
517.06269850000001
 11
933.15789800000005
 21
517.09394850000001
  0
LINE
  8
_0-0_0
  6
CONTINUOUS
 62
    7
 10
933.15789800000005
 20
517.09394850000001
 11
933.08734100000004
 21
517.12217750000002
  0
LINE
  8
_0-0_0
  6
CONTINUOUS
 62
    7
 10
933.08734100000004
 20
517.12217750000002
 11
933.03924599999993
 21
517.13853449999999
  0
LINE
  8
_0-0_0
  6
CONTINUOUS
 62
    7
 10
933.03924599999993
 20
517.13853449999999
 11
932.98907500000007
 21
517.15354950000005
  0
LINE
  8
_0-0_0
  6
CONTINUOUS
 62
    7
 10
932.98907500000007
 20
517.15354950000005
 11
932.93231200000002
 21
517.16831950000005
  0
LINE
  8
_0-0_0
  6
CONTINUOUS
 62
    7
 10
932.93231200000002
 20
517.16831950000005
 11
932.87371799999994
 21
517.18141149999997
  0
LINE
  8
_0-0_0
  6
CONTINUOUS
 62
    7
 10
932.87371799999994
 20
517.18141149999997
 11
932.75701900000001
 21
517.20173650000004
  0
LINE
  8
_0-0_0
  6
CONTINUOUS
 62
    7
 10
932.75701900000001
 20
517.20173650000004
 11
932.64959699999997
 21
517.21443150000005
  0
LINE
  8
_0-0_0
  6
CONTINUOUS
 62
    7
 10
932.64959699999997
 20
517.21443150000005
 11
932.53985599999999
 21
517.22209150000003
  0
LINE
  8
_0-0_0
  6
CONTINUOUS
 62
    7
 10
932.53985599999999
 20
517.22209150000003
 11
932.42889400000001
 21
517.22465550000004
  0
LINE
  8
_0-0_0
  6
CONTINUOUS
 62
    7
 10
933.42889400000001
 20
516.81044050000003
 11
933.42889400000001
 21
517.81050149999999
  0
LINE
  8
_0-0_0
  6
CONTINUOUS
 62
    7
 10
933.42889400000001
 20
517.81050149999999
 11
933.42596399999991
 21
517.84205650000001
  0
LINE
  8
_0-0_0
  6
CONTINUOUS
 62
    7
 10
933.42596399999991
 20
517.84205650000001
 11
933.41729700000008
 21
517.87413049999998
  0
LINE
  8
_0-0_0
  6
CONTINUOUS
 62
    7
 10
933.41729700000008
 20
517.87413049999998
 11
933.40277099999992
 21
517.90641749999998
  0
LINE
  8
_0-0_0
  6
CONTINUOUS
 62
    7
 10
933.40277099999992
 20
517.90641749999998
 11
933.38250699999992
 21
517.93858350000005
  0
LINE
  8
_0-0_0
  6
CONTINUOUS
 62
    7
 10
933.38250699999992
 20
517.93858350000005
 11
933.36590599999988
 21
517.95979350000005
  0
LINE
  8
_0-0_0
  6
CONTINUOUS
 62
    7
 10
933.36590599999988
 20
517.95979350000005
 11
933.34698500000002
 21
517.98075849999998
  0
LINE
  8
_0-0_0
  6
CONTINUOUS
 62
    7
 10
933.34698500000002
 20
517.98075849999998
 11
933.30218499999989
 21
518.02153050000004
  0
LINE
  8
_0-0_0
  6
CONTINUOUS
 62
    7
 10
933.30218499999989
 20
518.02153050000004
 11
933.24896200000001
 21
518.06028749999996
  0
LINE
  8
_0-0_0
  6
CONTINUOUS
 62
    7
 10
933.24896200000001
 20
518.06028749999996
 11
933.19903600000009
 21
518.09050049999996
  0
LINE
  8
_0-0_0
  6
CONTINUOUS
 62
    7
 10
933.19903600000009
 20
518.09050049999996
 11
933.14434799999992
 21
518.11869850000005
  0
LINE
  8
_0-0_0
  6
CONTINUOUS
 62
    7
 10
933.14434799999992
 20
518.11869850000005
 11
933.08538800000008
 21
518.14472950000004
  0
LINE
  8
_0-0_0
  6
CONTINUOUS
 62
    7
 10
933.08538800000008
 20
518.14472950000004
 11
933.038635
 21
518.16273550000005
  0
LINE
  8
_0-0_0
  6
CONTINUOUS
 62
    7
 10
933.038635
 20
518.16273550000005
 11
932.98992899999996
 21
518.17933649999998
  0
LINE
  8
_0-0_0
  6
CONTINUOUS
 62
    7
 10
932.98992899999996
 20
518.17933649999998
 11
932.8875119999999
 21
518.20820649999996
  0
LINE
  8
_0-0_0
  6
CONTINUOUS
 62
    7
 10
932.8875119999999
 20
518.20820649999996
 11
932.77984600000002
 21
518.2310635
  0
LINE
  8
_0-0_0
  6
CONTINUOUS
 62
    7
 10
932.77984600000002
 20
518.2310635
 11
932.668274
 21
518.2476355
  0
LINE
  8
_0-0_0
  6
CONTINUOUS
 62
    7
 10
932.668274
 20
518.2476355
 11
932.55413800000008
 21
518.25782749999996
  0
LINE
  8
_0-0_0
  6
CONTINUOUS
 62
    7
 10
932.55413800000008
 20
518.25782749999996
 11
932.42889400000001
 21
518.26161249999996
  0
ARC
  8
_0-0_0
  6
CONTINUOUS
 62
    7
 10
932.42889400000001
 20
490.42463650000002
 40
1
 50
269.99999700000001
 51
0
  0
LINE
  8
_0-0_0
  6
CONTINUOUS
 62
    7
 10
933.42889400000001
 20
490.42463650000002
 11
933.42889400000001
 21
516.81044050000003
  0
LINE
  8
_0-0_0
  6
CONTINUOUS
 62
    7
 10
175.42895499999997
 20
516.81044050000003
 11
175.42996199999999
 21
516.82893350000006
  0
LINE
  8
_0-0_0
  6
CONTINUOUS
 62
    7
 10
175.42996199999999
 20
516.82893350000006
 11
175.432953
 21
516.84736650000002
  0
LINE
  8
_0-0_0
  6
CONTINUOUS
 62
    7
 10
175.432953
 20
516.84736650000002
 11
175.43820199999999
 21
516.86650050000003
  0
LINE
  8
_0-0_0
  6
CONTINUOUS
 62
    7
 10
175.43820199999999
 20
516.86650050000003
 11
175.44555700000001
 21
516.8855135
  0
LINE
  8
_0-0_0
  6
CONTINUOUS
 62
    7
 10
175.44555700000001
 20
516.8855135
 11
175.46612599999997
 21
516.9222565
  0
LINE
  8
_0-0_0
  6
CONTINUOUS
 62
    7
 10
175.46612599999997
 20
516.9222565
 11
175.494507
 21
516.95793149999997
  0
LINE
  8
_0-0_0
  6
CONTINUOUS
 62
    7
 10
175.494507
 20
516.95793149999997
 11
175.530396
 21
516.99220249999996
  0
LINE
  8
_0-0_0
  6
CONTINUOUS
 62
    7
 10
175.530396
 20
516.99220249999996
 11
175.57904099999996
 21
517.02867149999997
  0
LINE
  8
_0-0_0
  6
CONTINUOUS
 62
    7
 10
175.57904099999996
 20
517.02867149999997
 11
175.63580300000001
 21
517.06269850000001
  0
LINE
  8
_0-0_0
  6
CONTINUOUS
 62
    7
 10
175.63580300000001
 20
517.06269850000001
 11
175.699951
 21
517.09394850000001
  0
LINE
  8
_0-0_0
  6
CONTINUOUS
 62
    7
 10
175.699951
 20
517.09394850000001
 11
175.770599
 21
517.12217750000002
  0
LINE
  8
_0-0_0
  6
CONTINUOUS
 62
    7
 10
175.770599
 20
517.12217750000002
 11
175.81866500000001
 21
517.13853449999999
  0
LINE
  8
_0-0_0
  6
CONTINUOUS
 62
    7
 10
175.81866500000001
 20
517.13853449999999
 11
175.86883499999999
 21
517.15354950000005
  0
LINE
  8
_0-0_0
  6
CONTINUOUS
 62
    7
 10
175.86883499999999
 20
517.15354950000005
 11
175.92553699999996
 21
517.16831950000005
  0
LINE
  8
_0-0_0
  6
CONTINUOUS
 62
    7
 10
175.92553699999996
 20
517.16831950000005
 11
175.98413099999999
 21
517.18141149999997
  0
LINE
  8
_0-0_0
  6
CONTINUOUS
 62
    7
 10
175.98413099999999
 20
517.18141149999997
 11
176.10089099999999
 21
517.20173650000004
  0
LINE
  8
_0-0_0
  6
CONTINUOUS
 62
    7
 10
176.10089099999999
 20
517.20173650000004
 11
176.20831299999998
 21
517.21443150000005
  0
LINE
  8
_0-0_0
  6
CONTINUOUS
 62
    7
 10
176.20831299999998
 20
517.21443150000005
 11
176.318085
 21
517.22209150000003
  0
LINE
  8
_0-0_0
  6
CONTINUOUS
 62
    7
 10
176.318085
 20
517.22209150000003
 11
176.42895499999997
 21
517.22465550000004
  0
LINE
  8
_0-0_0
  6
CONTINUOUS
 62
    7
 10
175.42895499999997
 20
517.78010549999999
 11
175.43185399999999
 21
517.81098950000001
  0
LINE
  8
_0-0_0
  6
CONTINUOUS
 62
    7
 10
175.43185399999999
 20
517.81098950000001
 11
175.44055199999997
 21
517.8424225
  0
LINE
  8
_0-0_0
  6
CONTINUOUS
 62
    7
 10
175.44055199999997
 20
517.8424225
 11
175.455017
 21
517.87409950000006
  0
LINE
  8
_0-0_0
  6
CONTINUOUS
 62
    7
 10
175.455017
 20
517.87409950000006
 11
175.47521999999998
 21
517.90571650000004
  0
LINE
  8
_0-0_0
  6
CONTINUOUS
 62
    7
 10
175.47521999999998
 20
517.90571650000004
 11
175.49172999999996
 21
517.92655950000005
  0
LINE
  8
_0-0_0
  6
CONTINUOUS
 62
    7
 10
175.49172999999996
 20
517.92655950000005
 11
175.51061999999996
 21
517.94718950000004
  0
LINE
  8
_0-0_0
  6
CONTINUOUS
 62
    7
 10
175.51061999999996
 20
517.94718950000004
 11
175.55526699999996
 21
517.98735050000005
  0
LINE
  8
_0-0_0
  6
CONTINUOUS
 62
    7
 10
175.55526699999996
 20
517.98735050000005
 11
175.60839799999997
 21
518.02552850000006
  0
LINE
  8
_0-0_0
  6
CONTINUOUS
 62
    7
 10
175.60839799999997
 20
518.02552850000006
 11
175.65829500000001
 21
518.05537449999997
  0
LINE
  8
_0-0_0
  6
CONTINUOUS
 62
    7
 10
175.65829500000001
 20
518.05537449999997
 11
175.71295199999997
 21
518.0832365
  0
LINE
  8
_0-0_0
  6
CONTINUOUS
 62
    7
 10
175.71295199999997
 20
518.0832365
 11
175.77194199999997
 21
518.10896349999996
  0
LINE
  8
_0-0_0
  6
CONTINUOUS
 62
    7
 10
175.77194199999997
 20
518.10896349999996
 11
175.81869499999999
 21
518.12675450000006
  0
LINE
  8
_0-0_0
  6
CONTINUOUS
 62
    7
 10
175.81869499999999
 20
518.12675450000006
 11
175.86740099999997
 21
518.14317349999999
  0
LINE
  8
_0-0_0
  6
CONTINUOUS
 62
    7
 10
175.86740099999997
 20
518.14317349999999
 11
175.96984900000001
 21
518.17176849999998
  0
LINE
  8
_0-0_0
  6
CONTINUOUS
 62
    7
 10
175.96984900000001
 20
518.17176849999998
 11
176.07763699999998
 21
518.19435150000004
  0
LINE
  8
_0-0_0
  6
CONTINUOUS
 62
    7
 10
176.07763699999998
 20
518.19435150000004
 11
176.18933099999998
 21
518.21076949999997
  0
LINE
  8
_0-0_0
  6
CONTINUOUS
 62
    7
 10
176.18933099999998
 20
518.21076949999997
 11
176.30349699999999
 21
518.22087150000004
  0
LINE
  8
_0-0_0
  6
CONTINUOUS
 62
    7
 10
176.30349699999999
 20
518.22087150000004
 11
176.42895499999997
 21
518.22465550000004
  0
LINE
  8
_0-0_0
  6
CONTINUOUS
 62
    7
 10
175.42895499999997
 20
516.81044050000003
 11
175.42895499999997
 21
517.78010549999999
  0
ARC
  8
_0-0_0
  6
CONTINUOUS
 62
    7
 10
176.42895499999997
 20
490.42463650000002
 40
1
 50
180.00000900000003
 51
269.99999700000001
  0
LINE
  8
_0-0_0
  6
CONTINUOUS
 62
    7
 10
175.42895499999997
 20
490.42463650000002
 11
175.42895499999997
 21
516.81044050000003
  0
LINE
  8
_0-0_0
  6
CONTINUOUS
 62
    7
 10
933.42889400000001
 20
517.81050149999999
 11
933.42889400000001
 21
519.42463650000002
  0
ARC
  8
_0-0_0
  6
CONTINUOUS
 62
    7
 10
932.42889400000001
 20
519.42463650000002
 40
1
 50
0
 51
90.000003000000007
  0
ARC
  8
_0-0_0
  6
CONTINUOUS
 62
    7
 10
176.42895499999997
 20
519.42463650000002
 40
1
 50
90.000003000000007
 51
180.00000900000001
  0
LINE
  8
_0-0_0
  6
CONTINUOUS
 62
    7
 10
175.42895499999997
 20
517.78010549999999
 11
175.42895499999997
 21
519.42463650000002
  0
LINE
  8
_0-0_0
  6
CONTINUOUS
 62
    7
 10
87.613296999999989
 20
487.32456950000005
 11
87.613296999999989
 21
487.29957550000006
  0
LINE
  8
_0-0_0
  6
CONTINUOUS
 62
    7
 10
87.613296999999989
 20
484.24745150000001
 11
87.613296999999989
 21
484.34956350000004
  0
LINE
  8
_0-0_0
  6
CONTINUOUS
 62
    7
 10
87.613296999999989
 20
463.22456350000004
 11
87.613296999999989
 21
464.00169349999999
  0
LINE
  8
_0-0_0
  6
CONTINUOUS
 62
    7
 10
70.813293999999985
 20
463.22456350000004
 11
87.613296999999989
 21
463.22456350000004
  0
LINE
  8
_0-0_0
  6
CONTINUOUS
 62
    7
 10
70.813293999999985
 20
471.12455750000004
 11
70.813293999999985
 21
463.22456350000004
  0
LINE
  8
_0-0_0
  6
CONTINUOUS
 62
    7
 10
70.813293999999985
 20
483.57987950000006
 11
70.813293999999985
 21
477.12455750000004
  0
LINE
  8
_0-0_0
  6
CONTINUOUS
 62
    7
 10
88.113280999999972
 20
466.72456350000004
 11
88.313293999999985
 21
466.72456350000004
  0
LINE
  8
_0-0_0
  6
CONTINUOUS
 62
    7
 10
88.313293999999985
 20
466.72456350000004
 11
88.313293999999985
 21
469.72456350000004
  0
LINE
  8
_0-0_0
  6
CONTINUOUS
 62
    7
 10
88.313293999999985
 20
483.32456950000005
 11
88.313293999999985
 21
469.72456350000004
  0
LINE
  8
_0-0_0
  6
CONTINUOUS
 62
    7
 10
88.113280999999972
 20
486.32456950000005
 11
88.313293999999985
 21
486.32456950000005
  0
LINE
  8
_0-0_0
  6
CONTINUOUS
 62
    7
 10
88.313293999999985
 20
483.32456950000005
 11
88.313293999999985
 21
486.32456950000005
  0
LINE
  8
_0-0_0
  6
CONTINUOUS
 62
    7
 10
87.413299999999992
 20
485.62364249999996
 11
87.413299999999992
 21
484.44444250000004
  0
LINE
  8
_0-0_0
  6
CONTINUOUS
 62
    7
 10
87.413299999999992
 20
487.82456950000005
 11
87.413299999999992
 21
487.32456950000005
  0
LINE
  8
_0-0_0
  6
CONTINUOUS
 62
    7
 10
86.413299999999992
 20
484.90806550000002
 11
86.413299999999992
 21
485.62455750000004
  0
ARC
  8
_0-0_0
  6
CONTINUOUS
 62
    7
 10
86.113296999999989
 20
482.92457550000006
 40
2
 50
0
 51
90.000003000000007
  0
LINE
  8
_0-0_0
  6
CONTINUOUS
 62
    7
 10
88.113296999999989
 20
479.42457550000006
 11
88.113296999999989
 21
482.42457550000006
  0
LINE
  8
_0-0_0
  6
CONTINUOUS
 62
    7
 10
88.113296999999989
 20
482.42457550000006
 11
88.113296999999989
 21
482.92457550000006
  0
LINE
  8
_0-0_0
  6
CONTINUOUS
 62
    7
 10
88.113296999999989
 20
465.32456950000005
 11
88.113296999999989
 21
478.92457550000006
  0
LINE
  8
_0-0_0
  6
CONTINUOUS
 62
    7
 10
88.113296999999989
 20
479.42457550000006
 11
88.113296999999989
 21
478.92457550000006
  0
ARC
  8
_0-0_0
  6
CONTINUOUS
 62
    7
 10
86.113296999999989
 20
465.32456950000005
 40
2
 50
273.84026500000004
 51
0.000010000000014
  0
LINE
  8
_0-0_0
  6
CONTINUOUS
 62
    7
 10
72.813293999999985
 20
484.90806550000002
 11
72.813293999999985
 21
485.62455750000004
  0
LINE
  8
_0-0_0
  6
CONTINUOUS
 62
    7
 10
72.813293999999985
 20
484.90806550000002
 11
72.813293999999985
 21
484.90193150000005
  0
LINE
  8
_0-0_0
  6
CONTINUOUS
 62
    7
 10
70.813293999999985
 20
483.57987950000006
 11
70.813293999999985
 21
484.07987950000006
  0
LINE
  8
_0-0_0
  6
CONTINUOUS
 62
    7
 10
71.113296999999989
 20
482.92457550000006
 11
71.113296999999989
 21
469.32456950000005
  0
LINE
  8
_0-0_0
  6
CONTINUOUS
 62
    7
 10
71.113296999999989
 20
468.82456950000005
 11
71.113296999999989
 21
469.32456950000005
  0
LINE
  8
_0-0_0
  6
CONTINUOUS
 62
    7
 10
71.113296999999989
 20
465.82456950000005
 11
71.113296999999989
 21
468.82456950000005
  0
LINE
  8
_0-0_0
  6
CONTINUOUS
 62
    7
 10
71.113296999999989
 20
465.32456950000005
 11
71.113296999999989
 21
465.82456950000005
  0
ARC
  8
_0-0_0
  6
CONTINUOUS
 62
    7
 10
73.113296999999989
 20
482.92457550000006
 40
2
 50
93.840255999999997
 51
180.00000900000001
  0
LINE
  8
_0-0_0
  6
CONTINUOUS
 62
    7
 10
70.813293999999985
 20
471.12455750000004
 11
70.813293999999985
 21
477.12455750000004
  0
LINE
  8
_0-0_0
  6
CONTINUOUS
 62
    7
 10
70.813293999999985
 20
485.62455750000004
 11
70.813293999999985
 21
484.07987950000006
  0
LINE
  8
_0-0_0
  6
CONTINUOUS
 62
    7
 10
70.813293999999985
 20
477.12455750000004
 11
71.113280999999972
 21
477.12455750000004
  0
LINE
  8
_0-0_0
  6
CONTINUOUS
 62
    7
 10
70.813293999999985
 20
471.12455750000004
 11
71.113280999999972
 21
471.12455750000004
  0
LINE
  8
_0-0_0
  6
CONTINUOUS
 62
    7
 10
86.113296999999989
 20
463.32456950000005
 11
77.113296999999989
 21
463.32456950000005
  0
LINE
  8
_0-0_0
  6
CONTINUOUS
 62
    7
 10
73.613296999999989
 20
463.32456950000005
 11
73.113296999999989
 21
463.32456950000005
  0
LINE
  8
_0-0_0
  6
CONTINUOUS
 62
    7
 10
76.613296999999989
 20
463.32456950000005
 11
73.613296999999989
 21
463.32456950000005
  0
LINE
  8
_0-0_0
  6
CONTINUOUS
 62
    7
 10
77.113296999999989
 20
463.32456950000005
 11
76.613296999999989
 21
463.32456950000005
  0
ARC
  8
_0-0_0
  6
CONTINUOUS
 62
    7
 10
73.113296999999989
 20
465.32456950000005
 40
2
 50
180.00000900000003
 51
269.99999700000001
  0
ARC
  8
_0-0_0
  6
CONTINUOUS
 62
    7
 10
86.913299999999992
 20
487.82456950000005
 40
0.5
 50
0
 51
90.000003000000007
  0
LINE
  8
_0-0_0
  6
CONTINUOUS
 62
    7
 10
85.413299999999992
 20
488.32456950000005
 11
86.913299999999992
 21
488.32456950000005
  0
ARC
  8
_0-0_0
  6
CONTINUOUS
 62
    7
 10
85.413299999999992
 20
489.32456950000005
 40
1
 50
180.00000900000003
 51
269.99999700000001
  0
LINE
  8
_0-0_0
  6
CONTINUOUS
 62
    7
 10
84.413299999999992
 20
489.32456950000005
 11
84.413299999999992
 21
489.42466750000006
  0
LINE
  8
_0-0_0
  6
CONTINUOUS
 62
    7
 10
83.913299999999992
 20
488.32456950000005
 11
83.913299999999992
 21
489.42466750000006
  0
ARC
  8
_0-0_0
  6
CONTINUOUS
 62
    7
 10
84.913299999999992
 20
488.32456950000005
 40
1
 50
180.00000900000003
 51
269.99999700000001
  0
LINE
  8
_0-0_0
  6
CONTINUOUS
 62
    7
 10
84.913299999999992
 20
487.32456950000005
 11
84.71328699999998
 21
487.32456950000005
  0
ARC
  8
_0-0_0
  6
CONTINUOUS
 62
    7
 10
84.71328699999998
 20
488.32456950000005
 40
1
 50
180.00000900000003
 51
269.99999700000001
  0
ARC
  8
_0-0_0
  6
CONTINUOUS
 62
    7
 10
74.513289999999984
 20
488.32456950000005
 40
1
 50
269.99999700000001
 51
0
  0
LINE
  8
_0-0_0
  6
CONTINUOUS
 62
    7
 10
74.513289999999984
 20
487.32456950000005
 11
73.813293999999985
 21
487.32456950000005
  0
LINE
  8
_0-0_0
  6
CONTINUOUS
 62
    7
 10
87.613296999999989
 20
487.32456950000005
 11
87.413299999999992
 21
487.32456950000005
  0
LINE
  8
_0-0_0
  6
CONTINUOUS
 62
    7
 10
70.813293999999985
 20
485.62455750000004
 11
87.613296999999989
 21
485.62455750000004
  0
LINE
  8
_0-0_0
  6
CONTINUOUS
 62
    7
 10
87.613296999999989
 20
485.62455750000004
 11
87.613296999999989
 21
487.32456950000005
  0
LINE
  8
_0-0_0
  6
CONTINUOUS
 62
    7
 10
83.71328699999998
 20
489.42466750000006
 11
83.71328699999998
 21
488.32456950000005
  0
LINE
  8
_0-0_0
  6
CONTINUOUS
 62
    7
 10
75.513289999999984
 20
488.32456950000005
 11
75.513289999999984
 21
489.42466750000006
  0
LINE
  8
_0-0_0
  6
CONTINUOUS
 62
    7
 10
71.813293999999985
 20
487.32456950000005
 11
70.813293999999985
 21
487.32456950000005
  0
LINE
  8
_0-0_0
  6
CONTINUOUS
 62
    7
 10
70.813293999999985
 20
485.62455750000004
 11
70.813293999999985
 21
487.32456950000005
  0
LINE
  8
_0-0_0
  6
CONTINUOUS
 62
    7
 10
86.113296999999989
 20
484.92457550000006
 11
85.613296999999989
 21
484.92457550000006
  0
CIRCLE
  8
_0-0_0
  6
CONTINUOUS
 62
    7
 10
85.613296999999989
 20
482.42457550000006
 40
2.5
  0
LINE
  8
_0-0_0
  6
CONTINUOUS
 62
    7
 10
73.113296999999989
 20
484.92457550000006
 11
82.113296999999989
 21
484.92457550000006
  0
LINE
  8
_0-0_0
  6
CONTINUOUS
 62
    7
 10
85.613296999999989
 20
484.92457550000006
 11
82.613296999999989
 21
484.92457550000006
  0
LINE
  8
_0-0_0
  6
CONTINUOUS
 62
    7
 10
82.113296999999989
 20
484.92457550000006
 11
82.613296999999989
 21
484.92457550000006
  0
ARC
  8
_0-0_0
  6
CONTINUOUS
 62
    7
 10
87.613296999999989
 20
478.92457550000006
 40
0.5
 50
0
 51
90.000003000000007
  0
LINE
  8
_0-0_0
  6
CONTINUOUS
 62
    7
 10
86.113296999999989
 20
463.42720050000003
 11
86.129165999999998
 21
463.39994850000005
  0
LINE
  8
_0-0_0
  6
CONTINUOUS
 62
    7
 10
86.129165999999998
 20
463.39994850000005
 11
86.145019999999988
 21
463.37696849999998
  0
LINE
  8
_0-0_0
  6
CONTINUOUS
 62
    7
 10
86.145019999999988
 20
463.37696849999998
 11
86.158996999999999
 21
463.36021449999998
  0
LINE
  8
_0-0_0
  6
CONTINUOUS
 62
    7
 10
86.158996999999999
 20
463.36021449999998
 11
86.172896999999978
 21
463.3468785
  0
LINE
  8
_0-0_0
  6
CONTINUOUS
 62
    7
 10
86.172896999999978
 20
463.3468785
 11
86.185119999999984
 21
463.33796749999999
  0
LINE
  8
_0-0_0
  6
CONTINUOUS
 62
    7
 10
86.185119999999984
 20
463.33796749999999
 11
86.197234999999978
 21
463.33174150000002
  0
LINE
  8
_0-0_0
  6
CONTINUOUS
 62
    7
 10
86.197234999999978
 20
463.33174150000002
 11
86.208098999999947
 21
463.32847649999997
  0
LINE
  8
_0-0_0
  6
CONTINUOUS
 62
    7
 10
86.208098999999947
 20
463.32847649999997
 11
86.218856999999957
 21
463.32740750000005
  0
LINE
  8
_0-0_0
  6
CONTINUOUS
 62
    7
 10
86.218856999999957
 20
463.32740750000005
 11
86.221314000000007
 21
463.32749950000004
  0
LINE
  8
_0-0_0
  6
CONTINUOUS
 62
    7
 10
71.813293999999985
 20
484.44444250000004
 11
71.813293999999985
 21
485.62364249999996
  0
ARC
  8
_0-0_0
  6
CONTINUOUS
 62
    7
 10
71.613296999999989
 20
469.32456950000005
 40
0.5
 50
180.00000900000003
 51
269.99999700000001
  0
CIRCLE
  8
_0-0_0
  6
CONTINUOUS
 62
    7
 10
73.613296999999989
 20
465.82456950000005
 40
2.5
  0
LINE
  8
_0-0_0
  6
CONTINUOUS
 62
    7
 10
73.113296999999989
 20
484.82194549999997
 11
73.097411999999963
 21
484.84919750000006
  0
LINE
  8
_0-0_0
  6
CONTINUOUS
 62
    7
 10
73.097411999999963
 20
484.84919750000006
 11
73.081573999999989
 21
484.87217750000002
  0
LINE
  8
_0-0_0
  6
CONTINUOUS
 62
    7
 10
73.081573999999989
 20
484.87217750000002
 11
73.067581000000018
 21
484.88893150000001
  0
LINE
  8
_0-0_0
  6
CONTINUOUS
 62
    7
 10
73.067581000000018
 20
484.88893150000001
 11
73.053679999999986
 21
484.90226749999999
  0
LINE
  8
_0-0_0
  6
CONTINUOUS
 62
    7
 10
73.053679999999986
 20
484.90226749999999
 11
73.041472999999996
 21
484.91117850000001
  0
LINE
  8
_0-0_0
  6
CONTINUOUS
 62
    7
 10
73.041472999999996
 20
484.91117850000001
 11
73.029358000000002
 21
484.91740449999998
  0
LINE
  8
_0-0_0
  6
CONTINUOUS
 62
    7
 10
73.029358000000002
 20
484.91740449999998
 11
73.018477999999959
 21
484.92066950000003
  0
LINE
  8
_0-0_0
  6
CONTINUOUS
 62
    7
 10
73.018477999999959
 20
484.92066950000003
 11
73.007720999999947
 21
484.92173750000006
  0
LINE
  8
_0-0_0
  6
CONTINUOUS
 62
    7
 10
73.007720999999947
 20
484.92173750000006
 11
73.005264000000011
 21
484.92164650000007
  0
LINE
  8
_0-0_0
  6
CONTINUOUS
 62
    7
 10
70.813293999999985
 20
466.72456350000004
 11
70.71328699999998
 21
466.72456350000004
  0
LINE
  8
_0-0_0
  6
CONTINUOUS
 62
    7
 10
70.71328699999998
 20
466.72456350000004
 11
70.71328699999998
 21
469.72456350000004
  0
LINE
  8
_0-0_0
  6
CONTINUOUS
 62
    7
 10
70.71328699999998
 20
469.72456350000004
 11
70.71328699999998
 21
483.32456950000005
  0
LINE
  8
_0-0_0
  6
CONTINUOUS
 62
    7
 10
70.813293999999985
 20
486.32456950000005
 11
70.71328699999998
 21
486.32456950000005
  0
LINE
  8
_0-0_0
  6
CONTINUOUS
 62
    7
 10
70.71328699999998
 20
483.32456950000005
 11
70.71328699999998
 21
486.32456950000005
  0
ARC
  8
_0-0_0
  6
CONTINUOUS
 62
    7
 10
77.113296999999989
 20
463.82456950000005
 40
0.5
 50
180.00000900000003
 51
269.99999700000001
  0
ARC
  8
_0-0_0
  6
CONTINUOUS
 62
    7
 10
73.813293999999985
 20
488.82463050000001
 40
1.5
 50
269.99999700000001
 51
0
  0
ARC
  8
_0-0_0
  6
CONTINUOUS
 62
    7
 10
72.313293999999985
 20
487.82463050000001
 40
0.5
 50
90.000003000000007
 51
180.00000900000001
  0
LINE
  8
_0-0_0
  6
CONTINUOUS
 62
    7
 10
72.313293999999985
 20
488.32463050000001
 11
73.813293999999985
 21
488.32463050000001
  0
ARC
  8
_0-0_0
  6
CONTINUOUS
 62
    7
 10
73.813293999999985
 20
489.32463050000001
 40
1
 50
269.99999700000001
 51
0
  0
LINE
  8
_0-0_0
  6
CONTINUOUS
 62
    7
 10
74.813293999999985
 20
489.42466750000006
 11
74.813293999999985
 21
489.32463050000001
  0
LINE
  8
_0-0_0
  6
CONTINUOUS
 62
    7
 10
75.313293999999985
 20
489.42466750000006
 11
75.313293999999985
 21
488.82463050000001
  0
LINE
  8
_0-0_0
  6
CONTINUOUS
 62
    7
 10
71.813293999999985
 20
487.32463050000001
 11
71.813293999999985
 21
487.82463050000001
  0
ARC
  8
_0-0_0
  6
CONTINUOUS
 62
    7
 10
82.113296999999989
 20
484.42457550000006
 40
0.5
 50
0
 51
90.000003000000007
  0
LINE
  8
_0-0_0
  6
CONTINUOUS
 62
    7
 10
82.613296999999989
 20
484.34761049999997
 11
82.613296999999989
 21
484.42457550000006
  0
LINE
  8
_0-0_0
  6
CONTINUOUS
 62
    7
 10
82.613296999999989
 20
482.90608250000002
 11
82.613296999999989
 21
484.34761049999997
  0
LINE
  8
_0-0_0
  6
CONTINUOUS
 62
    7
 10
82.613296999999989
 20
482.42457550000006
 11
82.613296999999989
 21
482.90608250000002
  0
ARC
  8
_0-0_0
  6
CONTINUOUS
 62
    7
 10
85.613296999999989
 20
482.42457550000006
 40
3
 50
180.00000900000003
 51
269.99999700000001
  0
LINE
  8
_0-0_0
  6
CONTINUOUS
 62
    7
 10
86.094787999999994
 20
479.42457550000006
 11
85.613296999999989
 21
479.42457550000006
  0
LINE
  8
_0-0_0
  6
CONTINUOUS
 62
    7
 10
86.094787999999994
 20
479.42457550000006
 11
87.536315999999999
 21
479.42457550000006
  0
LINE
  8
_0-0_0
  6
CONTINUOUS
 62
    7
 10
87.613296999999989
 20
479.42457550000006
 11
87.536315999999999
 21
479.42457550000006
  0
LINE
  8
_0-0_0
  6
CONTINUOUS
 62
    7
 10
71.690261999999962
 20
468.82456950000005
 11
71.613296999999989
 21
468.82456950000005
  0
LINE
  8
_0-0_0
  6
CONTINUOUS
 62
    7
 10
73.613296999999989
 20
468.82456950000005
 11
73.131790000000024
 21
468.82456950000005
  0
LINE
  8
_0-0_0
  6
CONTINUOUS
 62
    7
 10
73.131790000000024
 20
468.82456950000005
 11
71.690261999999962
 21
468.82456950000005
  0
LINE
  8
_0-0_0
  6
CONTINUOUS
 62
    7
 10
76.613296999999989
 20
463.82456950000005
 11
76.613296999999989
 21
463.90153550000002
  0
LINE
  8
_0-0_0
  6
CONTINUOUS
 62
    7
 10
76.613296999999989
 20
465.34306349999997
 11
76.613296999999989
 21
463.90153550000002
  0
LINE
  8
_0-0_0
  6
CONTINUOUS
 62
    7
 10
76.613296999999989
 20
465.34306349999997
 11
76.613296999999989
 21
465.82456950000005
  0
ARC
  8
_0-0_0
  6
CONTINUOUS
 62
    7
 10
73.613296999999989
 20
465.82456950000005
 40
3
 50
0
 51
89.999995999999996
  0
LINE
  8
_0-0_0
  6
CONTINUOUS
 62
    7
 10
88.113296999999989
 20
486.43583650000005
 11
88.113296999999989
 21
484.54957550000006
  0
LINE
  8
_0-0_0
  6
CONTINUOUS
 62
    7
 10
88.113296999999989
 20
487.09956350000004
 11
88.113296999999989
 21
486.43583650000005
  0
ARC
  8
_0-0_0
  6
CONTINUOUS
 62
    7
 10
82.843413999999996
 20
475.29780549999998
 40
3.063396
 50
19.82113
 51
25.289563000000001
  0
ARC
  8
_0-0_0
  6
CONTINUOUS
 62
    7
 10
82.843734999999981
 20
472.95118750000006
 40
3.0630519999999999
 50
334.71006
 51
340.17869200000001
  0
ARC
  8
_0-0_0
  6
CONTINUOUS
 62
    7
 10
76.383178999999984
 20
472.95133950000002
 40
3.063399
 50
199.82113599999997
 51
205.28948099999999
  0
ARC
  8
_0-0_0
  6
CONTINUOUS
 62
    7
 10
76.382857999999999
 20
475.29795850000005
 40
3.0630549999999999
 50
154.710137
 51
160.17869999999999
  0
ARC
  8
_0-0_0
  6
CONTINUOUS
 62
    7
 10
79.613296999999989
 20
474.12455750000004
 40
6.5
 50
340.10416099999998
 51
19.895609999999952
  0
ARC
  8
_0-0_0
  6
CONTINUOUS
 62
    7
 10
79.613296999999989
 20
474.12455750000004
 40
6.5
 50
160.10415599999999
 51
199.895612
  0
LINE
  8
_0-0_0
  6
CONTINUOUS
 62
    7
 10
71.113296999999989
 20
485.21336350000001
 11
71.113296999999989
 21
485.62370350000003
  0
LINE
  8
_0-0_0
  6
CONTINUOUS
 62
    7
 10
71.113296999999989
 20
484.55448950000005
 11
71.113296999999989
 21
485.21336350000001
  0
LINE
  8
_0-0_0
  6
CONTINUOUS
 62
    7
 10
78.871627999999987
 20
480.62455750000004
 11
74.354964999999993
 21
478.0168615
  0
LINE
  8
_0-0_0
  6
CONTINUOUS
 62
    7
 10
80.354964999999993
 20
480.62455750000004
 11
78.871627999999987
 21
480.62455750000004
  0
LINE
  8
_0-0_0
  6
CONTINUOUS
 62
    7
 10
84.871627999999987
 20
478.0168615
 11
80.354964999999993
 21
480.62455750000004
  0
LINE
  8
_0-0_0
  6
CONTINUOUS
 62
    7
 10
85.613296999999989
 20
476.73225450000007
 11
85.613296999999989
 21
471.5168615
  0
LINE
  8
_0-0_0
  6
CONTINUOUS
 62
    7
 10
84.871627999999987
 20
478.0168615
 11
85.613296999999989
 21
476.73225450000007
  0
LINE
  8
_0-0_0
  6
CONTINUOUS
 62
    7
 10
80.354964999999993
 20
467.62455750000004
 11
84.871627999999987
 21
470.23225450000007
  0
LINE
  8
_0-0_0
  6
CONTINUOUS
 62
    7
 10
85.165741000000025
 20
470.74171450000006
 11
85.613296999999989
 21
471.5168615
  0
LINE
  8
_0-0_0
  6
CONTINUOUS
 62
    7
 10
85.165741000000025
 20
470.74171450000006
 11
84.871627999999987
 21
470.23225450000007
  0
LINE
  8
_0-0_0
  6
CONTINUOUS
 62
    7
 10
78.871627999999987
 20
467.62455750000004
 11
80.354964999999993
 21
467.62455750000004
  0
LINE
  8
_0-0_0
  6
CONTINUOUS
 62
    7
 10
74.354964999999993
 20
470.23225450000007
 11
78.871627999999987
 21
467.62455750000004
  0
LINE
  8
_0-0_0
  6
CONTINUOUS
 62
    7
 10
73.613296999999989
 20
476.73225450000007
 11
73.613296999999989
 21
471.5168615
  0
LINE
  8
_0-0_0
  6
CONTINUOUS
 62
    7
 10
74.354964999999993
 20
470.23225450000007
 11
73.613296999999989
 21
471.5168615
  0
LINE
  8
_0-0_0
  6
CONTINUOUS
 62
    7
 10
74.060836999999992
 20
477.50743150000005
 11
73.613296999999989
 21
476.73225450000007
  0
LINE
  8
_0-0_0
  6
CONTINUOUS
 62
    7
 10
74.060836999999992
 20
477.50743150000005
 11
74.354964999999993
 21
478.0168615
  0
LINE
  8
_0-0_0
  6
CONTINUOUS
 62
    7
 10
87.500305000000026
 20
483.65000950000001
 11
87.778350999999986
 21
483.67457550000006
  0
LINE
  8
_0-0_0
  6
CONTINUOUS
 62
    7
 10
87.618057000000022
 20
483.44606050000004
 11
87.778350999999986
 21
483.67457550000006
  0
LINE
  8
_0-0_0
  6
CONTINUOUS
 62
    7
 10
87.361876999999993
 20
483.8405305
 11
87.635833999999988
 21
483.89402749999999
  0
LINE
  8
_0-0_0
  6
CONTINUOUS
 62
    7
 10
87.500305000000026
 20
483.65000950000001
 11
87.635833999999988
 21
483.89402749999999
  0
LINE
  8
_0-0_0
  6
CONTINUOUS
 62
    7
 10
87.204285000000027
 20
484.01554850000002
 11
87.471160999999995
 21
484.09739650000006
  0
LINE
  8
_0-0_0
  6
CONTINUOUS
 62
    7
 10
87.361876999999993
 20
483.8405305
 11
87.471160999999995
 21
484.09739650000006
  0
LINE
  8
_0-0_0
  6
CONTINUOUS
 62
    7
 10
87.029266000000007
 20
484.17314150000004
 11
87.286117999999988
 21
484.28242550000004
  0
LINE
  8
_0-0_0
  6
CONTINUOUS
 62
    7
 10
87.204285000000027
 20
484.01554850000002
 11
87.286117999999988
 21
484.28242550000004
  0
LINE
  8
_0-0_0
  6
CONTINUOUS
 62
    7
 10
86.838729999999998
 20
484.31156950000002
 11
87.082747999999981
 21
484.44709750000004
  0
LINE
  8
_0-0_0
  6
CONTINUOUS
 62
    7
 10
87.029266000000007
 20
484.17314150000004
 11
87.082747999999981
 21
484.44709750000004
  0
LINE
  8
_0-0_0
  6
CONTINUOUS
 62
    7
 10
86.634766000000013
 20
484.42933649999998
 11
86.863296999999989
 21
484.58964549999996
  0
LINE
  8
_0-0_0
  6
CONTINUOUS
 62
    7
 10
86.838729999999998
 20
484.31156950000002
 11
86.863296999999989
 21
484.58964549999996
  0
LINE
  8
_0-0_0
  6
CONTINUOUS
 62
    7
 10
86.419617000000017
 20
484.52513150000004
 11
86.630127000000016
 21
484.70845050000003
  0
LINE
  8
_0-0_0
  6
CONTINUOUS
 62
    7
 10
86.634766000000013
 20
484.42933649999998
 11
86.630127000000016
 21
484.70845050000003
  0
LINE
  8
_0-0_0
  6
CONTINUOUS
 62
    7
 10
86.195632999999987
 20
484.5979155
 11
86.385833999999988
 21
484.80220050000003
  0
LINE
  8
_0-0_0
  6
CONTINUOUS
 62
    7
 10
86.419617000000017
 20
484.52513150000004
 11
86.385833999999988
 21
484.80220050000003
  0
LINE
  8
_0-0_0
  6
CONTINUOUS
 62
    7
 10
85.965270999999973
 20
484.64686549999999
 11
86.13307199999997
 21
484.86994949999996
  0
LINE
  8
_0-0_0
  6
CONTINUOUS
 62
    7
 10
86.195632999999987
 20
484.5979155
 11
86.13307199999997
 21
484.86994949999996
  0
LINE
  8
_0-0_0
  6
CONTINUOUS
 62
    7
 10
85.731048999999985
 20
484.6714935
 11
85.874618999999996
 21
484.91087349999998
  0
LINE
  8
_0-0_0
  6
CONTINUOUS
 62
    7
 10
85.965270999999973
 20
484.64686549999999
 11
85.874618999999996
 21
484.91087349999998
  0
LINE
  8
_0-0_0
  6
CONTINUOUS
 62
    7
 10
85.495528999999976
 20
484.6714935
 11
85.613296999999989
 21
484.92457550000006
  0
LINE
  8
_0-0_0
  6
CONTINUOUS
 62
    7
 10
85.731048999999985
 20
484.6714935
 11
85.613296999999989
 21
484.92457550000006
  0
LINE
  8
_0-0_0
  6
CONTINUOUS
 62
    7
 10
85.26132199999995
 20
484.64686549999999
 11
85.351974999999982
 21
484.91087349999998
  0
LINE
  8
_0-0_0
  6
CONTINUOUS
 62
    7
 10
85.495528999999976
 20
484.6714935
 11
85.351974999999982
 21
484.91087349999998
  0
LINE
  8
_0-0_0
  6
CONTINUOUS
 62
    7
 10
85.030944999999974
 20
484.5979155
 11
85.093505999999991
 21
484.86994949999996
  0
LINE
  8
_0-0_0
  6
CONTINUOUS
 62
    7
 10
85.26132199999995
 20
484.64686549999999
 11
85.093505999999991
 21
484.86994949999996
  0
LINE
  8
_0-0_0
  6
CONTINUOUS
 62
    7
 10
84.806961000000001
 20
484.52513150000004
 11
84.840743999999972
 21
484.80220050000003
  0
LINE
  8
_0-0_0
  6
CONTINUOUS
 62
    7
 10
85.030944999999974
 20
484.5979155
 11
84.840743999999972
 21
484.80220050000003
  0
LINE
  8
_0-0_0
  6
CONTINUOUS
 62
    7
 10
84.591812000000004
 20
484.42933649999998
 11
84.596451000000002
 21
484.70845050000003
  0
LINE
  8
_0-0_0
  6
CONTINUOUS
 62
    7
 10
84.806961000000001
 20
484.52513150000004
 11
84.596451000000002
 21
484.70845050000003
  0
LINE
  8
_0-0_0
  6
CONTINUOUS
 62
    7
 10
84.472274999999968
 20
484.51319850000004
 11
84.363296999999989
 21
484.58964549999996
  0
LINE
  8
_0-0_0
  6
CONTINUOUS
 62
    7
 10
84.591812000000004
 20
484.42933649999998
 11
84.472274999999968
 21
484.51319850000004
  0
LINE
  8
_0-0_0
  6
CONTINUOUS
 62
    7
 10
84.387847999999963
 20
484.31156950000002
 11
84.363296999999989
 21
484.58964549999996
  0
LINE
  8
_0-0_0
  6
CONTINUOUS
 62
    7
 10
84.197326999999973
 20
484.17314150000004
 11
84.143828999999982
 21
484.44709750000004
  0
LINE
  8
_0-0_0
  6
CONTINUOUS
 62
    7
 10
84.387847999999963
 20
484.31156950000002
 11
84.143828999999982
 21
484.44709750000004
  0
LINE
  8
_0-0_0
  6
CONTINUOUS
 62
    7
 10
84.022307999999953
 20
484.01554850000002
 11
83.940459999999973
 21
484.28242550000004
  0
LINE
  8
_0-0_0
  6
CONTINUOUS
 62
    7
 10
84.197326999999973
 20
484.17314150000004
 11
83.940459999999973
 21
484.28242550000004
  0
LINE
  8
_0-0_0
  6
CONTINUOUS
 62
    7
 10
83.864715999999987
 20
483.8405305
 11
83.755431999999985
 21
484.09739650000006
  0
LINE
  8
_0-0_0
  6
CONTINUOUS
 62
    7
 10
84.022307999999953
 20
484.01554850000002
 11
83.755431999999985
 21
484.09739650000006
  0
LINE
  8
_0-0_0
  6
CONTINUOUS
 62
    7
 10
83.726287999999954
 20
483.65000950000001
 11
83.590743999999972
 21
483.89402749999999
  0
LINE
  8
_0-0_0
  6
CONTINUOUS
 62
    7
 10
83.864715999999987
 20
483.8405305
 11
83.590743999999972
 21
483.89402749999999
  0
LINE
  8
_0-0_0
  6
CONTINUOUS
 62
    7
 10
83.608520999999996
 20
483.44606050000004
 11
83.448226999999974
 21
483.67457550000006
  0
LINE
  8
_0-0_0
  6
CONTINUOUS
 62
    7
 10
83.726287999999954
 20
483.65000950000001
 11
83.448226999999974
 21
483.67457550000006
  0
LINE
  8
_0-0_0
  6
CONTINUOUS
 62
    7
 10
83.512741000000005
 20
483.23091150000005
 11
83.329422000000022
 21
483.44142150000005
  0
LINE
  8
_0-0_0
  6
CONTINUOUS
 62
    7
 10
83.608520999999996
 20
483.44606050000004
 11
83.329422000000022
 21
483.44142150000005
  0
LINE
  8
_0-0_0
  6
CONTINUOUS
 62
    7
 10
83.439956999999993
 20
483.0069125
 11
83.235656999999946
 21
483.19709750000004
  0
LINE
  8
_0-0_0
  6
CONTINUOUS
 62
    7
 10
83.512741000000005
 20
483.23091150000005
 11
83.235656999999946
 21
483.19709750000004
  0
LINE
  8
_0-0_0
  6
CONTINUOUS
 62
    7
 10
83.390990999999985
 20
482.77653550000002
 11
83.167922999999973
 21
482.94435150000004
  0
LINE
  8
_0-0_0
  6
CONTINUOUS
 62
    7
 10
83.439956999999993
 20
483.0069125
 11
83.167922999999973
 21
482.94435150000004
  0
LINE
  8
_0-0_0
  6
CONTINUOUS
 62
    7
 10
83.390990999999985
 20
482.77653550000002
 11
83.126983999999993
 21
482.68589750000001
  0
LINE
  8
_0-0_0
  6
CONTINUOUS
 62
    7
 10
83.366378999999995
 20
482.54231249999998
 11
83.126983999999993
 21
482.68589750000001
  0
LINE
  8
_0-0_0
  6
CONTINUOUS
 62
    7
 10
83.366378999999995
 20
482.30680849999999
 11
83.113296999999989
 21
482.42457550000006
  0
LINE
  8
_0-0_0
  6
CONTINUOUS
 62
    7
 10
83.366378999999995
 20
482.54231249999998
 11
83.113296999999989
 21
482.42457550000006
  0
LINE
  8
_0-0_0
  6
CONTINUOUS
 62
    7
 10
83.390990999999985
 20
482.07258650000006
 11
83.126983999999993
 21
482.1632535
  0
LINE
  8
_0-0_0
  6
CONTINUOUS
 62
    7
 10
83.366378999999995
 20
482.30680849999999
 11
83.126983999999993
 21
482.1632535
  0
LINE
  8
_0-0_0
  6
CONTINUOUS
 62
    7
 10
83.439956999999993
 20
481.84223950000001
 11
83.167922999999973
 21
481.90480049999996
  0
LINE
  8
_0-0_0
  6
CONTINUOUS
 62
    7
 10
83.390990999999985
 20
482.07258650000006
 11
83.167922999999973
 21
481.90480049999996
  0
LINE
  8
_0-0_0
  6
CONTINUOUS
 62
    7
 10
83.512741000000005
 20
481.61824049999996
 11
83.235656999999946
 21
481.65202350000004
  0
LINE
  8
_0-0_0
  6
CONTINUOUS
 62
    7
 10
83.439956999999993
 20
481.84223950000001
 11
83.235656999999946
 21
481.65202350000004
  0
LINE
  8
_0-0_0
  6
CONTINUOUS
 62
    7
 10
83.608520999999996
 20
481.40309149999996
 11
83.329422000000022
 21
481.40773049999996
  0
LINE
  8
_0-0_0
  6
CONTINUOUS
 62
    7
 10
83.512741000000005
 20
481.61824049999996
 11
83.329422000000022
 21
481.40773049999996
  0
LINE
  8
_0-0_0
  6
CONTINUOUS
 62
    7
 10
83.726287999999954
 20
481.19914249999999
 11
83.448226999999974
 21
481.17457550000006
  0
LINE
  8
_0-0_0
  6
CONTINUOUS
 62
    7
 10
83.608520999999996
 20
481.40309149999996
 11
83.448226999999974
 21
481.17457550000006
  0
LINE
  8
_0-0_0
  6
CONTINUOUS
 62
    7
 10
83.864715999999987
 20
481.00859049999997
 11
83.590743999999972
 21
480.95509349999998
  0
LINE
  8
_0-0_0
  6
CONTINUOUS
 62
    7
 10
83.726287999999954
 20
481.19914249999999
 11
83.590743999999972
 21
480.95509349999998
  0
LINE
  8
_0-0_0
  6
CONTINUOUS
 62
    7
 10
84.022307999999953
 20
480.83357250000006
 11
83.755431999999985
 21
480.75175450000006
  0
LINE
  8
_0-0_0
  6
CONTINUOUS
 62
    7
 10
83.864715999999987
 20
481.00859049999997
 11
83.755431999999985
 21
480.75175450000006
  0
LINE
  8
_0-0_0
  6
CONTINUOUS
 62
    7
 10
84.197326999999973
 20
480.67597950000004
 11
83.940459999999973
 21
480.56669650000003
  0
LINE
  8
_0-0_0
  6
CONTINUOUS
 62
    7
 10
84.022307999999953
 20
480.83357250000006
 11
83.940459999999973
 21
480.56669650000003
  0
LINE
  8
_0-0_0
  6
CONTINUOUS
 62
    7
 10
84.387847999999963
 20
480.53755250000006
 11
84.143828999999982
 21
480.40202350000004
  0
LINE
  8
_0-0_0
  6
CONTINUOUS
 62
    7
 10
84.197326999999973
 20
480.67597950000004
 11
84.143828999999982
 21
480.40202350000004
  0
LINE
  8
_0-0_0
  6
CONTINUOUS
 62
    7
 10
84.591812000000004
 20
480.41981550000003
 11
84.363296999999989
 21
480.25950650000004
  0
LINE
  8
_0-0_0
  6
CONTINUOUS
 62
    7
 10
84.387847999999963
 20
480.53755250000006
 11
84.363296999999989
 21
480.25950650000004
  0
LINE
  8
_0-0_0
  6
CONTINUOUS
 62
    7
 10
84.806961000000001
 20
480.32402049999996
 11
84.596451000000002
 21
480.14070149999998
  0
LINE
  8
_0-0_0
  6
CONTINUOUS
 62
    7
 10
84.591812000000004
 20
480.41981550000003
 11
84.596451000000002
 21
480.14070149999998
  0
LINE
  8
_0-0_0
  6
CONTINUOUS
 62
    7
 10
85.030944999999974
 20
480.2512365
 11
84.840743999999972
 21
480.04692050000006
  0
LINE
  8
_0-0_0
  6
CONTINUOUS
 62
    7
 10
84.806961000000001
 20
480.32402049999996
 11
84.840743999999972
 21
480.04692050000006
  0
LINE
  8
_0-0_0
  6
CONTINUOUS
 62
    7
 10
85.26132199999995
 20
480.20228550000002
 11
85.093505999999991
 21
479.97920250000004
  0
LINE
  8
_0-0_0
  6
CONTINUOUS
 62
    7
 10
85.030944999999974
 20
480.2512365
 11
85.093505999999991
 21
479.97920250000004
  0
LINE
  8
_0-0_0
  6
CONTINUOUS
 62
    7
 10
85.495528999999976
 20
480.17765850000001
 11
85.351974999999982
 21
479.93827850000002
  0
LINE
  8
_0-0_0
  6
CONTINUOUS
 62
    7
 10
85.26132199999995
 20
480.20228550000002
 11
85.351974999999982
 21
479.93827850000002
  0
LINE
  8
_0-0_0
  6
CONTINUOUS
 62
    7
 10
85.731048999999985
 20
480.17765850000001
 11
85.613296999999989
 21
479.92457550000006
  0
LINE
  8
_0-0_0
  6
CONTINUOUS
 62
    7
 10
85.495528999999976
 20
480.17765850000001
 11
85.613296999999989
 21
479.92457550000006
  0
LINE
  8
_0-0_0
  6
CONTINUOUS
 62
    7
 10
85.965270999999973
 20
480.20228550000002
 11
85.874618999999996
 21
479.93827850000002
  0
LINE
  8
_0-0_0
  6
CONTINUOUS
 62
    7
 10
85.731048999999985
 20
480.17765850000001
 11
85.874618999999996
 21
479.93827850000002
  0
LINE
  8
_0-0_0
  6
CONTINUOUS
 62
    7
 10
86.195632999999987
 20
480.2512365
 11
86.13307199999997
 21
479.97920250000004
  0
LINE
  8
_0-0_0
  6
CONTINUOUS
 62
    7
 10
85.965270999999973
 20
480.20228550000002
 11
86.13307199999997
 21
479.97920250000004
  0
LINE
  8
_0-0_0
  6
CONTINUOUS
 62
    7
 10
86.419617000000017
 20
480.32402049999996
 11
86.385833999999988
 21
480.04692050000006
  0
LINE
  8
_0-0_0
  6
CONTINUOUS
 62
    7
 10
86.195632999999987
 20
480.2512365
 11
86.385833999999988
 21
480.04692050000006
  0
LINE
  8
_0-0_0
  6
CONTINUOUS
 62
    7
 10
86.634766000000013
 20
480.41981550000003
 11
86.630127000000016
 21
480.14070149999998
  0
LINE
  8
_0-0_0
  6
CONTINUOUS
 62
    7
 10
86.419617000000017
 20
480.32402049999996
 11
86.630127000000016
 21
480.14070149999998
  0
LINE
  8
_0-0_0
  6
CONTINUOUS
 62
    7
 10
86.754302999999993
 20
480.33595249999996
 11
86.863296999999989
 21
480.25950650000004
  0
LINE
  8
_0-0_0
  6
CONTINUOUS
 62
    7
 10
86.634766000000013
 20
480.41981550000003
 11
86.754302999999993
 21
480.33595249999996
  0
LINE
  8
_0-0_0
  6
CONTINUOUS
 62
    7
 10
86.838729999999998
 20
480.53755250000006
 11
86.863296999999989
 21
480.25950650000004
  0
LINE
  8
_0-0_0
  6
CONTINUOUS
 62
    7
 10
87.029266000000007
 20
480.67597950000004
 11
87.082747999999981
 21
480.40202350000004
  0
LINE
  8
_0-0_0
  6
CONTINUOUS
 62
    7
 10
86.838729999999998
 20
480.53755250000006
 11
87.082747999999981
 21
480.40202350000004
  0
LINE
  8
_0-0_0
  6
CONTINUOUS
 62
    7
 10
87.204285000000027
 20
480.83357250000006
 11
87.286117999999988
 21
480.56669650000003
  0
LINE
  8
_0-0_0
  6
CONTINUOUS
 62
    7
 10
87.029266000000007
 20
480.67597950000004
 11
87.286117999999988
 21
480.56669650000003
  0
LINE
  8
_0-0_0
  6
CONTINUOUS
 62
    7
 10
87.361876999999993
 20
481.00859049999997
 11
87.471160999999995
 21
480.75175450000006
  0
LINE
  8
_0-0_0
  6
CONTINUOUS
 62
    7
 10
87.204285000000027
 20
480.83357250000006
 11
87.471160999999995
 21
480.75175450000006
  0
LINE
  8
_0-0_0
  6
CONTINUOUS
 62
    7
 10
87.500305000000026
 20
481.19914249999999
 11
87.635833999999988
 21
480.95509349999998
  0
LINE
  8
_0-0_0
  6
CONTINUOUS
 62
    7
 10
87.361876999999993
 20
481.00859049999997
 11
87.635833999999988
 21
480.95509349999998
  0
LINE
  8
_0-0_0
  6
CONTINUOUS
 62
    7
 10
87.618057000000022
 20
481.40309149999996
 11
87.778350999999986
 21
481.17457550000006
  0
LINE
  8
_0-0_0
  6
CONTINUOUS
 62
    7
 10
87.500305000000026
 20
481.19914249999999
 11
87.778350999999986
 21
481.17457550000006
  0
LINE
  8
_0-0_0
  6
CONTINUOUS
 62
    7
 10
87.713851999999974
 20
481.61824049999996
 11
87.897155999999995
 21
481.40773049999996
  0
LINE
  8
_0-0_0
  6
CONTINUOUS
 62
    7
 10
87.618057000000022
 20
481.40309149999996
 11
87.897155999999995
 21
481.40773049999996
  0
LINE
  8
_0-0_0
  6
CONTINUOUS
 62
    7
 10
87.786620999999968
 20
481.84223950000001
 11
87.990935999999977
 21
481.65202350000004
  0
LINE
  8
_0-0_0
  6
CONTINUOUS
 62
    7
 10
87.713851999999974
 20
481.61824049999996
 11
87.990935999999977
 21
481.65202350000004
  0
LINE
  8
_0-0_0
  6
CONTINUOUS
 62
    7
 10
87.835586999999975
 20
482.07258650000006
 11
88.058654999999987
 21
481.90480049999996
  0
LINE
  8
_0-0_0
  6
CONTINUOUS
 62
    7
 10
87.786620999999968
 20
481.84223950000001
 11
88.058654999999987
 21
481.90480049999996
  0
LINE
  8
_0-0_0
  6
CONTINUOUS
 62
    7
 10
87.860198999999966
 20
482.30680849999999
 11
88.099594000000025
 21
482.1632535
  0
LINE
  8
_0-0_0
  6
CONTINUOUS
 62
    7
 10
87.835586999999975
 20
482.07258650000006
 11
88.099594000000025
 21
482.1632535
  0
LINE
  8
_0-0_0
  6
CONTINUOUS
 62
    7
 10
87.860198999999966
 20
482.54231249999998
 11
88.113296999999989
 21
482.42457550000006
  0
LINE
  8
_0-0_0
  6
CONTINUOUS
 62
    7
 10
87.860198999999966
 20
482.30680849999999
 11
88.113296999999989
 21
482.42457550000006
  0
LINE
  8
_0-0_0
  6
CONTINUOUS
 62
    7
 10
87.835586999999975
 20
482.77653550000002
 11
88.099594000000025
 21
482.68589750000001
  0
LINE
  8
_0-0_0
  6
CONTINUOUS
 62
    7
 10
87.860198999999966
 20
482.54231249999998
 11
88.099594000000025
 21
482.68589750000001
  0
LINE
  8
_0-0_0
  6
CONTINUOUS
 62
    7
 10
87.786620999999968
 20
483.0069125
 11
88.058654999999987
 21
482.94435150000004
  0
LINE
  8
_0-0_0
  6
CONTINUOUS
 62
    7
 10
87.835586999999975
 20
482.77653550000002
 11
88.058654999999987
 21
482.94435150000004
  0
LINE
  8
_0-0_0
  6
CONTINUOUS
 62
    7
 10
87.713851999999974
 20
483.23091150000005
 11
87.990935999999977
 21
483.19709750000004
  0
LINE
  8
_0-0_0
  6
CONTINUOUS
 62
    7
 10
87.786620999999968
 20
483.0069125
 11
87.990935999999977
 21
483.19709750000004
  0
LINE
  8
_0-0_0
  6
CONTINUOUS
 62
    7
 10
87.618057000000022
 20
483.44606050000004
 11
87.897155999999995
 21
483.44142150000005
  0
LINE
  8
_0-0_0
  6
CONTINUOUS
 62
    7
 10
87.713851999999974
 20
483.23091150000005
 11
87.897155999999995
 21
483.44142150000005
  0
CIRCLE
  8
_0-0_0
  6
CONTINUOUS
 62
    7
 10
79.613296999999989
 20
474.12455750000004
 40
5.25
  0
LINE
  8
_0-0_0
  6
CONTINUOUS
 62
    7
 10
75.500305000000026
 20
467.0500035
 11
75.778350999999986
 21
467.07456950000005
  0
LINE
  8
_0-0_0
  6
CONTINUOUS
 62
    7
 10
75.618057000000022
 20
466.84605450000004
 11
75.778350999999986
 21
467.07456950000005
  0
LINE
  8
_0-0_0
  6
CONTINUOUS
 62
    7
 10
75.361876999999993
 20
467.24055450000003
 11
75.635833999999988
 21
467.29402149999999
  0
LINE
  8
_0-0_0
  6
CONTINUOUS
 62
    7
 10
75.500305000000026
 20
467.0500035
 11
75.635833999999988
 21
467.29402149999999
  0
LINE
  8
_0-0_0
  6
CONTINUOUS
 62
    7
 10
75.204285000000027
 20
467.41557350000005
 11
75.471160999999995
 21
467.49739050000005
  0
LINE
  8
_0-0_0
  6
CONTINUOUS
 62
    7
 10
75.361876999999993
 20
467.24055450000003
 11
75.471160999999995
 21
467.49739050000005
  0
LINE
  8
_0-0_0
  6
CONTINUOUS
 62
    7
 10
75.029266000000007
 20
467.57313550000003
 11
75.286117999999988
 21
467.68241850000004
  0
LINE
  8
_0-0_0
  6
CONTINUOUS
 62
    7
 10
75.204285000000027
 20
467.41557350000005
 11
75.286117999999988
 21
467.68241850000004
  0
LINE
  8
_0-0_0
  6
CONTINUOUS
 62
    7
 10
74.838729999999998
 20
467.71159350000005
 11
75.082747999999981
 21
467.84712249999995
  0
LINE
  8
_0-0_0
  6
CONTINUOUS
 62
    7
 10
75.029266000000007
 20
467.57313550000003
 11
75.082747999999981
 21
467.84712249999995
  0
LINE
  8
_0-0_0
  6
CONTINUOUS
 62
    7
 10
74.634766000000013
 20
467.82933049999997
 11
74.863296999999989
 21
467.98963950000007
  0
LINE
  8
_0-0_0
  6
CONTINUOUS
 62
    7
 10
74.838729999999998
 20
467.71159350000005
 11
74.863296999999989
 21
467.98963950000007
  0
LINE
  8
_0-0_0
  6
CONTINUOUS
 62
    7
 10
74.419617000000017
 20
467.92512550000004
 11
74.630127000000016
 21
468.10844450000002
  0
LINE
  8
_0-0_0
  6
CONTINUOUS
 62
    7
 10
74.634766000000013
 20
467.82933049999997
 11
74.630127000000016
 21
468.10844450000002
  0
LINE
  8
_0-0_0
  6
CONTINUOUS
 62
    7
 10
74.195632999999987
 20
467.99790949999999
 11
74.385833999999988
 21
468.20222450000006
  0
LINE
  8
_0-0_0
  6
CONTINUOUS
 62
    7
 10
74.419617000000017
 20
467.92512550000004
 11
74.385833999999988
 21
468.20222450000006
  0
LINE
  8
_0-0_0
  6
CONTINUOUS
 62
    7
 10
73.965270999999973
 20
468.04685949999998
 11
74.13307199999997
 21
468.26994350000007
  0
LINE
  8
_0-0_0
  6
CONTINUOUS
 62
    7
 10
74.195632999999987
 20
467.99790949999999
 11
74.13307199999997
 21
468.26994350000007
  0
LINE
  8
_0-0_0
  6
CONTINUOUS
 62
    7
 10
73.731048999999985
 20
468.07148749999999
 11
73.874618999999996
 21
468.31086749999997
  0
LINE
  8
_0-0_0
  6
CONTINUOUS
 62
    7
 10
73.965270999999973
 20
468.04685949999998
 11
73.874618999999996
 21
468.31086749999997
  0
LINE
  8
_0-0_0
  6
CONTINUOUS
 62
    7
 10
73.495528999999976
 20
468.07148749999999
 11
73.613296999999989
 21
468.32456950000005
  0
LINE
  8
_0-0_0
  6
CONTINUOUS
 62
    7
 10
73.731048999999985
 20
468.07148749999999
 11
73.613296999999989
 21
468.32456950000005
  0
LINE
  8
_0-0_0
  6
CONTINUOUS
 62
    7
 10
73.261306999999988
 20
468.04685949999998
 11
73.351974999999982
 21
468.31086749999997
  0
LINE
  8
_0-0_0
  6
CONTINUOUS
 62
    7
 10
73.495528999999976
 20
468.07148749999999
 11
73.351974999999982
 21
468.31086749999997
  0
LINE
  8
_0-0_0
  6
CONTINUOUS
 62
    7
 10
73.030944999999974
 20
467.99790949999999
 11
73.093505999999991
 21
468.26994350000007
  0
LINE
  8
_0-0_0
  6
CONTINUOUS
 62
    7
 10
73.261306999999988
 20
468.04685949999998
 11
73.093505999999991
 21
468.26994350000007
  0
LINE
  8
_0-0_0
  6
CONTINUOUS
 62
    7
 10
72.806961000000001
 20
467.92512550000004
 11
72.840743999999972
 21
468.20222450000006
  0
LINE
  8
_0-0_0
  6
CONTINUOUS
 62
    7
 10
73.030944999999974
 20
467.99790949999999
 11
72.840743999999972
 21
468.20222450000006
  0
LINE
  8
_0-0_0
  6
CONTINUOUS
 62
    7
 10
72.591812000000004
 20
467.82933049999997
 11
72.596451000000002
 21
468.10844450000002
  0
LINE
  8
_0-0_0
  6
CONTINUOUS
 62
    7
 10
72.806961000000001
 20
467.92512550000004
 11
72.596451000000002
 21
468.10844450000002
  0
LINE
  8
_0-0_0
  6
CONTINUOUS
 62
    7
 10
72.472274999999968
 20
467.91319250000004
 11
72.363296999999989
 21
467.98963950000007
  0
LINE
  8
_0-0_0
  6
CONTINUOUS
 62
    7
 10
72.591812000000004
 20
467.82933049999997
 11
72.472274999999968
 21
467.91319250000004
  0
LINE
  8
_0-0_0
  6
CONTINUOUS
 62
    7
 10
72.387847999999963
 20
467.71159350000005
 11
72.363296999999989
 21
467.98963950000007
  0
LINE
  8
_0-0_0
  6
CONTINUOUS
 62
    7
 10
72.197326999999973
 20
467.57313550000003
 11
72.143828999999982
 21
467.84712249999995
  0
LINE
  8
_0-0_0
  6
CONTINUOUS
 62
    7
 10
72.387847999999963
 20
467.71159350000005
 11
72.143828999999982
 21
467.84712249999995
  0
LINE
  8
_0-0_0
  6
CONTINUOUS
 62
    7
 10
72.022307999999953
 20
467.41557350000005
 11
71.940459999999973
 21
467.68241850000004
  0
LINE
  8
_0-0_0
  6
CONTINUOUS
 62
    7
 10
72.197326999999973
 20
467.57313550000003
 11
71.940459999999973
 21
467.68241850000004
  0
LINE
  8
_0-0_0
  6
CONTINUOUS
 62
    7
 10
71.864715999999987
 20
467.24055450000003
 11
71.755431999999985
 21
467.49739050000005
  0
LINE
  8
_0-0_0
  6
CONTINUOUS
 62
    7
 10
72.022307999999953
 20
467.41557350000005
 11
71.755431999999985
 21
467.49739050000005
  0
LINE
  8
_0-0_0
  6
CONTINUOUS
 62
    7
 10
71.726287999999954
 20
467.0500035
 11
71.590743999999972
 21
467.29402149999999
  0
LINE
  8
_0-0_0
  6
CONTINUOUS
 62
    7
 10
71.864715999999987
 20
467.24055450000003
 11
71.590743999999972
 21
467.29402149999999
  0
LINE
  8
_0-0_0
  6
CONTINUOUS
 62
    7
 10
71.608520999999996
 20
466.84605450000004
 11
71.448226999999974
 21
467.07456950000005
  0
LINE
  8
_0-0_0
  6
CONTINUOUS
 62
    7
 10
71.726287999999954
 20
467.0500035
 11
71.448226999999974
 21
467.07456950000005
  0
LINE
  8
_0-0_0
  6
CONTINUOUS
 62
    7
 10
71.512741000000005
 20
466.63090550000004
 11
71.329422000000022
 21
466.84141550000004
  0
LINE
  8
_0-0_0
  6
CONTINUOUS
 62
    7
 10
71.608520999999996
 20
466.84605450000004
 11
71.329422000000022
 21
466.84141550000004
  0
LINE
  8
_0-0_0
  6
CONTINUOUS
 62
    7
 10
71.439956999999993
 20
466.40690649999999
 11
71.235656999999946
 21
466.59712249999995
  0
LINE
  8
_0-0_0
  6
CONTINUOUS
 62
    7
 10
71.512741000000005
 20
466.63090550000004
 11
71.235656999999946
 21
466.59712249999995
  0
LINE
  8
_0-0_0
  6
CONTINUOUS
 62
    7
 10
71.390990999999985
 20
466.17655950000005
 11
71.167922999999973
 21
466.34434550000003
  0
LINE
  8
_0-0_0
  6
CONTINUOUS
 62
    7
 10
71.439956999999993
 20
466.40690649999999
 11
71.167922999999973
 21
466.34434550000003
  0
LINE
  8
_0-0_0
  6
CONTINUOUS
 62
    7
 10
71.390990999999985
 20
466.17655950000005
 11
71.126983999999993
 21
466.0858915
  0
LINE
  8
_0-0_0
  6
CONTINUOUS
 62
    7
 10
71.366378999999995
 20
465.94233750000001
 11
71.126983999999993
 21
466.0858915
  0
LINE
  8
_0-0_0
  6
CONTINUOUS
 62
    7
 10
71.366378999999995
 20
465.70680249999998
 11
71.113296999999989
 21
465.82456950000005
  0
LINE
  8
_0-0_0
  6
CONTINUOUS
 62
    7
 10
71.366378999999995
 20
465.94233750000001
 11
71.113296999999989
 21
465.82456950000005
  0
LINE
  8
_0-0_0
  6
CONTINUOUS
 62
    7
 10
71.390990999999985
 20
465.47258050000005
 11
71.126983999999993
 21
465.56324749999999
  0
LINE
  8
_0-0_0
  6
CONTINUOUS
 62
    7
 10
71.366378999999995
 20
465.70680249999998
 11
71.126983999999993
 21
465.56324749999999
  0
LINE
  8
_0-0_0
  6
CONTINUOUS
 62
    7
 10
71.439956999999993
 20
465.2422335
 11
71.167922999999973
 21
465.30479449999996
  0
LINE
  8
_0-0_0
  6
CONTINUOUS
 62
    7
 10
71.390990999999985
 20
465.47258050000005
 11
71.167922999999973
 21
465.30479449999996
  0
LINE
  8
_0-0_0
  6
CONTINUOUS
 62
    7
 10
71.512741000000005
 20
465.01823450000006
 11
71.235656999999946
 21
465.05201750000003
  0
LINE
  8
_0-0_0
  6
CONTINUOUS
 62
    7
 10
71.439956999999993
 20
465.2422335
 11
71.235656999999946
 21
465.05201750000003
  0
LINE
  8
_0-0_0
  6
CONTINUOUS
 62
    7
 10
71.608520999999996
 20
464.80308550000007
 11
71.329422000000022
 21
464.80772450000006
  0
LINE
  8
_0-0_0
  6
CONTINUOUS
 62
    7
 10
71.512741000000005
 20
465.01823450000006
 11
71.329422000000022
 21
464.80772450000006
  0
LINE
  8
_0-0_0
  6
CONTINUOUS
 62
    7
 10
71.726287999999954
 20
464.59913649999999
 11
71.448226999999974
 21
464.57456950000005
  0
LINE
  8
_0-0_0
  6
CONTINUOUS
 62
    7
 10
71.608520999999996
 20
464.80308550000007
 11
71.448226999999974
 21
464.57456950000005
  0
LINE
  8
_0-0_0
  6
CONTINUOUS
 62
    7
 10
71.864715999999987
 20
464.40858449999996
 11
71.590743999999972
 21
464.35511750000001
  0
LINE
  8
_0-0_0
  6
CONTINUOUS
 62
    7
 10
71.726287999999954
 20
464.59913649999999
 11
71.590743999999972
 21
464.35511750000001
  0
LINE
  8
_0-0_0
  6
CONTINUOUS
 62
    7
 10
72.022307999999953
 20
464.23359649999998
 11
71.755431999999985
 21
464.15174850000005
  0
LINE
  8
_0-0_0
  6
CONTINUOUS
 62
    7
 10
71.864715999999987
 20
464.40858449999996
 11
71.755431999999985
 21
464.15174850000005
  0
LINE
  8
_0-0_0
  6
CONTINUOUS
 62
    7
 10
72.197326999999973
 20
464.07600450000007
 11
71.940459999999973
 21
463.96672050000006
  0
LINE
  8
_0-0_0
  6
CONTINUOUS
 62
    7
 10
72.022307999999953
 20
464.23359649999998
 11
71.940459999999973
 21
463.96672050000006
  0
LINE
  8
_0-0_0
  6
CONTINUOUS
 62
    7
 10
72.387847999999963
 20
463.93754550000006
 11
72.143828999999982
 21
463.80201750000003
  0
LINE
  8
_0-0_0
  6
CONTINUOUS
 62
    7
 10
72.197326999999973
 20
464.07600450000007
 11
72.143828999999982
 21
463.80201750000003
  0
LINE
  8
_0-0_0
  6
CONTINUOUS
 62
    7
 10
72.591812000000004
 20
463.81980950000002
 11
72.363296999999989
 21
463.65950050000004
  0
LINE
  8
_0-0_0
  6
CONTINUOUS
 62
    7
 10
72.387847999999963
 20
463.93754550000006
 11
72.363296999999989
 21
463.65950050000004
  0
LINE
  8
_0-0_0
  6
CONTINUOUS
 62
    7
 10
72.806961000000001
 20
463.72401450000007
 11
72.596451000000002
 21
463.54069549999997
  0
LINE
  8
_0-0_0
  6
CONTINUOUS
 62
    7
 10
72.591812000000004
 20
463.81980950000002
 11
72.596451000000002
 21
463.54069549999997
  0
LINE
  8
_0-0_0
  6
CONTINUOUS
 62
    7
 10
73.030944999999974
 20
463.6512295
 11
72.840743999999972
 21
463.44691450000005
  0
LINE
  8
_0-0_0
  6
CONTINUOUS
 62
    7
 10
72.806961000000001
 20
463.72401450000007
 11
72.840743999999972
 21
463.44691450000005
  0
LINE
  8
_0-0_0
  6
CONTINUOUS
 62
    7
 10
73.261306999999988
 20
463.60227950000001
 11
73.093505999999991
 21
463.37919650000003
  0
LINE
  8
_0-0_0
  6
CONTINUOUS
 62
    7
 10
73.030944999999974
 20
463.6512295
 11
73.093505999999991
 21
463.37919650000003
  0
LINE
  8
_0-0_0
  6
CONTINUOUS
 62
    7
 10
73.495528999999976
 20
463.5776525
 11
73.351974999999982
 21
463.33827250000002
  0
LINE
  8
_0-0_0
  6
CONTINUOUS
 62
    7
 10
73.261306999999988
 20
463.60227950000001
 11
73.351974999999982
 21
463.33827250000002
  0
LINE
  8
_0-0_0
  6
CONTINUOUS
 62
    7
 10
73.731048999999985
 20
463.5776525
 11
73.613296999999989
 21
463.32456950000005
  0
LINE
  8
_0-0_0
  6
CONTINUOUS
 62
    7
 10
73.495528999999976
 20
463.5776525
 11
73.613296999999989
 21
463.32456950000005
  0
LINE
  8
_0-0_0
  6
CONTINUOUS
 62
    7
 10
73.965270999999973
 20
463.60227950000001
 11
73.874618999999996
 21
463.33827250000002
  0
LINE
  8
_0-0_0
  6
CONTINUOUS
 62
    7
 10
73.731048999999985
 20
463.5776525
 11
73.874618999999996
 21
463.33827250000002
  0
LINE
  8
_0-0_0
  6
CONTINUOUS
 62
    7
 10
74.195632999999987
 20
463.6512295
 11
74.13307199999997
 21
463.37919650000003
  0
LINE
  8
_0-0_0
  6
CONTINUOUS
 62
    7
 10
73.965270999999973
 20
463.60227950000001
 11
74.13307199999997
 21
463.37919650000003
  0
LINE
  8
_0-0_0
  6
CONTINUOUS
 62
    7
 10
74.419617000000017
 20
463.72401450000007
 11
74.385833999999988
 21
463.44691450000005
  0
LINE
  8
_0-0_0
  6
CONTINUOUS
 62
    7
 10
74.195632999999987
 20
463.6512295
 11
74.385833999999988
 21
463.44691450000005
  0
LINE
  8
_0-0_0
  6
CONTINUOUS
 62
    7
 10
74.634766000000013
 20
463.81980950000002
 11
74.630127000000016
 21
463.54069549999997
  0
LINE
  8
_0-0_0
  6
CONTINUOUS
 62
    7
 10
74.419617000000017
 20
463.72401450000007
 11
74.630127000000016
 21
463.54069549999997
  0
LINE
  8
_0-0_0
  6
CONTINUOUS
 62
    7
 10
74.754302999999993
 20
463.73594650000007
 11
74.863296999999989
 21
463.65950050000004
  0
LINE
  8
_0-0_0
  6
CONTINUOUS
 62
    7
 10
74.634766000000013
 20
463.81980950000002
 11
74.754302999999993
 21
463.73594650000007
  0
LINE
  8
_0-0_0
  6
CONTINUOUS
 62
    7
 10
74.838729999999998
 20
463.93754550000006
 11
74.863296999999989
 21
463.65950050000004
  0
LINE
  8
_0-0_0
  6
CONTINUOUS
 62
    7
 10
75.029266000000007
 20
464.07600450000007
 11
75.082747999999981
 21
463.80201750000003
  0
LINE
  8
_0-0_0
  6
CONTINUOUS
 62
    7
 10
74.838729999999998
 20
463.93754550000006
 11
75.082747999999981
 21
463.80201750000003
  0
LINE
  8
_0-0_0
  6
CONTINUOUS
 62
    7
 10
75.204285000000027
 20
464.23359649999998
 11
75.286117999999988
 21
463.96672050000006
  0
LINE
  8
_0-0_0
  6
CONTINUOUS
 62
    7
 10
75.029266000000007
 20
464.07600450000007
 11
75.286117999999988
 21
463.96672050000006
  0
LINE
  8
_0-0_0
  6
CONTINUOUS
 62
    7
 10
75.361876999999993
 20
464.40858449999996
 11
75.471160999999995
 21
464.15174850000005
  0
LINE
  8
_0-0_0
  6
CONTINUOUS
 62
    7
 10
75.204285000000027
 20
464.23359649999998
 11
75.471160999999995
 21
464.15174850000005
  0
LINE
  8
_0-0_0
  6
CONTINUOUS
 62
    7
 10
75.500305000000026
 20
464.59913649999999
 11
75.635833999999988
 21
464.35511750000001
  0
LINE
  8
_0-0_0
  6
CONTINUOUS
 62
    7
 10
75.361876999999993
 20
464.40858449999996
 11
75.635833999999988
 21
464.35511750000001
  0
LINE
  8
_0-0_0
  6
CONTINUOUS
 62
    7
 10
75.618057000000022
 20
464.80308550000007
 11
75.778350999999986
 21
464.57456950000005
  0
LINE
  8
_0-0_0
  6
CONTINUOUS
 62
    7
 10
75.500305000000026
 20
464.59913649999999
 11
75.778350999999986
 21
464.57456950000005
  0
LINE
  8
_0-0_0
  6
CONTINUOUS
 62
    7
 10
75.713851999999974
 20
465.01823450000006
 11
75.897155999999995
 21
464.80772450000006
  0
LINE
  8
_0-0_0
  6
CONTINUOUS
 62
    7
 10
75.618057000000022
 20
464.80308550000007
 11
75.897155999999995
 21
464.80772450000006
  0
LINE
  8
_0-0_0
  6
CONTINUOUS
 62
    7
 10
75.786620999999968
 20
465.2422335
 11
75.990935999999977
 21
465.05201750000003
  0
LINE
  8
_0-0_0
  6
CONTINUOUS
 62
    7
 10
75.713851999999974
 20
465.01823450000006
 11
75.990935999999977
 21
465.05201750000003
  0
LINE
  8
_0-0_0
  6
CONTINUOUS
 62
    7
 10
75.835586999999975
 20
465.47258050000005
 11
76.058654999999987
 21
465.30479449999996
  0
LINE
  8
_0-0_0
  6
CONTINUOUS
 62
    7
 10
75.786620999999968
 20
465.2422335
 11
76.058654999999987
 21
465.30479449999996
  0
LINE
  8
_0-0_0
  6
CONTINUOUS
 62
    7
 10
75.860213999999985
 20
465.70680249999998
 11
76.099594000000025
 21
465.56324749999999
  0
LINE
  8
_0-0_0
  6
CONTINUOUS
 62
    7
 10
75.835586999999975
 20
465.47258050000005
 11
76.099594000000025
 21
465.56324749999999
  0
LINE
  8
_0-0_0
  6
CONTINUOUS
 62
    7
 10
75.860213999999985
 20
465.94233750000001
 11
76.113296999999989
 21
465.82456950000005
  0
LINE
  8
_0-0_0
  6
CONTINUOUS
 62
    7
 10
75.860213999999985
 20
465.70680249999998
 11
76.113296999999989
 21
465.82456950000005
  0
LINE
  8
_0-0_0
  6
CONTINUOUS
 62
    7
 10
75.835586999999975
 20
466.17655950000005
 11
76.099594000000025
 21
466.0858915
  0
LINE
  8
_0-0_0
  6
CONTINUOUS
 62
    7
 10
75.860213999999985
 20
465.94233750000001
 11
76.099594000000025
 21
466.0858915
  0
LINE
  8
_0-0_0
  6
CONTINUOUS
 62
    7
 10
75.786620999999968
 20
466.40690649999999
 11
76.058654999999987
 21
466.34434550000003
  0
LINE
  8
_0-0_0
  6
CONTINUOUS
 62
    7
 10
75.835586999999975
 20
466.17655950000005
 11
76.058654999999987
 21
466.34434550000003
  0
LINE
  8
_0-0_0
  6
CONTINUOUS
 62
    7
 10
75.713851999999974
 20
466.63090550000004
 11
75.990935999999977
 21
466.59712249999995
  0
LINE
  8
_0-0_0
  6
CONTINUOUS
 62
    7
 10
75.786620999999968
 20
466.40690649999999
 11
75.990935999999977
 21
466.59712249999995
  0
LINE
  8
_0-0_0
  6
CONTINUOUS
 62
    7
 10
75.618057000000022
 20
466.84605450000004
 11
75.897155999999995
 21
466.84141550000004
  0
LINE
  8
_0-0_0
  6
CONTINUOUS
 62
    7
 10
75.713851999999974
 20
466.63090550000004
 11
75.897155999999995
 21
466.84141550000004
  0
CIRCLE
  8
_0-0_0
  6
CONTINUOUS
 62
    7
 10
85.613296999999989
 20
482.42457550000006
 40
2
  0
CIRCLE
  8
_0-0_0
  6
CONTINUOUS
 62
    7
 10
73.613296999999989
 20
465.82456950000005
 40
2
  0
LINE
  8
_0-0_0
  6
CONTINUOUS
 62
    7
 10
86.195403999999996
 20
481.42457550000006
 11
85.031188999999983
 21
481.42457550000006
  0
LINE
  8
_0-0_0
  6
CONTINUOUS
 62
    7
 10
85.031188999999983
 20
481.42457550000006
 11
84.46328699999998
 21
482.42457550000006
  0
LINE
  8
_0-0_0
  6
CONTINUOUS
 62
    7
 10
84.46328699999998
 20
482.42457550000006
 11
85.031188999999983
 21
483.42457550000006
  0
LINE
  8
_0-0_0
  6
CONTINUOUS
 62
    7
 10
85.031188999999983
 20
483.42457550000006
 11
86.195403999999996
 21
483.42457550000006
  0
LINE
  8
_0-0_0
  6
CONTINUOUS
 62
    7
 10
86.195403999999996
 20
483.42457550000006
 11
86.763289999999984
 21
482.42457550000006
  0
LINE
  8
_0-0_0
  6
CONTINUOUS
 62
    7
 10
86.763289999999984
 20
482.42457550000006
 11
86.195403999999996
 21
481.42457550000006
  0
CIRCLE
  8
_0-0_0
  6
CONTINUOUS
 62
    7
 10
79.613296999999989
 20
474.12455750000004
 40
5
  0
LINE
  8
_0-0_0
  6
CONTINUOUS
 62
    7
 10
74.195403999999996
 20
464.82456950000005
 11
73.031188999999983
 21
464.82456950000005
  0
LINE
  8
_0-0_0
  6
CONTINUOUS
 62
    7
 10
73.031188999999983
 20
464.82456950000005
 11
72.46328699999998
 21
465.82456950000005
  0
LINE
  8
_0-0_0
  6
CONTINUOUS
 62
    7
 10
72.46328699999998
 20
465.82456950000005
 11
73.031188999999983
 21
466.82456950000005
  0
LINE
  8
_0-0_0
  6
CONTINUOUS
 62
    7
 10
73.031188999999983
 20
466.82456950000005
 11
74.195403999999996
 21
466.82456950000005
  0
LINE
  8
_0-0_0
  6
CONTINUOUS
 62
    7
 10
74.195403999999996
 20
466.82456950000005
 11
74.763289999999984
 21
465.82456950000005
  0
LINE
  8
_0-0_0
  6
CONTINUOUS
 62
    7
 10
74.763289999999984
 20
465.82456950000005
 11
74.195403999999996
 21
464.82456950000005
  0
CIRCLE
  8
_0-0_0
  6
CONTINUOUS
 62
    7
 10
79.613296999999989
 20
474.12455750000004
 40
4.5381200000000002
  0
CIRCLE
  8
_0-0_0
  6
CONTINUOUS
 62
    7
 10
79.613296999999989
 20
474.12455750000004
 40
4
  0
LINE
  8
_0-0_0
  6
CONTINUOUS
 62
    7
 10
71.48071299999998
 20
484.07987950000006
 11
70.813293999999985
 21
484.07987950000006
  0
ARC
  8
_0-0_0
  6
CONTINUOUS
 62
    7
 10
87.613296999999989
 20
484.54957550000006
 40
0.2
 50
179.94055499999999
 51
269.99997000000002
  0
ARC
  8
_0-0_0
  6
CONTINUOUS
 62
    7
 10
86.113296999999989
 20
465.32456950000005
 40
2
 50
269.99999700000001
 51
273.84026499999999
  0
ARC
  8
_0-0_0
  6
CONTINUOUS
 62
    7
 10
73.113296999999989
 20
482.92457550000006
 40
2
 50
90.000003000000007
 51
93.840255999999997
  0
LINE
  8
_0-0_0
  6
CONTINUOUS
 62
    7
 10
87.913299999999992
 20
484.34956350000004
 11
87.613296999999989
 21
484.34956350000004
  0
LINE
  8
_0-0_0
  6
CONTINUOUS
 62
    7
 10
87.913299999999992
 20
487.29957550000006
 11
87.613296999999989
 21
487.29957550000006
  0
ARC
  8
_0-0_0
  6
CONTINUOUS
 62
    7
 10
71.613296999999989
 20
484.54963650000002
 40
0.2
 50
270.00002499999994
 51
0.0594439999999606
  0
ARC
  8
_0-0_0
  6
CONTINUOUS
 62
    7
 10
87.913253999999995
 20
484.54960649999998
 40
0.200055
 50
270.00964199999999
 51
1.3705509999999435
  0
ARC
  8
_0-0_0
  6
CONTINUOUS
 62
    7
 10
87.913283999999976
 20
487.09956350000004
 40
0.2
 50
359.91222800000003
 51
89.999948000000003
  0
LINE
  8
_0-0_0
  6
CONTINUOUS
 62
    7
 10
71.313293999999985
 20
484.34965550000004
 11
71.613296999999989
 21
484.34965550000004
  0
ARC
  8
_0-0_0
  6
CONTINUOUS
 62
    7
 10
71.313323999999966
 20
484.54969849999998
 40
0.200055
 50
178.629446
 51
269.99035300000003
  0
LINE
  8
_0-0_0
  6
CONTINUOUS
 62
    7
 10
88.313293999999985
 20
489.82463050000001
 11
88.313293999999985
 21
503.02464350000002
  0
ARC
  8
_0-0_0
  6
CONTINUOUS
 62
    7
 10
87.813293999999985
 20
489.82463050000001
 40
0.5
 50
269.99999700000001
 51
0
  0
ARC
  8
_0-0_0
  6
CONTINUOUS
 62
    7
 10
88.254714999999976
 20
503.22465550000004
 40
0.1
 50
135
 51
225
  0
LINE
  8
_0-0_0
  6
CONTINUOUS
 62
    7
 10
88.184005999999954
 20
503.15394649999996
 11
88.313293999999985
 21
503.02464350000002
  0
LINE
  8
_0-0_0
  6
CONTINUOUS
 62
    7
 10
87.813293999999985
 20
489.32463050000001
 11
85.913299999999992
 21
489.32463050000001
  0
ARC
  8
_0-0_0
  6
CONTINUOUS
 62
    7
 10
85.913299999999992
 20
489.82463050000001
 40
0.5
 50
233.12990600000001
 51
269.99999700000001
  0
ARC
  8
_0-0_0
  6
CONTINUOUS
 62
    7
 10
73.21328699999998
 20
489.82463050000001
 40
0.5
 50
269.99999700000001
 51
306.87009999999998
  0
LINE
  8
_0-0_0
  6
CONTINUOUS
 62
    7
 10
73.21328699999998
 20
489.32463050000001
 11
71.313293999999985
 21
489.32463050000001
  0
ARC
  8
_0-0_0
  6
CONTINUOUS
 62
    7
 10
71.313293999999985
 20
489.82463050000001
 40
0.5
 50
180.00000900000003
 51
269.99999700000001
  0
LINE
  8
_0-0_0
  6
CONTINUOUS
 62
    7
 10
70.813293999999985
 20
499.2596585
 11
70.813293999999985
 21
489.82463050000001
  0
LINE
  8
_0-0_0
  6
CONTINUOUS
 62
    7
 10
70.813293999999985
 20
499.2596585
 11
71.513289999999984
 21
499.2596585
  0
LINE
  8
_0-0_0
  6
CONTINUOUS
 62
    7
 10
87.513289999999984
 20
517.82463050000001
 11
87.719330000000014
 21
517.82463050000001
  0
LINE
  8
_0-0_0
  6
CONTINUOUS
 62
    7
 10
87.719330000000014
 20
517.82463050000001
 11
88.313293999999985
 21
517.23066749999998
  0
LINE
  8
_0-0_0
  6
CONTINUOUS
 62
    7
 10
88.313293999999985
 20
512.22465550000004
 11
88.313293999999985
 21
517.23066749999998
  0
LINE
  8
_0-0_0
  6
CONTINUOUS
 62
    7
 10
88.184005999999954
 20
512.09535249999999
 11
88.313293999999985
 21
512.22465550000004
  0
ARC
  8
_0-0_0
  6
CONTINUOUS
 62
    7
 10
88.254714999999976
 20
512.02464350000002
 40
0.1
 50
135
 51
225
  0
LINE
  8
_0-0_0
  6
CONTINUOUS
 62
    7
 10
88.184005999999954
 20
511.95393350000006
 11
88.313293999999985
 21
511.82463050000001
  0
LINE
  8
_0-0_0
  6
CONTINUOUS
 62
    7
 10
88.313293999999985
 20
511.12464950000003
 11
88.313293999999985
 21
511.82463050000001
  0
LINE
  8
_0-0_0
  6
CONTINUOUS
 62
    7
 10
88.184005999999954
 20
510.99534649999998
 11
88.313293999999985
 21
511.12464950000003
  0
ARC
  8
_0-0_0
  6
CONTINUOUS
 62
    7
 10
88.254714999999976
 20
510.92463650000002
 40
0.1
 50
135
 51
225
  0
LINE
  8
_0-0_0
  6
CONTINUOUS
 62
    7
 10
88.184005999999954
 20
510.85392750000005
 11
88.313293999999985
 21
510.72465550000004
  0
LINE
  8
_0-0_0
  6
CONTINUOUS
 62
    7
 10
88.313293999999985
 20
510.02464350000002
 11
88.313293999999985
 21
510.72465550000004
  0
LINE
  8
_0-0_0
  6
CONTINUOUS
 62
    7
 10
88.184005999999954
 20
509.89534049999997
 11
88.313293999999985
 21
510.02464350000002
  0
ARC
  8
_0-0_0
  6
CONTINUOUS
 62
    7
 10
88.254714999999976
 20
509.82463050000001
 40
0.1
 50
135
 51
225
  0
LINE
  8
_0-0_0
  6
CONTINUOUS
 62
    7
 10
88.184005999999954
 20
509.75392150000005
 11
88.313293999999985
 21
509.62464950000003
  0
LINE
  8
_0-0_0
  6
CONTINUOUS
 62
    7
 10
88.313293999999985
 20
508.92463650000002
 11
88.313293999999985
 21
509.62464950000003
  0
LINE
  8
_0-0_0
  6
CONTINUOUS
 62
    7
 10
88.184005999999954
 20
508.79536450000001
 11
88.313293999999985
 21
508.92463650000002
  0
ARC
  8
_0-0_0
  6
CONTINUOUS
 62
    7
 10
88.254714999999976
 20
508.72465550000004
 40
0.1
 50
135
 51
225
  0
LINE
  8
_0-0_0
  6
CONTINUOUS
 62
    7
 10
88.184005999999954
 20
508.65394649999996
 11
88.313293999999985
 21
508.52464350000002
  0
LINE
  8
_0-0_0
  6
CONTINUOUS
 62
    7
 10
88.313293999999985
 20
507.82463050000001
 11
88.313293999999985
 21
508.52464350000002
  0
LINE
  8
_0-0_0
  6
CONTINUOUS
 62
    7
 10
88.184005999999954
 20
507.6953585
 11
88.313293999999985
 21
507.82463050000001
  0
ARC
  8
_0-0_0
  6
CONTINUOUS
 62
    7
 10
88.254714999999976
 20
507.62464950000003
 40
0.1
 50
135
 51
225
  0
LINE
  8
_0-0_0
  6
CONTINUOUS
 62
    7
 10
88.184005999999954
 20
507.55393949999996
 11
88.313293999999985
 21
507.42463650000002
  0
LINE
  8
_0-0_0
  6
CONTINUOUS
 62
    7
 10
88.313293999999985
 20
506.72465550000004
 11
88.313293999999985
 21
507.42463650000002
  0
LINE
  8
_0-0_0
  6
CONTINUOUS
 62
    7
 10
88.184005999999954
 20
506.59535249999999
 11
88.313293999999985
 21
506.72465550000004
  0
ARC
  8
_0-0_0
  6
CONTINUOUS
 62
    7
 10
88.254714999999976
 20
506.52464350000002
 40
0.1
 50
135
 51
225
  0
LINE
  8
_0-0_0
  6
CONTINUOUS
 62
    7
 10
88.184005999999954
 20
506.45393350000006
 11
88.313293999999985
 21
506.32463050000001
  0
LINE
  8
_0-0_0
  6
CONTINUOUS
 62
    7
 10
88.313293999999985
 20
505.62464950000003
 11
88.313293999999985
 21
506.32463050000001
  0
LINE
  8
_0-0_0
  6
CONTINUOUS
 62
    7
 10
88.184005999999954
 20
505.49534649999998
 11
88.313293999999985
 21
505.62464950000003
  0
ARC
  8
_0-0_0
  6
CONTINUOUS
 62
    7
 10
88.254714999999976
 20
505.42463650000002
 40
0.1
 50
135
 51
225
  0
LINE
  8
_0-0_0
  6
CONTINUOUS
 62
    7
 10
88.184005999999954
 20
505.35392750000005
 11
88.313293999999985
 21
505.22465550000004
  0
LINE
  8
_0-0_0
  6
CONTINUOUS
 62
    7
 10
88.313293999999985
 20
504.52464350000002
 11
88.313293999999985
 21
505.22465550000004
  0
LINE
  8
_0-0_0
  6
CONTINUOUS
 62
    7
 10
88.184005999999954
 20
504.39534049999997
 11
88.313293999999985
 21
504.52464350000002
  0
ARC
  8
_0-0_0
  6
CONTINUOUS
 62
    7
 10
88.254714999999976
 20
504.32466150000005
 40
0.1
 50
135
 51
225
  0
LINE
  8
_0-0_0
  6
CONTINUOUS
 62
    7
 10
88.184005999999954
 20
504.25392150000005
 11
88.313293999999985
 21
504.12464950000003
  0
LINE
  8
_0-0_0
  6
CONTINUOUS
 62
    7
 10
88.313293999999985
 20
503.42463650000002
 11
88.313293999999985
 21
504.12464950000003
  0
LINE
  8
_0-0_0
  6
CONTINUOUS
 62
    7
 10
88.184005999999954
 20
503.29536450000001
 11
88.313293999999985
 21
503.42463650000002
  0
LINE
  8
_0-0_0
  6
CONTINUOUS
 62
    7
 10
88.313293999999985
 20
495.32466150000005
 11
88.413299999999992
 21
495.32466150000005
  0
LINE
  8
_0-0_0
  6
CONTINUOUS
 62
    7
 10
88.413299999999992
 20
494.82466150000005
 11
88.413299999999992
 21
495.32466150000005
  0
LINE
  8
_0-0_0
  6
CONTINUOUS
 62
    7
 10
88.413299999999992
 20
494.82466150000005
 11
88.413299999999992
 21
490.82463050000001
  0
LINE
  8
_0-0_0
  6
CONTINUOUS
 62
    7
 10
88.313293999999985
 20
490.32463050000001
 11
88.413299999999992
 21
490.32463050000001
  0
LINE
  8
_0-0_0
  6
CONTINUOUS
 62
    7
 10
88.413299999999992
 20
490.32463050000001
 11
88.413299999999992
 21
490.82463050000001
  0
LINE
  8
_0-0_0
  6
CONTINUOUS
 62
    7
 10
70.813293999999985
 20
499.32466150000005
 11
70.813293999999985
 21
499.2596585
  0
LINE
  8
_0-0_0
  6
CONTINUOUS
 62
    7
 10
87.313293999999985
 20
518.12464950000003
 11
87.313293999999985
 21
518.02464350000002
  0
LINE
  8
_0-0_0
  6
CONTINUOUS
 62
    7
 10
70.71328699999998
 20
499.32466150000005
 11
71.513289999999984
 21
499.32466150000005
  0
LINE
  8
_0-0_0
  6
CONTINUOUS
 62
    7
 10
71.21328699999998
 20
521.12464950000003
 11
71.21328699999998
 21
516.90309149999996
  0
LINE
  8
_0-0_0
  6
CONTINUOUS
 62
    7
 10
72.313293999999985
 20
521.12464950000003
 11
72.313293999999985
 21
518.12464950000003
  0
LINE
  8
_0-0_0
  6
CONTINUOUS
 62
    7
 10
71.21328699999998
 20
516.90309149999996
 11
71.513289999999984
 21
516.90309149999996
  0
ARC
  8
_0-0_0
  6
CONTINUOUS
 62
    7
 10
74.813293999999985
 20
518.12464950000003
 40
2.5
 50
90.000003000000007
 51
180.00000900000001
  0
ARC
  8
_0-0_0
  6
CONTINUOUS
 62
    7
 10
84.813293999999985
 20
518.12464950000003
 40
2.5
 50
0
 51
90.000003000000007
  0
LINE
  8
_0-0_0
  6
CONTINUOUS
 62
    7
 10
72.313293999999985
 20
518.02464350000002
 11
72.313293999999985
 21
518.12464950000003
  0
LINE
  8
_0-0_0
  6
CONTINUOUS
 62
    7
 10
84.813293999999985
 20
520.62464950000003
 11
74.813293999999985
 21
520.62464950000003
  0
LINE
  8
_0-0_0
  6
CONTINUOUS
 62
    7
 10
88.513289999999984
 20
490.82463050000001
 11
88.513289999999984
 21
490.95500149999998
  0
LINE
  8
_0-0_0
  6
CONTINUOUS
 62
    7
 10
88.513289999999984
 20
494.45500149999998
 11
88.513289999999984
 21
490.95500149999998
  0
LINE
  8
_0-0_0
  6
CONTINUOUS
 62
    7
 10
88.413299999999992
 20
494.72465550000004
 11
88.513289999999984
 21
494.72465550000004
  0
LINE
  8
_0-0_0
  6
CONTINUOUS
 62
    7
 10
88.513289999999984
 20
494.45500149999998
 11
88.513289999999984
 21
494.72465550000004
  0
LINE
  8
_0-0_0
  6
CONTINUOUS
 62
    7
 10
88.113296999999989
 20
517.22465550000004
 11
87.113296999999989
 21
518.22465550000004
  0
LINE
  8
_0-0_0
  6
CONTINUOUS
 62
    7
 10
88.113296999999989
 20
489.42463650000002
 11
88.113296999999989
 21
517.22465550000004
  0
LINE
  8
_0-0_0
  6
CONTINUOUS
 62
    7
 10
71.513289999999984
 20
489.42463650000002
 11
88.113296999999989
 21
489.42463650000002
  0
LINE
  8
_0-0_0
  6
CONTINUOUS
 62
    7
 10
71.513289999999984
 20
517.22465550000004
 11
71.513289999999984
 21
489.42463650000002
  0
LINE
  8
_0-0_0
  6
CONTINUOUS
 62
    7
 10
70.71328699999998
 20
499.32466150000005
 11
70.71328699999998
 21
516.13746649999996
  0
LINE
  8
_0-0_0
  6
CONTINUOUS
 62
    7
 10
70.71328699999998
 20
520.62464950000003
 11
70.71328699999998
 21
516.13746649999996
  0
ARC
  8
_0-0_0
  6
CONTINUOUS
 62
    7
 10
102.16503899999998
 20
496.14247150000006
 40
37.269466000000001
 50
146.14857699999999
 51
147.55443399999999
  0
ARC
  8
_0-0_0
  6
CONTINUOUS
 62
    7
 10
84.544250999999974
 20
517.82463050000001
 40
2.6000000000000001
 50
8.8498839999999994
 51
90.000002999999992
  0
LINE
  8
_0-0_0
  6
CONTINUOUS
 62
    7
 10
84.544250999999974
 20
520.42463650000002
 11
75.082335999999998
 21
520.42463650000002
  0
ARC
  8
_0-0_0
  6
CONTINUOUS
 62
    7
 10
75.082335999999998
 20
517.82466150000005
 40
2.6000000000000001
 50
90.000003000000007
 51
171.150115
  0
LINE
  8
_0-0_0
  6
CONTINUOUS
 62
    7
 10
71.513289999999984
 20
517.22465550000004
 11
72.513289999999984
 21
518.22465550000004
  0
LINE
  8
_0-0_0
  6
CONTINUOUS
 62
    7
 10
87.113296999999989
 20
516.81044050000003
 11
88.113296999999989
 21
517.22465550000004
  0
ARC
  8
_0-0_0
  6
CONTINUOUS
 62
    7
 10
81.570754999999963
 20
529.01075750000007
 40
12.126564999999999
 50
292.155034
 51
297.19674500000002
  0
LINE
  8
_0-0_0
  6
CONTINUOUS
 62
    7
 10
87.113296999999989
 20
490.42463650000002
 11
88.113296999999989
 21
489.42463650000002
  0
LINE
  8
_0-0_0
  6
CONTINUOUS
 62
    7
 10
72.513289999999984
 20
490.42463650000002
 11
71.513289999999984
 21
489.42463650000002
  0
LINE
  8
_0-0_0
  6
CONTINUOUS
 62
    7
 10
72.513289999999984
 20
516.81044050000003
 11
71.513289999999984
 21
517.22465550000004
  0
ARC
  8
_0-0_0
  6
CONTINUOUS
 62
    7
 10
78.055832000000009
 20
529.01075750000007
 40
12.126567
 50
242.80325699999997
 51
247.84494000000001
  0
CIRCLE
  8
_0-0_0
  6
CONTINUOUS
 62
    7
 10
79.813293999999985
 20
497.62464950000003
 40
2.0670000000000002
  0
LINE
  8
_0-0_0
  6
CONTINUOUS
 62
    7
 10
72.313293999999985
 20
521.12464950000003
 11
71.21328699999998
 21
521.12464950000003
  0
LINE
  8
_0-0_0
  6
CONTINUOUS
 62
    7
 10
88.413299999999992
 20
490.82463050000001
 11
88.513289999999984
 21
490.82463050000001
  0
LINE
  8
_0-0_0
  6
CONTINUOUS
 62
    7
 10
88.413299999999992
 20
490.82463050000001
 11
88.513289999999984
 21
490.82463050000001
  0
LINE
  8
_0-0_0
  6
CONTINUOUS
 62
    7
 10
70.71328699999998
 20
520.62464950000003
 11
71.21328699999998
 21
521.12464950000003
  0
ENDSEC
  0
EOF
