  0
SECTION
  2
HEADER
  9
$ACADVER
  1
AC1009
  9
$INSBASE
 10
0
 20
0
 30
0
  9
$EXTMIN
 10
0
 20
0
  9
$EXTMAX
 10
841
 20
594
  9
$LIMMIN
 10
0
 20
0
  9
$LIMMAX
 10
841
 20
594
  9
$LTSCALE
 40
1
  0
ENDSEC
  0
SECTION
  2
TABLES
  0
TABLE
  2
LTYPE
 70
     9
  0
LTYPE
  2
CONTINUOUS
 70
    64
  3
実線
 72
    65
 73
     0
 40
0.0
  0
LTYPE
  2
DASHED1
 70
    64
  3
--  --  --  --  --  --  --  --  
 72
    65
 73
     2
 40
2.5
 49
1.25
 49
-1.25
  0
LTYPE
  2
DASHED2
 70
    64
  3
----    ----    ----    ----    
 72
    65
 73
     2
 40
5.0
 49
2.5
 49
-2.5
  0
LTYPE
  2
DASHED3
 70
    64
  3
------  ------  ------  ------  
 72
    65
 73
     2
 40
5.0
 49
3.75
 49
-1.25
  0
LTYPE
  2
CENTER1
 70
    64
  3
----- - ----- - ----- - ----- - 
 72
    65
 73
     4
 40
10.0
 49
6.25
 49
-1.25
 49
1.25
 49
-1.25
  0
LTYPE
  2
CENTER2
 70
    64
  3
----------  --  ----------  --  
 72
    65
 73
     4
 40
20.0
 49
12.5
 49
-2.5
 49
2.5
 49
-2.5
  0
LTYPE
  2
PHANTOM1
 70
    64
  3
--- - - --- - - --- - - --- - - 
 72
    65
 73
     6
 40
10.0
 49
3.25
 49
-1.25
 49
1.25
 49
-1.25
 49
1.25
 49
-1.25
  0
LTYPE
  2
PHANTOM2
 70
    64
  3
--------  -  -  --------  -  -  
 72
    65
 73
     6
 40
20.0
 49
10.0
 49
-2.5
 49
1.25
 49
-2.5
 49
1.25
 49
-2.5
  0
LTYPE
  2
DOT
 70
    64
  3
-   -   -   -   -   -   -   -   
 72
    65
 73
     2
 40
2.5
 49
0.625
 49
-1.875
  0
LTYPE
  2
DUMMY
 70
    64
  3
ダミー
 72
    65
 73
     0
 40
0.0
  0
LTYPE
  2
RAND1
 70
    64
  3
ランダム線1
 72
    65
 73
     4
 40
10.0
 49
1.0
 49
-2.0
 49
3.0
 49
-4.0
  0
LTYPE
  2
RAND2
 70
    64
  3
ランダム線2
 72
    65
 73
     4
 40
14.0
 49
2.0
 49
-3.0
 49
4.0
 49
-5.0
  0
LTYPE
  2
RAND3
 70
    64
  3
ランダム線3
 72
    65
 73
     4
 40
18.0
 49
3.0
 49
-4.0
 49
5.0
 49
-6.0
  0
LTYPE
  2
RAND4
 70
    64
  3
ランダム線4
 72
    65
 73
     4
 40
22.0
 49
4.0
 49
-5.0
 49
6.0
 49
-7.0
  0
LTYPE
  2
RAND5
 70
    64
  3
ランダム線5
 72
    65
 73
     4
 40
26.0
 49
5.0
 49
-6.0
 49
7.0
 49
-8.0
  0
LTYPE
  2
LONG1
 70
    64
  3
----------  --  ----------  --  
 72
    65
 73
     4
 40
40.0
 49
32.5
 49
-2.5
 49
2.5
 49
-2.5
  0
LTYPE
  2
LONG2
 70
    64
  3
--------  -  -  --------  -  -  
 72
    65
 73
     6
 40
40.0
 49
30.0
 49
-2.5
 49
1.25
 49
-2.5
 49
1.25
 49
-2.5
  0
LTYPE
  2
LONG3
 70
    64
  3
+++++++++++++++..+++++++++++++++
 72
    65
 73
     2
 40
40.0
 49
37.5
 49
-2.5
  0
LTYPE
  2
LONG4
 70
    64
  3
+++++++++++++++..+++++++++++++++
 72
    65
 73
     2
 40
80.0
 49
75.0
 49
-5.0
  0
LTYPE
  2
LONG5
 70
    64
  3
----------  --  ----------  --  
 72
    65
 73
     4
 40
60.0
 49
37.5
 49
-7.5
 49
7.5
 49
-7.5
  0
LTYPE
  2
dashed
 70
   64
  3
-------   -------------   ------
 72
   65
 73
    2
 40
7.5
 49
6
 49
-1.5
  0
LTYPE
  2
dashed_spaced
 70
   64
  3
----        --------        ----
 72
   65
 73
    2
 40
12
 49
6
 49
-6
  0
LTYPE
  2
long_dashed_dotted
 70
   64
  3
------------- --- --------------
 72
   65
 73
    4
 40
15.25
 49
12
 49
-1.5
 49
0.25
 49
-1.5
  0
LTYPE
  2
long_dashed_double-dotted
 70
   64
  3
----------- --- --- ------------
 72
   65
 73
    6
 40
17
 49
12
 49
-1.5
 49
0.25
 49
-1.5
 49
0.25
 49
-1.5
  0
LTYPE
  2
long_dashed_triplicate-dotted
 70
   64
  3
--------- --- --- --- ----------
 72
   65
 73
    8
 40
18.75
 49
12
 49
-1.5
 49
0.25
 49
-1.5
 49
0.25
 49
-1.5
 49
0.25
 49
-1.5
  0
LTYPE
  2
dotted
 70
   64
  3
   -       -       -       -    
 72
   65
 73
    2
 40
1.75
 49
0.25
 49
-1.5
  0
LTYPE
  2
chain
 70
   64
  3
-------------- -- --------------
 72
   65
 73
    4
 40
18.5
 49
12
 49
-1.5
 49
3.5
 49
-1.5
  0
LTYPE
  2
chain_double_dash
 70
   64
  3
------------ -- -- -------------
 72
   65
 73
    6
 40
23.5
 49
12
 49
-1.5
 49
3.5
 49
-1.5
 49
3.5
 49
-1.5
  0
LTYPE
  2
dashed_dotted
 70
   64
  3
-----------     -     ----------
 72
   65
 73
    4
 40
9.25
 49
6
 49
-1.5
 49
0.25
 49
-1.5
  0
LTYPE
  2
double-dashed_dotted
 70
   64
  3
------   -----------   -   -----
 72
   65
 73
    6
 40
16.75
 49
6
 49
-1.5
 49
6
 49
-1.5
 49
0.25
 49
-1.5
  0
LTYPE
  2
dashed_double-dotted
 70
   64
  3
---------    -    -    ---------
 72
   65
 73
    6
 40
11
 49
6
 49
-1.5
 49
0.25
 49
-1.5
 49
0.25
 49
-1.5
  0
LTYPE
  2
double-dashed_double-dotted
 70
   64
  3
-----   ---------   -   -   ----
 72
   65
 73
    8
 40
18.5
 49
6
 49
-1.5
 49
6
 49
-1.5
 49
0.25
 49
-1.5
 49
0.25
 49
-1.5
  0
LTYPE
  2
dashed_triplicate-dotted
 70
   64
  3
-------    -    -    -    ------
 72
   65
 73
    8
 40
12.75
 49
6
 49
-1.5
 49
0.25
 49
-1.5
 49
0.25
 49
-1.5
 49
0.25
 49
-1.5
  0
LTYPE
  2
double-dashed_triplicate-dotted
 70
   64
  3
-----  ---------  -  -  -  -----
 72
   65
 73
   10
 40
20.25
 49
6
 49
-1.5
 49
6
 49
-1.5
 49
0.25
 49
-1.5
 49
0.25
 49
-1.5
 49
0.25
 49
-1.5
  0
LTYPE
  2
undefined
 70
   64
  3
--------------------------------
 72
   65
 73
    0
 40
0
  0
ENDTAB
  0
TABLE
  2
STYLE
  5
3
100
AcDbSymbolTable
 70
     1
  0
STYLE
  5
10
100
AcDbSymbolTableRecord
100
AcDbTextStyleTableRecord
  2
STANDARD
 70
     0
 40
0.0
 41
1.0
 50
0.0
 71
     0
 42
0.2
  3
txt
  4
bigfont.shx
  0
STYLE
  5
26
100
AcDbSymbolTableRecord
100
AcDbTextStyleTableRecord
  2
TATEGAKI
 70
    68
 40
0.0
 41
1.0
 50
0.0
 71
     0
 42
1.0
  3
txt
  4
bigfont.shx
  0
ENDTAB
  0
TABLE
  2
LAYER
 70
    2
  0
LAYER
  2
_0-0_0
 70
   64
 62
    7
  6
CONTINUOUS
  0
LAYER
  2
ADD_LINE
 70
   64
 62
    7
  6
CONTINUOUS
  0
ENDTAB
  0
ENDSEC
  0
SECTION
  2
BLOCKS
  0
ENDSEC
  0
SECTION
  2
ENTITIES
  0
LINE
  8
_0-0_0
  6
CONTINUOUS
 62
    7
 10
45.92893250000003
 20
460.17515549999996
 11
45.92893250000003
 21
460.1741485
  0
LINE
  8
_0-0_0
  6
CONTINUOUS
 62
    7
 10
198.74143950000001
 20
421.24421749999999
 11
197.44143650000001
 21
417.74421749999999
  0
ARC
  8
_0-0_0
  6
CONTINUOUS
 62
    7
 10
198.92892449999999
 20
421.17457550000006
 40
0.2
 50
20.376434999999997
 51
159.62357000000003
  0
ARC
  8
_0-0_0
  6
CONTINUOUS
 62
    7
 10
236.92892449999999
 20
424.07456950000005
 40
2.2000000000000002
 50
180.00000900000003
 51
303.74900400000001
  0
LINE
  8
_0-0_0
  6
CONTINUOUS
 62
    7
 10
234.7289275
 20
425.57456950000005
 11
234.7289275
 21
424.07456950000005
  0
LINE
  8
_0-0_0
  6
CONTINUOUS
 62
    7
 10
234.7289275
 20
425.57456950000005
 11
160.12893650000001
 21
425.57456950000005
  0
LINE
  8
_0-0_0
  6
CONTINUOUS
 62
    7
 10
160.12893650000001
 20
425.57456950000005
 11
160.12893650000001
 21
424.07456950000005
  0
ARC
  8
_0-0_0
  6
CONTINUOUS
 62
    7
 10
157.92892449999999
 20
424.07456950000005
 40
2.2000000000000002
 50
236.25102899999999
 51
0
  0
ARC
  8
_0-0_0
  6
CONTINUOUS
 62
    7
 10
156.42892449999999
 20
421.82957450000004
 40
0.5
 50
56.251010000000008
 51
180.00000900000001
  0
LINE
  8
_0-0_0
  6
CONTINUOUS
 62
    7
 10
155.92892449999999
 20
401.47456350000004
 11
155.92892449999999
 21
402.25169349999999
  0
LINE
  8
_0-0_0
  6
CONTINUOUS
 62
    7
 10
155.92892449999999
 20
401.47456350000004
 11
165.7289275
 21
401.47456350000004
  0
ARC
  8
_0-0_0
  6
CONTINUOUS
 62
    7
 10
165.7289275
 20
401.67457550000006
 40
0.2
 50
269.99999700000001
 51
0
  0
LINE
  8
_0-0_0
  6
CONTINUOUS
 62
    7
 10
165.92892449999999
 20
403.37458849999996
 11
165.92892449999999
 21
401.67457550000006
  0
ARC
  8
_0-0_0
  6
CONTINUOUS
 62
    7
 10
166.12893650000001
 20
403.37458849999996
 40
0.2
 50
90.000003000000007
 51
180.00000900000001
  0
LINE
  8
_0-0_0
  6
CONTINUOUS
 62
    7
 10
166.62893650000001
 20
403.57456950000005
 11
166.12893650000001
 21
403.57456950000005
  0
ARC
  8
_0-0_0
  6
CONTINUOUS
 62
    7
 10
166.62893650000001
 20
403.07456950000005
 40
0.5
 50
90.000003000000007
 51
180.00000900000001
  0
LINE
  8
_0-0_0
  6
CONTINUOUS
 62
    7
 10
166.12893650000001
 20
401.57456950000005
 11
166.12893650000001
 21
403.07456950000005
  0
LINE
  8
_0-0_0
  6
CONTINUOUS
 62
    7
 10
235.7289275
 20
401.57456950000005
 11
166.12893650000001
 21
401.57456950000005
  0
LINE
  8
_0-0_0
  6
CONTINUOUS
 62
    7
 10
235.7289275
 20
401.57456950000005
 11
235.7289275
 21
403.07456950000005
  0
ARC
  8
_0-0_0
  6
CONTINUOUS
 62
    7
 10
235.2289275
 20
403.07456950000005
 40
0.5
 50
0
 51
90.000003000000007
  0
LINE
  8
_0-0_0
  6
CONTINUOUS
 62
    7
 10
235.7289275
 20
403.57456950000005
 11
235.2289275
 21
403.57456950000005
  0
ARC
  8
_0-0_0
  6
CONTINUOUS
 62
    7
 10
235.7289275
 20
403.37458849999996
 40
0.2
 50
0
 51
90.000003000000007
  0
LINE
  8
_0-0_0
  6
CONTINUOUS
 62
    7
 10
235.92892449999999
 20
401.67457550000006
 11
235.92892449999999
 21
403.37458849999996
  0
ARC
  8
_0-0_0
  6
CONTINUOUS
 62
    7
 10
236.12892150000002
 20
401.67457550000006
 40
0.2
 50
180.00000900000003
 51
269.99999700000001
  0
LINE
  8
_0-0_0
  6
CONTINUOUS
 62
    7
 10
236.12892150000002
 20
401.47456350000004
 11
236.92892449999999
 21
401.47456350000004
  0
ARC
  8
_0-0_0
  6
CONTINUOUS
 62
    7
 10
236.92892449999999
 20
403.47456350000004
 40
2
 50
269.99999700000001
 51
0.0000099999999886
  0
LINE
  8
_0-0_0
  6
CONTINUOUS
 62
    7
 10
238.92892449999999
 20
421.82957450000004
 11
238.92892449999999
 21
403.47456350000004
  0
ARC
  8
_0-0_0
  6
CONTINUOUS
 62
    7
 10
238.42892449999999
 20
421.82957450000004
 40
0.5
 50
0
 51
123.74898500000002
  0
LINE
  8
_0-0_0
  6
CONTINUOUS
 62
    7
 10
167.42892449999999
 20
403.77458250000007
 11
167.42892449999999
 21
403.97456350000004
  0
LINE
  8
_0-0_0
  6
CONTINUOUS
 62
    7
 10
167.42892449999999
 20
403.97456350000004
 11
234.42892449999999
 21
403.97456350000004
  0
LINE
  8
_0-0_0
  6
CONTINUOUS
 62
    7
 10
234.42892449999999
 20
403.77458250000007
 11
234.42892449999999
 21
403.97456350000004
  0
ARC
  8
_0-0_0
  6
CONTINUOUS
 62
    7
 10
234.62892150000002
 20
403.77458250000007
 40
0.2
 50
180.00000900000003
 51
269.99999700000001
  0
LINE
  8
_0-0_0
  6
CONTINUOUS
 62
    7
 10
234.62892150000002
 20
403.57456950000005
 11
167.2289275
 21
403.57456950000005
  0
ARC
  8
_0-0_0
  6
CONTINUOUS
 62
    7
 10
167.2289275
 20
403.77458250000007
 40
0.2
 50
269.99999700000001
 51
0
  0
ARC
  8
_0-0_0
  6
CONTINUOUS
 62
    7
 10
197.62892150000002
 20
417.67457550000006
 40
0.2
 50
159.62357
 51
269.99999700000001
  0
LINE
  8
_0-0_0
  6
CONTINUOUS
 62
    7
 10
197.62892150000002
 20
417.47456350000004
 11
200.2289275
 21
417.47456350000004
  0
ARC
  8
_0-0_0
  6
CONTINUOUS
 62
    7
 10
200.2289275
 20
417.67457550000006
 40
0.2
 50
269.99999700000001
 51
20.376435000000019
  0
LINE
  8
_0-0_0
  6
CONTINUOUS
 62
    7
 10
200.41641250000001
 20
417.74421749999999
 11
199.1164095
 21
421.24421749999999
  0
LINE
  8
_0-0_0
  6
CONTINUOUS
 62
    7
 10
155.92892449999999
 20
421.17457550000006
 11
155.92892449999999
 21
423.15193150000005
  0
LINE
  8
_0-0_0
  6
CONTINUOUS
 62
    7
 10
155.92892449999999
 20
421.17457550000006
 11
155.92892449999999
 21
403.57456950000005
  0
LINE
  8
_0-0_0
  6
CONTINUOUS
 62
    7
 10
155.92892449999999
 20
402.25169349999999
 11
155.92892449999999
 21
403.57456950000005
  0
LINE
  8
_0-0_0
  6
CONTINUOUS
 62
    7
 10
238.92892449999999
 20
427.57456950000005
 11
238.92892449999999
 21
426.57456950000005
  0
LINE
  8
_0-0_0
  6
CONTINUOUS
 62
    7
 10
238.92892449999999
 20
426.57456950000005
 11
238.92892449999999
 21
426.07456950000005
  0
LINE
  8
_0-0_0
  6
CONTINUOUS
 62
    7
 10
238.92892449999999
 20
426.07456950000005
 11
238.92892449999999
 21
424.07456950000005
  0
LINE
  8
_0-0_0
  6
CONTINUOUS
 62
    7
 10
238.92892449999999
 20
424.07456950000005
 11
238.92892449999999
 21
421.82957450000004
  0
LINE
  8
_0-0_0
  6
CONTINUOUS
 62
    7
 10
216.92892449999999
 20
421.57456950000005
 11
216.92892449999999
 21
407.97456350000004
  0
ARC
  8
_0-0_0
  6
CONTINUOUS
 62
    7
 10
219.92892449999999
 20
421.57456950000005
 40
3
 50
90.000003000000007
 51
180.00000900000001
  0
LINE
  8
_0-0_0
  6
CONTINUOUS
 62
    7
 10
233.26286350000001
 20
424.57456950000005
 11
219.92892449999999
 21
424.57456950000005
  0
ARC
  8
_0-0_0
  6
CONTINUOUS
 62
    7
 10
233.26286350000001
 20
423.57456950000005
 40
1
 50
7.7664340000000012
 51
90.000002999999992
  0
ARC
  8
_0-0_0
  6
CONTINUOUS
 62
    7
 10
236.92892449999999
 20
424.07456950000005
 40
2.7000000000000002
 50
187.76643899999999
 51
254.31966600000001
  0
ARC
  8
_0-0_0
  6
CONTINUOUS
 62
    7
 10
235.92892449999999
 20
420.51228349999997
 40
1
 50
0
 51
74.319649999999996
  0
LINE
  8
_0-0_0
  6
CONTINUOUS
 62
    7
 10
236.92892449999999
 20
407.97456350000004
 11
236.92892449999999
 21
420.51228349999997
  0
ARC
  8
_0-0_0
  6
CONTINUOUS
 62
    7
 10
233.92892449999999
 20
407.97456350000004
 40
3
 50
269.99999700000001
 51
0.0000099999999886
  0
LINE
  8
_0-0_0
  6
CONTINUOUS
 62
    7
 10
219.92892449999999
 20
404.97456350000004
 11
233.92892449999999
 21
404.97456350000004
  0
ARC
  8
_0-0_0
  6
CONTINUOUS
 62
    7
 10
219.92892449999999
 20
407.97456350000004
 40
3
 50
180.00000900000003
 51
269.99999700000001
  0
LINE
  8
_0-0_0
  6
CONTINUOUS
 62
    7
 10
162.92892449999999
 20
404.97456350000004
 11
177.92892449999999
 21
404.97456350000004
  0
ARC
  8
_0-0_0
  6
CONTINUOUS
 62
    7
 10
162.92892449999999
 20
407.97456350000004
 40
3
 50
180.00000900000003
 51
269.99999700000001
  0
LINE
  8
_0-0_0
  6
CONTINUOUS
 62
    7
 10
159.92892449999999
 20
421.57456950000005
 11
159.92892449999999
 21
407.97456350000004
  0
ARC
  8
_0-0_0
  6
CONTINUOUS
 62
    7
 10
162.92892449999999
 20
421.57456950000005
 40
3
 50
90.000003000000007
 51
180.00000900000001
  0
LINE
  8
_0-0_0
  6
CONTINUOUS
 62
    7
 10
177.92892449999999
 20
424.57456950000005
 11
162.92892449999999
 21
424.57456950000005
  0
ARC
  8
_0-0_0
  6
CONTINUOUS
 62
    7
 10
177.92892449999999
 20
421.57456950000005
 40
3
 50
0
 51
90.000003000000007
  0
LINE
  8
_0-0_0
  6
CONTINUOUS
 62
    7
 10
180.92892449999999
 20
407.97456350000004
 11
180.92892449999999
 21
421.57456950000005
  0
ARC
  8
_0-0_0
  6
CONTINUOUS
 62
    7
 10
177.92892449999999
 20
407.97456350000004
 40
3
 50
269.99999700000001
 51
0.0000099999999886
  0
LINE
  8
_0-0_0
  6
CONTINUOUS
 62
    7
 10
234.92892449999999
 20
425.57456950000005
 11
234.7289275
 21
425.57456950000005
  0
ARC
  8
_0-0_0
  6
CONTINUOUS
 62
    7
 10
236.92892449999999
 20
424.07456950000005
 40
2
 50
180.00000900000003
 51
0.0000000000000254
  0
LINE
  8
_0-0_0
  6
CONTINUOUS
 62
    7
 10
234.92892449999999
 20
425.57456950000005
 11
234.92892449999999
 21
424.07456950000005
  0
LINE
  8
_0-0_0
  6
CONTINUOUS
 62
    7
 10
160.12893650000001
 20
425.57456950000005
 11
159.92892449999999
 21
425.57456950000005
  0
LINE
  8
_0-0_0
  6
CONTINUOUS
 62
    7
 10
159.92892449999999
 20
425.57456950000005
 11
159.92892449999999
 21
424.07456950000005
  0
ARC
  8
_0-0_0
  6
CONTINUOUS
 62
    7
 10
157.92892449999999
 20
424.07456950000005
 40
2
 50
180.00000900000003
 51
0.0000000000000254
  0
LINE
  8
_0-0_0
  6
CONTINUOUS
 62
    7
 10
142.42892449999999
 20
426.07456950000005
 11
142.42892449999999
 21
425.57456950000005
  0
LINE
  8
_0-0_0
  6
CONTINUOUS
 62
    7
 10
155.92892449999999
 20
423.15806550000002
 11
155.92892449999999
 21
423.87455750000004
  0
LINE
  8
_0-0_0
  6
CONTINUOUS
 62
    7
 10
155.92892449999999
 20
423.15806550000002
 11
155.92892449999999
 21
423.15193150000005
  0
LINE
  8
_0-0_0
  6
CONTINUOUS
 62
    7
 10
155.92892449999999
 20
421.94343549999996
 11
155.92892449999999
 21
421.82957450000004
  0
LINE
  8
_0-0_0
  6
CONTINUOUS
 62
    7
 10
143.92892449999999
 20
423.17457550000006
 11
143.92892449999999
 21
421.17457550000006
  0
LINE
  8
_0-0_0
  6
CONTINUOUS
 62
    7
 10
155.92892449999999
 20
423.17457550000006
 11
143.92892449999999
 21
423.17457550000006
  0
LINE
  8
_0-0_0
  6
CONTINUOUS
 62
    7
 10
143.92892449999999
 20
417.67457550000006
 11
143.92892449999999
 21
420.67457550000006
  0
LINE
  8
_0-0_0
  6
CONTINUOUS
 62
    7
 10
143.92892449999999
 20
420.67457550000006
 11
143.92892449999999
 21
421.17457550000006
  0
LINE
  8
_0-0_0
  6
CONTINUOUS
 62
    7
 10
143.92892449999999
 20
417.67457550000006
 11
143.92892449999999
 21
417.17457550000006
  0
ARC
  8
_0-0_0
  6
CONTINUOUS
 62
    7
 10
149.92893950000001
 20
417.87455750000004
 40
0.500016
 50
0.001164
 51
179.99560600000004
  0
LINE
  8
_0-0_0
  6
CONTINUOUS
 62
    7
 10
149.42892449999999
 20
417.87455750000004
 11
149.42892449999999
 21
405.87455750000004
  0
ARC
  8
_0-0_0
  6
CONTINUOUS
 62
    7
 10
149.92893950000001
 20
405.87458849999996
 40
0.500016
 50
180.00117
 51
359.995611
  0
LINE
  8
_0-0_0
  6
CONTINUOUS
 62
    7
 10
150.42892449999999
 20
417.87455750000004
 11
150.42892449999999
 21
405.87455750000004
  0
ARC
  8
_0-0_0
  6
CONTINUOUS
 62
    7
 10
148.42893950000001
 20
417.87455750000004
 40
0.500016
 50
0.001164
 51
179.99560600000004
  0
LINE
  8
_0-0_0
  6
CONTINUOUS
 62
    7
 10
147.92892449999999
 20
417.87455750000004
 11
147.92892449999999
 21
405.87455750000004
  0
ARC
  8
_0-0_0
  6
CONTINUOUS
 62
    7
 10
148.42893950000001
 20
405.87458849999996
 40
0.500016
 50
180.00117
 51
359.995611
  0
LINE
  8
_0-0_0
  6
CONTINUOUS
 62
    7
 10
148.92892449999999
 20
417.87455750000004
 11
148.92892449999999
 21
405.87455750000004
  0
ARC
  8
_0-0_0
  6
CONTINUOUS
 62
    7
 10
146.92893950000001
 20
417.87455750000004
 40
0.500016
 50
0.001164
 51
179.99560600000004
  0
LINE
  8
_0-0_0
  6
CONTINUOUS
 62
    7
 10
146.42892449999999
 20
417.87455750000004
 11
146.42892449999999
 21
405.87455750000004
  0
ARC
  8
_0-0_0
  6
CONTINUOUS
 62
    7
 10
146.92893950000001
 20
405.87458849999996
 40
0.500016
 50
180.00117
 51
359.995611
  0
LINE
  8
_0-0_0
  6
CONTINUOUS
 62
    7
 10
147.42892449999999
 20
417.87455750000004
 11
147.42892449999999
 21
405.87455750000004
  0
ARC
  8
_0-0_0
  6
CONTINUOUS
 62
    7
 10
145.42893950000001
 20
417.87455750000004
 40
0.500016
 50
0.001164
 51
179.99560600000004
  0
LINE
  8
_0-0_0
  6
CONTINUOUS
 62
    7
 10
144.92892449999999
 20
417.87455750000004
 11
144.92892449999999
 21
405.87455750000004
  0
ARC
  8
_0-0_0
  6
CONTINUOUS
 62
    7
 10
145.42893950000001
 20
405.87458849999996
 40
0.500016
 50
180.00117
 51
359.995611
  0
LINE
  8
_0-0_0
  6
CONTINUOUS
 62
    7
 10
145.92892449999999
 20
417.87455750000004
 11
145.92892449999999
 21
405.87455750000004
  0
LINE
  8
_0-0_0
  6
CONTINUOUS
 62
    7
 10
155.92892449999999
 20
401.57456950000005
 11
139.25347950000003
 21
401.57456950000005
  0
LINE
  8
_0-0_0
  6
CONTINUOUS
 62
    7
 10
166.4789275
 20
403.55152950000002
 11
166.4789275
 21
403.57456950000005
  0
LINE
  8
_0-0_0
  6
CONTINUOUS
 62
    7
 10
235.37892150000002
 20
403.55152950000002
 11
235.37892150000002
 21
403.57456950000005
  0
LINE
  8
_0-0_0
  6
CONTINUOUS
 62
    7
 10
142.42892449999999
 20
426.07456950000005
 11
142.42892449999999
 21
426.57456950000005
  0
LINE
  8
_0-0_0
  6
CONTINUOUS
 62
    7
 10
238.92892449999999
 20
426.57456950000005
 11
142.42892449999999
 21
426.57456950000005
  0
LINE
  8
_0-0_0
  6
CONTINUOUS
 62
    7
 10
142.42892449999999
 20
426.57456950000005
 11
142.42892449999999
 21
427.57456950000005
  0
LINE
  8
_0-0_0
  6
CONTINUOUS
 62
    7
 10
238.92906150000002
 20
427.57463050000001
 11
238.92906150000002
 21
427.07463050000001
  0
LINE
  8
_0-0_0
  6
CONTINUOUS
 62
    7
 10
238.92906150000002
 20
427.07463050000001
 11
238.92906150000002
 21
425.57463050000001
  0
ARC
  8
_0-0_0
  6
CONTINUOUS
 62
    7
 10
229.42892449999999
 20
417.17457550000006
 40
4.5
 50
269.99999700000001
 51
90.000002999999992
  0
LINE
  8
_0-0_0
  6
CONTINUOUS
 62
    7
 10
229.42892449999999
 20
412.67457550000006
 11
224.42892449999999
 21
412.67457550000006
  0
ARC
  8
_0-0_0
  6
CONTINUOUS
 62
    7
 10
224.42892449999999
 20
417.17457550000006
 40
4.5
 50
90.000003000000007
 51
269.99999700000006
  0
LINE
  8
_0-0_0
  6
CONTINUOUS
 62
    7
 10
224.42892449999999
 20
421.67457550000006
 11
229.42892449999999
 21
421.67457550000006
  0
ARC
  8
_0-0_0
  6
CONTINUOUS
 62
    7
 10
173.42892449999999
 20
417.17457550000006
 40
4.5
 50
269.99999700000001
 51
90.000002999999992
  0
LINE
  8
_0-0_0
  6
CONTINUOUS
 62
    7
 10
173.42892449999999
 20
412.67457550000006
 11
168.42892449999999
 21
412.67457550000006
  0
ARC
  8
_0-0_0
  6
CONTINUOUS
 62
    7
 10
168.42892449999999
 20
417.17457550000006
 40
4.5
 50
90.000003000000007
 51
269.99999700000006
  0
LINE
  8
_0-0_0
  6
CONTINUOUS
 62
    7
 10
168.42892449999999
 20
421.67457550000006
 11
173.42892449999999
 21
421.67457550000006
  0
LINE
  8
_0-0_0
  6
CONTINUOUS
 62
    7
 10
155.92892449999999
 20
423.87455750000004
 11
155.92892449999999
 21
425.57456950000005
  0
LINE
  8
_0-0_0
  6
CONTINUOUS
 62
    7
 10
155.92892449999999
 20
425.57456950000005
 11
142.42892449999999
 21
425.57456950000005
  0
LINE
  8
_0-0_0
  6
CONTINUOUS
 62
    7
 10
142.42892449999999
 20
423.87455750000004
 11
142.42892449999999
 21
425.57456950000005
  0
LINE
  8
_0-0_0
  6
CONTINUOUS
 62
    7
 10
143.92892449999999
 20
423.17457550000006
 11
139.25347950000003
 21
423.17457550000006
  0
LINE
  8
_0-0_0
  6
CONTINUOUS
 62
    7
 10
143.92892449999999
 20
417.67457550000006
 11
139.25347950000003
 21
417.67457550000006
  0
LINE
  8
_0-0_0
  6
CONTINUOUS
 62
    7
 10
138.62103250000001
 20
401.67720050000003
 11
138.74053950000001
 21
401.64158650000002
  0
LINE
  8
_0-0_0
  6
CONTINUOUS
 62
    7
 10
138.74053950000001
 20
401.64158650000002
 11
138.86209150000002
 21
401.61369350000007
  0
LINE
  8
_0-0_0
  6
CONTINUOUS
 62
    7
 10
138.86209150000002
 20
401.61369350000007
 11
138.98521449999998
 21
401.59367350000002
  0
LINE
  8
_0-0_0
  6
CONTINUOUS
 62
    7
 10
138.98521449999998
 20
401.59367350000002
 11
139.10943650000002
 21
401.58155850000003
  0
LINE
  8
_0-0_0
  6
CONTINUOUS
 62
    7
 10
139.10943650000002
 20
401.58155850000003
 11
139.23425250000003
 21
401.57740750000005
  0
LINE
  8
_0-0_0
  6
CONTINUOUS
 62
    7
 10
139.23425250000003
 20
401.57740750000005
 11
139.25347950000003
 21
401.57749950000004
  0
ARC
  8
_0-0_0
  6
CONTINUOUS
 62
    7
 10
139.25347950000003
 20
403.57456950000005
 40
2
 50
251.56498899999997
 51
269.99999700000001
  0
LINE
  8
_0-0_0
  6
CONTINUOUS
 62
    7
 10
142.42892449999999
 20
423.87455750000004
 11
155.92892449999999
 21
423.87455750000004
  0
CIRCLE
  8
_0-0_0
  6
CONTINUOUS
 62
    7
 10
236.92892449999999
 20
424.07456950000005
 40
1.4750000000000001
  0
CIRCLE
  8
_0-0_0
  6
CONTINUOUS
 62
    7
 10
157.92892449999999
 20
424.07456950000005
 40
1.4750000000000001
  0
ARC
  8
_0-0_0
  6
CONTINUOUS
 62
    7
 10
139.25347950000003
 20
421.17457550000006
 40
2
 50
90.000003000000007
 51
108.434997
  0
LINE
  8
_0-0_0
  6
CONTINUOUS
 62
    7
 10
134.4545895
 20
417.67457550000006
 11
133.76123050000001
 21
417.67457550000006
  0
LINE
  8
_0-0_0
  6
CONTINUOUS
 62
    7
 10
134.4545895
 20
417.67457550000006
 11
138.77914450000003
 21
417.67457550000006
  0
LINE
  8
_0-0_0
  6
CONTINUOUS
 62
    7
 10
139.25347950000003
 20
417.67457550000006
 11
138.77914450000003
 21
417.67457550000006
  0
LINE
  8
_0-0_0
  6
CONTINUOUS
 62
    7
 10
134.29647850000003
 20
403.11872849999997
 11
138.62103250000001
 21
401.67720050000003
  0
LINE
  8
_0-0_0
  6
CONTINUOUS
 62
    7
 10
233.4789275
 20
417.17457550000006
 11
231.16952550000002
 21
413.17457550000006
  0
LINE
  8
_0-0_0
  6
CONTINUOUS
 62
    7
 10
222.68832449999999
 20
413.17457550000006
 11
231.16952550000002
 21
413.17457550000006
  0
LINE
  8
_0-0_0
  6
CONTINUOUS
 62
    7
 10
222.68832449999999
 20
413.17457550000006
 11
220.37892150000002
 21
417.17457550000006
  0
LINE
  8
_0-0_0
  6
CONTINUOUS
 62
    7
 10
220.37892150000002
 20
417.17457550000006
 11
222.68832449999999
 21
421.17457550000006
  0
LINE
  8
_0-0_0
  6
CONTINUOUS
 62
    7
 10
231.16952550000002
 20
421.17457550000006
 11
222.68832449999999
 21
421.17457550000006
  0
LINE
  8
_0-0_0
  6
CONTINUOUS
 62
    7
 10
231.16952550000002
 20
421.17457550000006
 11
233.4789275
 21
417.17457550000006
  0
LINE
  8
_0-0_0
  6
CONTINUOUS
 62
    7
 10
166.68832449999999
 20
421.17457550000006
 11
164.37893650000001
 21
417.17457550000006
  0
LINE
  8
_0-0_0
  6
CONTINUOUS
 62
    7
 10
175.16952550000002
 20
421.17457550000006
 11
166.68832449999999
 21
421.17457550000006
  0
LINE
  8
_0-0_0
  6
CONTINUOUS
 62
    7
 10
177.4789275
 20
417.17457550000006
 11
175.16952550000002
 21
421.17457550000006
  0
LINE
  8
_0-0_0
  6
CONTINUOUS
 62
    7
 10
175.16952550000002
 20
413.17457550000006
 11
177.4789275
 21
417.17457550000006
  0
LINE
  8
_0-0_0
  6
CONTINUOUS
 62
    7
 10
166.68832449999999
 20
413.17457550000006
 11
175.16952550000002
 21
413.17457550000006
  0
LINE
  8
_0-0_0
  6
CONTINUOUS
 62
    7
 10
164.37893650000001
 20
417.17457550000006
 11
166.68832449999999
 21
413.17457550000006
  0
LINE
  8
_0-0_0
  6
CONTINUOUS
 62
    7
 10
138.17892449999999
 20
422.92457550000006
 11
138.62103250000001
 21
423.07194549999997
  0
LINE
  8
_0-0_0
  6
CONTINUOUS
 62
    7
 10
132.92893249999997
 20
418.42460649999998
 11
132.92893249999997
 21
417.30357349999997
  0
LINE
  8
_0-0_0
  6
CONTINUOUS
 62
    7
 10
132.92893249999997
 20
416.38224850000006
 11
132.92893249999997
 21
417.30357349999997
  0
LINE
  8
_0-0_0
  6
CONTINUOUS
 62
    7
 10
133.22893550000003
 20
414.58656350000001
 11
133.17013550000001
 21
414.83338950000007
  0
LINE
  8
_0-0_0
  6
CONTINUOUS
 62
    7
 10
133.17013550000001
 20
414.83338950000007
 11
133.12036950000004
 21
415.02574149999998
  0
LINE
  8
_0-0_0
  6
CONTINUOUS
 62
    7
 10
133.12036950000004
 20
415.02574149999998
 11
133.0492405
 21
415.29151950000005
  0
LINE
  8
_0-0_0
  6
CONTINUOUS
 62
    7
 10
133.0492405
 20
415.29151950000005
 11
133.01628149999999
 21
415.41825849999998
  0
LINE
  8
_0-0_0
  6
CONTINUOUS
 62
    7
 10
133.01628149999999
 20
415.41825849999998
 11
132.99102049999999
 21
415.5216825
  0
LINE
  8
_0-0_0
  6
CONTINUOUS
 62
    7
 10
132.99102049999999
 20
415.5216825
 11
132.96899450000001
 21
415.62159750000001
  0
LINE
  8
_0-0_0
  6
CONTINUOUS
 62
    7
 10
132.96899450000001
 20
415.62159750000001
 11
132.94761649999998
 21
415.73930350000001
  0
LINE
  8
_0-0_0
  6
CONTINUOUS
 62
    7
 10
132.94761649999998
 20
415.73930350000001
 11
132.93904150000003
 21
415.80143750000002
  0
LINE
  8
_0-0_0
  6
CONTINUOUS
 62
    7
 10
132.93904150000003
 20
415.80143750000002
 11
132.93296050000004
 21
415.86204550000002
  0
LINE
  8
_0-0_0
  6
CONTINUOUS
 62
    7
 10
132.93296050000004
 20
415.86204550000002
 11
132.92995450000001
 21
415.91130050000004
  0
LINE
  8
_0-0_0
  6
CONTINUOUS
 62
    7
 10
132.92995450000001
 20
415.91130050000004
 11
132.92893249999997
 21
415.95951850000006
  0
LINE
  8
_0-0_0
  6
CONTINUOUS
 62
    7
 10
133.22893550000003
 20
410.16255250000006
 11
133.31239349999998
 21
410.54124450000006
  0
LINE
  8
_0-0_0
  6
CONTINUOUS
 62
    7
 10
133.31239349999998
 20
410.54124450000006
 11
133.3524855
 21
410.73274249999997
  0
LINE
  8
_0-0_0
  6
CONTINUOUS
 62
    7
 10
133.3524855
 20
410.73274249999997
 11
133.4085695
 21
411.02278150000006
  0
LINE
  8
_0-0_0
  6
CONTINUOUS
 62
    7
 10
133.4085695
 20
411.02278150000006
 11
133.4461675
 21
411.24235550000003
  0
LINE
  8
_0-0_0
  6
CONTINUOUS
 62
    7
 10
133.4461675
 20
411.24235550000003
 11
133.4788135
 21
411.46360749999997
  0
LINE
  8
_0-0_0
  6
CONTINUOUS
 62
    7
 10
133.4788135
 20
411.46360749999997
 11
133.50597349999998
 21
411.69041449999997
  0
LINE
  8
_0-0_0
  6
CONTINUOUS
 62
    7
 10
133.50597349999998
 20
411.69041449999997
 11
133.52603950000002
 21
411.9178015
  0
LINE
  8
_0-0_0
  6
CONTINUOUS
 62
    7
 10
133.52603950000002
 20
411.9178015
 11
133.53319550000003
 21
412.03154050000001
  0
LINE
  8
_0-0_0
  6
CONTINUOUS
 62
    7
 10
133.53319550000003
 20
412.03154050000001
 11
133.53835349999997
 21
412.14521850000006
  0
LINE
  8
_0-0_0
  6
CONTINUOUS
 62
    7
 10
133.53835349999997
 20
412.14521850000006
 11
133.54206850000003
 21
412.29664650000007
  0
LINE
  8
_0-0_0
  6
CONTINUOUS
 62
    7
 10
133.54206850000003
 20
412.29664650000007
 11
133.54212949999999
 21
412.44792150000001
  0
LINE
  8
_0-0_0
  6
CONTINUOUS
 62
    7
 10
133.54212949999999
 20
412.44792150000001
 11
133.5385435
 21
412.59895349999999
  0
LINE
  8
_0-0_0
  6
CONTINUOUS
 62
    7
 10
133.5385435
 20
412.59895349999999
 11
133.5290455
 21
412.78752150000003
  0
LINE
  8
_0-0_0
  6
CONTINUOUS
 62
    7
 10
133.5290455
 20
412.78752150000003
 11
133.51417550000002
 21
412.9757535
  0
LINE
  8
_0-0_0
  6
CONTINUOUS
 62
    7
 10
133.51417550000002
 20
412.9757535
 11
133.49425550000001
 21
413.16371149999998
  0
LINE
  8
_0-0_0
  6
CONTINUOUS
 62
    7
 10
133.49425550000001
 20
413.16371149999998
 11
133.4778675
 21
413.29258749999997
  0
LINE
  8
_0-0_0
  6
CONTINUOUS
 62
    7
 10
133.4778675
 20
413.29258749999997
 11
133.45945749999998
 21
413.42121950000001
  0
LINE
  8
_0-0_0
  6
CONTINUOUS
 62
    7
 10
133.45945749999998
 20
413.42121950000001
 11
133.4352955
 21
413.57316649999996
  0
LINE
  8
_0-0_0
  6
CONTINUOUS
 62
    7
 10
133.4352955
 20
413.57316649999996
 11
133.40889750000002
 21
413.72450249999997
  0
LINE
  8
_0-0_0
  6
CONTINUOUS
 62
    7
 10
133.40889750000002
 20
413.72450249999997
 11
133.35272950000001
 21
414.01512149999996
  0
LINE
  8
_0-0_0
  6
CONTINUOUS
 62
    7
 10
133.35272950000001
 20
414.01512149999996
 11
133.3125685
 21
414.20707749999997
  0
LINE
  8
_0-0_0
  6
CONTINUOUS
 62
    7
 10
133.3125685
 20
414.20707749999997
 11
133.22893550000003
 21
414.58656350000001
  0
LINE
  8
_0-0_0
  6
CONTINUOUS
 62
    7
 10
133.2289275
 20
410.16255250000006
 11
133.17012750000004
 21
409.91569549999997
  0
LINE
  8
_0-0_0
  6
CONTINUOUS
 62
    7
 10
133.17012750000004
 20
409.91569549999997
 11
133.12036950000004
 21
409.72337349999998
  0
LINE
  8
_0-0_0
  6
CONTINUOUS
 62
    7
 10
133.12036950000004
 20
409.72337349999998
 11
133.04924749999998
 21
409.45762650000006
  0
LINE
  8
_0-0_0
  6
CONTINUOUS
 62
    7
 10
133.04924749999998
 20
409.45762650000006
 11
133.01628849999997
 21
409.33094849999998
  0
LINE
  8
_0-0_0
  6
CONTINUOUS
 62
    7
 10
133.01628849999997
 20
409.33094849999998
 11
132.99102749999997
 21
409.22749350000004
  0
LINE
  8
_0-0_0
  6
CONTINUOUS
 62
    7
 10
132.99102749999997
 20
409.22749350000004
 11
132.96899450000001
 21
409.12751750000007
  0
LINE
  8
_0-0_0
  6
CONTINUOUS
 62
    7
 10
132.96899450000001
 20
409.12751750000007
 11
132.9476095
 21
409.00981149999996
  0
LINE
  8
_0-0_0
  6
CONTINUOUS
 62
    7
 10
132.9476095
 20
409.00981149999996
 11
132.93904150000003
 21
408.94767750000005
  0
LINE
  8
_0-0_0
  6
CONTINUOUS
 62
    7
 10
132.93904150000003
 20
408.94767750000005
 11
132.93296050000004
 21
408.88710049999997
  0
LINE
  8
_0-0_0
  6
CONTINUOUS
 62
    7
 10
132.93296050000004
 20
408.88710049999997
 11
132.92995450000001
 21
408.83784449999996
  0
LINE
  8
_0-0_0
  6
CONTINUOUS
 62
    7
 10
132.92995450000001
 20
408.83784449999996
 11
132.92893249999997
 21
408.78962750000005
  0
LINE
  8
_0-0_0
  6
CONTINUOUS
 62
    7
 10
132.92893249999997
 20
405.0160985
 11
132.92893249999997
 21
408.36686750000001
  0
ARC
  8
_0-0_0
  6
CONTINUOUS
 62
    7
 10
134.92893249999997
 20
405.0160985
 40
2
 50
180.00000900000003
 51
251.56498900000003
  0
LINE
  8
_0-0_0
  6
CONTINUOUS
 62
    7
 10
237.37892150000002
 20
423.87455750000004
 11
238.0289305
 21
423.87455750000004
  0
ARC
  8
_0-0_0
  6
CONTINUOUS
 62
    7
 10
237.37892150000002
 20
423.62455750000004
 40
0.25
 50
90.000003000000007
 51
180.00000900000001
  0
LINE
  8
_0-0_0
  6
CONTINUOUS
 62
    7
 10
237.12892150000002
 20
423.62455750000004
 11
237.12892150000002
 21
422.97456350000004
  0
LINE
  8
_0-0_0
  6
CONTINUOUS
 62
    7
 10
236.7289275
 20
422.97456350000004
 11
237.12892150000002
 21
422.97456350000004
  0
LINE
  8
_0-0_0
  6
CONTINUOUS
 62
    7
 10
236.7289275
 20
422.97456350000004
 11
236.7289275
 21
423.62455750000004
  0
ARC
  8
_0-0_0
  6
CONTINUOUS
 62
    7
 10
236.4789275
 20
423.62455750000004
 40
0.25
 50
0
 51
90.000003000000007
  0
LINE
  8
_0-0_0
  6
CONTINUOUS
 62
    7
 10
235.82893350000001
 20
423.87455750000004
 11
236.4789275
 21
423.87455750000004
  0
LINE
  8
_0-0_0
  6
CONTINUOUS
 62
    7
 10
235.82893350000001
 20
423.87455750000004
 11
235.82893350000001
 21
424.27458250000007
  0
LINE
  8
_0-0_0
  6
CONTINUOUS
 62
    7
 10
236.4789275
 20
424.27458250000007
 11
235.82893350000001
 21
424.27458250000007
  0
ARC
  8
_0-0_0
  6
CONTINUOUS
 62
    7
 10
236.4789275
 20
424.52458250000007
 40
0.25
 50
269.99999700000001
 51
0
  0
LINE
  8
_0-0_0
  6
CONTINUOUS
 62
    7
 10
236.7289275
 20
424.52458250000007
 11
236.7289275
 21
425.17457550000006
  0
LINE
  8
_0-0_0
  6
CONTINUOUS
 62
    7
 10
237.12892150000002
 20
425.17457550000006
 11
236.7289275
 21
425.17457550000006
  0
LINE
  8
_0-0_0
  6
CONTINUOUS
 62
    7
 10
237.12892150000002
 20
425.17457550000006
 11
237.12892150000002
 21
424.52458250000007
  0
ARC
  8
_0-0_0
  6
CONTINUOUS
 62
    7
 10
237.37892150000002
 20
424.52458250000007
 40
0.25
 50
180.00000900000003
 51
269.99999700000001
  0
LINE
  8
_0-0_0
  6
CONTINUOUS
 62
    7
 10
238.0289305
 20
424.27458250000007
 11
237.37892150000002
 21
424.27458250000007
  0
LINE
  8
_0-0_0
  6
CONTINUOUS
 62
    7
 10
238.0289305
 20
424.27458250000007
 11
238.0289305
 21
423.87455750000004
  0
LINE
  8
_0-0_0
  6
CONTINUOUS
 62
    7
 10
158.37893650000001
 20
423.87455750000004
 11
159.0289305
 21
423.87455750000004
  0
ARC
  8
_0-0_0
  6
CONTINUOUS
 62
    7
 10
158.37893650000001
 20
423.62455750000004
 40
0.25
 50
90.000003000000007
 51
180.00000900000001
  0
LINE
  8
_0-0_0
  6
CONTINUOUS
 62
    7
 10
158.12893650000001
 20
423.62455750000004
 11
158.12893650000001
 21
422.97456350000004
  0
LINE
  8
_0-0_0
  6
CONTINUOUS
 62
    7
 10
157.7289275
 20
422.97456350000004
 11
158.12893650000001
 21
422.97456350000004
  0
LINE
  8
_0-0_0
  6
CONTINUOUS
 62
    7
 10
157.7289275
 20
422.97456350000004
 11
157.7289275
 21
423.62455750000004
  0
ARC
  8
_0-0_0
  6
CONTINUOUS
 62
    7
 10
157.4789275
 20
423.62455750000004
 40
0.25
 50
0
 51
90.000003000000007
  0
LINE
  8
_0-0_0
  6
CONTINUOUS
 62
    7
 10
156.82893350000001
 20
423.87455750000004
 11
157.4789275
 21
423.87455750000004
  0
LINE
  8
_0-0_0
  6
CONTINUOUS
 62
    7
 10
156.82893350000001
 20
423.87455750000004
 11
156.82893350000001
 21
424.27458250000007
  0
LINE
  8
_0-0_0
  6
CONTINUOUS
 62
    7
 10
157.4789275
 20
424.27458250000007
 11
156.82893350000001
 21
424.27458250000007
  0
ARC
  8
_0-0_0
  6
CONTINUOUS
 62
    7
 10
157.4789275
 20
424.52458250000007
 40
0.25
 50
269.99999700000001
 51
0
  0
LINE
  8
_0-0_0
  6
CONTINUOUS
 62
    7
 10
157.7289275
 20
424.52458250000007
 11
157.7289275
 21
425.17457550000006
  0
LINE
  8
_0-0_0
  6
CONTINUOUS
 62
    7
 10
158.12893650000001
 20
425.17457550000006
 11
157.7289275
 21
425.17457550000006
  0
LINE
  8
_0-0_0
  6
CONTINUOUS
 62
    7
 10
158.12893650000001
 20
425.17457550000006
 11
158.12893650000001
 21
424.52458250000007
  0
ARC
  8
_0-0_0
  6
CONTINUOUS
 62
    7
 10
158.37893650000001
 20
424.52458250000007
 40
0.25
 50
180.00000900000003
 51
269.99999700000001
  0
LINE
  8
_0-0_0
  6
CONTINUOUS
 62
    7
 10
159.0289305
 20
424.27458250000007
 11
158.37893650000001
 21
424.27458250000007
  0
LINE
  8
_0-0_0
  6
CONTINUOUS
 62
    7
 10
159.0289305
 20
424.27458250000007
 11
159.0289305
 21
423.87455750000004
  0
LINE
  8
_0-0_0
  6
CONTINUOUS
 62
    7
 10
117.92893249999997
 20
421.90000950000001
 11
117.92893249999997
 21
421.75328049999996
  0
LINE
  8
_0-0_0
  6
CONTINUOUS
 62
    7
 10
117.92893249999997
 20
422.0905305
 11
117.92893249999997
 21
421.90000950000001
  0
LINE
  8
_0-0_0
  6
CONTINUOUS
 62
    7
 10
117.92893249999997
 20
422.26554850000002
 11
117.92893249999997
 21
422.0905305
  0
LINE
  8
_0-0_0
  6
CONTINUOUS
 62
    7
 10
117.92893249999997
 20
422.42314150000004
 11
117.92893249999997
 21
422.26554850000002
  0
LINE
  8
_0-0_0
  6
CONTINUOUS
 62
    7
 10
117.92893249999997
 20
422.56156950000002
 11
117.92893249999997
 21
422.42314150000004
  0
LINE
  8
_0-0_0
  6
CONTINUOUS
 62
    7
 10
117.92893249999997
 20
422.67933649999998
 11
117.92893249999997
 21
422.56156950000002
  0
LINE
  8
_0-0_0
  6
CONTINUOUS
 62
    7
 10
117.92893249999997
 20
422.77513150000004
 11
117.92893249999997
 21
422.67933649999998
  0
LINE
  8
_0-0_0
  6
CONTINUOUS
 62
    7
 10
117.92893249999997
 20
422.8479155
 11
117.92893249999997
 21
422.77513150000004
  0
LINE
  8
_0-0_0
  6
CONTINUOUS
 62
    7
 10
117.92893249999997
 20
422.89686549999999
 11
117.92893249999997
 21
422.8479155
  0
LINE
  8
_0-0_0
  6
CONTINUOUS
 62
    7
 10
117.92893249999997
 20
422.92457550000006
 11
117.92893249999997
 21
422.89686549999999
  0
LINE
  8
_0-0_0
  6
CONTINUOUS
 62
    7
 10
117.92893249999997
 20
422.92457550000006
 11
117.92893249999997
 21
422.9214935
  0
LINE
  8
_0-0_0
  6
CONTINUOUS
 62
    7
 10
117.92893249999997
 20
418.42765850000001
 11
117.92893249999997
 21
418.42457550000006
  0
LINE
  8
_0-0_0
  6
CONTINUOUS
 62
    7
 10
117.92893249999997
 20
418.45228550000002
 11
117.92893249999997
 21
418.42765850000001
  0
LINE
  8
_0-0_0
  6
CONTINUOUS
 62
    7
 10
117.92893249999997
 20
418.5012365
 11
117.92893249999997
 21
418.45228550000002
  0
LINE
  8
_0-0_0
  6
CONTINUOUS
 62
    7
 10
117.92893249999997
 20
418.57402049999996
 11
117.92893249999997
 21
418.5012365
  0
LINE
  8
_0-0_0
  6
CONTINUOUS
 62
    7
 10
117.92893249999997
 20
418.66981550000003
 11
117.92893249999997
 21
418.57402049999996
  0
LINE
  8
_0-0_0
  6
CONTINUOUS
 62
    7
 10
117.92893249999997
 20
418.69999749999999
 11
117.92893249999997
 21
418.66981550000003
  0
LINE
  8
_0-0_0
  6
CONTINUOUS
 62
    7
 10
117.92893249999997
 20
418.78755250000006
 11
117.92893249999997
 21
418.69999749999999
  0
LINE
  8
_0-0_0
  6
CONTINUOUS
 62
    7
 10
117.92893249999997
 20
418.92597950000004
 11
117.92893249999997
 21
418.78755250000006
  0
LINE
  8
_0-0_0
  6
CONTINUOUS
 62
    7
 10
117.92893249999997
 20
419.08357250000006
 11
117.92893249999997
 21
418.92597950000004
  0
LINE
  8
_0-0_0
  6
CONTINUOUS
 62
    7
 10
117.92893249999997
 20
419.25859049999997
 11
117.92893249999997
 21
419.08357250000006
  0
LINE
  8
_0-0_0
  6
CONTINUOUS
 62
    7
 10
117.92893249999997
 20
419.44914249999999
 11
117.92893249999997
 21
419.25859049999997
  0
LINE
  8
_0-0_0
  6
CONTINUOUS
 62
    7
 10
117.92893249999997
 20
419.65309149999996
 11
117.92893249999997
 21
419.44914249999999
  0
LINE
  8
_0-0_0
  6
CONTINUOUS
 62
    7
 10
117.92893249999997
 20
419.86824049999996
 11
117.92893249999997
 21
419.65309149999996
  0
LINE
  8
_0-0_0
  6
CONTINUOUS
 62
    7
 10
117.92893249999997
 20
420.09223950000001
 11
117.92893249999997
 21
419.86824049999996
  0
LINE
  8
_0-0_0
  6
CONTINUOUS
 62
    7
 10
117.92893249999997
 20
420.32258650000006
 11
117.92893249999997
 21
420.09223950000001
  0
LINE
  8
_0-0_0
  6
CONTINUOUS
 62
    7
 10
117.92893249999997
 20
420.55680849999999
 11
117.92893249999997
 21
420.32258650000006
  0
LINE
  8
_0-0_0
  6
CONTINUOUS
 62
    7
 10
117.92893249999997
 20
420.79231249999998
 11
117.92893249999997
 21
420.55680849999999
  0
LINE
  8
_0-0_0
  6
CONTINUOUS
 62
    7
 10
117.92893249999997
 20
421.02653550000002
 11
117.92893249999997
 21
420.79231249999998
  0
LINE
  8
_0-0_0
  6
CONTINUOUS
 62
    7
 10
117.92893249999997
 20
421.2569125
 11
117.92893249999997
 21
421.02653550000002
  0
LINE
  8
_0-0_0
  6
CONTINUOUS
 62
    7
 10
117.92893249999997
 20
421.48091150000005
 11
117.92893249999997
 21
421.2569125
  0
LINE
  8
_0-0_0
  6
CONTINUOUS
 62
    7
 10
117.92893249999997
 20
421.69606050000004
 11
117.92893249999997
 21
421.48091150000005
  0
LINE
  8
_0-0_0
  6
CONTINUOUS
 62
    7
 10
117.92893249999997
 20
421.75328049999996
 11
117.92893249999997
 21
421.69606050000004
  0
LINE
  8
_0-0_0
  6
CONTINUOUS
 62
    7
 10
132.92893249999997
 20
413.93663049999998
 11
132.92893249999997
 21
414.98225450000007
  0
LINE
  8
_0-0_0
  6
CONTINUOUS
 62
    7
 10
132.92893249999997
 20
416.2668615
 11
132.92893249999997
 21
414.98225450000007
  0
LINE
  8
_0-0_0
  6
CONTINUOUS
 62
    7
 10
132.92893249999997
 20
416.38224850000006
 11
132.92893249999997
 21
416.2668615
  0
LINE
  8
_0-0_0
  6
CONTINUOUS
 62
    7
 10
132.92893249999997
 20
413.93663049999998
 11
132.92893249999997
 21
410.81251550000002
  0
LINE
  8
_0-0_0
  6
CONTINUOUS
 62
    7
 10
132.92893249999997
 20
408.36686750000001
 11
132.92893249999997
 21
408.48225450000007
  0
LINE
  8
_0-0_0
  6
CONTINUOUS
 62
    7
 10
132.92893249999997
 20
409.7668615
 11
132.92893249999997
 21
408.48225450000007
  0
LINE
  8
_0-0_0
  6
CONTINUOUS
 62
    7
 10
132.92893249999997
 20
409.7668615
 11
132.92893249999997
 21
410.81251550000002
  0
LINE
  8
_0-0_0
  6
CONTINUOUS
 62
    7
 10
117.92893249999997
 20
405.3000035
 11
117.92893249999997
 21
405.15327450000007
  0
LINE
  8
_0-0_0
  6
CONTINUOUS
 62
    7
 10
117.92893249999997
 20
405.49055450000003
 11
117.92893249999997
 21
405.3000035
  0
LINE
  8
_0-0_0
  6
CONTINUOUS
 62
    7
 10
117.92893249999997
 20
405.66557350000005
 11
117.92893249999997
 21
405.49055450000003
  0
LINE
  8
_0-0_0
  6
CONTINUOUS
 62
    7
 10
117.92893249999997
 20
405.82313550000003
 11
117.92893249999997
 21
405.66557350000005
  0
LINE
  8
_0-0_0
  6
CONTINUOUS
 62
    7
 10
117.92893249999997
 20
405.96159350000005
 11
117.92893249999997
 21
405.82313550000003
  0
LINE
  8
_0-0_0
  6
CONTINUOUS
 62
    7
 10
117.92893249999997
 20
406.07933049999997
 11
117.92893249999997
 21
405.96159350000005
  0
LINE
  8
_0-0_0
  6
CONTINUOUS
 62
    7
 10
117.92893249999997
 20
406.17512550000004
 11
117.92893249999997
 21
406.07933049999997
  0
LINE
  8
_0-0_0
  6
CONTINUOUS
 62
    7
 10
117.92893249999997
 20
406.24790949999999
 11
117.92893249999997
 21
406.17512550000004
  0
LINE
  8
_0-0_0
  6
CONTINUOUS
 62
    7
 10
117.92893249999997
 20
406.29685949999998
 11
117.92893249999997
 21
406.24790949999999
  0
LINE
  8
_0-0_0
  6
CONTINUOUS
 62
    7
 10
117.92893249999997
 20
406.32456950000005
 11
117.92893249999997
 21
406.29685949999998
  0
LINE
  8
_0-0_0
  6
CONTINUOUS
 62
    7
 10
117.92893249999997
 20
406.32456950000005
 11
117.92893249999997
 21
406.32148749999999
  0
LINE
  8
_0-0_0
  6
CONTINUOUS
 62
    7
 10
117.92893249999997
 20
401.8276525
 11
117.92893249999997
 21
401.82456950000005
  0
LINE
  8
_0-0_0
  6
CONTINUOUS
 62
    7
 10
117.92893249999997
 20
401.85227950000001
 11
117.92893249999997
 21
401.82456950000005
  0
LINE
  8
_0-0_0
  6
CONTINUOUS
 62
    7
 10
117.92893249999997
 20
401.9012295
 11
117.92893249999997
 21
401.85227950000001
  0
LINE
  8
_0-0_0
  6
CONTINUOUS
 62
    7
 10
117.92893249999997
 20
401.97401450000007
 11
117.92893249999997
 21
401.9012295
  0
LINE
  8
_0-0_0
  6
CONTINUOUS
 62
    7
 10
117.92893249999997
 20
402.06980950000002
 11
117.92893249999997
 21
401.97401450000007
  0
LINE
  8
_0-0_0
  6
CONTINUOUS
 62
    7
 10
117.92893249999997
 20
402.10002150000003
 11
117.92893249999997
 21
402.06980950000002
  0
LINE
  8
_0-0_0
  6
CONTINUOUS
 62
    7
 10
117.92893249999997
 20
402.18754550000006
 11
117.92893249999997
 21
402.10002150000003
  0
LINE
  8
_0-0_0
  6
CONTINUOUS
 62
    7
 10
117.92893249999997
 20
402.32600450000007
 11
117.92893249999997
 21
402.18754550000006
  0
LINE
  8
_0-0_0
  6
CONTINUOUS
 62
    7
 10
117.92893249999997
 20
402.48359649999998
 11
117.92893249999997
 21
402.32600450000007
  0
LINE
  8
_0-0_0
  6
CONTINUOUS
 62
    7
 10
117.92893249999997
 20
402.65858449999996
 11
117.92893249999997
 21
402.48359649999998
  0
LINE
  8
_0-0_0
  6
CONTINUOUS
 62
    7
 10
117.92893249999997
 20
402.84913649999999
 11
117.92893249999997
 21
402.65858449999996
  0
LINE
  8
_0-0_0
  6
CONTINUOUS
 62
    7
 10
117.92893249999997
 20
403.05308550000007
 11
117.92893249999997
 21
402.84913649999999
  0
LINE
  8
_0-0_0
  6
CONTINUOUS
 62
    7
 10
117.92893249999997
 20
403.26823450000006
 11
117.92893249999997
 21
403.05308550000007
  0
LINE
  8
_0-0_0
  6
CONTINUOUS
 62
    7
 10
117.92893249999997
 20
403.4922335
 11
117.92893249999997
 21
403.26823450000006
  0
LINE
  8
_0-0_0
  6
CONTINUOUS
 62
    7
 10
117.92893249999997
 20
403.72258050000005
 11
117.92893249999997
 21
403.4922335
  0
LINE
  8
_0-0_0
  6
CONTINUOUS
 62
    7
 10
117.92893249999997
 20
403.95680249999998
 11
117.92893249999997
 21
403.72258050000005
  0
LINE
  8
_0-0_0
  6
CONTINUOUS
 62
    7
 10
117.92893249999997
 20
404.19233750000001
 11
117.92893249999997
 21
403.95680249999998
  0
LINE
  8
_0-0_0
  6
CONTINUOUS
 62
    7
 10
117.92893249999997
 20
404.42655950000005
 11
117.92893249999997
 21
404.19233750000001
  0
LINE
  8
_0-0_0
  6
CONTINUOUS
 62
    7
 10
117.92893249999997
 20
404.65690649999999
 11
117.92893249999997
 21
404.42655950000005
  0
LINE
  8
_0-0_0
  6
CONTINUOUS
 62
    7
 10
117.92893249999997
 20
404.88090550000004
 11
117.92893249999997
 21
404.65690649999999
  0
LINE
  8
_0-0_0
  6
CONTINUOUS
 62
    7
 10
117.92893249999997
 20
405.09605450000004
 11
117.92893249999997
 21
404.88090550000004
  0
LINE
  8
_0-0_0
  6
CONTINUOUS
 62
    7
 10
117.92893249999997
 20
405.15327450000007
 11
117.92893249999997
 21
405.09605450000004
  0
LINE
  8
_0-0_0
  6
CONTINUOUS
 62
    7
 10
228.92892449999999
 20
414.92457550000006
 11
224.92892449999999
 21
414.92457550000006
  0
ARC
  8
_0-0_0
  6
CONTINUOUS
 62
    7
 10
224.92892449999999
 20
417.17457550000006
 40
2.25
 50
90.000003000000007
 51
269.99999700000006
  0
LINE
  8
_0-0_0
  6
CONTINUOUS
 62
    7
 10
224.92892449999999
 20
419.42457550000006
 11
228.92892449999999
 21
419.42457550000006
  0
ARC
  8
_0-0_0
  6
CONTINUOUS
 62
    7
 10
228.92892449999999
 20
417.17457550000006
 40
2.25
 50
269.99999700000001
 51
90.000002999999992
  0
ARC
  8
_0-0_0
  6
CONTINUOUS
 62
    7
 10
168.92892449999999
 20
417.17457550000006
 40
2.25
 50
90.000003000000007
 51
269.99999700000006
  0
LINE
  8
_0-0_0
  6
CONTINUOUS
 62
    7
 10
168.92892449999999
 20
419.42457550000006
 11
172.92892449999999
 21
419.42457550000006
  0
ARC
  8
_0-0_0
  6
CONTINUOUS
 62
    7
 10
172.92892449999999
 20
417.17457550000006
 40
2.25
 50
269.99999700000001
 51
90.000002999999992
  0
LINE
  8
_0-0_0
  6
CONTINUOUS
 62
    7
 10
172.92892449999999
 20
414.92457550000006
 11
168.92892449999999
 21
414.92457550000006
  0
LINE
  8
_0-0_0
  6
CONTINUOUS
 62
    7
 10
117.92893249999997
 20
421.90000950000001
 11
117.67893249999997
 21
421.92457550000006
  0
LINE
  8
_0-0_0
  6
CONTINUOUS
 62
    7
 10
117.92893249999997
 20
421.69606050000004
 11
117.67893249999997
 21
421.92457550000006
  0
LINE
  8
_0-0_0
  6
CONTINUOUS
 62
    7
 10
117.92893249999997
 20
422.0905305
 11
117.67893249999997
 21
422.14402749999999
  0
LINE
  8
_0-0_0
  6
CONTINUOUS
 62
    7
 10
117.92893249999997
 20
421.90000950000001
 11
117.67893249999997
 21
422.14402749999999
  0
LINE
  8
_0-0_0
  6
CONTINUOUS
 62
    7
 10
117.92893249999997
 20
422.26554850000002
 11
117.67893249999997
 21
422.34739650000006
  0
LINE
  8
_0-0_0
  6
CONTINUOUS
 62
    7
 10
117.92893249999997
 20
422.0905305
 11
117.67893249999997
 21
422.34739650000006
  0
LINE
  8
_0-0_0
  6
CONTINUOUS
 62
    7
 10
117.92893249999997
 20
422.42314150000004
 11
117.67893249999997
 21
422.53242550000004
  0
LINE
  8
_0-0_0
  6
CONTINUOUS
 62
    7
 10
117.92893249999997
 20
422.26554850000002
 11
117.67893249999997
 21
422.53242550000004
  0
LINE
  8
_0-0_0
  6
CONTINUOUS
 62
    7
 10
117.92893249999997
 20
422.56156950000002
 11
117.67893249999997
 21
422.69712849999996
  0
LINE
  8
_0-0_0
  6
CONTINUOUS
 62
    7
 10
117.92893249999997
 20
422.42314150000004
 11
117.67893249999997
 21
422.69712849999996
  0
LINE
  8
_0-0_0
  6
CONTINUOUS
 62
    7
 10
117.92893249999997
 20
422.67933649999998
 11
117.67893249999997
 21
422.83964549999996
  0
LINE
  8
_0-0_0
  6
CONTINUOUS
 62
    7
 10
117.92893249999997
 20
422.56156950000002
 11
117.67893249999997
 21
422.83964549999996
  0
LINE
  8
_0-0_0
  6
CONTINUOUS
 62
    7
 10
117.92893249999997
 20
422.77513150000004
 11
117.67893249999997
 21
422.95845050000003
  0
LINE
  8
_0-0_0
  6
CONTINUOUS
 62
    7
 10
117.92893249999997
 20
422.67933649999998
 11
117.67893249999997
 21
422.95845050000003
  0
LINE
  8
_0-0_0
  6
CONTINUOUS
 62
    7
 10
117.92893249999997
 20
422.8479155
 11
117.67893249999997
 21
423.05220050000003
  0
LINE
  8
_0-0_0
  6
CONTINUOUS
 62
    7
 10
117.92893249999997
 20
422.77513150000004
 11
117.67893249999997
 21
423.05220050000003
  0
LINE
  8
_0-0_0
  6
CONTINUOUS
 62
    7
 10
117.92893249999997
 20
422.89686549999999
 11
117.67893249999997
 21
423.11994949999996
  0
LINE
  8
_0-0_0
  6
CONTINUOUS
 62
    7
 10
117.92893249999997
 20
422.8479155
 11
117.67893249999997
 21
423.11994949999996
  0
LINE
  8
_0-0_0
  6
CONTINUOUS
 62
    7
 10
117.92893249999997
 20
422.9214935
 11
117.67893249999997
 21
423.16087349999998
  0
LINE
  8
_0-0_0
  6
CONTINUOUS
 62
    7
 10
117.92893249999997
 20
422.89686549999999
 11
117.67893249999997
 21
423.16087349999998
  0
LINE
  8
_0-0_0
  6
CONTINUOUS
 62
    7
 10
117.92893249999997
 20
422.9214935
 11
117.67893249999997
 21
423.17457550000006
  0
LINE
  8
_0-0_0
  6
CONTINUOUS
 62
    7
 10
117.92893249999997
 20
418.42765850000001
 11
117.67893249999997
 21
418.17457550000006
  0
LINE
  8
_0-0_0
  6
CONTINUOUS
 62
    7
 10
117.92893249999997
 20
418.45228550000002
 11
117.67893249999997
 21
418.18827850000002
  0
LINE
  8
_0-0_0
  6
CONTINUOUS
 62
    7
 10
117.92893249999997
 20
418.42765850000001
 11
117.67893249999997
 21
418.18827850000002
  0
LINE
  8
_0-0_0
  6
CONTINUOUS
 62
    7
 10
117.92893249999997
 20
418.5012365
 11
117.67893249999997
 21
418.22920250000004
  0
LINE
  8
_0-0_0
  6
CONTINUOUS
 62
    7
 10
117.92893249999997
 20
418.45228550000002
 11
117.67893249999997
 21
418.22920250000004
  0
LINE
  8
_0-0_0
  6
CONTINUOUS
 62
    7
 10
117.92893249999997
 20
418.57402049999996
 11
117.67893249999997
 21
418.29692050000006
  0
LINE
  8
_0-0_0
  6
CONTINUOUS
 62
    7
 10
117.92893249999997
 20
418.5012365
 11
117.67893249999997
 21
418.29692050000006
  0
LINE
  8
_0-0_0
  6
CONTINUOUS
 62
    7
 10
117.92893249999997
 20
418.66981550000003
 11
117.67893249999997
 21
418.39070149999998
  0
LINE
  8
_0-0_0
  6
CONTINUOUS
 62
    7
 10
117.92893249999997
 20
418.57402049999996
 11
117.67893249999997
 21
418.39070149999998
  0
LINE
  8
_0-0_0
  6
CONTINUOUS
 62
    7
 10
117.92893249999997
 20
418.66981550000003
 11
117.79896550000001
 21
418.58595249999996
  0
LINE
  8
_0-0_0
  6
CONTINUOUS
 62
    7
 10
117.92893249999997
 20
418.78755250000006
 11
117.67893249999997
 21
418.50950650000004
  0
LINE
  8
_0-0_0
  6
CONTINUOUS
 62
    7
 10
117.79896550000001
 20
418.58595249999996
 11
117.67893249999997
 21
418.50950650000004
  0
LINE
  8
_0-0_0
  6
CONTINUOUS
 62
    7
 10
117.92893249999997
 20
418.92597950000004
 11
117.67893249999997
 21
418.65202350000004
  0
LINE
  8
_0-0_0
  6
CONTINUOUS
 62
    7
 10
117.92893249999997
 20
418.78755250000006
 11
117.67893249999997
 21
418.65202350000004
  0
LINE
  8
_0-0_0
  6
CONTINUOUS
 62
    7
 10
117.92893249999997
 20
419.08357250000006
 11
117.67893249999997
 21
418.81669650000003
  0
LINE
  8
_0-0_0
  6
CONTINUOUS
 62
    7
 10
117.92893249999997
 20
418.92597950000004
 11
117.67893249999997
 21
418.81669650000003
  0
LINE
  8
_0-0_0
  6
CONTINUOUS
 62
    7
 10
117.92893249999997
 20
419.25859049999997
 11
117.67893249999997
 21
419.00175450000006
  0
LINE
  8
_0-0_0
  6
CONTINUOUS
 62
    7
 10
117.92893249999997
 20
419.08357250000006
 11
117.67893249999997
 21
419.00175450000006
  0
LINE
  8
_0-0_0
  6
CONTINUOUS
 62
    7
 10
117.92893249999997
 20
419.44914249999999
 11
117.67893249999997
 21
419.20509349999998
  0
LINE
  8
_0-0_0
  6
CONTINUOUS
 62
    7
 10
117.92893249999997
 20
419.25859049999997
 11
117.67893249999997
 21
419.20509349999998
  0
LINE
  8
_0-0_0
  6
CONTINUOUS
 62
    7
 10
117.92893249999997
 20
419.65309149999996
 11
117.67893249999997
 21
419.42457550000006
  0
LINE
  8
_0-0_0
  6
CONTINUOUS
 62
    7
 10
117.92893249999997
 20
419.44914249999999
 11
117.67893249999997
 21
419.42457550000006
  0
LINE
  8
_0-0_0
  6
CONTINUOUS
 62
    7
 10
117.92893249999997
 20
419.86824049999996
 11
117.67893249999997
 21
419.65773049999996
  0
LINE
  8
_0-0_0
  6
CONTINUOUS
 62
    7
 10
117.92893249999997
 20
419.65309149999996
 11
117.67893249999997
 21
419.65773049999996
  0
LINE
  8
_0-0_0
  6
CONTINUOUS
 62
    7
 10
117.92893249999997
 20
420.09223950000001
 11
117.67893249999997
 21
419.90202350000004
  0
LINE
  8
_0-0_0
  6
CONTINUOUS
 62
    7
 10
117.92893249999997
 20
419.86824049999996
 11
117.67893249999997
 21
419.90202350000004
  0
LINE
  8
_0-0_0
  6
CONTINUOUS
 62
    7
 10
117.92893249999997
 20
420.32258650000006
 11
117.67893249999997
 21
420.15480049999996
  0
LINE
  8
_0-0_0
  6
CONTINUOUS
 62
    7
 10
117.92893249999997
 20
420.09223950000001
 11
117.67893249999997
 21
420.15480049999996
  0
LINE
  8
_0-0_0
  6
CONTINUOUS
 62
    7
 10
117.92893249999997
 20
420.55680849999999
 11
117.67893249999997
 21
420.4132535
  0
LINE
  8
_0-0_0
  6
CONTINUOUS
 62
    7
 10
117.92893249999997
 20
420.32258650000006
 11
117.67893249999997
 21
420.4132535
  0
LINE
  8
_0-0_0
  6
CONTINUOUS
 62
    7
 10
117.92893249999997
 20
420.79231249999998
 11
117.67893249999997
 21
420.67457550000006
  0
LINE
  8
_0-0_0
  6
CONTINUOUS
 62
    7
 10
117.92893249999997
 20
420.55680849999999
 11
117.67893249999997
 21
420.67457550000006
  0
LINE
  8
_0-0_0
  6
CONTINUOUS
 62
    7
 10
117.92893249999997
 20
421.02653550000002
 11
117.67893249999997
 21
420.93589750000001
  0
LINE
  8
_0-0_0
  6
CONTINUOUS
 62
    7
 10
117.92893249999997
 20
420.79231249999998
 11
117.67893249999997
 21
420.93589750000001
  0
LINE
  8
_0-0_0
  6
CONTINUOUS
 62
    7
 10
117.92893249999997
 20
421.2569125
 11
117.67893249999997
 21
421.19435150000004
  0
LINE
  8
_0-0_0
  6
CONTINUOUS
 62
    7
 10
117.92893249999997
 20
421.02653550000002
 11
117.67893249999997
 21
421.19435150000004
  0
LINE
  8
_0-0_0
  6
CONTINUOUS
 62
    7
 10
117.92893249999997
 20
421.48091150000005
 11
117.67893249999997
 21
421.44712849999996
  0
LINE
  8
_0-0_0
  6
CONTINUOUS
 62
    7
 10
117.92893249999997
 20
421.2569125
 11
117.67893249999997
 21
421.44712849999996
  0
LINE
  8
_0-0_0
  6
CONTINUOUS
 62
    7
 10
117.92893249999997
 20
421.69606050000004
 11
117.67893249999997
 21
421.69142150000005
  0
LINE
  8
_0-0_0
  6
CONTINUOUS
 62
    7
 10
117.92893249999997
 20
421.48091150000005
 11
117.67893249999997
 21
421.69142150000005
  0
LINE
  8
_0-0_0
  6
CONTINUOUS
 62
    7
 10
132.92893249999997
 20
416.2668615
 11
123.22110750000002
 21
416.2668615
  0
LINE
  8
_0-0_0
  6
CONTINUOUS
 62
    7
 10
123.22110750000002
 20
416.2668615
 11
123.16662650000001
 21
416.33680749999996
  0
LINE
  8
_0-0_0
  6
CONTINUOUS
 62
    7
 10
123.16662650000001
 20
416.33680749999996
 11
123.11552449999999
 21
416.40562450000004
  0
LINE
  8
_0-0_0
  6
CONTINUOUS
 62
    7
 10
123.11552449999999
 20
416.40562450000004
 11
123.06788649999999
 21
416.47315950000007
  0
LINE
  8
_0-0_0
  6
CONTINUOUS
 62
    7
 10
123.06788649999999
 20
416.47315950000007
 11
123.02338450000002
 21
416.53968850000001
  0
LINE
  8
_0-0_0
  6
CONTINUOUS
 62
    7
 10
123.02338450000002
 20
416.53968850000001
 11
122.9686585
 21
416.62724349999996
  0
LINE
  8
_0-0_0
  6
CONTINUOUS
 62
    7
 10
122.9686585
 20
416.62724349999996
 11
122.91915849999998
 21
416.71333349999998
  0
LINE
  8
_0-0_0
  6
CONTINUOUS
 62
    7
 10
122.91915849999998
 20
416.71333349999998
 11
122.87468749999999
 21
416.79817249999996
  0
LINE
  8
_0-0_0
  6
CONTINUOUS
 62
    7
 10
122.87468749999999
 20
416.79817249999996
 11
122.8277205
 21
416.8984835
  0
LINE
  8
_0-0_0
  6
CONTINUOUS
 62
    7
 10
122.8277205
 20
416.8984835
 11
122.78751349999999
 21
416.99742149999997
  0
LINE
  8
_0-0_0
  6
CONTINUOUS
 62
    7
 10
122.78751349999999
 20
416.99742149999997
 11
122.75384550000001
 21
417.0951695
  0
LINE
  8
_0-0_0
  6
CONTINUOUS
 62
    7
 10
122.75384550000001
 20
417.0951695
 11
122.7265625
 21
417.19197050000002
  0
LINE
  8
_0-0_0
  6
CONTINUOUS
 62
    7
 10
122.7265625
 20
417.19197050000002
 11
122.7055135
 21
417.28804049999997
  0
LINE
  8
_0-0_0
  6
CONTINUOUS
 62
    7
 10
122.7055135
 20
417.28804049999997
 11
122.68958250000003
 21
417.39189150000004
  0
LINE
  8
_0-0_0
  6
CONTINUOUS
 62
    7
 10
122.68958250000003
 20
417.39189150000004
 11
122.68082449999997
 21
417.49531550000006
  0
LINE
  8
_0-0_0
  6
CONTINUOUS
 62
    7
 10
122.68082449999997
 20
417.49531550000006
 11
122.6791915
 21
417.59852650000005
  0
LINE
  8
_0-0_0
  6
CONTINUOUS
 62
    7
 10
122.6791915
 20
417.59852650000005
 11
122.6846615
 21
417.70182850000003
  0
LINE
  8
_0-0_0
  6
CONTINUOUS
 62
    7
 10
122.6846615
 20
417.70182850000003
 11
122.69726550000001
 21
417.80543550000004
  0
LINE
  8
_0-0_0
  6
CONTINUOUS
 62
    7
 10
122.69726550000001
 20
417.80543550000004
 11
122.71708649999999
 21
417.9095615
  0
LINE
  8
_0-0_0
  6
CONTINUOUS
 62
    7
 10
122.71708649999999
 20
417.9095615
 11
122.74423250000001
 21
418.01454150000006
  0
LINE
  8
_0-0_0
  6
CONTINUOUS
 62
    7
 10
122.74423250000001
 20
418.01454150000006
 11
122.77887750000002
 21
418.12055950000001
  0
LINE
  8
_0-0_0
  6
CONTINUOUS
 62
    7
 10
122.77887750000002
 20
418.12055950000001
 11
122.82122049999998
 21
418.22795150000002
  0
LINE
  8
_0-0_0
  6
CONTINUOUS
 62
    7
 10
122.82122049999998
 20
418.22795150000002
 11
122.87153649999999
 21
418.33695950000003
  0
LINE
  8
_0-0_0
  6
CONTINUOUS
 62
    7
 10
122.87153649999999
 20
418.33695950000003
 11
122.9172365
 21
418.42460649999998
  0
LINE
  8
_0-0_0
  6
CONTINUOUS
 62
    7
 10
132.92893249999997
 20
414.98225450000007
 11
123.22110750000002
 21
414.98225450000007
  0
LINE
  8
_0-0_0
  6
CONTINUOUS
 62
    7
 10
123.22110750000002
 20
414.98225450000007
 11
123.12677050000002
 21
414.73564150000004
  0
LINE
  8
_0-0_0
  6
CONTINUOUS
 62
    7
 10
123.12677050000002
 20
414.73564150000004
 11
123.0428235
 21
414.49568150000005
  0
LINE
  8
_0-0_0
  6
CONTINUOUS
 62
    7
 10
123.0428235
 20
414.49568150000005
 11
122.9686585
 21
414.2615515
  0
LINE
  8
_0-0_0
  6
CONTINUOUS
 62
    7
 10
122.9686585
 20
414.2615515
 11
122.90378550000003
 21
414.03251650000004
  0
LINE
  8
_0-0_0
  6
CONTINUOUS
 62
    7
 10
122.90378550000003
 20
414.03251650000004
 11
122.84774750000003
 21
413.80784649999998
  0
LINE
  8
_0-0_0
  6
CONTINUOUS
 62
    7
 10
122.84774750000003
 20
413.80784649999998
 11
122.80017850000002
 21
413.58686850000004
  0
LINE
  8
_0-0_0
  6
CONTINUOUS
 62
    7
 10
122.80017850000002
 20
413.58686850000004
 11
122.76077250000003
 21
413.3689425
  0
LINE
  8
_0-0_0
  6
CONTINUOUS
 62
    7
 10
122.76077250000003
 20
413.3689425
 11
122.72927850000002
 21
413.15348849999998
  0
LINE
  8
_0-0_0
  6
CONTINUOUS
 62
    7
 10
122.72927850000002
 20
413.15348849999998
 11
122.7055135
 21
412.93995649999999
  0
LINE
  8
_0-0_0
  6
CONTINUOUS
 62
    7
 10
122.7055135
 20
412.93995649999999
 11
122.68958250000003
 21
412.73225450000007
  0
LINE
  8
_0-0_0
  6
CONTINUOUS
 62
    7
 10
122.68958250000003
 20
412.73225450000007
 11
122.68082449999997
 21
412.52540650000003
  0
LINE
  8
_0-0_0
  6
CONTINUOUS
 62
    7
 10
122.68082449999997
 20
412.52540650000003
 11
122.6791915
 21
412.31892449999998
  0
LINE
  8
_0-0_0
  6
CONTINUOUS
 62
    7
 10
122.6791915
 20
412.31892449999998
 11
122.6846615
 21
412.11235050000005
  0
LINE
  8
_0-0_0
  6
CONTINUOUS
 62
    7
 10
122.6846615
 20
412.11235050000005
 11
122.69726550000001
 21
411.90516650000006
  0
LINE
  8
_0-0_0
  6
CONTINUOUS
 62
    7
 10
122.69726550000001
 20
411.90516650000006
 11
122.71708649999999
 21
411.69688450000001
  0
LINE
  8
_0-0_0
  6
CONTINUOUS
 62
    7
 10
122.71708649999999
 20
411.69688450000001
 11
122.74423250000001
 21
411.48695350000003
  0
LINE
  8
_0-0_0
  6
CONTINUOUS
 62
    7
 10
122.74423250000001
 20
411.48695350000003
 11
122.77887750000002
 21
411.27488749999998
  0
LINE
  8
_0-0_0
  6
CONTINUOUS
 62
    7
 10
122.77887750000002
 20
411.27488749999998
 11
122.82122049999998
 21
411.0601355
  0
LINE
  8
_0-0_0
  6
CONTINUOUS
 62
    7
 10
122.82122049999998
 20
411.0601355
 11
122.87153649999999
 21
410.84211749999997
  0
LINE
  8
_0-0_0
  6
CONTINUOUS
 62
    7
 10
122.87153649999999
 20
410.84211749999997
 11
122.92578850000001
 21
410.63584950000006
  0
LINE
  8
_0-0_0
  6
CONTINUOUS
 62
    7
 10
122.92578850000001
 20
410.63584950000006
 11
122.98749550000002
 21
410.42573549999997
  0
LINE
  8
_0-0_0
  6
CONTINUOUS
 62
    7
 10
122.98749550000002
 20
410.42573549999997
 11
123.05701450000004
 21
410.21125849999999
  0
LINE
  8
_0-0_0
  6
CONTINUOUS
 62
    7
 10
123.05701450000004
 20
410.21125849999999
 11
123.1347275
 21
409.99186750000001
  0
LINE
  8
_0-0_0
  6
CONTINUOUS
 62
    7
 10
123.1347275
 20
409.99186750000001
 11
123.22110750000002
 21
409.7668615
  0
LINE
  8
_0-0_0
  6
CONTINUOUS
 62
    7
 10
132.92893249999997
 20
409.7668615
 11
123.22110750000002
 21
409.7668615
  0
ARC
  8
_0-0_0
  6
CONTINUOUS
 62
    7
 10
128.09265950000002
 20
415.62455750000004
 40
4.9136889999999998
 50
172.48898299999999
 51
187.51101699999998
  0
LINE
  8
_0-0_0
  6
CONTINUOUS
 62
    7
 10
132.92893249999997
 20
408.48225450000007
 11
123.22110750000002
 21
408.48225450000007
  0
LINE
  8
_0-0_0
  6
CONTINUOUS
 62
    7
 10
123.22110750000002
 20
405.87455750000004
 11
123.16662650000001
 21
405.9445035
  0
LINE
  8
_0-0_0
  6
CONTINUOUS
 62
    7
 10
123.16662650000001
 20
405.9445035
 11
123.11552449999999
 21
406.01332149999996
  0
LINE
  8
_0-0_0
  6
CONTINUOUS
 62
    7
 10
123.11552449999999
 20
406.01332149999996
 11
123.06788649999999
 21
406.08082550000006
  0
LINE
  8
_0-0_0
  6
CONTINUOUS
 62
    7
 10
123.06788649999999
 20
406.08082550000006
 11
123.02338450000002
 21
406.14738450000004
  0
LINE
  8
_0-0_0
  6
CONTINUOUS
 62
    7
 10
123.02338450000002
 20
406.14738450000004
 11
122.9686585
 21
406.2349395
  0
LINE
  8
_0-0_0
  6
CONTINUOUS
 62
    7
 10
122.9686585
 20
406.2349395
 11
122.91915849999998
 21
406.32102950000001
  0
LINE
  8
_0-0_0
  6
CONTINUOUS
 62
    7
 10
122.91915849999998
 20
406.32102950000001
 11
122.87468749999999
 21
406.4058685
  0
LINE
  8
_0-0_0
  6
CONTINUOUS
 62
    7
 10
122.87468749999999
 20
406.4058685
 11
122.8277205
 21
406.50617950000003
  0
LINE
  8
_0-0_0
  6
CONTINUOUS
 62
    7
 10
122.8277205
 20
406.50617950000003
 11
122.78751349999999
 21
406.60511750000001
  0
LINE
  8
_0-0_0
  6
CONTINUOUS
 62
    7
 10
122.78751349999999
 20
406.60511750000001
 11
122.75384550000001
 21
406.70286550000003
  0
LINE
  8
_0-0_0
  6
CONTINUOUS
 62
    7
 10
122.75384550000001
 20
406.70286550000003
 11
122.7265625
 21
406.79966750000006
  0
LINE
  8
_0-0_0
  6
CONTINUOUS
 62
    7
 10
122.7265625
 20
406.79966750000006
 11
122.7055135
 21
406.89570649999996
  0
LINE
  8
_0-0_0
  6
CONTINUOUS
 62
    7
 10
122.7055135
 20
406.89570649999996
 11
122.68958250000003
 21
406.99958849999996
  0
LINE
  8
_0-0_0
  6
CONTINUOUS
 62
    7
 10
122.68958250000003
 20
406.99958849999996
 11
122.68082449999997
 21
407.10301249999998
  0
LINE
  8
_0-0_0
  6
CONTINUOUS
 62
    7
 10
122.68082449999997
 20
407.10301249999998
 11
122.6791915
 21
407.2062535
  0
LINE
  8
_0-0_0
  6
CONTINUOUS
 62
    7
 10
122.6791915
 20
407.2062535
 11
122.6846615
 21
407.30952450000007
  0
LINE
  8
_0-0_0
  6
CONTINUOUS
 62
    7
 10
122.6846615
 20
407.30952450000007
 11
122.69726550000001
 21
407.41313149999996
  0
LINE
  8
_0-0_0
  6
CONTINUOUS
 62
    7
 10
122.69726550000001
 20
407.41313149999996
 11
122.71708649999999
 21
407.51725750000003
  0
LINE
  8
_0-0_0
  6
CONTINUOUS
 62
    7
 10
122.71708649999999
 20
407.51725750000003
 11
122.74423250000001
 21
407.62223849999998
  0
LINE
  8
_0-0_0
  6
CONTINUOUS
 62
    7
 10
122.74423250000001
 20
407.62223849999998
 11
122.77887750000002
 21
407.72825650000004
  0
LINE
  8
_0-0_0
  6
CONTINUOUS
 62
    7
 10
122.77887750000002
 20
407.72825650000004
 11
122.82122049999998
 21
407.83564750000005
  0
LINE
  8
_0-0_0
  6
CONTINUOUS
 62
    7
 10
122.82122049999998
 20
407.83564750000005
 11
122.87153649999999
 21
407.94462550000003
  0
LINE
  8
_0-0_0
  6
CONTINUOUS
 62
    7
 10
122.87153649999999
 20
407.94462550000003
 11
122.92578850000001
 21
408.04777550000006
  0
LINE
  8
_0-0_0
  6
CONTINUOUS
 62
    7
 10
122.92578850000001
 20
408.04777550000006
 11
122.98749550000002
 21
408.15284750000001
  0
LINE
  8
_0-0_0
  6
CONTINUOUS
 62
    7
 10
122.98749550000002
 20
408.15284750000001
 11
123.05701450000004
 21
408.26008650000006
  0
LINE
  8
_0-0_0
  6
CONTINUOUS
 62
    7
 10
123.05701450000004
 20
408.26008650000006
 11
123.1347275
 21
408.36976649999997
  0
LINE
  8
_0-0_0
  6
CONTINUOUS
 62
    7
 10
123.1347275
 20
408.36976649999997
 11
123.22110750000002
 21
408.48225450000007
  0
LINE
  8
_0-0_0
  6
CONTINUOUS
 62
    7
 10
132.92893249999997
 20
405.87455750000004
 11
123.22110750000002
 21
405.87455750000004
  0
ARC
  8
_0-0_0
  6
CONTINUOUS
 62
    7
 10
128.1028215
 20
409.1236725
 40
4.9238749999999998
 50
172.49424200000001
 51
181.535968
  0
ARC
  8
_0-0_0
  6
CONTINUOUS
 62
    7
 10
128.14084650000001
 20
409.12864650000006
 40
4.9620009999999999
 50
181.58130700000004
 51
187.48478900000003
  0
LINE
  8
_0-0_0
  6
CONTINUOUS
 62
    7
 10
123.17893249999997
 20
405.87455750000004
 11
123.22110750000002
 21
405.87455750000004
  0
LINE
  8
_0-0_0
  6
CONTINUOUS
 62
    7
 10
117.92893249999997
 20
405.3000035
 11
117.67893249999997
 21
405.32456950000005
  0
LINE
  8
_0-0_0
  6
CONTINUOUS
 62
    7
 10
117.92893249999997
 20
405.09605450000004
 11
117.67893249999997
 21
405.32456950000005
  0
LINE
  8
_0-0_0
  6
CONTINUOUS
 62
    7
 10
117.92893249999997
 20
405.49055450000003
 11
117.67893249999997
 21
405.54402149999999
  0
LINE
  8
_0-0_0
  6
CONTINUOUS
 62
    7
 10
117.92893249999997
 20
405.3000035
 11
117.67893249999997
 21
405.54402149999999
  0
LINE
  8
_0-0_0
  6
CONTINUOUS
 62
    7
 10
117.92893249999997
 20
405.66557350000005
 11
117.67893249999997
 21
405.74739050000005
  0
LINE
  8
_0-0_0
  6
CONTINUOUS
 62
    7
 10
117.92893249999997
 20
405.49055450000003
 11
117.67893249999997
 21
405.74739050000005
  0
LINE
  8
_0-0_0
  6
CONTINUOUS
 62
    7
 10
117.92893249999997
 20
405.82313550000003
 11
117.67893249999997
 21
405.93241850000004
  0
LINE
  8
_0-0_0
  6
CONTINUOUS
 62
    7
 10
117.92893249999997
 20
405.66557350000005
 11
117.67893249999997
 21
405.93241850000004
  0
LINE
  8
_0-0_0
  6
CONTINUOUS
 62
    7
 10
117.92893249999997
 20
405.96159350000005
 11
117.67893249999997
 21
406.09712249999995
  0
LINE
  8
_0-0_0
  6
CONTINUOUS
 62
    7
 10
117.92893249999997
 20
405.82313550000003
 11
117.67893249999997
 21
406.09712249999995
  0
LINE
  8
_0-0_0
  6
CONTINUOUS
 62
    7
 10
117.92893249999997
 20
406.07933049999997
 11
117.67893249999997
 21
406.23963950000007
  0
LINE
  8
_0-0_0
  6
CONTINUOUS
 62
    7
 10
117.92893249999997
 20
405.96159350000005
 11
117.67893249999997
 21
406.23963950000007
  0
LINE
  8
_0-0_0
  6
CONTINUOUS
 62
    7
 10
117.92893249999997
 20
406.17512550000004
 11
117.67893249999997
 21
406.35844450000002
  0
LINE
  8
_0-0_0
  6
CONTINUOUS
 62
    7
 10
117.92893249999997
 20
406.07933049999997
 11
117.67893249999997
 21
406.35844450000002
  0
LINE
  8
_0-0_0
  6
CONTINUOUS
 62
    7
 10
117.92893249999997
 20
406.24790949999999
 11
117.67893249999997
 21
406.45222450000006
  0
LINE
  8
_0-0_0
  6
CONTINUOUS
 62
    7
 10
117.92893249999997
 20
406.17512550000004
 11
117.67893249999997
 21
406.45222450000006
  0
LINE
  8
_0-0_0
  6
CONTINUOUS
 62
    7
 10
117.92893249999997
 20
406.29685949999998
 11
117.67893249999997
 21
406.51994350000007
  0
LINE
  8
_0-0_0
  6
CONTINUOUS
 62
    7
 10
117.92893249999997
 20
406.24790949999999
 11
117.67893249999997
 21
406.51994350000007
  0
LINE
  8
_0-0_0
  6
CONTINUOUS
 62
    7
 10
117.92893249999997
 20
406.32148749999999
 11
117.67893249999997
 21
406.56086749999997
  0
LINE
  8
_0-0_0
  6
CONTINUOUS
 62
    7
 10
117.92893249999997
 20
406.29685949999998
 11
117.67893249999997
 21
406.56086749999997
  0
LINE
  8
_0-0_0
  6
CONTINUOUS
 62
    7
 10
117.92893249999997
 20
406.32148749999999
 11
117.67893249999997
 21
406.57456950000005
  0
LINE
  8
_0-0_0
  6
CONTINUOUS
 62
    7
 10
117.92893249999997
 20
401.8276525
 11
117.67893249999997
 21
401.57456950000005
  0
LINE
  8
_0-0_0
  6
CONTINUOUS
 62
    7
 10
117.92893249999997
 20
401.85227950000001
 11
117.67893249999997
 21
401.58827250000002
  0
LINE
  8
_0-0_0
  6
CONTINUOUS
 62
    7
 10
117.92893249999997
 20
401.8276525
 11
117.67893249999997
 21
401.58827250000002
  0
LINE
  8
_0-0_0
  6
CONTINUOUS
 62
    7
 10
117.92893249999997
 20
401.9012295
 11
117.67893249999997
 21
401.62919650000003
  0
LINE
  8
_0-0_0
  6
CONTINUOUS
 62
    7
 10
117.92893249999997
 20
401.85227950000001
 11
117.67893249999997
 21
401.62919650000003
  0
LINE
  8
_0-0_0
  6
CONTINUOUS
 62
    7
 10
117.92893249999997
 20
401.97401450000007
 11
117.67893249999997
 21
401.69691450000005
  0
LINE
  8
_0-0_0
  6
CONTINUOUS
 62
    7
 10
117.92893249999997
 20
401.9012295
 11
117.67893249999997
 21
401.69691450000005
  0
LINE
  8
_0-0_0
  6
CONTINUOUS
 62
    7
 10
117.92893249999997
 20
402.06980950000002
 11
117.67893249999997
 21
401.79069549999997
  0
LINE
  8
_0-0_0
  6
CONTINUOUS
 62
    7
 10
117.92893249999997
 20
401.97401450000007
 11
117.67893249999997
 21
401.79069549999997
  0
LINE
  8
_0-0_0
  6
CONTINUOUS
 62
    7
 10
117.92893249999997
 20
402.06980950000002
 11
117.79896550000001
 21
401.98594650000007
  0
LINE
  8
_0-0_0
  6
CONTINUOUS
 62
    7
 10
117.92893249999997
 20
402.18754550000006
 11
117.67893249999997
 21
401.90950050000004
  0
LINE
  8
_0-0_0
  6
CONTINUOUS
 62
    7
 10
117.79896550000001
 20
401.98594650000007
 11
117.67893249999997
 21
401.90950050000004
  0
LINE
  8
_0-0_0
  6
CONTINUOUS
 62
    7
 10
117.92893249999997
 20
402.32600450000007
 11
117.67893249999997
 21
402.05201750000003
  0
LINE
  8
_0-0_0
  6
CONTINUOUS
 62
    7
 10
117.92893249999997
 20
402.18754550000006
 11
117.67893249999997
 21
402.05201750000003
  0
LINE
  8
_0-0_0
  6
CONTINUOUS
 62
    7
 10
117.92893249999997
 20
402.48359649999998
 11
117.67893249999997
 21
402.21672050000006
  0
LINE
  8
_0-0_0
  6
CONTINUOUS
 62
    7
 10
117.92893249999997
 20
402.32600450000007
 11
117.67893249999997
 21
402.21672050000006
  0
LINE
  8
_0-0_0
  6
CONTINUOUS
 62
    7
 10
117.92893249999997
 20
402.65858449999996
 11
117.67893249999997
 21
402.40174850000005
  0
LINE
  8
_0-0_0
  6
CONTINUOUS
 62
    7
 10
117.92893249999997
 20
402.48359649999998
 11
117.67893249999997
 21
402.40174850000005
  0
LINE
  8
_0-0_0
  6
CONTINUOUS
 62
    7
 10
117.92893249999997
 20
402.84913649999999
 11
117.67893249999997
 21
402.60511750000001
  0
LINE
  8
_0-0_0
  6
CONTINUOUS
 62
    7
 10
117.92893249999997
 20
402.65858449999996
 11
117.67893249999997
 21
402.60511750000001
  0
LINE
  8
_0-0_0
  6
CONTINUOUS
 62
    7
 10
117.92893249999997
 20
403.05308550000007
 11
117.67893249999997
 21
402.82456950000005
  0
LINE
  8
_0-0_0
  6
CONTINUOUS
 62
    7
 10
117.92893249999997
 20
402.84913649999999
 11
117.67893249999997
 21
402.82456950000005
  0
LINE
  8
_0-0_0
  6
CONTINUOUS
 62
    7
 10
117.92893249999997
 20
403.26823450000006
 11
117.67893249999997
 21
403.05772450000006
  0
LINE
  8
_0-0_0
  6
CONTINUOUS
 62
    7
 10
117.92893249999997
 20
403.05308550000007
 11
117.67893249999997
 21
403.05772450000006
  0
LINE
  8
_0-0_0
  6
CONTINUOUS
 62
    7
 10
117.92893249999997
 20
403.4922335
 11
117.67893249999997
 21
403.30201750000003
  0
LINE
  8
_0-0_0
  6
CONTINUOUS
 62
    7
 10
117.92893249999997
 20
403.26823450000006
 11
117.67893249999997
 21
403.30201750000003
  0
LINE
  8
_0-0_0
  6
CONTINUOUS
 62
    7
 10
117.92893249999997
 20
403.72258050000005
 11
117.67893249999997
 21
403.55479449999996
  0
LINE
  8
_0-0_0
  6
CONTINUOUS
 62
    7
 10
117.92893249999997
 20
403.4922335
 11
117.67893249999997
 21
403.55479449999996
  0
LINE
  8
_0-0_0
  6
CONTINUOUS
 62
    7
 10
117.92893249999997
 20
403.95680249999998
 11
117.67893249999997
 21
403.81324749999999
  0
LINE
  8
_0-0_0
  6
CONTINUOUS
 62
    7
 10
117.92893249999997
 20
403.72258050000005
 11
117.67893249999997
 21
403.81324749999999
  0
LINE
  8
_0-0_0
  6
CONTINUOUS
 62
    7
 10
117.92893249999997
 20
404.19233750000001
 11
117.67893249999997
 21
404.07456950000005
  0
LINE
  8
_0-0_0
  6
CONTINUOUS
 62
    7
 10
117.92893249999997
 20
403.95680249999998
 11
117.67893249999997
 21
404.07456950000005
  0
LINE
  8
_0-0_0
  6
CONTINUOUS
 62
    7
 10
117.92893249999997
 20
404.42655950000005
 11
117.67893249999997
 21
404.3358915
  0
LINE
  8
_0-0_0
  6
CONTINUOUS
 62
    7
 10
117.92893249999997
 20
404.19233750000001
 11
117.67893249999997
 21
404.3358915
  0
LINE
  8
_0-0_0
  6
CONTINUOUS
 62
    7
 10
117.92893249999997
 20
404.65690649999999
 11
117.67893249999997
 21
404.59434550000003
  0
LINE
  8
_0-0_0
  6
CONTINUOUS
 62
    7
 10
117.92893249999997
 20
404.42655950000005
 11
117.67893249999997
 21
404.59434550000003
  0
LINE
  8
_0-0_0
  6
CONTINUOUS
 62
    7
 10
117.92893249999997
 20
404.88090550000004
 11
117.67893249999997
 21
404.84712249999995
  0
LINE
  8
_0-0_0
  6
CONTINUOUS
 62
    7
 10
117.92893249999997
 20
404.65690649999999
 11
117.67893249999997
 21
404.84712249999995
  0
LINE
  8
_0-0_0
  6
CONTINUOUS
 62
    7
 10
117.92893249999997
 20
405.09605450000004
 11
117.67893249999997
 21
405.09141550000004
  0
LINE
  8
_0-0_0
  6
CONTINUOUS
 62
    7
 10
117.92893249999997
 20
404.88090550000004
 11
117.67893249999997
 21
405.09141550000004
  0
LINE
  8
_0-0_0
  6
CONTINUOUS
 62
    7
 10
108.17893249999997
 20
421.90000950000001
 11
108.42893249999997
 21
421.92457550000006
  0
LINE
  8
_0-0_0
  6
CONTINUOUS
 62
    7
 10
108.42893249999997
 20
421.92457550000006
 11
117.67893249999997
 21
421.92457550000006
  0
LINE
  8
_0-0_0
  6
CONTINUOUS
 62
    7
 10
108.17893249999997
 20
421.69606050000004
 11
108.42893249999997
 21
421.92457550000006
  0
LINE
  8
_0-0_0
  6
CONTINUOUS
 62
    7
 10
108.17893249999997
 20
421.69606050000004
 11
117.92893249999997
 21
421.69606050000004
  0
LINE
  8
_0-0_0
  6
CONTINUOUS
 62
    7
 10
108.17893249999997
 20
422.0905305
 11
108.42893249999997
 21
422.14402749999999
  0
LINE
  8
_0-0_0
  6
CONTINUOUS
 62
    7
 10
108.42893249999997
 20
422.14402749999999
 11
117.67893249999997
 21
422.14402749999999
  0
LINE
  8
_0-0_0
  6
CONTINUOUS
 62
    7
 10
108.17893249999997
 20
421.90000950000001
 11
108.42893249999997
 21
422.14402749999999
  0
LINE
  8
_0-0_0
  6
CONTINUOUS
 62
    7
 10
108.17893249999997
 20
422.26554850000002
 11
108.42893249999997
 21
422.34739650000006
  0
LINE
  8
_0-0_0
  6
CONTINUOUS
 62
    7
 10
108.42893249999997
 20
422.34739650000006
 11
117.67893249999997
 21
422.34739650000006
  0
LINE
  8
_0-0_0
  6
CONTINUOUS
 62
    7
 10
108.17893249999997
 20
422.0905305
 11
108.42893249999997
 21
422.34739650000006
  0
LINE
  8
_0-0_0
  6
CONTINUOUS
 62
    7
 10
108.17893249999997
 20
422.42314150000004
 11
108.42893249999997
 21
422.53242550000004
  0
LINE
  8
_0-0_0
  6
CONTINUOUS
 62
    7
 10
108.42893249999997
 20
422.53242550000004
 11
117.67893249999997
 21
422.53242550000004
  0
LINE
  8
_0-0_0
  6
CONTINUOUS
 62
    7
 10
108.17893249999997
 20
422.26554850000002
 11
108.42893249999997
 21
422.53242550000004
  0
LINE
  8
_0-0_0
  6
CONTINUOUS
 62
    7
 10
108.17893249999997
 20
422.56156950000002
 11
108.42893249999997
 21
422.69712849999996
  0
LINE
  8
_0-0_0
  6
CONTINUOUS
 62
    7
 10
108.42893249999997
 20
422.69712849999996
 11
117.67893249999997
 21
422.69712849999996
  0
LINE
  8
_0-0_0
  6
CONTINUOUS
 62
    7
 10
108.17893249999997
 20
422.42314150000004
 11
108.42893249999997
 21
422.69712849999996
  0
LINE
  8
_0-0_0
  6
CONTINUOUS
 62
    7
 10
108.17893249999997
 20
422.67933649999998
 11
108.42893249999997
 21
422.83964549999996
  0
LINE
  8
_0-0_0
  6
CONTINUOUS
 62
    7
 10
108.42893249999997
 20
422.83964549999996
 11
117.67893249999997
 21
422.83964549999996
  0
LINE
  8
_0-0_0
  6
CONTINUOUS
 62
    7
 10
108.17893249999997
 20
422.56156950000002
 11
108.42893249999997
 21
422.83964549999996
  0
LINE
  8
_0-0_0
  6
CONTINUOUS
 62
    7
 10
108.17893249999997
 20
422.77513150000004
 11
108.42893249999997
 21
422.95845050000003
  0
LINE
  8
_0-0_0
  6
CONTINUOUS
 62
    7
 10
108.42893249999997
 20
422.95845050000003
 11
117.67893249999997
 21
422.95845050000003
  0
LINE
  8
_0-0_0
  6
CONTINUOUS
 62
    7
 10
108.17893249999997
 20
422.67933649999998
 11
108.42893249999997
 21
422.95845050000003
  0
LINE
  8
_0-0_0
  6
CONTINUOUS
 62
    7
 10
108.17893249999997
 20
422.8479155
 11
108.42893249999997
 21
423.05220050000003
  0
LINE
  8
_0-0_0
  6
CONTINUOUS
 62
    7
 10
108.42893249999997
 20
423.05220050000003
 11
117.67893249999997
 21
423.05220050000003
  0
LINE
  8
_0-0_0
  6
CONTINUOUS
 62
    7
 10
108.17893249999997
 20
422.77513150000004
 11
108.42893249999997
 21
423.05220050000003
  0
LINE
  8
_0-0_0
  6
CONTINUOUS
 62
    7
 10
108.17893249999997
 20
422.89686549999999
 11
108.42893249999997
 21
423.11994949999996
  0
LINE
  8
_0-0_0
  6
CONTINUOUS
 62
    7
 10
108.42893249999997
 20
423.11994949999996
 11
117.67893249999997
 21
423.11994949999996
  0
LINE
  8
_0-0_0
  6
CONTINUOUS
 62
    7
 10
108.17893249999997
 20
422.8479155
 11
108.42893249999997
 21
423.11994949999996
  0
LINE
  8
_0-0_0
  6
CONTINUOUS
 62
    7
 10
108.17893249999997
 20
422.9214935
 11
108.42893249999997
 21
423.16087349999998
  0
LINE
  8
_0-0_0
  6
CONTINUOUS
 62
    7
 10
108.42893249999997
 20
423.16087349999998
 11
117.67893249999997
 21
423.16087349999998
  0
LINE
  8
_0-0_0
  6
CONTINUOUS
 62
    7
 10
108.17893249999997
 20
422.89686549999999
 11
108.42893249999997
 21
423.16087349999998
  0
LINE
  8
_0-0_0
  6
CONTINUOUS
 62
    7
 10
108.42893249999997
 20
423.17457550000006
 11
117.67893249999997
 21
423.17457550000006
  0
LINE
  8
_0-0_0
  6
CONTINUOUS
 62
    7
 10
108.17893249999997
 20
422.9214935
 11
108.42893249999997
 21
423.17457550000006
  0
LINE
  8
_0-0_0
  6
CONTINUOUS
 62
    7
 10
108.17893249999997
 20
418.42765850000001
 11
108.42893249999997
 21
418.17457550000006
  0
LINE
  8
_0-0_0
  6
CONTINUOUS
 62
    7
 10
108.42893249999997
 20
418.17457550000006
 11
117.67893249999997
 21
418.17457550000006
  0
LINE
  8
_0-0_0
  6
CONTINUOUS
 62
    7
 10
108.17893249999997
 20
418.45228550000002
 11
108.42893249999997
 21
418.18827850000002
  0
LINE
  8
_0-0_0
  6
CONTINUOUS
 62
    7
 10
108.42893249999997
 20
418.18827850000002
 11
117.67893249999997
 21
418.18827850000002
  0
LINE
  8
_0-0_0
  6
CONTINUOUS
 62
    7
 10
108.17893249999997
 20
418.42765850000001
 11
108.42893249999997
 21
418.18827850000002
  0
LINE
  8
_0-0_0
  6
CONTINUOUS
 62
    7
 10
108.17893249999997
 20
418.5012365
 11
108.42893249999997
 21
418.22920250000004
  0
LINE
  8
_0-0_0
  6
CONTINUOUS
 62
    7
 10
108.42893249999997
 20
418.22920250000004
 11
117.67893249999997
 21
418.22920250000004
  0
LINE
  8
_0-0_0
  6
CONTINUOUS
 62
    7
 10
108.17893249999997
 20
418.45228550000002
 11
108.42893249999997
 21
418.22920250000004
  0
LINE
  8
_0-0_0
  6
CONTINUOUS
 62
    7
 10
108.17893249999997
 20
418.57402049999996
 11
108.42893249999997
 21
418.29692050000006
  0
LINE
  8
_0-0_0
  6
CONTINUOUS
 62
    7
 10
108.42893249999997
 20
418.29692050000006
 11
117.67893249999997
 21
418.29692050000006
  0
LINE
  8
_0-0_0
  6
CONTINUOUS
 62
    7
 10
108.17893249999997
 20
418.5012365
 11
108.42893249999997
 21
418.29692050000006
  0
LINE
  8
_0-0_0
  6
CONTINUOUS
 62
    7
 10
108.17893249999997
 20
418.66981550000003
 11
108.42893249999997
 21
418.39070149999998
  0
LINE
  8
_0-0_0
  6
CONTINUOUS
 62
    7
 10
108.42893249999997
 20
418.39070149999998
 11
117.67893249999997
 21
418.39070149999998
  0
LINE
  8
_0-0_0
  6
CONTINUOUS
 62
    7
 10
108.17893249999997
 20
418.57402049999996
 11
108.42893249999997
 21
418.39070149999998
  0
LINE
  8
_0-0_0
  6
CONTINUOUS
 62
    7
 10
108.42893249999997
 20
418.50950650000004
 11
117.67893249999997
 21
418.50950650000004
  0
LINE
  8
_0-0_0
  6
CONTINUOUS
 62
    7
 10
108.3088985
 20
418.58595249999996
 11
108.42893249999997
 21
418.50950650000004
  0
LINE
  8
_0-0_0
  6
CONTINUOUS
 62
    7
 10
108.17893249999997
 20
418.66981550000003
 11
108.3088985
 21
418.58595249999996
  0
LINE
  8
_0-0_0
  6
CONTINUOUS
 62
    7
 10
108.17893249999997
 20
418.78755250000006
 11
108.42893249999997
 21
418.50950650000004
  0
LINE
  8
_0-0_0
  6
CONTINUOUS
 62
    7
 10
108.17893249999997
 20
418.92597950000004
 11
108.42893249999997
 21
418.65202350000004
  0
LINE
  8
_0-0_0
  6
CONTINUOUS
 62
    7
 10
108.42893249999997
 20
418.65202350000004
 11
117.67893249999997
 21
418.65202350000004
  0
LINE
  8
_0-0_0
  6
CONTINUOUS
 62
    7
 10
108.17893249999997
 20
418.78755250000006
 11
108.42893249999997
 21
418.65202350000004
  0
LINE
  8
_0-0_0
  6
CONTINUOUS
 62
    7
 10
108.17893249999997
 20
419.08357250000006
 11
108.42893249999997
 21
418.81669650000003
  0
LINE
  8
_0-0_0
  6
CONTINUOUS
 62
    7
 10
108.42893249999997
 20
418.81669650000003
 11
117.67893249999997
 21
418.81669650000003
  0
LINE
  8
_0-0_0
  6
CONTINUOUS
 62
    7
 10
108.17893249999997
 20
418.92597950000004
 11
108.42893249999997
 21
418.81669650000003
  0
LINE
  8
_0-0_0
  6
CONTINUOUS
 62
    7
 10
108.17893249999997
 20
419.25859049999997
 11
108.42893249999997
 21
419.00175450000006
  0
LINE
  8
_0-0_0
  6
CONTINUOUS
 62
    7
 10
108.42893249999997
 20
419.00175450000006
 11
117.67893249999997
 21
419.00175450000006
  0
LINE
  8
_0-0_0
  6
CONTINUOUS
 62
    7
 10
108.17893249999997
 20
419.08357250000006
 11
108.42893249999997
 21
419.00175450000006
  0
LINE
  8
_0-0_0
  6
CONTINUOUS
 62
    7
 10
108.17893249999997
 20
419.44914249999999
 11
108.42893249999997
 21
419.20509349999998
  0
LINE
  8
_0-0_0
  6
CONTINUOUS
 62
    7
 10
108.42893249999997
 20
419.20509349999998
 11
117.67893249999997
 21
419.20509349999998
  0
LINE
  8
_0-0_0
  6
CONTINUOUS
 62
    7
 10
108.17893249999997
 20
419.25859049999997
 11
108.42893249999997
 21
419.20509349999998
  0
LINE
  8
_0-0_0
  6
CONTINUOUS
 62
    7
 10
108.17893249999997
 20
419.65309149999996
 11
108.42893249999997
 21
419.42457550000006
  0
LINE
  8
_0-0_0
  6
CONTINUOUS
 62
    7
 10
108.42893249999997
 20
419.42457550000006
 11
117.67893249999997
 21
419.42457550000006
  0
LINE
  8
_0-0_0
  6
CONTINUOUS
 62
    7
 10
108.17893249999997
 20
419.65309149999996
 11
117.92893249999997
 21
419.65309149999996
  0
LINE
  8
_0-0_0
  6
CONTINUOUS
 62
    7
 10
108.17893249999997
 20
419.44914249999999
 11
108.42893249999997
 21
419.42457550000006
  0
LINE
  8
_0-0_0
  6
CONTINUOUS
 62
    7
 10
108.17893249999997
 20
419.86824049999996
 11
108.42893249999997
 21
419.65773049999996
  0
LINE
  8
_0-0_0
  6
CONTINUOUS
 62
    7
 10
108.42893249999997
 20
419.65773049999996
 11
117.67893249999997
 21
419.65773049999996
  0
LINE
  8
_0-0_0
  6
CONTINUOUS
 62
    7
 10
108.17893249999997
 20
419.86824049999996
 11
117.92893249999997
 21
419.86824049999996
  0
LINE
  8
_0-0_0
  6
CONTINUOUS
 62
    7
 10
108.17893249999997
 20
419.65309149999996
 11
108.42893249999997
 21
419.65773049999996
  0
LINE
  8
_0-0_0
  6
CONTINUOUS
 62
    7
 10
108.17893249999997
 20
420.09223950000001
 11
108.42893249999997
 21
419.90202350000004
  0
LINE
  8
_0-0_0
  6
CONTINUOUS
 62
    7
 10
108.42893249999997
 20
419.90202350000004
 11
117.67893249999997
 21
419.90202350000004
  0
LINE
  8
_0-0_0
  6
CONTINUOUS
 62
    7
 10
108.17893249999997
 20
420.09223950000001
 11
117.92893249999997
 21
420.09223950000001
  0
LINE
  8
_0-0_0
  6
CONTINUOUS
 62
    7
 10
108.17893249999997
 20
419.86824049999996
 11
108.42893249999997
 21
419.90202350000004
  0
LINE
  8
_0-0_0
  6
CONTINUOUS
 62
    7
 10
108.17893249999997
 20
420.32258650000006
 11
108.42893249999997
 21
420.15480049999996
  0
LINE
  8
_0-0_0
  6
CONTINUOUS
 62
    7
 10
108.42893249999997
 20
420.15480049999996
 11
117.67893249999997
 21
420.15480049999996
  0
LINE
  8
_0-0_0
  6
CONTINUOUS
 62
    7
 10
108.17893249999997
 20
420.32258650000006
 11
117.92893249999997
 21
420.32258650000006
  0
LINE
  8
_0-0_0
  6
CONTINUOUS
 62
    7
 10
108.17893249999997
 20
420.09223950000001
 11
108.42893249999997
 21
420.15480049999996
  0
LINE
  8
_0-0_0
  6
CONTINUOUS
 62
    7
 10
108.17893249999997
 20
420.55680849999999
 11
108.42893249999997
 21
420.4132535
  0
LINE
  8
_0-0_0
  6
CONTINUOUS
 62
    7
 10
108.42893249999997
 20
420.4132535
 11
117.67893249999997
 21
420.4132535
  0
LINE
  8
_0-0_0
  6
CONTINUOUS
 62
    7
 10
108.17893249999997
 20
420.55680849999999
 11
117.92893249999997
 21
420.55680849999999
  0
LINE
  8
_0-0_0
  6
CONTINUOUS
 62
    7
 10
108.17893249999997
 20
420.32258650000006
 11
108.42893249999997
 21
420.4132535
  0
LINE
  8
_0-0_0
  6
CONTINUOUS
 62
    7
 10
108.17893249999997
 20
420.79231249999998
 11
108.42893249999997
 21
420.67457550000006
  0
LINE
  8
_0-0_0
  6
CONTINUOUS
 62
    7
 10
108.42893249999997
 20
420.67457550000006
 11
117.67893249999997
 21
420.67457550000006
  0
LINE
  8
_0-0_0
  6
CONTINUOUS
 62
    7
 10
108.17893249999997
 20
420.79231249999998
 11
117.92893249999997
 21
420.79231249999998
  0
LINE
  8
_0-0_0
  6
CONTINUOUS
 62
    7
 10
108.17893249999997
 20
420.55680849999999
 11
108.42893249999997
 21
420.67457550000006
  0
LINE
  8
_0-0_0
  6
CONTINUOUS
 62
    7
 10
108.17893249999997
 20
421.02653550000002
 11
108.42893249999997
 21
420.93589750000001
  0
LINE
  8
_0-0_0
  6
CONTINUOUS
 62
    7
 10
108.42893249999997
 20
420.93589750000001
 11
117.67893249999997
 21
420.93589750000001
  0
LINE
  8
_0-0_0
  6
CONTINUOUS
 62
    7
 10
108.17893249999997
 20
421.02653550000002
 11
117.92893249999997
 21
421.02653550000002
  0
LINE
  8
_0-0_0
  6
CONTINUOUS
 62
    7
 10
108.17893249999997
 20
420.79231249999998
 11
108.42893249999997
 21
420.93589750000001
  0
LINE
  8
_0-0_0
  6
CONTINUOUS
 62
    7
 10
108.17893249999997
 20
421.2569125
 11
108.42893249999997
 21
421.19435150000004
  0
LINE
  8
_0-0_0
  6
CONTINUOUS
 62
    7
 10
108.42893249999997
 20
421.19435150000004
 11
117.67893249999997
 21
421.19435150000004
  0
LINE
  8
_0-0_0
  6
CONTINUOUS
 62
    7
 10
108.17893249999997
 20
421.2569125
 11
117.92893249999997
 21
421.2569125
  0
LINE
  8
_0-0_0
  6
CONTINUOUS
 62
    7
 10
108.17893249999997
 20
421.02653550000002
 11
108.42893249999997
 21
421.19435150000004
  0
LINE
  8
_0-0_0
  6
CONTINUOUS
 62
    7
 10
108.17893249999997
 20
421.48091150000005
 11
108.42893249999997
 21
421.44712849999996
  0
LINE
  8
_0-0_0
  6
CONTINUOUS
 62
    7
 10
108.42893249999997
 20
421.44712849999996
 11
117.67893249999997
 21
421.44712849999996
  0
LINE
  8
_0-0_0
  6
CONTINUOUS
 62
    7
 10
108.17893249999997
 20
421.48091150000005
 11
117.92893249999997
 21
421.48091150000005
  0
LINE
  8
_0-0_0
  6
CONTINUOUS
 62
    7
 10
108.17893249999997
 20
421.2569125
 11
108.42893249999997
 21
421.44712849999996
  0
LINE
  8
_0-0_0
  6
CONTINUOUS
 62
    7
 10
108.17893249999997
 20
421.69606050000004
 11
108.42893249999997
 21
421.69142150000005
  0
LINE
  8
_0-0_0
  6
CONTINUOUS
 62
    7
 10
108.42893249999997
 20
421.69142150000005
 11
117.67893249999997
 21
421.69142150000005
  0
LINE
  8
_0-0_0
  6
CONTINUOUS
 62
    7
 10
108.17893249999997
 20
421.48091150000005
 11
108.42893249999997
 21
421.69142150000005
  0
LINE
  8
_0-0_0
  6
CONTINUOUS
 62
    7
 10
121.92893249999997
 20
417.62455750000004
 11
121.92893249999997
 21
409.64302050000003
  0
LINE
  8
_0-0_0
  6
CONTINUOUS
 62
    7
 10
121.92893249999997
 20
409.64302050000003
 11
121.92893249999997
 21
407.12455750000004
  0
LINE
  8
_0-0_0
  6
CONTINUOUS
 62
    7
 10
108.17893249999997
 20
405.3000035
 11
108.42893249999997
 21
405.32456950000005
  0
LINE
  8
_0-0_0
  6
CONTINUOUS
 62
    7
 10
108.42893249999997
 20
405.32456950000005
 11
117.67893249999997
 21
405.32456950000005
  0
LINE
  8
_0-0_0
  6
CONTINUOUS
 62
    7
 10
108.17893249999997
 20
405.09605450000004
 11
108.42893249999997
 21
405.32456950000005
  0
LINE
  8
_0-0_0
  6
CONTINUOUS
 62
    7
 10
108.17893249999997
 20
405.09605450000004
 11
117.92893249999997
 21
405.09605450000004
  0
LINE
  8
_0-0_0
  6
CONTINUOUS
 62
    7
 10
108.17893249999997
 20
405.49055450000003
 11
108.42893249999997
 21
405.54402149999999
  0
LINE
  8
_0-0_0
  6
CONTINUOUS
 62
    7
 10
108.42893249999997
 20
405.54402149999999
 11
117.67893249999997
 21
405.54402149999999
  0
LINE
  8
_0-0_0
  6
CONTINUOUS
 62
    7
 10
108.17893249999997
 20
405.3000035
 11
108.42893249999997
 21
405.54402149999999
  0
LINE
  8
_0-0_0
  6
CONTINUOUS
 62
    7
 10
108.17893249999997
 20
405.66557350000005
 11
108.42893249999997
 21
405.74739050000005
  0
LINE
  8
_0-0_0
  6
CONTINUOUS
 62
    7
 10
108.42893249999997
 20
405.74739050000005
 11
117.67893249999997
 21
405.74739050000005
  0
LINE
  8
_0-0_0
  6
CONTINUOUS
 62
    7
 10
108.17893249999997
 20
405.49055450000003
 11
108.42893249999997
 21
405.74739050000005
  0
LINE
  8
_0-0_0
  6
CONTINUOUS
 62
    7
 10
108.17893249999997
 20
405.82313550000003
 11
108.42893249999997
 21
405.93241850000004
  0
LINE
  8
_0-0_0
  6
CONTINUOUS
 62
    7
 10
108.42893249999997
 20
405.93241850000004
 11
117.67893249999997
 21
405.93241850000004
  0
LINE
  8
_0-0_0
  6
CONTINUOUS
 62
    7
 10
108.17893249999997
 20
405.66557350000005
 11
108.42893249999997
 21
405.93241850000004
  0
LINE
  8
_0-0_0
  6
CONTINUOUS
 62
    7
 10
108.17893249999997
 20
405.96159350000005
 11
108.42893249999997
 21
406.09712249999995
  0
LINE
  8
_0-0_0
  6
CONTINUOUS
 62
    7
 10
108.42893249999997
 20
406.09712249999995
 11
117.67893249999997
 21
406.09712249999995
  0
LINE
  8
_0-0_0
  6
CONTINUOUS
 62
    7
 10
108.17893249999997
 20
405.82313550000003
 11
108.42893249999997
 21
406.09712249999995
  0
LINE
  8
_0-0_0
  6
CONTINUOUS
 62
    7
 10
108.17893249999997
 20
406.07933049999997
 11
108.42893249999997
 21
406.23963950000007
  0
LINE
  8
_0-0_0
  6
CONTINUOUS
 62
    7
 10
108.42893249999997
 20
406.23963950000007
 11
117.67893249999997
 21
406.23963950000007
  0
LINE
  8
_0-0_0
  6
CONTINUOUS
 62
    7
 10
108.17893249999997
 20
405.96159350000005
 11
108.42893249999997
 21
406.23963950000007
  0
LINE
  8
_0-0_0
  6
CONTINUOUS
 62
    7
 10
108.17893249999997
 20
406.17512550000004
 11
108.42893249999997
 21
406.35844450000002
  0
LINE
  8
_0-0_0
  6
CONTINUOUS
 62
    7
 10
108.42893249999997
 20
406.35844450000002
 11
117.67893249999997
 21
406.35844450000002
  0
LINE
  8
_0-0_0
  6
CONTINUOUS
 62
    7
 10
108.17893249999997
 20
406.07933049999997
 11
108.42893249999997
 21
406.35844450000002
  0
LINE
  8
_0-0_0
  6
CONTINUOUS
 62
    7
 10
108.17893249999997
 20
406.24790949999999
 11
108.42893249999997
 21
406.45222450000006
  0
LINE
  8
_0-0_0
  6
CONTINUOUS
 62
    7
 10
108.42893249999997
 20
406.45222450000006
 11
117.67893249999997
 21
406.45222450000006
  0
LINE
  8
_0-0_0
  6
CONTINUOUS
 62
    7
 10
108.17893249999997
 20
406.17512550000004
 11
108.42893249999997
 21
406.45222450000006
  0
LINE
  8
_0-0_0
  6
CONTINUOUS
 62
    7
 10
108.17893249999997
 20
406.29685949999998
 11
108.42893249999997
 21
406.51994350000007
  0
LINE
  8
_0-0_0
  6
CONTINUOUS
 62
    7
 10
108.42893249999997
 20
406.51994350000007
 11
117.67893249999997
 21
406.51994350000007
  0
LINE
  8
_0-0_0
  6
CONTINUOUS
 62
    7
 10
108.17893249999997
 20
406.24790949999999
 11
108.42893249999997
 21
406.51994350000007
  0
LINE
  8
_0-0_0
  6
CONTINUOUS
 62
    7
 10
108.17893249999997
 20
406.32148749999999
 11
108.42893249999997
 21
406.56086749999997
  0
LINE
  8
_0-0_0
  6
CONTINUOUS
 62
    7
 10
108.42893249999997
 20
406.56086749999997
 11
117.67893249999997
 21
406.56086749999997
  0
LINE
  8
_0-0_0
  6
CONTINUOUS
 62
    7
 10
108.17893249999997
 20
406.29685949999998
 11
108.42893249999997
 21
406.56086749999997
  0
LINE
  8
_0-0_0
  6
CONTINUOUS
 62
    7
 10
108.42893249999997
 20
406.57456950000005
 11
117.67893249999997
 21
406.57456950000005
  0
LINE
  8
_0-0_0
  6
CONTINUOUS
 62
    7
 10
108.17893249999997
 20
406.32148749999999
 11
108.42893249999997
 21
406.57456950000005
  0
LINE
  8
_0-0_0
  6
CONTINUOUS
 62
    7
 10
108.17893249999997
 20
401.8276525
 11
108.42893249999997
 21
401.57456950000005
  0
LINE
  8
_0-0_0
  6
CONTINUOUS
 62
    7
 10
108.42893249999997
 20
401.57456950000005
 11
117.67893249999997
 21
401.57456950000005
  0
LINE
  8
_0-0_0
  6
CONTINUOUS
 62
    7
 10
108.17893249999997
 20
401.85227950000001
 11
108.42893249999997
 21
401.58827250000002
  0
LINE
  8
_0-0_0
  6
CONTINUOUS
 62
    7
 10
108.42893249999997
 20
401.58827250000002
 11
117.67893249999997
 21
401.58827250000002
  0
LINE
  8
_0-0_0
  6
CONTINUOUS
 62
    7
 10
108.17893249999997
 20
401.8276525
 11
108.42893249999997
 21
401.58827250000002
  0
LINE
  8
_0-0_0
  6
CONTINUOUS
 62
    7
 10
108.17893249999997
 20
401.9012295
 11
108.42893249999997
 21
401.62919650000003
  0
LINE
  8
_0-0_0
  6
CONTINUOUS
 62
    7
 10
108.42893249999997
 20
401.62919650000003
 11
117.67893249999997
 21
401.62919650000003
  0
LINE
  8
_0-0_0
  6
CONTINUOUS
 62
    7
 10
108.17893249999997
 20
401.85227950000001
 11
108.42893249999997
 21
401.62919650000003
  0
LINE
  8
_0-0_0
  6
CONTINUOUS
 62
    7
 10
108.17893249999997
 20
401.97401450000007
 11
108.42893249999997
 21
401.69691450000005
  0
LINE
  8
_0-0_0
  6
CONTINUOUS
 62
    7
 10
108.42893249999997
 20
401.69691450000005
 11
117.67893249999997
 21
401.69691450000005
  0
LINE
  8
_0-0_0
  6
CONTINUOUS
 62
    7
 10
108.17893249999997
 20
401.9012295
 11
108.42893249999997
 21
401.69691450000005
  0
LINE
  8
_0-0_0
  6
CONTINUOUS
 62
    7
 10
108.17893249999997
 20
402.06980950000002
 11
108.42893249999997
 21
401.79069549999997
  0
LINE
  8
_0-0_0
  6
CONTINUOUS
 62
    7
 10
108.42893249999997
 20
401.79069549999997
 11
117.67893249999997
 21
401.79069549999997
  0
LINE
  8
_0-0_0
  6
CONTINUOUS
 62
    7
 10
108.17893249999997
 20
401.97401450000007
 11
108.42893249999997
 21
401.79069549999997
  0
LINE
  8
_0-0_0
  6
CONTINUOUS
 62
    7
 10
108.42893249999997
 20
401.90950050000004
 11
117.67893249999997
 21
401.90950050000004
  0
LINE
  8
_0-0_0
  6
CONTINUOUS
 62
    7
 10
108.3088985
 20
401.98594650000007
 11
108.42893249999997
 21
401.90950050000004
  0
LINE
  8
_0-0_0
  6
CONTINUOUS
 62
    7
 10
108.17893249999997
 20
402.06980950000002
 11
108.3088985
 21
401.98594650000007
  0
LINE
  8
_0-0_0
  6
CONTINUOUS
 62
    7
 10
108.17893249999997
 20
402.18754550000006
 11
108.42893249999997
 21
401.90950050000004
  0
LINE
  8
_0-0_0
  6
CONTINUOUS
 62
    7
 10
108.17893249999997
 20
402.32600450000007
 11
108.42893249999997
 21
402.05201750000003
  0
LINE
  8
_0-0_0
  6
CONTINUOUS
 62
    7
 10
108.42893249999997
 20
402.05201750000003
 11
117.67893249999997
 21
402.05201750000003
  0
LINE
  8
_0-0_0
  6
CONTINUOUS
 62
    7
 10
108.17893249999997
 20
402.18754550000006
 11
108.42893249999997
 21
402.05201750000003
  0
LINE
  8
_0-0_0
  6
CONTINUOUS
 62
    7
 10
108.17893249999997
 20
402.48359649999998
 11
108.42893249999997
 21
402.21672050000006
  0
LINE
  8
_0-0_0
  6
CONTINUOUS
 62
    7
 10
108.42893249999997
 20
402.21672050000006
 11
117.67893249999997
 21
402.21672050000006
  0
LINE
  8
_0-0_0
  6
CONTINUOUS
 62
    7
 10
108.17893249999997
 20
402.32600450000007
 11
108.42893249999997
 21
402.21672050000006
  0
LINE
  8
_0-0_0
  6
CONTINUOUS
 62
    7
 10
108.17893249999997
 20
402.65858449999996
 11
108.42893249999997
 21
402.40174850000005
  0
LINE
  8
_0-0_0
  6
CONTINUOUS
 62
    7
 10
108.42893249999997
 20
402.40174850000005
 11
117.67893249999997
 21
402.40174850000005
  0
LINE
  8
_0-0_0
  6
CONTINUOUS
 62
    7
 10
108.17893249999997
 20
402.48359649999998
 11
108.42893249999997
 21
402.40174850000005
  0
LINE
  8
_0-0_0
  6
CONTINUOUS
 62
    7
 10
108.17893249999997
 20
402.84913649999999
 11
108.42893249999997
 21
402.60511750000001
  0
LINE
  8
_0-0_0
  6
CONTINUOUS
 62
    7
 10
108.42893249999997
 20
402.60511750000001
 11
117.67893249999997
 21
402.60511750000001
  0
LINE
  8
_0-0_0
  6
CONTINUOUS
 62
    7
 10
108.17893249999997
 20
402.65858449999996
 11
108.42893249999997
 21
402.60511750000001
  0
LINE
  8
_0-0_0
  6
CONTINUOUS
 62
    7
 10
108.17893249999997
 20
403.05308550000007
 11
108.42893249999997
 21
402.82456950000005
  0
LINE
  8
_0-0_0
  6
CONTINUOUS
 62
    7
 10
108.42893249999997
 20
402.82456950000005
 11
117.67893249999997
 21
402.82456950000005
  0
LINE
  8
_0-0_0
  6
CONTINUOUS
 62
    7
 10
108.17893249999997
 20
403.05308550000007
 11
117.92893249999997
 21
403.05308550000007
  0
LINE
  8
_0-0_0
  6
CONTINUOUS
 62
    7
 10
108.17893249999997
 20
402.84913649999999
 11
108.42893249999997
 21
402.82456950000005
  0
LINE
  8
_0-0_0
  6
CONTINUOUS
 62
    7
 10
108.17893249999997
 20
403.26823450000006
 11
108.42893249999997
 21
403.05772450000006
  0
LINE
  8
_0-0_0
  6
CONTINUOUS
 62
    7
 10
108.42893249999997
 20
403.05772450000006
 11
117.67893249999997
 21
403.05772450000006
  0
LINE
  8
_0-0_0
  6
CONTINUOUS
 62
    7
 10
108.17893249999997
 20
403.26823450000006
 11
117.92893249999997
 21
403.26823450000006
  0
LINE
  8
_0-0_0
  6
CONTINUOUS
 62
    7
 10
108.17893249999997
 20
403.05308550000007
 11
108.42893249999997
 21
403.05772450000006
  0
LINE
  8
_0-0_0
  6
CONTINUOUS
 62
    7
 10
108.17893249999997
 20
403.4922335
 11
108.42893249999997
 21
403.30201750000003
  0
LINE
  8
_0-0_0
  6
CONTINUOUS
 62
    7
 10
108.42893249999997
 20
403.30201750000003
 11
117.67893249999997
 21
403.30201750000003
  0
LINE
  8
_0-0_0
  6
CONTINUOUS
 62
    7
 10
108.17893249999997
 20
403.4922335
 11
117.92893249999997
 21
403.4922335
  0
LINE
  8
_0-0_0
  6
CONTINUOUS
 62
    7
 10
108.17893249999997
 20
403.26823450000006
 11
108.42893249999997
 21
403.30201750000003
  0
LINE
  8
_0-0_0
  6
CONTINUOUS
 62
    7
 10
108.17893249999997
 20
403.72258050000005
 11
108.42893249999997
 21
403.55479449999996
  0
LINE
  8
_0-0_0
  6
CONTINUOUS
 62
    7
 10
108.42893249999997
 20
403.55479449999996
 11
117.67893249999997
 21
403.55479449999996
  0
LINE
  8
_0-0_0
  6
CONTINUOUS
 62
    7
 10
108.17893249999997
 20
403.72258050000005
 11
117.92893249999997
 21
403.72258050000005
  0
LINE
  8
_0-0_0
  6
CONTINUOUS
 62
    7
 10
108.17893249999997
 20
403.4922335
 11
108.42893249999997
 21
403.55479449999996
  0
LINE
  8
_0-0_0
  6
CONTINUOUS
 62
    7
 10
108.17893249999997
 20
403.95680249999998
 11
108.42893249999997
 21
403.81324749999999
  0
LINE
  8
_0-0_0
  6
CONTINUOUS
 62
    7
 10
108.42893249999997
 20
403.81324749999999
 11
117.67893249999997
 21
403.81324749999999
  0
LINE
  8
_0-0_0
  6
CONTINUOUS
 62
    7
 10
108.17893249999997
 20
403.95680249999998
 11
117.92893249999997
 21
403.95680249999998
  0
LINE
  8
_0-0_0
  6
CONTINUOUS
 62
    7
 10
108.17893249999997
 20
403.72258050000005
 11
108.42893249999997
 21
403.81324749999999
  0
LINE
  8
_0-0_0
  6
CONTINUOUS
 62
    7
 10
108.17893249999997
 20
404.19233750000001
 11
108.42893249999997
 21
404.07456950000005
  0
LINE
  8
_0-0_0
  6
CONTINUOUS
 62
    7
 10
108.42893249999997
 20
404.07456950000005
 11
117.67893249999997
 21
404.07456950000005
  0
LINE
  8
_0-0_0
  6
CONTINUOUS
 62
    7
 10
108.17893249999997
 20
404.19233750000001
 11
117.92893249999997
 21
404.19233750000001
  0
LINE
  8
_0-0_0
  6
CONTINUOUS
 62
    7
 10
108.17893249999997
 20
403.95680249999998
 11
108.42893249999997
 21
404.07456950000005
  0
LINE
  8
_0-0_0
  6
CONTINUOUS
 62
    7
 10
108.17893249999997
 20
404.42655950000005
 11
108.42893249999997
 21
404.3358915
  0
LINE
  8
_0-0_0
  6
CONTINUOUS
 62
    7
 10
108.42893249999997
 20
404.3358915
 11
117.67893249999997
 21
404.3358915
  0
LINE
  8
_0-0_0
  6
CONTINUOUS
 62
    7
 10
108.17893249999997
 20
404.42655950000005
 11
117.92893249999997
 21
404.42655950000005
  0
LINE
  8
_0-0_0
  6
CONTINUOUS
 62
    7
 10
108.17893249999997
 20
404.19233750000001
 11
108.42893249999997
 21
404.3358915
  0
LINE
  8
_0-0_0
  6
CONTINUOUS
 62
    7
 10
108.17893249999997
 20
404.65690649999999
 11
108.42893249999997
 21
404.59434550000003
  0
LINE
  8
_0-0_0
  6
CONTINUOUS
 62
    7
 10
108.42893249999997
 20
404.59434550000003
 11
117.67893249999997
 21
404.59434550000003
  0
LINE
  8
_0-0_0
  6
CONTINUOUS
 62
    7
 10
108.17893249999997
 20
404.65690649999999
 11
117.92893249999997
 21
404.65690649999999
  0
LINE
  8
_0-0_0
  6
CONTINUOUS
 62
    7
 10
108.17893249999997
 20
404.42655950000005
 11
108.42893249999997
 21
404.59434550000003
  0
LINE
  8
_0-0_0
  6
CONTINUOUS
 62
    7
 10
108.17893249999997
 20
404.88090550000004
 11
108.42893249999997
 21
404.84712249999995
  0
LINE
  8
_0-0_0
  6
CONTINUOUS
 62
    7
 10
108.42893249999997
 20
404.84712249999995
 11
117.67893249999997
 21
404.84712249999995
  0
LINE
  8
_0-0_0
  6
CONTINUOUS
 62
    7
 10
108.17893249999997
 20
404.88090550000004
 11
117.92893249999997
 21
404.88090550000004
  0
LINE
  8
_0-0_0
  6
CONTINUOUS
 62
    7
 10
108.17893249999997
 20
404.65690649999999
 11
108.42893249999997
 21
404.84712249999995
  0
LINE
  8
_0-0_0
  6
CONTINUOUS
 62
    7
 10
108.17893249999997
 20
405.09605450000004
 11
108.42893249999997
 21
405.09141550000004
  0
LINE
  8
_0-0_0
  6
CONTINUOUS
 62
    7
 10
108.42893249999997
 20
405.09141550000004
 11
117.67893249999997
 21
405.09141550000004
  0
LINE
  8
_0-0_0
  6
CONTINUOUS
 62
    7
 10
108.17893249999997
 20
404.88090550000004
 11
108.42893249999997
 21
405.09141550000004
  0
LINE
  8
_0-0_0
  6
CONTINUOUS
 62
    7
 10
107.92893249999997
 20
422.67457550000006
 11
107.92893249999997
 21
418.91941850000001
  0
LINE
  8
_0-0_0
  6
CONTINUOUS
 62
    7
 10
107.92893249999997
 20
418.91941850000001
 11
107.92893249999997
 21
418.67457550000006
  0
LINE
  8
_0-0_0
  6
CONTINUOUS
 62
    7
 10
107.92893249999997
 20
406.07456950000005
 11
107.92893249999997
 21
402.3194125
  0
LINE
  8
_0-0_0
  6
CONTINUOUS
 62
    7
 10
107.92893249999997
 20
402.3194125
 11
107.92893249999997
 21
402.07456950000005
  0
LINE
  8
_0-0_0
  6
CONTINUOUS
 62
    7
 10
121.5289305
 20
417.37455750000004
 11
121.5289305
 21
414.87455750000004
  0
LINE
  8
_0-0_0
  6
CONTINUOUS
 62
    7
 10
121.5289305
 20
414.87455750000004
 11
121.5289305
 21
407.37455750000004
  0
LINE
  8
_0-0_0
  6
CONTINUOUS
 62
    7
 10
120.72893550000003
 20
416.91270450000002
 11
120.72893550000003
 21
414.64363149999997
  0
LINE
  8
_0-0_0
  6
CONTINUOUS
 62
    7
 10
120.72893550000003
 20
414.64363149999997
 11
120.72893550000003
 21
407.83644149999998
  0
LINE
  8
_0-0_0
  6
CONTINUOUS
 62
    7
 10
62.728931499999987
 20
416.37455750000004
 11
62.728931499999987
 21
416.37321450000002
  0
LINE
  8
_0-0_0
  6
CONTINUOUS
 62
    7
 10
62.728931499999987
 20
416.37321450000002
 11
62.728931499999987
 21
408.37455750000004
  0
LINE
  8
_0-0_0
  6
CONTINUOUS
 62
    7
 10
143.92892449999999
 20
422.92457550000006
 11
117.92893249999997
 21
422.92457550000006
  0
LINE
  8
_0-0_0
  6
CONTINUOUS
 62
    7
 10
143.92892449999999
 20
418.42457550000006
 11
117.92893249999997
 21
418.42457550000006
  0
LINE
  8
_0-0_0
  6
CONTINUOUS
 62
    7
 10
122.72892050000002
 20
406.32456950000005
 11
117.92893249999997
 21
406.32456950000005
  0
LINE
  8
_0-0_0
  6
CONTINUOUS
 62
    7
 10
138.17889450000001
 20
401.82456950000005
 11
117.92893249999997
 21
401.82456950000005
  0
LINE
  8
_0-0_0
  6
CONTINUOUS
 62
    7
 10
117.92893249999997
 20
422.92457550000006
 11
117.67893249999997
 21
423.17457550000006
  0
LINE
  8
_0-0_0
  6
CONTINUOUS
 62
    7
 10
117.92893249999997
 20
418.42457550000006
 11
117.67893249999997
 21
418.17457550000006
  0
LINE
  8
_0-0_0
  6
CONTINUOUS
 62
    7
 10
117.92893249999997
 20
406.32456950000005
 11
117.67893249999997
 21
406.57456950000005
  0
LINE
  8
_0-0_0
  6
CONTINUOUS
 62
    7
 10
117.92893249999997
 20
401.82456950000005
 11
117.67893249999997
 21
401.57456950000005
  0
LINE
  8
_0-0_0
  6
CONTINUOUS
 62
    7
 10
121.92893249999997
 20
417.62455750000004
 11
122.7289275
 21
418.42457550000006
  0
LINE
  8
_0-0_0
  6
CONTINUOUS
 62
    7
 10
121.92893249999997
 20
407.12455750000004
 11
123.17893249999997
 21
405.87455750000004
  0
LINE
  8
_0-0_0
  6
CONTINUOUS
 62
    7
 10
107.92893249999997
 20
422.67457550000006
 11
108.42877950000002
 21
423.17442349999999
  0
LINE
  8
_0-0_0
  6
CONTINUOUS
 62
    7
 10
107.92893249999997
 20
418.67457550000006
 11
108.42877950000002
 21
418.17472850000001
  0
LINE
  8
_0-0_0
  6
CONTINUOUS
 62
    7
 10
107.92893249999997
 20
406.07456950000005
 11
108.42877950000002
 21
406.57441749999998
  0
LINE
  8
_0-0_0
  6
CONTINUOUS
 62
    7
 10
107.92893249999997
 20
402.07456950000005
 11
108.42877950000002
 21
401.57472250000001
  0
LINE
  8
_0-0_0
  6
CONTINUOUS
 62
    7
 10
121.92893249999997
 20
417.37455750000004
 11
121.5289305
 21
417.37455750000004
  0
LINE
  8
_0-0_0
  6
CONTINUOUS
 62
    7
 10
121.92893249999997
 20
407.37455750000004
 11
121.5289305
 21
407.37455750000004
  0
LINE
  8
_0-0_0
  6
CONTINUOUS
 62
    7
 10
120.72893550000003
 20
416.91270450000002
 11
121.5289305
 21
417.37455750000004
  0
LINE
  8
_0-0_0
  6
CONTINUOUS
 62
    7
 10
120.72893550000003
 20
407.83644149999998
 11
121.5289305
 21
407.37455750000004
  0
LINE
  8
_0-0_0
  6
CONTINUOUS
 62
    7
 10
120.72893550000003
 20
416.37455750000004
 11
62.728931499999987
 21
416.37455750000004
  0
LINE
  8
_0-0_0
  6
CONTINUOUS
 62
    7
 10
120.72893550000003
 20
408.37455750000004
 11
62.728931499999987
 21
408.37455750000004
  0
LINE
  8
_0-0_0
  6
CONTINUOUS
 62
    7
 10
128.42893249999997
 20
441.27464350000002
 11
130.88370550000002
 21
441.27464350000002
  0
LINE
  8
_0-0_0
  6
CONTINUOUS
 62
    7
 10
128.42893249999997
 20
428.07463050000001
 11
128.42893249999997
 21
441.27464350000002
  0
LINE
  8
_0-0_0
  6
CONTINUOUS
 62
    7
 10
831.42892449999999
 20
428.07463050000001
 11
831.42892449999999
 21
441.27464350000002
  0
LINE
  8
_0-0_0
  6
CONTINUOUS
 62
    7
 10
828.97415150000006
 20
441.27464350000002
 11
831.42892449999999
 21
441.27464350000002
  0
ARC
  8
_0-0_0
  6
CONTINUOUS
 62
    7
 10
822.42892449999999
 20
445.87464950000003
 40
8
 50
215.099627
 51
324.90037799999999
  0
LINE
  8
_0-0_0
  6
CONTINUOUS
 62
    7
 10
143.9741515
 20
441.27464350000002
 11
815.88369750000004
 21
441.27464350000002
  0
ARC
  8
_0-0_0
  6
CONTINUOUS
 62
    7
 10
137.42892449999999
 20
445.87464950000003
 40
8
 50
215.099627
 51
324.90037799999999
  0
LINE
  8
_0-0_0
  6
CONTINUOUS
 62
    7
 10
130.88370550000002
 20
441.27464350000002
 11
130.79472350000003
 21
441.40394649999996
  0
LINE
  8
_0-0_0
  6
CONTINUOUS
 62
    7
 10
143.9741515
 20
441.27464350000002
 11
144.06314050000003
 21
441.40394649999996
  0
LINE
  8
_0-0_0
  6
CONTINUOUS
 62
    7
 10
144.15628049999998
 20
441.54536450000001
 11
144.06314050000003
 21
441.40394649999996
  0
LINE
  8
_0-0_0
  6
CONTINUOUS
 62
    7
 10
144.15628049999998
 20
441.54536450000001
 11
144.23774750000001
 21
441.67463650000002
  0
ARC
  8
_0-0_0
  6
CONTINUOUS
 62
    7
 10
137.42892449999999
 20
445.87464950000003
 40
8
 50
328.33175599999993
 51
334.05550899999992
  0
LINE
  8
_0-0_0
  6
CONTINUOUS
 62
    7
 10
144.6226805
 20
442.37464950000003
 11
144.68415849999997
 21
442.50392150000005
  0
LINE
  8
_0-0_0
  6
CONTINUOUS
 62
    7
 10
144.7481995
 20
442.64534049999997
 11
144.68415849999997
 21
442.50392150000005
  0
LINE
  8
_0-0_0
  6
CONTINUOUS
 62
    7
 10
144.7481995
 20
442.64534049999997
 11
144.80389450000001
 21
442.77464350000002
  0
ARC
  8
_0-0_0
  6
CONTINUOUS
 62
    7
 10
137.42892449999999
 20
445.87464950000003
 40
8
 50
337.20097500000003
 51
342.54240199999998
  0
LINE
  8
_0-0_0
  6
CONTINUOUS
 62
    7
 10
145.06045549999999
 20
443.47465550000004
 11
145.09991450000001
 21
443.60392750000005
  0
LINE
  8
_0-0_0
  6
CONTINUOUS
 62
    7
 10
145.14035050000001
 20
443.74534649999998
 11
145.09991450000001
 21
443.60392750000005
  0
LINE
  8
_0-0_0
  6
CONTINUOUS
 62
    7
 10
145.14035050000001
 20
443.74534649999998
 11
145.17489650000005
 21
443.87464950000003
  0
ARC
  8
_0-0_0
  6
CONTINUOUS
 62
    7
 10
137.42892449999999
 20
445.87464950000003
 40
8
 50
345.52249499999999
 51
350.64797900000002
  0
LINE
  8
_0-0_0
  6
CONTINUOUS
 62
    7
 10
145.32260150000002
 20
444.57463050000001
 11
145.3428045
 21
444.70393350000006
  0
LINE
  8
_0-0_0
  6
CONTINUOUS
 62
    7
 10
145.36244250000004
 20
444.84535249999999
 11
145.3428045
 21
444.70393350000006
  0
LINE
  8
_0-0_0
  6
CONTINUOUS
 62
    7
 10
145.36244250000004
 20
444.84535249999999
 11
145.37814349999996
 21
444.97465550000004
  0
ARC
  8
_0-0_0
  6
CONTINUOUS
 62
    7
 10
137.42892449999999
 20
445.87464950000003
 40
8
 50
353.54056400000002
 51
358.56744600000002
  0
LINE
  8
_0-0_0
  6
CONTINUOUS
 62
    7
 10
145.42643750000002
 20
445.67463650000002
 11
145.42861949999997
 21
445.80393949999996
  0
LINE
  8
_0-0_0
  6
CONTINUOUS
 62
    7
 10
145.42861949999997
 20
445.80393949999996
 11
145.42893950000001
 21
445.87464950000003
  0
LINE
  8
_0-0_0
  6
CONTINUOUS
 62
    7
 10
129.42924549999998
 20
445.80393949999996
 11
129.42893249999997
 21
445.87464950000003
  0
LINE
  8
_0-0_0
  6
CONTINUOUS
 62
    7
 10
129.43143450000002
 20
445.67463650000002
 11
129.42924549999998
 21
445.80393949999996
  0
ARC
  8
_0-0_0
  6
CONTINUOUS
 62
    7
 10
137.42892449999999
 20
445.87464950000003
 40
8
 50
181.432545
 51
186.45945499999999
  0
LINE
  8
_0-0_0
  6
CONTINUOUS
 62
    7
 10
129.49542250000002
 20
444.84535249999999
 11
129.47972149999998
 21
444.97465550000004
  0
LINE
  8
_0-0_0
  6
CONTINUOUS
 62
    7
 10
129.49542250000002
 20
444.84535249999999
 11
129.51505250000002
 21
444.70393350000006
  0
LINE
  8
_0-0_0
  6
CONTINUOUS
 62
    7
 10
129.53526349999999
 20
444.57463050000001
 11
129.51505250000002
 21
444.70393350000006
  0
ARC
  8
_0-0_0
  6
CONTINUOUS
 62
    7
 10
137.42892449999999
 20
445.87464950000003
 40
8
 50
189.35203999999999
 51
194.47751
  0
LINE
  8
_0-0_0
  6
CONTINUOUS
 62
    7
 10
129.71750650000001
 20
443.74534649999998
 11
129.68296850000002
 21
443.87464950000003
  0
LINE
  8
_0-0_0
  6
CONTINUOUS
 62
    7
 10
129.71750650000001
 20
443.74534649999998
 11
129.75795749999997
 21
443.60392750000005
  0
LINE
  8
_0-0_0
  6
CONTINUOUS
 62
    7
 10
129.7974165
 20
443.47465550000004
 11
129.75795749999997
 21
443.60392750000005
  0
ARC
  8
_0-0_0
  6
CONTINUOUS
 62
    7
 10
137.42892449999999
 20
445.87464950000003
 40
8
 50
197.45760300000001
 51
202.79902999999999
  0
LINE
  8
_0-0_0
  6
CONTINUOUS
 62
    7
 10
130.10966450000001
 20
442.64534049999997
 11
130.05397849999997
 21
442.77464350000002
  0
LINE
  8
_0-0_0
  6
CONTINUOUS
 62
    7
 10
130.10966450000001
 20
442.64534049999997
 11
130.17370649999998
 21
442.50392150000005
  0
LINE
  8
_0-0_0
  6
CONTINUOUS
 62
    7
 10
130.23518350000001
 20
442.37464950000003
 11
130.17370649999998
 21
442.50392150000005
  0
ARC
  8
_0-0_0
  6
CONTINUOUS
 62
    7
 10
137.42892449999999
 20
445.87464950000003
 40
8
 50
205.94448199999999
 51
211.66823500000001
  0
LINE
  8
_0-0_0
  6
CONTINUOUS
 62
    7
 10
130.70158350000003
 20
441.54536450000001
 11
130.62011749999999
 21
441.67463650000002
  0
LINE
  8
_0-0_0
  6
CONTINUOUS
 62
    7
 10
130.70158350000003
 20
441.54536450000001
 11
130.79472350000003
 21
441.40394649999996
  0
LINE
  8
_0-0_0
  6
CONTINUOUS
 62
    7
 10
815.88369750000004
 20
441.27464350000002
 11
815.79470849999996
 21
441.40394649999996
  0
LINE
  8
_0-0_0
  6
CONTINUOUS
 62
    7
 10
814.42922950000002
 20
445.80393949999996
 11
814.42892449999999
 21
445.87464950000003
  0
LINE
  8
_0-0_0
  6
CONTINUOUS
 62
    7
 10
814.43142750000004
 20
445.67463650000002
 11
814.42922950000002
 21
445.80393949999996
  0
ARC
  8
_0-0_0
  6
CONTINUOUS
 62
    7
 10
822.42892449999999
 20
445.87464950000003
 40
8
 50
181.432545
 51
186.45945499999999
  0
LINE
  8
_0-0_0
  6
CONTINUOUS
 62
    7
 10
814.49539149999998
 20
444.84535249999999
 11
814.47970550000002
 21
444.97465550000004
  0
LINE
  8
_0-0_0
  6
CONTINUOUS
 62
    7
 10
814.49539149999998
 20
444.84535249999999
 11
814.51504550000004
 21
444.70393350000006
  0
LINE
  8
_0-0_0
  6
CONTINUOUS
 62
    7
 10
814.53524749999997
 20
444.57463050000001
 11
814.51504550000004
 21
444.70393350000006
  0
ARC
  8
_0-0_0
  6
CONTINUOUS
 62
    7
 10
822.42892449999999
 20
445.87464950000003
 40
8
 50
189.35203999999999
 51
194.47751
  0
LINE
  8
_0-0_0
  6
CONTINUOUS
 62
    7
 10
814.71749850000003
 20
443.74534649999998
 11
814.68295250000006
 21
443.87464950000003
  0
LINE
  8
_0-0_0
  6
CONTINUOUS
 62
    7
 10
814.71749850000003
 20
443.74534649999998
 11
814.75796549999995
 21
443.60392750000005
  0
LINE
  8
_0-0_0
  6
CONTINUOUS
 62
    7
 10
814.7973935
 20
443.47465550000004
 11
814.75796549999995
 21
443.60392750000005
  0
ARC
  8
_0-0_0
  6
CONTINUOUS
 62
    7
 10
822.42892449999999
 20
445.87464950000003
 40
8
 50
197.45760300000001
 51
202.79902999999999
  0
LINE
  8
_0-0_0
  6
CONTINUOUS
 62
    7
 10
815.10964950000005
 20
442.64534049999997
 11
815.05398549999995
 21
442.77464350000002
  0
LINE
  8
_0-0_0
  6
CONTINUOUS
 62
    7
 10
815.10964950000005
 20
442.64534049999997
 11
815.17367550000006
 21
442.50392150000005
  0
LINE
  8
_0-0_0
  6
CONTINUOUS
 62
    7
 10
815.23519950000002
 20
442.37464950000003
 11
815.17367550000006
 21
442.50392150000005
  0
ARC
  8
_0-0_0
  6
CONTINUOUS
 62
    7
 10
822.42892449999999
 20
445.87464950000003
 40
8
 50
205.94448199999999
 51
211.66823500000001
  0
LINE
  8
_0-0_0
  6
CONTINUOUS
 62
    7
 10
815.70156850000001
 20
441.54536450000001
 11
815.62008649999996
 21
441.67463650000002
  0
LINE
  8
_0-0_0
  6
CONTINUOUS
 62
    7
 10
815.70156850000001
 20
441.54536450000001
 11
815.79470849999996
 21
441.40394649999996
  0
LINE
  8
_0-0_0
  6
CONTINUOUS
 62
    7
 10
828.97415150000006
 20
441.27464350000002
 11
829.06314050000003
 21
441.40394649999996
  0
LINE
  8
_0-0_0
  6
CONTINUOUS
 62
    7
 10
829.15628049999998
 20
441.54536450000001
 11
829.06314050000003
 21
441.40394649999996
  0
LINE
  8
_0-0_0
  6
CONTINUOUS
 62
    7
 10
829.15628049999998
 20
441.54536450000001
 11
829.23776250000003
 21
441.67463650000002
  0
ARC
  8
_0-0_0
  6
CONTINUOUS
 62
    7
 10
822.42892449999999
 20
445.87464950000003
 40
8
 50
328.33175599999993
 51
334.05550899999992
  0
LINE
  8
_0-0_0
  6
CONTINUOUS
 62
    7
 10
829.62265049999996
 20
442.37464950000003
 11
829.68417350000004
 21
442.50392150000005
  0
LINE
  8
_0-0_0
  6
CONTINUOUS
 62
    7
 10
829.74819950000006
 20
442.64534049999997
 11
829.68417350000004
 21
442.50392150000005
  0
LINE
  8
_0-0_0
  6
CONTINUOUS
 62
    7
 10
829.74819950000006
 20
442.64534049999997
 11
829.80386350000003
 21
442.77464350000002
  0
ARC
  8
_0-0_0
  6
CONTINUOUS
 62
    7
 10
822.42892449999999
 20
445.87464950000003
 40
8
 50
337.20097500000003
 51
342.54240199999998
  0
LINE
  8
_0-0_0
  6
CONTINUOUS
 62
    7
 10
830.06045549999999
 20
443.47465550000004
 11
830.09988450000003
 21
443.60392750000005
  0
LINE
  8
_0-0_0
  6
CONTINUOUS
 62
    7
 10
830.14035049999995
 20
443.74534649999998
 11
830.09988450000003
 21
443.60392750000005
  0
LINE
  8
_0-0_0
  6
CONTINUOUS
 62
    7
 10
830.14035049999995
 20
443.74534649999998
 11
830.17489650000005
 21
443.87464950000003
  0
ARC
  8
_0-0_0
  6
CONTINUOUS
 62
    7
 10
822.42892449999999
 20
445.87464950000003
 40
8
 50
345.52249499999999
 51
350.64797900000002
  0
LINE
  8
_0-0_0
  6
CONTINUOUS
 62
    7
 10
830.32260150000002
 20
444.57463050000001
 11
830.34280450000006
 21
444.70393350000006
  0
LINE
  8
_0-0_0
  6
CONTINUOUS
 62
    7
 10
830.3624575
 20
444.84535249999999
 11
830.34280450000006
 21
444.70393350000006
  0
LINE
  8
_0-0_0
  6
CONTINUOUS
 62
    7
 10
830.3624575
 20
444.84535249999999
 11
830.37814349999996
 21
444.97465550000004
  0
ARC
  8
_0-0_0
  6
CONTINUOUS
 62
    7
 10
822.42892449999999
 20
445.87464950000003
 40
8
 50
353.54056400000002
 51
358.56744600000002
  0
LINE
  8
_0-0_0
  6
CONTINUOUS
 62
    7
 10
830.42642250000006
 20
445.67463650000002
 11
830.42861949999997
 21
445.80393949999996
  0
LINE
  8
_0-0_0
  6
CONTINUOUS
 62
    7
 10
830.42861949999997
 20
445.80393949999996
 11
830.42892449999999
 21
445.87464950000003
  0
LINE
  8
_0-0_0
  6
CONTINUOUS
 62
    7
 10
831.42892449999999
 20
441.40394649999996
 11
831.42892449999999
 21
441.27464350000002
  0
LINE
  8
_0-0_0
  6
CONTINUOUS
 62
    7
 10
831.42892449999999
 20
450.20393350000006
 11
831.42892449999999
 21
450.34535249999999
  0
LINE
  8
_0-0_0
  6
CONTINUOUS
 62
    7
 10
831.42892449999999
 20
450.20393350000006
 11
831.42892449999999
 21
450.07463050000001
  0
LINE
  8
_0-0_0
  6
CONTINUOUS
 62
    7
 10
831.42892449999999
 20
449.37464950000003
 11
831.42892449999999
 21
450.07463050000001
  0
LINE
  8
_0-0_0
  6
CONTINUOUS
 62
    7
 10
831.42892449999999
 20
449.24534649999998
 11
831.42892449999999
 21
449.37464950000003
  0
LINE
  8
_0-0_0
  6
CONTINUOUS
 62
    7
 10
831.42892449999999
 20
449.10392750000005
 11
831.42892449999999
 21
449.24534649999998
  0
LINE
  8
_0-0_0
  6
CONTINUOUS
 62
    7
 10
831.42892449999999
 20
449.10392750000005
 11
831.42892449999999
 21
448.97465550000004
  0
LINE
  8
_0-0_0
  6
CONTINUOUS
 62
    7
 10
831.42892449999999
 20
448.27464350000002
 11
831.42892449999999
 21
448.97465550000004
  0
LINE
  8
_0-0_0
  6
CONTINUOUS
 62
    7
 10
831.42892449999999
 20
448.14534049999997
 11
831.42892449999999
 21
448.27464350000002
  0
LINE
  8
_0-0_0
  6
CONTINUOUS
 62
    7
 10
831.42892449999999
 20
448.00392150000005
 11
831.42892449999999
 21
448.14534049999997
  0
LINE
  8
_0-0_0
  6
CONTINUOUS
 62
    7
 10
831.42892449999999
 20
448.00392150000005
 11
831.42892449999999
 21
447.87464950000003
  0
LINE
  8
_0-0_0
  6
CONTINUOUS
 62
    7
 10
831.42892449999999
 20
447.17463650000002
 11
831.42892449999999
 21
447.87464950000003
  0
LINE
  8
_0-0_0
  6
CONTINUOUS
 62
    7
 10
831.42892449999999
 20
447.04536450000001
 11
831.42892449999999
 21
447.17463650000002
  0
LINE
  8
_0-0_0
  6
CONTINUOUS
 62
    7
 10
831.42892449999999
 20
446.90394649999996
 11
831.42892449999999
 21
447.04536450000001
  0
LINE
  8
_0-0_0
  6
CONTINUOUS
 62
    7
 10
831.42892449999999
 20
446.90394649999996
 11
831.42892449999999
 21
446.77464350000002
  0
LINE
  8
_0-0_0
  6
CONTINUOUS
 62
    7
 10
831.42892449999999
 20
446.07463050000001
 11
831.42892449999999
 21
446.77464350000002
  0
LINE
  8
_0-0_0
  6
CONTINUOUS
 62
    7
 10
831.42892449999999
 20
445.9453585
 11
831.42892449999999
 21
446.07463050000001
  0
LINE
  8
_0-0_0
  6
CONTINUOUS
 62
    7
 10
831.42892449999999
 20
445.80393949999996
 11
831.42892449999999
 21
445.9453585
  0
LINE
  8
_0-0_0
  6
CONTINUOUS
 62
    7
 10
831.42892449999999
 20
445.80393949999996
 11
831.42892449999999
 21
445.67463650000002
  0
LINE
  8
_0-0_0
  6
CONTINUOUS
 62
    7
 10
831.42892449999999
 20
444.97465550000004
 11
831.42892449999999
 21
445.67463650000002
  0
LINE
  8
_0-0_0
  6
CONTINUOUS
 62
    7
 10
831.42892449999999
 20
444.84535249999999
 11
831.42892449999999
 21
444.97465550000004
  0
LINE
  8
_0-0_0
  6
CONTINUOUS
 62
    7
 10
831.42892449999999
 20
444.70393350000006
 11
831.42892449999999
 21
444.84535249999999
  0
LINE
  8
_0-0_0
  6
CONTINUOUS
 62
    7
 10
831.42892449999999
 20
444.70393350000006
 11
831.42892449999999
 21
444.57463050000001
  0
LINE
  8
_0-0_0
  6
CONTINUOUS
 62
    7
 10
831.42892449999999
 20
443.87464950000003
 11
831.42892449999999
 21
444.57463050000001
  0
LINE
  8
_0-0_0
  6
CONTINUOUS
 62
    7
 10
831.42892449999999
 20
443.74534649999998
 11
831.42892449999999
 21
443.87464950000003
  0
LINE
  8
_0-0_0
  6
CONTINUOUS
 62
    7
 10
831.42892449999999
 20
443.60392750000005
 11
831.42892449999999
 21
443.74534649999998
  0
LINE
  8
_0-0_0
  6
CONTINUOUS
 62
    7
 10
831.42892449999999
 20
443.60392750000005
 11
831.42892449999999
 21
443.47465550000004
  0
LINE
  8
_0-0_0
  6
CONTINUOUS
 62
    7
 10
831.42892449999999
 20
442.77464350000002
 11
831.42892449999999
 21
443.47465550000004
  0
LINE
  8
_0-0_0
  6
CONTINUOUS
 62
    7
 10
831.42892449999999
 20
442.64534049999997
 11
831.42892449999999
 21
442.77464350000002
  0
LINE
  8
_0-0_0
  6
CONTINUOUS
 62
    7
 10
831.42892449999999
 20
442.50392150000005
 11
831.42892449999999
 21
442.64534049999997
  0
LINE
  8
_0-0_0
  6
CONTINUOUS
 62
    7
 10
831.42892449999999
 20
442.50392150000005
 11
831.42892449999999
 21
442.37464950000003
  0
LINE
  8
_0-0_0
  6
CONTINUOUS
 62
    7
 10
831.42892449999999
 20
441.67463650000002
 11
831.42892449999999
 21
442.37464950000003
  0
LINE
  8
_0-0_0
  6
CONTINUOUS
 62
    7
 10
831.42892449999999
 20
441.54536450000001
 11
831.42892449999999
 21
441.67463650000002
  0
LINE
  8
_0-0_0
  6
CONTINUOUS
 62
    7
 10
831.42892449999999
 20
441.40394649999996
 11
831.42892449999999
 21
441.54536450000001
  0
LINE
  8
_0-0_0
  6
CONTINUOUS
 62
    7
 10
831.42892449999999
 20
427.57463050000001
 11
831.42892449999999
 21
428.07463050000001
  0
LINE
  8
_0-0_0
  6
CONTINUOUS
 62
    7
 10
831.42892449999999
 20
456.07463050000001
 11
831.42892449999999
 21
455.48066749999998
  0
LINE
  8
_0-0_0
  6
CONTINUOUS
 62
    7
 10
831.42892449999999
 20
450.47465550000004
 11
831.42892449999999
 21
455.48066749999998
  0
LINE
  8
_0-0_0
  6
CONTINUOUS
 62
    7
 10
831.42892449999999
 20
450.34535249999999
 11
831.42892449999999
 21
450.47465550000004
  0
LINE
  8
_0-0_0
  6
CONTINUOUS
 62
    7
 10
128.42893249999997
 20
427.57463050000001
 11
128.42893249999997
 21
428.07463050000001
  0
LINE
  8
_0-0_0
  6
CONTINUOUS
 62
    7
 10
128.42893249999997
 20
427.57463050000001
 11
831.42892449999999
 21
427.57463050000001
  0
LINE
  8
_0-0_0
  6
CONTINUOUS
 62
    7
 10
128.42893249999997
 20
441.40394649999996
 11
128.42893249999997
 21
441.54536450000001
  0
LINE
  8
_0-0_0
  6
CONTINUOUS
 62
    7
 10
128.42893249999997
 20
441.40394649999996
 11
128.42893249999997
 21
441.27464350000002
  0
LINE
  8
_0-0_0
  6
CONTINUOUS
 62
    7
 10
128.42893249999997
 20
456.07463050000001
 11
128.42893249999997
 21
455.48066749999998
  0
LINE
  8
_0-0_0
  6
CONTINUOUS
 62
    7
 10
128.42893249999997
 20
450.47465550000004
 11
128.42893249999997
 21
455.48066749999998
  0
LINE
  8
_0-0_0
  6
CONTINUOUS
 62
    7
 10
128.42893249999997
 20
450.34535249999999
 11
128.42893249999997
 21
450.47465550000004
  0
LINE
  8
_0-0_0
  6
CONTINUOUS
 62
    7
 10
128.42893249999997
 20
450.20393350000006
 11
128.42893249999997
 21
450.34535249999999
  0
LINE
  8
_0-0_0
  6
CONTINUOUS
 62
    7
 10
128.42893249999997
 20
450.20393350000006
 11
128.42893249999997
 21
450.07463050000001
  0
LINE
  8
_0-0_0
  6
CONTINUOUS
 62
    7
 10
128.42893249999997
 20
449.37464950000003
 11
128.42893249999997
 21
450.07463050000001
  0
LINE
  8
_0-0_0
  6
CONTINUOUS
 62
    7
 10
128.42893249999997
 20
449.24534649999998
 11
128.42893249999997
 21
449.37464950000003
  0
LINE
  8
_0-0_0
  6
CONTINUOUS
 62
    7
 10
128.42893249999997
 20
449.10392750000005
 11
128.42893249999997
 21
449.24534649999998
  0
LINE
  8
_0-0_0
  6
CONTINUOUS
 62
    7
 10
128.42893249999997
 20
449.10392750000005
 11
128.42893249999997
 21
448.97465550000004
  0
LINE
  8
_0-0_0
  6
CONTINUOUS
 62
    7
 10
128.42893249999997
 20
448.27464350000002
 11
128.42893249999997
 21
448.97465550000004
  0
LINE
  8
_0-0_0
  6
CONTINUOUS
 62
    7
 10
128.42893249999997
 20
448.14534049999997
 11
128.42893249999997
 21
448.27464350000002
  0
LINE
  8
_0-0_0
  6
CONTINUOUS
 62
    7
 10
128.42893249999997
 20
448.00392150000005
 11
128.42893249999997
 21
448.14534049999997
  0
LINE
  8
_0-0_0
  6
CONTINUOUS
 62
    7
 10
128.42893249999997
 20
448.00392150000005
 11
128.42893249999997
 21
447.87464950000003
  0
LINE
  8
_0-0_0
  6
CONTINUOUS
 62
    7
 10
128.42893249999997
 20
447.17463650000002
 11
128.42893249999997
 21
447.87464950000003
  0
LINE
  8
_0-0_0
  6
CONTINUOUS
 62
    7
 10
128.42893249999997
 20
447.04536450000001
 11
128.42893249999997
 21
447.17463650000002
  0
LINE
  8
_0-0_0
  6
CONTINUOUS
 62
    7
 10
128.42893249999997
 20
446.90394649999996
 11
128.42893249999997
 21
447.04536450000001
  0
LINE
  8
_0-0_0
  6
CONTINUOUS
 62
    7
 10
128.42893249999997
 20
446.90394649999996
 11
128.42893249999997
 21
446.77464350000002
  0
LINE
  8
_0-0_0
  6
CONTINUOUS
 62
    7
 10
128.42893249999997
 20
446.07463050000001
 11
128.42893249999997
 21
446.77464350000002
  0
LINE
  8
_0-0_0
  6
CONTINUOUS
 62
    7
 10
128.42893249999997
 20
445.9453585
 11
128.42893249999997
 21
446.07463050000001
  0
LINE
  8
_0-0_0
  6
CONTINUOUS
 62
    7
 10
128.42893249999997
 20
445.80393949999996
 11
128.42893249999997
 21
445.9453585
  0
LINE
  8
_0-0_0
  6
CONTINUOUS
 62
    7
 10
128.42893249999997
 20
445.80393949999996
 11
128.42893249999997
 21
445.67463650000002
  0
LINE
  8
_0-0_0
  6
CONTINUOUS
 62
    7
 10
128.42893249999997
 20
444.97465550000004
 11
128.42893249999997
 21
445.67463650000002
  0
LINE
  8
_0-0_0
  6
CONTINUOUS
 62
    7
 10
128.42893249999997
 20
444.84535249999999
 11
128.42893249999997
 21
444.97465550000004
  0
LINE
  8
_0-0_0
  6
CONTINUOUS
 62
    7
 10
128.42893249999997
 20
444.70393350000006
 11
128.42893249999997
 21
444.84535249999999
  0
LINE
  8
_0-0_0
  6
CONTINUOUS
 62
    7
 10
128.42893249999997
 20
444.70393350000006
 11
128.42893249999997
 21
444.57463050000001
  0
LINE
  8
_0-0_0
  6
CONTINUOUS
 62
    7
 10
128.42893249999997
 20
443.87464950000003
 11
128.42893249999997
 21
444.57463050000001
  0
LINE
  8
_0-0_0
  6
CONTINUOUS
 62
    7
 10
128.42893249999997
 20
443.74534649999998
 11
128.42893249999997
 21
443.87464950000003
  0
LINE
  8
_0-0_0
  6
CONTINUOUS
 62
    7
 10
128.42893249999997
 20
443.60392750000005
 11
128.42893249999997
 21
443.74534649999998
  0
LINE
  8
_0-0_0
  6
CONTINUOUS
 62
    7
 10
128.42893249999997
 20
443.60392750000005
 11
128.42893249999997
 21
443.47465550000004
  0
LINE
  8
_0-0_0
  6
CONTINUOUS
 62
    7
 10
128.42893249999997
 20
442.77464350000002
 11
128.42893249999997
 21
443.47465550000004
  0
LINE
  8
_0-0_0
  6
CONTINUOUS
 62
    7
 10
128.42893249999997
 20
442.64534049999997
 11
128.42893249999997
 21
442.77464350000002
  0
LINE
  8
_0-0_0
  6
CONTINUOUS
 62
    7
 10
128.42893249999997
 20
442.50392150000005
 11
128.42893249999997
 21
442.64534049999997
  0
LINE
  8
_0-0_0
  6
CONTINUOUS
 62
    7
 10
128.42893249999997
 20
442.50392150000005
 11
128.42893249999997
 21
442.37464950000003
  0
LINE
  8
_0-0_0
  6
CONTINUOUS
 62
    7
 10
128.42893249999997
 20
441.67463650000002
 11
128.42893249999997
 21
442.37464950000003
  0
LINE
  8
_0-0_0
  6
CONTINUOUS
 62
    7
 10
128.42893249999997
 20
441.54536450000001
 11
128.42893249999997
 21
441.67463650000002
  0
LINE
  8
_0-0_0
  6
CONTINUOUS
 62
    7
 10
765.42892449999999
 20
433.57466150000005
 11
772.42892449999999
 21
433.57466150000005
  0
ARC
  8
_0-0_0
  6
CONTINUOUS
 62
    7
 10
765.42892449999999
 20
433.07466150000005
 40
0.5
 50
90.000003000000007
 51
180.00000900000001
  0
LINE
  8
_0-0_0
  6
CONTINUOUS
 62
    7
 10
764.92892449999999
 20
433.07466150000005
 11
764.92892449999999
 21
429.07463050000001
  0
ARC
  8
_0-0_0
  6
CONTINUOUS
 62
    7
 10
765.42892449999999
 20
429.07463050000001
 40
0.5
 50
180.00000900000003
 51
269.99999700000001
  0
LINE
  8
_0-0_0
  6
CONTINUOUS
 62
    7
 10
772.42892449999999
 20
428.57463050000001
 11
765.42892449999999
 21
428.57463050000001
  0
ARC
  8
_0-0_0
  6
CONTINUOUS
 62
    7
 10
772.42892449999999
 20
429.07463050000001
 40
0.5
 50
269.99999700000001
 51
0
  0
LINE
  8
_0-0_0
  6
CONTINUOUS
 62
    7
 10
772.92892449999999
 20
429.07463050000001
 11
772.92892449999999
 21
433.07466150000005
  0
ARC
  8
_0-0_0
  6
CONTINUOUS
 62
    7
 10
772.42892449999999
 20
433.07466150000005
 40
0.5
 50
0
 51
90.000003000000007
  0
ARC
  8
_0-0_0
  6
CONTINUOUS
 62
    7
 10
195.42892449999999
 20
433.07466150000005
 40
0.5
 50
90.000003000000007
 51
180.00000900000001
  0
LINE
  8
_0-0_0
  6
CONTINUOUS
 62
    7
 10
194.92892449999999
 20
433.07466150000005
 11
194.92892449999999
 21
429.07463050000001
  0
ARC
  8
_0-0_0
  6
CONTINUOUS
 62
    7
 10
195.42892449999999
 20
429.07463050000001
 40
0.5
 50
180.00000900000003
 51
269.99999700000001
  0
LINE
  8
_0-0_0
  6
CONTINUOUS
 62
    7
 10
202.42892449999999
 20
428.57463050000001
 11
195.42892449999999
 21
428.57463050000001
  0
ARC
  8
_0-0_0
  6
CONTINUOUS
 62
    7
 10
202.42892449999999
 20
429.07463050000001
 40
0.5
 50
269.99999700000001
 51
0
  0
LINE
  8
_0-0_0
  6
CONTINUOUS
 62
    7
 10
202.92892449999999
 20
429.07463050000001
 11
202.92892449999999
 21
433.07466150000005
  0
ARC
  8
_0-0_0
  6
CONTINUOUS
 62
    7
 10
202.42892449999999
 20
433.07466150000005
 40
0.5
 50
0
 51
90.000003000000007
  0
LINE
  8
_0-0_0
  6
CONTINUOUS
 62
    7
 10
195.42892449999999
 20
433.57466150000005
 11
202.42892449999999
 21
433.57466150000005
  0
LINE
  8
_0-0_0
  6
CONTINUOUS
 62
    7
 10
128.42893249999997
 20
441.67463650000002
 11
130.62011749999999
 21
441.67463650000002
  0
LINE
  8
_0-0_0
  6
CONTINUOUS
 62
    7
 10
128.42893249999997
 20
442.37464950000003
 11
130.23518350000001
 21
442.37464950000003
  0
LINE
  8
_0-0_0
  6
CONTINUOUS
 62
    7
 10
128.42893249999997
 20
442.77464350000002
 11
130.05397849999997
 21
442.77464350000002
  0
LINE
  8
_0-0_0
  6
CONTINUOUS
 62
    7
 10
128.42893249999997
 20
443.47465550000004
 11
129.7974165
 21
443.47465550000004
  0
LINE
  8
_0-0_0
  6
CONTINUOUS
 62
    7
 10
128.42893249999997
 20
443.87464950000003
 11
129.68296850000002
 21
443.87464950000003
  0
LINE
  8
_0-0_0
  6
CONTINUOUS
 62
    7
 10
128.42893249999997
 20
444.57463050000001
 11
129.53526349999999
 21
444.57463050000001
  0
LINE
  8
_0-0_0
  6
CONTINUOUS
 62
    7
 10
128.42893249999997
 20
444.97465550000004
 11
129.47972149999998
 21
444.97465550000004
  0
LINE
  8
_0-0_0
  6
CONTINUOUS
 62
    7
 10
128.42893249999997
 20
445.67463650000002
 11
129.43143450000002
 21
445.67463650000002
  0
LINE
  8
_0-0_0
  6
CONTINUOUS
 62
    7
 10
129.42893249999997
 20
445.87464950000003
 11
129.42924549999998
 21
445.9453585
  0
LINE
  8
_0-0_0
  6
CONTINUOUS
 62
    7
 10
145.42893950000001
 20
445.87464950000003
 11
145.42861949999997
 21
445.9453585
  0
LINE
  8
_0-0_0
  6
CONTINUOUS
 62
    7
 10
145.42643750000002
 20
446.07463050000001
 11
145.42861949999997
 21
445.9453585
  0
ARC
  8
_0-0_0
  6
CONTINUOUS
 62
    7
 10
137.42892449999999
 20
445.87464950000003
 40
8
 50
1.432544
 51
6.4594489999999993
  0
LINE
  8
_0-0_0
  6
CONTINUOUS
 62
    7
 10
145.36244250000004
 20
446.90394649999996
 11
145.37814349999996
 21
446.77464350000002
  0
LINE
  8
_0-0_0
  6
CONTINUOUS
 62
    7
 10
145.36244250000004
 20
446.90394649999996
 11
145.3428045
 21
447.04536450000001
  0
LINE
  8
_0-0_0
  6
CONTINUOUS
 62
    7
 10
145.32260150000002
 20
447.17463650000002
 11
145.3428045
 21
447.04536450000001
  0
ARC
  8
_0-0_0
  6
CONTINUOUS
 62
    7
 10
137.42892449999999
 20
445.87464950000003
 40
8
 50
9.3520350000000008
 51
14.477510999999998
  0
LINE
  8
_0-0_0
  6
CONTINUOUS
 62
    7
 10
145.14035050000001
 20
448.00392150000005
 11
145.17489650000005
 21
447.87464950000003
  0
LINE
  8
_0-0_0
  6
CONTINUOUS
 62
    7
 10
145.14035050000001
 20
448.00392150000005
 11
145.09991450000001
 21
448.14534049999997
  0
LINE
  8
_0-0_0
  6
CONTINUOUS
 62
    7
 10
145.06045549999999
 20
448.27464350000002
 11
145.09991450000001
 21
448.14534049999997
  0
ARC
  8
_0-0_0
  6
CONTINUOUS
 62
    7
 10
137.42892449999999
 20
445.87464950000003
 40
8
 50
17.457602999999999
 51
22.799030999999999
  0
LINE
  8
_0-0_0
  6
CONTINUOUS
 62
    7
 10
144.7481995
 20
449.10392750000005
 11
144.80389450000001
 21
448.97465550000004
  0
LINE
  8
_0-0_0
  6
CONTINUOUS
 62
    7
 10
144.7481995
 20
449.10392750000005
 11
144.68415849999997
 21
449.24534649999998
  0
LINE
  8
_0-0_0
  6
CONTINUOUS
 62
    7
 10
144.6226805
 20
449.37464950000003
 11
144.68415849999997
 21
449.24534649999998
  0
ARC
  8
_0-0_0
  6
CONTINUOUS
 62
    7
 10
137.42892449999999
 20
445.87464950000003
 40
8
 50
25.944476999999999
 51
31.668240000000001
  0
LINE
  8
_0-0_0
  6
CONTINUOUS
 62
    7
 10
144.15628049999998
 20
450.20393350000006
 11
144.23774750000001
 21
450.07463050000001
  0
LINE
  8
_0-0_0
  6
CONTINUOUS
 62
    7
 10
144.15628049999998
 20
450.20393350000006
 11
144.06314050000003
 21
450.34535249999999
  0
LINE
  8
_0-0_0
  6
CONTINUOUS
 62
    7
 10
143.9741515
 20
450.47465550000004
 11
144.06314050000003
 21
450.34535249999999
  0
ARC
  8
_0-0_0
  6
CONTINUOUS
 62
    7
 10
137.42892449999999
 20
445.87464950000003
 40
8
 50
35.099632
 51
144.900373
  0
LINE
  8
_0-0_0
  6
CONTINUOUS
 62
    7
 10
130.88370550000002
 20
450.47465550000004
 11
130.79472350000003
 21
450.34535249999999
  0
LINE
  8
_0-0_0
  6
CONTINUOUS
 62
    7
 10
130.70158350000003
 20
450.20393350000006
 11
130.79472350000003
 21
450.34535249999999
  0
LINE
  8
_0-0_0
  6
CONTINUOUS
 62
    7
 10
130.70158350000003
 20
450.20393350000006
 11
130.62011749999999
 21
450.07463050000001
  0
ARC
  8
_0-0_0
  6
CONTINUOUS
 62
    7
 10
137.42892449999999
 20
445.87464950000003
 40
8
 50
148.33176499999999
 51
154.05551800000001
  0
LINE
  8
_0-0_0
  6
CONTINUOUS
 62
    7
 10
130.23518350000001
 20
449.37464950000003
 11
130.17370649999998
 21
449.24534649999998
  0
LINE
  8
_0-0_0
  6
CONTINUOUS
 62
    7
 10
130.10966450000001
 20
449.10392750000005
 11
130.17370649999998
 21
449.24534649999998
  0
LINE
  8
_0-0_0
  6
CONTINUOUS
 62
    7
 10
130.10966450000001
 20
449.10392750000005
 11
130.05397849999997
 21
448.97465550000004
  0
ARC
  8
_0-0_0
  6
CONTINUOUS
 62
    7
 10
137.42892449999999
 20
445.87464950000003
 40
8
 50
157.20097000000001
 51
162.54239699999999
  0
LINE
  8
_0-0_0
  6
CONTINUOUS
 62
    7
 10
129.7974165
 20
448.27464350000002
 11
129.75795749999997
 21
448.14534049999997
  0
LINE
  8
_0-0_0
  6
CONTINUOUS
 62
    7
 10
129.71750650000001
 20
448.00392150000005
 11
129.75795749999997
 21
448.14534049999997
  0
LINE
  8
_0-0_0
  6
CONTINUOUS
 62
    7
 10
129.71750650000001
 20
448.00392150000005
 11
129.68296850000002
 21
447.87464950000003
  0
ARC
  8
_0-0_0
  6
CONTINUOUS
 62
    7
 10
137.42892449999999
 20
445.87464950000003
 40
8
 50
165.52249
 51
170.64796000000001
  0
LINE
  8
_0-0_0
  6
CONTINUOUS
 62
    7
 10
129.53526349999999
 20
447.17463650000002
 11
129.51505250000002
 21
447.04536450000001
  0
LINE
  8
_0-0_0
  6
CONTINUOUS
 62
    7
 10
129.49542250000002
 20
446.90394649999996
 11
129.51505250000002
 21
447.04536450000001
  0
LINE
  8
_0-0_0
  6
CONTINUOUS
 62
    7
 10
129.49542250000002
 20
446.90394649999996
 11
129.47972149999998
 21
446.77464350000002
  0
ARC
  8
_0-0_0
  6
CONTINUOUS
 62
    7
 10
137.42892449999999
 20
445.87464950000003
 40
8
 50
173.54054500000001
 51
178.567455
  0
LINE
  8
_0-0_0
  6
CONTINUOUS
 62
    7
 10
129.43143450000002
 20
446.07463050000001
 11
129.42924549999998
 21
445.9453585
  0
CIRCLE
  8
_0-0_0
  6
CONTINUOUS
 62
    7
 10
137.42892449999999
 20
445.87464950000003
 40
7.5
  0
LINE
  8
_0-0_0
  6
CONTINUOUS
 62
    7
 10
814.42892449999999
 20
445.87464950000003
 11
814.42922950000002
 21
445.9453585
  0
LINE
  8
_0-0_0
  6
CONTINUOUS
 62
    7
 10
145.42643750000002
 20
445.67463650000002
 11
814.43142750000004
 21
445.67463650000002
  0
LINE
  8
_0-0_0
  6
CONTINUOUS
 62
    7
 10
145.37814349999996
 20
444.97465550000004
 11
814.47970550000002
 21
444.97465550000004
  0
LINE
  8
_0-0_0
  6
CONTINUOUS
 62
    7
 10
145.32260150000002
 20
444.57463050000001
 11
814.53524749999997
 21
444.57463050000001
  0
LINE
  8
_0-0_0
  6
CONTINUOUS
 62
    7
 10
145.17489650000005
 20
443.87464950000003
 11
814.68295250000006
 21
443.87464950000003
  0
LINE
  8
_0-0_0
  6
CONTINUOUS
 62
    7
 10
145.06045549999999
 20
443.47465550000004
 11
814.7973935
 21
443.47465550000004
  0
LINE
  8
_0-0_0
  6
CONTINUOUS
 62
    7
 10
144.80389450000001
 20
442.77464350000002
 11
815.05398549999995
 21
442.77464350000002
  0
LINE
  8
_0-0_0
  6
CONTINUOUS
 62
    7
 10
144.6226805
 20
442.37464950000003
 11
815.23519950000002
 21
442.37464950000003
  0
LINE
  8
_0-0_0
  6
CONTINUOUS
 62
    7
 10
144.23774750000001
 20
441.67463650000002
 11
815.62008649999996
 21
441.67463650000002
  0
LINE
  8
_0-0_0
  6
CONTINUOUS
 62
    7
 10
830.42892449999999
 20
445.87464950000003
 11
830.42861949999997
 21
445.9453585
  0
LINE
  8
_0-0_0
  6
CONTINUOUS
 62
    7
 10
830.42642250000006
 20
445.67463650000002
 11
831.42892449999999
 21
445.67463650000002
  0
LINE
  8
_0-0_0
  6
CONTINUOUS
 62
    7
 10
830.37814349999996
 20
444.97465550000004
 11
831.42892449999999
 21
444.97465550000004
  0
LINE
  8
_0-0_0
  6
CONTINUOUS
 62
    7
 10
830.32260150000002
 20
444.57463050000001
 11
831.42892449999999
 21
444.57463050000001
  0
LINE
  8
_0-0_0
  6
CONTINUOUS
 62
    7
 10
830.17489650000005
 20
443.87464950000003
 11
831.42892449999999
 21
443.87464950000003
  0
LINE
  8
_0-0_0
  6
CONTINUOUS
 62
    7
 10
830.06045549999999
 20
443.47465550000004
 11
831.42892449999999
 21
443.47465550000004
  0
LINE
  8
_0-0_0
  6
CONTINUOUS
 62
    7
 10
829.80386350000003
 20
442.77464350000002
 11
831.42892449999999
 21
442.77464350000002
  0
LINE
  8
_0-0_0
  6
CONTINUOUS
 62
    7
 10
829.62265049999996
 20
442.37464950000003
 11
831.42892449999999
 21
442.37464950000003
  0
LINE
  8
_0-0_0
  6
CONTINUOUS
 62
    7
 10
829.23776250000003
 20
441.67463650000002
 11
831.42892449999999
 21
441.67463650000002
  0
LINE
  8
_0-0_0
  6
CONTINUOUS
 62
    7
 10
828.97415150000006
 20
450.47465550000004
 11
829.06314050000003
 21
450.34535249999999
  0
ARC
  8
_0-0_0
  6
CONTINUOUS
 62
    7
 10
822.42892449999999
 20
445.87464950000003
 40
8
 50
35.099632
 51
144.900373
  0
LINE
  8
_0-0_0
  6
CONTINUOUS
 62
    7
 10
815.88369750000004
 20
450.47465550000004
 11
815.79470849999996
 21
450.34535249999999
  0
LINE
  8
_0-0_0
  6
CONTINUOUS
 62
    7
 10
815.70156850000001
 20
450.20393350000006
 11
815.79470849999996
 21
450.34535249999999
  0
LINE
  8
_0-0_0
  6
CONTINUOUS
 62
    7
 10
815.70156850000001
 20
450.20393350000006
 11
815.62008649999996
 21
450.07463050000001
  0
ARC
  8
_0-0_0
  6
CONTINUOUS
 62
    7
 10
822.42892449999999
 20
445.87464950000003
 40
8
 50
148.33176499999999
 51
154.05551800000001
  0
LINE
  8
_0-0_0
  6
CONTINUOUS
 62
    7
 10
815.23519950000002
 20
449.37464950000003
 11
815.17367550000006
 21
449.24534649999998
  0
LINE
  8
_0-0_0
  6
CONTINUOUS
 62
    7
 10
815.10964950000005
 20
449.10392750000005
 11
815.17367550000006
 21
449.24534649999998
  0
LINE
  8
_0-0_0
  6
CONTINUOUS
 62
    7
 10
815.10964950000005
 20
449.10392750000005
 11
815.05398549999995
 21
448.97465550000004
  0
ARC
  8
_0-0_0
  6
CONTINUOUS
 62
    7
 10
822.42892449999999
 20
445.87464950000003
 40
8
 50
157.20097000000001
 51
162.54239699999999
  0
LINE
  8
_0-0_0
  6
CONTINUOUS
 62
    7
 10
814.7973935
 20
448.27464350000002
 11
814.75796549999995
 21
448.14534049999997
  0
LINE
  8
_0-0_0
  6
CONTINUOUS
 62
    7
 10
814.71749850000003
 20
448.00392150000005
 11
814.75796549999995
 21
448.14534049999997
  0
LINE
  8
_0-0_0
  6
CONTINUOUS
 62
    7
 10
814.71749850000003
 20
448.00392150000005
 11
814.68295250000006
 21
447.87464950000003
  0
ARC
  8
_0-0_0
  6
CONTINUOUS
 62
    7
 10
822.42892449999999
 20
445.87464950000003
 40
8
 50
165.52249
 51
170.64796000000001
  0
LINE
  8
_0-0_0
  6
CONTINUOUS
 62
    7
 10
814.53524749999997
 20
447.17463650000002
 11
814.51504550000004
 21
447.04536450000001
  0
LINE
  8
_0-0_0
  6
CONTINUOUS
 62
    7
 10
814.49539149999998
 20
446.90394649999996
 11
814.51504550000004
 21
447.04536450000001
  0
LINE
  8
_0-0_0
  6
CONTINUOUS
 62
    7
 10
814.49539149999998
 20
446.90394649999996
 11
814.47970550000002
 21
446.77464350000002
  0
ARC
  8
_0-0_0
  6
CONTINUOUS
 62
    7
 10
822.42892449999999
 20
445.87464950000003
 40
8
 50
173.54054500000001
 51
178.567455
  0
LINE
  8
_0-0_0
  6
CONTINUOUS
 62
    7
 10
814.43142750000004
 20
446.07463050000001
 11
814.42922950000002
 21
445.9453585
  0
LINE
  8
_0-0_0
  6
CONTINUOUS
 62
    7
 10
830.42642250000006
 20
446.07463050000001
 11
830.42861949999997
 21
445.9453585
  0
ARC
  8
_0-0_0
  6
CONTINUOUS
 62
    7
 10
822.42892449999999
 20
445.87464950000003
 40
8
 50
1.432544
 51
6.4594489999999993
  0
LINE
  8
_0-0_0
  6
CONTINUOUS
 62
    7
 10
830.3624575
 20
446.90394649999996
 11
830.37814349999996
 21
446.77464350000002
  0
LINE
  8
_0-0_0
  6
CONTINUOUS
 62
    7
 10
830.3624575
 20
446.90394649999996
 11
830.34280450000006
 21
447.04536450000001
  0
LINE
  8
_0-0_0
  6
CONTINUOUS
 62
    7
 10
830.32260150000002
 20
447.17463650000002
 11
830.34280450000006
 21
447.04536450000001
  0
ARC
  8
_0-0_0
  6
CONTINUOUS
 62
    7
 10
822.42892449999999
 20
445.87464950000003
 40
8
 50
9.3520350000000008
 51
14.477510999999998
  0
LINE
  8
_0-0_0
  6
CONTINUOUS
 62
    7
 10
830.14035049999995
 20
448.00392150000005
 11
830.17489650000005
 21
447.87464950000003
  0
LINE
  8
_0-0_0
  6
CONTINUOUS
 62
    7
 10
830.14035049999995
 20
448.00392150000005
 11
830.09988450000003
 21
448.14534049999997
  0
LINE
  8
_0-0_0
  6
CONTINUOUS
 62
    7
 10
830.06045549999999
 20
448.27464350000002
 11
830.09988450000003
 21
448.14534049999997
  0
ARC
  8
_0-0_0
  6
CONTINUOUS
 62
    7
 10
822.42892449999999
 20
445.87464950000003
 40
8
 50
17.457602999999999
 51
22.799030999999999
  0
LINE
  8
_0-0_0
  6
CONTINUOUS
 62
    7
 10
829.74819950000006
 20
449.10392750000005
 11
829.80386350000003
 21
448.97465550000004
  0
LINE
  8
_0-0_0
  6
CONTINUOUS
 62
    7
 10
829.74819950000006
 20
449.10392750000005
 11
829.68417350000004
 21
449.24534649999998
  0
LINE
  8
_0-0_0
  6
CONTINUOUS
 62
    7
 10
829.62265049999996
 20
449.37464950000003
 11
829.68417350000004
 21
449.24534649999998
  0
ARC
  8
_0-0_0
  6
CONTINUOUS
 62
    7
 10
822.42892449999999
 20
445.87464950000003
 40
8
 50
25.944476999999999
 51
31.668240000000001
  0
LINE
  8
_0-0_0
  6
CONTINUOUS
 62
    7
 10
829.15628049999998
 20
450.20393350000006
 11
829.23776250000003
 21
450.07463050000001
  0
LINE
  8
_0-0_0
  6
CONTINUOUS
 62
    7
 10
829.15628049999998
 20
450.20393350000006
 11
829.06314050000003
 21
450.34535249999999
  0
CIRCLE
  8
_0-0_0
  6
CONTINUOUS
 62
    7
 10
822.42892449999999
 20
445.87464950000003
 40
7.5
  0
LINE
  8
_0-0_0
  6
CONTINUOUS
 62
    7
 10
829.23776250000003
 20
450.07463050000001
 11
831.42892449999999
 21
450.07463050000001
  0
LINE
  8
_0-0_0
  6
CONTINUOUS
 62
    7
 10
829.62265049999996
 20
449.37464950000003
 11
831.42892449999999
 21
449.37464950000003
  0
LINE
  8
_0-0_0
  6
CONTINUOUS
 62
    7
 10
829.80386350000003
 20
448.97465550000004
 11
831.42892449999999
 21
448.97465550000004
  0
LINE
  8
_0-0_0
  6
CONTINUOUS
 62
    7
 10
830.06045549999999
 20
448.27464350000002
 11
831.42892449999999
 21
448.27464350000002
  0
LINE
  8
_0-0_0
  6
CONTINUOUS
 62
    7
 10
830.17489650000005
 20
447.87464950000003
 11
831.42892449999999
 21
447.87464950000003
  0
LINE
  8
_0-0_0
  6
CONTINUOUS
 62
    7
 10
830.32260150000002
 20
447.17463650000002
 11
831.42892449999999
 21
447.17463650000002
  0
LINE
  8
_0-0_0
  6
CONTINUOUS
 62
    7
 10
830.37814349999996
 20
446.77464350000002
 11
831.42892449999999
 21
446.77464350000002
  0
LINE
  8
_0-0_0
  6
CONTINUOUS
 62
    7
 10
830.42642250000006
 20
446.07463050000001
 11
831.42892449999999
 21
446.07463050000001
  0
LINE
  8
_0-0_0
  6
CONTINUOUS
 62
    7
 10
831.92892449999999
 20
429.37464950000003
 11
831.42892449999999
 21
429.37464950000003
  0
LINE
  8
_0-0_0
  6
CONTINUOUS
 62
    7
 10
831.92892449999999
 20
431.57463050000001
 11
831.42892449999999
 21
431.57463050000001
  0
LINE
  8
_0-0_0
  6
CONTINUOUS
 62
    7
 10
831.92892449999999
 20
433.87464950000003
 11
831.42892449999999
 21
433.87464950000003
  0
LINE
  8
_0-0_0
  6
CONTINUOUS
 62
    7
 10
831.42892449999999
 20
436.17463650000002
 11
831.92892449999999
 21
436.17463650000002
  0
LINE
  8
_0-0_0
  6
CONTINUOUS
 62
    7
 10
831.92892449999999
 20
456.37464950000003
 11
831.92892449999999
 21
456.27464350000002
  0
LINE
  8
_0-0_0
  6
CONTINUOUS
 62
    7
 10
127.92893249999997
 20
456.37464950000003
 11
127.92893249999997
 21
456.27464350000002
  0
LINE
  8
_0-0_0
  6
CONTINUOUS
 62
    7
 10
127.92893249999997
 20
436.17463650000002
 11
128.42893249999997
 21
436.17463650000002
  0
LINE
  8
_0-0_0
  6
CONTINUOUS
 62
    7
 10
128.42893249999997
 20
456.07463050000001
 11
831.42892449999999
 21
456.07463050000001
  0
LINE
  8
_0-0_0
  6
CONTINUOUS
 62
    7
 10
128.42893249999997
 20
455.48066749999998
 11
831.42892449999999
 21
455.48066749999998
  0
LINE
  8
_0-0_0
  6
CONTINUOUS
 62
    7
 10
143.9741515
 20
450.47465550000004
 11
815.88369750000004
 21
450.47465550000004
  0
LINE
  8
_0-0_0
  6
CONTINUOUS
 62
    7
 10
828.97415150000006
 20
450.47465550000004
 11
831.42892449999999
 21
450.47465550000004
  0
LINE
  8
_0-0_0
  6
CONTINUOUS
 62
    7
 10
128.42893249999997
 20
450.47465550000004
 11
130.88370550000002
 21
450.47465550000004
  0
LINE
  8
_0-0_0
  6
CONTINUOUS
 62
    7
 10
127.92893249999997
 20
429.37464950000003
 11
128.42893249999997
 21
429.37464950000003
  0
LINE
  8
_0-0_0
  6
CONTINUOUS
 62
    7
 10
127.92893249999997
 20
431.57463050000001
 11
128.42893249999997
 21
431.57463050000001
  0
LINE
  8
_0-0_0
  6
CONTINUOUS
 62
    7
 10
127.92893249999997
 20
433.87464950000003
 11
128.42893249999997
 21
433.87464950000003
  0
LINE
  8
_0-0_0
  6
CONTINUOUS
 62
    7
 10
128.42893249999997
 20
450.07463050000001
 11
130.62011749999999
 21
450.07463050000001
  0
LINE
  8
_0-0_0
  6
CONTINUOUS
 62
    7
 10
128.42893249999997
 20
449.37464950000003
 11
130.23518350000001
 21
449.37464950000003
  0
LINE
  8
_0-0_0
  6
CONTINUOUS
 62
    7
 10
128.42893249999997
 20
448.97465550000004
 11
130.05397849999997
 21
448.97465550000004
  0
LINE
  8
_0-0_0
  6
CONTINUOUS
 62
    7
 10
128.42893249999997
 20
448.27464350000002
 11
129.7974165
 21
448.27464350000002
  0
LINE
  8
_0-0_0
  6
CONTINUOUS
 62
    7
 10
128.42893249999997
 20
447.87464950000003
 11
129.68296850000002
 21
447.87464950000003
  0
LINE
  8
_0-0_0
  6
CONTINUOUS
 62
    7
 10
128.42893249999997
 20
447.17463650000002
 11
129.53526349999999
 21
447.17463650000002
  0
LINE
  8
_0-0_0
  6
CONTINUOUS
 62
    7
 10
128.42893249999997
 20
446.77464350000002
 11
129.47972149999998
 21
446.77464350000002
  0
LINE
  8
_0-0_0
  6
CONTINUOUS
 62
    7
 10
128.42893249999997
 20
446.07463050000001
 11
129.43143450000002
 21
446.07463050000001
  0
LINE
  8
_0-0_0
  6
CONTINUOUS
 62
    7
 10
144.23774750000001
 20
450.07463050000001
 11
815.62008649999996
 21
450.07463050000001
  0
LINE
  8
_0-0_0
  6
CONTINUOUS
 62
    7
 10
144.6226805
 20
449.37464950000003
 11
815.23519950000002
 21
449.37464950000003
  0
LINE
  8
_0-0_0
  6
CONTINUOUS
 62
    7
 10
144.80389450000001
 20
448.97465550000004
 11
815.05398549999995
 21
448.97465550000004
  0
LINE
  8
_0-0_0
  6
CONTINUOUS
 62
    7
 10
145.06045549999999
 20
448.27464350000002
 11
814.7973935
 21
448.27464350000002
  0
LINE
  8
_0-0_0
  6
CONTINUOUS
 62
    7
 10
145.17489650000005
 20
447.87464950000003
 11
814.68295250000006
 21
447.87464950000003
  0
LINE
  8
_0-0_0
  6
CONTINUOUS
 62
    7
 10
145.32260150000002
 20
447.17463650000002
 11
814.53524749999997
 21
447.17463650000002
  0
LINE
  8
_0-0_0
  6
CONTINUOUS
 62
    7
 10
145.37814349999996
 20
446.77464350000002
 11
814.47970550000002
 21
446.77464350000002
  0
LINE
  8
_0-0_0
  6
CONTINUOUS
 62
    7
 10
145.42643750000002
 20
446.07463050000001
 11
814.43142750000004
 21
446.07463050000001
  0
LINE
  8
_0-0_0
  6
CONTINUOUS
 62
    7
 10
831.92892449999999
 20
427.87464950000003
 11
831.42892449999999
 21
427.87464950000003
  0
LINE
  8
_0-0_0
  6
CONTINUOUS
 62
    7
 10
831.92892449999999
 20
455.47465550000004
 11
831.92892449999999
 21
456.27464350000002
  0
LINE
  8
_0-0_0
  6
CONTINUOUS
 62
    7
 10
831.92892449999999
 20
427.67463650000002
 11
831.92892449999999
 21
455.47465550000004
  0
LINE
  8
_0-0_0
  6
CONTINUOUS
 62
    7
 10
127.92893249999997
 20
455.47465550000004
 11
127.92893249999997
 21
456.27464350000002
  0
LINE
  8
_0-0_0
  6
CONTINUOUS
 62
    7
 10
127.92893249999997
 20
427.67463650000002
 11
127.92893249999997
 21
455.47465550000004
  0
ARC
  8
_0-0_0
  6
CONTINUOUS
 62
    7
 10
137.42892449999999
 20
446.57463050000001
 40
12.800000000000001
 50
73.932597000000001
 51
106.06740099999999
  0
ARC
  8
_0-0_0
  6
CONTINUOUS
 62
    7
 10
822.42892449999999
 20
446.57463050000001
 40
12.800000000000001
 50
73.932597000000001
 51
106.06740099999999
  0
LINE
  8
_0-0_0
  6
CONTINUOUS
 62
    7
 10
831.92892449999999
 20
456.37464950000003
 11
831.92892449999999
 21
458.87464950000003
  0
LINE
  8
_0-0_0
  6
CONTINUOUS
 62
    7
 10
127.92893249999997
 20
458.87464950000003
 11
831.92892449999999
 21
458.87464950000003
  0
LINE
  8
_0-0_0
  6
CONTINUOUS
 62
    7
 10
127.92893249999997
 20
456.37464950000003
 11
127.92893249999997
 21
458.87464950000003
  0
LINE
  8
_0-0_0
  6
CONTINUOUS
 62
    7
 10
127.92893249999997
 20
427.87464950000003
 11
128.42893249999997
 21
427.87464950000003
  0
ARC
  8
_0-0_0
  6
CONTINUOUS
 62
    7
 10
770.22891249999998
 20
432.77464350000002
 40
0.2
 50
339.62356199999999
 51
90.000002999999978
  0
LINE
  8
_0-0_0
  6
CONTINUOUS
 62
    7
 10
770.41641249999998
 20
432.70500149999998
 11
769.11642449999999
 21
429.20500149999998
  0
ARC
  8
_0-0_0
  6
CONTINUOUS
 62
    7
 10
768.92892449999999
 20
429.27464350000002
 40
0.2
 50
200.37643
 51
339.62356199999999
  0
LINE
  8
_0-0_0
  6
CONTINUOUS
 62
    7
 10
767.44143650000001
 20
432.70500149999998
 11
768.74142449999999
 21
429.20500149999998
  0
ARC
  8
_0-0_0
  6
CONTINUOUS
 62
    7
 10
767.62893650000001
 20
432.77464350000002
 40
0.2
 50
90.000003000000007
 51
200.37643
  0
LINE
  8
_0-0_0
  6
CONTINUOUS
 62
    7
 10
767.62893650000001
 20
432.97465550000004
 11
770.22891249999998
 21
432.97465550000004
  0
ARC
  8
_0-0_0
  6
CONTINUOUS
 62
    7
 10
200.2289275
 20
432.77464350000002
 40
0.2
 50
339.62356199999999
 51
90.000002999999978
  0
LINE
  8
_0-0_0
  6
CONTINUOUS
 62
    7
 10
200.41641250000001
 20
432.70500149999998
 11
199.1164095
 21
429.20500149999998
  0
ARC
  8
_0-0_0
  6
CONTINUOUS
 62
    7
 10
198.92892449999999
 20
429.27464350000002
 40
0.2
 50
200.37643
 51
339.62356199999999
  0
LINE
  8
_0-0_0
  6
CONTINUOUS
 62
    7
 10
197.44143650000001
 20
432.70500149999998
 11
198.74143950000001
 21
429.20500149999998
  0
ARC
  8
_0-0_0
  6
CONTINUOUS
 62
    7
 10
197.62892150000002
 20
432.77464350000002
 40
0.2
 50
90.000003000000007
 51
200.37643
  0
LINE
  8
_0-0_0
  6
CONTINUOUS
 62
    7
 10
197.62892150000002
 20
432.97465550000004
 11
200.2289275
 21
432.97465550000004
  0
CIRCLE
  8
_0-0_0
  6
CONTINUOUS
 62
    7
 10
137.42892449999999
 20
445.87464950000003
 40
5
  0
CIRCLE
  8
_0-0_0
  6
CONTINUOUS
 62
    7
 10
822.42892449999999
 20
445.87464950000003
 40
5
  0
LINE
  8
_0-0_0
  6
CONTINUOUS
 62
    7
 10
832.92892449999999
 20
455.47465550000004
 11
831.92892449999999
 21
455.47465550000004
  0
LINE
  8
_0-0_0
  6
CONTINUOUS
 62
    7
 10
832.92892449999999
 20
456.51161249999996
 11
831.92892449999999
 21
456.51161249999996
  0
LINE
  8
_0-0_0
  6
CONTINUOUS
 62
    7
 10
832.92892449999999
 20
427.67463650000002
 11
831.92892449999999
 21
427.67463650000002
  0
LINE
  8
_0-0_0
  6
CONTINUOUS
 62
    7
 10
126.92893249999997
 20
455.47465550000004
 11
127.92893249999997
 21
455.47465550000004
  0
LINE
  8
_0-0_0
  6
CONTINUOUS
 62
    7
 10
126.92893249999997
 20
456.47465550000004
 11
127.92893249999997
 21
456.47465550000004
  0
LINE
  8
_0-0_0
  6
CONTINUOUS
 62
    7
 10
126.92893249999997
 20
427.67463650000002
 11
127.92893249999997
 21
427.67463650000002
  0
LINE
  8
_0-0_0
  6
CONTINUOUS
 62
    7
 10
832.92892449999999
 20
458.67463650000002
 11
831.92892449999999
 21
458.67463650000002
  0
LINE
  8
_0-0_0
  6
CONTINUOUS
 62
    7
 10
126.92893249999997
 20
458.67463650000002
 11
127.92893249999997
 21
458.67463650000002
  0
LINE
  8
_0-0_0
  6
CONTINUOUS
 62
    7
 10
833.92892449999999
 20
455.06044050000003
 11
833.92794849999996
 21
455.07893350000006
  0
LINE
  8
_0-0_0
  6
CONTINUOUS
 62
    7
 10
833.92794849999996
 20
455.07893350000006
 11
833.9249575
 21
455.09736650000002
  0
LINE
  8
_0-0_0
  6
CONTINUOUS
 62
    7
 10
833.9249575
 20
455.09736650000002
 11
833.91970849999996
 21
455.11650050000003
  0
LINE
  8
_0-0_0
  6
CONTINUOUS
 62
    7
 10
833.91970849999996
 20
455.11650050000003
 11
833.91232349999996
 21
455.1355135
  0
LINE
  8
_0-0_0
  6
CONTINUOUS
 62
    7
 10
833.91232349999996
 20
455.1355135
 11
833.89175450000005
 21
455.1722565
  0
LINE
  8
_0-0_0
  6
CONTINUOUS
 62
    7
 10
833.89175450000005
 20
455.1722565
 11
833.86337249999997
 21
455.20793149999997
  0
LINE
  8
_0-0_0
  6
CONTINUOUS
 62
    7
 10
833.86337249999997
 20
455.20793149999997
 11
833.82748449999997
 21
455.24220249999996
  0
LINE
  8
_0-0_0
  6
CONTINUOUS
 62
    7
 10
833.82748449999997
 20
455.24220249999996
 11
833.7788395
 21
455.27867149999997
  0
LINE
  8
_0-0_0
  6
CONTINUOUS
 62
    7
 10
833.7788395
 20
455.27867149999997
 11
833.72207649999996
 21
455.31269850000001
  0
LINE
  8
_0-0_0
  6
CONTINUOUS
 62
    7
 10
833.72207649999996
 20
455.31269850000001
 11
833.65792850000003
 21
455.34394850000001
  0
LINE
  8
_0-0_0
  6
CONTINUOUS
 62
    7
 10
833.65792850000003
 20
455.34394850000001
 11
833.58731050000006
 21
455.37217750000002
  0
LINE
  8
_0-0_0
  6
CONTINUOUS
 62
    7
 10
833.58731050000006
 20
455.37217750000002
 11
833.53921549999995
 21
455.38853449999999
  0
LINE
  8
_0-0_0
  6
CONTINUOUS
 62
    7
 10
833.53921549999995
 20
455.38853449999999
 11
833.48904449999998
 21
455.40354950000005
  0
LINE
  8
_0-0_0
  6
CONTINUOUS
 62
    7
 10
833.48904449999998
 20
455.40354950000005
 11
833.4323425
 21
455.41831950000005
  0
LINE
  8
_0-0_0
  6
CONTINUOUS
 62
    7
 10
833.4323425
 20
455.41831950000005
 11
833.37374850000003
 21
455.43141149999997
  0
LINE
  8
_0-0_0
  6
CONTINUOUS
 62
    7
 10
833.37374850000003
 20
455.43141149999997
 11
833.25698850000003
 21
455.45173650000004
  0
LINE
  8
_0-0_0
  6
CONTINUOUS
 62
    7
 10
833.25698850000003
 20
455.45173650000004
 11
833.14956649999999
 21
455.46443150000005
  0
LINE
  8
_0-0_0
  6
CONTINUOUS
 62
    7
 10
833.14956649999999
 20
455.46443150000005
 11
833.03982550000001
 21
455.47209150000003
  0
LINE
  8
_0-0_0
  6
CONTINUOUS
 62
    7
 10
833.03982550000001
 20
455.47209150000003
 11
832.92892449999999
 21
455.47465550000004
  0
LINE
  8
_0-0_0
  6
CONTINUOUS
 62
    7
 10
833.92892449999999
 20
455.06044050000003
 11
833.92892449999999
 21
456.06050149999999
  0
LINE
  8
_0-0_0
  6
CONTINUOUS
 62
    7
 10
833.92892449999999
 20
456.06050149999999
 11
833.9259945
 21
456.09205650000001
  0
LINE
  8
_0-0_0
  6
CONTINUOUS
 62
    7
 10
833.9259945
 20
456.09205650000001
 11
833.91726649999998
 21
456.12413049999998
  0
LINE
  8
_0-0_0
  6
CONTINUOUS
 62
    7
 10
833.91726649999998
 20
456.12413049999998
 11
833.90274050000005
 21
456.15641749999998
  0
LINE
  8
_0-0_0
  6
CONTINUOUS
 62
    7
 10
833.90274050000005
 20
456.15641749999998
 11
833.88253750000001
 21
456.18858350000005
  0
LINE
  8
_0-0_0
  6
CONTINUOUS
 62
    7
 10
833.88253750000001
 20
456.18858350000005
 11
833.86593649999998
 21
456.20979350000005
  0
LINE
  8
_0-0_0
  6
CONTINUOUS
 62
    7
 10
833.86593649999998
 20
456.20979350000005
 11
833.84695450000004
 21
456.23075849999998
  0
LINE
  8
_0-0_0
  6
CONTINUOUS
 62
    7
 10
833.84695450000004
 20
456.23075849999998
 11
833.80221549999999
 21
456.27153050000004
  0
LINE
  8
_0-0_0
  6
CONTINUOUS
 62
    7
 10
833.80221549999999
 20
456.27153050000004
 11
833.74899249999999
 21
456.31028749999996
  0
LINE
  8
_0-0_0
  6
CONTINUOUS
 62
    7
 10
833.74899249999999
 20
456.31028749999996
 11
833.69906649999996
 21
456.34050049999996
  0
LINE
  8
_0-0_0
  6
CONTINUOUS
 62
    7
 10
833.69906649999996
 20
456.34050049999996
 11
833.64437850000002
 21
456.36869850000005
  0
LINE
  8
_0-0_0
  6
CONTINUOUS
 62
    7
 10
833.64437850000002
 20
456.36869850000005
 11
833.58541850000006
 21
456.39472950000004
  0
LINE
  8
_0-0_0
  6
CONTINUOUS
 62
    7
 10
833.58541850000006
 20
456.39472950000004
 11
833.53866549999998
 21
456.41273550000005
  0
LINE
  8
_0-0_0
  6
CONTINUOUS
 62
    7
 10
833.53866549999998
 20
456.41273550000005
 11
833.48995950000005
 21
456.42933649999998
  0
LINE
  8
_0-0_0
  6
CONTINUOUS
 62
    7
 10
833.48995950000005
 20
456.42933649999998
 11
833.3875425
 21
456.45820649999996
  0
LINE
  8
_0-0_0
  6
CONTINUOUS
 62
    7
 10
833.3875425
 20
456.45820649999996
 11
833.27981550000004
 21
456.4810635
  0
LINE
  8
_0-0_0
  6
CONTINUOUS
 62
    7
 10
833.27981550000004
 20
456.4810635
 11
833.16824350000002
 21
456.4976355
  0
LINE
  8
_0-0_0
  6
CONTINUOUS
 62
    7
 10
833.16824350000002
 20
456.4976355
 11
833.05416850000006
 21
456.50782749999996
  0
LINE
  8
_0-0_0
  6
CONTINUOUS
 62
    7
 10
833.05416850000006
 20
456.50782749999996
 11
832.92892449999999
 21
456.51161249999996
  0
ARC
  8
_0-0_0
  6
CONTINUOUS
 62
    7
 10
832.92892449999999
 20
428.67463650000002
 40
1
 50
269.99999700000001
 51
0
  0
LINE
  8
_0-0_0
  6
CONTINUOUS
 62
    7
 10
833.92892449999999
 20
428.67463650000002
 11
833.92892449999999
 21
455.06044050000003
  0
LINE
  8
_0-0_0
  6
CONTINUOUS
 62
    7
 10
125.92893249999997
 20
455.06044050000003
 11
125.92993150000001
 21
455.07893350000006
  0
LINE
  8
_0-0_0
  6
CONTINUOUS
 62
    7
 10
125.92993150000001
 20
455.07893350000006
 11
125.9329305
 21
455.09736650000002
  0
LINE
  8
_0-0_0
  6
CONTINUOUS
 62
    7
 10
125.9329305
 20
455.09736650000002
 11
125.93816349999997
 21
455.11650050000003
  0
LINE
  8
_0-0_0
  6
CONTINUOUS
 62
    7
 10
125.93816349999997
 20
455.11650050000003
 11
125.94554149999999
 21
455.1355135
  0
LINE
  8
_0-0_0
  6
CONTINUOUS
 62
    7
 10
125.94554149999999
 20
455.1355135
 11
125.96609549999999
 21
455.1722565
  0
LINE
  8
_0-0_0
  6
CONTINUOUS
 62
    7
 10
125.96609549999999
 20
455.1722565
 11
125.99449149999998
 21
455.20793149999997
  0
LINE
  8
_0-0_0
  6
CONTINUOUS
 62
    7
 10
125.99449149999998
 20
455.20793149999997
 11
126.0303725
 21
455.24220249999996
  0
LINE
  8
_0-0_0
  6
CONTINUOUS
 62
    7
 10
126.0303725
 20
455.24220249999996
 11
126.07899450000002
 21
455.27867149999997
  0
LINE
  8
_0-0_0
  6
CONTINUOUS
 62
    7
 10
126.07899450000002
 20
455.27867149999997
 11
126.13578050000001
 21
455.31269850000001
  0
LINE
  8
_0-0_0
  6
CONTINUOUS
 62
    7
 10
126.13578050000001
 20
455.31269850000001
 11
126.19992050000002
 21
455.34394850000001
  0
LINE
  8
_0-0_0
  6
CONTINUOUS
 62
    7
 10
126.19992050000002
 20
455.34394850000001
 11
126.27056850000002
 21
455.37217750000002
  0
LINE
  8
_0-0_0
  6
CONTINUOUS
 62
    7
 10
126.27056850000002
 20
455.37217750000002
 11
126.31864949999999
 21
455.38853449999999
  0
LINE
  8
_0-0_0
  6
CONTINUOUS
 62
    7
 10
126.31864949999999
 20
455.38853449999999
 11
126.36878949999999
 21
455.40354950000005
  0
LINE
  8
_0-0_0
  6
CONTINUOUS
 62
    7
 10
126.36878949999999
 20
455.40354950000005
 11
126.42549150000002
 21
455.41831950000005
  0
LINE
  8
_0-0_0
  6
CONTINUOUS
 62
    7
 10
126.42549150000002
 20
455.41831950000005
 11
126.48409249999997
 21
455.43141149999997
  0
LINE
  8
_0-0_0
  6
CONTINUOUS
 62
    7
 10
126.48409249999997
 20
455.43141149999997
 11
126.60087550000003
 21
455.45173650000004
  0
LINE
  8
_0-0_0
  6
CONTINUOUS
 62
    7
 10
126.60087550000003
 20
455.45173650000004
 11
126.7082825
 21
455.46443150000005
  0
LINE
  8
_0-0_0
  6
CONTINUOUS
 62
    7
 10
126.7082825
 20
455.46443150000005
 11
126.81804650000004
 21
455.47209150000003
  0
LINE
  8
_0-0_0
  6
CONTINUOUS
 62
    7
 10
126.81804650000004
 20
455.47209150000003
 11
126.92893249999997
 21
455.47465550000004
  0
LINE
  8
_0-0_0
  6
CONTINUOUS
 62
    7
 10
125.92893249999997
 20
456.03010549999999
 11
125.93182350000001
 21
456.06098950000001
  0
LINE
  8
_0-0_0
  6
CONTINUOUS
 62
    7
 10
125.93182350000001
 20
456.06098950000001
 11
125.94052149999999
 21
456.0924225
  0
LINE
  8
_0-0_0
  6
CONTINUOUS
 62
    7
 10
125.94052149999999
 20
456.0924225
 11
125.95500149999998
 21
456.12409950000006
  0
LINE
  8
_0-0_0
  6
CONTINUOUS
 62
    7
 10
125.95500149999998
 20
456.12409950000006
 11
125.97517449999998
 21
456.15571650000004
  0
LINE
  8
_0-0_0
  6
CONTINUOUS
 62
    7
 10
125.97517449999998
 20
456.15571650000004
 11
125.9916915
 21
456.17655950000005
  0
LINE
  8
_0-0_0
  6
CONTINUOUS
 62
    7
 10
125.9916915
 20
456.17655950000005
 11
126.01059750000002
 21
456.19718950000004
  0
LINE
  8
_0-0_0
  6
CONTINUOUS
 62
    7
 10
126.01059750000002
 20
456.19718950000004
 11
126.05523649999998
 21
456.23735050000005
  0
LINE
  8
_0-0_0
  6
CONTINUOUS
 62
    7
 10
126.05523649999998
 20
456.23735050000005
 11
126.10836749999999
 21
456.27552850000006
  0
LINE
  8
_0-0_0
  6
CONTINUOUS
 62
    7
 10
126.10836749999999
 20
456.27552850000006
 11
126.15826449999997
 21
456.30537449999997
  0
LINE
  8
_0-0_0
  6
CONTINUOUS
 62
    7
 10
126.15826449999997
 20
456.30537449999997
 11
126.21293650000001
 21
456.3332365
  0
LINE
  8
_0-0_0
  6
CONTINUOUS
 62
    7
 10
126.21293650000001
 20
456.3332365
 11
126.27190450000001
 21
456.35896349999996
  0
LINE
  8
_0-0_0
  6
CONTINUOUS
 62
    7
 10
126.27190450000001
 20
456.35896349999996
 11
126.31866450000001
 21
456.37675450000006
  0
LINE
  8
_0-0_0
  6
CONTINUOUS
 62
    7
 10
126.31866450000001
 20
456.37675450000006
 11
126.36737049999999
 21
456.39317349999999
  0
LINE
  8
_0-0_0
  6
CONTINUOUS
 62
    7
 10
126.36737049999999
 20
456.39317349999999
 11
126.46980250000001
 21
456.42176849999998
  0
LINE
  8
_0-0_0
  6
CONTINUOUS
 62
    7
 10
126.46980250000001
 20
456.42176849999998
 11
126.57762150000002
 21
456.44435150000004
  0
LINE
  8
_0-0_0
  6
CONTINUOUS
 62
    7
 10
126.57762150000002
 20
456.44435150000004
 11
126.68930850000004
 21
456.46076949999997
  0
LINE
  8
_0-0_0
  6
CONTINUOUS
 62
    7
 10
126.68930850000004
 20
456.46076949999997
 11
126.80346650000001
 21
456.47087150000004
  0
LINE
  8
_0-0_0
  6
CONTINUOUS
 62
    7
 10
126.80346650000001
 20
456.47087150000004
 11
126.92893249999997
 21
456.47465550000004
  0
LINE
  8
_0-0_0
  6
CONTINUOUS
 62
    7
 10
125.92893249999997
 20
455.06044050000003
 11
125.92893249999997
 21
456.03010549999999
  0
ARC
  8
_0-0_0
  6
CONTINUOUS
 62
    7
 10
126.92893249999997
 20
428.67463650000002
 40
1
 50
180.00000900000003
 51
269.99999700000001
  0
LINE
  8
_0-0_0
  6
CONTINUOUS
 62
    7
 10
125.92893249999997
 20
428.67463650000002
 11
125.92893249999997
 21
455.06044050000003
  0
LINE
  8
_0-0_0
  6
CONTINUOUS
 62
    7
 10
833.92892449999999
 20
456.06050149999999
 11
833.92892449999999
 21
457.67463650000002
  0
ARC
  8
_0-0_0
  6
CONTINUOUS
 62
    7
 10
832.92892449999999
 20
457.67463650000002
 40
1
 50
0
 51
90.000003000000007
  0
ARC
  8
_0-0_0
  6
CONTINUOUS
 62
    7
 10
126.92893249999997
 20
457.67463650000002
 40
1
 50
90.000003000000007
 51
180.00000900000001
  0
LINE
  8
_0-0_0
  6
CONTINUOUS
 62
    7
 10
125.92893249999997
 20
456.03010549999999
 11
125.92893249999997
 21
457.67463650000002
  0
LINE
  8
_0-0_0
  6
CONTINUOUS
 62
    7
 10
38.113260500000024
 20
425.57456950000005
 11
38.113260500000024
 21
425.54957550000006
  0
LINE
  8
_0-0_0
  6
CONTINUOUS
 62
    7
 10
38.113260500000024
 20
422.49745150000001
 11
38.113260500000024
 21
422.59956350000004
  0
LINE
  8
_0-0_0
  6
CONTINUOUS
 62
    7
 10
38.113260500000024
 20
401.47456350000004
 11
38.113260500000024
 21
402.25169349999999
  0
LINE
  8
_0-0_0
  6
CONTINUOUS
 62
    7
 10
21.31326150000001
 20
401.47456350000004
 11
38.113260500000024
 21
401.47456350000004
  0
LINE
  8
_0-0_0
  6
CONTINUOUS
 62
    7
 10
21.31326150000001
 20
409.37455750000004
 11
21.31326150000001
 21
401.47456350000004
  0
LINE
  8
_0-0_0
  6
CONTINUOUS
 62
    7
 10
21.31326150000001
 20
421.82987950000006
 11
21.31326150000001
 21
415.37455750000004
  0
LINE
  8
_0-0_0
  6
CONTINUOUS
 62
    7
 10
38.613245500000005
 20
404.97456350000004
 11
38.81326150000001
 21
404.97456350000004
  0
LINE
  8
_0-0_0
  6
CONTINUOUS
 62
    7
 10
38.81326150000001
 20
404.97456350000004
 11
38.81326150000001
 21
407.97456350000004
  0
LINE
  8
_0-0_0
  6
CONTINUOUS
 62
    7
 10
38.81326150000001
 20
421.57456950000005
 11
38.81326150000001
 21
407.97456350000004
  0
LINE
  8
_0-0_0
  6
CONTINUOUS
 62
    7
 10
38.613256500000034
 20
424.57456950000005
 11
38.81326150000001
 21
424.57456950000005
  0
LINE
  8
_0-0_0
  6
CONTINUOUS
 62
    7
 10
38.81326150000001
 20
421.57456950000005
 11
38.81326150000001
 21
424.57456950000005
  0
LINE
  8
_0-0_0
  6
CONTINUOUS
 62
    7
 10
37.913261500000033
 20
423.87364249999996
 11
37.913261500000033
 21
422.69444250000004
  0
LINE
  8
_0-0_0
  6
CONTINUOUS
 62
    7
 10
37.913261500000033
 20
426.07456950000005
 11
37.913261500000033
 21
425.57456950000005
  0
LINE
  8
_0-0_0
  6
CONTINUOUS
 62
    7
 10
36.913261500000033
 20
423.15806550000002
 11
36.913261500000033
 21
423.87455750000004
  0
ARC
  8
_0-0_0
  6
CONTINUOUS
 62
    7
 10
36.613260500000024
 20
421.17457550000006
 40
2
 50
0
 51
90.000003000000007
  0
LINE
  8
_0-0_0
  6
CONTINUOUS
 62
    7
 10
38.613260500000024
 20
417.67457550000006
 11
38.613260500000024
 21
420.67457550000006
  0
LINE
  8
_0-0_0
  6
CONTINUOUS
 62
    7
 10
38.613260500000024
 20
420.67457550000006
 11
38.613260500000024
 21
421.17457550000006
  0
LINE
  8
_0-0_0
  6
CONTINUOUS
 62
    7
 10
38.613260500000024
 20
403.57456950000005
 11
38.613260500000024
 21
417.17457550000006
  0
LINE
  8
_0-0_0
  6
CONTINUOUS
 62
    7
 10
38.613260500000024
 20
417.67457550000006
 11
38.613260500000024
 21
417.17457550000006
  0
ARC
  8
_0-0_0
  6
CONTINUOUS
 62
    7
 10
36.613260500000024
 20
403.57456950000005
 40
2
 50
273.84026500000004
 51
0.000010000000014
  0
LINE
  8
_0-0_0
  6
CONTINUOUS
 62
    7
 10
23.31326150000001
 20
423.15806550000002
 11
23.31326150000001
 21
423.87455750000004
  0
LINE
  8
_0-0_0
  6
CONTINUOUS
 62
    7
 10
23.31326150000001
 20
423.15806550000002
 11
23.31326150000001
 21
423.15193150000005
  0
LINE
  8
_0-0_0
  6
CONTINUOUS
 62
    7
 10
21.31326150000001
 20
421.82987950000006
 11
21.31326150000001
 21
422.32987950000006
  0
LINE
  8
_0-0_0
  6
CONTINUOUS
 62
    7
 10
21.613261500000021
 20
421.17457550000006
 11
21.613261500000021
 21
407.57456950000005
  0
LINE
  8
_0-0_0
  6
CONTINUOUS
 62
    7
 10
21.613261500000021
 20
407.07456950000005
 11
21.613261500000021
 21
407.57456950000005
  0
LINE
  8
_0-0_0
  6
CONTINUOUS
 62
    7
 10
21.613261500000021
 20
404.07456950000005
 11
21.613261500000021
 21
407.07456950000005
  0
LINE
  8
_0-0_0
  6
CONTINUOUS
 62
    7
 10
21.613261500000021
 20
403.57456950000005
 11
21.613261500000021
 21
404.07456950000005
  0
ARC
  8
_0-0_0
  6
CONTINUOUS
 62
    7
 10
23.613262500000019
 20
421.17457550000006
 40
2
 50
93.840255999999997
 51
180.00000900000001
  0
LINE
  8
_0-0_0
  6
CONTINUOUS
 62
    7
 10
21.31326150000001
 20
409.37455750000004
 11
21.31326150000001
 21
415.37455750000004
  0
LINE
  8
_0-0_0
  6
CONTINUOUS
 62
    7
 10
21.31326150000001
 20
423.87455750000004
 11
21.31326150000001
 21
422.32987950000006
  0
LINE
  8
_0-0_0
  6
CONTINUOUS
 62
    7
 10
21.31326150000001
 20
415.37455750000004
 11
21.613252499999987
 21
415.37455750000004
  0
LINE
  8
_0-0_0
  6
CONTINUOUS
 62
    7
 10
21.31326150000001
 20
409.37455750000004
 11
21.613252499999987
 21
409.37455750000004
  0
LINE
  8
_0-0_0
  6
CONTINUOUS
 62
    7
 10
36.613260500000024
 20
401.57456950000005
 11
27.613262500000019
 21
401.57456950000005
  0
LINE
  8
_0-0_0
  6
CONTINUOUS
 62
    7
 10
24.113262500000019
 20
401.57456950000005
 11
23.613262500000019
 21
401.57456950000005
  0
LINE
  8
_0-0_0
  6
CONTINUOUS
 62
    7
 10
27.113262500000019
 20
401.57456950000005
 11
24.113262500000019
 21
401.57456950000005
  0
LINE
  8
_0-0_0
  6
CONTINUOUS
 62
    7
 10
27.613262500000019
 20
401.57456950000005
 11
27.113262500000019
 21
401.57456950000005
  0
ARC
  8
_0-0_0
  6
CONTINUOUS
 62
    7
 10
23.613262500000019
 20
403.57456950000005
 40
2
 50
180.00000900000003
 51
269.99999700000001
  0
ARC
  8
_0-0_0
  6
CONTINUOUS
 62
    7
 10
37.413261500000033
 20
426.07456950000005
 40
0.5
 50
0
 51
90.000003000000007
  0
LINE
  8
_0-0_0
  6
CONTINUOUS
 62
    7
 10
35.913261500000033
 20
426.57456950000005
 11
37.413261500000033
 21
426.57456950000005
  0
ARC
  8
_0-0_0
  6
CONTINUOUS
 62
    7
 10
35.913261500000033
 20
427.57456950000005
 40
1
 50
180.00000900000003
 51
269.99999700000001
  0
LINE
  8
_0-0_0
  6
CONTINUOUS
 62
    7
 10
34.913261500000033
 20
427.57456950000005
 11
34.913261500000033
 21
427.67466750000006
  0
LINE
  8
_0-0_0
  6
CONTINUOUS
 62
    7
 10
34.413261500000033
 20
426.57456950000005
 11
34.413261500000033
 21
427.67466750000006
  0
ARC
  8
_0-0_0
  6
CONTINUOUS
 62
    7
 10
35.413261500000033
 20
426.57456950000005
 40
1
 50
180.00000900000003
 51
269.99999700000001
  0
LINE
  8
_0-0_0
  6
CONTINUOUS
 62
    7
 10
35.413261500000033
 20
425.57456950000005
 11
35.21326049999999
 21
425.57456950000005
  0
ARC
  8
_0-0_0
  6
CONTINUOUS
 62
    7
 10
35.21326049999999
 20
426.57456950000005
 40
1
 50
180.00000900000003
 51
269.99999700000001
  0
ARC
  8
_0-0_0
  6
CONTINUOUS
 62
    7
 10
25.013261499999999
 20
426.57456950000005
 40
1
 50
269.99999700000001
 51
0
  0
LINE
  8
_0-0_0
  6
CONTINUOUS
 62
    7
 10
25.013261499999999
 20
425.57456950000005
 11
24.31326150000001
 21
425.57456950000005
  0
LINE
  8
_0-0_0
  6
CONTINUOUS
 62
    7
 10
38.113260500000024
 20
425.57456950000005
 11
37.913261500000033
 21
425.57456950000005
  0
LINE
  8
_0-0_0
  6
CONTINUOUS
 62
    7
 10
21.31326150000001
 20
423.87455750000004
 11
38.113260500000024
 21
423.87455750000004
  0
LINE
  8
_0-0_0
  6
CONTINUOUS
 62
    7
 10
38.113260500000024
 20
423.87455750000004
 11
38.113260500000024
 21
425.57456950000005
  0
LINE
  8
_0-0_0
  6
CONTINUOUS
 62
    7
 10
34.21326049999999
 20
427.67466750000006
 11
34.21326049999999
 21
426.57456950000005
  0
LINE
  8
_0-0_0
  6
CONTINUOUS
 62
    7
 10
26.013259500000004
 20
426.57456950000005
 11
26.013259500000004
 21
427.67466750000006
  0
LINE
  8
_0-0_0
  6
CONTINUOUS
 62
    7
 10
22.31326150000001
 20
425.57456950000005
 11
21.31326150000001
 21
425.57456950000005
  0
LINE
  8
_0-0_0
  6
CONTINUOUS
 62
    7
 10
21.31326150000001
 20
423.87455750000004
 11
21.31326150000001
 21
425.57456950000005
  0
LINE
  8
_0-0_0
  6
CONTINUOUS
 62
    7
 10
36.613260500000024
 20
423.17457550000006
 11
36.113260500000024
 21
423.17457550000006
  0
CIRCLE
  8
_0-0_0
  6
CONTINUOUS
 62
    7
 10
36.113260500000024
 20
420.67457550000006
 40
2.5
  0
LINE
  8
_0-0_0
  6
CONTINUOUS
 62
    7
 10
23.613262500000019
 20
423.17457550000006
 11
32.613262500000019
 21
423.17457550000006
  0
LINE
  8
_0-0_0
  6
CONTINUOUS
 62
    7
 10
36.113260500000024
 20
423.17457550000006
 11
33.113262500000019
 21
423.17457550000006
  0
LINE
  8
_0-0_0
  6
CONTINUOUS
 62
    7
 10
32.613262500000019
 20
423.17457550000006
 11
33.113262500000019
 21
423.17457550000006
  0
ARC
  8
_0-0_0
  6
CONTINUOUS
 62
    7
 10
38.113260500000024
 20
417.17457550000006
 40
0.5
 50
0
 51
90.000003000000007
  0
LINE
  8
_0-0_0
  6
CONTINUOUS
 62
    7
 10
36.613260500000024
 20
401.67720050000003
 11
36.629140500000005
 21
401.64994850000005
  0
LINE
  8
_0-0_0
  6
CONTINUOUS
 62
    7
 10
36.629140500000005
 20
401.64994850000005
 11
36.644985500000018
 21
401.62696849999998
  0
LINE
  8
_0-0_0
  6
CONTINUOUS
 62
    7
 10
36.644985500000018
 20
401.62696849999998
 11
36.65896650000002
 21
401.61021449999998
  0
LINE
  8
_0-0_0
  6
CONTINUOUS
 62
    7
 10
36.65896650000002
 20
401.61021449999998
 11
36.672864500000003
 21
401.5968785
  0
LINE
  8
_0-0_0
  6
CONTINUOUS
 62
    7
 10
36.672864500000003
 20
401.5968785
 11
36.685081500000024
 21
401.58796749999999
  0
LINE
  8
_0-0_0
  6
CONTINUOUS
 62
    7
 10
36.685081500000024
 20
401.58796749999999
 11
36.697200500000008
 21
401.58174150000002
  0
LINE
  8
_0-0_0
  6
CONTINUOUS
 62
    7
 10
36.697200500000008
 20
401.58174150000002
 11
36.708067500000027
 21
401.57847649999997
  0
LINE
  8
_0-0_0
  6
CONTINUOUS
 62
    7
 10
36.708067500000027
 20
401.57847649999997
 11
36.718826499999977
 21
401.57740750000005
  0
LINE
  8
_0-0_0
  6
CONTINUOUS
 62
    7
 10
36.718826499999977
 20
401.57740750000005
 11
36.721286500000019
 21
401.57749950000004
  0
LINE
  8
_0-0_0
  6
CONTINUOUS
 62
    7
 10
22.31326150000001
 20
422.69444250000004
 11
22.31326150000001
 21
423.87364249999996
  0
ARC
  8
_0-0_0
  6
CONTINUOUS
 62
    7
 10
22.113261500000021
 20
407.57456950000005
 40
0.5
 50
180.00000900000003
 51
269.99999700000001
  0
CIRCLE
  8
_0-0_0
  6
CONTINUOUS
 62
    7
 10
24.113262500000019
 20
404.07456950000005
 40
2.5
  0
LINE
  8
_0-0_0
  6
CONTINUOUS
 62
    7
 10
23.613262500000019
 20
423.07194549999997
 11
23.597381499999983
 21
423.09919750000006
  0
LINE
  8
_0-0_0
  6
CONTINUOUS
 62
    7
 10
23.597381499999983
 20
423.09919750000006
 11
23.58153550000003
 21
423.12217750000002
  0
LINE
  8
_0-0_0
  6
CONTINUOUS
 62
    7
 10
23.58153550000003
 20
423.12217750000002
 11
23.567556500000023
 21
423.13893150000001
  0
LINE
  8
_0-0_0
  6
CONTINUOUS
 62
    7
 10
23.567556500000023
 20
423.13893150000001
 11
23.553655499999991
 21
423.15226749999999
  0
LINE
  8
_0-0_0
  6
CONTINUOUS
 62
    7
 10
23.553655499999991
 20
423.15226749999999
 11
23.541439500000024
 21
423.16117850000001
  0
LINE
  8
_0-0_0
  6
CONTINUOUS
 62
    7
 10
23.541439500000024
 20
423.16117850000001
 11
23.529319499999986
 21
423.16740449999998
  0
LINE
  8
_0-0_0
  6
CONTINUOUS
 62
    7
 10
23.529319499999986
 20
423.16740449999998
 11
23.518455500000016
 21
423.17066950000003
  0
LINE
  8
_0-0_0
  6
CONTINUOUS
 62
    7
 10
23.518455500000016
 20
423.17066950000003
 11
23.507694500000014
 21
423.17173750000006
  0
LINE
  8
_0-0_0
  6
CONTINUOUS
 62
    7
 10
23.507694500000014
 20
423.17173750000006
 11
23.505233500000031
 21
423.17164650000007
  0
LINE
  8
_0-0_0
  6
CONTINUOUS
 62
    7
 10
21.31326150000001
 20
404.97456350000004
 11
21.21326049999999
 21
404.97456350000004
  0
LINE
  8
_0-0_0
  6
CONTINUOUS
 62
    7
 10
21.21326049999999
 20
404.97456350000004
 11
21.21326049999999
 21
407.97456350000004
  0
LINE
  8
_0-0_0
  6
CONTINUOUS
 62
    7
 10
21.21326049999999
 20
407.97456350000004
 11
21.21326049999999
 21
421.57456950000005
  0
LINE
  8
_0-0_0
  6
CONTINUOUS
 62
    7
 10
21.31326150000001
 20
424.57456950000005
 11
21.21326049999999
 21
424.57456950000005
  0
LINE
  8
_0-0_0
  6
CONTINUOUS
 62
    7
 10
21.21326049999999
 20
421.57456950000005
 11
21.21326049999999
 21
424.57456950000005
  0
ARC
  8
_0-0_0
  6
CONTINUOUS
 62
    7
 10
27.613262500000019
 20
402.07456950000005
 40
0.5
 50
180.00000900000003
 51
269.99999700000001
  0
ARC
  8
_0-0_0
  6
CONTINUOUS
 62
    7
 10
24.31326150000001
 20
427.07463050000001
 40
1.5
 50
269.99999700000001
 51
0
  0
ARC
  8
_0-0_0
  6
CONTINUOUS
 62
    7
 10
22.81326150000001
 20
426.07463050000001
 40
0.5
 50
90.000003000000007
 51
180.00000900000001
  0
LINE
  8
_0-0_0
  6
CONTINUOUS
 62
    7
 10
22.81326150000001
 20
426.57463050000001
 11
24.31326150000001
 21
426.57463050000001
  0
ARC
  8
_0-0_0
  6
CONTINUOUS
 62
    7
 10
24.31326150000001
 20
427.57463050000001
 40
1
 50
269.99999700000001
 51
0
  0
LINE
  8
_0-0_0
  6
CONTINUOUS
 62
    7
 10
25.31326150000001
 20
427.67466750000006
 11
25.31326150000001
 21
427.57463050000001
  0
LINE
  8
_0-0_0
  6
CONTINUOUS
 62
    7
 10
25.81326150000001
 20
427.67466750000006
 11
25.81326150000001
 21
427.07463050000001
  0
LINE
  8
_0-0_0
  6
CONTINUOUS
 62
    7
 10
22.31326150000001
 20
425.57463050000001
 11
22.31326150000001
 21
426.07463050000001
  0
ARC
  8
_0-0_0
  6
CONTINUOUS
 62
    7
 10
32.613262500000019
 20
422.67457550000006
 40
0.5
 50
0
 51
90.000003000000007
  0
LINE
  8
_0-0_0
  6
CONTINUOUS
 62
    7
 10
33.113262500000019
 20
422.59761049999997
 11
33.113262500000019
 21
422.67457550000006
  0
LINE
  8
_0-0_0
  6
CONTINUOUS
 62
    7
 10
33.113262500000019
 20
421.15608250000002
 11
33.113262500000019
 21
422.59761049999997
  0
LINE
  8
_0-0_0
  6
CONTINUOUS
 62
    7
 10
33.113262500000019
 20
420.67457550000006
 11
33.113262500000019
 21
421.15608250000002
  0
ARC
  8
_0-0_0
  6
CONTINUOUS
 62
    7
 10
36.113260500000024
 20
420.67457550000006
 40
3
 50
180.00000900000003
 51
269.99999700000001
  0
LINE
  8
_0-0_0
  6
CONTINUOUS
 62
    7
 10
36.594762500000002
 20
417.67457550000006
 11
36.113260500000024
 21
417.67457550000006
  0
LINE
  8
_0-0_0
  6
CONTINUOUS
 62
    7
 10
36.594762500000002
 20
417.67457550000006
 11
38.03628550000002
 21
417.67457550000006
  0
LINE
  8
_0-0_0
  6
CONTINUOUS
 62
    7
 10
38.113260500000024
 20
417.67457550000006
 11
38.03628550000002
 21
417.67457550000006
  0
LINE
  8
_0-0_0
  6
CONTINUOUS
 62
    7
 10
22.190236500000026
 20
407.07456950000005
 11
22.113261500000021
 21
407.07456950000005
  0
LINE
  8
_0-0_0
  6
CONTINUOUS
 62
    7
 10
24.113262500000019
 20
407.07456950000005
 11
23.631759499999987
 21
407.07456950000005
  0
LINE
  8
_0-0_0
  6
CONTINUOUS
 62
    7
 10
23.631759499999987
 20
407.07456950000005
 11
22.190236500000026
 21
407.07456950000005
  0
LINE
  8
_0-0_0
  6
CONTINUOUS
 62
    7
 10
27.113262500000019
 20
402.07456950000005
 11
27.113262500000019
 21
402.15153550000002
  0
LINE
  8
_0-0_0
  6
CONTINUOUS
 62
    7
 10
27.113262500000019
 20
403.59306349999997
 11
27.113262500000019
 21
402.15153550000002
  0
LINE
  8
_0-0_0
  6
CONTINUOUS
 62
    7
 10
27.113262500000019
 20
403.59306349999997
 11
27.113262500000019
 21
404.07456950000005
  0
ARC
  8
_0-0_0
  6
CONTINUOUS
 62
    7
 10
24.113262500000019
 20
404.07456950000005
 40
3
 50
0
 51
89.999995999999996
  0
LINE
  8
_0-0_0
  6
CONTINUOUS
 62
    7
 10
38.613260500000024
 20
424.68583650000005
 11
38.613260500000024
 21
422.79957550000006
  0
LINE
  8
_0-0_0
  6
CONTINUOUS
 62
    7
 10
38.613260500000024
 20
425.34956350000004
 11
38.613260500000024
 21
424.68583650000005
  0
ARC
  8
_0-0_0
  6
CONTINUOUS
 62
    7
 10
33.343378500000028
 20
413.54780549999998
 40
3.063396
 50
19.82113
 51
25.289563000000001
  0
ARC
  8
_0-0_0
  6
CONTINUOUS
 62
    7
 10
33.343698500000016
 20
411.20118750000006
 40
3.0630519999999999
 50
334.71006
 51
340.17869200000001
  0
ARC
  8
_0-0_0
  6
CONTINUOUS
 62
    7
 10
26.883146500000009
 20
411.20133950000002
 40
3.063399
 50
199.82113599999997
 51
205.28948099999999
  0
ARC
  8
_0-0_0
  6
CONTINUOUS
 62
    7
 10
26.882827500000019
 20
413.54795850000005
 40
3.0630549999999999
 50
154.710137
 51
160.17869999999999
  0
ARC
  8
_0-0_0
  6
CONTINUOUS
 62
    7
 10
30.113262500000019
 20
412.37455750000004
 40
6.5
 50
340.10416099999998
 51
19.895609999999952
  0
ARC
  8
_0-0_0
  6
CONTINUOUS
 62
    7
 10
30.113262500000019
 20
412.37455750000004
 40
6.5
 50
160.10415599999999
 51
199.895612
  0
LINE
  8
_0-0_0
  6
CONTINUOUS
 62
    7
 10
21.613261500000021
 20
423.46336350000001
 11
21.613261500000021
 21
423.87370350000003
  0
LINE
  8
_0-0_0
  6
CONTINUOUS
 62
    7
 10
21.613261500000021
 20
422.80448950000005
 11
21.613261500000021
 21
423.46336350000001
  0
LINE
  8
_0-0_0
  6
CONTINUOUS
 62
    7
 10
29.371591500000022
 20
418.87455750000004
 11
24.854930500000023
 21
416.2668615
  0
LINE
  8
_0-0_0
  6
CONTINUOUS
 62
    7
 10
30.854930500000023
 20
418.87455750000004
 11
29.371591500000022
 21
418.87455750000004
  0
LINE
  8
_0-0_0
  6
CONTINUOUS
 62
    7
 10
35.371591500000022
 20
416.2668615
 11
30.854930500000023
 21
418.87455750000004
  0
LINE
  8
_0-0_0
  6
CONTINUOUS
 62
    7
 10
36.113260500000024
 20
414.98225450000007
 11
36.113260500000024
 21
409.7668615
  0
LINE
  8
_0-0_0
  6
CONTINUOUS
 62
    7
 10
35.371591500000022
 20
416.2668615
 11
36.113260500000024
 21
414.98225450000007
  0
LINE
  8
_0-0_0
  6
CONTINUOUS
 62
    7
 10
30.854930500000023
 20
405.87455750000004
 11
35.371591500000022
 21
408.48225450000007
  0
LINE
  8
_0-0_0
  6
CONTINUOUS
 62
    7
 10
35.66571650000003
 20
408.99171450000006
 11
36.113260500000024
 21
409.7668615
  0
LINE
  8
_0-0_0
  6
CONTINUOUS
 62
    7
 10
35.66571650000003
 20
408.99171450000006
 11
35.371591500000022
 21
408.48225450000007
  0
LINE
  8
_0-0_0
  6
CONTINUOUS
 62
    7
 10
29.371591500000022
 20
405.87455750000004
 11
30.854930500000023
 21
405.87455750000004
  0
LINE
  8
_0-0_0
  6
CONTINUOUS
 62
    7
 10
24.854930500000023
 20
408.48225450000007
 11
29.371591500000022
 21
405.87455750000004
  0
LINE
  8
_0-0_0
  6
CONTINUOUS
 62
    7
 10
24.113262500000019
 20
414.98225450000007
 11
24.113262500000019
 21
409.7668615
  0
LINE
  8
_0-0_0
  6
CONTINUOUS
 62
    7
 10
24.854930500000023
 20
408.48225450000007
 11
24.113262500000019
 21
409.7668615
  0
LINE
  8
_0-0_0
  6
CONTINUOUS
 62
    7
 10
24.560806500000012
 20
415.75743150000005
 11
24.113262500000019
 21
414.98225450000007
  0
LINE
  8
_0-0_0
  6
CONTINUOUS
 62
    7
 10
24.560806500000012
 20
415.75743150000005
 11
24.854930500000023
 21
416.2668615
  0
LINE
  8
_0-0_0
  6
CONTINUOUS
 62
    7
 10
38.000268500000004
 20
421.90000950000001
 11
38.278324499999997
 21
421.92457550000006
  0
LINE
  8
_0-0_0
  6
CONTINUOUS
 62
    7
 10
38.11802449999999
 20
421.69606050000004
 11
38.278324499999997
 21
421.92457550000006
  0
LINE
  8
_0-0_0
  6
CONTINUOUS
 62
    7
 10
37.861839500000031
 20
422.0905305
 11
38.135803500000009
 21
422.14402749999999
  0
LINE
  8
_0-0_0
  6
CONTINUOUS
 62
    7
 10
38.000268500000004
 20
421.90000950000001
 11
38.135803500000009
 21
422.14402749999999
  0
LINE
  8
_0-0_0
  6
CONTINUOUS
 62
    7
 10
37.704250500000001
 20
422.26554850000002
 11
37.971122499999979
 21
422.34739650000006
  0
LINE
  8
_0-0_0
  6
CONTINUOUS
 62
    7
 10
37.861839500000031
 20
422.0905305
 11
37.971122499999979
 21
422.34739650000006
  0
LINE
  8
_0-0_0
  6
CONTINUOUS
 62
    7
 10
37.529232500000035
 20
422.42314150000004
 11
37.786087500000008
 21
422.53242550000004
  0
LINE
  8
_0-0_0
  6
CONTINUOUS
 62
    7
 10
37.704250500000001
 20
422.26554850000002
 11
37.786087500000008
 21
422.53242550000004
  0
LINE
  8
_0-0_0
  6
CONTINUOUS
 62
    7
 10
37.338699500000018
 20
422.56156950000002
 11
37.582723499999986
 21
422.69709750000004
  0
LINE
  8
_0-0_0
  6
CONTINUOUS
 62
    7
 10
37.529232500000035
 20
422.42314150000004
 11
37.582723499999986
 21
422.69709750000004
  0
LINE
  8
_0-0_0
  6
CONTINUOUS
 62
    7
 10
37.134738500000026
 20
422.67933649999998
 11
37.363260500000024
 21
422.83964549999996
  0
LINE
  8
_0-0_0
  6
CONTINUOUS
 62
    7
 10
37.338699500000018
 20
422.56156950000002
 11
37.363260500000024
 21
422.83964549999996
  0
LINE
  8
_0-0_0
  6
CONTINUOUS
 62
    7
 10
36.919588500000032
 20
422.77513150000004
 11
37.130102500000021
 21
422.95845050000003
  0
LINE
  8
_0-0_0
  6
CONTINUOUS
 62
    7
 10
37.134738500000026
 20
422.67933649999998
 11
37.130102500000021
 21
422.95845050000003
  0
LINE
  8
_0-0_0
  6
CONTINUOUS
 62
    7
 10
36.695604500000002
 20
422.8479155
 11
36.885803500000009
 21
423.05220050000003
  0
LINE
  8
_0-0_0
  6
CONTINUOUS
 62
    7
 10
36.919588500000032
 20
422.77513150000004
 11
36.885803500000009
 21
423.05220050000003
  0
LINE
  8
_0-0_0
  6
CONTINUOUS
 62
    7
 10
36.465238499999998
 20
422.89686549999999
 11
36.633039499999995
 21
423.11994949999996
  0
LINE
  8
_0-0_0
  6
CONTINUOUS
 62
    7
 10
36.695604500000002
 20
422.8479155
 11
36.633039499999995
 21
423.11994949999996
  0
LINE
  8
_0-0_0
  6
CONTINUOUS
 62
    7
 10
36.23101650000001
 20
422.9214935
 11
36.374582500000031
 21
423.16087349999998
  0
LINE
  8
_0-0_0
  6
CONTINUOUS
 62
    7
 10
36.465238499999998
 20
422.89686549999999
 11
36.374582500000031
 21
423.16087349999998
  0
LINE
  8
_0-0_0
  6
CONTINUOUS
 62
    7
 10
35.995504499999981
 20
422.9214935
 11
36.113260500000024
 21
423.17457550000006
  0
LINE
  8
_0-0_0
  6
CONTINUOUS
 62
    7
 10
36.23101650000001
 20
422.9214935
 11
36.113260500000024
 21
423.17457550000006
  0
LINE
  8
_0-0_0
  6
CONTINUOUS
 62
    7
 10
35.76128349999999
 20
422.89686549999999
 11
35.851940500000012
 21
423.16087349999998
  0
LINE
  8
_0-0_0
  6
CONTINUOUS
 62
    7
 10
35.995504499999981
 20
422.9214935
 11
35.851940500000012
 21
423.16087349999998
  0
LINE
  8
_0-0_0
  6
CONTINUOUS
 62
    7
 10
35.530918499999984
 20
422.8479155
 11
35.593481499999996
 21
423.11994949999996
  0
LINE
  8
_0-0_0
  6
CONTINUOUS
 62
    7
 10
35.76128349999999
 20
422.89686549999999
 11
35.593481499999996
 21
423.11994949999996
  0
LINE
  8
_0-0_0
  6
CONTINUOUS
 62
    7
 10
35.306932500000016
 20
422.77513150000004
 11
35.340719499999977
 21
423.05220050000003
  0
LINE
  8
_0-0_0
  6
CONTINUOUS
 62
    7
 10
35.530918499999984
 20
422.8479155
 11
35.340719499999977
 21
423.05220050000003
  0
LINE
  8
_0-0_0
  6
CONTINUOUS
 62
    7
 10
35.091781500000025
 20
422.67933649999998
 11
35.096418500000027
 21
422.95845050000003
  0
LINE
  8
_0-0_0
  6
CONTINUOUS
 62
    7
 10
35.306932500000016
 20
422.77513150000004
 11
35.096418500000027
 21
422.95845050000003
  0
LINE
  8
_0-0_0
  6
CONTINUOUS
 62
    7
 10
34.972244499999988
 20
422.76319850000004
 11
34.863260500000024
 21
422.83964549999996
  0
LINE
  8
_0-0_0
  6
CONTINUOUS
 62
    7
 10
35.091781500000025
 20
422.67933649999998
 11
34.972244499999988
 21
422.76319850000004
  0
LINE
  8
_0-0_0
  6
CONTINUOUS
 62
    7
 10
34.887823500000025
 20
422.56156950000002
 11
34.863260500000024
 21
422.83964549999996
  0
LINE
  8
_0-0_0
  6
CONTINUOUS
 62
    7
 10
34.697290500000008
 20
422.42314150000004
 11
34.643796500000008
 21
422.69709750000004
  0
LINE
  8
_0-0_0
  6
CONTINUOUS
 62
    7
 10
34.887823500000025
 20
422.56156950000002
 11
34.643796500000008
 21
422.69709750000004
  0
LINE
  8
_0-0_0
  6
CONTINUOUS
 62
    7
 10
34.522270499999991
 20
422.26554850000002
 11
34.440433499999983
 21
422.53242550000004
  0
LINE
  8
_0-0_0
  6
CONTINUOUS
 62
    7
 10
34.697290500000008
 20
422.42314150000004
 11
34.440433499999983
 21
422.53242550000004
  0
LINE
  8
_0-0_0
  6
CONTINUOUS
 62
    7
 10
34.364683500000012
 20
422.0905305
 11
34.25539950000001
 21
422.34739650000006
  0
LINE
  8
_0-0_0
  6
CONTINUOUS
 62
    7
 10
34.522270499999991
 20
422.26554850000002
 11
34.25539950000001
 21
422.34739650000006
  0
LINE
  8
_0-0_0
  6
CONTINUOUS
 62
    7
 10
34.226251499999989
 20
421.90000950000001
 11
34.090719499999977
 21
422.14402749999999
  0
LINE
  8
_0-0_0
  6
CONTINUOUS
 62
    7
 10
34.364683500000012
 20
422.0905305
 11
34.090719499999977
 21
422.14402749999999
  0
LINE
  8
_0-0_0
  6
CONTINUOUS
 62
    7
 10
34.108495500000004
 20
421.69606050000004
 11
33.94819849999999
 21
421.92457550000006
  0
LINE
  8
_0-0_0
  6
CONTINUOUS
 62
    7
 10
34.226251499999989
 20
421.90000950000001
 11
33.94819849999999
 21
421.92457550000006
  0
LINE
  8
_0-0_0
  6
CONTINUOUS
 62
    7
 10
34.012704499999984
 20
421.48091150000005
 11
33.829397500000027
 21
421.69142150000005
  0
LINE
  8
_0-0_0
  6
CONTINUOUS
 62
    7
 10
34.108495500000004
 20
421.69606050000004
 11
33.829397500000027
 21
421.69142150000005
  0
LINE
  8
_0-0_0
  6
CONTINUOUS
 62
    7
 10
33.939928500000008
 20
421.2569125
 11
33.735620499999982
 21
421.44709750000004
  0
LINE
  8
_0-0_0
  6
CONTINUOUS
 62
    7
 10
34.012704499999984
 20
421.48091150000005
 11
33.735620499999982
 21
421.44709750000004
  0
LINE
  8
_0-0_0
  6
CONTINUOUS
 62
    7
 10
33.890962500000001
 20
421.02653550000002
 11
33.667892499999994
 21
421.19435150000004
  0
LINE
  8
_0-0_0
  6
CONTINUOUS
 62
    7
 10
33.939928500000008
 20
421.2569125
 11
33.667892499999994
 21
421.19435150000004
  0
LINE
  8
_0-0_0
  6
CONTINUOUS
 62
    7
 10
33.890962500000001
 20
421.02653550000002
 11
33.626957500000003
 21
420.93589750000001
  0
LINE
  8
_0-0_0
  6
CONTINUOUS
 62
    7
 10
33.866344500000025
 20
420.79231249999998
 11
33.626957500000003
 21
420.93589750000001
  0
LINE
  8
_0-0_0
  6
CONTINUOUS
 62
    7
 10
33.866344500000025
 20
420.55680849999999
 11
33.613260500000024
 21
420.67457550000006
  0
LINE
  8
_0-0_0
  6
CONTINUOUS
 62
    7
 10
33.866344500000025
 20
420.79231249999998
 11
33.613260500000024
 21
420.67457550000006
  0
LINE
  8
_0-0_0
  6
CONTINUOUS
 62
    7
 10
33.890962500000001
 20
420.32258650000006
 11
33.626957500000003
 21
420.4132535
  0
LINE
  8
_0-0_0
  6
CONTINUOUS
 62
    7
 10
33.866344500000025
 20
420.55680849999999
 11
33.626957500000003
 21
420.4132535
  0
LINE
  8
_0-0_0
  6
CONTINUOUS
 62
    7
 10
33.939928500000008
 20
420.09223950000001
 11
33.667892499999994
 21
420.15480049999996
  0
LINE
  8
_0-0_0
  6
CONTINUOUS
 62
    7
 10
33.890962500000001
 20
420.32258650000006
 11
33.667892499999994
 21
420.15480049999996
  0
LINE
  8
_0-0_0
  6
CONTINUOUS
 62
    7
 10
34.012704499999984
 20
419.86824049999996
 11
33.735620499999982
 21
419.90202350000004
  0
LINE
  8
_0-0_0
  6
CONTINUOUS
 62
    7
 10
33.939928500000008
 20
420.09223950000001
 11
33.735620499999982
 21
419.90202350000004
  0
LINE
  8
_0-0_0
  6
CONTINUOUS
 62
    7
 10
34.108495500000004
 20
419.65309149999996
 11
33.829397500000027
 21
419.65773049999996
  0
LINE
  8
_0-0_0
  6
CONTINUOUS
 62
    7
 10
34.012704499999984
 20
419.86824049999996
 11
33.829397500000027
 21
419.65773049999996
  0
LINE
  8
_0-0_0
  6
CONTINUOUS
 62
    7
 10
34.226251499999989
 20
419.44914249999999
 11
33.94819849999999
 21
419.42457550000006
  0
LINE
  8
_0-0_0
  6
CONTINUOUS
 62
    7
 10
34.108495500000004
 20
419.65309149999996
 11
33.94819849999999
 21
419.42457550000006
  0
LINE
  8
_0-0_0
  6
CONTINUOUS
 62
    7
 10
34.364683500000012
 20
419.25859049999997
 11
34.090719499999977
 21
419.20509349999998
  0
LINE
  8
_0-0_0
  6
CONTINUOUS
 62
    7
 10
34.226251499999989
 20
419.44914249999999
 11
34.090719499999977
 21
419.20509349999998
  0
LINE
  8
_0-0_0
  6
CONTINUOUS
 62
    7
 10
34.522270499999991
 20
419.08357250000006
 11
34.25539950000001
 21
419.00175450000006
  0
LINE
  8
_0-0_0
  6
CONTINUOUS
 62
    7
 10
34.364683500000012
 20
419.25859049999997
 11
34.25539950000001
 21
419.00175450000006
  0
LINE
  8
_0-0_0
  6
CONTINUOUS
 62
    7
 10
34.697290500000008
 20
418.92597950000004
 11
34.440433499999983
 21
418.81669650000003
  0
LINE
  8
_0-0_0
  6
CONTINUOUS
 62
    7
 10
34.522270499999991
 20
419.08357250000006
 11
34.440433499999983
 21
418.81669650000003
  0
LINE
  8
_0-0_0
  6
CONTINUOUS
 62
    7
 10
34.887823500000025
 20
418.78755250000006
 11
34.643796500000008
 21
418.65202350000004
  0
LINE
  8
_0-0_0
  6
CONTINUOUS
 62
    7
 10
34.697290500000008
 20
418.92597950000004
 11
34.643796500000008
 21
418.65202350000004
  0
LINE
  8
_0-0_0
  6
CONTINUOUS
 62
    7
 10
35.091781500000025
 20
418.66981550000003
 11
34.863260500000024
 21
418.50950650000004
  0
LINE
  8
_0-0_0
  6
CONTINUOUS
 62
    7
 10
34.887823500000025
 20
418.78755250000006
 11
34.863260500000024
 21
418.50950650000004
  0
LINE
  8
_0-0_0
  6
CONTINUOUS
 62
    7
 10
35.306932500000016
 20
418.57402049999996
 11
35.096418500000027
 21
418.39070149999998
  0
LINE
  8
_0-0_0
  6
CONTINUOUS
 62
    7
 10
35.091781500000025
 20
418.66981550000003
 11
35.096418500000027
 21
418.39070149999998
  0
LINE
  8
_0-0_0
  6
CONTINUOUS
 62
    7
 10
35.530918499999984
 20
418.5012365
 11
35.340719499999977
 21
418.29692050000006
  0
LINE
  8
_0-0_0
  6
CONTINUOUS
 62
    7
 10
35.306932500000016
 20
418.57402049999996
 11
35.340719499999977
 21
418.29692050000006
  0
LINE
  8
_0-0_0
  6
CONTINUOUS
 62
    7
 10
35.76128349999999
 20
418.45228550000002
 11
35.593481499999996
 21
418.22920250000004
  0
LINE
  8
_0-0_0
  6
CONTINUOUS
 62
    7
 10
35.530918499999984
 20
418.5012365
 11
35.593481499999996
 21
418.22920250000004
  0
LINE
  8
_0-0_0
  6
CONTINUOUS
 62
    7
 10
35.995504499999981
 20
418.42765850000001
 11
35.851940500000012
 21
418.18827850000002
  0
LINE
  8
_0-0_0
  6
CONTINUOUS
 62
    7
 10
35.76128349999999
 20
418.45228550000002
 11
35.851940500000012
 21
418.18827850000002
  0
LINE
  8
_0-0_0
  6
CONTINUOUS
 62
    7
 10
36.23101650000001
 20
418.42765850000001
 11
36.113260500000024
 21
418.17457550000006
  0
LINE
  8
_0-0_0
  6
CONTINUOUS
 62
    7
 10
35.995504499999981
 20
418.42765850000001
 11
36.113260500000024
 21
418.17457550000006
  0
LINE
  8
_0-0_0
  6
CONTINUOUS
 62
    7
 10
36.465238499999998
 20
418.45228550000002
 11
36.374582500000031
 21
418.18827850000002
  0
LINE
  8
_0-0_0
  6
CONTINUOUS
 62
    7
 10
36.23101650000001
 20
418.42765850000001
 11
36.374582500000031
 21
418.18827850000002
  0
LINE
  8
_0-0_0
  6
CONTINUOUS
 62
    7
 10
36.695604500000002
 20
418.5012365
 11
36.633039499999995
 21
418.22920250000004
  0
LINE
  8
_0-0_0
  6
CONTINUOUS
 62
    7
 10
36.465238499999998
 20
418.45228550000002
 11
36.633039499999995
 21
418.22920250000004
  0
LINE
  8
_0-0_0
  6
CONTINUOUS
 62
    7
 10
36.919588500000032
 20
418.57402049999996
 11
36.885803500000009
 21
418.29692050000006
  0
LINE
  8
_0-0_0
  6
CONTINUOUS
 62
    7
 10
36.695604500000002
 20
418.5012365
 11
36.885803500000009
 21
418.29692050000006
  0
LINE
  8
_0-0_0
  6
CONTINUOUS
 62
    7
 10
37.134738500000026
 20
418.66981550000003
 11
37.130102500000021
 21
418.39070149999998
  0
LINE
  8
_0-0_0
  6
CONTINUOUS
 62
    7
 10
36.919588500000032
 20
418.57402049999996
 11
37.130102500000021
 21
418.39070149999998
  0
LINE
  8
_0-0_0
  6
CONTINUOUS
 62
    7
 10
37.254276500000003
 20
418.58595249999996
 11
37.363260500000024
 21
418.50950650000004
  0
LINE
  8
_0-0_0
  6
CONTINUOUS
 62
    7
 10
37.134738500000026
 20
418.66981550000003
 11
37.254276500000003
 21
418.58595249999996
  0
LINE
  8
_0-0_0
  6
CONTINUOUS
 62
    7
 10
37.338699500000018
 20
418.78755250000006
 11
37.363260500000024
 21
418.50950650000004
  0
LINE
  8
_0-0_0
  6
CONTINUOUS
 62
    7
 10
37.529232500000035
 20
418.92597950000004
 11
37.582723499999986
 21
418.65202350000004
  0
LINE
  8
_0-0_0
  6
CONTINUOUS
 62
    7
 10
37.338699500000018
 20
418.78755250000006
 11
37.582723499999986
 21
418.65202350000004
  0
LINE
  8
_0-0_0
  6
CONTINUOUS
 62
    7
 10
37.704250500000001
 20
419.08357250000006
 11
37.786087500000008
 21
418.81669650000003
  0
LINE
  8
_0-0_0
  6
CONTINUOUS
 62
    7
 10
37.529232500000035
 20
418.92597950000004
 11
37.786087500000008
 21
418.81669650000003
  0
LINE
  8
_0-0_0
  6
CONTINUOUS
 62
    7
 10
37.861839500000031
 20
419.25859049999997
 11
37.971122499999979
 21
419.00175450000006
  0
LINE
  8
_0-0_0
  6
CONTINUOUS
 62
    7
 10
37.704250500000001
 20
419.08357250000006
 11
37.971122499999979
 21
419.00175450000006
  0
LINE
  8
_0-0_0
  6
CONTINUOUS
 62
    7
 10
38.000268500000004
 20
419.44914249999999
 11
38.135803500000009
 21
419.20509349999998
  0
LINE
  8
_0-0_0
  6
CONTINUOUS
 62
    7
 10
37.861839500000031
 20
419.25859049999997
 11
38.135803500000009
 21
419.20509349999998
  0
LINE
  8
_0-0_0
  6
CONTINUOUS
 62
    7
 10
38.11802449999999
 20
419.65309149999996
 11
38.278324499999997
 21
419.42457550000006
  0
LINE
  8
_0-0_0
  6
CONTINUOUS
 62
    7
 10
38.000268500000004
 20
419.44914249999999
 11
38.278324499999997
 21
419.42457550000006
  0
LINE
  8
_0-0_0
  6
CONTINUOUS
 62
    7
 10
38.213817500000005
 20
419.86824049999996
 11
38.397123500000021
 21
419.65773049999996
  0
LINE
  8
_0-0_0
  6
CONTINUOUS
 62
    7
 10
38.11802449999999
 20
419.65309149999996
 11
38.397123500000021
 21
419.65773049999996
  0
LINE
  8
_0-0_0
  6
CONTINUOUS
 62
    7
 10
38.286594499999978
 20
420.09223950000001
 11
38.490902500000004
 21
419.90202350000004
  0
LINE
  8
_0-0_0
  6
CONTINUOUS
 62
    7
 10
38.213817500000005
 20
419.86824049999996
 11
38.490902500000004
 21
419.90202350000004
  0
LINE
  8
_0-0_0
  6
CONTINUOUS
 62
    7
 10
38.335559499999988
 20
420.32258650000006
 11
38.558630499999992
 21
420.15480049999996
  0
LINE
  8
_0-0_0
  6
CONTINUOUS
 62
    7
 10
38.286594499999978
 20
420.09223950000001
 11
38.558630499999992
 21
420.15480049999996
  0
LINE
  8
_0-0_0
  6
CONTINUOUS
 62
    7
 10
38.360176500000023
 20
420.55680849999999
 11
38.599565499999983
 21
420.4132535
  0
LINE
  8
_0-0_0
  6
CONTINUOUS
 62
    7
 10
38.335559499999988
 20
420.32258650000006
 11
38.599565499999983
 21
420.4132535
  0
LINE
  8
_0-0_0
  6
CONTINUOUS
 62
    7
 10
38.360176500000023
 20
420.79231249999998
 11
38.613260500000024
 21
420.67457550000006
  0
LINE
  8
_0-0_0
  6
CONTINUOUS
 62
    7
 10
38.360176500000023
 20
420.55680849999999
 11
38.613260500000024
 21
420.67457550000006
  0
LINE
  8
_0-0_0
  6
CONTINUOUS
 62
    7
 10
38.335559499999988
 20
421.02653550000002
 11
38.599565499999983
 21
420.93589750000001
  0
LINE
  8
_0-0_0
  6
CONTINUOUS
 62
    7
 10
38.360176500000023
 20
420.79231249999998
 11
38.599565499999983
 21
420.93589750000001
  0
LINE
  8
_0-0_0
  6
CONTINUOUS
 62
    7
 10
38.286594499999978
 20
421.2569125
 11
38.558630499999992
 21
421.19435150000004
  0
LINE
  8
_0-0_0
  6
CONTINUOUS
 62
    7
 10
38.335559499999988
 20
421.02653550000002
 11
38.558630499999992
 21
421.19435150000004
  0
LINE
  8
_0-0_0
  6
CONTINUOUS
 62
    7
 10
38.213817500000005
 20
421.48091150000005
 11
38.490902500000004
 21
421.44709750000004
  0
LINE
  8
_0-0_0
  6
CONTINUOUS
 62
    7
 10
38.286594499999978
 20
421.2569125
 11
38.490902500000004
 21
421.44709750000004
  0
LINE
  8
_0-0_0
  6
CONTINUOUS
 62
    7
 10
38.11802449999999
 20
421.69606050000004
 11
38.397123500000021
 21
421.69142150000005
  0
LINE
  8
_0-0_0
  6
CONTINUOUS
 62
    7
 10
38.213817500000005
 20
421.48091150000005
 11
38.397123500000021
 21
421.69142150000005
  0
CIRCLE
  8
_0-0_0
  6
CONTINUOUS
 62
    7
 10
30.113262500000019
 20
412.37455750000004
 40
5.25
  0
LINE
  8
_0-0_0
  6
CONTINUOUS
 62
    7
 10
26.000270499999999
 20
405.3000035
 11
26.278324499999997
 21
405.32456950000005
  0
LINE
  8
_0-0_0
  6
CONTINUOUS
 62
    7
 10
26.118026499999985
 20
405.09605450000004
 11
26.278324499999997
 21
405.32456950000005
  0
LINE
  8
_0-0_0
  6
CONTINUOUS
 62
    7
 10
25.861839500000031
 20
405.49055450000003
 11
26.135803500000009
 21
405.54402149999999
  0
LINE
  8
_0-0_0
  6
CONTINUOUS
 62
    7
 10
26.000270499999999
 20
405.3000035
 11
26.135803500000009
 21
405.54402149999999
  0
LINE
  8
_0-0_0
  6
CONTINUOUS
 62
    7
 10
25.704250500000001
 20
405.66557350000005
 11
25.971122499999979
 21
405.74739050000005
  0
LINE
  8
_0-0_0
  6
CONTINUOUS
 62
    7
 10
25.861839500000031
 20
405.49055450000003
 11
25.971122499999979
 21
405.74739050000005
  0
LINE
  8
_0-0_0
  6
CONTINUOUS
 62
    7
 10
25.529232500000035
 20
405.82313550000003
 11
25.786087500000008
 21
405.93241850000004
  0
LINE
  8
_0-0_0
  6
CONTINUOUS
 62
    7
 10
25.704250500000001
 20
405.66557350000005
 11
25.786087500000008
 21
405.93241850000004
  0
LINE
  8
_0-0_0
  6
CONTINUOUS
 62
    7
 10
25.338699500000018
 20
405.96159350000005
 11
25.582721499999991
 21
406.09712249999995
  0
LINE
  8
_0-0_0
  6
CONTINUOUS
 62
    7
 10
25.529232500000035
 20
405.82313550000003
 11
25.582721499999991
 21
406.09712249999995
  0
LINE
  8
_0-0_0
  6
CONTINUOUS
 62
    7
 10
25.134740500000021
 20
406.07933049999997
 11
25.363262500000019
 21
406.23963950000007
  0
LINE
  8
_0-0_0
  6
CONTINUOUS
 62
    7
 10
25.338699500000018
 20
405.96159350000005
 11
25.363262500000019
 21
406.23963950000007
  0
LINE
  8
_0-0_0
  6
CONTINUOUS
 62
    7
 10
24.919590500000027
 20
406.17512550000004
 11
25.130104500000016
 21
406.35844450000002
  0
LINE
  8
_0-0_0
  6
CONTINUOUS
 62
    7
 10
25.134740500000021
 20
406.07933049999997
 11
25.130104500000016
 21
406.35844450000002
  0
LINE
  8
_0-0_0
  6
CONTINUOUS
 62
    7
 10
24.695604500000002
 20
406.24790949999999
 11
24.885803500000009
 21
406.45222450000006
  0
LINE
  8
_0-0_0
  6
CONTINUOUS
 62
    7
 10
24.919590500000027
 20
406.17512550000004
 11
24.885803500000009
 21
406.45222450000006
  0
LINE
  8
_0-0_0
  6
CONTINUOUS
 62
    7
 10
24.465238499999998
 20
406.29685949999998
 11
24.633039499999995
 21
406.51994350000007
  0
LINE
  8
_0-0_0
  6
CONTINUOUS
 62
    7
 10
24.695604500000002
 20
406.24790949999999
 11
24.633039499999995
 21
406.51994350000007
  0
LINE
  8
_0-0_0
  6
CONTINUOUS
 62
    7
 10
24.231018500000005
 20
406.32148749999999
 11
24.374582500000031
 21
406.56086749999997
  0
LINE
  8
_0-0_0
  6
CONTINUOUS
 62
    7
 10
24.465238499999998
 20
406.29685949999998
 11
24.374582500000031
 21
406.56086749999997
  0
LINE
  8
_0-0_0
  6
CONTINUOUS
 62
    7
 10
23.995506500000033
 20
406.32148749999999
 11
24.113262500000019
 21
406.57456950000005
  0
LINE
  8
_0-0_0
  6
CONTINUOUS
 62
    7
 10
24.231018500000005
 20
406.32148749999999
 11
24.113262500000019
 21
406.57456950000005
  0
LINE
  8
_0-0_0
  6
CONTINUOUS
 62
    7
 10
23.76128349999999
 20
406.29685949999998
 11
23.851940500000012
 21
406.56086749999997
  0
LINE
  8
_0-0_0
  6
CONTINUOUS
 62
    7
 10
23.995506500000033
 20
406.32148749999999
 11
23.851940500000012
 21
406.56086749999997
  0
LINE
  8
_0-0_0
  6
CONTINUOUS
 62
    7
 10
23.530918499999984
 20
406.24790949999999
 11
23.593483499999991
 21
406.51994350000007
  0
LINE
  8
_0-0_0
  6
CONTINUOUS
 62
    7
 10
23.76128349999999
 20
406.29685949999998
 11
23.593483499999991
 21
406.51994350000007
  0
LINE
  8
_0-0_0
  6
CONTINUOUS
 62
    7
 10
23.306932500000016
 20
406.17512550000004
 11
23.340719499999977
 21
406.45222450000006
  0
LINE
  8
_0-0_0
  6
CONTINUOUS
 62
    7
 10
23.530918499999984
 20
406.24790949999999
 11
23.340719499999977
 21
406.45222450000006
  0
LINE
  8
_0-0_0
  6
CONTINUOUS
 62
    7
 10
23.091781500000025
 20
406.07933049999997
 11
23.096420500000022
 21
406.35844450000002
  0
LINE
  8
_0-0_0
  6
CONTINUOUS
 62
    7
 10
23.306932500000016
 20
406.17512550000004
 11
23.096420500000022
 21
406.35844450000002
  0
LINE
  8
_0-0_0
  6
CONTINUOUS
 62
    7
 10
22.972245499999985
 20
406.16319250000004
 11
22.863261500000021
 21
406.23963950000007
  0
LINE
  8
_0-0_0
  6
CONTINUOUS
 62
    7
 10
23.091781500000025
 20
406.07933049999997
 11
22.972245499999985
 21
406.16319250000004
  0
LINE
  8
_0-0_0
  6
CONTINUOUS
 62
    7
 10
22.887823500000025
 20
405.96159350000005
 11
22.863261500000021
 21
406.23963950000007
  0
LINE
  8
_0-0_0
  6
CONTINUOUS
 62
    7
 10
22.697290500000008
 20
405.82313550000003
 11
22.643798500000003
 21
406.09712249999995
  0
LINE
  8
_0-0_0
  6
CONTINUOUS
 62
    7
 10
22.887823500000025
 20
405.96159350000005
 11
22.643798500000003
 21
406.09712249999995
  0
LINE
  8
_0-0_0
  6
CONTINUOUS
 62
    7
 10
22.522271499999988
 20
405.66557350000005
 11
22.440433499999983
 21
405.93241850000004
  0
LINE
  8
_0-0_0
  6
CONTINUOUS
 62
    7
 10
22.697290500000008
 20
405.82313550000003
 11
22.440433499999983
 21
405.93241850000004
  0
LINE
  8
_0-0_0
  6
CONTINUOUS
 62
    7
 10
22.364683500000012
 20
405.49055450000003
 11
22.25539950000001
 21
405.74739050000005
  0
LINE
  8
_0-0_0
  6
CONTINUOUS
 62
    7
 10
22.522271499999988
 20
405.66557350000005
 11
22.25539950000001
 21
405.74739050000005
  0
LINE
  8
_0-0_0
  6
CONTINUOUS
 62
    7
 10
22.226251499999989
 20
405.3000035
 11
22.09071849999998
 21
405.54402149999999
  0
LINE
  8
_0-0_0
  6
CONTINUOUS
 62
    7
 10
22.364683500000012
 20
405.49055450000003
 11
22.09071849999998
 21
405.54402149999999
  0
LINE
  8
_0-0_0
  6
CONTINUOUS
 62
    7
 10
22.108497499999999
 20
405.09605450000004
 11
21.948196499999995
 21
405.32456950000005
  0
LINE
  8
_0-0_0
  6
CONTINUOUS
 62
    7
 10
22.226251499999989
 20
405.3000035
 11
21.948196499999995
 21
405.32456950000005
  0
LINE
  8
_0-0_0
  6
CONTINUOUS
 62
    7
 10
22.012704499999984
 20
404.88090550000004
 11
21.829397500000027
 21
405.09141550000004
  0
LINE
  8
_0-0_0
  6
CONTINUOUS
 62
    7
 10
22.108497499999999
 20
405.09605450000004
 11
21.829397500000027
 21
405.09141550000004
  0
LINE
  8
_0-0_0
  6
CONTINUOUS
 62
    7
 10
21.939928500000008
 20
404.65690649999999
 11
21.735618499999987
 21
404.84712249999995
  0
LINE
  8
_0-0_0
  6
CONTINUOUS
 62
    7
 10
22.012704499999984
 20
404.88090550000004
 11
21.735618499999987
 21
404.84712249999995
  0
LINE
  8
_0-0_0
  6
CONTINUOUS
 62
    7
 10
21.890962500000001
 20
404.42655950000005
 11
21.667892499999994
 21
404.59434550000003
  0
LINE
  8
_0-0_0
  6
CONTINUOUS
 62
    7
 10
21.939928500000008
 20
404.65690649999999
 11
21.667892499999994
 21
404.59434550000003
  0
LINE
  8
_0-0_0
  6
CONTINUOUS
 62
    7
 10
21.890962500000001
 20
404.42655950000005
 11
21.626956500000006
 21
404.3358915
  0
LINE
  8
_0-0_0
  6
CONTINUOUS
 62
    7
 10
21.866344500000025
 20
404.19233750000001
 11
21.626956500000006
 21
404.3358915
  0
LINE
  8
_0-0_0
  6
CONTINUOUS
 62
    7
 10
21.866344500000025
 20
403.95680249999998
 11
21.613261500000021
 21
404.07456950000005
  0
LINE
  8
_0-0_0
  6
CONTINUOUS
 62
    7
 10
21.866344500000025
 20
404.19233750000001
 11
21.613261500000021
 21
404.07456950000005
  0
LINE
  8
_0-0_0
  6
CONTINUOUS
 62
    7
 10
21.890962500000001
 20
403.72258050000005
 11
21.626956500000006
 21
403.81324749999999
  0
LINE
  8
_0-0_0
  6
CONTINUOUS
 62
    7
 10
21.866344500000025
 20
403.95680249999998
 11
21.626956500000006
 21
403.81324749999999
  0
LINE
  8
_0-0_0
  6
CONTINUOUS
 62
    7
 10
21.939928500000008
 20
403.4922335
 11
21.667892499999994
 21
403.55479449999996
  0
LINE
  8
_0-0_0
  6
CONTINUOUS
 62
    7
 10
21.890962500000001
 20
403.72258050000005
 11
21.667892499999994
 21
403.55479449999996
  0
LINE
  8
_0-0_0
  6
CONTINUOUS
 62
    7
 10
22.012704499999984
 20
403.26823450000006
 11
21.735618499999987
 21
403.30201750000003
  0
LINE
  8
_0-0_0
  6
CONTINUOUS
 62
    7
 10
21.939928500000008
 20
403.4922335
 11
21.735618499999987
 21
403.30201750000003
  0
LINE
  8
_0-0_0
  6
CONTINUOUS
 62
    7
 10
22.108497499999999
 20
403.05308550000007
 11
21.829397500000027
 21
403.05772450000006
  0
LINE
  8
_0-0_0
  6
CONTINUOUS
 62
    7
 10
22.012704499999984
 20
403.26823450000006
 11
21.829397500000027
 21
403.05772450000006
  0
LINE
  8
_0-0_0
  6
CONTINUOUS
 62
    7
 10
22.226251499999989
 20
402.84913649999999
 11
21.948196499999995
 21
402.82456950000005
  0
LINE
  8
_0-0_0
  6
CONTINUOUS
 62
    7
 10
22.108497499999999
 20
403.05308550000007
 11
21.948196499999995
 21
402.82456950000005
  0
LINE
  8
_0-0_0
  6
CONTINUOUS
 62
    7
 10
22.364683500000012
 20
402.65858449999996
 11
22.09071849999998
 21
402.60511750000001
  0
LINE
  8
_0-0_0
  6
CONTINUOUS
 62
    7
 10
22.226251499999989
 20
402.84913649999999
 11
22.09071849999998
 21
402.60511750000001
  0
LINE
  8
_0-0_0
  6
CONTINUOUS
 62
    7
 10
22.522271499999988
 20
402.48359649999998
 11
22.25539950000001
 21
402.40174850000005
  0
LINE
  8
_0-0_0
  6
CONTINUOUS
 62
    7
 10
22.364683500000012
 20
402.65858449999996
 11
22.25539950000001
 21
402.40174850000005
  0
LINE
  8
_0-0_0
  6
CONTINUOUS
 62
    7
 10
22.697290500000008
 20
402.32600450000007
 11
22.440433499999983
 21
402.21672050000006
  0
LINE
  8
_0-0_0
  6
CONTINUOUS
 62
    7
 10
22.522271499999988
 20
402.48359649999998
 11
22.440433499999983
 21
402.21672050000006
  0
LINE
  8
_0-0_0
  6
CONTINUOUS
 62
    7
 10
22.887823500000025
 20
402.18754550000006
 11
22.643798500000003
 21
402.05201750000003
  0
LINE
  8
_0-0_0
  6
CONTINUOUS
 62
    7
 10
22.697290500000008
 20
402.32600450000007
 11
22.643798500000003
 21
402.05201750000003
  0
LINE
  8
_0-0_0
  6
CONTINUOUS
 62
    7
 10
23.091781500000025
 20
402.06980950000002
 11
22.863261500000021
 21
401.90950050000004
  0
LINE
  8
_0-0_0
  6
CONTINUOUS
 62
    7
 10
22.887823500000025
 20
402.18754550000006
 11
22.863261500000021
 21
401.90950050000004
  0
LINE
  8
_0-0_0
  6
CONTINUOUS
 62
    7
 10
23.306932500000016
 20
401.97401450000007
 11
23.096420500000022
 21
401.79069549999997
  0
LINE
  8
_0-0_0
  6
CONTINUOUS
 62
    7
 10
23.091781500000025
 20
402.06980950000002
 11
23.096420500000022
 21
401.79069549999997
  0
LINE
  8
_0-0_0
  6
CONTINUOUS
 62
    7
 10
23.530918499999984
 20
401.9012295
 11
23.340719499999977
 21
401.69691450000005
  0
LINE
  8
_0-0_0
  6
CONTINUOUS
 62
    7
 10
23.306932500000016
 20
401.97401450000007
 11
23.340719499999977
 21
401.69691450000005
  0
LINE
  8
_0-0_0
  6
CONTINUOUS
 62
    7
 10
23.76128349999999
 20
401.85227950000001
 11
23.593483499999991
 21
401.62919650000003
  0
LINE
  8
_0-0_0
  6
CONTINUOUS
 62
    7
 10
23.530918499999984
 20
401.9012295
 11
23.593483499999991
 21
401.62919650000003
  0
LINE
  8
_0-0_0
  6
CONTINUOUS
 62
    7
 10
23.995506500000033
 20
401.8276525
 11
23.851940500000012
 21
401.58827250000002
  0
LINE
  8
_0-0_0
  6
CONTINUOUS
 62
    7
 10
23.76128349999999
 20
401.85227950000001
 11
23.851940500000012
 21
401.58827250000002
  0
LINE
  8
_0-0_0
  6
CONTINUOUS
 62
    7
 10
24.231018500000005
 20
401.8276525
 11
24.113262500000019
 21
401.57456950000005
  0
LINE
  8
_0-0_0
  6
CONTINUOUS
 62
    7
 10
23.995506500000033
 20
401.8276525
 11
24.113262500000019
 21
401.57456950000005
  0
LINE
  8
_0-0_0
  6
CONTINUOUS
 62
    7
 10
24.465238499999998
 20
401.85227950000001
 11
24.374582500000031
 21
401.58827250000002
  0
LINE
  8
_0-0_0
  6
CONTINUOUS
 62
    7
 10
24.231018500000005
 20
401.8276525
 11
24.374582500000031
 21
401.58827250000002
  0
LINE
  8
_0-0_0
  6
CONTINUOUS
 62
    7
 10
24.695604500000002
 20
401.9012295
 11
24.633039499999995
 21
401.62919650000003
  0
LINE
  8
_0-0_0
  6
CONTINUOUS
 62
    7
 10
24.465238499999998
 20
401.85227950000001
 11
24.633039499999995
 21
401.62919650000003
  0
LINE
  8
_0-0_0
  6
CONTINUOUS
 62
    7
 10
24.919590500000027
 20
401.97401450000007
 11
24.885803500000009
 21
401.69691450000005
  0
LINE
  8
_0-0_0
  6
CONTINUOUS
 62
    7
 10
24.695604500000002
 20
401.9012295
 11
24.885803500000009
 21
401.69691450000005
  0
LINE
  8
_0-0_0
  6
CONTINUOUS
 62
    7
 10
25.134740500000021
 20
402.06980950000002
 11
25.130104500000016
 21
401.79069549999997
  0
LINE
  8
_0-0_0
  6
CONTINUOUS
 62
    7
 10
24.919590500000027
 20
401.97401450000007
 11
25.130104500000016
 21
401.79069549999997
  0
LINE
  8
_0-0_0
  6
CONTINUOUS
 62
    7
 10
25.254276500000003
 20
401.98594650000007
 11
25.363262500000019
 21
401.90950050000004
  0
LINE
  8
_0-0_0
  6
CONTINUOUS
 62
    7
 10
25.134740500000021
 20
402.06980950000002
 11
25.254276500000003
 21
401.98594650000007
  0
LINE
  8
_0-0_0
  6
CONTINUOUS
 62
    7
 10
25.338699500000018
 20
402.18754550000006
 11
25.363262500000019
 21
401.90950050000004
  0
LINE
  8
_0-0_0
  6
CONTINUOUS
 62
    7
 10
25.529232500000035
 20
402.32600450000007
 11
25.582721499999991
 21
402.05201750000003
  0
LINE
  8
_0-0_0
  6
CONTINUOUS
 62
    7
 10
25.338699500000018
 20
402.18754550000006
 11
25.582721499999991
 21
402.05201750000003
  0
LINE
  8
_0-0_0
  6
CONTINUOUS
 62
    7
 10
25.704250500000001
 20
402.48359649999998
 11
25.786087500000008
 21
402.21672050000006
  0
LINE
  8
_0-0_0
  6
CONTINUOUS
 62
    7
 10
25.529232500000035
 20
402.32600450000007
 11
25.786087500000008
 21
402.21672050000006
  0
LINE
  8
_0-0_0
  6
CONTINUOUS
 62
    7
 10
25.861839500000031
 20
402.65858449999996
 11
25.971122499999979
 21
402.40174850000005
  0
LINE
  8
_0-0_0
  6
CONTINUOUS
 62
    7
 10
25.704250500000001
 20
402.48359649999998
 11
25.971122499999979
 21
402.40174850000005
  0
LINE
  8
_0-0_0
  6
CONTINUOUS
 62
    7
 10
26.000270499999999
 20
402.84913649999999
 11
26.135803500000009
 21
402.60511750000001
  0
LINE
  8
_0-0_0
  6
CONTINUOUS
 62
    7
 10
25.861839500000031
 20
402.65858449999996
 11
26.135803500000009
 21
402.60511750000001
  0
LINE
  8
_0-0_0
  6
CONTINUOUS
 62
    7
 10
26.118026499999985
 20
403.05308550000007
 11
26.278324499999997
 21
402.82456950000005
  0
LINE
  8
_0-0_0
  6
CONTINUOUS
 62
    7
 10
26.000270499999999
 20
402.84913649999999
 11
26.278324499999997
 21
402.82456950000005
  0
LINE
  8
_0-0_0
  6
CONTINUOUS
 62
    7
 10
26.213817500000005
 20
403.26823450000006
 11
26.397125500000016
 21
403.05772450000006
  0
LINE
  8
_0-0_0
  6
CONTINUOUS
 62
    7
 10
26.118026499999985
 20
403.05308550000007
 11
26.397125500000016
 21
403.05772450000006
  0
LINE
  8
_0-0_0
  6
CONTINUOUS
 62
    7
 10
26.286594499999978
 20
403.4922335
 11
26.490902500000004
 21
403.30201750000003
  0
LINE
  8
_0-0_0
  6
CONTINUOUS
 62
    7
 10
26.213817500000005
 20
403.26823450000006
 11
26.490902500000004
 21
403.30201750000003
  0
LINE
  8
_0-0_0
  6
CONTINUOUS
 62
    7
 10
26.335559499999988
 20
403.72258050000005
 11
26.558630499999992
 21
403.55479449999996
  0
LINE
  8
_0-0_0
  6
CONTINUOUS
 62
    7
 10
26.286594499999978
 20
403.4922335
 11
26.558630499999992
 21
403.55479449999996
  0
LINE
  8
_0-0_0
  6
CONTINUOUS
 62
    7
 10
26.360176500000023
 20
403.95680249999998
 11
26.599565499999983
 21
403.81324749999999
  0
LINE
  8
_0-0_0
  6
CONTINUOUS
 62
    7
 10
26.335559499999988
 20
403.72258050000005
 11
26.599565499999983
 21
403.81324749999999
  0
LINE
  8
_0-0_0
  6
CONTINUOUS
 62
    7
 10
26.360176500000023
 20
404.19233750000001
 11
26.613262500000019
 21
404.07456950000005
  0
LINE
  8
_0-0_0
  6
CONTINUOUS
 62
    7
 10
26.360176500000023
 20
403.95680249999998
 11
26.613262500000019
 21
404.07456950000005
  0
LINE
  8
_0-0_0
  6
CONTINUOUS
 62
    7
 10
26.335559499999988
 20
404.42655950000005
 11
26.599565499999983
 21
404.3358915
  0
LINE
  8
_0-0_0
  6
CONTINUOUS
 62
    7
 10
26.360176500000023
 20
404.19233750000001
 11
26.599565499999983
 21
404.3358915
  0
LINE
  8
_0-0_0
  6
CONTINUOUS
 62
    7
 10
26.286594499999978
 20
404.65690649999999
 11
26.558630499999992
 21
404.59434550000003
  0
LINE
  8
_0-0_0
  6
CONTINUOUS
 62
    7
 10
26.335559499999988
 20
404.42655950000005
 11
26.558630499999992
 21
404.59434550000003
  0
LINE
  8
_0-0_0
  6
CONTINUOUS
 62
    7
 10
26.213817500000005
 20
404.88090550000004
 11
26.490902500000004
 21
404.84712249999995
  0
LINE
  8
_0-0_0
  6
CONTINUOUS
 62
    7
 10
26.286594499999978
 20
404.65690649999999
 11
26.490902500000004
 21
404.84712249999995
  0
LINE
  8
_0-0_0
  6
CONTINUOUS
 62
    7
 10
26.118026499999985
 20
405.09605450000004
 11
26.397125500000016
 21
405.09141550000004
  0
LINE
  8
_0-0_0
  6
CONTINUOUS
 62
    7
 10
26.213817500000005
 20
404.88090550000004
 11
26.397125500000016
 21
405.09141550000004
  0
CIRCLE
  8
_0-0_0
  6
CONTINUOUS
 62
    7
 10
36.113260500000024
 20
420.67457550000006
 40
2
  0
CIRCLE
  8
_0-0_0
  6
CONTINUOUS
 62
    7
 10
24.113262500000019
 20
404.07456950000005
 40
2
  0
LINE
  8
_0-0_0
  6
CONTINUOUS
 62
    7
 10
36.695369500000027
 20
419.67457550000006
 11
35.531150500000024
 21
419.67457550000006
  0
LINE
  8
_0-0_0
  6
CONTINUOUS
 62
    7
 10
35.531150500000024
 20
419.67457550000006
 11
34.96326049999999
 21
420.67457550000006
  0
LINE
  8
_0-0_0
  6
CONTINUOUS
 62
    7
 10
34.96326049999999
 20
420.67457550000006
 11
35.531150500000024
 21
421.67457550000006
  0
LINE
  8
_0-0_0
  6
CONTINUOUS
 62
    7
 10
35.531150500000024
 20
421.67457550000006
 11
36.695369500000027
 21
421.67457550000006
  0
LINE
  8
_0-0_0
  6
CONTINUOUS
 62
    7
 10
36.695369500000027
 20
421.67457550000006
 11
37.263259500000004
 21
420.67457550000006
  0
LINE
  8
_0-0_0
  6
CONTINUOUS
 62
    7
 10
37.263259500000004
 20
420.67457550000006
 11
36.695369500000027
 21
419.67457550000006
  0
CIRCLE
  8
_0-0_0
  6
CONTINUOUS
 62
    7
 10
30.113262500000019
 20
412.37455750000004
 40
5
  0
LINE
  8
_0-0_0
  6
CONTINUOUS
 62
    7
 10
24.695369500000027
 20
403.07456950000005
 11
23.531152500000019
 21
403.07456950000005
  0
LINE
  8
_0-0_0
  6
CONTINUOUS
 62
    7
 10
23.531152500000019
 20
403.07456950000005
 11
22.96326049999999
 21
404.07456950000005
  0
LINE
  8
_0-0_0
  6
CONTINUOUS
 62
    7
 10
22.96326049999999
 20
404.07456950000005
 11
23.531152500000019
 21
405.07456950000005
  0
LINE
  8
_0-0_0
  6
CONTINUOUS
 62
    7
 10
23.531152500000019
 20
405.07456950000005
 11
24.695369500000027
 21
405.07456950000005
  0
LINE
  8
_0-0_0
  6
CONTINUOUS
 62
    7
 10
24.695369500000027
 20
405.07456950000005
 11
25.263259500000004
 21
404.07456950000005
  0
LINE
  8
_0-0_0
  6
CONTINUOUS
 62
    7
 10
25.263259500000004
 20
404.07456950000005
 11
24.695369500000027
 21
403.07456950000005
  0
CIRCLE
  8
_0-0_0
  6
CONTINUOUS
 62
    7
 10
30.113262500000019
 20
412.37455750000004
 40
4.5381200000000002
  0
CIRCLE
  8
_0-0_0
  6
CONTINUOUS
 62
    7
 10
30.113262500000019
 20
412.37455750000004
 40
4
  0
LINE
  8
_0-0_0
  6
CONTINUOUS
 62
    7
 10
21.980683499999998
 20
422.32987950000006
 11
21.31326150000001
 21
422.32987950000006
  0
ARC
  8
_0-0_0
  6
CONTINUOUS
 62
    7
 10
38.113260500000024
 20
422.79957550000006
 40
0.2
 50
179.94055499999999
 51
269.99997000000002
  0
ARC
  8
_0-0_0
  6
CONTINUOUS
 62
    7
 10
36.613260500000024
 20
403.57456950000005
 40
2
 50
269.99999700000001
 51
273.84026499999999
  0
ARC
  8
_0-0_0
  6
CONTINUOUS
 62
    7
 10
23.613262500000019
 20
421.17457550000006
 40
2
 50
90.000003000000007
 51
93.840255999999997
  0
LINE
  8
_0-0_0
  6
CONTINUOUS
 62
    7
 10
38.413261500000033
 20
422.59956350000004
 11
38.113260500000024
 21
422.59956350000004
  0
LINE
  8
_0-0_0
  6
CONTINUOUS
 62
    7
 10
38.413261500000033
 20
425.54957550000006
 11
38.113260500000024
 21
425.54957550000006
  0
ARC
  8
_0-0_0
  6
CONTINUOUS
 62
    7
 10
22.113261500000021
 20
422.79963650000002
 40
0.2
 50
270.00002499999994
 51
0.0594439999999606
  0
ARC
  8
_0-0_0
  6
CONTINUOUS
 62
    7
 10
38.413227500000005
 20
422.79960649999998
 40
0.200055
 50
270.00964199999999
 51
1.3705509999999435
  0
ARC
  8
_0-0_0
  6
CONTINUOUS
 62
    7
 10
38.413259499999981
 20
425.34956350000004
 40
0.2
 50
359.91222800000003
 51
89.999948000000003
  0
LINE
  8
_0-0_0
  6
CONTINUOUS
 62
    7
 10
21.81326150000001
 20
422.59965550000004
 11
22.113261500000021
 21
422.59965550000004
  0
ARC
  8
_0-0_0
  6
CONTINUOUS
 62
    7
 10
21.813293499999986
 20
422.79969849999998
 40
0.200055
 50
178.629446
 51
269.99035300000003
  0
LINE
  8
_0-0_0
  6
CONTINUOUS
 62
    7
 10
38.81326150000001
 20
428.07463050000001
 11
38.81326150000001
 21
441.27464350000002
  0
ARC
  8
_0-0_0
  6
CONTINUOUS
 62
    7
 10
38.31326150000001
 20
428.07463050000001
 40
0.5
 50
269.99999700000001
 51
0
  0
ARC
  8
_0-0_0
  6
CONTINUOUS
 62
    7
 10
38.754682500000001
 20
441.47465550000004
 40
0.1
 50
135
 51
225
  0
LINE
  8
_0-0_0
  6
CONTINUOUS
 62
    7
 10
38.683971499999984
 20
441.40394649999996
 11
38.81326150000001
 21
441.27464350000002
  0
LINE
  8
_0-0_0
  6
CONTINUOUS
 62
    7
 10
38.31326150000001
 20
427.57463050000001
 11
36.413261500000033
 21
427.57463050000001
  0
ARC
  8
_0-0_0
  6
CONTINUOUS
 62
    7
 10
36.413261500000033
 20
428.07463050000001
 40
0.5
 50
233.12990600000001
 51
269.99999700000001
  0
ARC
  8
_0-0_0
  6
CONTINUOUS
 62
    7
 10
23.71326049999999
 20
428.07463050000001
 40
0.5
 50
269.99999700000001
 51
306.87009999999998
  0
LINE
  8
_0-0_0
  6
CONTINUOUS
 62
    7
 10
23.71326049999999
 20
427.57463050000001
 11
21.81326150000001
 21
427.57463050000001
  0
ARC
  8
_0-0_0
  6
CONTINUOUS
 62
    7
 10
21.81326150000001
 20
428.07463050000001
 40
0.5
 50
180.00000900000003
 51
269.99999700000001
  0
LINE
  8
_0-0_0
  6
CONTINUOUS
 62
    7
 10
21.31326150000001
 20
437.5096585
 11
21.31326150000001
 21
428.07463050000001
  0
LINE
  8
_0-0_0
  6
CONTINUOUS
 62
    7
 10
21.31326150000001
 20
437.5096585
 11
22.013259500000004
 21
437.5096585
  0
LINE
  8
_0-0_0
  6
CONTINUOUS
 62
    7
 10
38.013261499999999
 20
456.07463050000001
 11
38.219291499999997
 21
456.07463050000001
  0
LINE
  8
_0-0_0
  6
CONTINUOUS
 62
    7
 10
38.219291499999997
 20
456.07463050000001
 11
38.81326150000001
 21
455.48066749999998
  0
LINE
  8
_0-0_0
  6
CONTINUOUS
 62
    7
 10
38.81326150000001
 20
450.47465550000004
 11
38.81326150000001
 21
455.48066749999998
  0
LINE
  8
_0-0_0
  6
CONTINUOUS
 62
    7
 10
38.683971499999984
 20
450.34535249999999
 11
38.81326150000001
 21
450.47465550000004
  0
ARC
  8
_0-0_0
  6
CONTINUOUS
 62
    7
 10
38.754682500000001
 20
450.27464350000002
 40
0.1
 50
135
 51
225
  0
LINE
  8
_0-0_0
  6
CONTINUOUS
 62
    7
 10
38.683971499999984
 20
450.20393350000006
 11
38.81326150000001
 21
450.07463050000001
  0
LINE
  8
_0-0_0
  6
CONTINUOUS
 62
    7
 10
38.81326150000001
 20
449.37464950000003
 11
38.81326150000001
 21
450.07463050000001
  0
LINE
  8
_0-0_0
  6
CONTINUOUS
 62
    7
 10
38.683971499999984
 20
449.24534649999998
 11
38.81326150000001
 21
449.37464950000003
  0
ARC
  8
_0-0_0
  6
CONTINUOUS
 62
    7
 10
38.754682500000001
 20
449.17463650000002
 40
0.1
 50
135
 51
225
  0
LINE
  8
_0-0_0
  6
CONTINUOUS
 62
    7
 10
38.683971499999984
 20
449.10392750000005
 11
38.81326150000001
 21
448.97465550000004
  0
LINE
  8
_0-0_0
  6
CONTINUOUS
 62
    7
 10
38.81326150000001
 20
448.27464350000002
 11
38.81326150000001
 21
448.97465550000004
  0
LINE
  8
_0-0_0
  6
CONTINUOUS
 62
    7
 10
38.683971499999984
 20
448.14534049999997
 11
38.81326150000001
 21
448.27464350000002
  0
ARC
  8
_0-0_0
  6
CONTINUOUS
 62
    7
 10
38.754682500000001
 20
448.07463050000001
 40
0.1
 50
135
 51
225
  0
LINE
  8
_0-0_0
  6
CONTINUOUS
 62
    7
 10
38.683971499999984
 20
448.00392150000005
 11
38.81326150000001
 21
447.87464950000003
  0
LINE
  8
_0-0_0
  6
CONTINUOUS
 62
    7
 10
38.81326150000001
 20
447.17463650000002
 11
38.81326150000001
 21
447.87464950000003
  0
LINE
  8
_0-0_0
  6
CONTINUOUS
 62
    7
 10
38.683971499999984
 20
447.04536450000001
 11
38.81326150000001
 21
447.17463650000002
  0
ARC
  8
_0-0_0
  6
CONTINUOUS
 62
    7
 10
38.754682500000001
 20
446.97465550000004
 40
0.1
 50
135
 51
225
  0
LINE
  8
_0-0_0
  6
CONTINUOUS
 62
    7
 10
38.683971499999984
 20
446.90394649999996
 11
38.81326150000001
 21
446.77464350000002
  0
LINE
  8
_0-0_0
  6
CONTINUOUS
 62
    7
 10
38.81326150000001
 20
446.07463050000001
 11
38.81326150000001
 21
446.77464350000002
  0
LINE
  8
_0-0_0
  6
CONTINUOUS
 62
    7
 10
38.683971499999984
 20
445.9453585
 11
38.81326150000001
 21
446.07463050000001
  0
ARC
  8
_0-0_0
  6
CONTINUOUS
 62
    7
 10
38.754682500000001
 20
445.87464950000003
 40
0.1
 50
135
 51
225
  0
LINE
  8
_0-0_0
  6
CONTINUOUS
 62
    7
 10
38.683971499999984
 20
445.80393949999996
 11
38.81326150000001
 21
445.67463650000002
  0
LINE
  8
_0-0_0
  6
CONTINUOUS
 62
    7
 10
38.81326150000001
 20
444.97465550000004
 11
38.81326150000001
 21
445.67463650000002
  0
LINE
  8
_0-0_0
  6
CONTINUOUS
 62
    7
 10
38.683971499999984
 20
444.84535249999999
 11
38.81326150000001
 21
444.97465550000004
  0
ARC
  8
_0-0_0
  6
CONTINUOUS
 62
    7
 10
38.754682500000001
 20
444.77464350000002
 40
0.1
 50
135
 51
225
  0
LINE
  8
_0-0_0
  6
CONTINUOUS
 62
    7
 10
38.683971499999984
 20
444.70393350000006
 11
38.81326150000001
 21
444.57463050000001
  0
LINE
  8
_0-0_0
  6
CONTINUOUS
 62
    7
 10
38.81326150000001
 20
443.87464950000003
 11
38.81326150000001
 21
444.57463050000001
  0
LINE
  8
_0-0_0
  6
CONTINUOUS
 62
    7
 10
38.683971499999984
 20
443.74534649999998
 11
38.81326150000001
 21
443.87464950000003
  0
ARC
  8
_0-0_0
  6
CONTINUOUS
 62
    7
 10
38.754682500000001
 20
443.67463650000002
 40
0.1
 50
135
 51
225
  0
LINE
  8
_0-0_0
  6
CONTINUOUS
 62
    7
 10
38.683971499999984
 20
443.60392750000005
 11
38.81326150000001
 21
443.47465550000004
  0
LINE
  8
_0-0_0
  6
CONTINUOUS
 62
    7
 10
38.81326150000001
 20
442.77464350000002
 11
38.81326150000001
 21
443.47465550000004
  0
LINE
  8
_0-0_0
  6
CONTINUOUS
 62
    7
 10
38.683971499999984
 20
442.64534049999997
 11
38.81326150000001
 21
442.77464350000002
  0
ARC
  8
_0-0_0
  6
CONTINUOUS
 62
    7
 10
38.754682500000001
 20
442.57466150000005
 40
0.1
 50
135
 51
225
  0
LINE
  8
_0-0_0
  6
CONTINUOUS
 62
    7
 10
38.683971499999984
 20
442.50392150000005
 11
38.81326150000001
 21
442.37464950000003
  0
LINE
  8
_0-0_0
  6
CONTINUOUS
 62
    7
 10
38.81326150000001
 20
441.67463650000002
 11
38.81326150000001
 21
442.37464950000003
  0
LINE
  8
_0-0_0
  6
CONTINUOUS
 62
    7
 10
38.683971499999984
 20
441.54536450000001
 11
38.81326150000001
 21
441.67463650000002
  0
LINE
  8
_0-0_0
  6
CONTINUOUS
 62
    7
 10
38.81326150000001
 20
433.57466150000005
 11
38.913261500000033
 21
433.57466150000005
  0
LINE
  8
_0-0_0
  6
CONTINUOUS
 62
    7
 10
38.913261500000033
 20
433.07466150000005
 11
38.913261500000033
 21
433.57466150000005
  0
LINE
  8
_0-0_0
  6
CONTINUOUS
 62
    7
 10
38.913261500000033
 20
433.07466150000005
 11
38.913261500000033
 21
429.07463050000001
  0
LINE
  8
_0-0_0
  6
CONTINUOUS
 62
    7
 10
38.81326150000001
 20
428.57463050000001
 11
38.913261500000033
 21
428.57463050000001
  0
LINE
  8
_0-0_0
  6
CONTINUOUS
 62
    7
 10
38.913261500000033
 20
428.57463050000001
 11
38.913261500000033
 21
429.07463050000001
  0
LINE
  8
_0-0_0
  6
CONTINUOUS
 62
    7
 10
21.31326150000001
 20
437.57466150000005
 11
21.31326150000001
 21
437.5096585
  0
LINE
  8
_0-0_0
  6
CONTINUOUS
 62
    7
 10
37.81326150000001
 20
456.37464950000003
 11
37.81326150000001
 21
456.27464350000002
  0
LINE
  8
_0-0_0
  6
CONTINUOUS
 62
    7
 10
21.21326049999999
 20
437.57466150000005
 11
22.013261499999999
 21
437.57466150000005
  0
LINE
  8
_0-0_0
  6
CONTINUOUS
 62
    7
 10
21.71326049999999
 20
459.37464950000003
 11
21.71326049999999
 21
455.15309149999996
  0
LINE
  8
_0-0_0
  6
CONTINUOUS
 62
    7
 10
22.81326150000001
 20
459.37464950000003
 11
22.81326150000001
 21
456.37464950000003
  0
LINE
  8
_0-0_0
  6
CONTINUOUS
 62
    7
 10
21.71326049999999
 20
455.15309149999996
 11
22.013261499999999
 21
455.15309149999996
  0
ARC
  8
_0-0_0
  6
CONTINUOUS
 62
    7
 10
25.31326150000001
 20
456.37464950000003
 40
2.5
 50
90.000003000000007
 51
180.00000900000001
  0
ARC
  8
_0-0_0
  6
CONTINUOUS
 62
    7
 10
35.31326150000001
 20
456.37464950000003
 40
2.5
 50
0
 51
90.000003000000007
  0
LINE
  8
_0-0_0
  6
CONTINUOUS
 62
    7
 10
22.81326150000001
 20
456.27464350000002
 11
22.81326150000001
 21
456.37464950000003
  0
LINE
  8
_0-0_0
  6
CONTINUOUS
 62
    7
 10
35.31326150000001
 20
458.87464950000003
 11
25.31326150000001
 21
458.87464950000003
  0
LINE
  8
_0-0_0
  6
CONTINUOUS
 62
    7
 10
39.013259500000004
 20
429.07463050000001
 11
39.013259500000004
 21
429.20500149999998
  0
LINE
  8
_0-0_0
  6
CONTINUOUS
 62
    7
 10
39.013259500000004
 20
432.70500149999998
 11
39.013259500000004
 21
429.20500149999998
  0
LINE
  8
_0-0_0
  6
CONTINUOUS
 62
    7
 10
38.913261500000033
 20
432.97465550000004
 11
39.013259500000004
 21
432.97465550000004
  0
LINE
  8
_0-0_0
  6
CONTINUOUS
 62
    7
 10
39.013259500000004
 20
432.70500149999998
 11
39.013259500000004
 21
432.97465550000004
  0
LINE
  8
_0-0_0
  6
CONTINUOUS
 62
    7
 10
38.613262500000019
 20
455.47465550000004
 11
37.613262500000019
 21
456.47465550000004
  0
LINE
  8
_0-0_0
  6
CONTINUOUS
 62
    7
 10
38.613260500000024
 20
427.67463650000002
 11
38.613262500000019
 21
455.47465550000004
  0
LINE
  8
_0-0_0
  6
CONTINUOUS
 62
    7
 10
22.013261499999999
 20
427.67463650000002
 11
38.613260500000024
 21
427.67463650000002
  0
LINE
  8
_0-0_0
  6
CONTINUOUS
 62
    7
 10
22.013261499999999
 20
455.47465550000004
 11
22.013261499999999
 21
427.67463650000002
  0
LINE
  8
_0-0_0
  6
CONTINUOUS
 62
    7
 10
21.21326049999999
 20
437.57466150000005
 11
21.21326049999999
 21
454.38746649999996
  0
LINE
  8
_0-0_0
  6
CONTINUOUS
 62
    7
 10
21.21326049999999
 20
458.87464950000003
 11
21.21326049999999
 21
454.38746649999996
  0
ARC
  8
_0-0_0
  6
CONTINUOUS
 62
    7
 10
52.665000500000019
 20
434.39247150000006
 40
37.269466000000001
 50
146.14857699999999
 51
147.55443399999999
  0
ARC
  8
_0-0_0
  6
CONTINUOUS
 62
    7
 10
35.04421450000001
 20
456.07463050000001
 40
2.6000000000000001
 50
8.8498839999999994
 51
90.000002999999992
  0
LINE
  8
_0-0_0
  6
CONTINUOUS
 62
    7
 10
35.04421450000001
 20
458.67463650000002
 11
25.582307500000013
 21
458.67463650000002
  0
ARC
  8
_0-0_0
  6
CONTINUOUS
 62
    7
 10
25.582307500000013
 20
456.07466150000005
 40
2.6000000000000001
 50
90.000003000000007
 51
171.150115
  0
LINE
  8
_0-0_0
  6
CONTINUOUS
 62
    7
 10
22.013261499999999
 20
455.47465550000004
 11
23.013261499999999
 21
456.47465550000004
  0
LINE
  8
_0-0_0
  6
CONTINUOUS
 62
    7
 10
37.613262500000019
 20
455.06044050000003
 11
38.613262500000019
 21
455.47465550000004
  0
ARC
  8
_0-0_0
  6
CONTINUOUS
 62
    7
 10
32.070720499999993
 20
467.26075750000007
 40
12.126564999999999
 50
292.155034
 51
297.19674500000002
  0
LINE
  8
_0-0_0
  6
CONTINUOUS
 62
    7
 10
37.613260500000024
 20
428.67463650000002
 11
38.613260500000024
 21
427.67463650000002
  0
LINE
  8
_0-0_0
  6
CONTINUOUS
 62
    7
 10
23.013261499999999
 20
428.67463650000002
 11
22.013261499999999
 21
427.67463650000002
  0
LINE
  8
_0-0_0
  6
CONTINUOUS
 62
    7
 10
23.013261499999999
 20
455.06044050000003
 11
22.013261499999999
 21
455.47465550000004
  0
ARC
  8
_0-0_0
  6
CONTINUOUS
 62
    7
 10
28.55580150000003
 20
467.26075750000007
 40
12.126567
 50
242.80325699999997
 51
247.84494000000001
  0
CIRCLE
  8
_0-0_0
  6
CONTINUOUS
 62
    7
 10
30.31326150000001
 20
435.87464950000003
 40
2.0670000000000002
  0
LINE
  8
_0-0_0
  6
CONTINUOUS
 62
    7
 10
22.81326150000001
 20
459.37464950000003
 11
21.71326049999999
 21
459.37464950000003
  0
LINE
  8
_0-0_0
  6
CONTINUOUS
 62
    7
 10
38.913261500000033
 20
429.07463050000001
 11
39.013259500000004
 21
429.07463050000001
  0
LINE
  8
_0-0_0
  6
CONTINUOUS
 62
    7
 10
38.913261500000033
 20
429.07463050000001
 11
39.013259500000004
 21
429.07463050000001
  0
LINE
  8
_0-0_0
  6
CONTINUOUS
 62
    7
 10
21.21326049999999
 20
458.87464950000003
 11
21.71326049999999
 21
459.37464950000003
  0
ENDSEC
  0
EOF
