  0
SECTION
  2
HEADER
  9
$ACADVER
  1
AC1009
  9
$INSBASE
 10
0
 20
0
 30
0
  9
$EXTMIN
 10
0
 20
0
  9
$EXTMAX
 10
841
 20
594
  9
$LIMMIN
 10
0
 20
0
  9
$LIMMAX
 10
841
 20
594
  9
$LTSCALE
 40
1
  0
ENDSEC
  0
SECTION
  2
TABLES
  0
TABLE
  2
LTYPE
 70
     9
  0
LTYPE
  2
CONTINUOUS
 70
    64
  3
実線
 72
    65
 73
     0
 40
0.0
  0
LTYPE
  2
DASHED1
 70
    64
  3
--  --  --  --  --  --  --  --  
 72
    65
 73
     2
 40
2.5
 49
1.25
 49
-1.25
  0
LTYPE
  2
DASHED2
 70
    64
  3
----    ----    ----    ----    
 72
    65
 73
     2
 40
5.0
 49
2.5
 49
-2.5
  0
LTYPE
  2
DASHED3
 70
    64
  3
------  ------  ------  ------  
 72
    65
 73
     2
 40
5.0
 49
3.75
 49
-1.25
  0
LTYPE
  2
CENTER1
 70
    64
  3
----- - ----- - ----- - ----- - 
 72
    65
 73
     4
 40
10.0
 49
6.25
 49
-1.25
 49
1.25
 49
-1.25
  0
LTYPE
  2
CENTER2
 70
    64
  3
----------  --  ----------  --  
 72
    65
 73
     4
 40
20.0
 49
12.5
 49
-2.5
 49
2.5
 49
-2.5
  0
LTYPE
  2
PHANTOM1
 70
    64
  3
--- - - --- - - --- - - --- - - 
 72
    65
 73
     6
 40
10.0
 49
3.25
 49
-1.25
 49
1.25
 49
-1.25
 49
1.25
 49
-1.25
  0
LTYPE
  2
PHANTOM2
 70
    64
  3
--------  -  -  --------  -  -  
 72
    65
 73
     6
 40
20.0
 49
10.0
 49
-2.5
 49
1.25
 49
-2.5
 49
1.25
 49
-2.5
  0
LTYPE
  2
DOT
 70
    64
  3
-   -   -   -   -   -   -   -   
 72
    65
 73
     2
 40
2.5
 49
0.625
 49
-1.875
  0
LTYPE
  2
DUMMY
 70
    64
  3
ダミー
 72
    65
 73
     0
 40
0.0
  0
LTYPE
  2
RAND1
 70
    64
  3
ランダム線1
 72
    65
 73
     4
 40
10.0
 49
1.0
 49
-2.0
 49
3.0
 49
-4.0
  0
LTYPE
  2
RAND2
 70
    64
  3
ランダム線2
 72
    65
 73
     4
 40
14.0
 49
2.0
 49
-3.0
 49
4.0
 49
-5.0
  0
LTYPE
  2
RAND3
 70
    64
  3
ランダム線3
 72
    65
 73
     4
 40
18.0
 49
3.0
 49
-4.0
 49
5.0
 49
-6.0
  0
LTYPE
  2
RAND4
 70
    64
  3
ランダム線4
 72
    65
 73
     4
 40
22.0
 49
4.0
 49
-5.0
 49
6.0
 49
-7.0
  0
LTYPE
  2
RAND5
 70
    64
  3
ランダム線5
 72
    65
 73
     4
 40
26.0
 49
5.0
 49
-6.0
 49
7.0
 49
-8.0
  0
LTYPE
  2
LONG1
 70
    64
  3
----------  --  ----------  --  
 72
    65
 73
     4
 40
40.0
 49
32.5
 49
-2.5
 49
2.5
 49
-2.5
  0
LTYPE
  2
LONG2
 70
    64
  3
--------  -  -  --------  -  -  
 72
    65
 73
     6
 40
40.0
 49
30.0
 49
-2.5
 49
1.25
 49
-2.5
 49
1.25
 49
-2.5
  0
LTYPE
  2
LONG3
 70
    64
  3
+++++++++++++++..+++++++++++++++
 72
    65
 73
     2
 40
40.0
 49
37.5
 49
-2.5
  0
LTYPE
  2
LONG4
 70
    64
  3
+++++++++++++++..+++++++++++++++
 72
    65
 73
     2
 40
80.0
 49
75.0
 49
-5.0
  0
LTYPE
  2
LONG5
 70
    64
  3
----------  --  ----------  --  
 72
    65
 73
     4
 40
60.0
 49
37.5
 49
-7.5
 49
7.5
 49
-7.5
  0
LTYPE
  2
dashed
 70
   64
  3
-------   -------------   ------
 72
   65
 73
    2
 40
7.5
 49
6
 49
-1.5
  0
LTYPE
  2
dashed_spaced
 70
   64
  3
----        --------        ----
 72
   65
 73
    2
 40
12
 49
6
 49
-6
  0
LTYPE
  2
long_dashed_dotted
 70
   64
  3
------------- --- --------------
 72
   65
 73
    4
 40
15.25
 49
12
 49
-1.5
 49
0.25
 49
-1.5
  0
LTYPE
  2
long_dashed_double-dotted
 70
   64
  3
----------- --- --- ------------
 72
   65
 73
    6
 40
17
 49
12
 49
-1.5
 49
0.25
 49
-1.5
 49
0.25
 49
-1.5
  0
LTYPE
  2
long_dashed_triplicate-dotted
 70
   64
  3
--------- --- --- --- ----------
 72
   65
 73
    8
 40
18.75
 49
12
 49
-1.5
 49
0.25
 49
-1.5
 49
0.25
 49
-1.5
 49
0.25
 49
-1.5
  0
LTYPE
  2
dotted
 70
   64
  3
   -       -       -       -    
 72
   65
 73
    2
 40
1.75
 49
0.25
 49
-1.5
  0
LTYPE
  2
chain
 70
   64
  3
-------------- -- --------------
 72
   65
 73
    4
 40
18.5
 49
12
 49
-1.5
 49
3.5
 49
-1.5
  0
LTYPE
  2
chain_double_dash
 70
   64
  3
------------ -- -- -------------
 72
   65
 73
    6
 40
23.5
 49
12
 49
-1.5
 49
3.5
 49
-1.5
 49
3.5
 49
-1.5
  0
LTYPE
  2
dashed_dotted
 70
   64
  3
-----------     -     ----------
 72
   65
 73
    4
 40
9.25
 49
6
 49
-1.5
 49
0.25
 49
-1.5
  0
LTYPE
  2
double-dashed_dotted
 70
   64
  3
------   -----------   -   -----
 72
   65
 73
    6
 40
16.75
 49
6
 49
-1.5
 49
6
 49
-1.5
 49
0.25
 49
-1.5
  0
LTYPE
  2
dashed_double-dotted
 70
   64
  3
---------    -    -    ---------
 72
   65
 73
    6
 40
11
 49
6
 49
-1.5
 49
0.25
 49
-1.5
 49
0.25
 49
-1.5
  0
LTYPE
  2
double-dashed_double-dotted
 70
   64
  3
-----   ---------   -   -   ----
 72
   65
 73
    8
 40
18.5
 49
6
 49
-1.5
 49
6
 49
-1.5
 49
0.25
 49
-1.5
 49
0.25
 49
-1.5
  0
LTYPE
  2
dashed_triplicate-dotted
 70
   64
  3
-------    -    -    -    ------
 72
   65
 73
    8
 40
12.75
 49
6
 49
-1.5
 49
0.25
 49
-1.5
 49
0.25
 49
-1.5
 49
0.25
 49
-1.5
  0
LTYPE
  2
double-dashed_triplicate-dotted
 70
   64
  3
-----  ---------  -  -  -  -----
 72
   65
 73
   10
 40
20.25
 49
6
 49
-1.5
 49
6
 49
-1.5
 49
0.25
 49
-1.5
 49
0.25
 49
-1.5
 49
0.25
 49
-1.5
  0
LTYPE
  2
undefined
 70
   64
  3
--------------------------------
 72
   65
 73
    0
 40
0
  0
ENDTAB
  0
TABLE
  2
STYLE
  5
3
100
AcDbSymbolTable
 70
     1
  0
STYLE
  5
10
100
AcDbSymbolTableRecord
100
AcDbTextStyleTableRecord
  2
STANDARD
 70
     0
 40
0.0
 41
1.0
 50
0.0
 71
     0
 42
0.2
  3
txt
  4
bigfont.shx
  0
STYLE
  5
26
100
AcDbSymbolTableRecord
100
AcDbTextStyleTableRecord
  2
TATEGAKI
 70
    68
 40
0.0
 41
1.0
 50
0.0
 71
     0
 42
1.0
  3
txt
  4
bigfont.shx
  0
ENDTAB
  0
TABLE
  2
LAYER
 70
    2
  0
LAYER
  2
_0-0_0
 70
   64
 62
    7
  6
CONTINUOUS
  0
LAYER
  2
ADD_LINE
 70
   64
 62
    7
  6
CONTINUOUS
  0
ENDTAB
  0
ENDSEC
  0
SECTION
  2
BLOCKS
  0
ENDSEC
  0
SECTION
  2
ENTITIES
  0
LINE
  8
_0-0_0
  6
CONTINUOUS
 62
    7
 10
195.92892449999999
 20
460.17515549999996
 11
195.92892449999999
 21
460.1741485
  0
LINE
  8
_0-0_0
  6
CONTINUOUS
 62
    7
 10
348.74142449999999
 20
421.24421749999999
 11
347.44143650000001
 21
417.74421749999999
  0
ARC
  8
_0-0_0
  6
CONTINUOUS
 62
    7
 10
348.92892449999999
 20
421.17457550000006
 40
0.2
 50
20.376434999999997
 51
159.62357000000003
  0
ARC
  8
_0-0_0
  6
CONTINUOUS
 62
    7
 10
386.92892449999999
 20
424.07456950000005
 40
2.2000000000000002
 50
180.00000900000003
 51
303.74900400000001
  0
LINE
  8
_0-0_0
  6
CONTINUOUS
 62
    7
 10
384.72891249999998
 20
425.57456950000005
 11
384.72891249999998
 21
424.07456950000005
  0
LINE
  8
_0-0_0
  6
CONTINUOUS
 62
    7
 10
384.72891249999998
 20
425.57456950000005
 11
310.12893650000001
 21
425.57456950000005
  0
LINE
  8
_0-0_0
  6
CONTINUOUS
 62
    7
 10
310.12893650000001
 20
425.57456950000005
 11
310.12893650000001
 21
424.07456950000005
  0
ARC
  8
_0-0_0
  6
CONTINUOUS
 62
    7
 10
307.92892449999999
 20
424.07456950000005
 40
2.2000000000000002
 50
236.25102899999999
 51
0
  0
ARC
  8
_0-0_0
  6
CONTINUOUS
 62
    7
 10
306.42892449999999
 20
421.82957450000004
 40
0.5
 50
56.251010000000008
 51
180.00000900000001
  0
LINE
  8
_0-0_0
  6
CONTINUOUS
 62
    7
 10
305.92892449999999
 20
401.47456350000004
 11
305.92892449999999
 21
402.25169349999999
  0
LINE
  8
_0-0_0
  6
CONTINUOUS
 62
    7
 10
305.92892449999999
 20
401.47456350000004
 11
315.72891249999998
 21
401.47456350000004
  0
ARC
  8
_0-0_0
  6
CONTINUOUS
 62
    7
 10
315.72891249999998
 20
401.67457550000006
 40
0.2
 50
269.99999700000001
 51
0
  0
LINE
  8
_0-0_0
  6
CONTINUOUS
 62
    7
 10
315.92892449999999
 20
403.37458849999996
 11
315.92892449999999
 21
401.67457550000006
  0
ARC
  8
_0-0_0
  6
CONTINUOUS
 62
    7
 10
316.12893650000001
 20
403.37458849999996
 40
0.2
 50
90.000003000000007
 51
180.00000900000001
  0
LINE
  8
_0-0_0
  6
CONTINUOUS
 62
    7
 10
316.62893650000001
 20
403.57456950000005
 11
316.12893650000001
 21
403.57456950000005
  0
ARC
  8
_0-0_0
  6
CONTINUOUS
 62
    7
 10
316.62893650000001
 20
403.07456950000005
 40
0.5
 50
90.000003000000007
 51
180.00000900000001
  0
LINE
  8
_0-0_0
  6
CONTINUOUS
 62
    7
 10
316.12893650000001
 20
401.57456950000005
 11
316.12893650000001
 21
403.07456950000005
  0
LINE
  8
_0-0_0
  6
CONTINUOUS
 62
    7
 10
385.72891249999998
 20
401.57456950000005
 11
316.12893650000001
 21
401.57456950000005
  0
LINE
  8
_0-0_0
  6
CONTINUOUS
 62
    7
 10
385.72891249999998
 20
401.57456950000005
 11
385.72891249999998
 21
403.07456950000005
  0
ARC
  8
_0-0_0
  6
CONTINUOUS
 62
    7
 10
385.22891249999998
 20
403.07456950000005
 40
0.5
 50
0
 51
90.000003000000007
  0
LINE
  8
_0-0_0
  6
CONTINUOUS
 62
    7
 10
385.72891249999998
 20
403.57456950000005
 11
385.22891249999998
 21
403.57456950000005
  0
ARC
  8
_0-0_0
  6
CONTINUOUS
 62
    7
 10
385.72891249999998
 20
403.37458849999996
 40
0.2
 50
0
 51
90.000003000000007
  0
LINE
  8
_0-0_0
  6
CONTINUOUS
 62
    7
 10
385.92892449999999
 20
401.67457550000006
 11
385.92892449999999
 21
403.37458849999996
  0
ARC
  8
_0-0_0
  6
CONTINUOUS
 62
    7
 10
386.12893650000001
 20
401.67457550000006
 40
0.2
 50
180.00000900000003
 51
269.99999700000001
  0
LINE
  8
_0-0_0
  6
CONTINUOUS
 62
    7
 10
386.12893650000001
 20
401.47456350000004
 11
386.92892449999999
 21
401.47456350000004
  0
ARC
  8
_0-0_0
  6
CONTINUOUS
 62
    7
 10
386.92892449999999
 20
403.47456350000004
 40
2
 50
269.99999700000001
 51
0.0000099999999886
  0
LINE
  8
_0-0_0
  6
CONTINUOUS
 62
    7
 10
388.92892449999999
 20
421.82957450000004
 11
388.92892449999999
 21
403.47456350000004
  0
ARC
  8
_0-0_0
  6
CONTINUOUS
 62
    7
 10
388.42892449999999
 20
421.82957450000004
 40
0.5
 50
0
 51
123.74898500000002
  0
LINE
  8
_0-0_0
  6
CONTINUOUS
 62
    7
 10
317.42892449999999
 20
403.77458250000007
 11
317.42892449999999
 21
403.97456350000004
  0
LINE
  8
_0-0_0
  6
CONTINUOUS
 62
    7
 10
317.42892449999999
 20
403.97456350000004
 11
384.42892449999999
 21
403.97456350000004
  0
LINE
  8
_0-0_0
  6
CONTINUOUS
 62
    7
 10
384.42892449999999
 20
403.77458250000007
 11
384.42892449999999
 21
403.97456350000004
  0
ARC
  8
_0-0_0
  6
CONTINUOUS
 62
    7
 10
384.62893650000001
 20
403.77458250000007
 40
0.2
 50
180.00000900000003
 51
269.99999700000001
  0
LINE
  8
_0-0_0
  6
CONTINUOUS
 62
    7
 10
384.62893650000001
 20
403.57456950000005
 11
317.22891249999998
 21
403.57456950000005
  0
ARC
  8
_0-0_0
  6
CONTINUOUS
 62
    7
 10
317.22891249999998
 20
403.77458250000007
 40
0.2
 50
269.99999700000001
 51
0
  0
ARC
  8
_0-0_0
  6
CONTINUOUS
 62
    7
 10
347.62893650000001
 20
417.67457550000006
 40
0.2
 50
159.62357
 51
269.99999700000001
  0
LINE
  8
_0-0_0
  6
CONTINUOUS
 62
    7
 10
347.62893650000001
 20
417.47456350000004
 11
350.22891249999998
 21
417.47456350000004
  0
ARC
  8
_0-0_0
  6
CONTINUOUS
 62
    7
 10
350.22891249999998
 20
417.67457550000006
 40
0.2
 50
269.99999700000001
 51
20.376435000000019
  0
LINE
  8
_0-0_0
  6
CONTINUOUS
 62
    7
 10
350.41641249999998
 20
417.74421749999999
 11
349.11642449999999
 21
421.24421749999999
  0
LINE
  8
_0-0_0
  6
CONTINUOUS
 62
    7
 10
305.92892449999999
 20
421.17457550000006
 11
305.92892449999999
 21
423.15193150000005
  0
LINE
  8
_0-0_0
  6
CONTINUOUS
 62
    7
 10
305.92892449999999
 20
421.17457550000006
 11
305.92892449999999
 21
403.57456950000005
  0
LINE
  8
_0-0_0
  6
CONTINUOUS
 62
    7
 10
305.92892449999999
 20
402.25169349999999
 11
305.92892449999999
 21
403.57456950000005
  0
LINE
  8
_0-0_0
  6
CONTINUOUS
 62
    7
 10
388.92892449999999
 20
427.57456950000005
 11
388.92892449999999
 21
426.57456950000005
  0
LINE
  8
_0-0_0
  6
CONTINUOUS
 62
    7
 10
388.92892449999999
 20
426.57456950000005
 11
388.92892449999999
 21
426.07456950000005
  0
LINE
  8
_0-0_0
  6
CONTINUOUS
 62
    7
 10
388.92892449999999
 20
426.07456950000005
 11
388.92892449999999
 21
424.07456950000005
  0
LINE
  8
_0-0_0
  6
CONTINUOUS
 62
    7
 10
388.92892449999999
 20
424.07456950000005
 11
388.92892449999999
 21
421.82957450000004
  0
LINE
  8
_0-0_0
  6
CONTINUOUS
 62
    7
 10
366.92892449999999
 20
421.57456950000005
 11
366.92892449999999
 21
407.97456350000004
  0
ARC
  8
_0-0_0
  6
CONTINUOUS
 62
    7
 10
369.92892449999999
 20
421.57456950000005
 40
3
 50
90.000003000000007
 51
180.00000900000001
  0
LINE
  8
_0-0_0
  6
CONTINUOUS
 62
    7
 10
383.26284750000002
 20
424.57456950000005
 11
369.92892449999999
 21
424.57456950000005
  0
ARC
  8
_0-0_0
  6
CONTINUOUS
 62
    7
 10
383.26284750000002
 20
423.57456950000005
 40
1
 50
7.7664340000000012
 51
90.000002999999992
  0
ARC
  8
_0-0_0
  6
CONTINUOUS
 62
    7
 10
386.92892449999999
 20
424.07456950000005
 40
2.7000000000000002
 50
187.76643899999999
 51
254.31966600000001
  0
ARC
  8
_0-0_0
  6
CONTINUOUS
 62
    7
 10
385.92892449999999
 20
420.51228349999997
 40
1
 50
0
 51
74.319649999999996
  0
LINE
  8
_0-0_0
  6
CONTINUOUS
 62
    7
 10
386.92892449999999
 20
407.97456350000004
 11
386.92892449999999
 21
420.51228349999997
  0
ARC
  8
_0-0_0
  6
CONTINUOUS
 62
    7
 10
383.92892449999999
 20
407.97456350000004
 40
3
 50
269.99999700000001
 51
0.0000099999999886
  0
LINE
  8
_0-0_0
  6
CONTINUOUS
 62
    7
 10
369.92892449999999
 20
404.97456350000004
 11
383.92892449999999
 21
404.97456350000004
  0
ARC
  8
_0-0_0
  6
CONTINUOUS
 62
    7
 10
369.92892449999999
 20
407.97456350000004
 40
3
 50
180.00000900000003
 51
269.99999700000001
  0
LINE
  8
_0-0_0
  6
CONTINUOUS
 62
    7
 10
312.92892449999999
 20
404.97456350000004
 11
327.92892449999999
 21
404.97456350000004
  0
ARC
  8
_0-0_0
  6
CONTINUOUS
 62
    7
 10
312.92892449999999
 20
407.97456350000004
 40
3
 50
180.00000900000003
 51
269.99999700000001
  0
LINE
  8
_0-0_0
  6
CONTINUOUS
 62
    7
 10
309.92892449999999
 20
421.57456950000005
 11
309.92892449999999
 21
407.97456350000004
  0
ARC
  8
_0-0_0
  6
CONTINUOUS
 62
    7
 10
312.92892449999999
 20
421.57456950000005
 40
3
 50
90.000003000000007
 51
180.00000900000001
  0
LINE
  8
_0-0_0
  6
CONTINUOUS
 62
    7
 10
327.92892449999999
 20
424.57456950000005
 11
312.92892449999999
 21
424.57456950000005
  0
ARC
  8
_0-0_0
  6
CONTINUOUS
 62
    7
 10
327.92892449999999
 20
421.57456950000005
 40
3
 50
0
 51
90.000003000000007
  0
LINE
  8
_0-0_0
  6
CONTINUOUS
 62
    7
 10
330.92892449999999
 20
407.97456350000004
 11
330.92892449999999
 21
421.57456950000005
  0
ARC
  8
_0-0_0
  6
CONTINUOUS
 62
    7
 10
327.92892449999999
 20
407.97456350000004
 40
3
 50
269.99999700000001
 51
0.0000099999999886
  0
LINE
  8
_0-0_0
  6
CONTINUOUS
 62
    7
 10
384.92892449999999
 20
425.57456950000005
 11
384.72891249999998
 21
425.57456950000005
  0
ARC
  8
_0-0_0
  6
CONTINUOUS
 62
    7
 10
386.92892449999999
 20
424.07456950000005
 40
2
 50
180.00000900000003
 51
0.0000000000000254
  0
LINE
  8
_0-0_0
  6
CONTINUOUS
 62
    7
 10
384.92892449999999
 20
425.57456950000005
 11
384.92892449999999
 21
424.07456950000005
  0
LINE
  8
_0-0_0
  6
CONTINUOUS
 62
    7
 10
310.12893650000001
 20
425.57456950000005
 11
309.92892449999999
 21
425.57456950000005
  0
LINE
  8
_0-0_0
  6
CONTINUOUS
 62
    7
 10
309.92892449999999
 20
425.57456950000005
 11
309.92892449999999
 21
424.07456950000005
  0
ARC
  8
_0-0_0
  6
CONTINUOUS
 62
    7
 10
307.92892449999999
 20
424.07456950000005
 40
2
 50
180.00000900000003
 51
0.0000000000000254
  0
LINE
  8
_0-0_0
  6
CONTINUOUS
 62
    7
 10
292.42892449999999
 20
426.07456950000005
 11
292.42892449999999
 21
425.57456950000005
  0
LINE
  8
_0-0_0
  6
CONTINUOUS
 62
    7
 10
305.92892449999999
 20
423.15806550000002
 11
305.92892449999999
 21
423.87455750000004
  0
LINE
  8
_0-0_0
  6
CONTINUOUS
 62
    7
 10
305.92892449999999
 20
423.15806550000002
 11
305.92892449999999
 21
423.15193150000005
  0
LINE
  8
_0-0_0
  6
CONTINUOUS
 62
    7
 10
305.92892449999999
 20
421.94343549999996
 11
305.92892449999999
 21
421.82957450000004
  0
LINE
  8
_0-0_0
  6
CONTINUOUS
 62
    7
 10
293.92892449999999
 20
423.17457550000006
 11
293.92892449999999
 21
421.17457550000006
  0
LINE
  8
_0-0_0
  6
CONTINUOUS
 62
    7
 10
305.92892449999999
 20
423.17457550000006
 11
293.92892449999999
 21
423.17457550000006
  0
LINE
  8
_0-0_0
  6
CONTINUOUS
 62
    7
 10
293.92892449999999
 20
417.67457550000006
 11
293.92892449999999
 21
420.67457550000006
  0
LINE
  8
_0-0_0
  6
CONTINUOUS
 62
    7
 10
293.92892449999999
 20
420.67457550000006
 11
293.92892449999999
 21
421.17457550000006
  0
LINE
  8
_0-0_0
  6
CONTINUOUS
 62
    7
 10
293.92892449999999
 20
417.67457550000006
 11
293.92892449999999
 21
417.17457550000006
  0
ARC
  8
_0-0_0
  6
CONTINUOUS
 62
    7
 10
299.92893950000001
 20
417.87455750000004
 40
0.500016
 50
0.001164
 51
179.99560600000004
  0
LINE
  8
_0-0_0
  6
CONTINUOUS
 62
    7
 10
299.42892449999999
 20
417.87455750000004
 11
299.42892449999999
 21
405.87455750000004
  0
ARC
  8
_0-0_0
  6
CONTINUOUS
 62
    7
 10
299.92893950000001
 20
405.87458849999996
 40
0.500016
 50
180.00117
 51
359.995611
  0
LINE
  8
_0-0_0
  6
CONTINUOUS
 62
    7
 10
300.42892449999999
 20
417.87455750000004
 11
300.42892449999999
 21
405.87455750000004
  0
ARC
  8
_0-0_0
  6
CONTINUOUS
 62
    7
 10
298.42893950000001
 20
417.87455750000004
 40
0.500016
 50
0.001164
 51
179.99560600000004
  0
LINE
  8
_0-0_0
  6
CONTINUOUS
 62
    7
 10
297.92892449999999
 20
417.87455750000004
 11
297.92892449999999
 21
405.87455750000004
  0
ARC
  8
_0-0_0
  6
CONTINUOUS
 62
    7
 10
298.42893950000001
 20
405.87458849999996
 40
0.500016
 50
180.00117
 51
359.995611
  0
LINE
  8
_0-0_0
  6
CONTINUOUS
 62
    7
 10
298.92892449999999
 20
417.87455750000004
 11
298.92892449999999
 21
405.87455750000004
  0
ARC
  8
_0-0_0
  6
CONTINUOUS
 62
    7
 10
296.92893950000001
 20
417.87455750000004
 40
0.500016
 50
0.001164
 51
179.99560600000004
  0
LINE
  8
_0-0_0
  6
CONTINUOUS
 62
    7
 10
296.42892449999999
 20
417.87455750000004
 11
296.42892449999999
 21
405.87455750000004
  0
ARC
  8
_0-0_0
  6
CONTINUOUS
 62
    7
 10
296.92893950000001
 20
405.87458849999996
 40
0.500016
 50
180.00117
 51
359.995611
  0
LINE
  8
_0-0_0
  6
CONTINUOUS
 62
    7
 10
297.42892449999999
 20
417.87455750000004
 11
297.42892449999999
 21
405.87455750000004
  0
ARC
  8
_0-0_0
  6
CONTINUOUS
 62
    7
 10
295.42893950000001
 20
417.87455750000004
 40
0.500016
 50
0.001164
 51
179.99560600000004
  0
LINE
  8
_0-0_0
  6
CONTINUOUS
 62
    7
 10
294.92892449999999
 20
417.87455750000004
 11
294.92892449999999
 21
405.87455750000004
  0
ARC
  8
_0-0_0
  6
CONTINUOUS
 62
    7
 10
295.42893950000001
 20
405.87458849999996
 40
0.500016
 50
180.00117
 51
359.995611
  0
LINE
  8
_0-0_0
  6
CONTINUOUS
 62
    7
 10
295.92892449999999
 20
417.87455750000004
 11
295.92892449999999
 21
405.87455750000004
  0
LINE
  8
_0-0_0
  6
CONTINUOUS
 62
    7
 10
305.92892449999999
 20
401.57456950000005
 11
289.25347950000003
 21
401.57456950000005
  0
LINE
  8
_0-0_0
  6
CONTINUOUS
 62
    7
 10
316.47891249999998
 20
403.55152950000002
 11
316.47891249999998
 21
403.57456950000005
  0
LINE
  8
_0-0_0
  6
CONTINUOUS
 62
    7
 10
385.37893650000001
 20
403.55152950000002
 11
385.37893650000001
 21
403.57456950000005
  0
LINE
  8
_0-0_0
  6
CONTINUOUS
 62
    7
 10
292.42892449999999
 20
426.07456950000005
 11
292.42892449999999
 21
426.57456950000005
  0
LINE
  8
_0-0_0
  6
CONTINUOUS
 62
    7
 10
388.92892449999999
 20
426.57456950000005
 11
292.42892449999999
 21
426.57456950000005
  0
LINE
  8
_0-0_0
  6
CONTINUOUS
 62
    7
 10
292.42892449999999
 20
426.57456950000005
 11
292.42892449999999
 21
427.57456950000005
  0
LINE
  8
_0-0_0
  6
CONTINUOUS
 62
    7
 10
388.92904650000003
 20
427.57463050000001
 11
388.92904650000003
 21
427.07463050000001
  0
LINE
  8
_0-0_0
  6
CONTINUOUS
 62
    7
 10
388.92904650000003
 20
427.07463050000001
 11
388.92904650000003
 21
425.57463050000001
  0
ARC
  8
_0-0_0
  6
CONTINUOUS
 62
    7
 10
379.42892449999999
 20
417.17457550000006
 40
4.5
 50
269.99999700000001
 51
90.000002999999992
  0
LINE
  8
_0-0_0
  6
CONTINUOUS
 62
    7
 10
379.42892449999999
 20
412.67457550000006
 11
374.42892449999999
 21
412.67457550000006
  0
ARC
  8
_0-0_0
  6
CONTINUOUS
 62
    7
 10
374.42892449999999
 20
417.17457550000006
 40
4.5
 50
90.000003000000007
 51
269.99999700000006
  0
LINE
  8
_0-0_0
  6
CONTINUOUS
 62
    7
 10
374.42892449999999
 20
421.67457550000006
 11
379.42892449999999
 21
421.67457550000006
  0
ARC
  8
_0-0_0
  6
CONTINUOUS
 62
    7
 10
323.42892449999999
 20
417.17457550000006
 40
4.5
 50
269.99999700000001
 51
90.000002999999992
  0
LINE
  8
_0-0_0
  6
CONTINUOUS
 62
    7
 10
323.42892449999999
 20
412.67457550000006
 11
318.42892449999999
 21
412.67457550000006
  0
ARC
  8
_0-0_0
  6
CONTINUOUS
 62
    7
 10
318.42892449999999
 20
417.17457550000006
 40
4.5
 50
90.000003000000007
 51
269.99999700000006
  0
LINE
  8
_0-0_0
  6
CONTINUOUS
 62
    7
 10
318.42892449999999
 20
421.67457550000006
 11
323.42892449999999
 21
421.67457550000006
  0
LINE
  8
_0-0_0
  6
CONTINUOUS
 62
    7
 10
305.92892449999999
 20
423.87455750000004
 11
305.92892449999999
 21
425.57456950000005
  0
LINE
  8
_0-0_0
  6
CONTINUOUS
 62
    7
 10
305.92892449999999
 20
425.57456950000005
 11
292.42892449999999
 21
425.57456950000005
  0
LINE
  8
_0-0_0
  6
CONTINUOUS
 62
    7
 10
292.42892449999999
 20
423.87455750000004
 11
292.42892449999999
 21
425.57456950000005
  0
LINE
  8
_0-0_0
  6
CONTINUOUS
 62
    7
 10
293.92892449999999
 20
423.17457550000006
 11
289.25347950000003
 21
423.17457550000006
  0
LINE
  8
_0-0_0
  6
CONTINUOUS
 62
    7
 10
293.92892449999999
 20
417.67457550000006
 11
289.25347950000003
 21
417.67457550000006
  0
LINE
  8
_0-0_0
  6
CONTINUOUS
 62
    7
 10
288.62103250000001
 20
401.67720050000003
 11
288.74053950000001
 21
401.64158650000002
  0
LINE
  8
_0-0_0
  6
CONTINUOUS
 62
    7
 10
288.74053950000001
 20
401.64158650000002
 11
288.86209150000002
 21
401.61369350000007
  0
LINE
  8
_0-0_0
  6
CONTINUOUS
 62
    7
 10
288.86209150000002
 20
401.61369350000007
 11
288.98521449999998
 21
401.59367350000002
  0
LINE
  8
_0-0_0
  6
CONTINUOUS
 62
    7
 10
288.98521449999998
 20
401.59367350000002
 11
289.10943650000002
 21
401.58155850000003
  0
LINE
  8
_0-0_0
  6
CONTINUOUS
 62
    7
 10
289.10943650000002
 20
401.58155850000003
 11
289.23425250000003
 21
401.57740750000005
  0
LINE
  8
_0-0_0
  6
CONTINUOUS
 62
    7
 10
289.23425250000003
 20
401.57740750000005
 11
289.25347950000003
 21
401.57749950000004
  0
ARC
  8
_0-0_0
  6
CONTINUOUS
 62
    7
 10
289.25347950000003
 20
403.57456950000005
 40
2
 50
251.56498899999997
 51
269.99999700000001
  0
LINE
  8
_0-0_0
  6
CONTINUOUS
 62
    7
 10
292.42892449999999
 20
423.87455750000004
 11
305.92892449999999
 21
423.87455750000004
  0
CIRCLE
  8
_0-0_0
  6
CONTINUOUS
 62
    7
 10
386.92892449999999
 20
424.07456950000005
 40
1.4750000000000001
  0
CIRCLE
  8
_0-0_0
  6
CONTINUOUS
 62
    7
 10
307.92892449999999
 20
424.07456950000005
 40
1.4750000000000001
  0
ARC
  8
_0-0_0
  6
CONTINUOUS
 62
    7
 10
289.25347950000003
 20
421.17457550000006
 40
2
 50
90.000003000000007
 51
108.434997
  0
LINE
  8
_0-0_0
  6
CONTINUOUS
 62
    7
 10
284.4545895
 20
417.67457550000006
 11
283.76123050000001
 21
417.67457550000006
  0
LINE
  8
_0-0_0
  6
CONTINUOUS
 62
    7
 10
284.4545895
 20
417.67457550000006
 11
288.77914450000003
 21
417.67457550000006
  0
LINE
  8
_0-0_0
  6
CONTINUOUS
 62
    7
 10
289.25347950000003
 20
417.67457550000006
 11
288.77914450000003
 21
417.67457550000006
  0
LINE
  8
_0-0_0
  6
CONTINUOUS
 62
    7
 10
284.29647850000003
 20
403.11872849999997
 11
288.62103250000001
 21
401.67720050000003
  0
LINE
  8
_0-0_0
  6
CONTINUOUS
 62
    7
 10
383.47891249999998
 20
417.17457550000006
 11
381.16952550000002
 21
413.17457550000006
  0
LINE
  8
_0-0_0
  6
CONTINUOUS
 62
    7
 10
372.68832450000002
 20
413.17457550000006
 11
381.16952550000002
 21
413.17457550000006
  0
LINE
  8
_0-0_0
  6
CONTINUOUS
 62
    7
 10
372.68832450000002
 20
413.17457550000006
 11
370.37893650000001
 21
417.17457550000006
  0
LINE
  8
_0-0_0
  6
CONTINUOUS
 62
    7
 10
370.37893650000001
 20
417.17457550000006
 11
372.68832450000002
 21
421.17457550000006
  0
LINE
  8
_0-0_0
  6
CONTINUOUS
 62
    7
 10
381.16952550000002
 20
421.17457550000006
 11
372.68832450000002
 21
421.17457550000006
  0
LINE
  8
_0-0_0
  6
CONTINUOUS
 62
    7
 10
381.16952550000002
 20
421.17457550000006
 11
383.47891249999998
 21
417.17457550000006
  0
LINE
  8
_0-0_0
  6
CONTINUOUS
 62
    7
 10
316.68832450000002
 20
421.17457550000006
 11
314.37893650000001
 21
417.17457550000006
  0
LINE
  8
_0-0_0
  6
CONTINUOUS
 62
    7
 10
325.16952550000002
 20
421.17457550000006
 11
316.68832450000002
 21
421.17457550000006
  0
LINE
  8
_0-0_0
  6
CONTINUOUS
 62
    7
 10
327.47891249999998
 20
417.17457550000006
 11
325.16952550000002
 21
421.17457550000006
  0
LINE
  8
_0-0_0
  6
CONTINUOUS
 62
    7
 10
325.16952550000002
 20
413.17457550000006
 11
327.47891249999998
 21
417.17457550000006
  0
LINE
  8
_0-0_0
  6
CONTINUOUS
 62
    7
 10
316.68832450000002
 20
413.17457550000006
 11
325.16952550000002
 21
413.17457550000006
  0
LINE
  8
_0-0_0
  6
CONTINUOUS
 62
    7
 10
314.37893650000001
 20
417.17457550000006
 11
316.68832450000002
 21
413.17457550000006
  0
LINE
  8
_0-0_0
  6
CONTINUOUS
 62
    7
 10
288.17892449999999
 20
422.92457550000006
 11
288.62103250000001
 21
423.07194549999997
  0
LINE
  8
_0-0_0
  6
CONTINUOUS
 62
    7
 10
282.92892449999999
 20
418.42460649999998
 11
282.92892449999999
 21
417.30357349999997
  0
LINE
  8
_0-0_0
  6
CONTINUOUS
 62
    7
 10
282.92892449999999
 20
416.38224850000006
 11
282.92892449999999
 21
417.30357349999997
  0
LINE
  8
_0-0_0
  6
CONTINUOUS
 62
    7
 10
283.22894250000002
 20
414.58656350000001
 11
283.17013550000001
 21
414.83338950000007
  0
LINE
  8
_0-0_0
  6
CONTINUOUS
 62
    7
 10
283.17013550000001
 20
414.83338950000007
 11
283.1203615
 21
415.02574149999998
  0
LINE
  8
_0-0_0
  6
CONTINUOUS
 62
    7
 10
283.1203615
 20
415.02574149999998
 11
283.0492405
 21
415.29151950000005
  0
LINE
  8
_0-0_0
  6
CONTINUOUS
 62
    7
 10
283.0492405
 20
415.29151950000005
 11
283.01628149999999
 21
415.41825849999998
  0
LINE
  8
_0-0_0
  6
CONTINUOUS
 62
    7
 10
283.01628149999999
 20
415.41825849999998
 11
282.99102749999997
 21
415.5216825
  0
LINE
  8
_0-0_0
  6
CONTINUOUS
 62
    7
 10
282.99102749999997
 20
415.5216825
 11
282.96899450000001
 21
415.62159750000001
  0
LINE
  8
_0-0_0
  6
CONTINUOUS
 62
    7
 10
282.96899450000001
 20
415.62159750000001
 11
282.94761649999998
 21
415.73930350000001
  0
LINE
  8
_0-0_0
  6
CONTINUOUS
 62
    7
 10
282.94761649999998
 20
415.73930350000001
 11
282.93904150000003
 21
415.80143750000002
  0
LINE
  8
_0-0_0
  6
CONTINUOUS
 62
    7
 10
282.93904150000003
 20
415.80143750000002
 11
282.9329525
 21
415.86204550000002
  0
LINE
  8
_0-0_0
  6
CONTINUOUS
 62
    7
 10
282.9329525
 20
415.86204550000002
 11
282.92996249999999
 21
415.91130050000004
  0
LINE
  8
_0-0_0
  6
CONTINUOUS
 62
    7
 10
282.92996249999999
 20
415.91130050000004
 11
282.92892449999999
 21
415.95951850000006
  0
LINE
  8
_0-0_0
  6
CONTINUOUS
 62
    7
 10
283.22894250000002
 20
410.16255250000006
 11
283.31239349999998
 21
410.54124450000006
  0
LINE
  8
_0-0_0
  6
CONTINUOUS
 62
    7
 10
283.31239349999998
 20
410.54124450000006
 11
283.35247850000002
 21
410.73274249999997
  0
LINE
  8
_0-0_0
  6
CONTINUOUS
 62
    7
 10
283.35247850000002
 20
410.73274249999997
 11
283.4085695
 21
411.02278150000006
  0
LINE
  8
_0-0_0
  6
CONTINUOUS
 62
    7
 10
283.4085695
 20
411.02278150000006
 11
283.4461675
 21
411.24235550000003
  0
LINE
  8
_0-0_0
  6
CONTINUOUS
 62
    7
 10
283.4461675
 20
411.24235550000003
 11
283.47882049999998
 21
411.46360749999997
  0
LINE
  8
_0-0_0
  6
CONTINUOUS
 62
    7
 10
283.47882049999998
 20
411.46360749999997
 11
283.50598150000002
 21
411.69041449999997
  0
LINE
  8
_0-0_0
  6
CONTINUOUS
 62
    7
 10
283.50598150000002
 20
411.69041449999997
 11
283.52603150000004
 21
411.9178015
  0
LINE
  8
_0-0_0
  6
CONTINUOUS
 62
    7
 10
283.52603150000004
 20
411.9178015
 11
283.53320350000001
 21
412.03154050000001
  0
LINE
  8
_0-0_0
  6
CONTINUOUS
 62
    7
 10
283.53320350000001
 20
412.03154050000001
 11
283.53836050000001
 21
412.14521850000006
  0
LINE
  8
_0-0_0
  6
CONTINUOUS
 62
    7
 10
283.53836050000001
 20
412.14521850000006
 11
283.54206850000003
 21
412.29664650000007
  0
LINE
  8
_0-0_0
  6
CONTINUOUS
 62
    7
 10
283.54206850000003
 20
412.29664650000007
 11
283.54212949999999
 21
412.44792150000001
  0
LINE
  8
_0-0_0
  6
CONTINUOUS
 62
    7
 10
283.54212949999999
 20
412.44792150000001
 11
283.5385435
 21
412.59895349999999
  0
LINE
  8
_0-0_0
  6
CONTINUOUS
 62
    7
 10
283.5385435
 20
412.59895349999999
 11
283.52905250000003
 21
412.78752150000003
  0
LINE
  8
_0-0_0
  6
CONTINUOUS
 62
    7
 10
283.52905250000003
 20
412.78752150000003
 11
283.51417549999996
 21
412.9757535
  0
LINE
  8
_0-0_0
  6
CONTINUOUS
 62
    7
 10
283.51417549999996
 20
412.9757535
 11
283.49426249999999
 21
413.16371149999998
  0
LINE
  8
_0-0_0
  6
CONTINUOUS
 62
    7
 10
283.49426249999999
 20
413.16371149999998
 11
283.47787449999998
 21
413.29258749999997
  0
LINE
  8
_0-0_0
  6
CONTINUOUS
 62
    7
 10
283.47787449999998
 20
413.29258749999997
 11
283.45945749999998
 21
413.42121950000001
  0
LINE
  8
_0-0_0
  6
CONTINUOUS
 62
    7
 10
283.45945749999998
 20
413.42121950000001
 11
283.43530250000003
 21
413.57316649999996
  0
LINE
  8
_0-0_0
  6
CONTINUOUS
 62
    7
 10
283.43530250000003
 20
413.57316649999996
 11
283.4089055
 21
413.72450249999997
  0
LINE
  8
_0-0_0
  6
CONTINUOUS
 62
    7
 10
283.4089055
 20
413.72450249999997
 11
283.35272250000003
 21
414.01512149999996
  0
LINE
  8
_0-0_0
  6
CONTINUOUS
 62
    7
 10
283.35272250000003
 20
414.01512149999996
 11
283.31256150000002
 21
414.20707749999997
  0
LINE
  8
_0-0_0
  6
CONTINUOUS
 62
    7
 10
283.31256150000002
 20
414.20707749999997
 11
283.22894250000002
 21
414.58656350000001
  0
LINE
  8
_0-0_0
  6
CONTINUOUS
 62
    7
 10
283.2289275
 20
410.16255250000006
 11
283.17013550000001
 21
409.91569549999997
  0
LINE
  8
_0-0_0
  6
CONTINUOUS
 62
    7
 10
283.17013550000001
 20
409.91569549999997
 11
283.1203615
 21
409.72337349999998
  0
LINE
  8
_0-0_0
  6
CONTINUOUS
 62
    7
 10
283.1203615
 20
409.72337349999998
 11
283.04925550000002
 21
409.45762650000006
  0
LINE
  8
_0-0_0
  6
CONTINUOUS
 62
    7
 10
283.04925550000002
 20
409.45762650000006
 11
283.01629650000001
 21
409.33094849999998
  0
LINE
  8
_0-0_0
  6
CONTINUOUS
 62
    7
 10
283.01629650000001
 20
409.33094849999998
 11
282.99102749999997
 21
409.22749350000004
  0
LINE
  8
_0-0_0
  6
CONTINUOUS
 62
    7
 10
282.99102749999997
 20
409.22749350000004
 11
282.96899450000001
 21
409.12751750000007
  0
LINE
  8
_0-0_0
  6
CONTINUOUS
 62
    7
 10
282.96899450000001
 20
409.12751750000007
 11
282.94760150000002
 21
409.00981149999996
  0
LINE
  8
_0-0_0
  6
CONTINUOUS
 62
    7
 10
282.94760150000002
 20
409.00981149999996
 11
282.93904150000003
 21
408.94767750000005
  0
LINE
  8
_0-0_0
  6
CONTINUOUS
 62
    7
 10
282.93904150000003
 20
408.94767750000005
 11
282.9329525
 21
408.88710049999997
  0
LINE
  8
_0-0_0
  6
CONTINUOUS
 62
    7
 10
282.9329525
 20
408.88710049999997
 11
282.92996249999999
 21
408.83784449999996
  0
LINE
  8
_0-0_0
  6
CONTINUOUS
 62
    7
 10
282.92996249999999
 20
408.83784449999996
 11
282.92892449999999
 21
408.78962750000005
  0
LINE
  8
_0-0_0
  6
CONTINUOUS
 62
    7
 10
282.92892449999999
 20
405.0160985
 11
282.92892449999999
 21
408.36686750000001
  0
ARC
  8
_0-0_0
  6
CONTINUOUS
 62
    7
 10
284.92892449999999
 20
405.0160985
 40
2
 50
180.00000900000003
 51
251.56498900000003
  0
LINE
  8
_0-0_0
  6
CONTINUOUS
 62
    7
 10
387.37893650000001
 20
423.87455750000004
 11
388.0289305
 21
423.87455750000004
  0
ARC
  8
_0-0_0
  6
CONTINUOUS
 62
    7
 10
387.37893650000001
 20
423.62455750000004
 40
0.25
 50
90.000003000000007
 51
180.00000900000001
  0
LINE
  8
_0-0_0
  6
CONTINUOUS
 62
    7
 10
387.12893650000001
 20
423.62455750000004
 11
387.12893650000001
 21
422.97456350000004
  0
LINE
  8
_0-0_0
  6
CONTINUOUS
 62
    7
 10
386.72891249999998
 20
422.97456350000004
 11
387.12893650000001
 21
422.97456350000004
  0
LINE
  8
_0-0_0
  6
CONTINUOUS
 62
    7
 10
386.72891249999998
 20
422.97456350000004
 11
386.72891249999998
 21
423.62455750000004
  0
ARC
  8
_0-0_0
  6
CONTINUOUS
 62
    7
 10
386.47891249999998
 20
423.62455750000004
 40
0.25
 50
0
 51
90.000003000000007
  0
LINE
  8
_0-0_0
  6
CONTINUOUS
 62
    7
 10
385.82894950000002
 20
423.87455750000004
 11
386.47891249999998
 21
423.87455750000004
  0
LINE
  8
_0-0_0
  6
CONTINUOUS
 62
    7
 10
385.82894950000002
 20
423.87455750000004
 11
385.82894950000002
 21
424.27458250000007
  0
LINE
  8
_0-0_0
  6
CONTINUOUS
 62
    7
 10
386.47891249999998
 20
424.27458250000007
 11
385.82894950000002
 21
424.27458250000007
  0
ARC
  8
_0-0_0
  6
CONTINUOUS
 62
    7
 10
386.47891249999998
 20
424.52458250000007
 40
0.25
 50
269.99999700000001
 51
0
  0
LINE
  8
_0-0_0
  6
CONTINUOUS
 62
    7
 10
386.72891249999998
 20
424.52458250000007
 11
386.72891249999998
 21
425.17457550000006
  0
LINE
  8
_0-0_0
  6
CONTINUOUS
 62
    7
 10
387.12893650000001
 20
425.17457550000006
 11
386.72891249999998
 21
425.17457550000006
  0
LINE
  8
_0-0_0
  6
CONTINUOUS
 62
    7
 10
387.12893650000001
 20
425.17457550000006
 11
387.12893650000001
 21
424.52458250000007
  0
ARC
  8
_0-0_0
  6
CONTINUOUS
 62
    7
 10
387.37893650000001
 20
424.52458250000007
 40
0.25
 50
180.00000900000003
 51
269.99999700000001
  0
LINE
  8
_0-0_0
  6
CONTINUOUS
 62
    7
 10
388.0289305
 20
424.27458250000007
 11
387.37893650000001
 21
424.27458250000007
  0
LINE
  8
_0-0_0
  6
CONTINUOUS
 62
    7
 10
388.0289305
 20
424.27458250000007
 11
388.0289305
 21
423.87455750000004
  0
LINE
  8
_0-0_0
  6
CONTINUOUS
 62
    7
 10
308.37893650000001
 20
423.87455750000004
 11
309.0289305
 21
423.87455750000004
  0
ARC
  8
_0-0_0
  6
CONTINUOUS
 62
    7
 10
308.37893650000001
 20
423.62455750000004
 40
0.25
 50
90.000003000000007
 51
180.00000900000001
  0
LINE
  8
_0-0_0
  6
CONTINUOUS
 62
    7
 10
308.12893650000001
 20
423.62455750000004
 11
308.12893650000001
 21
422.97456350000004
  0
LINE
  8
_0-0_0
  6
CONTINUOUS
 62
    7
 10
307.7289275
 20
422.97456350000004
 11
308.12893650000001
 21
422.97456350000004
  0
LINE
  8
_0-0_0
  6
CONTINUOUS
 62
    7
 10
307.7289275
 20
422.97456350000004
 11
307.7289275
 21
423.62455750000004
  0
ARC
  8
_0-0_0
  6
CONTINUOUS
 62
    7
 10
307.4789275
 20
423.62455750000004
 40
0.25
 50
0
 51
90.000003000000007
  0
LINE
  8
_0-0_0
  6
CONTINUOUS
 62
    7
 10
306.82893350000001
 20
423.87455750000004
 11
307.4789275
 21
423.87455750000004
  0
LINE
  8
_0-0_0
  6
CONTINUOUS
 62
    7
 10
306.82893350000001
 20
423.87455750000004
 11
306.82893350000001
 21
424.27458250000007
  0
LINE
  8
_0-0_0
  6
CONTINUOUS
 62
    7
 10
307.4789275
 20
424.27458250000007
 11
306.82893350000001
 21
424.27458250000007
  0
ARC
  8
_0-0_0
  6
CONTINUOUS
 62
    7
 10
307.4789275
 20
424.52458250000007
 40
0.25
 50
269.99999700000001
 51
0
  0
LINE
  8
_0-0_0
  6
CONTINUOUS
 62
    7
 10
307.7289275
 20
424.52458250000007
 11
307.7289275
 21
425.17457550000006
  0
LINE
  8
_0-0_0
  6
CONTINUOUS
 62
    7
 10
308.12893650000001
 20
425.17457550000006
 11
307.7289275
 21
425.17457550000006
  0
LINE
  8
_0-0_0
  6
CONTINUOUS
 62
    7
 10
308.12893650000001
 20
425.17457550000006
 11
308.12893650000001
 21
424.52458250000007
  0
ARC
  8
_0-0_0
  6
CONTINUOUS
 62
    7
 10
308.37893650000001
 20
424.52458250000007
 40
0.25
 50
180.00000900000003
 51
269.99999700000001
  0
LINE
  8
_0-0_0
  6
CONTINUOUS
 62
    7
 10
309.0289305
 20
424.27458250000007
 11
308.37893650000001
 21
424.27458250000007
  0
LINE
  8
_0-0_0
  6
CONTINUOUS
 62
    7
 10
309.0289305
 20
424.27458250000007
 11
309.0289305
 21
423.87455750000004
  0
LINE
  8
_0-0_0
  6
CONTINUOUS
 62
    7
 10
267.92892449999999
 20
421.90000950000001
 11
267.92892449999999
 21
421.75328049999996
  0
LINE
  8
_0-0_0
  6
CONTINUOUS
 62
    7
 10
267.92892449999999
 20
422.0905305
 11
267.92892449999999
 21
421.90000950000001
  0
LINE
  8
_0-0_0
  6
CONTINUOUS
 62
    7
 10
267.92892449999999
 20
422.26554850000002
 11
267.92892449999999
 21
422.0905305
  0
LINE
  8
_0-0_0
  6
CONTINUOUS
 62
    7
 10
267.92892449999999
 20
422.42314150000004
 11
267.92892449999999
 21
422.26554850000002
  0
LINE
  8
_0-0_0
  6
CONTINUOUS
 62
    7
 10
267.92892449999999
 20
422.56156950000002
 11
267.92892449999999
 21
422.42314150000004
  0
LINE
  8
_0-0_0
  6
CONTINUOUS
 62
    7
 10
267.92892449999999
 20
422.67933649999998
 11
267.92892449999999
 21
422.56156950000002
  0
LINE
  8
_0-0_0
  6
CONTINUOUS
 62
    7
 10
267.92892449999999
 20
422.77513150000004
 11
267.92892449999999
 21
422.67933649999998
  0
LINE
  8
_0-0_0
  6
CONTINUOUS
 62
    7
 10
267.92892449999999
 20
422.8479155
 11
267.92892449999999
 21
422.77513150000004
  0
LINE
  8
_0-0_0
  6
CONTINUOUS
 62
    7
 10
267.92892449999999
 20
422.89686549999999
 11
267.92892449999999
 21
422.8479155
  0
LINE
  8
_0-0_0
  6
CONTINUOUS
 62
    7
 10
267.92892449999999
 20
422.92457550000006
 11
267.92892449999999
 21
422.89686549999999
  0
LINE
  8
_0-0_0
  6
CONTINUOUS
 62
    7
 10
267.92892449999999
 20
422.92457550000006
 11
267.92892449999999
 21
422.9214935
  0
LINE
  8
_0-0_0
  6
CONTINUOUS
 62
    7
 10
267.92892449999999
 20
418.42765850000001
 11
267.92892449999999
 21
418.42457550000006
  0
LINE
  8
_0-0_0
  6
CONTINUOUS
 62
    7
 10
267.92892449999999
 20
418.45228550000002
 11
267.92892449999999
 21
418.42457550000006
  0
LINE
  8
_0-0_0
  6
CONTINUOUS
 62
    7
 10
267.92892449999999
 20
418.5012365
 11
267.92892449999999
 21
418.45228550000002
  0
LINE
  8
_0-0_0
  6
CONTINUOUS
 62
    7
 10
267.92892449999999
 20
418.57402049999996
 11
267.92892449999999
 21
418.5012365
  0
LINE
  8
_0-0_0
  6
CONTINUOUS
 62
    7
 10
267.92892449999999
 20
418.66981550000003
 11
267.92892449999999
 21
418.57402049999996
  0
LINE
  8
_0-0_0
  6
CONTINUOUS
 62
    7
 10
267.92892449999999
 20
418.69999749999999
 11
267.92892449999999
 21
418.66981550000003
  0
LINE
  8
_0-0_0
  6
CONTINUOUS
 62
    7
 10
267.92892449999999
 20
418.78755250000006
 11
267.92892449999999
 21
418.69999749999999
  0
LINE
  8
_0-0_0
  6
CONTINUOUS
 62
    7
 10
267.92892449999999
 20
418.92597950000004
 11
267.92892449999999
 21
418.78755250000006
  0
LINE
  8
_0-0_0
  6
CONTINUOUS
 62
    7
 10
267.92892449999999
 20
419.08357250000006
 11
267.92892449999999
 21
418.92597950000004
  0
LINE
  8
_0-0_0
  6
CONTINUOUS
 62
    7
 10
267.92892449999999
 20
419.25859049999997
 11
267.92892449999999
 21
419.08357250000006
  0
LINE
  8
_0-0_0
  6
CONTINUOUS
 62
    7
 10
267.92892449999999
 20
419.44914249999999
 11
267.92892449999999
 21
419.25859049999997
  0
LINE
  8
_0-0_0
  6
CONTINUOUS
 62
    7
 10
267.92892449999999
 20
419.65309149999996
 11
267.92892449999999
 21
419.44914249999999
  0
LINE
  8
_0-0_0
  6
CONTINUOUS
 62
    7
 10
267.92892449999999
 20
419.86824049999996
 11
267.92892449999999
 21
419.65309149999996
  0
LINE
  8
_0-0_0
  6
CONTINUOUS
 62
    7
 10
267.92892449999999
 20
420.09223950000001
 11
267.92892449999999
 21
419.86824049999996
  0
LINE
  8
_0-0_0
  6
CONTINUOUS
 62
    7
 10
267.92892449999999
 20
420.32258650000006
 11
267.92892449999999
 21
420.09223950000001
  0
LINE
  8
_0-0_0
  6
CONTINUOUS
 62
    7
 10
267.92892449999999
 20
420.55680849999999
 11
267.92892449999999
 21
420.32258650000006
  0
LINE
  8
_0-0_0
  6
CONTINUOUS
 62
    7
 10
267.92892449999999
 20
420.79231249999998
 11
267.92892449999999
 21
420.55680849999999
  0
LINE
  8
_0-0_0
  6
CONTINUOUS
 62
    7
 10
267.92892449999999
 20
421.02653550000002
 11
267.92892449999999
 21
420.79231249999998
  0
LINE
  8
_0-0_0
  6
CONTINUOUS
 62
    7
 10
267.92892449999999
 20
421.2569125
 11
267.92892449999999
 21
421.02653550000002
  0
LINE
  8
_0-0_0
  6
CONTINUOUS
 62
    7
 10
267.92892449999999
 20
421.48091150000005
 11
267.92892449999999
 21
421.2569125
  0
LINE
  8
_0-0_0
  6
CONTINUOUS
 62
    7
 10
267.92892449999999
 20
421.69606050000004
 11
267.92892449999999
 21
421.48091150000005
  0
LINE
  8
_0-0_0
  6
CONTINUOUS
 62
    7
 10
267.92892449999999
 20
421.75328049999996
 11
267.92892449999999
 21
421.69606050000004
  0
LINE
  8
_0-0_0
  6
CONTINUOUS
 62
    7
 10
282.92892449999999
 20
413.93663049999998
 11
282.92892449999999
 21
414.98225450000007
  0
LINE
  8
_0-0_0
  6
CONTINUOUS
 62
    7
 10
282.92892449999999
 20
416.2668615
 11
282.92892449999999
 21
414.98225450000007
  0
LINE
  8
_0-0_0
  6
CONTINUOUS
 62
    7
 10
282.92892449999999
 20
416.38224850000006
 11
282.92892449999999
 21
416.2668615
  0
LINE
  8
_0-0_0
  6
CONTINUOUS
 62
    7
 10
282.92892449999999
 20
413.93663049999998
 11
282.92892449999999
 21
410.81251550000002
  0
LINE
  8
_0-0_0
  6
CONTINUOUS
 62
    7
 10
282.92892449999999
 20
408.36686750000001
 11
282.92892449999999
 21
408.48225450000007
  0
LINE
  8
_0-0_0
  6
CONTINUOUS
 62
    7
 10
282.92892449999999
 20
409.7668615
 11
282.92892449999999
 21
408.48225450000007
  0
LINE
  8
_0-0_0
  6
CONTINUOUS
 62
    7
 10
282.92892449999999
 20
409.7668615
 11
282.92892449999999
 21
410.81251550000002
  0
LINE
  8
_0-0_0
  6
CONTINUOUS
 62
    7
 10
267.92892449999999
 20
405.3000035
 11
267.92892449999999
 21
405.15327450000007
  0
LINE
  8
_0-0_0
  6
CONTINUOUS
 62
    7
 10
267.92892449999999
 20
405.49055450000003
 11
267.92892449999999
 21
405.3000035
  0
LINE
  8
_0-0_0
  6
CONTINUOUS
 62
    7
 10
267.92892449999999
 20
405.66557350000005
 11
267.92892449999999
 21
405.49055450000003
  0
LINE
  8
_0-0_0
  6
CONTINUOUS
 62
    7
 10
267.92892449999999
 20
405.82313550000003
 11
267.92892449999999
 21
405.66557350000005
  0
LINE
  8
_0-0_0
  6
CONTINUOUS
 62
    7
 10
267.92892449999999
 20
405.96159350000005
 11
267.92892449999999
 21
405.82313550000003
  0
LINE
  8
_0-0_0
  6
CONTINUOUS
 62
    7
 10
267.92892449999999
 20
406.07933049999997
 11
267.92892449999999
 21
405.96159350000005
  0
LINE
  8
_0-0_0
  6
CONTINUOUS
 62
    7
 10
267.92892449999999
 20
406.17512550000004
 11
267.92892449999999
 21
406.07933049999997
  0
LINE
  8
_0-0_0
  6
CONTINUOUS
 62
    7
 10
267.92892449999999
 20
406.24790949999999
 11
267.92892449999999
 21
406.17512550000004
  0
LINE
  8
_0-0_0
  6
CONTINUOUS
 62
    7
 10
267.92892449999999
 20
406.29685949999998
 11
267.92892449999999
 21
406.24790949999999
  0
LINE
  8
_0-0_0
  6
CONTINUOUS
 62
    7
 10
267.92892449999999
 20
406.32456950000005
 11
267.92892449999999
 21
406.29685949999998
  0
LINE
  8
_0-0_0
  6
CONTINUOUS
 62
    7
 10
267.92892449999999
 20
406.32456950000005
 11
267.92892449999999
 21
406.32148749999999
  0
LINE
  8
_0-0_0
  6
CONTINUOUS
 62
    7
 10
267.92892449999999
 20
401.8276525
 11
267.92892449999999
 21
401.82456950000005
  0
LINE
  8
_0-0_0
  6
CONTINUOUS
 62
    7
 10
267.92892449999999
 20
401.85227950000001
 11
267.92892449999999
 21
401.82456950000005
  0
LINE
  8
_0-0_0
  6
CONTINUOUS
 62
    7
 10
267.92892449999999
 20
401.9012295
 11
267.92892449999999
 21
401.85227950000001
  0
LINE
  8
_0-0_0
  6
CONTINUOUS
 62
    7
 10
267.92892449999999
 20
401.97401450000007
 11
267.92892449999999
 21
401.9012295
  0
LINE
  8
_0-0_0
  6
CONTINUOUS
 62
    7
 10
267.92892449999999
 20
402.06980950000002
 11
267.92892449999999
 21
401.97401450000007
  0
LINE
  8
_0-0_0
  6
CONTINUOUS
 62
    7
 10
267.92892449999999
 20
402.10002150000003
 11
267.92892449999999
 21
402.06980950000002
  0
LINE
  8
_0-0_0
  6
CONTINUOUS
 62
    7
 10
267.92892449999999
 20
402.18754550000006
 11
267.92892449999999
 21
402.10002150000003
  0
LINE
  8
_0-0_0
  6
CONTINUOUS
 62
    7
 10
267.92892449999999
 20
402.32600450000007
 11
267.92892449999999
 21
402.18754550000006
  0
LINE
  8
_0-0_0
  6
CONTINUOUS
 62
    7
 10
267.92892449999999
 20
402.48359649999998
 11
267.92892449999999
 21
402.32600450000007
  0
LINE
  8
_0-0_0
  6
CONTINUOUS
 62
    7
 10
267.92892449999999
 20
402.65858449999996
 11
267.92892449999999
 21
402.48359649999998
  0
LINE
  8
_0-0_0
  6
CONTINUOUS
 62
    7
 10
267.92892449999999
 20
402.84913649999999
 11
267.92892449999999
 21
402.65858449999996
  0
LINE
  8
_0-0_0
  6
CONTINUOUS
 62
    7
 10
267.92892449999999
 20
403.05308550000007
 11
267.92892449999999
 21
402.84913649999999
  0
LINE
  8
_0-0_0
  6
CONTINUOUS
 62
    7
 10
267.92892449999999
 20
403.26823450000006
 11
267.92892449999999
 21
403.05308550000007
  0
LINE
  8
_0-0_0
  6
CONTINUOUS
 62
    7
 10
267.92892449999999
 20
403.4922335
 11
267.92892449999999
 21
403.26823450000006
  0
LINE
  8
_0-0_0
  6
CONTINUOUS
 62
    7
 10
267.92892449999999
 20
403.72258050000005
 11
267.92892449999999
 21
403.4922335
  0
LINE
  8
_0-0_0
  6
CONTINUOUS
 62
    7
 10
267.92892449999999
 20
403.95680249999998
 11
267.92892449999999
 21
403.72258050000005
  0
LINE
  8
_0-0_0
  6
CONTINUOUS
 62
    7
 10
267.92892449999999
 20
404.19233750000001
 11
267.92892449999999
 21
403.95680249999998
  0
LINE
  8
_0-0_0
  6
CONTINUOUS
 62
    7
 10
267.92892449999999
 20
404.42655950000005
 11
267.92892449999999
 21
404.19233750000001
  0
LINE
  8
_0-0_0
  6
CONTINUOUS
 62
    7
 10
267.92892449999999
 20
404.65690649999999
 11
267.92892449999999
 21
404.42655950000005
  0
LINE
  8
_0-0_0
  6
CONTINUOUS
 62
    7
 10
267.92892449999999
 20
404.88090550000004
 11
267.92892449999999
 21
404.65690649999999
  0
LINE
  8
_0-0_0
  6
CONTINUOUS
 62
    7
 10
267.92892449999999
 20
405.09605450000004
 11
267.92892449999999
 21
404.88090550000004
  0
LINE
  8
_0-0_0
  6
CONTINUOUS
 62
    7
 10
267.92892449999999
 20
405.15327450000007
 11
267.92892449999999
 21
405.09605450000004
  0
LINE
  8
_0-0_0
  6
CONTINUOUS
 62
    7
 10
378.92892449999999
 20
414.92457550000006
 11
374.92892449999999
 21
414.92457550000006
  0
ARC
  8
_0-0_0
  6
CONTINUOUS
 62
    7
 10
374.92892449999999
 20
417.17457550000006
 40
2.25
 50
90.000003000000007
 51
269.99999700000006
  0
LINE
  8
_0-0_0
  6
CONTINUOUS
 62
    7
 10
374.92892449999999
 20
419.42457550000006
 11
378.92892449999999
 21
419.42457550000006
  0
ARC
  8
_0-0_0
  6
CONTINUOUS
 62
    7
 10
378.92892449999999
 20
417.17457550000006
 40
2.25
 50
269.99999700000001
 51
90.000002999999992
  0
ARC
  8
_0-0_0
  6
CONTINUOUS
 62
    7
 10
318.92892449999999
 20
417.17457550000006
 40
2.25
 50
90.000003000000007
 51
269.99999700000006
  0
LINE
  8
_0-0_0
  6
CONTINUOUS
 62
    7
 10
318.92892449999999
 20
419.42457550000006
 11
322.92892449999999
 21
419.42457550000006
  0
ARC
  8
_0-0_0
  6
CONTINUOUS
 62
    7
 10
322.92892449999999
 20
417.17457550000006
 40
2.25
 50
269.99999700000001
 51
90.000002999999992
  0
LINE
  8
_0-0_0
  6
CONTINUOUS
 62
    7
 10
322.92892449999999
 20
414.92457550000006
 11
318.92892449999999
 21
414.92457550000006
  0
LINE
  8
_0-0_0
  6
CONTINUOUS
 62
    7
 10
267.92892449999999
 20
421.90000950000001
 11
267.67892449999999
 21
421.92457550000006
  0
LINE
  8
_0-0_0
  6
CONTINUOUS
 62
    7
 10
267.92892449999999
 20
421.69606050000004
 11
267.67892449999999
 21
421.92457550000006
  0
LINE
  8
_0-0_0
  6
CONTINUOUS
 62
    7
 10
267.92892449999999
 20
422.0905305
 11
267.67892449999999
 21
422.14402749999999
  0
LINE
  8
_0-0_0
  6
CONTINUOUS
 62
    7
 10
267.92892449999999
 20
421.90000950000001
 11
267.67892449999999
 21
422.14402749999999
  0
LINE
  8
_0-0_0
  6
CONTINUOUS
 62
    7
 10
267.92892449999999
 20
422.26554850000002
 11
267.67892449999999
 21
422.34739650000006
  0
LINE
  8
_0-0_0
  6
CONTINUOUS
 62
    7
 10
267.92892449999999
 20
422.0905305
 11
267.67892449999999
 21
422.34739650000006
  0
LINE
  8
_0-0_0
  6
CONTINUOUS
 62
    7
 10
267.92892449999999
 20
422.42314150000004
 11
267.67892449999999
 21
422.53242550000004
  0
LINE
  8
_0-0_0
  6
CONTINUOUS
 62
    7
 10
267.92892449999999
 20
422.26554850000002
 11
267.67892449999999
 21
422.53242550000004
  0
LINE
  8
_0-0_0
  6
CONTINUOUS
 62
    7
 10
267.92892449999999
 20
422.56156950000002
 11
267.67892449999999
 21
422.69712849999996
  0
LINE
  8
_0-0_0
  6
CONTINUOUS
 62
    7
 10
267.92892449999999
 20
422.42314150000004
 11
267.67892449999999
 21
422.69712849999996
  0
LINE
  8
_0-0_0
  6
CONTINUOUS
 62
    7
 10
267.92892449999999
 20
422.67933649999998
 11
267.67892449999999
 21
422.83964549999996
  0
LINE
  8
_0-0_0
  6
CONTINUOUS
 62
    7
 10
267.92892449999999
 20
422.56156950000002
 11
267.67892449999999
 21
422.83964549999996
  0
LINE
  8
_0-0_0
  6
CONTINUOUS
 62
    7
 10
267.92892449999999
 20
422.77513150000004
 11
267.67892449999999
 21
422.95845050000003
  0
LINE
  8
_0-0_0
  6
CONTINUOUS
 62
    7
 10
267.92892449999999
 20
422.67933649999998
 11
267.67892449999999
 21
422.95845050000003
  0
LINE
  8
_0-0_0
  6
CONTINUOUS
 62
    7
 10
267.92892449999999
 20
422.8479155
 11
267.67892449999999
 21
423.05220050000003
  0
LINE
  8
_0-0_0
  6
CONTINUOUS
 62
    7
 10
267.92892449999999
 20
422.77513150000004
 11
267.67892449999999
 21
423.05220050000003
  0
LINE
  8
_0-0_0
  6
CONTINUOUS
 62
    7
 10
267.92892449999999
 20
422.89686549999999
 11
267.67892449999999
 21
423.11994949999996
  0
LINE
  8
_0-0_0
  6
CONTINUOUS
 62
    7
 10
267.92892449999999
 20
422.8479155
 11
267.67892449999999
 21
423.11994949999996
  0
LINE
  8
_0-0_0
  6
CONTINUOUS
 62
    7
 10
267.92892449999999
 20
422.9214935
 11
267.67892449999999
 21
423.16087349999998
  0
LINE
  8
_0-0_0
  6
CONTINUOUS
 62
    7
 10
267.92892449999999
 20
422.89686549999999
 11
267.67892449999999
 21
423.16087349999998
  0
LINE
  8
_0-0_0
  6
CONTINUOUS
 62
    7
 10
267.92892449999999
 20
422.9214935
 11
267.92588850000004
 21
422.92457550000006
  0
LINE
  8
_0-0_0
  6
CONTINUOUS
 62
    7
 10
267.92892449999999
 20
418.42765850000001
 11
267.67892449999999
 21
418.17457550000006
  0
LINE
  8
_0-0_0
  6
CONTINUOUS
 62
    7
 10
267.92892449999999
 20
418.45228550000002
 11
267.67892449999999
 21
418.18827850000002
  0
LINE
  8
_0-0_0
  6
CONTINUOUS
 62
    7
 10
267.92892449999999
 20
418.42765850000001
 11
267.67892449999999
 21
418.18827850000002
  0
LINE
  8
_0-0_0
  6
CONTINUOUS
 62
    7
 10
267.92892449999999
 20
418.5012365
 11
267.67892449999999
 21
418.22920250000004
  0
LINE
  8
_0-0_0
  6
CONTINUOUS
 62
    7
 10
267.92892449999999
 20
418.45228550000002
 11
267.67892449999999
 21
418.22920250000004
  0
LINE
  8
_0-0_0
  6
CONTINUOUS
 62
    7
 10
267.92892449999999
 20
418.57402049999996
 11
267.67892449999999
 21
418.29692050000006
  0
LINE
  8
_0-0_0
  6
CONTINUOUS
 62
    7
 10
267.92892449999999
 20
418.5012365
 11
267.67892449999999
 21
418.29692050000006
  0
LINE
  8
_0-0_0
  6
CONTINUOUS
 62
    7
 10
267.92892449999999
 20
418.66981550000003
 11
267.67892449999999
 21
418.39070149999998
  0
LINE
  8
_0-0_0
  6
CONTINUOUS
 62
    7
 10
267.92892449999999
 20
418.57402049999996
 11
267.67892449999999
 21
418.39070149999998
  0
LINE
  8
_0-0_0
  6
CONTINUOUS
 62
    7
 10
267.92892449999999
 20
418.66981550000003
 11
267.79896550000001
 21
418.58595249999996
  0
LINE
  8
_0-0_0
  6
CONTINUOUS
 62
    7
 10
267.92892449999999
 20
418.78755250000006
 11
267.67892449999999
 21
418.50950650000004
  0
LINE
  8
_0-0_0
  6
CONTINUOUS
 62
    7
 10
267.79896550000001
 20
418.58595249999996
 11
267.67892449999999
 21
418.50950650000004
  0
LINE
  8
_0-0_0
  6
CONTINUOUS
 62
    7
 10
267.92892449999999
 20
418.92597950000004
 11
267.67892449999999
 21
418.65202350000004
  0
LINE
  8
_0-0_0
  6
CONTINUOUS
 62
    7
 10
267.92892449999999
 20
418.78755250000006
 11
267.67892449999999
 21
418.65202350000004
  0
LINE
  8
_0-0_0
  6
CONTINUOUS
 62
    7
 10
267.92892449999999
 20
419.08357250000006
 11
267.67892449999999
 21
418.81669650000003
  0
LINE
  8
_0-0_0
  6
CONTINUOUS
 62
    7
 10
267.92892449999999
 20
418.92597950000004
 11
267.67892449999999
 21
418.81669650000003
  0
LINE
  8
_0-0_0
  6
CONTINUOUS
 62
    7
 10
267.92892449999999
 20
419.25859049999997
 11
267.67892449999999
 21
419.00175450000006
  0
LINE
  8
_0-0_0
  6
CONTINUOUS
 62
    7
 10
267.92892449999999
 20
419.08357250000006
 11
267.67892449999999
 21
419.00175450000006
  0
LINE
  8
_0-0_0
  6
CONTINUOUS
 62
    7
 10
267.92892449999999
 20
419.44914249999999
 11
267.67892449999999
 21
419.20509349999998
  0
LINE
  8
_0-0_0
  6
CONTINUOUS
 62
    7
 10
267.92892449999999
 20
419.25859049999997
 11
267.67892449999999
 21
419.20509349999998
  0
LINE
  8
_0-0_0
  6
CONTINUOUS
 62
    7
 10
267.92892449999999
 20
419.65309149999996
 11
267.67892449999999
 21
419.42457550000006
  0
LINE
  8
_0-0_0
  6
CONTINUOUS
 62
    7
 10
267.92892449999999
 20
419.44914249999999
 11
267.67892449999999
 21
419.42457550000006
  0
LINE
  8
_0-0_0
  6
CONTINUOUS
 62
    7
 10
267.92892449999999
 20
419.86824049999996
 11
267.67892449999999
 21
419.65773049999996
  0
LINE
  8
_0-0_0
  6
CONTINUOUS
 62
    7
 10
267.92892449999999
 20
419.65309149999996
 11
267.67892449999999
 21
419.65773049999996
  0
LINE
  8
_0-0_0
  6
CONTINUOUS
 62
    7
 10
267.92892449999999
 20
420.09223950000001
 11
267.67892449999999
 21
419.90202350000004
  0
LINE
  8
_0-0_0
  6
CONTINUOUS
 62
    7
 10
267.92892449999999
 20
419.86824049999996
 11
267.67892449999999
 21
419.90202350000004
  0
LINE
  8
_0-0_0
  6
CONTINUOUS
 62
    7
 10
267.92892449999999
 20
420.32258650000006
 11
267.67892449999999
 21
420.15480049999996
  0
LINE
  8
_0-0_0
  6
CONTINUOUS
 62
    7
 10
267.92892449999999
 20
420.09223950000001
 11
267.67892449999999
 21
420.15480049999996
  0
LINE
  8
_0-0_0
  6
CONTINUOUS
 62
    7
 10
267.92892449999999
 20
420.55680849999999
 11
267.67892449999999
 21
420.4132535
  0
LINE
  8
_0-0_0
  6
CONTINUOUS
 62
    7
 10
267.92892449999999
 20
420.32258650000006
 11
267.67892449999999
 21
420.4132535
  0
LINE
  8
_0-0_0
  6
CONTINUOUS
 62
    7
 10
267.92892449999999
 20
420.79231249999998
 11
267.67892449999999
 21
420.67457550000006
  0
LINE
  8
_0-0_0
  6
CONTINUOUS
 62
    7
 10
267.92892449999999
 20
420.55680849999999
 11
267.67892449999999
 21
420.67457550000006
  0
LINE
  8
_0-0_0
  6
CONTINUOUS
 62
    7
 10
267.92892449999999
 20
421.02653550000002
 11
267.67892449999999
 21
420.93589750000001
  0
LINE
  8
_0-0_0
  6
CONTINUOUS
 62
    7
 10
267.92892449999999
 20
420.79231249999998
 11
267.67892449999999
 21
420.93589750000001
  0
LINE
  8
_0-0_0
  6
CONTINUOUS
 62
    7
 10
267.92892449999999
 20
421.2569125
 11
267.67892449999999
 21
421.19435150000004
  0
LINE
  8
_0-0_0
  6
CONTINUOUS
 62
    7
 10
267.92892449999999
 20
421.02653550000002
 11
267.67892449999999
 21
421.19435150000004
  0
LINE
  8
_0-0_0
  6
CONTINUOUS
 62
    7
 10
267.92892449999999
 20
421.48091150000005
 11
267.67892449999999
 21
421.44712849999996
  0
LINE
  8
_0-0_0
  6
CONTINUOUS
 62
    7
 10
267.92892449999999
 20
421.2569125
 11
267.67892449999999
 21
421.44712849999996
  0
LINE
  8
_0-0_0
  6
CONTINUOUS
 62
    7
 10
267.92892449999999
 20
421.69606050000004
 11
267.67892449999999
 21
421.69142150000005
  0
LINE
  8
_0-0_0
  6
CONTINUOUS
 62
    7
 10
267.92892449999999
 20
421.48091150000005
 11
267.67892449999999
 21
421.69142150000005
  0
LINE
  8
_0-0_0
  6
CONTINUOUS
 62
    7
 10
282.92892449999999
 20
416.2668615
 11
273.22109950000004
 21
416.2668615
  0
LINE
  8
_0-0_0
  6
CONTINUOUS
 62
    7
 10
273.22109950000004
 20
416.2668615
 11
273.16662650000001
 21
416.33680749999996
  0
LINE
  8
_0-0_0
  6
CONTINUOUS
 62
    7
 10
273.16662650000001
 20
416.33680749999996
 11
273.11552449999999
 21
416.40562450000004
  0
LINE
  8
_0-0_0
  6
CONTINUOUS
 62
    7
 10
273.11552449999999
 20
416.40562450000004
 11
273.06788649999999
 21
416.47315950000007
  0
LINE
  8
_0-0_0
  6
CONTINUOUS
 62
    7
 10
273.06788649999999
 20
416.47315950000007
 11
273.02337650000004
 21
416.53968850000001
  0
LINE
  8
_0-0_0
  6
CONTINUOUS
 62
    7
 10
273.02337650000004
 20
416.53968850000001
 11
272.9686585
 21
416.62724349999996
  0
LINE
  8
_0-0_0
  6
CONTINUOUS
 62
    7
 10
272.9686585
 20
416.62724349999996
 11
272.91915849999998
 21
416.71333349999998
  0
LINE
  8
_0-0_0
  6
CONTINUOUS
 62
    7
 10
272.91915849999998
 20
416.71333349999998
 11
272.87469450000003
 21
416.79817249999996
  0
LINE
  8
_0-0_0
  6
CONTINUOUS
 62
    7
 10
272.87469450000003
 20
416.79817249999996
 11
272.82772850000003
 21
416.8984835
  0
LINE
  8
_0-0_0
  6
CONTINUOUS
 62
    7
 10
272.82772850000003
 20
416.8984835
 11
272.78750650000001
 21
416.99742149999997
  0
LINE
  8
_0-0_0
  6
CONTINUOUS
 62
    7
 10
272.78750650000001
 20
416.99742149999997
 11
272.75384550000001
 21
417.0951695
  0
LINE
  8
_0-0_0
  6
CONTINUOUS
 62
    7
 10
272.75384550000001
 20
417.0951695
 11
272.7265625
 21
417.19197050000002
  0
LINE
  8
_0-0_0
  6
CONTINUOUS
 62
    7
 10
272.7265625
 20
417.19197050000002
 11
272.70550550000002
 21
417.28804049999997
  0
LINE
  8
_0-0_0
  6
CONTINUOUS
 62
    7
 10
272.70550550000002
 20
417.28804049999997
 11
272.68957550000005
 21
417.39189150000004
  0
LINE
  8
_0-0_0
  6
CONTINUOUS
 62
    7
 10
272.68957550000005
 20
417.39189150000004
 11
272.68081649999999
 21
417.49531550000006
  0
LINE
  8
_0-0_0
  6
CONTINUOUS
 62
    7
 10
272.68081649999999
 20
417.49531550000006
 11
272.67919949999998
 21
417.59852650000005
  0
LINE
  8
_0-0_0
  6
CONTINUOUS
 62
    7
 10
272.67919949999998
 20
417.59852650000005
 11
272.6846615
 21
417.70182850000003
  0
LINE
  8
_0-0_0
  6
CONTINUOUS
 62
    7
 10
272.6846615
 20
417.70182850000003
 11
272.69726550000001
 21
417.80543550000004
  0
LINE
  8
_0-0_0
  6
CONTINUOUS
 62
    7
 10
272.69726550000001
 20
417.80543550000004
 11
272.71708649999999
 21
417.9095615
  0
LINE
  8
_0-0_0
  6
CONTINUOUS
 62
    7
 10
272.71708649999999
 20
417.9095615
 11
272.74423250000001
 21
418.01454150000006
  0
LINE
  8
_0-0_0
  6
CONTINUOUS
 62
    7
 10
272.74423250000001
 20
418.01454150000006
 11
272.77886950000004
 21
418.12055950000001
  0
LINE
  8
_0-0_0
  6
CONTINUOUS
 62
    7
 10
272.77886950000004
 20
418.12055950000001
 11
272.82122850000002
 21
418.22795150000002
  0
LINE
  8
_0-0_0
  6
CONTINUOUS
 62
    7
 10
272.82122850000002
 20
418.22795150000002
 11
272.87153650000005
 21
418.33695950000003
  0
LINE
  8
_0-0_0
  6
CONTINUOUS
 62
    7
 10
272.87153650000005
 20
418.33695950000003
 11
272.9172365
 21
418.42460649999998
  0
LINE
  8
_0-0_0
  6
CONTINUOUS
 62
    7
 10
282.92892449999999
 20
414.98225450000007
 11
273.22109950000004
 21
414.98225450000007
  0
LINE
  8
_0-0_0
  6
CONTINUOUS
 62
    7
 10
273.22109950000004
 20
414.98225450000007
 11
273.12677050000002
 21
414.73564150000004
  0
LINE
  8
_0-0_0
  6
CONTINUOUS
 62
    7
 10
273.12677050000002
 20
414.73564150000004
 11
273.04281650000001
 21
414.49568150000005
  0
LINE
  8
_0-0_0
  6
CONTINUOUS
 62
    7
 10
273.04281650000001
 20
414.49568150000005
 11
272.9686585
 21
414.2615515
  0
LINE
  8
_0-0_0
  6
CONTINUOUS
 62
    7
 10
272.9686585
 20
414.2615515
 11
272.90377850000004
 21
414.03251650000004
  0
LINE
  8
_0-0_0
  6
CONTINUOUS
 62
    7
 10
272.90377850000004
 20
414.03251650000004
 11
272.84774749999997
 21
413.80784649999998
  0
LINE
  8
_0-0_0
  6
CONTINUOUS
 62
    7
 10
272.84774749999997
 20
413.80784649999998
 11
272.80017050000004
 21
413.58686850000004
  0
LINE
  8
_0-0_0
  6
CONTINUOUS
 62
    7
 10
272.80017050000004
 20
413.58686850000004
 11
272.76077250000003
 21
413.3689425
  0
LINE
  8
_0-0_0
  6
CONTINUOUS
 62
    7
 10
272.76077250000003
 20
413.3689425
 11
272.72927849999996
 21
413.15348849999998
  0
LINE
  8
_0-0_0
  6
CONTINUOUS
 62
    7
 10
272.72927849999996
 20
413.15348849999998
 11
272.70550550000002
 21
412.93995649999999
  0
LINE
  8
_0-0_0
  6
CONTINUOUS
 62
    7
 10
272.70550550000002
 20
412.93995649999999
 11
272.68957550000005
 21
412.73225450000007
  0
LINE
  8
_0-0_0
  6
CONTINUOUS
 62
    7
 10
272.68957550000005
 20
412.73225450000007
 11
272.68081649999999
 21
412.52540650000003
  0
LINE
  8
_0-0_0
  6
CONTINUOUS
 62
    7
 10
272.68081649999999
 20
412.52540650000003
 11
272.67919949999998
 21
412.31892449999998
  0
LINE
  8
_0-0_0
  6
CONTINUOUS
 62
    7
 10
272.67919949999998
 20
412.31892449999998
 11
272.6846615
 21
412.11235050000005
  0
LINE
  8
_0-0_0
  6
CONTINUOUS
 62
    7
 10
272.6846615
 20
412.11235050000005
 11
272.69726550000001
 21
411.90516650000006
  0
LINE
  8
_0-0_0
  6
CONTINUOUS
 62
    7
 10
272.69726550000001
 20
411.90516650000006
 11
272.71708649999999
 21
411.69688450000001
  0
LINE
  8
_0-0_0
  6
CONTINUOUS
 62
    7
 10
272.71708649999999
 20
411.69688450000001
 11
272.74423250000001
 21
411.48695350000003
  0
LINE
  8
_0-0_0
  6
CONTINUOUS
 62
    7
 10
272.74423250000001
 20
411.48695350000003
 11
272.77886950000004
 21
411.27488749999998
  0
LINE
  8
_0-0_0
  6
CONTINUOUS
 62
    7
 10
272.77886950000004
 20
411.27488749999998
 11
272.82122850000002
 21
411.0601355
  0
LINE
  8
_0-0_0
  6
CONTINUOUS
 62
    7
 10
272.82122850000002
 20
411.0601355
 11
272.87153650000005
 21
410.84211749999997
  0
LINE
  8
_0-0_0
  6
CONTINUOUS
 62
    7
 10
272.87153650000005
 20
410.84211749999997
 11
272.92578149999997
 21
410.63584950000006
  0
LINE
  8
_0-0_0
  6
CONTINUOUS
 62
    7
 10
272.92578149999997
 20
410.63584950000006
 11
272.98748750000004
 21
410.42573549999997
  0
LINE
  8
_0-0_0
  6
CONTINUOUS
 62
    7
 10
272.98748750000004
 20
410.42573549999997
 11
273.0570065
 21
410.21125849999999
  0
LINE
  8
_0-0_0
  6
CONTINUOUS
 62
    7
 10
273.0570065
 20
410.21125849999999
 11
273.13473550000003
 21
409.99186750000001
  0
LINE
  8
_0-0_0
  6
CONTINUOUS
 62
    7
 10
273.13473550000003
 20
409.99186750000001
 11
273.22109950000004
 21
409.7668615
  0
LINE
  8
_0-0_0
  6
CONTINUOUS
 62
    7
 10
282.92892449999999
 20
409.7668615
 11
273.22109950000004
 21
409.7668615
  0
ARC
  8
_0-0_0
  6
CONTINUOUS
 62
    7
 10
278.09265149999999
 20
415.62455750000004
 40
4.9136889999999998
 50
172.48898299999999
 51
187.51101699999998
  0
LINE
  8
_0-0_0
  6
CONTINUOUS
 62
    7
 10
282.92892449999999
 20
408.48225450000007
 11
273.22109950000004
 21
408.48225450000007
  0
LINE
  8
_0-0_0
  6
CONTINUOUS
 62
    7
 10
273.22109950000004
 20
405.87455750000004
 11
273.16662650000001
 21
405.9445035
  0
LINE
  8
_0-0_0
  6
CONTINUOUS
 62
    7
 10
273.16662650000001
 20
405.9445035
 11
273.11552449999999
 21
406.01332149999996
  0
LINE
  8
_0-0_0
  6
CONTINUOUS
 62
    7
 10
273.11552449999999
 20
406.01332149999996
 11
273.06788649999999
 21
406.08082550000006
  0
LINE
  8
_0-0_0
  6
CONTINUOUS
 62
    7
 10
273.06788649999999
 20
406.08082550000006
 11
273.02337650000004
 21
406.14738450000004
  0
LINE
  8
_0-0_0
  6
CONTINUOUS
 62
    7
 10
273.02337650000004
 20
406.14738450000004
 11
272.9686585
 21
406.2349395
  0
LINE
  8
_0-0_0
  6
CONTINUOUS
 62
    7
 10
272.9686585
 20
406.2349395
 11
272.91915849999998
 21
406.32102950000001
  0
LINE
  8
_0-0_0
  6
CONTINUOUS
 62
    7
 10
272.91915849999998
 20
406.32102950000001
 11
272.87469450000003
 21
406.4058685
  0
LINE
  8
_0-0_0
  6
CONTINUOUS
 62
    7
 10
272.87469450000003
 20
406.4058685
 11
272.82772850000003
 21
406.50617950000003
  0
LINE
  8
_0-0_0
  6
CONTINUOUS
 62
    7
 10
272.82772850000003
 20
406.50617950000003
 11
272.78750650000001
 21
406.60511750000001
  0
LINE
  8
_0-0_0
  6
CONTINUOUS
 62
    7
 10
272.78750650000001
 20
406.60511750000001
 11
272.75384550000001
 21
406.70286550000003
  0
LINE
  8
_0-0_0
  6
CONTINUOUS
 62
    7
 10
272.75384550000001
 20
406.70286550000003
 11
272.7265625
 21
406.79966750000006
  0
LINE
  8
_0-0_0
  6
CONTINUOUS
 62
    7
 10
272.7265625
 20
406.79966750000006
 11
272.70550550000002
 21
406.89570649999996
  0
LINE
  8
_0-0_0
  6
CONTINUOUS
 62
    7
 10
272.70550550000002
 20
406.89570649999996
 11
272.68957550000005
 21
406.99958849999996
  0
LINE
  8
_0-0_0
  6
CONTINUOUS
 62
    7
 10
272.68957550000005
 20
406.99958849999996
 11
272.68081649999999
 21
407.10301249999998
  0
LINE
  8
_0-0_0
  6
CONTINUOUS
 62
    7
 10
272.68081649999999
 20
407.10301249999998
 11
272.67919949999998
 21
407.2062535
  0
LINE
  8
_0-0_0
  6
CONTINUOUS
 62
    7
 10
272.67919949999998
 20
407.2062535
 11
272.6846615
 21
407.30952450000007
  0
LINE
  8
_0-0_0
  6
CONTINUOUS
 62
    7
 10
272.6846615
 20
407.30952450000007
 11
272.69726550000001
 21
407.41313149999996
  0
LINE
  8
_0-0_0
  6
CONTINUOUS
 62
    7
 10
272.69726550000001
 20
407.41313149999996
 11
272.71708649999999
 21
407.51725750000003
  0
LINE
  8
_0-0_0
  6
CONTINUOUS
 62
    7
 10
272.71708649999999
 20
407.51725750000003
 11
272.74423250000001
 21
407.62223849999998
  0
LINE
  8
_0-0_0
  6
CONTINUOUS
 62
    7
 10
272.74423250000001
 20
407.62223849999998
 11
272.77886950000004
 21
407.72825650000004
  0
LINE
  8
_0-0_0
  6
CONTINUOUS
 62
    7
 10
272.77886950000004
 20
407.72825650000004
 11
272.82122850000002
 21
407.83564750000005
  0
LINE
  8
_0-0_0
  6
CONTINUOUS
 62
    7
 10
272.82122850000002
 20
407.83564750000005
 11
272.87153650000005
 21
407.94462550000003
  0
LINE
  8
_0-0_0
  6
CONTINUOUS
 62
    7
 10
272.87153650000005
 20
407.94462550000003
 11
272.92578149999997
 21
408.04777550000006
  0
LINE
  8
_0-0_0
  6
CONTINUOUS
 62
    7
 10
272.92578149999997
 20
408.04777550000006
 11
272.98748750000004
 21
408.15284750000001
  0
LINE
  8
_0-0_0
  6
CONTINUOUS
 62
    7
 10
272.98748750000004
 20
408.15284750000001
 11
273.0570065
 21
408.26008650000006
  0
LINE
  8
_0-0_0
  6
CONTINUOUS
 62
    7
 10
273.0570065
 20
408.26008650000006
 11
273.13473550000003
 21
408.36976649999997
  0
LINE
  8
_0-0_0
  6
CONTINUOUS
 62
    7
 10
273.13473550000003
 20
408.36976649999997
 11
273.22109950000004
 21
408.48225450000007
  0
LINE
  8
_0-0_0
  6
CONTINUOUS
 62
    7
 10
282.92892449999999
 20
405.87455750000004
 11
273.22109950000004
 21
405.87455750000004
  0
ARC
  8
_0-0_0
  6
CONTINUOUS
 62
    7
 10
278.10281350000002
 20
409.1236725
 40
4.9238749999999998
 50
172.49424200000001
 51
181.535968
  0
ARC
  8
_0-0_0
  6
CONTINUOUS
 62
    7
 10
278.14083849999997
 20
409.12864650000006
 40
4.9620009999999999
 50
181.58130700000004
 51
187.48478900000003
  0
LINE
  8
_0-0_0
  6
CONTINUOUS
 62
    7
 10
273.17892449999999
 20
405.87455750000004
 11
273.22109950000004
 21
405.87455750000004
  0
LINE
  8
_0-0_0
  6
CONTINUOUS
 62
    7
 10
267.92892449999999
 20
405.3000035
 11
267.67892449999999
 21
405.32456950000005
  0
LINE
  8
_0-0_0
  6
CONTINUOUS
 62
    7
 10
267.92892449999999
 20
405.09605450000004
 11
267.67892449999999
 21
405.32456950000005
  0
LINE
  8
_0-0_0
  6
CONTINUOUS
 62
    7
 10
267.92892449999999
 20
405.49055450000003
 11
267.67892449999999
 21
405.54402149999999
  0
LINE
  8
_0-0_0
  6
CONTINUOUS
 62
    7
 10
267.92892449999999
 20
405.3000035
 11
267.67892449999999
 21
405.54402149999999
  0
LINE
  8
_0-0_0
  6
CONTINUOUS
 62
    7
 10
267.92892449999999
 20
405.66557350000005
 11
267.67892449999999
 21
405.74739050000005
  0
LINE
  8
_0-0_0
  6
CONTINUOUS
 62
    7
 10
267.92892449999999
 20
405.49055450000003
 11
267.67892449999999
 21
405.74739050000005
  0
LINE
  8
_0-0_0
  6
CONTINUOUS
 62
    7
 10
267.92892449999999
 20
405.82313550000003
 11
267.67892449999999
 21
405.93241850000004
  0
LINE
  8
_0-0_0
  6
CONTINUOUS
 62
    7
 10
267.92892449999999
 20
405.66557350000005
 11
267.67892449999999
 21
405.93241850000004
  0
LINE
  8
_0-0_0
  6
CONTINUOUS
 62
    7
 10
267.92892449999999
 20
405.96159350000005
 11
267.67892449999999
 21
406.09712249999995
  0
LINE
  8
_0-0_0
  6
CONTINUOUS
 62
    7
 10
267.92892449999999
 20
405.82313550000003
 11
267.67892449999999
 21
406.09712249999995
  0
LINE
  8
_0-0_0
  6
CONTINUOUS
 62
    7
 10
267.92892449999999
 20
406.07933049999997
 11
267.67892449999999
 21
406.23963950000007
  0
LINE
  8
_0-0_0
  6
CONTINUOUS
 62
    7
 10
267.92892449999999
 20
405.96159350000005
 11
267.67892449999999
 21
406.23963950000007
  0
LINE
  8
_0-0_0
  6
CONTINUOUS
 62
    7
 10
267.92892449999999
 20
406.17512550000004
 11
267.67892449999999
 21
406.35844450000002
  0
LINE
  8
_0-0_0
  6
CONTINUOUS
 62
    7
 10
267.92892449999999
 20
406.07933049999997
 11
267.67892449999999
 21
406.35844450000002
  0
LINE
  8
_0-0_0
  6
CONTINUOUS
 62
    7
 10
267.92892449999999
 20
406.24790949999999
 11
267.67892449999999
 21
406.45222450000006
  0
LINE
  8
_0-0_0
  6
CONTINUOUS
 62
    7
 10
267.92892449999999
 20
406.17512550000004
 11
267.67892449999999
 21
406.45222450000006
  0
LINE
  8
_0-0_0
  6
CONTINUOUS
 62
    7
 10
267.92892449999999
 20
406.29685949999998
 11
267.67892449999999
 21
406.51994350000007
  0
LINE
  8
_0-0_0
  6
CONTINUOUS
 62
    7
 10
267.92892449999999
 20
406.24790949999999
 11
267.67892449999999
 21
406.51994350000007
  0
LINE
  8
_0-0_0
  6
CONTINUOUS
 62
    7
 10
267.92892449999999
 20
406.32148749999999
 11
267.67892449999999
 21
406.56086749999997
  0
LINE
  8
_0-0_0
  6
CONTINUOUS
 62
    7
 10
267.92892449999999
 20
406.29685949999998
 11
267.67892449999999
 21
406.56086749999997
  0
LINE
  8
_0-0_0
  6
CONTINUOUS
 62
    7
 10
267.92892449999999
 20
406.32148749999999
 11
267.67892449999999
 21
406.57456950000005
  0
LINE
  8
_0-0_0
  6
CONTINUOUS
 62
    7
 10
267.92892449999999
 20
401.8276525
 11
267.67892449999999
 21
401.57456950000005
  0
LINE
  8
_0-0_0
  6
CONTINUOUS
 62
    7
 10
267.92892449999999
 20
401.85227950000001
 11
267.67892449999999
 21
401.58827250000002
  0
LINE
  8
_0-0_0
  6
CONTINUOUS
 62
    7
 10
267.92892449999999
 20
401.8276525
 11
267.67892449999999
 21
401.58827250000002
  0
LINE
  8
_0-0_0
  6
CONTINUOUS
 62
    7
 10
267.92892449999999
 20
401.9012295
 11
267.67892449999999
 21
401.62919650000003
  0
LINE
  8
_0-0_0
  6
CONTINUOUS
 62
    7
 10
267.92892449999999
 20
401.85227950000001
 11
267.67892449999999
 21
401.62919650000003
  0
LINE
  8
_0-0_0
  6
CONTINUOUS
 62
    7
 10
267.92892449999999
 20
401.97401450000007
 11
267.67892449999999
 21
401.69691450000005
  0
LINE
  8
_0-0_0
  6
CONTINUOUS
 62
    7
 10
267.92892449999999
 20
401.9012295
 11
267.67892449999999
 21
401.69691450000005
  0
LINE
  8
_0-0_0
  6
CONTINUOUS
 62
    7
 10
267.92892449999999
 20
402.06980950000002
 11
267.67892449999999
 21
401.79069549999997
  0
LINE
  8
_0-0_0
  6
CONTINUOUS
 62
    7
 10
267.92892449999999
 20
401.97401450000007
 11
267.67892449999999
 21
401.79069549999997
  0
LINE
  8
_0-0_0
  6
CONTINUOUS
 62
    7
 10
267.92892449999999
 20
402.06980950000002
 11
267.79896550000001
 21
401.98594650000007
  0
LINE
  8
_0-0_0
  6
CONTINUOUS
 62
    7
 10
267.92892449999999
 20
402.18754550000006
 11
267.67892449999999
 21
401.90950050000004
  0
LINE
  8
_0-0_0
  6
CONTINUOUS
 62
    7
 10
267.79896550000001
 20
401.98594650000007
 11
267.67892449999999
 21
401.90950050000004
  0
LINE
  8
_0-0_0
  6
CONTINUOUS
 62
    7
 10
267.92892449999999
 20
402.32600450000007
 11
267.67892449999999
 21
402.05201750000003
  0
LINE
  8
_0-0_0
  6
CONTINUOUS
 62
    7
 10
267.92892449999999
 20
402.18754550000006
 11
267.67892449999999
 21
402.05201750000003
  0
LINE
  8
_0-0_0
  6
CONTINUOUS
 62
    7
 10
267.92892449999999
 20
402.48359649999998
 11
267.67892449999999
 21
402.21672050000006
  0
LINE
  8
_0-0_0
  6
CONTINUOUS
 62
    7
 10
267.92892449999999
 20
402.32600450000007
 11
267.67892449999999
 21
402.21672050000006
  0
LINE
  8
_0-0_0
  6
CONTINUOUS
 62
    7
 10
267.92892449999999
 20
402.65858449999996
 11
267.67892449999999
 21
402.40174850000005
  0
LINE
  8
_0-0_0
  6
CONTINUOUS
 62
    7
 10
267.92892449999999
 20
402.48359649999998
 11
267.67892449999999
 21
402.40174850000005
  0
LINE
  8
_0-0_0
  6
CONTINUOUS
 62
    7
 10
267.92892449999999
 20
402.84913649999999
 11
267.67892449999999
 21
402.60511750000001
  0
LINE
  8
_0-0_0
  6
CONTINUOUS
 62
    7
 10
267.92892449999999
 20
402.65858449999996
 11
267.67892449999999
 21
402.60511750000001
  0
LINE
  8
_0-0_0
  6
CONTINUOUS
 62
    7
 10
267.92892449999999
 20
403.05308550000007
 11
267.67892449999999
 21
402.82456950000005
  0
LINE
  8
_0-0_0
  6
CONTINUOUS
 62
    7
 10
267.92892449999999
 20
402.84913649999999
 11
267.67892449999999
 21
402.82456950000005
  0
LINE
  8
_0-0_0
  6
CONTINUOUS
 62
    7
 10
267.92892449999999
 20
403.26823450000006
 11
267.67892449999999
 21
403.05772450000006
  0
LINE
  8
_0-0_0
  6
CONTINUOUS
 62
    7
 10
267.92892449999999
 20
403.05308550000007
 11
267.67892449999999
 21
403.05772450000006
  0
LINE
  8
_0-0_0
  6
CONTINUOUS
 62
    7
 10
267.92892449999999
 20
403.4922335
 11
267.67892449999999
 21
403.30201750000003
  0
LINE
  8
_0-0_0
  6
CONTINUOUS
 62
    7
 10
267.92892449999999
 20
403.26823450000006
 11
267.67892449999999
 21
403.30201750000003
  0
LINE
  8
_0-0_0
  6
CONTINUOUS
 62
    7
 10
267.92892449999999
 20
403.72258050000005
 11
267.67892449999999
 21
403.55479449999996
  0
LINE
  8
_0-0_0
  6
CONTINUOUS
 62
    7
 10
267.92892449999999
 20
403.4922335
 11
267.67892449999999
 21
403.55479449999996
  0
LINE
  8
_0-0_0
  6
CONTINUOUS
 62
    7
 10
267.92892449999999
 20
403.95680249999998
 11
267.67892449999999
 21
403.81324749999999
  0
LINE
  8
_0-0_0
  6
CONTINUOUS
 62
    7
 10
267.92892449999999
 20
403.72258050000005
 11
267.67892449999999
 21
403.81324749999999
  0
LINE
  8
_0-0_0
  6
CONTINUOUS
 62
    7
 10
267.92892449999999
 20
404.19233750000001
 11
267.67892449999999
 21
404.07456950000005
  0
LINE
  8
_0-0_0
  6
CONTINUOUS
 62
    7
 10
267.92892449999999
 20
403.95680249999998
 11
267.67892449999999
 21
404.07456950000005
  0
LINE
  8
_0-0_0
  6
CONTINUOUS
 62
    7
 10
267.92892449999999
 20
404.42655950000005
 11
267.67892449999999
 21
404.3358915
  0
LINE
  8
_0-0_0
  6
CONTINUOUS
 62
    7
 10
267.92892449999999
 20
404.19233750000001
 11
267.67892449999999
 21
404.3358915
  0
LINE
  8
_0-0_0
  6
CONTINUOUS
 62
    7
 10
267.92892449999999
 20
404.65690649999999
 11
267.67892449999999
 21
404.59434550000003
  0
LINE
  8
_0-0_0
  6
CONTINUOUS
 62
    7
 10
267.92892449999999
 20
404.42655950000005
 11
267.67892449999999
 21
404.59434550000003
  0
LINE
  8
_0-0_0
  6
CONTINUOUS
 62
    7
 10
267.92892449999999
 20
404.88090550000004
 11
267.67892449999999
 21
404.84712249999995
  0
LINE
  8
_0-0_0
  6
CONTINUOUS
 62
    7
 10
267.92892449999999
 20
404.65690649999999
 11
267.67892449999999
 21
404.84712249999995
  0
LINE
  8
_0-0_0
  6
CONTINUOUS
 62
    7
 10
267.92892449999999
 20
405.09605450000004
 11
267.67892449999999
 21
405.09141550000004
  0
LINE
  8
_0-0_0
  6
CONTINUOUS
 62
    7
 10
267.92892449999999
 20
404.88090550000004
 11
267.67892449999999
 21
405.09141550000004
  0
LINE
  8
_0-0_0
  6
CONTINUOUS
 62
    7
 10
258.17892449999999
 20
421.90000950000001
 11
258.42892449999999
 21
421.92457550000006
  0
LINE
  8
_0-0_0
  6
CONTINUOUS
 62
    7
 10
258.42892449999999
 20
421.92457550000006
 11
267.67892449999999
 21
421.92457550000006
  0
LINE
  8
_0-0_0
  6
CONTINUOUS
 62
    7
 10
258.17892449999999
 20
421.69606050000004
 11
258.42892449999999
 21
421.92457550000006
  0
LINE
  8
_0-0_0
  6
CONTINUOUS
 62
    7
 10
258.17892449999999
 20
421.69606050000004
 11
267.92892449999999
 21
421.69606050000004
  0
LINE
  8
_0-0_0
  6
CONTINUOUS
 62
    7
 10
258.17892449999999
 20
422.0905305
 11
258.42892449999999
 21
422.14402749999999
  0
LINE
  8
_0-0_0
  6
CONTINUOUS
 62
    7
 10
258.42892449999999
 20
422.14402749999999
 11
267.67892449999999
 21
422.14402749999999
  0
LINE
  8
_0-0_0
  6
CONTINUOUS
 62
    7
 10
258.17892449999999
 20
421.90000950000001
 11
258.42892449999999
 21
422.14402749999999
  0
LINE
  8
_0-0_0
  6
CONTINUOUS
 62
    7
 10
258.17892449999999
 20
422.26554850000002
 11
258.42892449999999
 21
422.34739650000006
  0
LINE
  8
_0-0_0
  6
CONTINUOUS
 62
    7
 10
258.42892449999999
 20
422.34739650000006
 11
267.67892449999999
 21
422.34739650000006
  0
LINE
  8
_0-0_0
  6
CONTINUOUS
 62
    7
 10
258.17892449999999
 20
422.0905305
 11
258.42892449999999
 21
422.34739650000006
  0
LINE
  8
_0-0_0
  6
CONTINUOUS
 62
    7
 10
258.17892449999999
 20
422.42314150000004
 11
258.42892449999999
 21
422.53242550000004
  0
LINE
  8
_0-0_0
  6
CONTINUOUS
 62
    7
 10
258.42892449999999
 20
422.53242550000004
 11
267.67892449999999
 21
422.53242550000004
  0
LINE
  8
_0-0_0
  6
CONTINUOUS
 62
    7
 10
258.17892449999999
 20
422.26554850000002
 11
258.42892449999999
 21
422.53242550000004
  0
LINE
  8
_0-0_0
  6
CONTINUOUS
 62
    7
 10
258.17892449999999
 20
422.56156950000002
 11
258.42892449999999
 21
422.69712849999996
  0
LINE
  8
_0-0_0
  6
CONTINUOUS
 62
    7
 10
258.42892449999999
 20
422.69712849999996
 11
267.67892449999999
 21
422.69712849999996
  0
LINE
  8
_0-0_0
  6
CONTINUOUS
 62
    7
 10
258.17892449999999
 20
422.42314150000004
 11
258.42892449999999
 21
422.69712849999996
  0
LINE
  8
_0-0_0
  6
CONTINUOUS
 62
    7
 10
258.17892449999999
 20
422.67933649999998
 11
258.42892449999999
 21
422.83964549999996
  0
LINE
  8
_0-0_0
  6
CONTINUOUS
 62
    7
 10
258.42892449999999
 20
422.83964549999996
 11
267.67892449999999
 21
422.83964549999996
  0
LINE
  8
_0-0_0
  6
CONTINUOUS
 62
    7
 10
258.17892449999999
 20
422.56156950000002
 11
258.42892449999999
 21
422.83964549999996
  0
LINE
  8
_0-0_0
  6
CONTINUOUS
 62
    7
 10
258.17892449999999
 20
422.77513150000004
 11
258.42892449999999
 21
422.95845050000003
  0
LINE
  8
_0-0_0
  6
CONTINUOUS
 62
    7
 10
258.42892449999999
 20
422.95845050000003
 11
267.67892449999999
 21
422.95845050000003
  0
LINE
  8
_0-0_0
  6
CONTINUOUS
 62
    7
 10
258.17892449999999
 20
422.67933649999998
 11
258.42892449999999
 21
422.95845050000003
  0
LINE
  8
_0-0_0
  6
CONTINUOUS
 62
    7
 10
258.17892449999999
 20
422.8479155
 11
258.42892449999999
 21
423.05220050000003
  0
LINE
  8
_0-0_0
  6
CONTINUOUS
 62
    7
 10
258.42892449999999
 20
423.05220050000003
 11
267.67892449999999
 21
423.05220050000003
  0
LINE
  8
_0-0_0
  6
CONTINUOUS
 62
    7
 10
258.17892449999999
 20
422.77513150000004
 11
258.42892449999999
 21
423.05220050000003
  0
LINE
  8
_0-0_0
  6
CONTINUOUS
 62
    7
 10
258.17892449999999
 20
422.89686549999999
 11
258.42892449999999
 21
423.11994949999996
  0
LINE
  8
_0-0_0
  6
CONTINUOUS
 62
    7
 10
258.42892449999999
 20
423.11994949999996
 11
267.67892449999999
 21
423.11994949999996
  0
LINE
  8
_0-0_0
  6
CONTINUOUS
 62
    7
 10
258.17892449999999
 20
422.8479155
 11
258.42892449999999
 21
423.11994949999996
  0
LINE
  8
_0-0_0
  6
CONTINUOUS
 62
    7
 10
258.17892449999999
 20
422.9214935
 11
258.42892449999999
 21
423.16087349999998
  0
LINE
  8
_0-0_0
  6
CONTINUOUS
 62
    7
 10
258.42892449999999
 20
423.16087349999998
 11
267.67892449999999
 21
423.16087349999998
  0
LINE
  8
_0-0_0
  6
CONTINUOUS
 62
    7
 10
258.17892449999999
 20
422.89686549999999
 11
258.42892449999999
 21
423.16087349999998
  0
LINE
  8
_0-0_0
  6
CONTINUOUS
 62
    7
 10
258.42892449999999
 20
423.17457550000006
 11
267.67892449999999
 21
423.17457550000006
  0
LINE
  8
_0-0_0
  6
CONTINUOUS
 62
    7
 10
258.17892449999999
 20
422.9214935
 11
258.42892449999999
 21
423.17457550000006
  0
LINE
  8
_0-0_0
  6
CONTINUOUS
 62
    7
 10
258.17892449999999
 20
418.42765850000001
 11
258.42892449999999
 21
418.17457550000006
  0
LINE
  8
_0-0_0
  6
CONTINUOUS
 62
    7
 10
258.42892449999999
 20
418.17457550000006
 11
267.67892449999999
 21
418.17457550000006
  0
LINE
  8
_0-0_0
  6
CONTINUOUS
 62
    7
 10
258.17892449999999
 20
418.45228550000002
 11
258.42892449999999
 21
418.18827850000002
  0
LINE
  8
_0-0_0
  6
CONTINUOUS
 62
    7
 10
258.42892449999999
 20
418.18827850000002
 11
267.67892449999999
 21
418.18827850000002
  0
LINE
  8
_0-0_0
  6
CONTINUOUS
 62
    7
 10
258.17892449999999
 20
418.42765850000001
 11
258.42892449999999
 21
418.18827850000002
  0
LINE
  8
_0-0_0
  6
CONTINUOUS
 62
    7
 10
258.17892449999999
 20
418.5012365
 11
258.42892449999999
 21
418.22920250000004
  0
LINE
  8
_0-0_0
  6
CONTINUOUS
 62
    7
 10
258.42892449999999
 20
418.22920250000004
 11
267.67892449999999
 21
418.22920250000004
  0
LINE
  8
_0-0_0
  6
CONTINUOUS
 62
    7
 10
258.17892449999999
 20
418.45228550000002
 11
258.42892449999999
 21
418.22920250000004
  0
LINE
  8
_0-0_0
  6
CONTINUOUS
 62
    7
 10
258.17892449999999
 20
418.57402049999996
 11
258.42892449999999
 21
418.29692050000006
  0
LINE
  8
_0-0_0
  6
CONTINUOUS
 62
    7
 10
258.42892449999999
 20
418.29692050000006
 11
267.67892449999999
 21
418.29692050000006
  0
LINE
  8
_0-0_0
  6
CONTINUOUS
 62
    7
 10
258.17892449999999
 20
418.5012365
 11
258.42892449999999
 21
418.29692050000006
  0
LINE
  8
_0-0_0
  6
CONTINUOUS
 62
    7
 10
258.17892449999999
 20
418.66981550000003
 11
258.42892449999999
 21
418.39070149999998
  0
LINE
  8
_0-0_0
  6
CONTINUOUS
 62
    7
 10
258.42892449999999
 20
418.39070149999998
 11
267.67892449999999
 21
418.39070149999998
  0
LINE
  8
_0-0_0
  6
CONTINUOUS
 62
    7
 10
258.17892449999999
 20
418.57402049999996
 11
258.42892449999999
 21
418.39070149999998
  0
LINE
  8
_0-0_0
  6
CONTINUOUS
 62
    7
 10
258.42892449999999
 20
418.50950650000004
 11
267.67892449999999
 21
418.50950650000004
  0
LINE
  8
_0-0_0
  6
CONTINUOUS
 62
    7
 10
258.3088985
 20
418.58595249999996
 11
258.42892449999999
 21
418.50950650000004
  0
LINE
  8
_0-0_0
  6
CONTINUOUS
 62
    7
 10
258.17892449999999
 20
418.66981550000003
 11
258.3088985
 21
418.58595249999996
  0
LINE
  8
_0-0_0
  6
CONTINUOUS
 62
    7
 10
258.17892449999999
 20
418.78755250000006
 11
258.42892449999999
 21
418.50950650000004
  0
LINE
  8
_0-0_0
  6
CONTINUOUS
 62
    7
 10
258.17892449999999
 20
418.92597950000004
 11
258.42892449999999
 21
418.65202350000004
  0
LINE
  8
_0-0_0
  6
CONTINUOUS
 62
    7
 10
258.42892449999999
 20
418.65202350000004
 11
267.67892449999999
 21
418.65202350000004
  0
LINE
  8
_0-0_0
  6
CONTINUOUS
 62
    7
 10
258.17892449999999
 20
418.78755250000006
 11
258.42892449999999
 21
418.65202350000004
  0
LINE
  8
_0-0_0
  6
CONTINUOUS
 62
    7
 10
258.17892449999999
 20
419.08357250000006
 11
258.42892449999999
 21
418.81669650000003
  0
LINE
  8
_0-0_0
  6
CONTINUOUS
 62
    7
 10
258.42892449999999
 20
418.81669650000003
 11
267.67892449999999
 21
418.81669650000003
  0
LINE
  8
_0-0_0
  6
CONTINUOUS
 62
    7
 10
258.17892449999999
 20
418.92597950000004
 11
258.42892449999999
 21
418.81669650000003
  0
LINE
  8
_0-0_0
  6
CONTINUOUS
 62
    7
 10
258.17892449999999
 20
419.25859049999997
 11
258.42892449999999
 21
419.00175450000006
  0
LINE
  8
_0-0_0
  6
CONTINUOUS
 62
    7
 10
258.42892449999999
 20
419.00175450000006
 11
267.67892449999999
 21
419.00175450000006
  0
LINE
  8
_0-0_0
  6
CONTINUOUS
 62
    7
 10
258.17892449999999
 20
419.08357250000006
 11
258.42892449999999
 21
419.00175450000006
  0
LINE
  8
_0-0_0
  6
CONTINUOUS
 62
    7
 10
258.17892449999999
 20
419.44914249999999
 11
258.42892449999999
 21
419.20509349999998
  0
LINE
  8
_0-0_0
  6
CONTINUOUS
 62
    7
 10
258.42892449999999
 20
419.20509349999998
 11
267.67892449999999
 21
419.20509349999998
  0
LINE
  8
_0-0_0
  6
CONTINUOUS
 62
    7
 10
258.17892449999999
 20
419.25859049999997
 11
258.42892449999999
 21
419.20509349999998
  0
LINE
  8
_0-0_0
  6
CONTINUOUS
 62
    7
 10
258.17892449999999
 20
419.65309149999996
 11
258.42892449999999
 21
419.42457550000006
  0
LINE
  8
_0-0_0
  6
CONTINUOUS
 62
    7
 10
258.42892449999999
 20
419.42457550000006
 11
267.67892449999999
 21
419.42457550000006
  0
LINE
  8
_0-0_0
  6
CONTINUOUS
 62
    7
 10
258.17892449999999
 20
419.65309149999996
 11
267.92892449999999
 21
419.65309149999996
  0
LINE
  8
_0-0_0
  6
CONTINUOUS
 62
    7
 10
258.17892449999999
 20
419.44914249999999
 11
258.42892449999999
 21
419.42457550000006
  0
LINE
  8
_0-0_0
  6
CONTINUOUS
 62
    7
 10
258.17892449999999
 20
419.86824049999996
 11
258.42892449999999
 21
419.65773049999996
  0
LINE
  8
_0-0_0
  6
CONTINUOUS
 62
    7
 10
258.42892449999999
 20
419.65773049999996
 11
267.67892449999999
 21
419.65773049999996
  0
LINE
  8
_0-0_0
  6
CONTINUOUS
 62
    7
 10
258.17892449999999
 20
419.86824049999996
 11
267.92892449999999
 21
419.86824049999996
  0
LINE
  8
_0-0_0
  6
CONTINUOUS
 62
    7
 10
258.17892449999999
 20
419.65309149999996
 11
258.42892449999999
 21
419.65773049999996
  0
LINE
  8
_0-0_0
  6
CONTINUOUS
 62
    7
 10
258.17892449999999
 20
420.09223950000001
 11
258.42892449999999
 21
419.90202350000004
  0
LINE
  8
_0-0_0
  6
CONTINUOUS
 62
    7
 10
258.42892449999999
 20
419.90202350000004
 11
267.67892449999999
 21
419.90202350000004
  0
LINE
  8
_0-0_0
  6
CONTINUOUS
 62
    7
 10
258.17892449999999
 20
420.09223950000001
 11
267.92892449999999
 21
420.09223950000001
  0
LINE
  8
_0-0_0
  6
CONTINUOUS
 62
    7
 10
258.17892449999999
 20
419.86824049999996
 11
258.42892449999999
 21
419.90202350000004
  0
LINE
  8
_0-0_0
  6
CONTINUOUS
 62
    7
 10
258.17892449999999
 20
420.32258650000006
 11
258.42892449999999
 21
420.15480049999996
  0
LINE
  8
_0-0_0
  6
CONTINUOUS
 62
    7
 10
258.42892449999999
 20
420.15480049999996
 11
267.67892449999999
 21
420.15480049999996
  0
LINE
  8
_0-0_0
  6
CONTINUOUS
 62
    7
 10
258.17892449999999
 20
420.32258650000006
 11
267.92892449999999
 21
420.32258650000006
  0
LINE
  8
_0-0_0
  6
CONTINUOUS
 62
    7
 10
258.17892449999999
 20
420.09223950000001
 11
258.42892449999999
 21
420.15480049999996
  0
LINE
  8
_0-0_0
  6
CONTINUOUS
 62
    7
 10
258.17892449999999
 20
420.55680849999999
 11
258.42892449999999
 21
420.4132535
  0
LINE
  8
_0-0_0
  6
CONTINUOUS
 62
    7
 10
258.42892449999999
 20
420.4132535
 11
267.67892449999999
 21
420.4132535
  0
LINE
  8
_0-0_0
  6
CONTINUOUS
 62
    7
 10
258.17892449999999
 20
420.55680849999999
 11
267.92892449999999
 21
420.55680849999999
  0
LINE
  8
_0-0_0
  6
CONTINUOUS
 62
    7
 10
258.17892449999999
 20
420.32258650000006
 11
258.42892449999999
 21
420.4132535
  0
LINE
  8
_0-0_0
  6
CONTINUOUS
 62
    7
 10
258.17892449999999
 20
420.79231249999998
 11
258.42892449999999
 21
420.67457550000006
  0
LINE
  8
_0-0_0
  6
CONTINUOUS
 62
    7
 10
258.42892449999999
 20
420.67457550000006
 11
267.67892449999999
 21
420.67457550000006
  0
LINE
  8
_0-0_0
  6
CONTINUOUS
 62
    7
 10
258.17892449999999
 20
420.79231249999998
 11
267.92892449999999
 21
420.79231249999998
  0
LINE
  8
_0-0_0
  6
CONTINUOUS
 62
    7
 10
258.17892449999999
 20
420.55680849999999
 11
258.42892449999999
 21
420.67457550000006
  0
LINE
  8
_0-0_0
  6
CONTINUOUS
 62
    7
 10
258.17892449999999
 20
421.02653550000002
 11
258.42892449999999
 21
420.93589750000001
  0
LINE
  8
_0-0_0
  6
CONTINUOUS
 62
    7
 10
258.42892449999999
 20
420.93589750000001
 11
267.67892449999999
 21
420.93589750000001
  0
LINE
  8
_0-0_0
  6
CONTINUOUS
 62
    7
 10
258.17892449999999
 20
421.02653550000002
 11
267.92892449999999
 21
421.02653550000002
  0
LINE
  8
_0-0_0
  6
CONTINUOUS
 62
    7
 10
258.17892449999999
 20
420.79231249999998
 11
258.42892449999999
 21
420.93589750000001
  0
LINE
  8
_0-0_0
  6
CONTINUOUS
 62
    7
 10
258.17892449999999
 20
421.2569125
 11
258.42892449999999
 21
421.19435150000004
  0
LINE
  8
_0-0_0
  6
CONTINUOUS
 62
    7
 10
258.42892449999999
 20
421.19435150000004
 11
267.67892449999999
 21
421.19435150000004
  0
LINE
  8
_0-0_0
  6
CONTINUOUS
 62
    7
 10
258.17892449999999
 20
421.2569125
 11
267.92892449999999
 21
421.2569125
  0
LINE
  8
_0-0_0
  6
CONTINUOUS
 62
    7
 10
258.17892449999999
 20
421.02653550000002
 11
258.42892449999999
 21
421.19435150000004
  0
LINE
  8
_0-0_0
  6
CONTINUOUS
 62
    7
 10
258.17892449999999
 20
421.48091150000005
 11
258.42892449999999
 21
421.44712849999996
  0
LINE
  8
_0-0_0
  6
CONTINUOUS
 62
    7
 10
258.42892449999999
 20
421.44712849999996
 11
267.67892449999999
 21
421.44712849999996
  0
LINE
  8
_0-0_0
  6
CONTINUOUS
 62
    7
 10
258.17892449999999
 20
421.48091150000005
 11
267.92892449999999
 21
421.48091150000005
  0
LINE
  8
_0-0_0
  6
CONTINUOUS
 62
    7
 10
258.17892449999999
 20
421.2569125
 11
258.42892449999999
 21
421.44712849999996
  0
LINE
  8
_0-0_0
  6
CONTINUOUS
 62
    7
 10
258.17892449999999
 20
421.69606050000004
 11
258.42892449999999
 21
421.69142150000005
  0
LINE
  8
_0-0_0
  6
CONTINUOUS
 62
    7
 10
258.42892449999999
 20
421.69142150000005
 11
267.67892449999999
 21
421.69142150000005
  0
LINE
  8
_0-0_0
  6
CONTINUOUS
 62
    7
 10
258.17892449999999
 20
421.48091150000005
 11
258.42892449999999
 21
421.69142150000005
  0
LINE
  8
_0-0_0
  6
CONTINUOUS
 62
    7
 10
271.92892449999999
 20
417.62455750000004
 11
271.92892449999999
 21
409.64302050000003
  0
LINE
  8
_0-0_0
  6
CONTINUOUS
 62
    7
 10
271.92892449999999
 20
409.64302050000003
 11
271.92892449999999
 21
407.12455750000004
  0
LINE
  8
_0-0_0
  6
CONTINUOUS
 62
    7
 10
258.17892449999999
 20
405.3000035
 11
258.42892449999999
 21
405.32456950000005
  0
LINE
  8
_0-0_0
  6
CONTINUOUS
 62
    7
 10
258.42892449999999
 20
405.32456950000005
 11
267.67892449999999
 21
405.32456950000005
  0
LINE
  8
_0-0_0
  6
CONTINUOUS
 62
    7
 10
258.17892449999999
 20
405.09605450000004
 11
258.42892449999999
 21
405.32456950000005
  0
LINE
  8
_0-0_0
  6
CONTINUOUS
 62
    7
 10
258.17892449999999
 20
405.09605450000004
 11
267.92892449999999
 21
405.09605450000004
  0
LINE
  8
_0-0_0
  6
CONTINUOUS
 62
    7
 10
258.17892449999999
 20
405.49055450000003
 11
258.42892449999999
 21
405.54402149999999
  0
LINE
  8
_0-0_0
  6
CONTINUOUS
 62
    7
 10
258.42892449999999
 20
405.54402149999999
 11
267.67892449999999
 21
405.54402149999999
  0
LINE
  8
_0-0_0
  6
CONTINUOUS
 62
    7
 10
258.17892449999999
 20
405.3000035
 11
258.42892449999999
 21
405.54402149999999
  0
LINE
  8
_0-0_0
  6
CONTINUOUS
 62
    7
 10
258.17892449999999
 20
405.66557350000005
 11
258.42892449999999
 21
405.74739050000005
  0
LINE
  8
_0-0_0
  6
CONTINUOUS
 62
    7
 10
258.42892449999999
 20
405.74739050000005
 11
267.67892449999999
 21
405.74739050000005
  0
LINE
  8
_0-0_0
  6
CONTINUOUS
 62
    7
 10
258.17892449999999
 20
405.49055450000003
 11
258.42892449999999
 21
405.74739050000005
  0
LINE
  8
_0-0_0
  6
CONTINUOUS
 62
    7
 10
258.17892449999999
 20
405.82313550000003
 11
258.42892449999999
 21
405.93241850000004
  0
LINE
  8
_0-0_0
  6
CONTINUOUS
 62
    7
 10
258.42892449999999
 20
405.93241850000004
 11
267.67892449999999
 21
405.93241850000004
  0
LINE
  8
_0-0_0
  6
CONTINUOUS
 62
    7
 10
258.17892449999999
 20
405.66557350000005
 11
258.42892449999999
 21
405.93241850000004
  0
LINE
  8
_0-0_0
  6
CONTINUOUS
 62
    7
 10
258.17892449999999
 20
405.96159350000005
 11
258.42892449999999
 21
406.09712249999995
  0
LINE
  8
_0-0_0
  6
CONTINUOUS
 62
    7
 10
258.42892449999999
 20
406.09712249999995
 11
267.67892449999999
 21
406.09712249999995
  0
LINE
  8
_0-0_0
  6
CONTINUOUS
 62
    7
 10
258.17892449999999
 20
405.82313550000003
 11
258.42892449999999
 21
406.09712249999995
  0
LINE
  8
_0-0_0
  6
CONTINUOUS
 62
    7
 10
258.17892449999999
 20
406.07933049999997
 11
258.42892449999999
 21
406.23963950000007
  0
LINE
  8
_0-0_0
  6
CONTINUOUS
 62
    7
 10
258.42892449999999
 20
406.23963950000007
 11
267.67892449999999
 21
406.23963950000007
  0
LINE
  8
_0-0_0
  6
CONTINUOUS
 62
    7
 10
258.17892449999999
 20
405.96159350000005
 11
258.42892449999999
 21
406.23963950000007
  0
LINE
  8
_0-0_0
  6
CONTINUOUS
 62
    7
 10
258.17892449999999
 20
406.17512550000004
 11
258.42892449999999
 21
406.35844450000002
  0
LINE
  8
_0-0_0
  6
CONTINUOUS
 62
    7
 10
258.42892449999999
 20
406.35844450000002
 11
267.67892449999999
 21
406.35844450000002
  0
LINE
  8
_0-0_0
  6
CONTINUOUS
 62
    7
 10
258.17892449999999
 20
406.07933049999997
 11
258.42892449999999
 21
406.35844450000002
  0
LINE
  8
_0-0_0
  6
CONTINUOUS
 62
    7
 10
258.17892449999999
 20
406.24790949999999
 11
258.42892449999999
 21
406.45222450000006
  0
LINE
  8
_0-0_0
  6
CONTINUOUS
 62
    7
 10
258.42892449999999
 20
406.45222450000006
 11
267.67892449999999
 21
406.45222450000006
  0
LINE
  8
_0-0_0
  6
CONTINUOUS
 62
    7
 10
258.17892449999999
 20
406.17512550000004
 11
258.42892449999999
 21
406.45222450000006
  0
LINE
  8
_0-0_0
  6
CONTINUOUS
 62
    7
 10
258.17892449999999
 20
406.29685949999998
 11
258.42892449999999
 21
406.51994350000007
  0
LINE
  8
_0-0_0
  6
CONTINUOUS
 62
    7
 10
258.42892449999999
 20
406.51994350000007
 11
267.67892449999999
 21
406.51994350000007
  0
LINE
  8
_0-0_0
  6
CONTINUOUS
 62
    7
 10
258.17892449999999
 20
406.24790949999999
 11
258.42892449999999
 21
406.51994350000007
  0
LINE
  8
_0-0_0
  6
CONTINUOUS
 62
    7
 10
258.17892449999999
 20
406.32148749999999
 11
258.42892449999999
 21
406.56086749999997
  0
LINE
  8
_0-0_0
  6
CONTINUOUS
 62
    7
 10
258.42892449999999
 20
406.56086749999997
 11
267.67892449999999
 21
406.56086749999997
  0
LINE
  8
_0-0_0
  6
CONTINUOUS
 62
    7
 10
258.17892449999999
 20
406.29685949999998
 11
258.42892449999999
 21
406.56086749999997
  0
LINE
  8
_0-0_0
  6
CONTINUOUS
 62
    7
 10
258.42892449999999
 20
406.57456950000005
 11
267.67892449999999
 21
406.57456950000005
  0
LINE
  8
_0-0_0
  6
CONTINUOUS
 62
    7
 10
258.17892449999999
 20
406.32148749999999
 11
258.42892449999999
 21
406.57456950000005
  0
LINE
  8
_0-0_0
  6
CONTINUOUS
 62
    7
 10
258.17892449999999
 20
401.8276525
 11
258.42892449999999
 21
401.57456950000005
  0
LINE
  8
_0-0_0
  6
CONTINUOUS
 62
    7
 10
258.42892449999999
 20
401.57456950000005
 11
267.67892449999999
 21
401.57456950000005
  0
LINE
  8
_0-0_0
  6
CONTINUOUS
 62
    7
 10
258.17892449999999
 20
401.85227950000001
 11
258.42892449999999
 21
401.58827250000002
  0
LINE
  8
_0-0_0
  6
CONTINUOUS
 62
    7
 10
258.42892449999999
 20
401.58827250000002
 11
267.67892449999999
 21
401.58827250000002
  0
LINE
  8
_0-0_0
  6
CONTINUOUS
 62
    7
 10
258.17892449999999
 20
401.8276525
 11
258.42892449999999
 21
401.58827250000002
  0
LINE
  8
_0-0_0
  6
CONTINUOUS
 62
    7
 10
258.17892449999999
 20
401.9012295
 11
258.42892449999999
 21
401.62919650000003
  0
LINE
  8
_0-0_0
  6
CONTINUOUS
 62
    7
 10
258.42892449999999
 20
401.62919650000003
 11
267.67892449999999
 21
401.62919650000003
  0
LINE
  8
_0-0_0
  6
CONTINUOUS
 62
    7
 10
258.17892449999999
 20
401.85227950000001
 11
258.42892449999999
 21
401.62919650000003
  0
LINE
  8
_0-0_0
  6
CONTINUOUS
 62
    7
 10
258.17892449999999
 20
401.97401450000007
 11
258.42892449999999
 21
401.69691450000005
  0
LINE
  8
_0-0_0
  6
CONTINUOUS
 62
    7
 10
258.42892449999999
 20
401.69691450000005
 11
267.67892449999999
 21
401.69691450000005
  0
LINE
  8
_0-0_0
  6
CONTINUOUS
 62
    7
 10
258.17892449999999
 20
401.9012295
 11
258.42892449999999
 21
401.69691450000005
  0
LINE
  8
_0-0_0
  6
CONTINUOUS
 62
    7
 10
258.17892449999999
 20
402.06980950000002
 11
258.42892449999999
 21
401.79069549999997
  0
LINE
  8
_0-0_0
  6
CONTINUOUS
 62
    7
 10
258.42892449999999
 20
401.79069549999997
 11
267.67892449999999
 21
401.79069549999997
  0
LINE
  8
_0-0_0
  6
CONTINUOUS
 62
    7
 10
258.17892449999999
 20
401.97401450000007
 11
258.42892449999999
 21
401.79069549999997
  0
LINE
  8
_0-0_0
  6
CONTINUOUS
 62
    7
 10
258.42892449999999
 20
401.90950050000004
 11
267.67892449999999
 21
401.90950050000004
  0
LINE
  8
_0-0_0
  6
CONTINUOUS
 62
    7
 10
258.3088985
 20
401.98594650000007
 11
258.42892449999999
 21
401.90950050000004
  0
LINE
  8
_0-0_0
  6
CONTINUOUS
 62
    7
 10
258.17892449999999
 20
402.06980950000002
 11
258.3088985
 21
401.98594650000007
  0
LINE
  8
_0-0_0
  6
CONTINUOUS
 62
    7
 10
258.17892449999999
 20
402.18754550000006
 11
258.42892449999999
 21
401.90950050000004
  0
LINE
  8
_0-0_0
  6
CONTINUOUS
 62
    7
 10
258.17892449999999
 20
402.32600450000007
 11
258.42892449999999
 21
402.05201750000003
  0
LINE
  8
_0-0_0
  6
CONTINUOUS
 62
    7
 10
258.42892449999999
 20
402.05201750000003
 11
267.67892449999999
 21
402.05201750000003
  0
LINE
  8
_0-0_0
  6
CONTINUOUS
 62
    7
 10
258.17892449999999
 20
402.18754550000006
 11
258.42892449999999
 21
402.05201750000003
  0
LINE
  8
_0-0_0
  6
CONTINUOUS
 62
    7
 10
258.17892449999999
 20
402.48359649999998
 11
258.42892449999999
 21
402.21672050000006
  0
LINE
  8
_0-0_0
  6
CONTINUOUS
 62
    7
 10
258.42892449999999
 20
402.21672050000006
 11
267.67892449999999
 21
402.21672050000006
  0
LINE
  8
_0-0_0
  6
CONTINUOUS
 62
    7
 10
258.17892449999999
 20
402.32600450000007
 11
258.42892449999999
 21
402.21672050000006
  0
LINE
  8
_0-0_0
  6
CONTINUOUS
 62
    7
 10
258.17892449999999
 20
402.65858449999996
 11
258.42892449999999
 21
402.40174850000005
  0
LINE
  8
_0-0_0
  6
CONTINUOUS
 62
    7
 10
258.42892449999999
 20
402.40174850000005
 11
267.67892449999999
 21
402.40174850000005
  0
LINE
  8
_0-0_0
  6
CONTINUOUS
 62
    7
 10
258.17892449999999
 20
402.48359649999998
 11
258.42892449999999
 21
402.40174850000005
  0
LINE
  8
_0-0_0
  6
CONTINUOUS
 62
    7
 10
258.17892449999999
 20
402.84913649999999
 11
258.42892449999999
 21
402.60511750000001
  0
LINE
  8
_0-0_0
  6
CONTINUOUS
 62
    7
 10
258.42892449999999
 20
402.60511750000001
 11
267.67892449999999
 21
402.60511750000001
  0
LINE
  8
_0-0_0
  6
CONTINUOUS
 62
    7
 10
258.17892449999999
 20
402.65858449999996
 11
258.42892449999999
 21
402.60511750000001
  0
LINE
  8
_0-0_0
  6
CONTINUOUS
 62
    7
 10
258.17892449999999
 20
403.05308550000007
 11
258.42892449999999
 21
402.82456950000005
  0
LINE
  8
_0-0_0
  6
CONTINUOUS
 62
    7
 10
258.42892449999999
 20
402.82456950000005
 11
267.67892449999999
 21
402.82456950000005
  0
LINE
  8
_0-0_0
  6
CONTINUOUS
 62
    7
 10
258.17892449999999
 20
403.05308550000007
 11
267.92892449999999
 21
403.05308550000007
  0
LINE
  8
_0-0_0
  6
CONTINUOUS
 62
    7
 10
258.17892449999999
 20
402.84913649999999
 11
258.42892449999999
 21
402.82456950000005
  0
LINE
  8
_0-0_0
  6
CONTINUOUS
 62
    7
 10
258.17892449999999
 20
403.26823450000006
 11
258.42892449999999
 21
403.05772450000006
  0
LINE
  8
_0-0_0
  6
CONTINUOUS
 62
    7
 10
258.42892449999999
 20
403.05772450000006
 11
267.67892449999999
 21
403.05772450000006
  0
LINE
  8
_0-0_0
  6
CONTINUOUS
 62
    7
 10
258.17892449999999
 20
403.26823450000006
 11
267.92892449999999
 21
403.26823450000006
  0
LINE
  8
_0-0_0
  6
CONTINUOUS
 62
    7
 10
258.17892449999999
 20
403.05308550000007
 11
258.42892449999999
 21
403.05772450000006
  0
LINE
  8
_0-0_0
  6
CONTINUOUS
 62
    7
 10
258.17892449999999
 20
403.4922335
 11
258.42892449999999
 21
403.30201750000003
  0
LINE
  8
_0-0_0
  6
CONTINUOUS
 62
    7
 10
258.42892449999999
 20
403.30201750000003
 11
267.67892449999999
 21
403.30201750000003
  0
LINE
  8
_0-0_0
  6
CONTINUOUS
 62
    7
 10
258.17892449999999
 20
403.4922335
 11
267.92892449999999
 21
403.4922335
  0
LINE
  8
_0-0_0
  6
CONTINUOUS
 62
    7
 10
258.17892449999999
 20
403.26823450000006
 11
258.42892449999999
 21
403.30201750000003
  0
LINE
  8
_0-0_0
  6
CONTINUOUS
 62
    7
 10
258.17892449999999
 20
403.72258050000005
 11
258.42892449999999
 21
403.55479449999996
  0
LINE
  8
_0-0_0
  6
CONTINUOUS
 62
    7
 10
258.42892449999999
 20
403.55479449999996
 11
267.67892449999999
 21
403.55479449999996
  0
LINE
  8
_0-0_0
  6
CONTINUOUS
 62
    7
 10
258.17892449999999
 20
403.72258050000005
 11
267.92892449999999
 21
403.72258050000005
  0
LINE
  8
_0-0_0
  6
CONTINUOUS
 62
    7
 10
258.17892449999999
 20
403.4922335
 11
258.42892449999999
 21
403.55479449999996
  0
LINE
  8
_0-0_0
  6
CONTINUOUS
 62
    7
 10
258.17892449999999
 20
403.95680249999998
 11
258.42892449999999
 21
403.81324749999999
  0
LINE
  8
_0-0_0
  6
CONTINUOUS
 62
    7
 10
258.42892449999999
 20
403.81324749999999
 11
267.67892449999999
 21
403.81324749999999
  0
LINE
  8
_0-0_0
  6
CONTINUOUS
 62
    7
 10
258.17892449999999
 20
403.95680249999998
 11
267.92892449999999
 21
403.95680249999998
  0
LINE
  8
_0-0_0
  6
CONTINUOUS
 62
    7
 10
258.17892449999999
 20
403.72258050000005
 11
258.42892449999999
 21
403.81324749999999
  0
LINE
  8
_0-0_0
  6
CONTINUOUS
 62
    7
 10
258.17892449999999
 20
404.19233750000001
 11
258.42892449999999
 21
404.07456950000005
  0
LINE
  8
_0-0_0
  6
CONTINUOUS
 62
    7
 10
258.42892449999999
 20
404.07456950000005
 11
267.67892449999999
 21
404.07456950000005
  0
LINE
  8
_0-0_0
  6
CONTINUOUS
 62
    7
 10
258.17892449999999
 20
404.19233750000001
 11
267.92892449999999
 21
404.19233750000001
  0
LINE
  8
_0-0_0
  6
CONTINUOUS
 62
    7
 10
258.17892449999999
 20
403.95680249999998
 11
258.42892449999999
 21
404.07456950000005
  0
LINE
  8
_0-0_0
  6
CONTINUOUS
 62
    7
 10
258.17892449999999
 20
404.42655950000005
 11
258.42892449999999
 21
404.3358915
  0
LINE
  8
_0-0_0
  6
CONTINUOUS
 62
    7
 10
258.42892449999999
 20
404.3358915
 11
267.67892449999999
 21
404.3358915
  0
LINE
  8
_0-0_0
  6
CONTINUOUS
 62
    7
 10
258.17892449999999
 20
404.42655950000005
 11
267.92892449999999
 21
404.42655950000005
  0
LINE
  8
_0-0_0
  6
CONTINUOUS
 62
    7
 10
258.17892449999999
 20
404.19233750000001
 11
258.42892449999999
 21
404.3358915
  0
LINE
  8
_0-0_0
  6
CONTINUOUS
 62
    7
 10
258.17892449999999
 20
404.65690649999999
 11
258.42892449999999
 21
404.59434550000003
  0
LINE
  8
_0-0_0
  6
CONTINUOUS
 62
    7
 10
258.42892449999999
 20
404.59434550000003
 11
267.67892449999999
 21
404.59434550000003
  0
LINE
  8
_0-0_0
  6
CONTINUOUS
 62
    7
 10
258.17892449999999
 20
404.65690649999999
 11
267.92892449999999
 21
404.65690649999999
  0
LINE
  8
_0-0_0
  6
CONTINUOUS
 62
    7
 10
258.17892449999999
 20
404.42655950000005
 11
258.42892449999999
 21
404.59434550000003
  0
LINE
  8
_0-0_0
  6
CONTINUOUS
 62
    7
 10
258.17892449999999
 20
404.88090550000004
 11
258.42892449999999
 21
404.84712249999995
  0
LINE
  8
_0-0_0
  6
CONTINUOUS
 62
    7
 10
258.42892449999999
 20
404.84712249999995
 11
267.67892449999999
 21
404.84712249999995
  0
LINE
  8
_0-0_0
  6
CONTINUOUS
 62
    7
 10
258.17892449999999
 20
404.88090550000004
 11
267.92892449999999
 21
404.88090550000004
  0
LINE
  8
_0-0_0
  6
CONTINUOUS
 62
    7
 10
258.17892449999999
 20
404.65690649999999
 11
258.42892449999999
 21
404.84712249999995
  0
LINE
  8
_0-0_0
  6
CONTINUOUS
 62
    7
 10
258.17892449999999
 20
405.09605450000004
 11
258.42892449999999
 21
405.09141550000004
  0
LINE
  8
_0-0_0
  6
CONTINUOUS
 62
    7
 10
258.42892449999999
 20
405.09141550000004
 11
267.67892449999999
 21
405.09141550000004
  0
LINE
  8
_0-0_0
  6
CONTINUOUS
 62
    7
 10
258.17892449999999
 20
404.88090550000004
 11
258.42892449999999
 21
405.09141550000004
  0
LINE
  8
_0-0_0
  6
CONTINUOUS
 62
    7
 10
257.92892449999999
 20
422.67457550000006
 11
257.92892449999999
 21
418.91941850000001
  0
LINE
  8
_0-0_0
  6
CONTINUOUS
 62
    7
 10
257.92892449999999
 20
418.91941850000001
 11
257.92892449999999
 21
418.67457550000006
  0
LINE
  8
_0-0_0
  6
CONTINUOUS
 62
    7
 10
257.92892449999999
 20
406.07456950000005
 11
257.92892449999999
 21
402.3194125
  0
LINE
  8
_0-0_0
  6
CONTINUOUS
 62
    7
 10
257.92892449999999
 20
402.3194125
 11
257.92892449999999
 21
402.07456950000005
  0
LINE
  8
_0-0_0
  6
CONTINUOUS
 62
    7
 10
271.5289305
 20
417.37455750000004
 11
271.5289305
 21
414.87455750000004
  0
LINE
  8
_0-0_0
  6
CONTINUOUS
 62
    7
 10
271.5289305
 20
414.87455750000004
 11
271.5289305
 21
407.37455750000004
  0
LINE
  8
_0-0_0
  6
CONTINUOUS
 62
    7
 10
270.72894250000002
 20
416.91270450000002
 11
270.72894250000002
 21
414.64363149999997
  0
LINE
  8
_0-0_0
  6
CONTINUOUS
 62
    7
 10
270.72894250000002
 20
414.64363149999997
 11
270.72894250000002
 21
407.83644149999998
  0
LINE
  8
_0-0_0
  6
CONTINUOUS
 62
    7
 10
212.7289275
 20
416.37455750000004
 11
212.7289275
 21
416.37321450000002
  0
LINE
  8
_0-0_0
  6
CONTINUOUS
 62
    7
 10
212.7289275
 20
416.37321450000002
 11
212.7289275
 21
408.37455750000004
  0
LINE
  8
_0-0_0
  6
CONTINUOUS
 62
    7
 10
293.92892449999999
 20
422.92457550000006
 11
267.92892449999999
 21
422.92457550000006
  0
LINE
  8
_0-0_0
  6
CONTINUOUS
 62
    7
 10
293.92892449999999
 20
418.42457550000006
 11
267.92892449999999
 21
418.42457550000006
  0
LINE
  8
_0-0_0
  6
CONTINUOUS
 62
    7
 10
272.72891249999998
 20
406.32456950000005
 11
267.92892449999999
 21
406.32456950000005
  0
LINE
  8
_0-0_0
  6
CONTINUOUS
 62
    7
 10
288.17889450000001
 20
401.82456950000005
 11
267.92892449999999
 21
401.82456950000005
  0
LINE
  8
_0-0_0
  6
CONTINUOUS
 62
    7
 10
267.92892449999999
 20
422.92457550000006
 11
267.67892449999999
 21
423.17457550000006
  0
LINE
  8
_0-0_0
  6
CONTINUOUS
 62
    7
 10
267.92892449999999
 20
418.42457550000006
 11
267.67892449999999
 21
418.17457550000006
  0
LINE
  8
_0-0_0
  6
CONTINUOUS
 62
    7
 10
267.92892449999999
 20
406.32456950000005
 11
267.67892449999999
 21
406.57456950000005
  0
LINE
  8
_0-0_0
  6
CONTINUOUS
 62
    7
 10
267.92892449999999
 20
401.82456950000005
 11
267.67892449999999
 21
401.57456950000005
  0
LINE
  8
_0-0_0
  6
CONTINUOUS
 62
    7
 10
271.92892449999999
 20
417.62455750000004
 11
272.7289275
 21
418.42457550000006
  0
LINE
  8
_0-0_0
  6
CONTINUOUS
 62
    7
 10
271.92892449999999
 20
407.12455750000004
 11
273.17892449999999
 21
405.87455750000004
  0
LINE
  8
_0-0_0
  6
CONTINUOUS
 62
    7
 10
257.92892449999999
 20
422.67457550000006
 11
258.42877250000004
 21
423.17442349999999
  0
LINE
  8
_0-0_0
  6
CONTINUOUS
 62
    7
 10
257.92892449999999
 20
418.67457550000006
 11
258.42877250000004
 21
418.17472850000001
  0
LINE
  8
_0-0_0
  6
CONTINUOUS
 62
    7
 10
257.92892449999999
 20
406.07456950000005
 11
258.42877250000004
 21
406.57441749999998
  0
LINE
  8
_0-0_0
  6
CONTINUOUS
 62
    7
 10
257.92892449999999
 20
402.07456950000005
 11
258.42877250000004
 21
401.57472250000001
  0
LINE
  8
_0-0_0
  6
CONTINUOUS
 62
    7
 10
271.92892449999999
 20
417.37455750000004
 11
271.5289305
 21
417.37455750000004
  0
LINE
  8
_0-0_0
  6
CONTINUOUS
 62
    7
 10
271.92892449999999
 20
407.37455750000004
 11
271.5289305
 21
407.37455750000004
  0
LINE
  8
_0-0_0
  6
CONTINUOUS
 62
    7
 10
270.72894250000002
 20
416.91270450000002
 11
271.5289305
 21
417.37455750000004
  0
LINE
  8
_0-0_0
  6
CONTINUOUS
 62
    7
 10
270.72894250000002
 20
407.83644149999998
 11
271.5289305
 21
407.37455750000004
  0
LINE
  8
_0-0_0
  6
CONTINUOUS
 62
    7
 10
270.72894250000002
 20
416.37455750000004
 11
212.7289275
 21
416.37455750000004
  0
LINE
  8
_0-0_0
  6
CONTINUOUS
 62
    7
 10
270.72894250000002
 20
408.37455750000004
 11
212.7289275
 21
408.37455750000004
  0
LINE
  8
_0-0_0
  6
CONTINUOUS
 62
    7
 10
278.42892449999999
 20
441.27464350000002
 11
280.88369750000004
 21
441.27464350000002
  0
LINE
  8
_0-0_0
  6
CONTINUOUS
 62
    7
 10
278.42892449999999
 20
428.07463050000001
 11
278.42892449999999
 21
441.27464350000002
  0
LINE
  8
_0-0_0
  6
CONTINUOUS
 62
    7
 10
781.42892449999999
 20
428.07463050000001
 11
781.42892449999999
 21
441.27464350000002
  0
LINE
  8
_0-0_0
  6
CONTINUOUS
 62
    7
 10
778.97415150000006
 20
441.27464350000002
 11
781.42892449999999
 21
441.27464350000002
  0
ARC
  8
_0-0_0
  6
CONTINUOUS
 62
    7
 10
772.42892449999999
 20
445.87464950000003
 40
8
 50
215.099627
 51
324.90037799999999
  0
LINE
  8
_0-0_0
  6
CONTINUOUS
 62
    7
 10
293.9741515
 20
441.27464350000002
 11
765.88369750000004
 21
441.27464350000002
  0
ARC
  8
_0-0_0
  6
CONTINUOUS
 62
    7
 10
287.42892449999999
 20
445.87464950000003
 40
8
 50
215.099627
 51
324.90037799999999
  0
LINE
  8
_0-0_0
  6
CONTINUOUS
 62
    7
 10
280.88369750000004
 20
441.27464350000002
 11
280.79472350000003
 21
441.40394649999996
  0
LINE
  8
_0-0_0
  6
CONTINUOUS
 62
    7
 10
293.9741515
 20
441.27464350000002
 11
294.06314050000003
 21
441.40394649999996
  0
LINE
  8
_0-0_0
  6
CONTINUOUS
 62
    7
 10
294.15628049999998
 20
441.54536450000001
 11
294.06314050000003
 21
441.40394649999996
  0
LINE
  8
_0-0_0
  6
CONTINUOUS
 62
    7
 10
294.15628049999998
 20
441.54536450000001
 11
294.23774750000001
 21
441.67463650000002
  0
ARC
  8
_0-0_0
  6
CONTINUOUS
 62
    7
 10
287.42892449999999
 20
445.87464950000003
 40
8
 50
328.33175599999993
 51
334.05550899999992
  0
LINE
  8
_0-0_0
  6
CONTINUOUS
 62
    7
 10
294.6226805
 20
442.37464950000003
 11
294.68415849999997
 21
442.50392150000005
  0
LINE
  8
_0-0_0
  6
CONTINUOUS
 62
    7
 10
294.7481995
 20
442.64534049999997
 11
294.68415849999997
 21
442.50392150000005
  0
LINE
  8
_0-0_0
  6
CONTINUOUS
 62
    7
 10
294.7481995
 20
442.64534049999997
 11
294.80389450000001
 21
442.77464350000002
  0
ARC
  8
_0-0_0
  6
CONTINUOUS
 62
    7
 10
287.42892449999999
 20
445.87464950000003
 40
8
 50
337.20097500000003
 51
342.54240199999998
  0
LINE
  8
_0-0_0
  6
CONTINUOUS
 62
    7
 10
295.06045549999999
 20
443.47465550000004
 11
295.09991450000001
 21
443.60392750000005
  0
LINE
  8
_0-0_0
  6
CONTINUOUS
 62
    7
 10
295.14035050000001
 20
443.74534649999998
 11
295.09991450000001
 21
443.60392750000005
  0
LINE
  8
_0-0_0
  6
CONTINUOUS
 62
    7
 10
295.14035050000001
 20
443.74534649999998
 11
295.17489650000005
 21
443.87464950000003
  0
ARC
  8
_0-0_0
  6
CONTINUOUS
 62
    7
 10
287.42892449999999
 20
445.87464950000003
 40
8
 50
345.52249499999999
 51
350.64797900000002
  0
LINE
  8
_0-0_0
  6
CONTINUOUS
 62
    7
 10
295.32260150000002
 20
444.57463050000001
 11
295.3428045
 21
444.70393350000006
  0
LINE
  8
_0-0_0
  6
CONTINUOUS
 62
    7
 10
295.36244250000004
 20
444.84535249999999
 11
295.3428045
 21
444.70393350000006
  0
LINE
  8
_0-0_0
  6
CONTINUOUS
 62
    7
 10
295.36244250000004
 20
444.84535249999999
 11
295.37814349999996
 21
444.97465550000004
  0
ARC
  8
_0-0_0
  6
CONTINUOUS
 62
    7
 10
287.42892449999999
 20
445.87464950000003
 40
8
 50
353.54056400000002
 51
358.56744600000002
  0
LINE
  8
_0-0_0
  6
CONTINUOUS
 62
    7
 10
295.42643750000002
 20
445.67463650000002
 11
295.42861949999997
 21
445.80393949999996
  0
LINE
  8
_0-0_0
  6
CONTINUOUS
 62
    7
 10
295.42861949999997
 20
445.80393949999996
 11
295.42893950000001
 21
445.87464950000003
  0
LINE
  8
_0-0_0
  6
CONTINUOUS
 62
    7
 10
279.42924549999998
 20
445.80393949999996
 11
279.42892449999999
 21
445.87464950000003
  0
LINE
  8
_0-0_0
  6
CONTINUOUS
 62
    7
 10
279.43142750000004
 20
445.67463650000002
 11
279.42924549999998
 21
445.80393949999996
  0
ARC
  8
_0-0_0
  6
CONTINUOUS
 62
    7
 10
287.42892449999999
 20
445.87464950000003
 40
8
 50
181.432545
 51
186.45945499999999
  0
LINE
  8
_0-0_0
  6
CONTINUOUS
 62
    7
 10
279.49542250000002
 20
444.84535249999999
 11
279.47972149999998
 21
444.97465550000004
  0
LINE
  8
_0-0_0
  6
CONTINUOUS
 62
    7
 10
279.49542250000002
 20
444.84535249999999
 11
279.51504550000004
 21
444.70393350000006
  0
LINE
  8
_0-0_0
  6
CONTINUOUS
 62
    7
 10
279.53526350000004
 20
444.57463050000001
 11
279.51504550000004
 21
444.70393350000006
  0
ARC
  8
_0-0_0
  6
CONTINUOUS
 62
    7
 10
287.42892449999999
 20
445.87464950000003
 40
8
 50
189.35203999999999
 51
194.47751
  0
LINE
  8
_0-0_0
  6
CONTINUOUS
 62
    7
 10
279.71749850000003
 20
443.74534649999998
 11
279.68296850000002
 21
443.87464950000003
  0
LINE
  8
_0-0_0
  6
CONTINUOUS
 62
    7
 10
279.71749850000003
 20
443.74534649999998
 11
279.75796550000001
 21
443.60392750000005
  0
LINE
  8
_0-0_0
  6
CONTINUOUS
 62
    7
 10
279.79742450000003
 20
443.47465550000004
 11
279.75796550000001
 21
443.60392750000005
  0
ARC
  8
_0-0_0
  6
CONTINUOUS
 62
    7
 10
287.42892449999999
 20
445.87464950000003
 40
8
 50
197.45760300000001
 51
202.79902999999999
  0
LINE
  8
_0-0_0
  6
CONTINUOUS
 62
    7
 10
280.10966450000001
 20
442.64534049999997
 11
280.05398550000001
 21
442.77464350000002
  0
LINE
  8
_0-0_0
  6
CONTINUOUS
 62
    7
 10
280.10966450000001
 20
442.64534049999997
 11
280.17370649999998
 21
442.50392150000005
  0
LINE
  8
_0-0_0
  6
CONTINUOUS
 62
    7
 10
280.23518350000001
 20
442.37464950000003
 11
280.17370649999998
 21
442.50392150000005
  0
ARC
  8
_0-0_0
  6
CONTINUOUS
 62
    7
 10
287.42892449999999
 20
445.87464950000003
 40
8
 50
205.94448199999999
 51
211.66823500000001
  0
LINE
  8
_0-0_0
  6
CONTINUOUS
 62
    7
 10
280.70158349999997
 20
441.54536450000001
 11
280.62011749999999
 21
441.67463650000002
  0
LINE
  8
_0-0_0
  6
CONTINUOUS
 62
    7
 10
280.70158349999997
 20
441.54536450000001
 11
280.79472350000003
 21
441.40394649999996
  0
LINE
  8
_0-0_0
  6
CONTINUOUS
 62
    7
 10
765.88369750000004
 20
441.27464350000002
 11
765.79470849999996
 21
441.40394649999996
  0
LINE
  8
_0-0_0
  6
CONTINUOUS
 62
    7
 10
764.42922950000002
 20
445.80393949999996
 11
764.42892449999999
 21
445.87464950000003
  0
LINE
  8
_0-0_0
  6
CONTINUOUS
 62
    7
 10
764.43142750000004
 20
445.67463650000002
 11
764.42922950000002
 21
445.80393949999996
  0
ARC
  8
_0-0_0
  6
CONTINUOUS
 62
    7
 10
772.42892449999999
 20
445.87464950000003
 40
8
 50
181.432545
 51
186.45945499999999
  0
LINE
  8
_0-0_0
  6
CONTINUOUS
 62
    7
 10
764.49545250000006
 20
444.84535249999999
 11
764.47970550000002
 21
444.97465550000004
  0
LINE
  8
_0-0_0
  6
CONTINUOUS
 62
    7
 10
764.49545250000006
 20
444.84535249999999
 11
764.51504550000004
 21
444.70393350000006
  0
LINE
  8
_0-0_0
  6
CONTINUOUS
 62
    7
 10
764.53524749999997
 20
444.57463050000001
 11
764.51504550000004
 21
444.70393350000006
  0
ARC
  8
_0-0_0
  6
CONTINUOUS
 62
    7
 10
772.42892449999999
 20
445.87464950000003
 40
8
 50
189.35203999999999
 51
194.47751
  0
LINE
  8
_0-0_0
  6
CONTINUOUS
 62
    7
 10
764.71749850000003
 20
443.74534649999998
 11
764.68295250000006
 21
443.87464950000003
  0
LINE
  8
_0-0_0
  6
CONTINUOUS
 62
    7
 10
764.71749850000003
 20
443.74534649999998
 11
764.75796549999995
 21
443.60392750000005
  0
LINE
  8
_0-0_0
  6
CONTINUOUS
 62
    7
 10
764.79745449999996
 20
443.47465550000004
 11
764.75796549999995
 21
443.60392750000005
  0
ARC
  8
_0-0_0
  6
CONTINUOUS
 62
    7
 10
772.42892449999999
 20
445.87464950000003
 40
8
 50
197.45760300000001
 51
202.79902999999999
  0
LINE
  8
_0-0_0
  6
CONTINUOUS
 62
    7
 10
765.10964950000005
 20
442.64534049999997
 11
765.05398549999995
 21
442.77464350000002
  0
LINE
  8
_0-0_0
  6
CONTINUOUS
 62
    7
 10
765.10964950000005
 20
442.64534049999997
 11
765.17373650000002
 21
442.50392150000005
  0
LINE
  8
_0-0_0
  6
CONTINUOUS
 62
    7
 10
765.23519950000002
 20
442.37464950000003
 11
765.17373650000002
 21
442.50392150000005
  0
ARC
  8
_0-0_0
  6
CONTINUOUS
 62
    7
 10
772.42892449999999
 20
445.87464950000003
 40
8
 50
205.94448199999999
 51
211.66823500000001
  0
LINE
  8
_0-0_0
  6
CONTINUOUS
 62
    7
 10
765.70156850000001
 20
441.54536450000001
 11
765.62014750000003
 21
441.67463650000002
  0
LINE
  8
_0-0_0
  6
CONTINUOUS
 62
    7
 10
765.70156850000001
 20
441.54536450000001
 11
765.79470849999996
 21
441.40394649999996
  0
LINE
  8
_0-0_0
  6
CONTINUOUS
 62
    7
 10
778.97415150000006
 20
441.27464350000002
 11
779.06314050000003
 21
441.40394649999996
  0
LINE
  8
_0-0_0
  6
CONTINUOUS
 62
    7
 10
779.15628049999998
 20
441.54536450000001
 11
779.06314050000003
 21
441.40394649999996
  0
LINE
  8
_0-0_0
  6
CONTINUOUS
 62
    7
 10
779.15628049999998
 20
441.54536450000001
 11
779.23776250000003
 21
441.67463650000002
  0
ARC
  8
_0-0_0
  6
CONTINUOUS
 62
    7
 10
772.42892449999999
 20
445.87464950000003
 40
8
 50
328.33175599999993
 51
334.05550899999992
  0
LINE
  8
_0-0_0
  6
CONTINUOUS
 62
    7
 10
779.62271150000004
 20
442.37464950000003
 11
779.68417350000004
 21
442.50392150000005
  0
LINE
  8
_0-0_0
  6
CONTINUOUS
 62
    7
 10
779.74819950000006
 20
442.64534049999997
 11
779.68417350000004
 21
442.50392150000005
  0
LINE
  8
_0-0_0
  6
CONTINUOUS
 62
    7
 10
779.74819950000006
 20
442.64534049999997
 11
779.80392449999999
 21
442.77464350000002
  0
ARC
  8
_0-0_0
  6
CONTINUOUS
 62
    7
 10
772.42892449999999
 20
445.87464950000003
 40
8
 50
337.20097500000003
 51
342.54240199999998
  0
LINE
  8
_0-0_0
  6
CONTINUOUS
 62
    7
 10
780.06045549999999
 20
443.47465550000004
 11
780.09994549999999
 21
443.60392750000005
  0
LINE
  8
_0-0_0
  6
CONTINUOUS
 62
    7
 10
780.14035049999995
 20
443.74534649999998
 11
780.09994549999999
 21
443.60392750000005
  0
LINE
  8
_0-0_0
  6
CONTINUOUS
 62
    7
 10
780.14035049999995
 20
443.74534649999998
 11
780.17489650000005
 21
443.87464950000003
  0
ARC
  8
_0-0_0
  6
CONTINUOUS
 62
    7
 10
772.42892449999999
 20
445.87464950000003
 40
8
 50
345.52249499999999
 51
350.64797900000002
  0
LINE
  8
_0-0_0
  6
CONTINUOUS
 62
    7
 10
780.32260150000002
 20
444.57463050000001
 11
780.34280450000006
 21
444.70393350000006
  0
LINE
  8
_0-0_0
  6
CONTINUOUS
 62
    7
 10
780.3624575
 20
444.84535249999999
 11
780.34280450000006
 21
444.70393350000006
  0
LINE
  8
_0-0_0
  6
CONTINUOUS
 62
    7
 10
780.3624575
 20
444.84535249999999
 11
780.37814349999996
 21
444.97465550000004
  0
ARC
  8
_0-0_0
  6
CONTINUOUS
 62
    7
 10
772.42892449999999
 20
445.87464950000003
 40
8
 50
353.54056400000002
 51
358.56744600000002
  0
LINE
  8
_0-0_0
  6
CONTINUOUS
 62
    7
 10
780.42642250000006
 20
445.67463650000002
 11
780.42861949999997
 21
445.80393949999996
  0
LINE
  8
_0-0_0
  6
CONTINUOUS
 62
    7
 10
780.42861949999997
 20
445.80393949999996
 11
780.42892449999999
 21
445.87464950000003
  0
LINE
  8
_0-0_0
  6
CONTINUOUS
 62
    7
 10
781.42892449999999
 20
441.40394649999996
 11
781.42892449999999
 21
441.27464350000002
  0
LINE
  8
_0-0_0
  6
CONTINUOUS
 62
    7
 10
781.42892449999999
 20
450.20393350000006
 11
781.42892449999999
 21
450.34535249999999
  0
LINE
  8
_0-0_0
  6
CONTINUOUS
 62
    7
 10
781.42892449999999
 20
450.20393350000006
 11
781.42892449999999
 21
450.07463050000001
  0
LINE
  8
_0-0_0
  6
CONTINUOUS
 62
    7
 10
781.42892449999999
 20
449.37464950000003
 11
781.42892449999999
 21
450.07463050000001
  0
LINE
  8
_0-0_0
  6
CONTINUOUS
 62
    7
 10
781.42892449999999
 20
449.24534649999998
 11
781.42892449999999
 21
449.37464950000003
  0
LINE
  8
_0-0_0
  6
CONTINUOUS
 62
    7
 10
781.42892449999999
 20
449.10392750000005
 11
781.42892449999999
 21
449.24534649999998
  0
LINE
  8
_0-0_0
  6
CONTINUOUS
 62
    7
 10
781.42892449999999
 20
449.10392750000005
 11
781.42892449999999
 21
448.97465550000004
  0
LINE
  8
_0-0_0
  6
CONTINUOUS
 62
    7
 10
781.42892449999999
 20
448.27464350000002
 11
781.42892449999999
 21
448.97465550000004
  0
LINE
  8
_0-0_0
  6
CONTINUOUS
 62
    7
 10
781.42892449999999
 20
448.14534049999997
 11
781.42892449999999
 21
448.27464350000002
  0
LINE
  8
_0-0_0
  6
CONTINUOUS
 62
    7
 10
781.42892449999999
 20
448.00392150000005
 11
781.42892449999999
 21
448.14534049999997
  0
LINE
  8
_0-0_0
  6
CONTINUOUS
 62
    7
 10
781.42892449999999
 20
448.00392150000005
 11
781.42892449999999
 21
447.87464950000003
  0
LINE
  8
_0-0_0
  6
CONTINUOUS
 62
    7
 10
781.42892449999999
 20
447.17463650000002
 11
781.42892449999999
 21
447.87464950000003
  0
LINE
  8
_0-0_0
  6
CONTINUOUS
 62
    7
 10
781.42892449999999
 20
447.04536450000001
 11
781.42892449999999
 21
447.17463650000002
  0
LINE
  8
_0-0_0
  6
CONTINUOUS
 62
    7
 10
781.42892449999999
 20
446.90394649999996
 11
781.42892449999999
 21
447.04536450000001
  0
LINE
  8
_0-0_0
  6
CONTINUOUS
 62
    7
 10
781.42892449999999
 20
446.90394649999996
 11
781.42892449999999
 21
446.77464350000002
  0
LINE
  8
_0-0_0
  6
CONTINUOUS
 62
    7
 10
781.42892449999999
 20
446.07463050000001
 11
781.42892449999999
 21
446.77464350000002
  0
LINE
  8
_0-0_0
  6
CONTINUOUS
 62
    7
 10
781.42892449999999
 20
445.9453585
 11
781.42892449999999
 21
446.07463050000001
  0
LINE
  8
_0-0_0
  6
CONTINUOUS
 62
    7
 10
781.42892449999999
 20
445.80393949999996
 11
781.42892449999999
 21
445.9453585
  0
LINE
  8
_0-0_0
  6
CONTINUOUS
 62
    7
 10
781.42892449999999
 20
445.80393949999996
 11
781.42892449999999
 21
445.67463650000002
  0
LINE
  8
_0-0_0
  6
CONTINUOUS
 62
    7
 10
781.42892449999999
 20
444.97465550000004
 11
781.42892449999999
 21
445.67463650000002
  0
LINE
  8
_0-0_0
  6
CONTINUOUS
 62
    7
 10
781.42892449999999
 20
444.84535249999999
 11
781.42892449999999
 21
444.97465550000004
  0
LINE
  8
_0-0_0
  6
CONTINUOUS
 62
    7
 10
781.42892449999999
 20
444.70393350000006
 11
781.42892449999999
 21
444.84535249999999
  0
LINE
  8
_0-0_0
  6
CONTINUOUS
 62
    7
 10
781.42892449999999
 20
444.70393350000006
 11
781.42892449999999
 21
444.57463050000001
  0
LINE
  8
_0-0_0
  6
CONTINUOUS
 62
    7
 10
781.42892449999999
 20
443.87464950000003
 11
781.42892449999999
 21
444.57463050000001
  0
LINE
  8
_0-0_0
  6
CONTINUOUS
 62
    7
 10
781.42892449999999
 20
443.74534649999998
 11
781.42892449999999
 21
443.87464950000003
  0
LINE
  8
_0-0_0
  6
CONTINUOUS
 62
    7
 10
781.42892449999999
 20
443.60392750000005
 11
781.42892449999999
 21
443.74534649999998
  0
LINE
  8
_0-0_0
  6
CONTINUOUS
 62
    7
 10
781.42892449999999
 20
443.60392750000005
 11
781.42892449999999
 21
443.47465550000004
  0
LINE
  8
_0-0_0
  6
CONTINUOUS
 62
    7
 10
781.42892449999999
 20
442.77464350000002
 11
781.42892449999999
 21
443.47465550000004
  0
LINE
  8
_0-0_0
  6
CONTINUOUS
 62
    7
 10
781.42892449999999
 20
442.64534049999997
 11
781.42892449999999
 21
442.77464350000002
  0
LINE
  8
_0-0_0
  6
CONTINUOUS
 62
    7
 10
781.42892449999999
 20
442.50392150000005
 11
781.42892449999999
 21
442.64534049999997
  0
LINE
  8
_0-0_0
  6
CONTINUOUS
 62
    7
 10
781.42892449999999
 20
442.50392150000005
 11
781.42892449999999
 21
442.37464950000003
  0
LINE
  8
_0-0_0
  6
CONTINUOUS
 62
    7
 10
781.42892449999999
 20
441.67463650000002
 11
781.42892449999999
 21
442.37464950000003
  0
LINE
  8
_0-0_0
  6
CONTINUOUS
 62
    7
 10
781.42892449999999
 20
441.54536450000001
 11
781.42892449999999
 21
441.67463650000002
  0
LINE
  8
_0-0_0
  6
CONTINUOUS
 62
    7
 10
781.42892449999999
 20
441.40394649999996
 11
781.42892449999999
 21
441.54536450000001
  0
LINE
  8
_0-0_0
  6
CONTINUOUS
 62
    7
 10
781.42892449999999
 20
427.57463050000001
 11
781.42892449999999
 21
428.07463050000001
  0
LINE
  8
_0-0_0
  6
CONTINUOUS
 62
    7
 10
781.42892449999999
 20
456.07463050000001
 11
781.42892449999999
 21
455.48066749999998
  0
LINE
  8
_0-0_0
  6
CONTINUOUS
 62
    7
 10
781.42892449999999
 20
450.47465550000004
 11
781.42892449999999
 21
455.48066749999998
  0
LINE
  8
_0-0_0
  6
CONTINUOUS
 62
    7
 10
781.42892449999999
 20
450.34535249999999
 11
781.42892449999999
 21
450.47465550000004
  0
LINE
  8
_0-0_0
  6
CONTINUOUS
 62
    7
 10
278.42892449999999
 20
427.57463050000001
 11
278.42892449999999
 21
428.07463050000001
  0
LINE
  8
_0-0_0
  6
CONTINUOUS
 62
    7
 10
278.42892449999999
 20
427.57463050000001
 11
781.42892449999999
 21
427.57463050000001
  0
LINE
  8
_0-0_0
  6
CONTINUOUS
 62
    7
 10
278.42892449999999
 20
441.40394649999996
 11
278.42892449999999
 21
441.54536450000001
  0
LINE
  8
_0-0_0
  6
CONTINUOUS
 62
    7
 10
278.42892449999999
 20
441.40394649999996
 11
278.42892449999999
 21
441.27464350000002
  0
LINE
  8
_0-0_0
  6
CONTINUOUS
 62
    7
 10
278.42892449999999
 20
456.07463050000001
 11
278.42892449999999
 21
455.48066749999998
  0
LINE
  8
_0-0_0
  6
CONTINUOUS
 62
    7
 10
278.42892449999999
 20
450.47465550000004
 11
278.42892449999999
 21
455.48066749999998
  0
LINE
  8
_0-0_0
  6
CONTINUOUS
 62
    7
 10
278.42892449999999
 20
450.34535249999999
 11
278.42892449999999
 21
450.47465550000004
  0
LINE
  8
_0-0_0
  6
CONTINUOUS
 62
    7
 10
278.42892449999999
 20
450.20393350000006
 11
278.42892449999999
 21
450.34535249999999
  0
LINE
  8
_0-0_0
  6
CONTINUOUS
 62
    7
 10
278.42892449999999
 20
450.20393350000006
 11
278.42892449999999
 21
450.07463050000001
  0
LINE
  8
_0-0_0
  6
CONTINUOUS
 62
    7
 10
278.42892449999999
 20
449.37464950000003
 11
278.42892449999999
 21
450.07463050000001
  0
LINE
  8
_0-0_0
  6
CONTINUOUS
 62
    7
 10
278.42892449999999
 20
449.24534649999998
 11
278.42892449999999
 21
449.37464950000003
  0
LINE
  8
_0-0_0
  6
CONTINUOUS
 62
    7
 10
278.42892449999999
 20
449.10392750000005
 11
278.42892449999999
 21
449.24534649999998
  0
LINE
  8
_0-0_0
  6
CONTINUOUS
 62
    7
 10
278.42892449999999
 20
449.10392750000005
 11
278.42892449999999
 21
448.97465550000004
  0
LINE
  8
_0-0_0
  6
CONTINUOUS
 62
    7
 10
278.42892449999999
 20
448.27464350000002
 11
278.42892449999999
 21
448.97465550000004
  0
LINE
  8
_0-0_0
  6
CONTINUOUS
 62
    7
 10
278.42892449999999
 20
448.14534049999997
 11
278.42892449999999
 21
448.27464350000002
  0
LINE
  8
_0-0_0
  6
CONTINUOUS
 62
    7
 10
278.42892449999999
 20
448.00392150000005
 11
278.42892449999999
 21
448.14534049999997
  0
LINE
  8
_0-0_0
  6
CONTINUOUS
 62
    7
 10
278.42892449999999
 20
448.00392150000005
 11
278.42892449999999
 21
447.87464950000003
  0
LINE
  8
_0-0_0
  6
CONTINUOUS
 62
    7
 10
278.42892449999999
 20
447.17463650000002
 11
278.42892449999999
 21
447.87464950000003
  0
LINE
  8
_0-0_0
  6
CONTINUOUS
 62
    7
 10
278.42892449999999
 20
447.04536450000001
 11
278.42892449999999
 21
447.17463650000002
  0
LINE
  8
_0-0_0
  6
CONTINUOUS
 62
    7
 10
278.42892449999999
 20
446.90394649999996
 11
278.42892449999999
 21
447.04536450000001
  0
LINE
  8
_0-0_0
  6
CONTINUOUS
 62
    7
 10
278.42892449999999
 20
446.90394649999996
 11
278.42892449999999
 21
446.77464350000002
  0
LINE
  8
_0-0_0
  6
CONTINUOUS
 62
    7
 10
278.42892449999999
 20
446.07463050000001
 11
278.42892449999999
 21
446.77464350000002
  0
LINE
  8
_0-0_0
  6
CONTINUOUS
 62
    7
 10
278.42892449999999
 20
445.9453585
 11
278.42892449999999
 21
446.07463050000001
  0
LINE
  8
_0-0_0
  6
CONTINUOUS
 62
    7
 10
278.42892449999999
 20
445.80393949999996
 11
278.42892449999999
 21
445.9453585
  0
LINE
  8
_0-0_0
  6
CONTINUOUS
 62
    7
 10
278.42892449999999
 20
445.80393949999996
 11
278.42892449999999
 21
445.67463650000002
  0
LINE
  8
_0-0_0
  6
CONTINUOUS
 62
    7
 10
278.42892449999999
 20
444.97465550000004
 11
278.42892449999999
 21
445.67463650000002
  0
LINE
  8
_0-0_0
  6
CONTINUOUS
 62
    7
 10
278.42892449999999
 20
444.84535249999999
 11
278.42892449999999
 21
444.97465550000004
  0
LINE
  8
_0-0_0
  6
CONTINUOUS
 62
    7
 10
278.42892449999999
 20
444.70393350000006
 11
278.42892449999999
 21
444.84535249999999
  0
LINE
  8
_0-0_0
  6
CONTINUOUS
 62
    7
 10
278.42892449999999
 20
444.70393350000006
 11
278.42892449999999
 21
444.57463050000001
  0
LINE
  8
_0-0_0
  6
CONTINUOUS
 62
    7
 10
278.42892449999999
 20
443.87464950000003
 11
278.42892449999999
 21
444.57463050000001
  0
LINE
  8
_0-0_0
  6
CONTINUOUS
 62
    7
 10
278.42892449999999
 20
443.74534649999998
 11
278.42892449999999
 21
443.87464950000003
  0
LINE
  8
_0-0_0
  6
CONTINUOUS
 62
    7
 10
278.42892449999999
 20
443.60392750000005
 11
278.42892449999999
 21
443.74534649999998
  0
LINE
  8
_0-0_0
  6
CONTINUOUS
 62
    7
 10
278.42892449999999
 20
443.60392750000005
 11
278.42892449999999
 21
443.47465550000004
  0
LINE
  8
_0-0_0
  6
CONTINUOUS
 62
    7
 10
278.42892449999999
 20
442.77464350000002
 11
278.42892449999999
 21
443.47465550000004
  0
LINE
  8
_0-0_0
  6
CONTINUOUS
 62
    7
 10
278.42892449999999
 20
442.64534049999997
 11
278.42892449999999
 21
442.77464350000002
  0
LINE
  8
_0-0_0
  6
CONTINUOUS
 62
    7
 10
278.42892449999999
 20
442.50392150000005
 11
278.42892449999999
 21
442.64534049999997
  0
LINE
  8
_0-0_0
  6
CONTINUOUS
 62
    7
 10
278.42892449999999
 20
442.50392150000005
 11
278.42892449999999
 21
442.37464950000003
  0
LINE
  8
_0-0_0
  6
CONTINUOUS
 62
    7
 10
278.42892449999999
 20
441.67463650000002
 11
278.42892449999999
 21
442.37464950000003
  0
LINE
  8
_0-0_0
  6
CONTINUOUS
 62
    7
 10
278.42892449999999
 20
441.54536450000001
 11
278.42892449999999
 21
441.67463650000002
  0
LINE
  8
_0-0_0
  6
CONTINUOUS
 62
    7
 10
715.42892449999999
 20
433.57466150000005
 11
722.42892449999999
 21
433.57466150000005
  0
ARC
  8
_0-0_0
  6
CONTINUOUS
 62
    7
 10
715.42892449999999
 20
433.07466150000005
 40
0.5
 50
90.000003000000007
 51
180.00000900000001
  0
LINE
  8
_0-0_0
  6
CONTINUOUS
 62
    7
 10
714.92892449999999
 20
433.07466150000005
 11
714.92892449999999
 21
429.07463050000001
  0
ARC
  8
_0-0_0
  6
CONTINUOUS
 62
    7
 10
715.42892449999999
 20
429.07463050000001
 40
0.5
 50
180.00000900000003
 51
269.99999700000001
  0
LINE
  8
_0-0_0
  6
CONTINUOUS
 62
    7
 10
722.42892449999999
 20
428.57463050000001
 11
715.42892449999999
 21
428.57463050000001
  0
ARC
  8
_0-0_0
  6
CONTINUOUS
 62
    7
 10
722.42892449999999
 20
429.07463050000001
 40
0.5
 50
269.99999700000001
 51
0
  0
LINE
  8
_0-0_0
  6
CONTINUOUS
 62
    7
 10
722.92892449999999
 20
429.07463050000001
 11
722.92892449999999
 21
433.07466150000005
  0
ARC
  8
_0-0_0
  6
CONTINUOUS
 62
    7
 10
722.42892449999999
 20
433.07466150000005
 40
0.5
 50
0
 51
90.000003000000007
  0
ARC
  8
_0-0_0
  6
CONTINUOUS
 62
    7
 10
345.42892449999999
 20
433.07466150000005
 40
0.5
 50
90.000003000000007
 51
180.00000900000001
  0
LINE
  8
_0-0_0
  6
CONTINUOUS
 62
    7
 10
344.92892449999999
 20
433.07466150000005
 11
344.92892449999999
 21
429.07463050000001
  0
ARC
  8
_0-0_0
  6
CONTINUOUS
 62
    7
 10
345.42892449999999
 20
429.07463050000001
 40
0.5
 50
180.00000900000003
 51
269.99999700000001
  0
LINE
  8
_0-0_0
  6
CONTINUOUS
 62
    7
 10
352.42892449999999
 20
428.57463050000001
 11
345.42892449999999
 21
428.57463050000001
  0
ARC
  8
_0-0_0
  6
CONTINUOUS
 62
    7
 10
352.42892449999999
 20
429.07463050000001
 40
0.5
 50
269.99999700000001
 51
0
  0
LINE
  8
_0-0_0
  6
CONTINUOUS
 62
    7
 10
352.92892449999999
 20
429.07463050000001
 11
352.92892449999999
 21
433.07466150000005
  0
ARC
  8
_0-0_0
  6
CONTINUOUS
 62
    7
 10
352.42892449999999
 20
433.07466150000005
 40
0.5
 50
0
 51
90.000003000000007
  0
LINE
  8
_0-0_0
  6
CONTINUOUS
 62
    7
 10
345.42892449999999
 20
433.57466150000005
 11
352.42892449999999
 21
433.57466150000005
  0
LINE
  8
_0-0_0
  6
CONTINUOUS
 62
    7
 10
278.42892449999999
 20
441.67463650000002
 11
280.62011749999999
 21
441.67463650000002
  0
LINE
  8
_0-0_0
  6
CONTINUOUS
 62
    7
 10
278.42892449999999
 20
442.37464950000003
 11
280.23518350000001
 21
442.37464950000003
  0
LINE
  8
_0-0_0
  6
CONTINUOUS
 62
    7
 10
278.42892449999999
 20
442.77464350000002
 11
280.05398550000001
 21
442.77464350000002
  0
LINE
  8
_0-0_0
  6
CONTINUOUS
 62
    7
 10
278.42892449999999
 20
443.47465550000004
 11
279.79742450000003
 21
443.47465550000004
  0
LINE
  8
_0-0_0
  6
CONTINUOUS
 62
    7
 10
278.42892449999999
 20
443.87464950000003
 11
279.68296850000002
 21
443.87464950000003
  0
LINE
  8
_0-0_0
  6
CONTINUOUS
 62
    7
 10
278.42892449999999
 20
444.57463050000001
 11
279.53526350000004
 21
444.57463050000001
  0
LINE
  8
_0-0_0
  6
CONTINUOUS
 62
    7
 10
278.42892449999999
 20
444.97465550000004
 11
279.47972149999998
 21
444.97465550000004
  0
LINE
  8
_0-0_0
  6
CONTINUOUS
 62
    7
 10
278.42892449999999
 20
445.67463650000002
 11
279.43142750000004
 21
445.67463650000002
  0
LINE
  8
_0-0_0
  6
CONTINUOUS
 62
    7
 10
279.42892449999999
 20
445.87464950000003
 11
279.42924549999998
 21
445.9453585
  0
LINE
  8
_0-0_0
  6
CONTINUOUS
 62
    7
 10
295.42893950000001
 20
445.87464950000003
 11
295.42861949999997
 21
445.9453585
  0
LINE
  8
_0-0_0
  6
CONTINUOUS
 62
    7
 10
295.42643750000002
 20
446.07463050000001
 11
295.42861949999997
 21
445.9453585
  0
ARC
  8
_0-0_0
  6
CONTINUOUS
 62
    7
 10
287.42892449999999
 20
445.87464950000003
 40
8
 50
1.432544
 51
6.4594489999999993
  0
LINE
  8
_0-0_0
  6
CONTINUOUS
 62
    7
 10
295.36244250000004
 20
446.90394649999996
 11
295.37814349999996
 21
446.77464350000002
  0
LINE
  8
_0-0_0
  6
CONTINUOUS
 62
    7
 10
295.36244250000004
 20
446.90394649999996
 11
295.3428045
 21
447.04536450000001
  0
LINE
  8
_0-0_0
  6
CONTINUOUS
 62
    7
 10
295.32260150000002
 20
447.17463650000002
 11
295.3428045
 21
447.04536450000001
  0
ARC
  8
_0-0_0
  6
CONTINUOUS
 62
    7
 10
287.42892449999999
 20
445.87464950000003
 40
8
 50
9.3520350000000008
 51
14.477510999999998
  0
LINE
  8
_0-0_0
  6
CONTINUOUS
 62
    7
 10
295.14035050000001
 20
448.00392150000005
 11
295.17489650000005
 21
447.87464950000003
  0
LINE
  8
_0-0_0
  6
CONTINUOUS
 62
    7
 10
295.14035050000001
 20
448.00392150000005
 11
295.09991450000001
 21
448.14534049999997
  0
LINE
  8
_0-0_0
  6
CONTINUOUS
 62
    7
 10
295.06045549999999
 20
448.27464350000002
 11
295.09991450000001
 21
448.14534049999997
  0
ARC
  8
_0-0_0
  6
CONTINUOUS
 62
    7
 10
287.42892449999999
 20
445.87464950000003
 40
8
 50
17.457602999999999
 51
22.799030999999999
  0
LINE
  8
_0-0_0
  6
CONTINUOUS
 62
    7
 10
294.7481995
 20
449.10392750000005
 11
294.80389450000001
 21
448.97465550000004
  0
LINE
  8
_0-0_0
  6
CONTINUOUS
 62
    7
 10
294.7481995
 20
449.10392750000005
 11
294.68415849999997
 21
449.24534649999998
  0
LINE
  8
_0-0_0
  6
CONTINUOUS
 62
    7
 10
294.6226805
 20
449.37464950000003
 11
294.68415849999997
 21
449.24534649999998
  0
ARC
  8
_0-0_0
  6
CONTINUOUS
 62
    7
 10
287.42892449999999
 20
445.87464950000003
 40
8
 50
25.944476999999999
 51
31.668240000000001
  0
LINE
  8
_0-0_0
  6
CONTINUOUS
 62
    7
 10
294.15628049999998
 20
450.20393350000006
 11
294.23774750000001
 21
450.07463050000001
  0
LINE
  8
_0-0_0
  6
CONTINUOUS
 62
    7
 10
294.15628049999998
 20
450.20393350000006
 11
294.06314050000003
 21
450.34535249999999
  0
LINE
  8
_0-0_0
  6
CONTINUOUS
 62
    7
 10
293.9741515
 20
450.47465550000004
 11
294.06314050000003
 21
450.34535249999999
  0
ARC
  8
_0-0_0
  6
CONTINUOUS
 62
    7
 10
287.42892449999999
 20
445.87464950000003
 40
8
 50
35.099632
 51
144.900373
  0
LINE
  8
_0-0_0
  6
CONTINUOUS
 62
    7
 10
280.88369750000004
 20
450.47465550000004
 11
280.79472350000003
 21
450.34535249999999
  0
LINE
  8
_0-0_0
  6
CONTINUOUS
 62
    7
 10
280.70158349999997
 20
450.20393350000006
 11
280.79472350000003
 21
450.34535249999999
  0
LINE
  8
_0-0_0
  6
CONTINUOUS
 62
    7
 10
280.70158349999997
 20
450.20393350000006
 11
280.62011749999999
 21
450.07463050000001
  0
ARC
  8
_0-0_0
  6
CONTINUOUS
 62
    7
 10
287.42892449999999
 20
445.87464950000003
 40
8
 50
148.33176499999999
 51
154.05551800000001
  0
LINE
  8
_0-0_0
  6
CONTINUOUS
 62
    7
 10
280.23518350000001
 20
449.37464950000003
 11
280.17370649999998
 21
449.24534649999998
  0
LINE
  8
_0-0_0
  6
CONTINUOUS
 62
    7
 10
280.10966450000001
 20
449.10392750000005
 11
280.17370649999998
 21
449.24534649999998
  0
LINE
  8
_0-0_0
  6
CONTINUOUS
 62
    7
 10
280.10966450000001
 20
449.10392750000005
 11
280.05398550000001
 21
448.97465550000004
  0
ARC
  8
_0-0_0
  6
CONTINUOUS
 62
    7
 10
287.42892449999999
 20
445.87464950000003
 40
8
 50
157.20097000000001
 51
162.54239699999999
  0
LINE
  8
_0-0_0
  6
CONTINUOUS
 62
    7
 10
279.79742450000003
 20
448.27464350000002
 11
279.75796550000001
 21
448.14534049999997
  0
LINE
  8
_0-0_0
  6
CONTINUOUS
 62
    7
 10
279.71749850000003
 20
448.00392150000005
 11
279.75796550000001
 21
448.14534049999997
  0
LINE
  8
_0-0_0
  6
CONTINUOUS
 62
    7
 10
279.71749850000003
 20
448.00392150000005
 11
279.68296850000002
 21
447.87464950000003
  0
ARC
  8
_0-0_0
  6
CONTINUOUS
 62
    7
 10
287.42892449999999
 20
445.87464950000003
 40
8
 50
165.52249
 51
170.64796000000001
  0
LINE
  8
_0-0_0
  6
CONTINUOUS
 62
    7
 10
279.53526350000004
 20
447.17463650000002
 11
279.51504550000004
 21
447.04536450000001
  0
LINE
  8
_0-0_0
  6
CONTINUOUS
 62
    7
 10
279.49542250000002
 20
446.90394649999996
 11
279.51504550000004
 21
447.04536450000001
  0
LINE
  8
_0-0_0
  6
CONTINUOUS
 62
    7
 10
279.49542250000002
 20
446.90394649999996
 11
279.47972149999998
 21
446.77464350000002
  0
ARC
  8
_0-0_0
  6
CONTINUOUS
 62
    7
 10
287.42892449999999
 20
445.87464950000003
 40
8
 50
173.54054500000001
 51
178.567455
  0
LINE
  8
_0-0_0
  6
CONTINUOUS
 62
    7
 10
279.43142750000004
 20
446.07463050000001
 11
279.42924549999998
 21
445.9453585
  0
CIRCLE
  8
_0-0_0
  6
CONTINUOUS
 62
    7
 10
287.42892449999999
 20
445.87464950000003
 40
7.5
  0
LINE
  8
_0-0_0
  6
CONTINUOUS
 62
    7
 10
764.42892449999999
 20
445.87464950000003
 11
764.42922950000002
 21
445.9453585
  0
LINE
  8
_0-0_0
  6
CONTINUOUS
 62
    7
 10
295.42643750000002
 20
445.67463650000002
 11
764.43142750000004
 21
445.67463650000002
  0
LINE
  8
_0-0_0
  6
CONTINUOUS
 62
    7
 10
295.37814349999996
 20
444.97465550000004
 11
764.47970550000002
 21
444.97465550000004
  0
LINE
  8
_0-0_0
  6
CONTINUOUS
 62
    7
 10
295.32260150000002
 20
444.57463050000001
 11
764.53524749999997
 21
444.57463050000001
  0
LINE
  8
_0-0_0
  6
CONTINUOUS
 62
    7
 10
295.17489650000005
 20
443.87464950000003
 11
764.68295250000006
 21
443.87464950000003
  0
LINE
  8
_0-0_0
  6
CONTINUOUS
 62
    7
 10
295.06045549999999
 20
443.47465550000004
 11
764.79745449999996
 21
443.47465550000004
  0
LINE
  8
_0-0_0
  6
CONTINUOUS
 62
    7
 10
294.80389450000001
 20
442.77464350000002
 11
765.05398549999995
 21
442.77464350000002
  0
LINE
  8
_0-0_0
  6
CONTINUOUS
 62
    7
 10
294.6226805
 20
442.37464950000003
 11
765.23519950000002
 21
442.37464950000003
  0
LINE
  8
_0-0_0
  6
CONTINUOUS
 62
    7
 10
294.23774750000001
 20
441.67463650000002
 11
765.62014750000003
 21
441.67463650000002
  0
LINE
  8
_0-0_0
  6
CONTINUOUS
 62
    7
 10
780.42892449999999
 20
445.87464950000003
 11
780.42861949999997
 21
445.9453585
  0
LINE
  8
_0-0_0
  6
CONTINUOUS
 62
    7
 10
780.42642250000006
 20
445.67463650000002
 11
781.42892449999999
 21
445.67463650000002
  0
LINE
  8
_0-0_0
  6
CONTINUOUS
 62
    7
 10
780.37814349999996
 20
444.97465550000004
 11
781.42892449999999
 21
444.97465550000004
  0
LINE
  8
_0-0_0
  6
CONTINUOUS
 62
    7
 10
780.32260150000002
 20
444.57463050000001
 11
781.42892449999999
 21
444.57463050000001
  0
LINE
  8
_0-0_0
  6
CONTINUOUS
 62
    7
 10
780.17489650000005
 20
443.87464950000003
 11
781.42892449999999
 21
443.87464950000003
  0
LINE
  8
_0-0_0
  6
CONTINUOUS
 62
    7
 10
780.06045549999999
 20
443.47465550000004
 11
781.42892449999999
 21
443.47465550000004
  0
LINE
  8
_0-0_0
  6
CONTINUOUS
 62
    7
 10
779.80392449999999
 20
442.77464350000002
 11
781.42892449999999
 21
442.77464350000002
  0
LINE
  8
_0-0_0
  6
CONTINUOUS
 62
    7
 10
779.62271150000004
 20
442.37464950000003
 11
781.42892449999999
 21
442.37464950000003
  0
LINE
  8
_0-0_0
  6
CONTINUOUS
 62
    7
 10
779.23776250000003
 20
441.67463650000002
 11
781.42892449999999
 21
441.67463650000002
  0
LINE
  8
_0-0_0
  6
CONTINUOUS
 62
    7
 10
778.97415150000006
 20
450.47465550000004
 11
779.06314050000003
 21
450.34535249999999
  0
ARC
  8
_0-0_0
  6
CONTINUOUS
 62
    7
 10
772.42892449999999
 20
445.87464950000003
 40
8
 50
35.099632
 51
144.900373
  0
LINE
  8
_0-0_0
  6
CONTINUOUS
 62
    7
 10
765.88369750000004
 20
450.47465550000004
 11
765.79470849999996
 21
450.34535249999999
  0
LINE
  8
_0-0_0
  6
CONTINUOUS
 62
    7
 10
765.70156850000001
 20
450.20393350000006
 11
765.79470849999996
 21
450.34535249999999
  0
LINE
  8
_0-0_0
  6
CONTINUOUS
 62
    7
 10
765.70156850000001
 20
450.20393350000006
 11
765.62014750000003
 21
450.07463050000001
  0
ARC
  8
_0-0_0
  6
CONTINUOUS
 62
    7
 10
772.42892449999999
 20
445.87464950000003
 40
8
 50
148.33176499999999
 51
154.05551800000001
  0
LINE
  8
_0-0_0
  6
CONTINUOUS
 62
    7
 10
765.23519950000002
 20
449.37464950000003
 11
765.17373650000002
 21
449.24534649999998
  0
LINE
  8
_0-0_0
  6
CONTINUOUS
 62
    7
 10
765.10964950000005
 20
449.10392750000005
 11
765.17373650000002
 21
449.24534649999998
  0
LINE
  8
_0-0_0
  6
CONTINUOUS
 62
    7
 10
765.10964950000005
 20
449.10392750000005
 11
765.05398549999995
 21
448.97465550000004
  0
ARC
  8
_0-0_0
  6
CONTINUOUS
 62
    7
 10
772.42892449999999
 20
445.87464950000003
 40
8
 50
157.20097000000001
 51
162.54239699999999
  0
LINE
  8
_0-0_0
  6
CONTINUOUS
 62
    7
 10
764.79745449999996
 20
448.27464350000002
 11
764.75796549999995
 21
448.14534049999997
  0
LINE
  8
_0-0_0
  6
CONTINUOUS
 62
    7
 10
764.71749850000003
 20
448.00392150000005
 11
764.75796549999995
 21
448.14534049999997
  0
LINE
  8
_0-0_0
  6
CONTINUOUS
 62
    7
 10
764.71749850000003
 20
448.00392150000005
 11
764.68295250000006
 21
447.87464950000003
  0
ARC
  8
_0-0_0
  6
CONTINUOUS
 62
    7
 10
772.42892449999999
 20
445.87464950000003
 40
8
 50
165.52249
 51
170.64796000000001
  0
LINE
  8
_0-0_0
  6
CONTINUOUS
 62
    7
 10
764.53524749999997
 20
447.17463650000002
 11
764.51504550000004
 21
447.04536450000001
  0
LINE
  8
_0-0_0
  6
CONTINUOUS
 62
    7
 10
764.49545250000006
 20
446.90394649999996
 11
764.51504550000004
 21
447.04536450000001
  0
LINE
  8
_0-0_0
  6
CONTINUOUS
 62
    7
 10
764.49545250000006
 20
446.90394649999996
 11
764.47970550000002
 21
446.77464350000002
  0
ARC
  8
_0-0_0
  6
CONTINUOUS
 62
    7
 10
772.42892449999999
 20
445.87464950000003
 40
8
 50
173.54054500000001
 51
178.567455
  0
LINE
  8
_0-0_0
  6
CONTINUOUS
 62
    7
 10
764.43142750000004
 20
446.07463050000001
 11
764.42922950000002
 21
445.9453585
  0
LINE
  8
_0-0_0
  6
CONTINUOUS
 62
    7
 10
780.42642250000006
 20
446.07463050000001
 11
780.42861949999997
 21
445.9453585
  0
ARC
  8
_0-0_0
  6
CONTINUOUS
 62
    7
 10
772.42892449999999
 20
445.87464950000003
 40
8
 50
1.432544
 51
6.4594489999999993
  0
LINE
  8
_0-0_0
  6
CONTINUOUS
 62
    7
 10
780.3624575
 20
446.90394649999996
 11
780.37814349999996
 21
446.77464350000002
  0
LINE
  8
_0-0_0
  6
CONTINUOUS
 62
    7
 10
780.3624575
 20
446.90394649999996
 11
780.34280450000006
 21
447.04536450000001
  0
LINE
  8
_0-0_0
  6
CONTINUOUS
 62
    7
 10
780.32260150000002
 20
447.17463650000002
 11
780.34280450000006
 21
447.04536450000001
  0
ARC
  8
_0-0_0
  6
CONTINUOUS
 62
    7
 10
772.42892449999999
 20
445.87464950000003
 40
8
 50
9.3520350000000008
 51
14.477510999999998
  0
LINE
  8
_0-0_0
  6
CONTINUOUS
 62
    7
 10
780.14035049999995
 20
448.00392150000005
 11
780.17489650000005
 21
447.87464950000003
  0
LINE
  8
_0-0_0
  6
CONTINUOUS
 62
    7
 10
780.14035049999995
 20
448.00392150000005
 11
780.09994549999999
 21
448.14534049999997
  0
LINE
  8
_0-0_0
  6
CONTINUOUS
 62
    7
 10
780.06045549999999
 20
448.27464350000002
 11
780.09994549999999
 21
448.14534049999997
  0
ARC
  8
_0-0_0
  6
CONTINUOUS
 62
    7
 10
772.42892449999999
 20
445.87464950000003
 40
8
 50
17.457602999999999
 51
22.799030999999999
  0
LINE
  8
_0-0_0
  6
CONTINUOUS
 62
    7
 10
779.74819950000006
 20
449.10392750000005
 11
779.80392449999999
 21
448.97465550000004
  0
LINE
  8
_0-0_0
  6
CONTINUOUS
 62
    7
 10
779.74819950000006
 20
449.10392750000005
 11
779.68417350000004
 21
449.24534649999998
  0
LINE
  8
_0-0_0
  6
CONTINUOUS
 62
    7
 10
779.62271150000004
 20
449.37464950000003
 11
779.68417350000004
 21
449.24534649999998
  0
ARC
  8
_0-0_0
  6
CONTINUOUS
 62
    7
 10
772.42892449999999
 20
445.87464950000003
 40
8
 50
25.944476999999999
 51
31.668240000000001
  0
LINE
  8
_0-0_0
  6
CONTINUOUS
 62
    7
 10
779.15628049999998
 20
450.20393350000006
 11
779.23776250000003
 21
450.07463050000001
  0
LINE
  8
_0-0_0
  6
CONTINUOUS
 62
    7
 10
779.15628049999998
 20
450.20393350000006
 11
779.06314050000003
 21
450.34535249999999
  0
CIRCLE
  8
_0-0_0
  6
CONTINUOUS
 62
    7
 10
772.42892449999999
 20
445.87464950000003
 40
7.5
  0
LINE
  8
_0-0_0
  6
CONTINUOUS
 62
    7
 10
779.23776250000003
 20
450.07463050000001
 11
781.42892449999999
 21
450.07463050000001
  0
LINE
  8
_0-0_0
  6
CONTINUOUS
 62
    7
 10
779.62271150000004
 20
449.37464950000003
 11
781.42892449999999
 21
449.37464950000003
  0
LINE
  8
_0-0_0
  6
CONTINUOUS
 62
    7
 10
779.80392449999999
 20
448.97465550000004
 11
781.42892449999999
 21
448.97465550000004
  0
LINE
  8
_0-0_0
  6
CONTINUOUS
 62
    7
 10
780.06045549999999
 20
448.27464350000002
 11
781.42892449999999
 21
448.27464350000002
  0
LINE
  8
_0-0_0
  6
CONTINUOUS
 62
    7
 10
780.17489650000005
 20
447.87464950000003
 11
781.42892449999999
 21
447.87464950000003
  0
LINE
  8
_0-0_0
  6
CONTINUOUS
 62
    7
 10
780.32260150000002
 20
447.17463650000002
 11
781.42892449999999
 21
447.17463650000002
  0
LINE
  8
_0-0_0
  6
CONTINUOUS
 62
    7
 10
780.37814349999996
 20
446.77464350000002
 11
781.42892449999999
 21
446.77464350000002
  0
LINE
  8
_0-0_0
  6
CONTINUOUS
 62
    7
 10
780.42642250000006
 20
446.07463050000001
 11
781.42892449999999
 21
446.07463050000001
  0
LINE
  8
_0-0_0
  6
CONTINUOUS
 62
    7
 10
781.92892449999999
 20
429.37464950000003
 11
781.42892449999999
 21
429.37464950000003
  0
LINE
  8
_0-0_0
  6
CONTINUOUS
 62
    7
 10
781.92892449999999
 20
431.57463050000001
 11
781.42892449999999
 21
431.57463050000001
  0
LINE
  8
_0-0_0
  6
CONTINUOUS
 62
    7
 10
781.92892449999999
 20
433.87464950000003
 11
781.42892449999999
 21
433.87464950000003
  0
LINE
  8
_0-0_0
  6
CONTINUOUS
 62
    7
 10
781.42892449999999
 20
436.17463650000002
 11
781.92892449999999
 21
436.17463650000002
  0
LINE
  8
_0-0_0
  6
CONTINUOUS
 62
    7
 10
781.92892449999999
 20
456.37464950000003
 11
781.92892449999999
 21
456.27464350000002
  0
LINE
  8
_0-0_0
  6
CONTINUOUS
 62
    7
 10
277.92892449999999
 20
456.37464950000003
 11
277.92892449999999
 21
456.27464350000002
  0
LINE
  8
_0-0_0
  6
CONTINUOUS
 62
    7
 10
277.92892449999999
 20
436.17463650000002
 11
278.42892449999999
 21
436.17463650000002
  0
LINE
  8
_0-0_0
  6
CONTINUOUS
 62
    7
 10
278.42892449999999
 20
456.07463050000001
 11
781.42892449999999
 21
456.07463050000001
  0
LINE
  8
_0-0_0
  6
CONTINUOUS
 62
    7
 10
278.42892449999999
 20
455.48066749999998
 11
781.42892449999999
 21
455.48066749999998
  0
LINE
  8
_0-0_0
  6
CONTINUOUS
 62
    7
 10
293.9741515
 20
450.47465550000004
 11
765.88369750000004
 21
450.47465550000004
  0
LINE
  8
_0-0_0
  6
CONTINUOUS
 62
    7
 10
778.97415150000006
 20
450.47465550000004
 11
781.42892449999999
 21
450.47465550000004
  0
LINE
  8
_0-0_0
  6
CONTINUOUS
 62
    7
 10
278.42892449999999
 20
450.47465550000004
 11
280.88369750000004
 21
450.47465550000004
  0
LINE
  8
_0-0_0
  6
CONTINUOUS
 62
    7
 10
277.92892449999999
 20
429.37464950000003
 11
278.42892449999999
 21
429.37464950000003
  0
LINE
  8
_0-0_0
  6
CONTINUOUS
 62
    7
 10
277.92892449999999
 20
431.57463050000001
 11
278.42892449999999
 21
431.57463050000001
  0
LINE
  8
_0-0_0
  6
CONTINUOUS
 62
    7
 10
277.92892449999999
 20
433.87464950000003
 11
278.42892449999999
 21
433.87464950000003
  0
LINE
  8
_0-0_0
  6
CONTINUOUS
 62
    7
 10
278.42892449999999
 20
450.07463050000001
 11
280.62011749999999
 21
450.07463050000001
  0
LINE
  8
_0-0_0
  6
CONTINUOUS
 62
    7
 10
278.42892449999999
 20
449.37464950000003
 11
280.23518350000001
 21
449.37464950000003
  0
LINE
  8
_0-0_0
  6
CONTINUOUS
 62
    7
 10
278.42892449999999
 20
448.97465550000004
 11
280.05398550000001
 21
448.97465550000004
  0
LINE
  8
_0-0_0
  6
CONTINUOUS
 62
    7
 10
278.42892449999999
 20
448.27464350000002
 11
279.79742450000003
 21
448.27464350000002
  0
LINE
  8
_0-0_0
  6
CONTINUOUS
 62
    7
 10
278.42892449999999
 20
447.87464950000003
 11
279.68296850000002
 21
447.87464950000003
  0
LINE
  8
_0-0_0
  6
CONTINUOUS
 62
    7
 10
278.42892449999999
 20
447.17463650000002
 11
279.53526350000004
 21
447.17463650000002
  0
LINE
  8
_0-0_0
  6
CONTINUOUS
 62
    7
 10
278.42892449999999
 20
446.77464350000002
 11
279.47972149999998
 21
446.77464350000002
  0
LINE
  8
_0-0_0
  6
CONTINUOUS
 62
    7
 10
278.42892449999999
 20
446.07463050000001
 11
279.43142750000004
 21
446.07463050000001
  0
LINE
  8
_0-0_0
  6
CONTINUOUS
 62
    7
 10
294.23774750000001
 20
450.07463050000001
 11
765.62014750000003
 21
450.07463050000001
  0
LINE
  8
_0-0_0
  6
CONTINUOUS
 62
    7
 10
294.6226805
 20
449.37464950000003
 11
765.23519950000002
 21
449.37464950000003
  0
LINE
  8
_0-0_0
  6
CONTINUOUS
 62
    7
 10
294.80389450000001
 20
448.97465550000004
 11
765.05398549999995
 21
448.97465550000004
  0
LINE
  8
_0-0_0
  6
CONTINUOUS
 62
    7
 10
295.06045549999999
 20
448.27464350000002
 11
764.79745449999996
 21
448.27464350000002
  0
LINE
  8
_0-0_0
  6
CONTINUOUS
 62
    7
 10
295.17489650000005
 20
447.87464950000003
 11
764.68295250000006
 21
447.87464950000003
  0
LINE
  8
_0-0_0
  6
CONTINUOUS
 62
    7
 10
295.32260150000002
 20
447.17463650000002
 11
764.53524749999997
 21
447.17463650000002
  0
LINE
  8
_0-0_0
  6
CONTINUOUS
 62
    7
 10
295.37814349999996
 20
446.77464350000002
 11
764.47970550000002
 21
446.77464350000002
  0
LINE
  8
_0-0_0
  6
CONTINUOUS
 62
    7
 10
295.42643750000002
 20
446.07463050000001
 11
764.43142750000004
 21
446.07463050000001
  0
LINE
  8
_0-0_0
  6
CONTINUOUS
 62
    7
 10
781.92892449999999
 20
427.87464950000003
 11
781.42892449999999
 21
427.87464950000003
  0
LINE
  8
_0-0_0
  6
CONTINUOUS
 62
    7
 10
781.92892449999999
 20
455.47465550000004
 11
781.92892449999999
 21
456.27464350000002
  0
LINE
  8
_0-0_0
  6
CONTINUOUS
 62
    7
 10
781.92892449999999
 20
427.67463650000002
 11
781.92892449999999
 21
455.47465550000004
  0
LINE
  8
_0-0_0
  6
CONTINUOUS
 62
    7
 10
277.92892449999999
 20
455.47465550000004
 11
277.92892449999999
 21
456.27464350000002
  0
LINE
  8
_0-0_0
  6
CONTINUOUS
 62
    7
 10
277.92892449999999
 20
427.67463650000002
 11
277.92892449999999
 21
455.47465550000004
  0
ARC
  8
_0-0_0
  6
CONTINUOUS
 62
    7
 10
287.42892449999999
 20
446.57463050000001
 40
12.800000000000001
 50
73.932597000000001
 51
106.06740099999999
  0
ARC
  8
_0-0_0
  6
CONTINUOUS
 62
    7
 10
772.42892449999999
 20
446.57463050000001
 40
12.800000000000001
 50
73.932597000000001
 51
106.06740099999999
  0
LINE
  8
_0-0_0
  6
CONTINUOUS
 62
    7
 10
781.92892449999999
 20
456.37464950000003
 11
781.92892449999999
 21
458.87464950000003
  0
LINE
  8
_0-0_0
  6
CONTINUOUS
 62
    7
 10
277.92892449999999
 20
458.87464950000003
 11
781.92892449999999
 21
458.87464950000003
  0
LINE
  8
_0-0_0
  6
CONTINUOUS
 62
    7
 10
277.92892449999999
 20
456.37464950000003
 11
277.92892449999999
 21
458.87464950000003
  0
LINE
  8
_0-0_0
  6
CONTINUOUS
 62
    7
 10
277.92892449999999
 20
427.87464950000003
 11
278.42892449999999
 21
427.87464950000003
  0
ARC
  8
_0-0_0
  6
CONTINUOUS
 62
    7
 10
720.22891249999998
 20
432.77464350000002
 40
0.2
 50
339.62356199999999
 51
90.000002999999978
  0
LINE
  8
_0-0_0
  6
CONTINUOUS
 62
    7
 10
720.41641249999998
 20
432.70500149999998
 11
719.11642449999999
 21
429.20500149999998
  0
ARC
  8
_0-0_0
  6
CONTINUOUS
 62
    7
 10
718.92892449999999
 20
429.27464350000002
 40
0.2
 50
200.37643
 51
339.62356199999999
  0
LINE
  8
_0-0_0
  6
CONTINUOUS
 62
    7
 10
717.44143650000001
 20
432.70500149999998
 11
718.74142449999999
 21
429.20500149999998
  0
ARC
  8
_0-0_0
  6
CONTINUOUS
 62
    7
 10
717.62893650000001
 20
432.77464350000002
 40
0.2
 50
90.000003000000007
 51
200.37643
  0
LINE
  8
_0-0_0
  6
CONTINUOUS
 62
    7
 10
717.62893650000001
 20
432.97465550000004
 11
720.22891249999998
 21
432.97465550000004
  0
ARC
  8
_0-0_0
  6
CONTINUOUS
 62
    7
 10
350.22891249999998
 20
432.77464350000002
 40
0.2
 50
339.62356199999999
 51
90.000002999999978
  0
LINE
  8
_0-0_0
  6
CONTINUOUS
 62
    7
 10
350.41641249999998
 20
432.70500149999998
 11
349.11642449999999
 21
429.20500149999998
  0
ARC
  8
_0-0_0
  6
CONTINUOUS
 62
    7
 10
348.92892449999999
 20
429.27464350000002
 40
0.2
 50
200.37643
 51
339.62356199999999
  0
LINE
  8
_0-0_0
  6
CONTINUOUS
 62
    7
 10
347.44143650000001
 20
432.70500149999998
 11
348.74142449999999
 21
429.20500149999998
  0
ARC
  8
_0-0_0
  6
CONTINUOUS
 62
    7
 10
347.62893650000001
 20
432.77464350000002
 40
0.2
 50
90.000003000000007
 51
200.37643
  0
LINE
  8
_0-0_0
  6
CONTINUOUS
 62
    7
 10
347.62893650000001
 20
432.97465550000004
 11
350.22891249999998
 21
432.97465550000004
  0
CIRCLE
  8
_0-0_0
  6
CONTINUOUS
 62
    7
 10
287.42892449999999
 20
445.87464950000003
 40
5
  0
CIRCLE
  8
_0-0_0
  6
CONTINUOUS
 62
    7
 10
772.42892449999999
 20
445.87464950000003
 40
5
  0
LINE
  8
_0-0_0
  6
CONTINUOUS
 62
    7
 10
782.92892449999999
 20
455.47465550000004
 11
781.92892449999999
 21
455.47465550000004
  0
LINE
  8
_0-0_0
  6
CONTINUOUS
 62
    7
 10
782.92892449999999
 20
456.51161249999996
 11
781.92892449999999
 21
456.51161249999996
  0
LINE
  8
_0-0_0
  6
CONTINUOUS
 62
    7
 10
782.92892449999999
 20
427.67463650000002
 11
781.92892449999999
 21
427.67463650000002
  0
LINE
  8
_0-0_0
  6
CONTINUOUS
 62
    7
 10
276.92892449999999
 20
455.47465550000004
 11
277.92892449999999
 21
455.47465550000004
  0
LINE
  8
_0-0_0
  6
CONTINUOUS
 62
    7
 10
276.92892449999999
 20
456.47465550000004
 11
277.92892449999999
 21
456.47465550000004
  0
LINE
  8
_0-0_0
  6
CONTINUOUS
 62
    7
 10
276.92892449999999
 20
427.67463650000002
 11
277.92892449999999
 21
427.67463650000002
  0
LINE
  8
_0-0_0
  6
CONTINUOUS
 62
    7
 10
782.92892449999999
 20
458.67463650000002
 11
781.92892449999999
 21
458.67463650000002
  0
LINE
  8
_0-0_0
  6
CONTINUOUS
 62
    7
 10
276.92892449999999
 20
458.67463650000002
 11
277.92892449999999
 21
458.67463650000002
  0
LINE
  8
_0-0_0
  6
CONTINUOUS
 62
    7
 10
783.92892449999999
 20
455.06044050000003
 11
783.92794849999996
 21
455.07893350000006
  0
LINE
  8
_0-0_0
  6
CONTINUOUS
 62
    7
 10
783.92794849999996
 20
455.07893350000006
 11
783.9249575
 21
455.09736650000002
  0
LINE
  8
_0-0_0
  6
CONTINUOUS
 62
    7
 10
783.9249575
 20
455.09736650000002
 11
783.91970849999996
 21
455.11650050000003
  0
LINE
  8
_0-0_0
  6
CONTINUOUS
 62
    7
 10
783.91970849999996
 20
455.11650050000003
 11
783.91232349999996
 21
455.1355135
  0
LINE
  8
_0-0_0
  6
CONTINUOUS
 62
    7
 10
783.91232349999996
 20
455.1355135
 11
783.89175450000005
 21
455.1722565
  0
LINE
  8
_0-0_0
  6
CONTINUOUS
 62
    7
 10
783.89175450000005
 20
455.1722565
 11
783.86337249999997
 21
455.20793149999997
  0
LINE
  8
_0-0_0
  6
CONTINUOUS
 62
    7
 10
783.86337249999997
 20
455.20793149999997
 11
783.82748449999997
 21
455.24220249999996
  0
LINE
  8
_0-0_0
  6
CONTINUOUS
 62
    7
 10
783.82748449999997
 20
455.24220249999996
 11
783.77890049999996
 21
455.27867149999997
  0
LINE
  8
_0-0_0
  6
CONTINUOUS
 62
    7
 10
783.77890049999996
 20
455.27867149999997
 11
783.72207649999996
 21
455.31269850000001
  0
LINE
  8
_0-0_0
  6
CONTINUOUS
 62
    7
 10
783.72207649999996
 20
455.31269850000001
 11
783.65792850000003
 21
455.34394850000001
  0
LINE
  8
_0-0_0
  6
CONTINUOUS
 62
    7
 10
783.65792850000003
 20
455.34394850000001
 11
783.58731050000006
 21
455.37217750000002
  0
LINE
  8
_0-0_0
  6
CONTINUOUS
 62
    7
 10
783.58731050000006
 20
455.37217750000002
 11
783.53921549999995
 21
455.38853449999999
  0
LINE
  8
_0-0_0
  6
CONTINUOUS
 62
    7
 10
783.53921549999995
 20
455.38853449999999
 11
783.48910550000005
 21
455.40354950000005
  0
LINE
  8
_0-0_0
  6
CONTINUOUS
 62
    7
 10
783.48910550000005
 20
455.40354950000005
 11
783.43240349999996
 21
455.41831950000005
  0
LINE
  8
_0-0_0
  6
CONTINUOUS
 62
    7
 10
783.43240349999996
 20
455.41831950000005
 11
783.37380949999999
 21
455.43141149999997
  0
LINE
  8
_0-0_0
  6
CONTINUOUS
 62
    7
 10
783.37380949999999
 20
455.43141149999997
 11
783.25698850000003
 21
455.45173650000004
  0
LINE
  8
_0-0_0
  6
CONTINUOUS
 62
    7
 10
783.25698850000003
 20
455.45173650000004
 11
783.14956649999999
 21
455.46443150000005
  0
LINE
  8
_0-0_0
  6
CONTINUOUS
 62
    7
 10
783.14956649999999
 20
455.46443150000005
 11
783.03982550000001
 21
455.47209150000003
  0
LINE
  8
_0-0_0
  6
CONTINUOUS
 62
    7
 10
783.03982550000001
 20
455.47209150000003
 11
782.92892449999999
 21
455.47465550000004
  0
LINE
  8
_0-0_0
  6
CONTINUOUS
 62
    7
 10
783.92892449999999
 20
455.06044050000003
 11
783.92892449999999
 21
456.06050149999999
  0
LINE
  8
_0-0_0
  6
CONTINUOUS
 62
    7
 10
783.92892449999999
 20
456.06050149999999
 11
783.92605549999996
 21
456.09205650000001
  0
LINE
  8
_0-0_0
  6
CONTINUOUS
 62
    7
 10
783.92605549999996
 20
456.09205650000001
 11
783.91732750000006
 21
456.12413049999998
  0
LINE
  8
_0-0_0
  6
CONTINUOUS
 62
    7
 10
783.91732750000006
 20
456.12413049999998
 11
783.90274050000005
 21
456.15641749999998
  0
LINE
  8
_0-0_0
  6
CONTINUOUS
 62
    7
 10
783.90274050000005
 20
456.15641749999998
 11
783.88253750000001
 21
456.18858350000005
  0
LINE
  8
_0-0_0
  6
CONTINUOUS
 62
    7
 10
783.88253750000001
 20
456.18858350000005
 11
783.86593649999998
 21
456.20979350000005
  0
LINE
  8
_0-0_0
  6
CONTINUOUS
 62
    7
 10
783.86593649999998
 20
456.20979350000005
 11
783.8470155
 21
456.23075849999998
  0
LINE
  8
_0-0_0
  6
CONTINUOUS
 62
    7
 10
783.8470155
 20
456.23075849999998
 11
783.80227650000006
 21
456.27153050000004
  0
LINE
  8
_0-0_0
  6
CONTINUOUS
 62
    7
 10
783.80227650000006
 20
456.27153050000004
 11
783.74899249999999
 21
456.31028749999996
  0
LINE
  8
_0-0_0
  6
CONTINUOUS
 62
    7
 10
783.74899249999999
 20
456.31028749999996
 11
783.69906649999996
 21
456.34050049999996
  0
LINE
  8
_0-0_0
  6
CONTINUOUS
 62
    7
 10
783.69906649999996
 20
456.34050049999996
 11
783.64437850000002
 21
456.36869850000005
  0
LINE
  8
_0-0_0
  6
CONTINUOUS
 62
    7
 10
783.64437850000002
 20
456.36869850000005
 11
783.58541850000006
 21
456.39472950000004
  0
LINE
  8
_0-0_0
  6
CONTINUOUS
 62
    7
 10
783.58541850000006
 20
456.39472950000004
 11
783.53866549999998
 21
456.41273550000005
  0
LINE
  8
_0-0_0
  6
CONTINUOUS
 62
    7
 10
783.53866549999998
 20
456.41273550000005
 11
783.48995950000005
 21
456.42933649999998
  0
LINE
  8
_0-0_0
  6
CONTINUOUS
 62
    7
 10
783.48995950000005
 20
456.42933649999998
 11
783.38760349999995
 21
456.45820649999996
  0
LINE
  8
_0-0_0
  6
CONTINUOUS
 62
    7
 10
783.38760349999995
 20
456.45820649999996
 11
783.27981550000004
 21
456.4810635
  0
LINE
  8
_0-0_0
  6
CONTINUOUS
 62
    7
 10
783.27981550000004
 20
456.4810635
 11
783.16824350000002
 21
456.4976355
  0
LINE
  8
_0-0_0
  6
CONTINUOUS
 62
    7
 10
783.16824350000002
 20
456.4976355
 11
783.05416850000006
 21
456.50782749999996
  0
LINE
  8
_0-0_0
  6
CONTINUOUS
 62
    7
 10
783.05416850000006
 20
456.50782749999996
 11
782.92892449999999
 21
456.51161249999996
  0
ARC
  8
_0-0_0
  6
CONTINUOUS
 62
    7
 10
782.92892449999999
 20
428.67463650000002
 40
1
 50
269.99999700000001
 51
0
  0
LINE
  8
_0-0_0
  6
CONTINUOUS
 62
    7
 10
783.92892449999999
 20
428.67463650000002
 11
783.92892449999999
 21
455.06044050000003
  0
LINE
  8
_0-0_0
  6
CONTINUOUS
 62
    7
 10
275.92892449999999
 20
455.06044050000003
 11
275.92993150000001
 21
455.07893350000006
  0
LINE
  8
_0-0_0
  6
CONTINUOUS
 62
    7
 10
275.92993150000001
 20
455.07893350000006
 11
275.93292250000002
 21
455.09736650000002
  0
LINE
  8
_0-0_0
  6
CONTINUOUS
 62
    7
 10
275.93292250000002
 20
455.09736650000002
 11
275.93817150000001
 21
455.11650050000003
  0
LINE
  8
_0-0_0
  6
CONTINUOUS
 62
    7
 10
275.93817150000001
 20
455.11650050000003
 11
275.94554149999999
 21
455.1355135
  0
LINE
  8
_0-0_0
  6
CONTINUOUS
 62
    7
 10
275.94554149999999
 20
455.1355135
 11
275.96609549999999
 21
455.1722565
  0
LINE
  8
_0-0_0
  6
CONTINUOUS
 62
    7
 10
275.96609549999999
 20
455.1722565
 11
275.99449149999998
 21
455.20793149999997
  0
LINE
  8
_0-0_0
  6
CONTINUOUS
 62
    7
 10
275.99449149999998
 20
455.20793149999997
 11
276.03036550000002
 21
455.24220249999996
  0
LINE
  8
_0-0_0
  6
CONTINUOUS
 62
    7
 10
276.03036550000002
 20
455.24220249999996
 11
276.07899450000002
 21
455.27867149999997
  0
LINE
  8
_0-0_0
  6
CONTINUOUS
 62
    7
 10
276.07899450000002
 20
455.27867149999997
 11
276.13577250000003
 21
455.31269850000001
  0
LINE
  8
_0-0_0
  6
CONTINUOUS
 62
    7
 10
276.13577250000003
 20
455.31269850000001
 11
276.19992050000002
 21
455.34394850000001
  0
LINE
  8
_0-0_0
  6
CONTINUOUS
 62
    7
 10
276.19992050000002
 20
455.34394850000001
 11
276.27056849999997
 21
455.37217750000002
  0
LINE
  8
_0-0_0
  6
CONTINUOUS
 62
    7
 10
276.27056849999997
 20
455.37217750000002
 11
276.31864949999999
 21
455.38853449999999
  0
LINE
  8
_0-0_0
  6
CONTINUOUS
 62
    7
 10
276.31864949999999
 20
455.38853449999999
 11
276.36878950000005
 21
455.40354950000005
  0
LINE
  8
_0-0_0
  6
CONTINUOUS
 62
    7
 10
276.36878950000005
 20
455.40354950000005
 11
276.42549150000002
 21
455.41831950000005
  0
LINE
  8
_0-0_0
  6
CONTINUOUS
 62
    7
 10
276.42549150000002
 20
455.41831950000005
 11
276.48410050000001
 21
455.43141149999997
  0
LINE
  8
_0-0_0
  6
CONTINUOUS
 62
    7
 10
276.48410050000001
 20
455.43141149999997
 11
276.60087550000003
 21
455.45173650000004
  0
LINE
  8
_0-0_0
  6
CONTINUOUS
 62
    7
 10
276.60087550000003
 20
455.45173650000004
 11
276.7082825
 21
455.46443150000005
  0
LINE
  8
_0-0_0
  6
CONTINUOUS
 62
    7
 10
276.7082825
 20
455.46443150000005
 11
276.81805450000002
 21
455.47209150000003
  0
LINE
  8
_0-0_0
  6
CONTINUOUS
 62
    7
 10
276.81805450000002
 20
455.47209150000003
 11
276.92892449999999
 21
455.47465550000004
  0
LINE
  8
_0-0_0
  6
CONTINUOUS
 62
    7
 10
275.92892449999999
 20
456.03010549999999
 11
275.93182350000001
 21
456.06098950000001
  0
LINE
  8
_0-0_0
  6
CONTINUOUS
 62
    7
 10
275.93182350000001
 20
456.06098950000001
 11
275.94052150000005
 21
456.0924225
  0
LINE
  8
_0-0_0
  6
CONTINUOUS
 62
    7
 10
275.94052150000005
 20
456.0924225
 11
275.95500149999998
 21
456.12409950000006
  0
LINE
  8
_0-0_0
  6
CONTINUOUS
 62
    7
 10
275.95500149999998
 20
456.12409950000006
 11
275.97517449999998
 21
456.15571650000004
  0
LINE
  8
_0-0_0
  6
CONTINUOUS
 62
    7
 10
275.97517449999998
 20
456.15571650000004
 11
275.99169949999998
 21
456.17655950000005
  0
LINE
  8
_0-0_0
  6
CONTINUOUS
 62
    7
 10
275.99169949999998
 20
456.17655950000005
 11
276.01058950000004
 21
456.19718950000004
  0
LINE
  8
_0-0_0
  6
CONTINUOUS
 62
    7
 10
276.01058950000004
 20
456.19718950000004
 11
276.05523649999998
 21
456.23735050000005
  0
LINE
  8
_0-0_0
  6
CONTINUOUS
 62
    7
 10
276.05523649999998
 20
456.23735050000005
 11
276.10836749999999
 21
456.27552850000006
  0
LINE
  8
_0-0_0
  6
CONTINUOUS
 62
    7
 10
276.10836749999999
 20
456.27552850000006
 11
276.15826449999997
 21
456.30537449999997
  0
LINE
  8
_0-0_0
  6
CONTINUOUS
 62
    7
 10
276.15826449999997
 20
456.30537449999997
 11
276.21293650000001
 21
456.3332365
  0
LINE
  8
_0-0_0
  6
CONTINUOUS
 62
    7
 10
276.21293650000001
 20
456.3332365
 11
276.27191149999999
 21
456.35896349999996
  0
LINE
  8
_0-0_0
  6
CONTINUOUS
 62
    7
 10
276.27191149999999
 20
456.35896349999996
 11
276.31866450000001
 21
456.37675450000006
  0
LINE
  8
_0-0_0
  6
CONTINUOUS
 62
    7
 10
276.31866450000001
 20
456.37675450000006
 11
276.36737049999999
 21
456.39317349999999
  0
LINE
  8
_0-0_0
  6
CONTINUOUS
 62
    7
 10
276.36737049999999
 20
456.39317349999999
 11
276.46980250000001
 21
456.42176849999998
  0
LINE
  8
_0-0_0
  6
CONTINUOUS
 62
    7
 10
276.46980250000001
 20
456.42176849999998
 11
276.57762149999996
 21
456.44435150000004
  0
LINE
  8
_0-0_0
  6
CONTINUOUS
 62
    7
 10
276.57762149999996
 20
456.44435150000004
 11
276.6893005
 21
456.46076949999997
  0
LINE
  8
_0-0_0
  6
CONTINUOUS
 62
    7
 10
276.6893005
 20
456.46076949999997
 11
276.80346650000001
 21
456.47087150000004
  0
LINE
  8
_0-0_0
  6
CONTINUOUS
 62
    7
 10
276.80346650000001
 20
456.47087150000004
 11
276.92892449999999
 21
456.47465550000004
  0
LINE
  8
_0-0_0
  6
CONTINUOUS
 62
    7
 10
275.92892449999999
 20
455.06044050000003
 11
275.92892449999999
 21
456.03010549999999
  0
ARC
  8
_0-0_0
  6
CONTINUOUS
 62
    7
 10
276.92892449999999
 20
428.67463650000002
 40
1
 50
180.00000900000003
 51
269.99999700000001
  0
LINE
  8
_0-0_0
  6
CONTINUOUS
 62
    7
 10
275.92892449999999
 20
428.67463650000002
 11
275.92892449999999
 21
455.06044050000003
  0
LINE
  8
_0-0_0
  6
CONTINUOUS
 62
    7
 10
783.92892449999999
 20
456.06050149999999
 11
783.92892449999999
 21
457.67463650000002
  0
ARC
  8
_0-0_0
  6
CONTINUOUS
 62
    7
 10
782.92892449999999
 20
457.67463650000002
 40
1
 50
0
 51
90.000003000000007
  0
ARC
  8
_0-0_0
  6
CONTINUOUS
 62
    7
 10
276.92892449999999
 20
457.67463650000002
 40
1
 50
90.000003000000007
 51
180.00000900000001
  0
LINE
  8
_0-0_0
  6
CONTINUOUS
 62
    7
 10
275.92892449999999
 20
456.03010549999999
 11
275.92892449999999
 21
457.67463650000002
  0
LINE
  8
_0-0_0
  6
CONTINUOUS
 62
    7
 10
188.11326650000001
 20
425.57456950000005
 11
188.11326650000001
 21
425.54957550000006
  0
LINE
  8
_0-0_0
  6
CONTINUOUS
 62
    7
 10
188.11326650000001
 20
422.49745150000001
 11
188.11326650000001
 21
422.59956350000004
  0
LINE
  8
_0-0_0
  6
CONTINUOUS
 62
    7
 10
188.11326650000001
 20
401.47456350000004
 11
188.11326650000001
 21
402.25169349999999
  0
LINE
  8
_0-0_0
  6
CONTINUOUS
 62
    7
 10
171.31326350000001
 20
401.47456350000004
 11
188.11326650000001
 21
401.47456350000004
  0
LINE
  8
_0-0_0
  6
CONTINUOUS
 62
    7
 10
171.31326350000001
 20
409.37455750000004
 11
171.31326350000001
 21
401.47456350000004
  0
LINE
  8
_0-0_0
  6
CONTINUOUS
 62
    7
 10
171.31326350000001
 20
421.82987950000006
 11
171.31326350000001
 21
415.37455750000004
  0
LINE
  8
_0-0_0
  6
CONTINUOUS
 62
    7
 10
188.61325049999999
 20
404.97456350000004
 11
188.81326350000001
 21
404.97456350000004
  0
LINE
  8
_0-0_0
  6
CONTINUOUS
 62
    7
 10
188.81326350000001
 20
404.97456350000004
 11
188.81326350000001
 21
407.97456350000004
  0
LINE
  8
_0-0_0
  6
CONTINUOUS
 62
    7
 10
188.81326350000001
 20
421.57456950000005
 11
188.81326350000001
 21
407.97456350000004
  0
LINE
  8
_0-0_0
  6
CONTINUOUS
 62
    7
 10
188.61325049999999
 20
424.57456950000005
 11
188.81326350000001
 21
424.57456950000005
  0
LINE
  8
_0-0_0
  6
CONTINUOUS
 62
    7
 10
188.81326350000001
 20
421.57456950000005
 11
188.81326350000001
 21
424.57456950000005
  0
LINE
  8
_0-0_0
  6
CONTINUOUS
 62
    7
 10
187.91326950000001
 20
423.87364249999996
 11
187.91326950000001
 21
422.69444250000004
  0
LINE
  8
_0-0_0
  6
CONTINUOUS
 62
    7
 10
187.91326950000001
 20
426.07456950000005
 11
187.91326950000001
 21
425.57456950000005
  0
LINE
  8
_0-0_0
  6
CONTINUOUS
 62
    7
 10
186.91326950000001
 20
423.15806550000002
 11
186.91326950000001
 21
423.87455750000004
  0
ARC
  8
_0-0_0
  6
CONTINUOUS
 62
    7
 10
186.61326650000001
 20
421.17457550000006
 40
2
 50
0
 51
90.000003000000007
  0
LINE
  8
_0-0_0
  6
CONTINUOUS
 62
    7
 10
188.61326650000001
 20
417.67457550000006
 11
188.61326650000001
 21
420.67457550000006
  0
LINE
  8
_0-0_0
  6
CONTINUOUS
 62
    7
 10
188.61326650000001
 20
420.67457550000006
 11
188.61326650000001
 21
421.17457550000006
  0
LINE
  8
_0-0_0
  6
CONTINUOUS
 62
    7
 10
188.61326650000001
 20
403.57456950000005
 11
188.61326650000001
 21
417.17457550000006
  0
LINE
  8
_0-0_0
  6
CONTINUOUS
 62
    7
 10
188.61326650000001
 20
417.67457550000006
 11
188.61326650000001
 21
417.17457550000006
  0
ARC
  8
_0-0_0
  6
CONTINUOUS
 62
    7
 10
186.61326650000001
 20
403.57456950000005
 40
2
 50
273.84026500000004
 51
0.000010000000014
  0
LINE
  8
_0-0_0
  6
CONTINUOUS
 62
    7
 10
173.31326350000001
 20
423.15806550000002
 11
173.31326350000001
 21
423.87455750000004
  0
LINE
  8
_0-0_0
  6
CONTINUOUS
 62
    7
 10
173.31326350000001
 20
423.15806550000002
 11
173.31326350000001
 21
423.15193150000005
  0
LINE
  8
_0-0_0
  6
CONTINUOUS
 62
    7
 10
171.31326350000001
 20
421.82987950000006
 11
171.31326350000001
 21
422.32987950000006
  0
LINE
  8
_0-0_0
  6
CONTINUOUS
 62
    7
 10
171.6132585
 20
421.17457550000006
 11
171.6132585
 21
407.57456950000005
  0
LINE
  8
_0-0_0
  6
CONTINUOUS
 62
    7
 10
171.6132585
 20
407.07456950000005
 11
171.6132585
 21
407.57456950000005
  0
LINE
  8
_0-0_0
  6
CONTINUOUS
 62
    7
 10
171.6132585
 20
404.07456950000005
 11
171.6132585
 21
407.07456950000005
  0
LINE
  8
_0-0_0
  6
CONTINUOUS
 62
    7
 10
171.6132585
 20
403.57456950000005
 11
171.6132585
 21
404.07456950000005
  0
ARC
  8
_0-0_0
  6
CONTINUOUS
 62
    7
 10
173.6132585
 20
421.17457550000006
 40
2
 50
93.840255999999997
 51
180.00000900000001
  0
LINE
  8
_0-0_0
  6
CONTINUOUS
 62
    7
 10
171.31326350000001
 20
409.37455750000004
 11
171.31326350000001
 21
415.37455750000004
  0
LINE
  8
_0-0_0
  6
CONTINUOUS
 62
    7
 10
171.31326350000001
 20
423.87455750000004
 11
171.31326350000001
 21
422.32987950000006
  0
LINE
  8
_0-0_0
  6
CONTINUOUS
 62
    7
 10
171.31326350000001
 20
415.37455750000004
 11
171.61325049999999
 21
415.37455750000004
  0
LINE
  8
_0-0_0
  6
CONTINUOUS
 62
    7
 10
171.31326350000001
 20
409.37455750000004
 11
171.61325049999999
 21
409.37455750000004
  0
LINE
  8
_0-0_0
  6
CONTINUOUS
 62
    7
 10
186.61326650000001
 20
401.57456950000005
 11
177.6132585
 21
401.57456950000005
  0
LINE
  8
_0-0_0
  6
CONTINUOUS
 62
    7
 10
174.1132585
 20
401.57456950000005
 11
173.6132585
 21
401.57456950000005
  0
LINE
  8
_0-0_0
  6
CONTINUOUS
 62
    7
 10
177.1132585
 20
401.57456950000005
 11
174.1132585
 21
401.57456950000005
  0
LINE
  8
_0-0_0
  6
CONTINUOUS
 62
    7
 10
177.6132585
 20
401.57456950000005
 11
177.1132585
 21
401.57456950000005
  0
ARC
  8
_0-0_0
  6
CONTINUOUS
 62
    7
 10
173.6132585
 20
403.57456950000005
 40
2
 50
180.00000900000003
 51
269.99999700000001
  0
ARC
  8
_0-0_0
  6
CONTINUOUS
 62
    7
 10
187.41326950000001
 20
426.07456950000005
 40
0.5
 50
0
 51
90.000003000000007
  0
LINE
  8
_0-0_0
  6
CONTINUOUS
 62
    7
 10
185.91326950000001
 20
426.57456950000005
 11
187.41326950000001
 21
426.57456950000005
  0
ARC
  8
_0-0_0
  6
CONTINUOUS
 62
    7
 10
185.91326950000001
 20
427.57456950000005
 40
1
 50
180.00000900000003
 51
269.99999700000001
  0
LINE
  8
_0-0_0
  6
CONTINUOUS
 62
    7
 10
184.9132615
 20
427.57456950000005
 11
184.9132615
 21
427.67466750000006
  0
LINE
  8
_0-0_0
  6
CONTINUOUS
 62
    7
 10
184.4132615
 20
426.57456950000005
 11
184.4132615
 21
427.67466750000006
  0
ARC
  8
_0-0_0
  6
CONTINUOUS
 62
    7
 10
185.41326950000001
 20
426.57456950000005
 40
1
 50
180.00000900000003
 51
269.99999700000001
  0
LINE
  8
_0-0_0
  6
CONTINUOUS
 62
    7
 10
185.41326950000001
 20
425.57456950000005
 11
185.2132565
 21
425.57456950000005
  0
ARC
  8
_0-0_0
  6
CONTINUOUS
 62
    7
 10
185.2132565
 20
426.57456950000005
 40
1
 50
180.00000900000003
 51
269.99999700000001
  0
ARC
  8
_0-0_0
  6
CONTINUOUS
 62
    7
 10
175.0132595
 20
426.57456950000005
 40
1
 50
269.99999700000001
 51
0
  0
LINE
  8
_0-0_0
  6
CONTINUOUS
 62
    7
 10
175.0132595
 20
425.57456950000005
 11
174.31326350000001
 21
425.57456950000005
  0
LINE
  8
_0-0_0
  6
CONTINUOUS
 62
    7
 10
188.11326650000001
 20
425.57456950000005
 11
187.91326950000001
 21
425.57456950000005
  0
LINE
  8
_0-0_0
  6
CONTINUOUS
 62
    7
 10
171.31326350000001
 20
423.87455750000004
 11
188.11326650000001
 21
423.87455750000004
  0
LINE
  8
_0-0_0
  6
CONTINUOUS
 62
    7
 10
188.11326650000001
 20
423.87455750000004
 11
188.11326650000001
 21
425.57456950000005
  0
LINE
  8
_0-0_0
  6
CONTINUOUS
 62
    7
 10
184.2132565
 20
427.67466750000006
 11
184.2132565
 21
426.57456950000005
  0
LINE
  8
_0-0_0
  6
CONTINUOUS
 62
    7
 10
176.0132595
 20
426.57456950000005
 11
176.0132595
 21
427.67466750000006
  0
LINE
  8
_0-0_0
  6
CONTINUOUS
 62
    7
 10
172.31326350000001
 20
425.57456950000005
 11
171.31326350000001
 21
425.57456950000005
  0
LINE
  8
_0-0_0
  6
CONTINUOUS
 62
    7
 10
171.31326350000001
 20
423.87455750000004
 11
171.31326350000001
 21
425.57456950000005
  0
LINE
  8
_0-0_0
  6
CONTINUOUS
 62
    7
 10
186.61326650000001
 20
423.17457550000006
 11
186.11326650000001
 21
423.17457550000006
  0
CIRCLE
  8
_0-0_0
  6
CONTINUOUS
 62
    7
 10
186.11326650000001
 20
420.67457550000006
 40
2.5
  0
LINE
  8
_0-0_0
  6
CONTINUOUS
 62
    7
 10
173.6132585
 20
423.17457550000006
 11
182.6132585
 21
423.17457550000006
  0
LINE
  8
_0-0_0
  6
CONTINUOUS
 62
    7
 10
186.11326650000001
 20
423.17457550000006
 11
183.1132585
 21
423.17457550000006
  0
LINE
  8
_0-0_0
  6
CONTINUOUS
 62
    7
 10
182.6132585
 20
423.17457550000006
 11
183.1132585
 21
423.17457550000006
  0
ARC
  8
_0-0_0
  6
CONTINUOUS
 62
    7
 10
188.11326650000001
 20
417.17457550000006
 40
0.5
 50
0
 51
90.000003000000007
  0
LINE
  8
_0-0_0
  6
CONTINUOUS
 62
    7
 10
186.61326650000001
 20
401.67720050000003
 11
186.62913550000002
 21
401.64994850000005
  0
LINE
  8
_0-0_0
  6
CONTINUOUS
 62
    7
 10
186.62913550000002
 20
401.64994850000005
 11
186.64498950000001
 21
401.62696849999998
  0
LINE
  8
_0-0_0
  6
CONTINUOUS
 62
    7
 10
186.64498950000001
 20
401.62696849999998
 11
186.65896650000002
 21
401.61021449999998
  0
LINE
  8
_0-0_0
  6
CONTINUOUS
 62
    7
 10
186.65896650000002
 20
401.61021449999998
 11
186.6728665
 21
401.5968785
  0
LINE
  8
_0-0_0
  6
CONTINUOUS
 62
    7
 10
186.6728665
 20
401.5968785
 11
186.6850895
 21
401.58796749999999
  0
LINE
  8
_0-0_0
  6
CONTINUOUS
 62
    7
 10
186.6850895
 20
401.58796749999999
 11
186.6972045
 21
401.58174150000002
  0
LINE
  8
_0-0_0
  6
CONTINUOUS
 62
    7
 10
186.6972045
 20
401.58174150000002
 11
186.7080685
 21
401.57847649999997
  0
LINE
  8
_0-0_0
  6
CONTINUOUS
 62
    7
 10
186.7080685
 20
401.57847649999997
 11
186.71882650000001
 21
401.57740750000005
  0
LINE
  8
_0-0_0
  6
CONTINUOUS
 62
    7
 10
186.71882650000001
 20
401.57740750000005
 11
186.7212835
 21
401.57749950000004
  0
LINE
  8
_0-0_0
  6
CONTINUOUS
 62
    7
 10
172.31326350000001
 20
422.69444250000004
 11
172.31326350000001
 21
423.87364249999996
  0
ARC
  8
_0-0_0
  6
CONTINUOUS
 62
    7
 10
172.1132585
 20
407.57456950000005
 40
0.5
 50
180.00000900000003
 51
269.99999700000001
  0
CIRCLE
  8
_0-0_0
  6
CONTINUOUS
 62
    7
 10
174.1132585
 20
404.07456950000005
 40
2.5
  0
LINE
  8
_0-0_0
  6
CONTINUOUS
 62
    7
 10
173.6132585
 20
423.07194549999997
 11
173.59738150000001
 21
423.09919750000006
  0
LINE
  8
_0-0_0
  6
CONTINUOUS
 62
    7
 10
173.59738150000001
 20
423.09919750000006
 11
173.5815355
 21
423.12217750000002
  0
LINE
  8
_0-0_0
  6
CONTINUOUS
 62
    7
 10
173.5815355
 20
423.12217750000002
 11
173.56755850000002
 21
423.13893150000001
  0
LINE
  8
_0-0_0
  6
CONTINUOUS
 62
    7
 10
173.56755850000002
 20
423.13893150000001
 11
173.55365749999999
 21
423.15226749999999
  0
LINE
  8
_0-0_0
  6
CONTINUOUS
 62
    7
 10
173.55365749999999
 20
423.15226749999999
 11
173.54144250000002
 21
423.16117850000001
  0
LINE
  8
_0-0_0
  6
CONTINUOUS
 62
    7
 10
173.54144250000002
 20
423.16117850000001
 11
173.52931949999999
 21
423.16740449999998
  0
LINE
  8
_0-0_0
  6
CONTINUOUS
 62
    7
 10
173.52931949999999
 20
423.16740449999998
 11
173.51845550000002
 21
423.17066950000003
  0
LINE
  8
_0-0_0
  6
CONTINUOUS
 62
    7
 10
173.51845550000002
 20
423.17066950000003
 11
173.5076985
 21
423.17173750000006
  0
LINE
  8
_0-0_0
  6
CONTINUOUS
 62
    7
 10
173.5076985
 20
423.17173750000006
 11
173.5052335
 21
423.17164650000007
  0
LINE
  8
_0-0_0
  6
CONTINUOUS
 62
    7
 10
171.31326350000001
 20
404.97456350000004
 11
171.21326450000001
 21
404.97456350000004
  0
LINE
  8
_0-0_0
  6
CONTINUOUS
 62
    7
 10
171.21326450000001
 20
404.97456350000004
 11
171.21326450000001
 21
407.97456350000004
  0
LINE
  8
_0-0_0
  6
CONTINUOUS
 62
    7
 10
171.21326450000001
 20
407.97456350000004
 11
171.21326450000001
 21
421.57456950000005
  0
LINE
  8
_0-0_0
  6
CONTINUOUS
 62
    7
 10
171.31326350000001
 20
424.57456950000005
 11
171.21326450000001
 21
424.57456950000005
  0
LINE
  8
_0-0_0
  6
CONTINUOUS
 62
    7
 10
171.21326450000001
 20
421.57456950000005
 11
171.21326450000001
 21
424.57456950000005
  0
ARC
  8
_0-0_0
  6
CONTINUOUS
 62
    7
 10
177.6132585
 20
402.07456950000005
 40
0.5
 50
180.00000900000003
 51
269.99999700000001
  0
ARC
  8
_0-0_0
  6
CONTINUOUS
 62
    7
 10
174.31326350000001
 20
427.07463050000001
 40
1.5
 50
269.99999700000001
 51
0
  0
ARC
  8
_0-0_0
  6
CONTINUOUS
 62
    7
 10
172.81326350000001
 20
426.07463050000001
 40
0.5
 50
90.000003000000007
 51
180.00000900000001
  0
LINE
  8
_0-0_0
  6
CONTINUOUS
 62
    7
 10
172.81326350000001
 20
426.57463050000001
 11
174.31326350000001
 21
426.57463050000001
  0
ARC
  8
_0-0_0
  6
CONTINUOUS
 62
    7
 10
174.31326350000001
 20
427.57463050000001
 40
1
 50
269.99999700000001
 51
0
  0
LINE
  8
_0-0_0
  6
CONTINUOUS
 62
    7
 10
175.31326350000001
 20
427.67466750000006
 11
175.31326350000001
 21
427.57463050000001
  0
LINE
  8
_0-0_0
  6
CONTINUOUS
 62
    7
 10
175.81326350000001
 20
427.67466750000006
 11
175.81326350000001
 21
427.07463050000001
  0
LINE
  8
_0-0_0
  6
CONTINUOUS
 62
    7
 10
172.31326350000001
 20
425.57463050000001
 11
172.31326350000001
 21
426.07463050000001
  0
ARC
  8
_0-0_0
  6
CONTINUOUS
 62
    7
 10
182.6132585
 20
422.67457550000006
 40
0.5
 50
0
 51
90.000003000000007
  0
LINE
  8
_0-0_0
  6
CONTINUOUS
 62
    7
 10
183.1132585
 20
422.59761049999997
 11
183.1132585
 21
422.67457550000006
  0
LINE
  8
_0-0_0
  6
CONTINUOUS
 62
    7
 10
183.1132585
 20
421.15608250000002
 11
183.1132585
 21
422.59761049999997
  0
LINE
  8
_0-0_0
  6
CONTINUOUS
 62
    7
 10
183.1132585
 20
420.67457550000006
 11
183.1132585
 21
421.15608250000002
  0
ARC
  8
_0-0_0
  6
CONTINUOUS
 62
    7
 10
186.11326650000001
 20
420.67457550000006
 40
3
 50
180.00000900000003
 51
269.99999700000001
  0
LINE
  8
_0-0_0
  6
CONTINUOUS
 62
    7
 10
186.59475750000001
 20
417.67457550000006
 11
186.11326650000001
 21
417.67457550000006
  0
LINE
  8
_0-0_0
  6
CONTINUOUS
 62
    7
 10
186.59475750000001
 20
417.67457550000006
 11
188.03628550000002
 21
417.67457550000006
  0
LINE
  8
_0-0_0
  6
CONTINUOUS
 62
    7
 10
188.11326650000001
 20
417.67457550000006
 11
188.03628550000002
 21
417.67457550000006
  0
LINE
  8
_0-0_0
  6
CONTINUOUS
 62
    7
 10
172.19023950000002
 20
407.07456950000005
 11
172.1132585
 21
407.07456950000005
  0
LINE
  8
_0-0_0
  6
CONTINUOUS
 62
    7
 10
174.1132585
 20
407.07456950000005
 11
173.63175949999999
 21
407.07456950000005
  0
LINE
  8
_0-0_0
  6
CONTINUOUS
 62
    7
 10
173.63175949999999
 20
407.07456950000005
 11
172.19023950000002
 21
407.07456950000005
  0
LINE
  8
_0-0_0
  6
CONTINUOUS
 62
    7
 10
177.1132585
 20
402.07456950000005
 11
177.1132585
 21
402.15153550000002
  0
LINE
  8
_0-0_0
  6
CONTINUOUS
 62
    7
 10
177.1132585
 20
403.59306349999997
 11
177.1132585
 21
402.15153550000002
  0
LINE
  8
_0-0_0
  6
CONTINUOUS
 62
    7
 10
177.1132585
 20
403.59306349999997
 11
177.1132585
 21
404.07456950000005
  0
ARC
  8
_0-0_0
  6
CONTINUOUS
 62
    7
 10
174.1132585
 20
404.07456950000005
 40
3
 50
0
 51
89.999995999999996
  0
LINE
  8
_0-0_0
  6
CONTINUOUS
 62
    7
 10
188.61326650000001
 20
424.68583650000005
 11
188.61326650000001
 21
422.79957550000006
  0
LINE
  8
_0-0_0
  6
CONTINUOUS
 62
    7
 10
188.61326650000001
 20
425.34956350000004
 11
188.61326650000001
 21
424.68583650000005
  0
ARC
  8
_0-0_0
  6
CONTINUOUS
 62
    7
 10
183.34337650000001
 20
413.54780549999998
 40
3.063396
 50
19.82113
 51
25.289563000000001
  0
ARC
  8
_0-0_0
  6
CONTINUOUS
 62
    7
 10
183.34369650000002
 20
411.20118750000006
 40
3.0630519999999999
 50
334.71006
 51
340.17869200000001
  0
ARC
  8
_0-0_0
  6
CONTINUOUS
 62
    7
 10
176.8831485
 20
411.20133950000002
 40
3.063399
 50
199.82113599999997
 51
205.28948099999999
  0
ARC
  8
_0-0_0
  6
CONTINUOUS
 62
    7
 10
176.88282750000002
 20
413.54795850000005
 40
3.0630549999999999
 50
154.710137
 51
160.17869999999999
  0
ARC
  8
_0-0_0
  6
CONTINUOUS
 62
    7
 10
180.1132585
 20
412.37455750000004
 40
6.5
 50
340.10416099999998
 51
19.895609999999952
  0
ARC
  8
_0-0_0
  6
CONTINUOUS
 62
    7
 10
180.1132585
 20
412.37455750000004
 40
6.5
 50
160.10415599999999
 51
199.895612
  0
LINE
  8
_0-0_0
  6
CONTINUOUS
 62
    7
 10
171.6132585
 20
423.46336350000001
 11
171.6132585
 21
423.87370350000003
  0
LINE
  8
_0-0_0
  6
CONTINUOUS
 62
    7
 10
171.6132585
 20
422.80448950000005
 11
171.6132585
 21
423.46336350000001
  0
LINE
  8
_0-0_0
  6
CONTINUOUS
 62
    7
 10
179.37158950000003
 20
418.87455750000004
 11
174.85493450000001
 21
416.2668615
  0
LINE
  8
_0-0_0
  6
CONTINUOUS
 62
    7
 10
180.85493450000001
 20
418.87455750000004
 11
179.37158950000003
 21
418.87455750000004
  0
LINE
  8
_0-0_0
  6
CONTINUOUS
 62
    7
 10
185.37159750000001
 20
416.2668615
 11
180.85493450000001
 21
418.87455750000004
  0
LINE
  8
_0-0_0
  6
CONTINUOUS
 62
    7
 10
186.11326650000001
 20
414.98225450000007
 11
186.11326650000001
 21
409.7668615
  0
LINE
  8
_0-0_0
  6
CONTINUOUS
 62
    7
 10
185.37159750000001
 20
416.2668615
 11
186.11326650000001
 21
414.98225450000007
  0
LINE
  8
_0-0_0
  6
CONTINUOUS
 62
    7
 10
180.85493450000001
 20
405.87455750000004
 11
185.37159750000001
 21
408.48225450000007
  0
LINE
  8
_0-0_0
  6
CONTINUOUS
 62
    7
 10
185.66571050000002
 20
408.99171450000006
 11
186.11326650000001
 21
409.7668615
  0
LINE
  8
_0-0_0
  6
CONTINUOUS
 62
    7
 10
185.66571050000002
 20
408.99171450000006
 11
185.37159750000001
 21
408.48225450000007
  0
LINE
  8
_0-0_0
  6
CONTINUOUS
 62
    7
 10
179.37158950000003
 20
405.87455750000004
 11
180.85493450000001
 21
405.87455750000004
  0
LINE
  8
_0-0_0
  6
CONTINUOUS
 62
    7
 10
174.85493450000001
 20
408.48225450000007
 11
179.37158950000003
 21
405.87455750000004
  0
LINE
  8
_0-0_0
  6
CONTINUOUS
 62
    7
 10
174.1132585
 20
414.98225450000007
 11
174.1132585
 21
409.7668615
  0
LINE
  8
_0-0_0
  6
CONTINUOUS
 62
    7
 10
174.85493450000001
 20
408.48225450000007
 11
174.1132585
 21
409.7668615
  0
LINE
  8
_0-0_0
  6
CONTINUOUS
 62
    7
 10
174.56080650000001
 20
415.75743150000005
 11
174.1132585
 21
414.98225450000007
  0
LINE
  8
_0-0_0
  6
CONTINUOUS
 62
    7
 10
174.56080650000001
 20
415.75743150000005
 11
174.85493450000001
 21
416.2668615
  0
LINE
  8
_0-0_0
  6
CONTINUOUS
 62
    7
 10
188.00027450000002
 20
421.90000950000001
 11
188.27832050000001
 21
421.92457550000006
  0
LINE
  8
_0-0_0
  6
CONTINUOUS
 62
    7
 10
188.11802650000001
 20
421.69606050000004
 11
188.27832050000001
 21
421.92457550000006
  0
LINE
  8
_0-0_0
  6
CONTINUOUS
 62
    7
 10
187.86184650000001
 20
422.0905305
 11
188.13580350000001
 21
422.14402749999999
  0
LINE
  8
_0-0_0
  6
CONTINUOUS
 62
    7
 10
188.00027450000002
 20
421.90000950000001
 11
188.13580350000001
 21
422.14402749999999
  0
LINE
  8
_0-0_0
  6
CONTINUOUS
 62
    7
 10
187.70425450000002
 20
422.26554850000002
 11
187.97113050000002
 21
422.34739650000006
  0
LINE
  8
_0-0_0
  6
CONTINUOUS
 62
    7
 10
187.86184650000001
 20
422.0905305
 11
187.97113050000002
 21
422.34739650000006
  0
LINE
  8
_0-0_0
  6
CONTINUOUS
 62
    7
 10
187.5292355
 20
422.42314150000004
 11
187.78608750000001
 21
422.53242550000004
  0
LINE
  8
_0-0_0
  6
CONTINUOUS
 62
    7
 10
187.70425450000002
 20
422.26554850000002
 11
187.78608750000001
 21
422.53242550000004
  0
LINE
  8
_0-0_0
  6
CONTINUOUS
 62
    7
 10
187.33869950000002
 20
422.56156950000002
 11
187.5827175
 21
422.69709750000004
  0
LINE
  8
_0-0_0
  6
CONTINUOUS
 62
    7
 10
187.5292355
 20
422.42314150000004
 11
187.5827175
 21
422.69709750000004
  0
LINE
  8
_0-0_0
  6
CONTINUOUS
 62
    7
 10
187.13473550000001
 20
422.67933649999998
 11
187.36326650000001
 21
422.83964549999996
  0
LINE
  8
_0-0_0
  6
CONTINUOUS
 62
    7
 10
187.33869950000002
 20
422.56156950000002
 11
187.36326650000001
 21
422.83964549999996
  0
LINE
  8
_0-0_0
  6
CONTINUOUS
 62
    7
 10
186.91958650000001
 20
422.77513150000004
 11
187.13009650000001
 21
422.95845050000003
  0
LINE
  8
_0-0_0
  6
CONTINUOUS
 62
    7
 10
187.13473550000001
 20
422.67933649999998
 11
187.13009650000001
 21
422.95845050000003
  0
LINE
  8
_0-0_0
  6
CONTINUOUS
 62
    7
 10
186.69560250000001
 20
422.8479155
 11
186.88580350000001
 21
423.05220050000003
  0
LINE
  8
_0-0_0
  6
CONTINUOUS
 62
    7
 10
186.91958650000001
 20
422.77513150000004
 11
186.88580350000001
 21
423.05220050000003
  0
LINE
  8
_0-0_0
  6
CONTINUOUS
 62
    7
 10
186.46524049999999
 20
422.89686549999999
 11
186.63304150000002
 21
423.11994949999996
  0
LINE
  8
_0-0_0
  6
CONTINUOUS
 62
    7
 10
186.69560250000001
 20
422.8479155
 11
186.63304150000002
 21
423.11994949999996
  0
LINE
  8
_0-0_0
  6
CONTINUOUS
 62
    7
 10
186.2310185
 20
422.9214935
 11
186.37458850000002
 21
423.16087349999998
  0
LINE
  8
_0-0_0
  6
CONTINUOUS
 62
    7
 10
186.46524049999999
 20
422.89686549999999
 11
186.37458850000002
 21
423.16087349999998
  0
LINE
  8
_0-0_0
  6
CONTINUOUS
 62
    7
 10
185.9954985
 20
422.9214935
 11
186.11326650000001
 21
423.17457550000006
  0
LINE
  8
_0-0_0
  6
CONTINUOUS
 62
    7
 10
186.2310185
 20
422.9214935
 11
186.11326650000001
 21
423.17457550000006
  0
LINE
  8
_0-0_0
  6
CONTINUOUS
 62
    7
 10
185.7612915
 20
422.89686549999999
 11
185.8519445
 21
423.16087349999998
  0
LINE
  8
_0-0_0
  6
CONTINUOUS
 62
    7
 10
185.9954985
 20
422.9214935
 11
185.8519445
 21
423.16087349999998
  0
LINE
  8
_0-0_0
  6
CONTINUOUS
 62
    7
 10
185.53091449999999
 20
422.8479155
 11
185.59347550000001
 21
423.11994949999996
  0
LINE
  8
_0-0_0
  6
CONTINUOUS
 62
    7
 10
185.7612915
 20
422.89686549999999
 11
185.59347550000001
 21
423.11994949999996
  0
LINE
  8
_0-0_0
  6
CONTINUOUS
 62
    7
 10
185.30693049999999
 20
422.77513150000004
 11
185.34071349999999
 21
423.05220050000003
  0
LINE
  8
_0-0_0
  6
CONTINUOUS
 62
    7
 10
185.53091449999999
 20
422.8479155
 11
185.34071349999999
 21
423.05220050000003
  0
LINE
  8
_0-0_0
  6
CONTINUOUS
 62
    7
 10
185.0917815
 20
422.67933649999998
 11
185.09642049999999
 21
422.95845050000003
  0
LINE
  8
_0-0_0
  6
CONTINUOUS
 62
    7
 10
185.30693049999999
 20
422.77513150000004
 11
185.09642049999999
 21
422.95845050000003
  0
LINE
  8
_0-0_0
  6
CONTINUOUS
 62
    7
 10
184.97224449999999
 20
422.76319850000004
 11
184.8632585
 21
422.83964549999996
  0
LINE
  8
_0-0_0
  6
CONTINUOUS
 62
    7
 10
185.0917815
 20
422.67933649999998
 11
184.97224449999999
 21
422.76319850000004
  0
LINE
  8
_0-0_0
  6
CONTINUOUS
 62
    7
 10
184.88782550000002
 20
422.56156950000002
 11
184.8632585
 21
422.83964549999996
  0
LINE
  8
_0-0_0
  6
CONTINUOUS
 62
    7
 10
184.69728850000001
 20
422.42314150000004
 11
184.6437985
 21
422.69709750000004
  0
LINE
  8
_0-0_0
  6
CONTINUOUS
 62
    7
 10
184.88782550000002
 20
422.56156950000002
 11
184.6437985
 21
422.69709750000004
  0
LINE
  8
_0-0_0
  6
CONTINUOUS
 62
    7
 10
184.52227049999999
 20
422.26554850000002
 11
184.44042949999999
 21
422.53242550000004
  0
LINE
  8
_0-0_0
  6
CONTINUOUS
 62
    7
 10
184.69728850000001
 20
422.42314150000004
 11
184.44042949999999
 21
422.53242550000004
  0
LINE
  8
_0-0_0
  6
CONTINUOUS
 62
    7
 10
184.36468550000001
 20
422.0905305
 11
184.2554015
 21
422.34739650000006
  0
LINE
  8
_0-0_0
  6
CONTINUOUS
 62
    7
 10
184.52227049999999
 20
422.26554850000002
 11
184.2554015
 21
422.34739650000006
  0
LINE
  8
_0-0_0
  6
CONTINUOUS
 62
    7
 10
184.22624949999999
 20
421.90000950000001
 11
184.0907215
 21
422.14402749999999
  0
LINE
  8
_0-0_0
  6
CONTINUOUS
 62
    7
 10
184.36468550000001
 20
422.0905305
 11
184.0907215
 21
422.14402749999999
  0
LINE
  8
_0-0_0
  6
CONTINUOUS
 62
    7
 10
184.1084975
 20
421.69606050000004
 11
183.94819649999999
 21
421.92457550000006
  0
LINE
  8
_0-0_0
  6
CONTINUOUS
 62
    7
 10
184.22624949999999
 20
421.90000950000001
 11
183.94819649999999
 21
421.92457550000006
  0
LINE
  8
_0-0_0
  6
CONTINUOUS
 62
    7
 10
184.01270349999999
 20
421.48091150000005
 11
183.82939950000002
 21
421.69142150000005
  0
LINE
  8
_0-0_0
  6
CONTINUOUS
 62
    7
 10
184.1084975
 20
421.69606050000004
 11
183.82939950000002
 21
421.69142150000005
  0
LINE
  8
_0-0_0
  6
CONTINUOUS
 62
    7
 10
183.93992650000001
 20
421.2569125
 11
183.73561849999999
 21
421.44709750000004
  0
LINE
  8
_0-0_0
  6
CONTINUOUS
 62
    7
 10
184.01270349999999
 20
421.48091150000005
 11
183.73561849999999
 21
421.44709750000004
  0
LINE
  8
_0-0_0
  6
CONTINUOUS
 62
    7
 10
183.89096050000001
 20
421.02653550000002
 11
183.66789249999999
 21
421.19435150000004
  0
LINE
  8
_0-0_0
  6
CONTINUOUS
 62
    7
 10
183.93992650000001
 20
421.2569125
 11
183.66789249999999
 21
421.19435150000004
  0
LINE
  8
_0-0_0
  6
CONTINUOUS
 62
    7
 10
183.89096050000001
 20
421.02653550000002
 11
183.62695350000001
 21
420.93589750000001
  0
LINE
  8
_0-0_0
  6
CONTINUOUS
 62
    7
 10
183.86634850000002
 20
420.79231249999998
 11
183.62695350000001
 21
420.93589750000001
  0
LINE
  8
_0-0_0
  6
CONTINUOUS
 62
    7
 10
183.86634850000002
 20
420.55680849999999
 11
183.6132585
 21
420.67457550000006
  0
LINE
  8
_0-0_0
  6
CONTINUOUS
 62
    7
 10
183.86634850000002
 20
420.79231249999998
 11
183.6132585
 21
420.67457550000006
  0
LINE
  8
_0-0_0
  6
CONTINUOUS
 62
    7
 10
183.89096050000001
 20
420.32258650000006
 11
183.62695350000001
 21
420.4132535
  0
LINE
  8
_0-0_0
  6
CONTINUOUS
 62
    7
 10
183.86634850000002
 20
420.55680849999999
 11
183.62695350000001
 21
420.4132535
  0
LINE
  8
_0-0_0
  6
CONTINUOUS
 62
    7
 10
183.93992650000001
 20
420.09223950000001
 11
183.66789249999999
 21
420.15480049999996
  0
LINE
  8
_0-0_0
  6
CONTINUOUS
 62
    7
 10
183.89096050000001
 20
420.32258650000006
 11
183.66789249999999
 21
420.15480049999996
  0
LINE
  8
_0-0_0
  6
CONTINUOUS
 62
    7
 10
184.01270349999999
 20
419.86824049999996
 11
183.73561849999999
 21
419.90202350000004
  0
LINE
  8
_0-0_0
  6
CONTINUOUS
 62
    7
 10
183.93992650000001
 20
420.09223950000001
 11
183.73561849999999
 21
419.90202350000004
  0
LINE
  8
_0-0_0
  6
CONTINUOUS
 62
    7
 10
184.1084975
 20
419.65309149999996
 11
183.82939950000002
 21
419.65773049999996
  0
LINE
  8
_0-0_0
  6
CONTINUOUS
 62
    7
 10
184.01270349999999
 20
419.86824049999996
 11
183.82939950000002
 21
419.65773049999996
  0
LINE
  8
_0-0_0
  6
CONTINUOUS
 62
    7
 10
184.22624949999999
 20
419.44914249999999
 11
183.94819649999999
 21
419.42457550000006
  0
LINE
  8
_0-0_0
  6
CONTINUOUS
 62
    7
 10
184.1084975
 20
419.65309149999996
 11
183.94819649999999
 21
419.42457550000006
  0
LINE
  8
_0-0_0
  6
CONTINUOUS
 62
    7
 10
184.36468550000001
 20
419.25859049999997
 11
184.0907215
 21
419.20509349999998
  0
LINE
  8
_0-0_0
  6
CONTINUOUS
 62
    7
 10
184.22624949999999
 20
419.44914249999999
 11
184.0907215
 21
419.20509349999998
  0
LINE
  8
_0-0_0
  6
CONTINUOUS
 62
    7
 10
184.52227049999999
 20
419.08357250000006
 11
184.2554015
 21
419.00175450000006
  0
LINE
  8
_0-0_0
  6
CONTINUOUS
 62
    7
 10
184.36468550000001
 20
419.25859049999997
 11
184.2554015
 21
419.00175450000006
  0
LINE
  8
_0-0_0
  6
CONTINUOUS
 62
    7
 10
184.69728850000001
 20
418.92597950000004
 11
184.44042949999999
 21
418.81669650000003
  0
LINE
  8
_0-0_0
  6
CONTINUOUS
 62
    7
 10
184.52227049999999
 20
419.08357250000006
 11
184.44042949999999
 21
418.81669650000003
  0
LINE
  8
_0-0_0
  6
CONTINUOUS
 62
    7
 10
184.88782550000002
 20
418.78755250000006
 11
184.6437985
 21
418.65202350000004
  0
LINE
  8
_0-0_0
  6
CONTINUOUS
 62
    7
 10
184.69728850000001
 20
418.92597950000004
 11
184.6437985
 21
418.65202350000004
  0
LINE
  8
_0-0_0
  6
CONTINUOUS
 62
    7
 10
185.0917815
 20
418.66981550000003
 11
184.8632585
 21
418.50950650000004
  0
LINE
  8
_0-0_0
  6
CONTINUOUS
 62
    7
 10
184.88782550000002
 20
418.78755250000006
 11
184.8632585
 21
418.50950650000004
  0
LINE
  8
_0-0_0
  6
CONTINUOUS
 62
    7
 10
185.30693049999999
 20
418.57402049999996
 11
185.09642049999999
 21
418.39070149999998
  0
LINE
  8
_0-0_0
  6
CONTINUOUS
 62
    7
 10
185.0917815
 20
418.66981550000003
 11
185.09642049999999
 21
418.39070149999998
  0
LINE
  8
_0-0_0
  6
CONTINUOUS
 62
    7
 10
185.53091449999999
 20
418.5012365
 11
185.34071349999999
 21
418.29692050000006
  0
LINE
  8
_0-0_0
  6
CONTINUOUS
 62
    7
 10
185.30693049999999
 20
418.57402049999996
 11
185.34071349999999
 21
418.29692050000006
  0
LINE
  8
_0-0_0
  6
CONTINUOUS
 62
    7
 10
185.7612915
 20
418.45228550000002
 11
185.59347550000001
 21
418.22920250000004
  0
LINE
  8
_0-0_0
  6
CONTINUOUS
 62
    7
 10
185.53091449999999
 20
418.5012365
 11
185.59347550000001
 21
418.22920250000004
  0
LINE
  8
_0-0_0
  6
CONTINUOUS
 62
    7
 10
185.9954985
 20
418.42765850000001
 11
185.8519445
 21
418.18827850000002
  0
LINE
  8
_0-0_0
  6
CONTINUOUS
 62
    7
 10
185.7612915
 20
418.45228550000002
 11
185.8519445
 21
418.18827850000002
  0
LINE
  8
_0-0_0
  6
CONTINUOUS
 62
    7
 10
186.2310185
 20
418.42765850000001
 11
186.11326650000001
 21
418.17457550000006
  0
LINE
  8
_0-0_0
  6
CONTINUOUS
 62
    7
 10
185.9954985
 20
418.42765850000001
 11
186.11326650000001
 21
418.17457550000006
  0
LINE
  8
_0-0_0
  6
CONTINUOUS
 62
    7
 10
186.46524049999999
 20
418.45228550000002
 11
186.37458850000002
 21
418.18827850000002
  0
LINE
  8
_0-0_0
  6
CONTINUOUS
 62
    7
 10
186.2310185
 20
418.42765850000001
 11
186.37458850000002
 21
418.18827850000002
  0
LINE
  8
_0-0_0
  6
CONTINUOUS
 62
    7
 10
186.69560250000001
 20
418.5012365
 11
186.63304150000002
 21
418.22920250000004
  0
LINE
  8
_0-0_0
  6
CONTINUOUS
 62
    7
 10
186.46524049999999
 20
418.45228550000002
 11
186.63304150000002
 21
418.22920250000004
  0
LINE
  8
_0-0_0
  6
CONTINUOUS
 62
    7
 10
186.91958650000001
 20
418.57402049999996
 11
186.88580350000001
 21
418.29692050000006
  0
LINE
  8
_0-0_0
  6
CONTINUOUS
 62
    7
 10
186.69560250000001
 20
418.5012365
 11
186.88580350000001
 21
418.29692050000006
  0
LINE
  8
_0-0_0
  6
CONTINUOUS
 62
    7
 10
187.13473550000001
 20
418.66981550000003
 11
187.13009650000001
 21
418.39070149999998
  0
LINE
  8
_0-0_0
  6
CONTINUOUS
 62
    7
 10
186.91958650000001
 20
418.57402049999996
 11
187.13009650000001
 21
418.39070149999998
  0
LINE
  8
_0-0_0
  6
CONTINUOUS
 62
    7
 10
187.25427250000001
 20
418.58595249999996
 11
187.36326650000001
 21
418.50950650000004
  0
LINE
  8
_0-0_0
  6
CONTINUOUS
 62
    7
 10
187.13473550000001
 20
418.66981550000003
 11
187.25427250000001
 21
418.58595249999996
  0
LINE
  8
_0-0_0
  6
CONTINUOUS
 62
    7
 10
187.33869950000002
 20
418.78755250000006
 11
187.36326650000001
 21
418.50950650000004
  0
LINE
  8
_0-0_0
  6
CONTINUOUS
 62
    7
 10
187.5292355
 20
418.92597950000004
 11
187.5827175
 21
418.65202350000004
  0
LINE
  8
_0-0_0
  6
CONTINUOUS
 62
    7
 10
187.33869950000002
 20
418.78755250000006
 11
187.5827175
 21
418.65202350000004
  0
LINE
  8
_0-0_0
  6
CONTINUOUS
 62
    7
 10
187.70425450000002
 20
419.08357250000006
 11
187.78608750000001
 21
418.81669650000003
  0
LINE
  8
_0-0_0
  6
CONTINUOUS
 62
    7
 10
187.5292355
 20
418.92597950000004
 11
187.78608750000001
 21
418.81669650000003
  0
LINE
  8
_0-0_0
  6
CONTINUOUS
 62
    7
 10
187.86184650000001
 20
419.25859049999997
 11
187.97113050000002
 21
419.00175450000006
  0
LINE
  8
_0-0_0
  6
CONTINUOUS
 62
    7
 10
187.70425450000002
 20
419.08357250000006
 11
187.97113050000002
 21
419.00175450000006
  0
LINE
  8
_0-0_0
  6
CONTINUOUS
 62
    7
 10
188.00027450000002
 20
419.44914249999999
 11
188.13580350000001
 21
419.20509349999998
  0
LINE
  8
_0-0_0
  6
CONTINUOUS
 62
    7
 10
187.86184650000001
 20
419.25859049999997
 11
188.13580350000001
 21
419.20509349999998
  0
LINE
  8
_0-0_0
  6
CONTINUOUS
 62
    7
 10
188.11802650000001
 20
419.65309149999996
 11
188.27832050000001
 21
419.42457550000006
  0
LINE
  8
_0-0_0
  6
CONTINUOUS
 62
    7
 10
188.00027450000002
 20
419.44914249999999
 11
188.27832050000001
 21
419.42457550000006
  0
LINE
  8
_0-0_0
  6
CONTINUOUS
 62
    7
 10
188.21382149999999
 20
419.86824049999996
 11
188.39712550000002
 21
419.65773049999996
  0
LINE
  8
_0-0_0
  6
CONTINUOUS
 62
    7
 10
188.11802650000001
 20
419.65309149999996
 11
188.39712550000002
 21
419.65773049999996
  0
LINE
  8
_0-0_0
  6
CONTINUOUS
 62
    7
 10
188.28659050000002
 20
420.09223950000001
 11
188.4909055
 21
419.90202350000004
  0
LINE
  8
_0-0_0
  6
CONTINUOUS
 62
    7
 10
188.21382149999999
 20
419.86824049999996
 11
188.4909055
 21
419.90202350000004
  0
LINE
  8
_0-0_0
  6
CONTINUOUS
 62
    7
 10
188.3355565
 20
420.32258650000006
 11
188.55862450000001
 21
420.15480049999996
  0
LINE
  8
_0-0_0
  6
CONTINUOUS
 62
    7
 10
188.28659050000002
 20
420.09223950000001
 11
188.55862450000001
 21
420.15480049999996
  0
LINE
  8
_0-0_0
  6
CONTINUOUS
 62
    7
 10
188.36016850000001
 20
420.55680849999999
 11
188.59956350000002
 21
420.4132535
  0
LINE
  8
_0-0_0
  6
CONTINUOUS
 62
    7
 10
188.3355565
 20
420.32258650000006
 11
188.59956350000002
 21
420.4132535
  0
LINE
  8
_0-0_0
  6
CONTINUOUS
 62
    7
 10
188.36016850000001
 20
420.79231249999998
 11
188.61326650000001
 21
420.67457550000006
  0
LINE
  8
_0-0_0
  6
CONTINUOUS
 62
    7
 10
188.36016850000001
 20
420.55680849999999
 11
188.61326650000001
 21
420.67457550000006
  0
LINE
  8
_0-0_0
  6
CONTINUOUS
 62
    7
 10
188.3355565
 20
421.02653550000002
 11
188.59956350000002
 21
420.93589750000001
  0
LINE
  8
_0-0_0
  6
CONTINUOUS
 62
    7
 10
188.36016850000001
 20
420.79231249999998
 11
188.59956350000002
 21
420.93589750000001
  0
LINE
  8
_0-0_0
  6
CONTINUOUS
 62
    7
 10
188.28659050000002
 20
421.2569125
 11
188.55862450000001
 21
421.19435150000004
  0
LINE
  8
_0-0_0
  6
CONTINUOUS
 62
    7
 10
188.3355565
 20
421.02653550000002
 11
188.55862450000001
 21
421.19435150000004
  0
LINE
  8
_0-0_0
  6
CONTINUOUS
 62
    7
 10
188.21382149999999
 20
421.48091150000005
 11
188.4909055
 21
421.44709750000004
  0
LINE
  8
_0-0_0
  6
CONTINUOUS
 62
    7
 10
188.28659050000002
 20
421.2569125
 11
188.4909055
 21
421.44709750000004
  0
LINE
  8
_0-0_0
  6
CONTINUOUS
 62
    7
 10
188.11802650000001
 20
421.69606050000004
 11
188.39712550000002
 21
421.69142150000005
  0
LINE
  8
_0-0_0
  6
CONTINUOUS
 62
    7
 10
188.21382149999999
 20
421.48091150000005
 11
188.39712550000002
 21
421.69142150000005
  0
CIRCLE
  8
_0-0_0
  6
CONTINUOUS
 62
    7
 10
180.1132585
 20
412.37455750000004
 40
5.25
  0
LINE
  8
_0-0_0
  6
CONTINUOUS
 62
    7
 10
176.00026750000001
 20
405.3000035
 11
176.27832050000001
 21
405.32456950000005
  0
LINE
  8
_0-0_0
  6
CONTINUOUS
 62
    7
 10
176.11802650000001
 20
405.09605450000004
 11
176.27832050000001
 21
405.32456950000005
  0
LINE
  8
_0-0_0
  6
CONTINUOUS
 62
    7
 10
175.8618395
 20
405.49055450000003
 11
176.13580350000001
 21
405.54402149999999
  0
LINE
  8
_0-0_0
  6
CONTINUOUS
 62
    7
 10
176.00026750000001
 20
405.3000035
 11
176.13580350000001
 21
405.54402149999999
  0
LINE
  8
_0-0_0
  6
CONTINUOUS
 62
    7
 10
175.70425449999999
 20
405.66557350000005
 11
175.97112250000001
 21
405.74739050000005
  0
LINE
  8
_0-0_0
  6
CONTINUOUS
 62
    7
 10
175.8618395
 20
405.49055450000003
 11
175.97112250000001
 21
405.74739050000005
  0
LINE
  8
_0-0_0
  6
CONTINUOUS
 62
    7
 10
175.52923550000003
 20
405.82313550000003
 11
175.78608750000001
 21
405.93241850000004
  0
LINE
  8
_0-0_0
  6
CONTINUOUS
 62
    7
 10
175.70425449999999
 20
405.66557350000005
 11
175.78608750000001
 21
405.93241850000004
  0
LINE
  8
_0-0_0
  6
CONTINUOUS
 62
    7
 10
175.33869950000002
 20
405.96159350000005
 11
175.58272550000001
 21
406.09712249999995
  0
LINE
  8
_0-0_0
  6
CONTINUOUS
 62
    7
 10
175.52923550000003
 20
405.82313550000003
 11
175.58272550000001
 21
406.09712249999995
  0
LINE
  8
_0-0_0
  6
CONTINUOUS
 62
    7
 10
175.13474250000002
 20
406.07933049999997
 11
175.3632585
 21
406.23963950000007
  0
LINE
  8
_0-0_0
  6
CONTINUOUS
 62
    7
 10
175.33869950000002
 20
405.96159350000005
 11
175.3632585
 21
406.23963950000007
  0
LINE
  8
_0-0_0
  6
CONTINUOUS
 62
    7
 10
174.91958650000001
 20
406.17512550000004
 11
175.13010450000002
 21
406.35844450000002
  0
LINE
  8
_0-0_0
  6
CONTINUOUS
 62
    7
 10
175.13474250000002
 20
406.07933049999997
 11
175.13010450000002
 21
406.35844450000002
  0
LINE
  8
_0-0_0
  6
CONTINUOUS
 62
    7
 10
174.69560250000001
 20
406.24790949999999
 11
174.88580350000001
 21
406.45222450000006
  0
LINE
  8
_0-0_0
  6
CONTINUOUS
 62
    7
 10
174.91958650000001
 20
406.17512550000004
 11
174.88580350000001
 21
406.45222450000006
  0
LINE
  8
_0-0_0
  6
CONTINUOUS
 62
    7
 10
174.46524049999999
 20
406.29685949999998
 11
174.63304149999999
 21
406.51994350000007
  0
LINE
  8
_0-0_0
  6
CONTINUOUS
 62
    7
 10
174.69560250000001
 20
406.24790949999999
 11
174.63304149999999
 21
406.51994350000007
  0
LINE
  8
_0-0_0
  6
CONTINUOUS
 62
    7
 10
174.2310185
 20
406.32148749999999
 11
174.37458050000001
 21
406.56086749999997
  0
LINE
  8
_0-0_0
  6
CONTINUOUS
 62
    7
 10
174.46524049999999
 20
406.29685949999998
 11
174.37458050000001
 21
406.56086749999997
  0
LINE
  8
_0-0_0
  6
CONTINUOUS
 62
    7
 10
173.9955065
 20
406.32148749999999
 11
174.1132585
 21
406.57456950000005
  0
LINE
  8
_0-0_0
  6
CONTINUOUS
 62
    7
 10
174.2310185
 20
406.32148749999999
 11
174.1132585
 21
406.57456950000005
  0
LINE
  8
_0-0_0
  6
CONTINUOUS
 62
    7
 10
173.76128349999999
 20
406.29685949999998
 11
173.8519445
 21
406.56086749999997
  0
LINE
  8
_0-0_0
  6
CONTINUOUS
 62
    7
 10
173.9955065
 20
406.32148749999999
 11
173.8519445
 21
406.56086749999997
  0
LINE
  8
_0-0_0
  6
CONTINUOUS
 62
    7
 10
173.53091449999999
 20
406.24790949999999
 11
173.59348349999999
 21
406.51994350000007
  0
LINE
  8
_0-0_0
  6
CONTINUOUS
 62
    7
 10
173.76128349999999
 20
406.29685949999998
 11
173.59348349999999
 21
406.51994350000007
  0
LINE
  8
_0-0_0
  6
CONTINUOUS
 62
    7
 10
173.30693050000002
 20
406.17512550000004
 11
173.3407215
 21
406.45222450000006
  0
LINE
  8
_0-0_0
  6
CONTINUOUS
 62
    7
 10
173.53091449999999
 20
406.24790949999999
 11
173.3407215
 21
406.45222450000006
  0
LINE
  8
_0-0_0
  6
CONTINUOUS
 62
    7
 10
173.09178150000002
 20
406.07933049999997
 11
173.09642050000002
 21
406.35844450000002
  0
LINE
  8
_0-0_0
  6
CONTINUOUS
 62
    7
 10
173.30693050000002
 20
406.17512550000004
 11
173.09642050000002
 21
406.35844450000002
  0
LINE
  8
_0-0_0
  6
CONTINUOUS
 62
    7
 10
172.97224449999999
 20
406.16319250000004
 11
172.8632585
 21
406.23963950000007
  0
LINE
  8
_0-0_0
  6
CONTINUOUS
 62
    7
 10
173.09178150000002
 20
406.07933049999997
 11
172.97224449999999
 21
406.16319250000004
  0
LINE
  8
_0-0_0
  6
CONTINUOUS
 62
    7
 10
172.88782550000002
 20
405.96159350000005
 11
172.8632585
 21
406.23963950000007
  0
LINE
  8
_0-0_0
  6
CONTINUOUS
 62
    7
 10
172.69728850000001
 20
405.82313550000003
 11
172.6437985
 21
406.09712249999995
  0
LINE
  8
_0-0_0
  6
CONTINUOUS
 62
    7
 10
172.88782550000002
 20
405.96159350000005
 11
172.6437985
 21
406.09712249999995
  0
LINE
  8
_0-0_0
  6
CONTINUOUS
 62
    7
 10
172.52227049999999
 20
405.66557350000005
 11
172.4404375
 21
405.93241850000004
  0
LINE
  8
_0-0_0
  6
CONTINUOUS
 62
    7
 10
172.69728850000001
 20
405.82313550000003
 11
172.4404375
 21
405.93241850000004
  0
LINE
  8
_0-0_0
  6
CONTINUOUS
 62
    7
 10
172.36468550000001
 20
405.49055450000003
 11
172.2554015
 21
405.74739050000005
  0
LINE
  8
_0-0_0
  6
CONTINUOUS
 62
    7
 10
172.52227049999999
 20
405.66557350000005
 11
172.2554015
 21
405.74739050000005
  0
LINE
  8
_0-0_0
  6
CONTINUOUS
 62
    7
 10
172.22624949999999
 20
405.3000035
 11
172.0907215
 21
405.54402149999999
  0
LINE
  8
_0-0_0
  6
CONTINUOUS
 62
    7
 10
172.36468550000001
 20
405.49055450000003
 11
172.0907215
 21
405.54402149999999
  0
LINE
  8
_0-0_0
  6
CONTINUOUS
 62
    7
 10
172.1084975
 20
405.09605450000004
 11
171.94819649999999
 21
405.32456950000005
  0
LINE
  8
_0-0_0
  6
CONTINUOUS
 62
    7
 10
172.22624949999999
 20
405.3000035
 11
171.94819649999999
 21
405.32456950000005
  0
LINE
  8
_0-0_0
  6
CONTINUOUS
 62
    7
 10
172.01270349999999
 20
404.88090550000004
 11
171.82939950000002
 21
405.09141550000004
  0
LINE
  8
_0-0_0
  6
CONTINUOUS
 62
    7
 10
172.1084975
 20
405.09605450000004
 11
171.82939950000002
 21
405.09141550000004
  0
LINE
  8
_0-0_0
  6
CONTINUOUS
 62
    7
 10
171.93992650000001
 20
404.65690649999999
 11
171.73561849999999
 21
404.84712249999995
  0
LINE
  8
_0-0_0
  6
CONTINUOUS
 62
    7
 10
172.01270349999999
 20
404.88090550000004
 11
171.73561849999999
 21
404.84712249999995
  0
LINE
  8
_0-0_0
  6
CONTINUOUS
 62
    7
 10
171.89096050000001
 20
404.42655950000005
 11
171.66789249999999
 21
404.59434550000003
  0
LINE
  8
_0-0_0
  6
CONTINUOUS
 62
    7
 10
171.93992650000001
 20
404.65690649999999
 11
171.66789249999999
 21
404.59434550000003
  0
LINE
  8
_0-0_0
  6
CONTINUOUS
 62
    7
 10
171.89096050000001
 20
404.42655950000005
 11
171.62695350000001
 21
404.3358915
  0
LINE
  8
_0-0_0
  6
CONTINUOUS
 62
    7
 10
171.86634050000001
 20
404.19233750000001
 11
171.62695350000001
 21
404.3358915
  0
LINE
  8
_0-0_0
  6
CONTINUOUS
 62
    7
 10
171.86634050000001
 20
403.95680249999998
 11
171.6132585
 21
404.07456950000005
  0
LINE
  8
_0-0_0
  6
CONTINUOUS
 62
    7
 10
171.86634050000001
 20
404.19233750000001
 11
171.6132585
 21
404.07456950000005
  0
LINE
  8
_0-0_0
  6
CONTINUOUS
 62
    7
 10
171.89096050000001
 20
403.72258050000005
 11
171.62695350000001
 21
403.81324749999999
  0
LINE
  8
_0-0_0
  6
CONTINUOUS
 62
    7
 10
171.86634050000001
 20
403.95680249999998
 11
171.62695350000001
 21
403.81324749999999
  0
LINE
  8
_0-0_0
  6
CONTINUOUS
 62
    7
 10
171.93992650000001
 20
403.4922335
 11
171.66789249999999
 21
403.55479449999996
  0
LINE
  8
_0-0_0
  6
CONTINUOUS
 62
    7
 10
171.89096050000001
 20
403.72258050000005
 11
171.66789249999999
 21
403.55479449999996
  0
LINE
  8
_0-0_0
  6
CONTINUOUS
 62
    7
 10
172.01270349999999
 20
403.26823450000006
 11
171.73561849999999
 21
403.30201750000003
  0
LINE
  8
_0-0_0
  6
CONTINUOUS
 62
    7
 10
171.93992650000001
 20
403.4922335
 11
171.73561849999999
 21
403.30201750000003
  0
LINE
  8
_0-0_0
  6
CONTINUOUS
 62
    7
 10
172.1084975
 20
403.05308550000007
 11
171.82939950000002
 21
403.05772450000006
  0
LINE
  8
_0-0_0
  6
CONTINUOUS
 62
    7
 10
172.01270349999999
 20
403.26823450000006
 11
171.82939950000002
 21
403.05772450000006
  0
LINE
  8
_0-0_0
  6
CONTINUOUS
 62
    7
 10
172.22624949999999
 20
402.84913649999999
 11
171.94819649999999
 21
402.82456950000005
  0
LINE
  8
_0-0_0
  6
CONTINUOUS
 62
    7
 10
172.1084975
 20
403.05308550000007
 11
171.94819649999999
 21
402.82456950000005
  0
LINE
  8
_0-0_0
  6
CONTINUOUS
 62
    7
 10
172.36468550000001
 20
402.65858449999996
 11
172.0907215
 21
402.60511750000001
  0
LINE
  8
_0-0_0
  6
CONTINUOUS
 62
    7
 10
172.22624949999999
 20
402.84913649999999
 11
172.0907215
 21
402.60511750000001
  0
LINE
  8
_0-0_0
  6
CONTINUOUS
 62
    7
 10
172.52227049999999
 20
402.48359649999998
 11
172.2554015
 21
402.40174850000005
  0
LINE
  8
_0-0_0
  6
CONTINUOUS
 62
    7
 10
172.36468550000001
 20
402.65858449999996
 11
172.2554015
 21
402.40174850000005
  0
LINE
  8
_0-0_0
  6
CONTINUOUS
 62
    7
 10
172.69728850000001
 20
402.32600450000007
 11
172.4404375
 21
402.21672050000006
  0
LINE
  8
_0-0_0
  6
CONTINUOUS
 62
    7
 10
172.52227049999999
 20
402.48359649999998
 11
172.4404375
 21
402.21672050000006
  0
LINE
  8
_0-0_0
  6
CONTINUOUS
 62
    7
 10
172.88782550000002
 20
402.18754550000006
 11
172.6437985
 21
402.05201750000003
  0
LINE
  8
_0-0_0
  6
CONTINUOUS
 62
    7
 10
172.69728850000001
 20
402.32600450000007
 11
172.6437985
 21
402.05201750000003
  0
LINE
  8
_0-0_0
  6
CONTINUOUS
 62
    7
 10
173.09178150000002
 20
402.06980950000002
 11
172.8632585
 21
401.90950050000004
  0
LINE
  8
_0-0_0
  6
CONTINUOUS
 62
    7
 10
172.88782550000002
 20
402.18754550000006
 11
172.8632585
 21
401.90950050000004
  0
LINE
  8
_0-0_0
  6
CONTINUOUS
 62
    7
 10
173.30693050000002
 20
401.97401450000007
 11
173.09642050000002
 21
401.79069549999997
  0
LINE
  8
_0-0_0
  6
CONTINUOUS
 62
    7
 10
173.09178150000002
 20
402.06980950000002
 11
173.09642050000002
 21
401.79069549999997
  0
LINE
  8
_0-0_0
  6
CONTINUOUS
 62
    7
 10
173.53091449999999
 20
401.9012295
 11
173.3407215
 21
401.69691450000005
  0
LINE
  8
_0-0_0
  6
CONTINUOUS
 62
    7
 10
173.30693050000002
 20
401.97401450000007
 11
173.3407215
 21
401.69691450000005
  0
LINE
  8
_0-0_0
  6
CONTINUOUS
 62
    7
 10
173.76128349999999
 20
401.85227950000001
 11
173.59348349999999
 21
401.62919650000003
  0
LINE
  8
_0-0_0
  6
CONTINUOUS
 62
    7
 10
173.53091449999999
 20
401.9012295
 11
173.59348349999999
 21
401.62919650000003
  0
LINE
  8
_0-0_0
  6
CONTINUOUS
 62
    7
 10
173.9955065
 20
401.8276525
 11
173.8519445
 21
401.58827250000002
  0
LINE
  8
_0-0_0
  6
CONTINUOUS
 62
    7
 10
173.76128349999999
 20
401.85227950000001
 11
173.8519445
 21
401.58827250000002
  0
LINE
  8
_0-0_0
  6
CONTINUOUS
 62
    7
 10
174.2310185
 20
401.8276525
 11
174.1132585
 21
401.57456950000005
  0
LINE
  8
_0-0_0
  6
CONTINUOUS
 62
    7
 10
173.9955065
 20
401.8276525
 11
174.1132585
 21
401.57456950000005
  0
LINE
  8
_0-0_0
  6
CONTINUOUS
 62
    7
 10
174.46524049999999
 20
401.85227950000001
 11
174.37458050000001
 21
401.58827250000002
  0
LINE
  8
_0-0_0
  6
CONTINUOUS
 62
    7
 10
174.2310185
 20
401.8276525
 11
174.37458050000001
 21
401.58827250000002
  0
LINE
  8
_0-0_0
  6
CONTINUOUS
 62
    7
 10
174.69560250000001
 20
401.9012295
 11
174.63304149999999
 21
401.62919650000003
  0
LINE
  8
_0-0_0
  6
CONTINUOUS
 62
    7
 10
174.46524049999999
 20
401.85227950000001
 11
174.63304149999999
 21
401.62919650000003
  0
LINE
  8
_0-0_0
  6
CONTINUOUS
 62
    7
 10
174.91958650000001
 20
401.97401450000007
 11
174.88580350000001
 21
401.69691450000005
  0
LINE
  8
_0-0_0
  6
CONTINUOUS
 62
    7
 10
174.69560250000001
 20
401.9012295
 11
174.88580350000001
 21
401.69691450000005
  0
LINE
  8
_0-0_0
  6
CONTINUOUS
 62
    7
 10
175.13474250000002
 20
402.06980950000002
 11
175.13010450000002
 21
401.79069549999997
  0
LINE
  8
_0-0_0
  6
CONTINUOUS
 62
    7
 10
174.91958650000001
 20
401.97401450000007
 11
175.13010450000002
 21
401.79069549999997
  0
LINE
  8
_0-0_0
  6
CONTINUOUS
 62
    7
 10
175.25427250000001
 20
401.98594650000007
 11
175.3632585
 21
401.90950050000004
  0
LINE
  8
_0-0_0
  6
CONTINUOUS
 62
    7
 10
175.13474250000002
 20
402.06980950000002
 11
175.25427250000001
 21
401.98594650000007
  0
LINE
  8
_0-0_0
  6
CONTINUOUS
 62
    7
 10
175.33869950000002
 20
402.18754550000006
 11
175.3632585
 21
401.90950050000004
  0
LINE
  8
_0-0_0
  6
CONTINUOUS
 62
    7
 10
175.52923550000003
 20
402.32600450000007
 11
175.58272550000001
 21
402.05201750000003
  0
LINE
  8
_0-0_0
  6
CONTINUOUS
 62
    7
 10
175.33869950000002
 20
402.18754550000006
 11
175.58272550000001
 21
402.05201750000003
  0
LINE
  8
_0-0_0
  6
CONTINUOUS
 62
    7
 10
175.70425449999999
 20
402.48359649999998
 11
175.78608750000001
 21
402.21672050000006
  0
LINE
  8
_0-0_0
  6
CONTINUOUS
 62
    7
 10
175.52923550000003
 20
402.32600450000007
 11
175.78608750000001
 21
402.21672050000006
  0
LINE
  8
_0-0_0
  6
CONTINUOUS
 62
    7
 10
175.8618395
 20
402.65858449999996
 11
175.97112250000001
 21
402.40174850000005
  0
LINE
  8
_0-0_0
  6
CONTINUOUS
 62
    7
 10
175.70425449999999
 20
402.48359649999998
 11
175.97112250000001
 21
402.40174850000005
  0
LINE
  8
_0-0_0
  6
CONTINUOUS
 62
    7
 10
176.00026750000001
 20
402.84913649999999
 11
176.13580350000001
 21
402.60511750000001
  0
LINE
  8
_0-0_0
  6
CONTINUOUS
 62
    7
 10
175.8618395
 20
402.65858449999996
 11
176.13580350000001
 21
402.60511750000001
  0
LINE
  8
_0-0_0
  6
CONTINUOUS
 62
    7
 10
176.11802650000001
 20
403.05308550000007
 11
176.27832050000001
 21
402.82456950000005
  0
LINE
  8
_0-0_0
  6
CONTINUOUS
 62
    7
 10
176.00026750000001
 20
402.84913649999999
 11
176.27832050000001
 21
402.82456950000005
  0
LINE
  8
_0-0_0
  6
CONTINUOUS
 62
    7
 10
176.21382149999999
 20
403.26823450000006
 11
176.39712550000002
 21
403.05772450000006
  0
LINE
  8
_0-0_0
  6
CONTINUOUS
 62
    7
 10
176.11802650000001
 20
403.05308550000007
 11
176.39712550000002
 21
403.05772450000006
  0
LINE
  8
_0-0_0
  6
CONTINUOUS
 62
    7
 10
176.28659049999999
 20
403.4922335
 11
176.4909055
 21
403.30201750000003
  0
LINE
  8
_0-0_0
  6
CONTINUOUS
 62
    7
 10
176.21382149999999
 20
403.26823450000006
 11
176.4909055
 21
403.30201750000003
  0
LINE
  8
_0-0_0
  6
CONTINUOUS
 62
    7
 10
176.3355565
 20
403.72258050000005
 11
176.55863149999999
 21
403.55479449999996
  0
LINE
  8
_0-0_0
  6
CONTINUOUS
 62
    7
 10
176.28659049999999
 20
403.4922335
 11
176.55863149999999
 21
403.55479449999996
  0
LINE
  8
_0-0_0
  6
CONTINUOUS
 62
    7
 10
176.36017650000002
 20
403.95680249999998
 11
176.59956349999999
 21
403.81324749999999
  0
LINE
  8
_0-0_0
  6
CONTINUOUS
 62
    7
 10
176.3355565
 20
403.72258050000005
 11
176.59956349999999
 21
403.81324749999999
  0
LINE
  8
_0-0_0
  6
CONTINUOUS
 62
    7
 10
176.36017650000002
 20
404.19233750000001
 11
176.6132585
 21
404.07456950000005
  0
LINE
  8
_0-0_0
  6
CONTINUOUS
 62
    7
 10
176.36017650000002
 20
403.95680249999998
 11
176.6132585
 21
404.07456950000005
  0
LINE
  8
_0-0_0
  6
CONTINUOUS
 62
    7
 10
176.3355565
 20
404.42655950000005
 11
176.59956349999999
 21
404.3358915
  0
LINE
  8
_0-0_0
  6
CONTINUOUS
 62
    7
 10
176.36017650000002
 20
404.19233750000001
 11
176.59956349999999
 21
404.3358915
  0
LINE
  8
_0-0_0
  6
CONTINUOUS
 62
    7
 10
176.28659049999999
 20
404.65690649999999
 11
176.55863149999999
 21
404.59434550000003
  0
LINE
  8
_0-0_0
  6
CONTINUOUS
 62
    7
 10
176.3355565
 20
404.42655950000005
 11
176.55863149999999
 21
404.59434550000003
  0
LINE
  8
_0-0_0
  6
CONTINUOUS
 62
    7
 10
176.21382149999999
 20
404.88090550000004
 11
176.4909055
 21
404.84712249999995
  0
LINE
  8
_0-0_0
  6
CONTINUOUS
 62
    7
 10
176.28659049999999
 20
404.65690649999999
 11
176.4909055
 21
404.84712249999995
  0
LINE
  8
_0-0_0
  6
CONTINUOUS
 62
    7
 10
176.11802650000001
 20
405.09605450000004
 11
176.39712550000002
 21
405.09141550000004
  0
LINE
  8
_0-0_0
  6
CONTINUOUS
 62
    7
 10
176.21382149999999
 20
404.88090550000004
 11
176.39712550000002
 21
405.09141550000004
  0
CIRCLE
  8
_0-0_0
  6
CONTINUOUS
 62
    7
 10
186.11326650000001
 20
420.67457550000006
 40
2
  0
CIRCLE
  8
_0-0_0
  6
CONTINUOUS
 62
    7
 10
174.1132585
 20
404.07456950000005
 40
2
  0
LINE
  8
_0-0_0
  6
CONTINUOUS
 62
    7
 10
186.69537350000002
 20
419.67457550000006
 11
185.5311585
 21
419.67457550000006
  0
LINE
  8
_0-0_0
  6
CONTINUOUS
 62
    7
 10
185.5311585
 20
419.67457550000006
 11
184.9632565
 21
420.67457550000006
  0
LINE
  8
_0-0_0
  6
CONTINUOUS
 62
    7
 10
184.9632565
 20
420.67457550000006
 11
185.5311585
 21
421.67457550000006
  0
LINE
  8
_0-0_0
  6
CONTINUOUS
 62
    7
 10
185.5311585
 20
421.67457550000006
 11
186.69537350000002
 21
421.67457550000006
  0
LINE
  8
_0-0_0
  6
CONTINUOUS
 62
    7
 10
186.69537350000002
 20
421.67457550000006
 11
187.2632595
 21
420.67457550000006
  0
LINE
  8
_0-0_0
  6
CONTINUOUS
 62
    7
 10
187.2632595
 20
420.67457550000006
 11
186.69537350000002
 21
419.67457550000006
  0
CIRCLE
  8
_0-0_0
  6
CONTINUOUS
 62
    7
 10
180.1132585
 20
412.37455750000004
 40
5
  0
LINE
  8
_0-0_0
  6
CONTINUOUS
 62
    7
 10
174.69537350000002
 20
403.07456950000005
 11
173.53115050000002
 21
403.07456950000005
  0
LINE
  8
_0-0_0
  6
CONTINUOUS
 62
    7
 10
173.53115050000002
 20
403.07456950000005
 11
172.96326450000001
 21
404.07456950000005
  0
LINE
  8
_0-0_0
  6
CONTINUOUS
 62
    7
 10
172.96326450000001
 20
404.07456950000005
 11
173.53115050000002
 21
405.07456950000005
  0
LINE
  8
_0-0_0
  6
CONTINUOUS
 62
    7
 10
173.53115050000002
 20
405.07456950000005
 11
174.69537350000002
 21
405.07456950000005
  0
LINE
  8
_0-0_0
  6
CONTINUOUS
 62
    7
 10
174.69537350000002
 20
405.07456950000005
 11
175.2632595
 21
404.07456950000005
  0
LINE
  8
_0-0_0
  6
CONTINUOUS
 62
    7
 10
175.2632595
 20
404.07456950000005
 11
174.69537350000002
 21
403.07456950000005
  0
CIRCLE
  8
_0-0_0
  6
CONTINUOUS
 62
    7
 10
180.1132585
 20
412.37455750000004
 40
4.5381200000000002
  0
CIRCLE
  8
_0-0_0
  6
CONTINUOUS
 62
    7
 10
180.1132585
 20
412.37455750000004
 40
4
  0
LINE
  8
_0-0_0
  6
CONTINUOUS
 62
    7
 10
171.9806825
 20
422.32987950000006
 11
171.31326350000001
 21
422.32987950000006
  0
ARC
  8
_0-0_0
  6
CONTINUOUS
 62
    7
 10
188.11326650000001
 20
422.79957550000006
 40
0.2
 50
179.94055499999999
 51
269.99997000000002
  0
ARC
  8
_0-0_0
  6
CONTINUOUS
 62
    7
 10
186.61326650000001
 20
403.57456950000005
 40
2
 50
269.99999700000001
 51
273.84026499999999
  0
ARC
  8
_0-0_0
  6
CONTINUOUS
 62
    7
 10
173.6132585
 20
421.17457550000006
 40
2
 50
90.000003000000007
 51
93.840255999999997
  0
LINE
  8
_0-0_0
  6
CONTINUOUS
 62
    7
 10
188.41326950000001
 20
422.59956350000004
 11
188.11326650000001
 21
422.59956350000004
  0
LINE
  8
_0-0_0
  6
CONTINUOUS
 62
    7
 10
188.41326950000001
 20
425.54957550000006
 11
188.11326650000001
 21
425.54957550000006
  0
ARC
  8
_0-0_0
  6
CONTINUOUS
 62
    7
 10
172.1132585
 20
422.79963650000002
 40
0.2
 50
270.00002499999994
 51
0.0594439999999606
  0
ARC
  8
_0-0_0
  6
CONTINUOUS
 62
    7
 10
188.41322350000002
 20
422.79960649999998
 40
0.200055
 50
270.00964199999999
 51
1.3705509999999435
  0
ARC
  8
_0-0_0
  6
CONTINUOUS
 62
    7
 10
188.4132535
 20
425.34956350000004
 40
0.2
 50
359.91222800000003
 51
89.999948000000003
  0
LINE
  8
_0-0_0
  6
CONTINUOUS
 62
    7
 10
171.81326350000001
 20
422.59965550000004
 11
172.1132585
 21
422.59965550000004
  0
ARC
  8
_0-0_0
  6
CONTINUOUS
 62
    7
 10
171.81329349999999
 20
422.79969849999998
 40
0.200055
 50
178.629446
 51
269.99035300000003
  0
LINE
  8
_0-0_0
  6
CONTINUOUS
 62
    7
 10
188.81326350000001
 20
428.07463050000001
 11
188.81326350000001
 21
441.27464350000002
  0
ARC
  8
_0-0_0
  6
CONTINUOUS
 62
    7
 10
188.31326350000001
 20
428.07463050000001
 40
0.5
 50
269.99999700000001
 51
0
  0
ARC
  8
_0-0_0
  6
CONTINUOUS
 62
    7
 10
188.7546845
 20
441.47465550000004
 40
0.1
 50
135
 51
225
  0
LINE
  8
_0-0_0
  6
CONTINUOUS
 62
    7
 10
188.6839755
 20
441.40394649999996
 11
188.81326350000001
 21
441.27464350000002
  0
LINE
  8
_0-0_0
  6
CONTINUOUS
 62
    7
 10
188.31326350000001
 20
427.57463050000001
 11
186.41326950000001
 21
427.57463050000001
  0
ARC
  8
_0-0_0
  6
CONTINUOUS
 62
    7
 10
186.41326950000001
 20
428.07463050000001
 40
0.5
 50
233.12990600000001
 51
269.99999700000001
  0
ARC
  8
_0-0_0
  6
CONTINUOUS
 62
    7
 10
173.71326450000001
 20
428.07463050000001
 40
0.5
 50
269.99999700000001
 51
306.87009999999998
  0
LINE
  8
_0-0_0
  6
CONTINUOUS
 62
    7
 10
173.71326450000001
 20
427.57463050000001
 11
171.81326350000001
 21
427.57463050000001
  0
ARC
  8
_0-0_0
  6
CONTINUOUS
 62
    7
 10
171.81326350000001
 20
428.07463050000001
 40
0.5
 50
180.00000900000003
 51
269.99999700000001
  0
LINE
  8
_0-0_0
  6
CONTINUOUS
 62
    7
 10
171.31326350000001
 20
437.5096585
 11
171.31326350000001
 21
428.07463050000001
  0
LINE
  8
_0-0_0
  6
CONTINUOUS
 62
    7
 10
171.31326350000001
 20
437.5096585
 11
172.0132595
 21
437.5096585
  0
LINE
  8
_0-0_0
  6
CONTINUOUS
 62
    7
 10
188.0132595
 20
456.07463050000001
 11
188.21929950000001
 21
456.07463050000001
  0
LINE
  8
_0-0_0
  6
CONTINUOUS
 62
    7
 10
188.21929950000001
 20
456.07463050000001
 11
188.81326350000001
 21
455.48066749999998
  0
LINE
  8
_0-0_0
  6
CONTINUOUS
 62
    7
 10
188.81326350000001
 20
450.47465550000004
 11
188.81326350000001
 21
455.48066749999998
  0
LINE
  8
_0-0_0
  6
CONTINUOUS
 62
    7
 10
188.6839755
 20
450.34535249999999
 11
188.81326350000001
 21
450.47465550000004
  0
ARC
  8
_0-0_0
  6
CONTINUOUS
 62
    7
 10
188.7546845
 20
450.27464350000002
 40
0.1
 50
135
 51
225
  0
LINE
  8
_0-0_0
  6
CONTINUOUS
 62
    7
 10
188.6839755
 20
450.20393350000006
 11
188.81326350000001
 21
450.07463050000001
  0
LINE
  8
_0-0_0
  6
CONTINUOUS
 62
    7
 10
188.81326350000001
 20
449.37464950000003
 11
188.81326350000001
 21
450.07463050000001
  0
LINE
  8
_0-0_0
  6
CONTINUOUS
 62
    7
 10
188.6839755
 20
449.24534649999998
 11
188.81326350000001
 21
449.37464950000003
  0
ARC
  8
_0-0_0
  6
CONTINUOUS
 62
    7
 10
188.7546845
 20
449.17463650000002
 40
0.1
 50
135
 51
225
  0
LINE
  8
_0-0_0
  6
CONTINUOUS
 62
    7
 10
188.6839755
 20
449.10392750000005
 11
188.81326350000001
 21
448.97465550000004
  0
LINE
  8
_0-0_0
  6
CONTINUOUS
 62
    7
 10
188.81326350000001
 20
448.27464350000002
 11
188.81326350000001
 21
448.97465550000004
  0
LINE
  8
_0-0_0
  6
CONTINUOUS
 62
    7
 10
188.6839755
 20
448.14534049999997
 11
188.81326350000001
 21
448.27464350000002
  0
ARC
  8
_0-0_0
  6
CONTINUOUS
 62
    7
 10
188.7546845
 20
448.07463050000001
 40
0.1
 50
135
 51
225
  0
LINE
  8
_0-0_0
  6
CONTINUOUS
 62
    7
 10
188.6839755
 20
448.00392150000005
 11
188.81326350000001
 21
447.87464950000003
  0
LINE
  8
_0-0_0
  6
CONTINUOUS
 62
    7
 10
188.81326350000001
 20
447.17463650000002
 11
188.81326350000001
 21
447.87464950000003
  0
LINE
  8
_0-0_0
  6
CONTINUOUS
 62
    7
 10
188.6839755
 20
447.04536450000001
 11
188.81326350000001
 21
447.17463650000002
  0
ARC
  8
_0-0_0
  6
CONTINUOUS
 62
    7
 10
188.7546845
 20
446.97465550000004
 40
0.1
 50
135
 51
225
  0
LINE
  8
_0-0_0
  6
CONTINUOUS
 62
    7
 10
188.6839755
 20
446.90394649999996
 11
188.81326350000001
 21
446.77464350000002
  0
LINE
  8
_0-0_0
  6
CONTINUOUS
 62
    7
 10
188.81326350000001
 20
446.07463050000001
 11
188.81326350000001
 21
446.77464350000002
  0
LINE
  8
_0-0_0
  6
CONTINUOUS
 62
    7
 10
188.6839755
 20
445.9453585
 11
188.81326350000001
 21
446.07463050000001
  0
ARC
  8
_0-0_0
  6
CONTINUOUS
 62
    7
 10
188.7546845
 20
445.87464950000003
 40
0.1
 50
135
 51
225
  0
LINE
  8
_0-0_0
  6
CONTINUOUS
 62
    7
 10
188.6839755
 20
445.80393949999996
 11
188.81326350000001
 21
445.67463650000002
  0
LINE
  8
_0-0_0
  6
CONTINUOUS
 62
    7
 10
188.81326350000001
 20
444.97465550000004
 11
188.81326350000001
 21
445.67463650000002
  0
LINE
  8
_0-0_0
  6
CONTINUOUS
 62
    7
 10
188.6839755
 20
444.84535249999999
 11
188.81326350000001
 21
444.97465550000004
  0
ARC
  8
_0-0_0
  6
CONTINUOUS
 62
    7
 10
188.7546845
 20
444.77464350000002
 40
0.1
 50
135
 51
225
  0
LINE
  8
_0-0_0
  6
CONTINUOUS
 62
    7
 10
188.6839755
 20
444.70393350000006
 11
188.81326350000001
 21
444.57463050000001
  0
LINE
  8
_0-0_0
  6
CONTINUOUS
 62
    7
 10
188.81326350000001
 20
443.87464950000003
 11
188.81326350000001
 21
444.57463050000001
  0
LINE
  8
_0-0_0
  6
CONTINUOUS
 62
    7
 10
188.6839755
 20
443.74534649999998
 11
188.81326350000001
 21
443.87464950000003
  0
ARC
  8
_0-0_0
  6
CONTINUOUS
 62
    7
 10
188.7546845
 20
443.67463650000002
 40
0.1
 50
135
 51
225
  0
LINE
  8
_0-0_0
  6
CONTINUOUS
 62
    7
 10
188.6839755
 20
443.60392750000005
 11
188.81326350000001
 21
443.47465550000004
  0
LINE
  8
_0-0_0
  6
CONTINUOUS
 62
    7
 10
188.81326350000001
 20
442.77464350000002
 11
188.81326350000001
 21
443.47465550000004
  0
LINE
  8
_0-0_0
  6
CONTINUOUS
 62
    7
 10
188.6839755
 20
442.64534049999997
 11
188.81326350000001
 21
442.77464350000002
  0
ARC
  8
_0-0_0
  6
CONTINUOUS
 62
    7
 10
188.7546845
 20
442.57466150000005
 40
0.1
 50
135
 51
225
  0
LINE
  8
_0-0_0
  6
CONTINUOUS
 62
    7
 10
188.6839755
 20
442.50392150000005
 11
188.81326350000001
 21
442.37464950000003
  0
LINE
  8
_0-0_0
  6
CONTINUOUS
 62
    7
 10
188.81326350000001
 20
441.67463650000002
 11
188.81326350000001
 21
442.37464950000003
  0
LINE
  8
_0-0_0
  6
CONTINUOUS
 62
    7
 10
188.6839755
 20
441.54536450000001
 11
188.81326350000001
 21
441.67463650000002
  0
LINE
  8
_0-0_0
  6
CONTINUOUS
 62
    7
 10
188.81326350000001
 20
433.57466150000005
 11
188.91326950000001
 21
433.57466150000005
  0
LINE
  8
_0-0_0
  6
CONTINUOUS
 62
    7
 10
188.91326950000001
 20
433.07466150000005
 11
188.91326950000001
 21
433.57466150000005
  0
LINE
  8
_0-0_0
  6
CONTINUOUS
 62
    7
 10
188.91326950000001
 20
433.07466150000005
 11
188.91326950000001
 21
429.07463050000001
  0
LINE
  8
_0-0_0
  6
CONTINUOUS
 62
    7
 10
188.81326350000001
 20
428.57463050000001
 11
188.91326950000001
 21
428.57463050000001
  0
LINE
  8
_0-0_0
  6
CONTINUOUS
 62
    7
 10
188.91326950000001
 20
428.57463050000001
 11
188.91326950000001
 21
429.07463050000001
  0
LINE
  8
_0-0_0
  6
CONTINUOUS
 62
    7
 10
171.31326350000001
 20
437.57466150000005
 11
171.31326350000001
 21
437.5096585
  0
LINE
  8
_0-0_0
  6
CONTINUOUS
 62
    7
 10
187.81326350000001
 20
456.37464950000003
 11
187.81326350000001
 21
456.27464350000002
  0
LINE
  8
_0-0_0
  6
CONTINUOUS
 62
    7
 10
171.21326450000001
 20
437.57466150000005
 11
172.0132595
 21
437.57466150000005
  0
LINE
  8
_0-0_0
  6
CONTINUOUS
 62
    7
 10
171.71326450000001
 20
459.37464950000003
 11
171.71326450000001
 21
455.15309149999996
  0
LINE
  8
_0-0_0
  6
CONTINUOUS
 62
    7
 10
172.81326350000001
 20
459.37464950000003
 11
172.81326350000001
 21
456.37464950000003
  0
LINE
  8
_0-0_0
  6
CONTINUOUS
 62
    7
 10
171.71326450000001
 20
455.15309149999996
 11
172.0132595
 21
455.15309149999996
  0
ARC
  8
_0-0_0
  6
CONTINUOUS
 62
    7
 10
175.31326350000001
 20
456.37464950000003
 40
2.5
 50
90.000003000000007
 51
180.00000900000001
  0
ARC
  8
_0-0_0
  6
CONTINUOUS
 62
    7
 10
185.31326350000001
 20
456.37464950000003
 40
2.5
 50
0
 51
90.000003000000007
  0
LINE
  8
_0-0_0
  6
CONTINUOUS
 62
    7
 10
172.81326350000001
 20
456.27464350000002
 11
172.81326350000001
 21
456.37464950000003
  0
LINE
  8
_0-0_0
  6
CONTINUOUS
 62
    7
 10
185.31326350000001
 20
458.87464950000003
 11
175.31326350000001
 21
458.87464950000003
  0
LINE
  8
_0-0_0
  6
CONTINUOUS
 62
    7
 10
189.0132595
 20
429.07463050000001
 11
189.0132595
 21
429.20500149999998
  0
LINE
  8
_0-0_0
  6
CONTINUOUS
 62
    7
 10
189.0132595
 20
432.70500149999998
 11
189.0132595
 21
429.20500149999998
  0
LINE
  8
_0-0_0
  6
CONTINUOUS
 62
    7
 10
188.91326950000001
 20
432.97465550000004
 11
189.0132595
 21
432.97465550000004
  0
LINE
  8
_0-0_0
  6
CONTINUOUS
 62
    7
 10
189.0132595
 20
432.70500149999998
 11
189.0132595
 21
432.97465550000004
  0
LINE
  8
_0-0_0
  6
CONTINUOUS
 62
    7
 10
188.61326650000001
 20
455.47465550000004
 11
187.61326650000001
 21
456.47465550000004
  0
LINE
  8
_0-0_0
  6
CONTINUOUS
 62
    7
 10
188.61326650000001
 20
427.67463650000002
 11
188.61326650000001
 21
455.47465550000004
  0
LINE
  8
_0-0_0
  6
CONTINUOUS
 62
    7
 10
172.0132595
 20
427.67463650000002
 11
188.61326650000001
 21
427.67463650000002
  0
LINE
  8
_0-0_0
  6
CONTINUOUS
 62
    7
 10
172.0132595
 20
455.47465550000004
 11
172.0132595
 21
427.67463650000002
  0
LINE
  8
_0-0_0
  6
CONTINUOUS
 62
    7
 10
171.21326450000001
 20
437.57466150000005
 11
171.21326450000001
 21
454.38746649999996
  0
LINE
  8
_0-0_0
  6
CONTINUOUS
 62
    7
 10
171.21326450000001
 20
458.87464950000003
 11
171.21326450000001
 21
454.38746649999996
  0
ARC
  8
_0-0_0
  6
CONTINUOUS
 62
    7
 10
202.6650085
 20
434.39247150000006
 40
37.269466000000001
 50
146.14857699999999
 51
147.55443399999999
  0
ARC
  8
_0-0_0
  6
CONTINUOUS
 62
    7
 10
185.04421250000001
 20
456.07463050000001
 40
2.6000000000000001
 50
8.8498839999999994
 51
90.000002999999992
  0
LINE
  8
_0-0_0
  6
CONTINUOUS
 62
    7
 10
185.04421250000001
 20
458.67463650000002
 11
175.58230550000002
 21
458.67463650000002
  0
ARC
  8
_0-0_0
  6
CONTINUOUS
 62
    7
 10
175.58230550000002
 20
456.07466150000005
 40
2.6000000000000001
 50
90.000003000000007
 51
171.150115
  0
LINE
  8
_0-0_0
  6
CONTINUOUS
 62
    7
 10
172.0132595
 20
455.47465550000004
 11
173.0132595
 21
456.47465550000004
  0
LINE
  8
_0-0_0
  6
CONTINUOUS
 62
    7
 10
187.61326650000001
 20
455.06044050000003
 11
188.61326650000001
 21
455.47465550000004
  0
ARC
  8
_0-0_0
  6
CONTINUOUS
 62
    7
 10
182.07072450000001
 20
467.26075750000007
 40
12.126564999999999
 50
292.155034
 51
297.19674500000002
  0
LINE
  8
_0-0_0
  6
CONTINUOUS
 62
    7
 10
187.61326650000001
 20
428.67463650000002
 11
188.61326650000001
 21
427.67463650000002
  0
LINE
  8
_0-0_0
  6
CONTINUOUS
 62
    7
 10
173.0132595
 20
428.67463650000002
 11
172.0132595
 21
427.67463650000002
  0
LINE
  8
_0-0_0
  6
CONTINUOUS
 62
    7
 10
173.0132595
 20
455.06044050000003
 11
172.0132595
 21
455.47465550000004
  0
ARC
  8
_0-0_0
  6
CONTINUOUS
 62
    7
 10
178.5558015
 20
467.26075750000007
 40
12.126567
 50
242.80325699999997
 51
247.84494000000001
  0
CIRCLE
  8
_0-0_0
  6
CONTINUOUS
 62
    7
 10
180.31326350000001
 20
435.87464950000003
 40
2.0670000000000002
  0
LINE
  8
_0-0_0
  6
CONTINUOUS
 62
    7
 10
172.81326350000001
 20
459.37464950000003
 11
171.71326450000001
 21
459.37464950000003
  0
LINE
  8
_0-0_0
  6
CONTINUOUS
 62
    7
 10
188.91326950000001
 20
429.07463050000001
 11
189.0132595
 21
429.07463050000001
  0
LINE
  8
_0-0_0
  6
CONTINUOUS
 62
    7
 10
188.91326950000001
 20
429.07463050000001
 11
189.0132595
 21
429.07463050000001
  0
LINE
  8
_0-0_0
  6
CONTINUOUS
 62
    7
 10
171.21326450000001
 20
458.87464950000003
 11
171.71326450000001
 21
459.37464950000003
  0
ENDSEC
  0
EOF
