  0
SECTION
  2
HEADER
  9
$ACADVER
  1
AC1009
  9
$INSBASE
 10
0
 20
0
 30
0
  9
$EXTMIN
 10
0
 20
0
  9
$EXTMAX
 10
420.5
 20
297
  9
$LIMMIN
 10
0
 20
0
  9
$LIMMAX
 10
420.5
 20
297
  9
$LTSCALE
 40
0.5
  0
ENDSEC
  0
SECTION
  2
TABLES
  0
TABLE
  2
LTYPE
 70
     9
  0
LTYPE
  2
CONTINUOUS
 70
    64
  3
実線
 72
    65
 73
     0
 40
0.0
  0
LTYPE
  2
DASHED1
 70
    64
  3
--  --  --  --  --  --  --  --  
 72
    65
 73
     2
 40
2.5
 49
1.25
 49
-1.25
  0
LTYPE
  2
DASHED2
 70
    64
  3
----    ----    ----    ----    
 72
    65
 73
     2
 40
5.0
 49
2.5
 49
-2.5
  0
LTYPE
  2
DASHED3
 70
    64
  3
------  ------  ------  ------  
 72
    65
 73
     2
 40
5.0
 49
3.75
 49
-1.25
  0
LTYPE
  2
CENTER1
 70
    64
  3
----- - ----- - ----- - ----- - 
 72
    65
 73
     4
 40
10.0
 49
6.25
 49
-1.25
 49
1.25
 49
-1.25
  0
LTYPE
  2
CENTER2
 70
    64
  3
----------  --  ----------  --  
 72
    65
 73
     4
 40
20.0
 49
12.5
 49
-2.5
 49
2.5
 49
-2.5
  0
LTYPE
  2
PHANTOM1
 70
    64
  3
--- - - --- - - --- - - --- - - 
 72
    65
 73
     6
 40
10.0
 49
3.25
 49
-1.25
 49
1.25
 49
-1.25
 49
1.25
 49
-1.25
  0
LTYPE
  2
PHANTOM2
 70
    64
  3
--------  -  -  --------  -  -  
 72
    65
 73
     6
 40
20.0
 49
10.0
 49
-2.5
 49
1.25
 49
-2.5
 49
1.25
 49
-2.5
  0
LTYPE
  2
DOT
 70
    64
  3
-   -   -   -   -   -   -   -   
 72
    65
 73
     2
 40
2.5
 49
0.625
 49
-1.875
  0
LTYPE
  2
DUMMY
 70
    64
  3
ダミー
 72
    65
 73
     0
 40
0.0
  0
LTYPE
  2
RAND1
 70
    64
  3
ランダム線1
 72
    65
 73
     4
 40
10.0
 49
1.0
 49
-2.0
 49
3.0
 49
-4.0
  0
LTYPE
  2
RAND2
 70
    64
  3
ランダム線2
 72
    65
 73
     4
 40
14.0
 49
2.0
 49
-3.0
 49
4.0
 49
-5.0
  0
LTYPE
  2
RAND3
 70
    64
  3
ランダム線3
 72
    65
 73
     4
 40
18.0
 49
3.0
 49
-4.0
 49
5.0
 49
-6.0
  0
LTYPE
  2
RAND4
 70
    64
  3
ランダム線4
 72
    65
 73
     4
 40
22.0
 49
4.0
 49
-5.0
 49
6.0
 49
-7.0
  0
LTYPE
  2
RAND5
 70
    64
  3
ランダム線5
 72
    65
 73
     4
 40
26.0
 49
5.0
 49
-6.0
 49
7.0
 49
-8.0
  0
LTYPE
  2
LONG1
 70
    64
  3
----------  --  ----------  --  
 72
    65
 73
     4
 40
40.0
 49
32.5
 49
-2.5
 49
2.5
 49
-2.5
  0
LTYPE
  2
LONG2
 70
    64
  3
--------  -  -  --------  -  -  
 72
    65
 73
     6
 40
40.0
 49
30.0
 49
-2.5
 49
1.25
 49
-2.5
 49
1.25
 49
-2.5
  0
LTYPE
  2
LONG3
 70
    64
  3
+++++++++++++++..+++++++++++++++
 72
    65
 73
     2
 40
40.0
 49
37.5
 49
-2.5
  0
LTYPE
  2
LONG4
 70
    64
  3
+++++++++++++++..+++++++++++++++
 72
    65
 73
     2
 40
80.0
 49
75.0
 49
-5.0
  0
LTYPE
  2
LONG5
 70
    64
  3
----------  --  ----------  --  
 72
    65
 73
     4
 40
60.0
 49
37.5
 49
-7.5
 49
7.5
 49
-7.5
  0
LTYPE
  2
dashed
 70
   64
  3
-------   -------------   ------
 72
   65
 73
    2
 40
7.5
 49
6
 49
-1.5
  0
LTYPE
  2
dashed_spaced
 70
   64
  3
----        --------        ----
 72
   65
 73
    2
 40
12
 49
6
 49
-6
  0
LTYPE
  2
long_dashed_dotted
 70
   64
  3
------------- --- --------------
 72
   65
 73
    4
 40
15.25
 49
12
 49
-1.5
 49
0.25
 49
-1.5
  0
LTYPE
  2
long_dashed_double-dotted
 70
   64
  3
----------- --- --- ------------
 72
   65
 73
    6
 40
17
 49
12
 49
-1.5
 49
0.25
 49
-1.5
 49
0.25
 49
-1.5
  0
LTYPE
  2
long_dashed_triplicate-dotted
 70
   64
  3
--------- --- --- --- ----------
 72
   65
 73
    8
 40
18.75
 49
12
 49
-1.5
 49
0.25
 49
-1.5
 49
0.25
 49
-1.5
 49
0.25
 49
-1.5
  0
LTYPE
  2
dotted
 70
   64
  3
   -       -       -       -    
 72
   65
 73
    2
 40
1.75
 49
0.25
 49
-1.5
  0
LTYPE
  2
chain
 70
   64
  3
-------------- -- --------------
 72
   65
 73
    4
 40
18.5
 49
12
 49
-1.5
 49
3.5
 49
-1.5
  0
LTYPE
  2
chain_double_dash
 70
   64
  3
------------ -- -- -------------
 72
   65
 73
    6
 40
23.5
 49
12
 49
-1.5
 49
3.5
 49
-1.5
 49
3.5
 49
-1.5
  0
LTYPE
  2
dashed_dotted
 70
   64
  3
-----------     -     ----------
 72
   65
 73
    4
 40
9.25
 49
6
 49
-1.5
 49
0.25
 49
-1.5
  0
LTYPE
  2
double-dashed_dotted
 70
   64
  3
------   -----------   -   -----
 72
   65
 73
    6
 40
16.75
 49
6
 49
-1.5
 49
6
 49
-1.5
 49
0.25
 49
-1.5
  0
LTYPE
  2
dashed_double-dotted
 70
   64
  3
---------    -    -    ---------
 72
   65
 73
    6
 40
11
 49
6
 49
-1.5
 49
0.25
 49
-1.5
 49
0.25
 49
-1.5
  0
LTYPE
  2
double-dashed_double-dotted
 70
   64
  3
-----   ---------   -   -   ----
 72
   65
 73
    8
 40
18.5
 49
6
 49
-1.5
 49
6
 49
-1.5
 49
0.25
 49
-1.5
 49
0.25
 49
-1.5
  0
LTYPE
  2
dashed_triplicate-dotted
 70
   64
  3
-------    -    -    -    ------
 72
   65
 73
    8
 40
12.75
 49
6
 49
-1.5
 49
0.25
 49
-1.5
 49
0.25
 49
-1.5
 49
0.25
 49
-1.5
  0
LTYPE
  2
double-dashed_triplicate-dotted
 70
   64
  3
-----  ---------  -  -  -  -----
 72
   65
 73
   10
 40
20.25
 49
6
 49
-1.5
 49
6
 49
-1.5
 49
0.25
 49
-1.5
 49
0.25
 49
-1.5
 49
0.25
 49
-1.5
  0
LTYPE
  2
undefined
 70
   64
  3
--------------------------------
 72
   65
 73
    0
 40
0
  0
ENDTAB
  0
TABLE
  2
STYLE
  5
3
100
AcDbSymbolTable
 70
     1
  0
STYLE
  5
10
100
AcDbSymbolTableRecord
100
AcDbTextStyleTableRecord
  2
STANDARD
 70
     0
 40
0.0
 41
1.0
 50
0.0
 71
     0
 42
0.2
  3
txt
  4
bigfont.shx
  0
STYLE
  5
26
100
AcDbSymbolTableRecord
100
AcDbTextStyleTableRecord
  2
TATEGAKI
 70
    68
 40
0.0
 41
1.0
 50
0.0
 71
     0
 42
1.0
  3
txt
  4
bigfont.shx
  0
ENDTAB
  0
TABLE
  2
LAYER
 70
    2
  0
LAYER
  2
_0-0_0
 70
   64
 62
    7
  6
CONTINUOUS
  0
LAYER
  2
ADD_LINE
 70
   64
 62
    7
  6
CONTINUOUS
  0
ENDTAB
  0
ENDSEC
  0
SECTION
  2
BLOCKS
  0
ENDSEC
  0
SECTION
  2
ENTITIES
  0
LINE
  8
_0-0_0
  6
CONTINUOUS
 62
    7
 10
-38.571067499999998
 20
268.1751405
 11
-38.571067499999998
 21
268.1741485
  0
LINE
  8
_0-0_0
  6
CONTINUOUS
 62
    7
 10
114.24143950000001
 20
229.2442015
 11
112.94143650000001
 21
225.7442015
  0
ARC
  8
_0-0_0
  6
CONTINUOUS
 62
    7
 10
114.42892449999999
 20
229.1745755
 40
0.2
 50
20.376434999999997
 51
159.62357000000003
  0
ARC
  8
_0-0_0
  6
CONTINUOUS
 62
    7
 10
152.42892449999999
 20
232.0745695
 40
2.2000000000000002
 50
180.00000900000003
 51
303.74900400000001
  0
LINE
  8
_0-0_0
  6
CONTINUOUS
 62
    7
 10
150.2289275
 20
233.5745695
 11
150.2289275
 21
232.0745695
  0
LINE
  8
_0-0_0
  6
CONTINUOUS
 62
    7
 10
150.2289275
 20
233.5745695
 11
75.628936500000009
 21
233.5745695
  0
LINE
  8
_0-0_0
  6
CONTINUOUS
 62
    7
 10
75.628936500000009
 20
233.5745695
 11
75.628936500000009
 21
232.0745695
  0
ARC
  8
_0-0_0
  6
CONTINUOUS
 62
    7
 10
73.428924499999994
 20
232.0745695
 40
2.2000000000000002
 50
236.25102899999999
 51
0
  0
ARC
  8
_0-0_0
  6
CONTINUOUS
 62
    7
 10
71.928924499999994
 20
229.82957450000001
 40
0.5
 50
56.251010000000008
 51
180.00000900000001
  0
LINE
  8
_0-0_0
  6
CONTINUOUS
 62
    7
 10
71.428924499999994
 20
209.47456350000002
 11
71.428924499999994
 21
210.25169350000002
  0
LINE
  8
_0-0_0
  6
CONTINUOUS
 62
    7
 10
71.428924499999994
 20
209.47456350000002
 11
81.228927499999998
 21
209.47456350000002
  0
ARC
  8
_0-0_0
  6
CONTINUOUS
 62
    7
 10
81.228927499999998
 20
209.6745755
 40
0.2
 50
269.99999700000001
 51
0
  0
LINE
  8
_0-0_0
  6
CONTINUOUS
 62
    7
 10
81.428924499999994
 20
211.3745725
 11
81.428924499999994
 21
209.6745755
  0
ARC
  8
_0-0_0
  6
CONTINUOUS
 62
    7
 10
81.628936500000009
 20
211.3745725
 40
0.2
 50
90.000003000000007
 51
180.00000900000001
  0
LINE
  8
_0-0_0
  6
CONTINUOUS
 62
    7
 10
82.128936500000009
 20
211.5745695
 11
81.628936500000009
 21
211.5745695
  0
ARC
  8
_0-0_0
  6
CONTINUOUS
 62
    7
 10
82.128936500000009
 20
211.0745695
 40
0.5
 50
90.000003000000007
 51
180.00000900000001
  0
LINE
  8
_0-0_0
  6
CONTINUOUS
 62
    7
 10
81.628936500000009
 20
209.5745695
 11
81.628936500000009
 21
211.0745695
  0
LINE
  8
_0-0_0
  6
CONTINUOUS
 62
    7
 10
151.2289275
 20
209.5745695
 11
81.628936500000009
 21
209.5745695
  0
LINE
  8
_0-0_0
  6
CONTINUOUS
 62
    7
 10
151.2289275
 20
209.5745695
 11
151.2289275
 21
211.0745695
  0
ARC
  8
_0-0_0
  6
CONTINUOUS
 62
    7
 10
150.7289275
 20
211.0745695
 40
0.5
 50
0
 51
90.000003000000007
  0
LINE
  8
_0-0_0
  6
CONTINUOUS
 62
    7
 10
151.2289275
 20
211.5745695
 11
150.7289275
 21
211.5745695
  0
ARC
  8
_0-0_0
  6
CONTINUOUS
 62
    7
 10
151.2289275
 20
211.3745725
 40
0.2
 50
0
 51
90.000003000000007
  0
LINE
  8
_0-0_0
  6
CONTINUOUS
 62
    7
 10
151.42892449999999
 20
209.6745755
 11
151.42892449999999
 21
211.3745725
  0
ARC
  8
_0-0_0
  6
CONTINUOUS
 62
    7
 10
151.62892150000002
 20
209.6745755
 40
0.2
 50
180.00000900000003
 51
269.99999700000001
  0
LINE
  8
_0-0_0
  6
CONTINUOUS
 62
    7
 10
151.62892150000002
 20
209.47456350000002
 11
152.42892449999999
 21
209.47456350000002
  0
ARC
  8
_0-0_0
  6
CONTINUOUS
 62
    7
 10
152.42892449999999
 20
211.47456350000002
 40
2
 50
269.99999700000001
 51
0.0000099999999886
  0
LINE
  8
_0-0_0
  6
CONTINUOUS
 62
    7
 10
154.42892449999999
 20
229.82957450000001
 11
154.42892449999999
 21
211.47456350000002
  0
ARC
  8
_0-0_0
  6
CONTINUOUS
 62
    7
 10
153.92892449999999
 20
229.82957450000001
 40
0.5
 50
0
 51
123.74898500000002
  0
LINE
  8
_0-0_0
  6
CONTINUOUS
 62
    7
 10
82.928924499999994
 20
211.77456649999999
 11
82.928924499999994
 21
211.97456350000002
  0
LINE
  8
_0-0_0
  6
CONTINUOUS
 62
    7
 10
82.928924499999994
 20
211.97456350000002
 11
149.92892449999999
 21
211.97456350000002
  0
LINE
  8
_0-0_0
  6
CONTINUOUS
 62
    7
 10
149.92892449999999
 20
211.77456649999999
 11
149.92892449999999
 21
211.97456350000002
  0
ARC
  8
_0-0_0
  6
CONTINUOUS
 62
    7
 10
150.12892150000002
 20
211.77456649999999
 40
0.2
 50
180.00000900000003
 51
269.99999700000001
  0
LINE
  8
_0-0_0
  6
CONTINUOUS
 62
    7
 10
150.12892150000002
 20
211.5745695
 11
82.728927499999998
 21
211.5745695
  0
ARC
  8
_0-0_0
  6
CONTINUOUS
 62
    7
 10
82.728927499999998
 20
211.77456649999999
 40
0.2
 50
269.99999700000001
 51
0
  0
ARC
  8
_0-0_0
  6
CONTINUOUS
 62
    7
 10
113.12892150000002
 20
225.6745755
 40
0.2
 50
159.62357
 51
269.99999700000001
  0
LINE
  8
_0-0_0
  6
CONTINUOUS
 62
    7
 10
113.12892150000002
 20
225.47457850000001
 11
115.7289275
 21
225.47457850000001
  0
ARC
  8
_0-0_0
  6
CONTINUOUS
 62
    7
 10
115.7289275
 20
225.6745755
 40
0.2
 50
269.99999700000001
 51
20.376435000000019
  0
LINE
  8
_0-0_0
  6
CONTINUOUS
 62
    7
 10
115.91641250000001
 20
225.7442015
 11
114.6164095
 21
229.2442015
  0
LINE
  8
_0-0_0
  6
CONTINUOUS
 62
    7
 10
71.428924499999994
 20
229.1745755
 11
71.428924499999994
 21
231.15194650000001
  0
LINE
  8
_0-0_0
  6
CONTINUOUS
 62
    7
 10
71.428924499999994
 20
229.1745755
 11
71.428924499999994
 21
211.5745695
  0
LINE
  8
_0-0_0
  6
CONTINUOUS
 62
    7
 10
71.428924499999994
 20
210.25169350000002
 11
71.428924499999994
 21
211.5745695
  0
LINE
  8
_0-0_0
  6
CONTINUOUS
 62
    7
 10
154.42892449999999
 20
235.5745695
 11
154.42892449999999
 21
234.5745695
  0
LINE
  8
_0-0_0
  6
CONTINUOUS
 62
    7
 10
154.42892449999999
 20
234.5745695
 11
154.42892449999999
 21
234.0745695
  0
LINE
  8
_0-0_0
  6
CONTINUOUS
 62
    7
 10
154.42892449999999
 20
234.0745695
 11
154.42892449999999
 21
232.0745695
  0
LINE
  8
_0-0_0
  6
CONTINUOUS
 62
    7
 10
154.42892449999999
 20
232.0745695
 11
154.42892449999999
 21
229.82957450000001
  0
LINE
  8
_0-0_0
  6
CONTINUOUS
 62
    7
 10
132.42892449999999
 20
229.5745695
 11
132.42892449999999
 21
215.97456350000002
  0
ARC
  8
_0-0_0
  6
CONTINUOUS
 62
    7
 10
135.42892449999999
 20
229.5745695
 40
3
 50
90.000003000000007
 51
180.00000900000001
  0
LINE
  8
_0-0_0
  6
CONTINUOUS
 62
    7
 10
148.76286350000001
 20
232.5745695
 11
135.42892449999999
 21
232.5745695
  0
ARC
  8
_0-0_0
  6
CONTINUOUS
 62
    7
 10
148.76286350000001
 20
231.5745695
 40
1
 50
7.7664340000000012
 51
90.000002999999992
  0
ARC
  8
_0-0_0
  6
CONTINUOUS
 62
    7
 10
152.42892449999999
 20
232.0745695
 40
2.7000000000000002
 50
187.76643899999999
 51
254.31966600000001
  0
ARC
  8
_0-0_0
  6
CONTINUOUS
 62
    7
 10
151.42892449999999
 20
228.51226750000001
 40
1
 50
0
 51
74.319649999999996
  0
LINE
  8
_0-0_0
  6
CONTINUOUS
 62
    7
 10
152.42892449999999
 20
215.97456350000002
 11
152.42892449999999
 21
228.51226750000001
  0
ARC
  8
_0-0_0
  6
CONTINUOUS
 62
    7
 10
149.42892449999999
 20
215.97456350000002
 40
3
 50
269.99999700000001
 51
0.0000099999999886
  0
LINE
  8
_0-0_0
  6
CONTINUOUS
 62
    7
 10
135.42892449999999
 20
212.97456350000002
 11
149.42892449999999
 21
212.97456350000002
  0
ARC
  8
_0-0_0
  6
CONTINUOUS
 62
    7
 10
135.42892449999999
 20
215.97456350000002
 40
3
 50
180.00000900000003
 51
269.99999700000001
  0
LINE
  8
_0-0_0
  6
CONTINUOUS
 62
    7
 10
78.428924499999994
 20
212.97456350000002
 11
93.428924499999994
 21
212.97456350000002
  0
ARC
  8
_0-0_0
  6
CONTINUOUS
 62
    7
 10
78.428924499999994
 20
215.97456350000002
 40
3
 50
180.00000900000003
 51
269.99999700000001
  0
LINE
  8
_0-0_0
  6
CONTINUOUS
 62
    7
 10
75.428924499999994
 20
229.5745695
 11
75.428924499999994
 21
215.97456350000002
  0
ARC
  8
_0-0_0
  6
CONTINUOUS
 62
    7
 10
78.428924499999994
 20
229.5745695
 40
3
 50
90.000003000000007
 51
180.00000900000001
  0
LINE
  8
_0-0_0
  6
CONTINUOUS
 62
    7
 10
93.428924499999994
 20
232.5745695
 11
78.428924499999994
 21
232.5745695
  0
ARC
  8
_0-0_0
  6
CONTINUOUS
 62
    7
 10
93.428924499999994
 20
229.5745695
 40
3
 50
0
 51
90.000003000000007
  0
LINE
  8
_0-0_0
  6
CONTINUOUS
 62
    7
 10
96.428924499999994
 20
215.97456350000002
 11
96.428924499999994
 21
229.5745695
  0
ARC
  8
_0-0_0
  6
CONTINUOUS
 62
    7
 10
93.428924499999994
 20
215.97456350000002
 40
3
 50
269.99999700000001
 51
0.0000099999999886
  0
LINE
  8
_0-0_0
  6
CONTINUOUS
 62
    7
 10
150.42892449999999
 20
233.5745695
 11
150.2289275
 21
233.5745695
  0
ARC
  8
_0-0_0
  6
CONTINUOUS
 62
    7
 10
152.42892449999999
 20
232.0745695
 40
2
 50
180.00000900000003
 51
0.0000000000000254
  0
LINE
  8
_0-0_0
  6
CONTINUOUS
 62
    7
 10
150.42892449999999
 20
233.5745695
 11
150.42892449999999
 21
232.0745695
  0
LINE
  8
_0-0_0
  6
CONTINUOUS
 62
    7
 10
75.628936500000009
 20
233.5745695
 11
75.428924499999994
 21
233.5745695
  0
LINE
  8
_0-0_0
  6
CONTINUOUS
 62
    7
 10
75.428924499999994
 20
233.5745695
 11
75.428924499999994
 21
232.0745695
  0
ARC
  8
_0-0_0
  6
CONTINUOUS
 62
    7
 10
73.428924499999994
 20
232.0745695
 40
2
 50
180.00000900000003
 51
0.0000000000000254
  0
LINE
  8
_0-0_0
  6
CONTINUOUS
 62
    7
 10
57.928924499999994
 20
234.0745695
 11
57.928924499999994
 21
233.5745695
  0
LINE
  8
_0-0_0
  6
CONTINUOUS
 62
    7
 10
71.428924499999994
 20
231.1580505
 11
71.428924499999994
 21
231.8745725
  0
LINE
  8
_0-0_0
  6
CONTINUOUS
 62
    7
 10
71.428924499999994
 20
231.1580505
 11
71.428924499999994
 21
231.15194650000001
  0
LINE
  8
_0-0_0
  6
CONTINUOUS
 62
    7
 10
71.428924499999994
 20
229.9434205
 11
71.428924499999994
 21
229.82957450000001
  0
LINE
  8
_0-0_0
  6
CONTINUOUS
 62
    7
 10
59.428924499999994
 20
231.1745755
 11
59.428924499999994
 21
229.1745755
  0
LINE
  8
_0-0_0
  6
CONTINUOUS
 62
    7
 10
71.428924499999994
 20
231.1745755
 11
59.428924499999994
 21
231.1745755
  0
LINE
  8
_0-0_0
  6
CONTINUOUS
 62
    7
 10
59.428924499999994
 20
225.6745755
 11
59.428924499999994
 21
228.6745755
  0
LINE
  8
_0-0_0
  6
CONTINUOUS
 62
    7
 10
59.428924499999994
 20
228.6745755
 11
59.428924499999994
 21
229.1745755
  0
LINE
  8
_0-0_0
  6
CONTINUOUS
 62
    7
 10
59.428924499999994
 20
225.6745755
 11
59.428924499999994
 21
225.1745755
  0
ARC
  8
_0-0_0
  6
CONTINUOUS
 62
    7
 10
65.428939500000013
 20
225.87455750000001
 40
0.500016
 50
0.001164
 51
179.99560600000004
  0
LINE
  8
_0-0_0
  6
CONTINUOUS
 62
    7
 10
64.928924499999994
 20
225.8745725
 11
64.928924499999994
 21
213.8745725
  0
ARC
  8
_0-0_0
  6
CONTINUOUS
 62
    7
 10
65.428939500000013
 20
213.87458749999999
 40
0.500016
 50
180.00117
 51
359.995611
  0
LINE
  8
_0-0_0
  6
CONTINUOUS
 62
    7
 10
65.928924499999994
 20
225.8745725
 11
65.928924499999994
 21
213.8745725
  0
ARC
  8
_0-0_0
  6
CONTINUOUS
 62
    7
 10
63.928939500000013
 20
225.87455750000001
 40
0.500016
 50
0.001164
 51
179.99560600000004
  0
LINE
  8
_0-0_0
  6
CONTINUOUS
 62
    7
 10
63.428924499999994
 20
225.8745725
 11
63.428924499999994
 21
213.8745725
  0
ARC
  8
_0-0_0
  6
CONTINUOUS
 62
    7
 10
63.928939500000013
 20
213.87458749999999
 40
0.500016
 50
180.00117
 51
359.995611
  0
LINE
  8
_0-0_0
  6
CONTINUOUS
 62
    7
 10
64.428924499999994
 20
225.8745725
 11
64.428924499999994
 21
213.8745725
  0
ARC
  8
_0-0_0
  6
CONTINUOUS
 62
    7
 10
62.428939500000013
 20
225.87455750000001
 40
0.500016
 50
0.001164
 51
179.99560600000004
  0
LINE
  8
_0-0_0
  6
CONTINUOUS
 62
    7
 10
61.928924499999994
 20
225.8745725
 11
61.928924499999994
 21
213.8745725
  0
ARC
  8
_0-0_0
  6
CONTINUOUS
 62
    7
 10
62.428939500000013
 20
213.87458749999999
 40
0.500016
 50
180.00117
 51
359.995611
  0
LINE
  8
_0-0_0
  6
CONTINUOUS
 62
    7
 10
62.928924499999994
 20
225.8745725
 11
62.928924499999994
 21
213.8745725
  0
ARC
  8
_0-0_0
  6
CONTINUOUS
 62
    7
 10
60.928939500000013
 20
225.87455750000001
 40
0.500016
 50
0.001164
 51
179.99560600000004
  0
LINE
  8
_0-0_0
  6
CONTINUOUS
 62
    7
 10
60.428924499999994
 20
225.8745725
 11
60.428924499999994
 21
213.8745725
  0
ARC
  8
_0-0_0
  6
CONTINUOUS
 62
    7
 10
60.928939500000013
 20
213.87458749999999
 40
0.500016
 50
180.00117
 51
359.995611
  0
LINE
  8
_0-0_0
  6
CONTINUOUS
 62
    7
 10
61.428924499999994
 20
225.8745725
 11
61.428924499999994
 21
213.8745725
  0
LINE
  8
_0-0_0
  6
CONTINUOUS
 62
    7
 10
71.428924499999994
 20
209.5745695
 11
54.753479499999997
 21
209.5745695
  0
LINE
  8
_0-0_0
  6
CONTINUOUS
 62
    7
 10
81.978927499999998
 20
211.55154450000001
 11
81.978927499999998
 21
211.5745695
  0
LINE
  8
_0-0_0
  6
CONTINUOUS
 62
    7
 10
150.87892150000002
 20
211.55154450000001
 11
150.87892150000002
 21
211.5745695
  0
LINE
  8
_0-0_0
  6
CONTINUOUS
 62
    7
 10
57.928924499999994
 20
234.0745695
 11
57.928924499999994
 21
234.5745695
  0
LINE
  8
_0-0_0
  6
CONTINUOUS
 62
    7
 10
154.42892449999999
 20
234.5745695
 11
57.928924499999994
 21
234.5745695
  0
LINE
  8
_0-0_0
  6
CONTINUOUS
 62
    7
 10
57.928924499999994
 20
234.5745695
 11
57.928924499999994
 21
235.5745695
  0
LINE
  8
_0-0_0
  6
CONTINUOUS
 62
    7
 10
154.42906150000002
 20
235.57463050000001
 11
154.42906150000002
 21
235.0746455
  0
LINE
  8
_0-0_0
  6
CONTINUOUS
 62
    7
 10
154.42906150000002
 20
235.0746455
 11
154.42906150000002
 21
233.5746455
  0
ARC
  8
_0-0_0
  6
CONTINUOUS
 62
    7
 10
144.92892449999999
 20
225.1745755
 40
4.5
 50
269.99999700000001
 51
90.000002999999992
  0
LINE
  8
_0-0_0
  6
CONTINUOUS
 62
    7
 10
144.92892449999999
 20
220.6745755
 11
139.92892449999999
 21
220.6745755
  0
ARC
  8
_0-0_0
  6
CONTINUOUS
 62
    7
 10
139.92892449999999
 20
225.1745755
 40
4.5
 50
90.000003000000007
 51
269.99999700000006
  0
LINE
  8
_0-0_0
  6
CONTINUOUS
 62
    7
 10
139.92892449999999
 20
229.6745755
 11
144.92892449999999
 21
229.6745755
  0
ARC
  8
_0-0_0
  6
CONTINUOUS
 62
    7
 10
88.928924499999994
 20
225.1745755
 40
4.5
 50
269.99999700000001
 51
90.000002999999992
  0
LINE
  8
_0-0_0
  6
CONTINUOUS
 62
    7
 10
88.928924499999994
 20
220.6745755
 11
83.928924499999994
 21
220.6745755
  0
ARC
  8
_0-0_0
  6
CONTINUOUS
 62
    7
 10
83.928924499999994
 20
225.1745755
 40
4.5
 50
90.000003000000007
 51
269.99999700000006
  0
LINE
  8
_0-0_0
  6
CONTINUOUS
 62
    7
 10
83.928924499999994
 20
229.6745755
 11
88.928924499999994
 21
229.6745755
  0
LINE
  8
_0-0_0
  6
CONTINUOUS
 62
    7
 10
71.428924499999994
 20
231.8745725
 11
71.428924499999994
 21
233.5745695
  0
LINE
  8
_0-0_0
  6
CONTINUOUS
 62
    7
 10
71.428924499999994
 20
233.5745695
 11
57.928924499999994
 21
233.5745695
  0
LINE
  8
_0-0_0
  6
CONTINUOUS
 62
    7
 10
57.928924499999994
 20
231.8745725
 11
57.928924499999994
 21
233.5745695
  0
LINE
  8
_0-0_0
  6
CONTINUOUS
 62
    7
 10
59.428924499999994
 20
231.1745755
 11
54.753479499999997
 21
231.1745755
  0
LINE
  8
_0-0_0
  6
CONTINUOUS
 62
    7
 10
59.428924499999994
 20
225.6745755
 11
54.753479499999997
 21
225.6745755
  0
LINE
  8
_0-0_0
  6
CONTINUOUS
 62
    7
 10
54.121032500000013
 20
209.6772005
 11
54.240539500000011
 21
209.64158649999999
  0
LINE
  8
_0-0_0
  6
CONTINUOUS
 62
    7
 10
54.240539500000011
 20
209.64158649999999
 11
54.36209150000002
 21
209.6137085
  0
LINE
  8
_0-0_0
  6
CONTINUOUS
 62
    7
 10
54.36209150000002
 20
209.6137085
 11
54.485214500000012
 21
209.59367349999999
  0
LINE
  8
_0-0_0
  6
CONTINUOUS
 62
    7
 10
54.485214500000012
 20
209.59367349999999
 11
54.609436500000015
 21
209.5815585
  0
LINE
  8
_0-0_0
  6
CONTINUOUS
 62
    7
 10
54.609436500000015
 20
209.5815585
 11
54.734252499999997
 21
209.57742250000001
  0
LINE
  8
_0-0_0
  6
CONTINUOUS
 62
    7
 10
54.734252499999997
 20
209.57742250000001
 11
54.753479499999997
 21
209.5774845
  0
ARC
  8
_0-0_0
  6
CONTINUOUS
 62
    7
 10
54.753479499999997
 20
211.5745695
 40
2
 50
251.56498899999997
 51
269.99999700000001
  0
LINE
  8
_0-0_0
  6
CONTINUOUS
 62
    7
 10
57.928924499999994
 20
231.8745725
 11
71.428924499999994
 21
231.8745725
  0
CIRCLE
  8
_0-0_0
  6
CONTINUOUS
 62
    7
 10
152.42892449999999
 20
232.0745695
 40
1.4750000000000001
  0
CIRCLE
  8
_0-0_0
  6
CONTINUOUS
 62
    7
 10
73.428924499999994
 20
232.0745695
 40
1.4750000000000001
  0
ARC
  8
_0-0_0
  6
CONTINUOUS
 62
    7
 10
54.753479499999997
 20
229.1745755
 40
2
 50
90.000003000000007
 51
108.434997
  0
LINE
  8
_0-0_0
  6
CONTINUOUS
 62
    7
 10
49.954589499999997
 20
225.6745755
 11
49.261230500000011
 21
225.6745755
  0
LINE
  8
_0-0_0
  6
CONTINUOUS
 62
    7
 10
49.954589499999997
 20
225.6745755
 11
54.279144500000001
 21
225.6745755
  0
LINE
  8
_0-0_0
  6
CONTINUOUS
 62
    7
 10
54.753479499999997
 20
225.6745755
 11
54.279144500000001
 21
225.6745755
  0
LINE
  8
_0-0_0
  6
CONTINUOUS
 62
    7
 10
49.796478500000006
 20
211.1187285
 11
54.121032500000013
 21
209.6772005
  0
LINE
  8
_0-0_0
  6
CONTINUOUS
 62
    7
 10
148.9789275
 20
225.1745755
 11
146.66952550000002
 21
221.1745755
  0
LINE
  8
_0-0_0
  6
CONTINUOUS
 62
    7
 10
138.18832449999999
 20
221.1745755
 11
146.66952550000002
 21
221.1745755
  0
LINE
  8
_0-0_0
  6
CONTINUOUS
 62
    7
 10
138.18832449999999
 20
221.1745755
 11
135.87892150000002
 21
225.1745755
  0
LINE
  8
_0-0_0
  6
CONTINUOUS
 62
    7
 10
135.87892150000002
 20
225.1745755
 11
138.18832449999999
 21
229.1745755
  0
LINE
  8
_0-0_0
  6
CONTINUOUS
 62
    7
 10
146.66952550000002
 20
229.1745755
 11
138.18832449999999
 21
229.1745755
  0
LINE
  8
_0-0_0
  6
CONTINUOUS
 62
    7
 10
146.66952550000002
 20
229.1745755
 11
148.9789275
 21
225.1745755
  0
LINE
  8
_0-0_0
  6
CONTINUOUS
 62
    7
 10
82.188324499999993
 20
229.1745755
 11
79.878936500000009
 21
225.1745755
  0
LINE
  8
_0-0_0
  6
CONTINUOUS
 62
    7
 10
90.66952550000002
 20
229.1745755
 11
82.188324499999993
 21
229.1745755
  0
LINE
  8
_0-0_0
  6
CONTINUOUS
 62
    7
 10
92.978927499999998
 20
225.1745755
 11
90.66952550000002
 21
229.1745755
  0
LINE
  8
_0-0_0
  6
CONTINUOUS
 62
    7
 10
90.66952550000002
 20
221.1745755
 11
92.978927499999998
 21
225.1745755
  0
LINE
  8
_0-0_0
  6
CONTINUOUS
 62
    7
 10
82.188324499999993
 20
221.1745755
 11
90.66952550000002
 21
221.1745755
  0
LINE
  8
_0-0_0
  6
CONTINUOUS
 62
    7
 10
79.878936500000009
 20
225.1745755
 11
82.188324499999993
 21
221.1745755
  0
LINE
  8
_0-0_0
  6
CONTINUOUS
 62
    7
 10
53.678924499999994
 20
230.92456050000001
 11
54.121032500000013
 21
231.07192950000001
  0
LINE
  8
_0-0_0
  6
CONTINUOUS
 62
    7
 10
48.428932500000002
 20
226.42460650000001
 11
48.428932500000002
 21
225.30358849999999
  0
LINE
  8
_0-0_0
  6
CONTINUOUS
 62
    7
 10
48.428932500000002
 20
224.38226349999999
 11
48.428932500000002
 21
225.30358849999999
  0
LINE
  8
_0-0_0
  6
CONTINUOUS
 62
    7
 10
48.728935500000006
 20
222.5865785
 11
48.670135500000015
 21
222.8334045
  0
LINE
  8
_0-0_0
  6
CONTINUOUS
 62
    7
 10
48.670135500000015
 20
222.8334045
 11
48.62036950000001
 21
223.02574150000001
  0
LINE
  8
_0-0_0
  6
CONTINUOUS
 62
    7
 10
48.62036950000001
 20
223.02574150000001
 11
48.549240499999996
 21
223.29153450000001
  0
LINE
  8
_0-0_0
  6
CONTINUOUS
 62
    7
 10
48.549240499999996
 20
223.29153450000001
 11
48.516281499999991
 21
223.41824349999999
  0
LINE
  8
_0-0_0
  6
CONTINUOUS
 62
    7
 10
48.516281499999991
 20
223.41824349999999
 11
48.491020499999991
 21
223.52166750000001
  0
LINE
  8
_0-0_0
  6
CONTINUOUS
 62
    7
 10
48.491020499999991
 20
223.52166750000001
 11
48.468994500000008
 21
223.6216125
  0
LINE
  8
_0-0_0
  6
CONTINUOUS
 62
    7
 10
48.468994500000008
 20
223.6216125
 11
48.447616500000009
 21
223.7393185
  0
LINE
  8
_0-0_0
  6
CONTINUOUS
 62
    7
 10
48.447616500000009
 20
223.7393185
 11
48.439041500000002
 21
223.80145250000001
  0
LINE
  8
_0-0_0
  6
CONTINUOUS
 62
    7
 10
48.439041500000002
 20
223.80145250000001
 11
48.432960500000007
 21
223.86206050000001
  0
LINE
  8
_0-0_0
  6
CONTINUOUS
 62
    7
 10
48.432960500000007
 20
223.86206050000001
 11
48.429954500000008
 21
223.91128549999999
  0
LINE
  8
_0-0_0
  6
CONTINUOUS
 62
    7
 10
48.429954500000008
 20
223.91128549999999
 11
48.428932500000002
 21
223.9595185
  0
LINE
  8
_0-0_0
  6
CONTINUOUS
 62
    7
 10
48.728935500000006
 20
218.16255150000001
 11
48.812393500000013
 21
218.54122950000001
  0
LINE
  8
_0-0_0
  6
CONTINUOUS
 62
    7
 10
48.812393500000013
 20
218.54122950000001
 11
48.8524855
 21
218.73275749999999
  0
LINE
  8
_0-0_0
  6
CONTINUOUS
 62
    7
 10
48.8524855
 20
218.73275749999999
 11
48.908569499999999
 21
219.02278150000001
  0
LINE
  8
_0-0_0
  6
CONTINUOUS
 62
    7
 10
48.908569499999999
 20
219.02278150000001
 11
48.946167500000001
 21
219.24237049999999
  0
LINE
  8
_0-0_0
  6
CONTINUOUS
 62
    7
 10
48.946167500000001
 20
219.24237049999999
 11
48.978813500000001
 21
219.46362250000001
  0
LINE
  8
_0-0_0
  6
CONTINUOUS
 62
    7
 10
48.978813500000001
 20
219.46362250000001
 11
49.00597350000001
 21
219.6904145
  0
LINE
  8
_0-0_0
  6
CONTINUOUS
 62
    7
 10
49.00597350000001
 20
219.6904145
 11
49.026039500000024
 21
219.91781650000001
  0
LINE
  8
_0-0_0
  6
CONTINUOUS
 62
    7
 10
49.026039500000024
 20
219.91781650000001
 11
49.033195500000005
 21
220.03153950000001
  0
LINE
  8
_0-0_0
  6
CONTINUOUS
 62
    7
 10
49.033195500000005
 20
220.03153950000001
 11
49.038353499999999
 21
220.1452175
  0
LINE
  8
_0-0_0
  6
CONTINUOUS
 62
    7
 10
49.038353499999999
 20
220.1452175
 11
49.042068500000028
 21
220.2966615
  0
LINE
  8
_0-0_0
  6
CONTINUOUS
 62
    7
 10
49.042068500000028
 20
220.2966615
 11
49.042129499999987
 21
220.44790650000002
  0
LINE
  8
_0-0_0
  6
CONTINUOUS
 62
    7
 10
49.042129499999987
 20
220.44790650000002
 11
49.038543500000003
 21
220.59896850000001
  0
LINE
  8
_0-0_0
  6
CONTINUOUS
 62
    7
 10
49.038543500000003
 20
220.59896850000001
 11
49.029045499999995
 21
220.78750550000001
  0
LINE
  8
_0-0_0
  6
CONTINUOUS
 62
    7
 10
49.029045499999995
 20
220.78750550000001
 11
49.014175500000022
 21
220.97576850000002
  0
LINE
  8
_0-0_0
  6
CONTINUOUS
 62
    7
 10
49.014175500000022
 20
220.97576850000002
 11
48.994255500000008
 21
221.16369650000001
  0
LINE
  8
_0-0_0
  6
CONTINUOUS
 62
    7
 10
48.994255500000008
 20
221.16369650000001
 11
48.977867500000002
 21
221.29257150000001
  0
LINE
  8
_0-0_0
  6
CONTINUOUS
 62
    7
 10
48.977867500000002
 20
221.29257150000001
 11
48.959457499999985
 21
221.4212345
  0
LINE
  8
_0-0_0
  6
CONTINUOUS
 62
    7
 10
48.959457499999985
 20
221.4212345
 11
48.935295499999995
 21
221.57316550000002
  0
LINE
  8
_0-0_0
  6
CONTINUOUS
 62
    7
 10
48.935295499999995
 20
221.57316550000002
 11
48.908897500000023
 21
221.7245025
  0
LINE
  8
_0-0_0
  6
CONTINUOUS
 62
    7
 10
48.908897500000023
 20
221.7245025
 11
48.852729500000009
 21
222.01512149999999
  0
LINE
  8
_0-0_0
  6
CONTINUOUS
 62
    7
 10
48.852729500000009
 20
222.01512149999999
 11
48.812568499999998
 21
222.2070765
  0
LINE
  8
_0-0_0
  6
CONTINUOUS
 62
    7
 10
48.812568499999998
 20
222.2070765
 11
48.728935500000006
 21
222.5865785
  0
LINE
  8
_0-0_0
  6
CONTINUOUS
 62
    7
 10
48.728927499999998
 20
218.16255150000001
 11
48.670127500000007
 21
217.91571049999999
  0
LINE
  8
_0-0_0
  6
CONTINUOUS
 62
    7
 10
48.670127500000007
 20
217.91571049999999
 11
48.62036950000001
 21
217.72337350000001
  0
LINE
  8
_0-0_0
  6
CONTINUOUS
 62
    7
 10
48.62036950000001
 20
217.72337350000001
 11
48.549247500000007
 21
217.4576265
  0
LINE
  8
_0-0_0
  6
CONTINUOUS
 62
    7
 10
48.549247500000007
 20
217.4576265
 11
48.516288500000002
 21
217.33093249999999
  0
LINE
  8
_0-0_0
  6
CONTINUOUS
 62
    7
 10
48.516288500000002
 20
217.33093249999999
 11
48.491027500000001
 21
217.22749350000001
  0
LINE
  8
_0-0_0
  6
CONTINUOUS
 62
    7
 10
48.491027500000001
 20
217.22749350000001
 11
48.468994500000008
 21
217.12751750000001
  0
LINE
  8
_0-0_0
  6
CONTINUOUS
 62
    7
 10
48.468994500000008
 20
217.12751750000001
 11
48.447609499999999
 21
217.0098265
  0
LINE
  8
_0-0_0
  6
CONTINUOUS
 62
    7
 10
48.447609499999999
 20
217.0098265
 11
48.439041500000002
 21
216.94769250000002
  0
LINE
  8
_0-0_0
  6
CONTINUOUS
 62
    7
 10
48.439041500000002
 20
216.94769250000002
 11
48.432960500000007
 21
216.88708450000001
  0
LINE
  8
_0-0_0
  6
CONTINUOUS
 62
    7
 10
48.432960500000007
 20
216.88708450000001
 11
48.429954500000008
 21
216.83784449999999
  0
LINE
  8
_0-0_0
  6
CONTINUOUS
 62
    7
 10
48.429954500000008
 20
216.83784449999999
 11
48.428932500000002
 21
216.7896265
  0
LINE
  8
_0-0_0
  6
CONTINUOUS
 62
    7
 10
48.428932500000002
 20
213.0160975
 11
48.428932500000002
 21
216.3668825
  0
ARC
  8
_0-0_0
  6
CONTINUOUS
 62
    7
 10
50.428924499999994
 20
213.0160975
 40
2
 50
180.00000900000003
 51
251.56498900000003
  0
LINE
  8
_0-0_0
  6
CONTINUOUS
 62
    7
 10
152.87892150000002
 20
231.8745725
 11
153.5289305
 21
231.8745725
  0
ARC
  8
_0-0_0
  6
CONTINUOUS
 62
    7
 10
152.87892150000002
 20
231.6245725
 40
0.25
 50
90.000003000000007
 51
180.00000900000001
  0
LINE
  8
_0-0_0
  6
CONTINUOUS
 62
    7
 10
152.62892150000002
 20
231.6245725
 11
152.62892150000002
 21
230.97457850000001
  0
LINE
  8
_0-0_0
  6
CONTINUOUS
 62
    7
 10
152.2289275
 20
230.97457850000001
 11
152.62892150000002
 21
230.97457850000001
  0
LINE
  8
_0-0_0
  6
CONTINUOUS
 62
    7
 10
152.2289275
 20
230.97457850000001
 11
152.2289275
 21
231.6245725
  0
ARC
  8
_0-0_0
  6
CONTINUOUS
 62
    7
 10
151.9789275
 20
231.6245725
 40
0.25
 50
0
 51
90.000003000000007
  0
LINE
  8
_0-0_0
  6
CONTINUOUS
 62
    7
 10
151.32893350000001
 20
231.8745725
 11
151.9789275
 21
231.8745725
  0
LINE
  8
_0-0_0
  6
CONTINUOUS
 62
    7
 10
151.32893350000001
 20
231.8745725
 11
151.32893350000001
 21
232.27456649999999
  0
LINE
  8
_0-0_0
  6
CONTINUOUS
 62
    7
 10
151.9789275
 20
232.27456649999999
 11
151.32893350000001
 21
232.27456649999999
  0
ARC
  8
_0-0_0
  6
CONTINUOUS
 62
    7
 10
151.9789275
 20
232.52456649999999
 40
0.25
 50
269.99999700000001
 51
0
  0
LINE
  8
_0-0_0
  6
CONTINUOUS
 62
    7
 10
152.2289275
 20
232.52456649999999
 11
152.2289275
 21
233.1745755
  0
LINE
  8
_0-0_0
  6
CONTINUOUS
 62
    7
 10
152.62892150000002
 20
233.1745755
 11
152.2289275
 21
233.1745755
  0
LINE
  8
_0-0_0
  6
CONTINUOUS
 62
    7
 10
152.62892150000002
 20
233.1745755
 11
152.62892150000002
 21
232.52456649999999
  0
ARC
  8
_0-0_0
  6
CONTINUOUS
 62
    7
 10
152.87892150000002
 20
232.52456649999999
 40
0.25
 50
180.00000900000003
 51
269.99999700000001
  0
LINE
  8
_0-0_0
  6
CONTINUOUS
 62
    7
 10
153.5289305
 20
232.27456649999999
 11
152.87892150000002
 21
232.27456649999999
  0
LINE
  8
_0-0_0
  6
CONTINUOUS
 62
    7
 10
153.5289305
 20
232.27456649999999
 11
153.5289305
 21
231.8745725
  0
LINE
  8
_0-0_0
  6
CONTINUOUS
 62
    7
 10
73.878936500000009
 20
231.8745725
 11
74.528930500000001
 21
231.8745725
  0
ARC
  8
_0-0_0
  6
CONTINUOUS
 62
    7
 10
73.878936500000009
 20
231.6245725
 40
0.25
 50
90.000003000000007
 51
180.00000900000001
  0
LINE
  8
_0-0_0
  6
CONTINUOUS
 62
    7
 10
73.628936500000009
 20
231.6245725
 11
73.628936500000009
 21
230.97457850000001
  0
LINE
  8
_0-0_0
  6
CONTINUOUS
 62
    7
 10
73.228927499999998
 20
230.97457850000001
 11
73.628936500000009
 21
230.97457850000001
  0
LINE
  8
_0-0_0
  6
CONTINUOUS
 62
    7
 10
73.228927499999998
 20
230.97457850000001
 11
73.228927499999998
 21
231.6245725
  0
ARC
  8
_0-0_0
  6
CONTINUOUS
 62
    7
 10
72.978927499999998
 20
231.6245725
 40
0.25
 50
0
 51
90.000003000000007
  0
LINE
  8
_0-0_0
  6
CONTINUOUS
 62
    7
 10
72.328933500000005
 20
231.8745725
 11
72.978927499999998
 21
231.8745725
  0
LINE
  8
_0-0_0
  6
CONTINUOUS
 62
    7
 10
72.328933500000005
 20
231.8745725
 11
72.328933500000005
 21
232.27456649999999
  0
LINE
  8
_0-0_0
  6
CONTINUOUS
 62
    7
 10
72.978927499999998
 20
232.27456649999999
 11
72.328933500000005
 21
232.27456649999999
  0
ARC
  8
_0-0_0
  6
CONTINUOUS
 62
    7
 10
72.978927499999998
 20
232.52456649999999
 40
0.25
 50
269.99999700000001
 51
0
  0
LINE
  8
_0-0_0
  6
CONTINUOUS
 62
    7
 10
73.228927499999998
 20
232.52456649999999
 11
73.228927499999998
 21
233.1745755
  0
LINE
  8
_0-0_0
  6
CONTINUOUS
 62
    7
 10
73.628936500000009
 20
233.1745755
 11
73.228927499999998
 21
233.1745755
  0
LINE
  8
_0-0_0
  6
CONTINUOUS
 62
    7
 10
73.628936500000009
 20
233.1745755
 11
73.628936500000009
 21
232.52456649999999
  0
ARC
  8
_0-0_0
  6
CONTINUOUS
 62
    7
 10
73.878936500000009
 20
232.52456649999999
 40
0.25
 50
180.00000900000003
 51
269.99999700000001
  0
LINE
  8
_0-0_0
  6
CONTINUOUS
 62
    7
 10
74.528930500000001
 20
232.27456649999999
 11
73.878936500000009
 21
232.27456649999999
  0
LINE
  8
_0-0_0
  6
CONTINUOUS
 62
    7
 10
74.528930500000001
 20
232.27456649999999
 11
74.528930500000001
 21
231.8745725
  0
LINE
  8
_0-0_0
  6
CONTINUOUS
 62
    7
 10
33.428932500000002
 20
229.90000950000001
 11
33.428932500000002
 21
229.75328049999999
  0
LINE
  8
_0-0_0
  6
CONTINUOUS
 62
    7
 10
33.428932500000002
 20
230.09054549999999
 11
33.428932500000002
 21
229.90000950000001
  0
LINE
  8
_0-0_0
  6
CONTINUOUS
 62
    7
 10
33.428932500000002
 20
230.26556350000001
 11
33.428932500000002
 21
230.09054549999999
  0
LINE
  8
_0-0_0
  6
CONTINUOUS
 62
    7
 10
33.428932500000002
 20
230.4231565
 11
33.428932500000002
 21
230.26556350000001
  0
LINE
  8
_0-0_0
  6
CONTINUOUS
 62
    7
 10
33.428932500000002
 20
230.56158450000001
 11
33.428932500000002
 21
230.4231565
  0
LINE
  8
_0-0_0
  6
CONTINUOUS
 62
    7
 10
33.428932500000002
 20
230.67933650000001
 11
33.428932500000002
 21
230.56158450000001
  0
LINE
  8
_0-0_0
  6
CONTINUOUS
 62
    7
 10
33.428932500000002
 20
230.77513150000001
 11
33.428932500000002
 21
230.67933650000001
  0
LINE
  8
_0-0_0
  6
CONTINUOUS
 62
    7
 10
33.428932500000002
 20
230.84790050000001
 11
33.428932500000002
 21
230.77513150000001
  0
LINE
  8
_0-0_0
  6
CONTINUOUS
 62
    7
 10
33.428932500000002
 20
230.89686549999999
 11
33.428932500000002
 21
230.84790050000001
  0
LINE
  8
_0-0_0
  6
CONTINUOUS
 62
    7
 10
33.428932500000002
 20
230.9245755
 11
33.428932500000002
 21
230.89686549999999
  0
LINE
  8
_0-0_0
  6
CONTINUOUS
 62
    7
 10
33.428932500000002
 20
230.9245755
 11
33.428932500000002
 21
230.9214935
  0
LINE
  8
_0-0_0
  6
CONTINUOUS
 62
    7
 10
33.428932500000002
 20
226.42765750000001
 11
33.428932500000002
 21
226.4245755
  0
LINE
  8
_0-0_0
  6
CONTINUOUS
 62
    7
 10
33.428932500000002
 20
226.4522705
 11
33.428932500000002
 21
226.4245755
  0
LINE
  8
_0-0_0
  6
CONTINUOUS
 62
    7
 10
33.428932500000002
 20
226.50123550000001
 11
33.428932500000002
 21
226.4522705
  0
LINE
  8
_0-0_0
  6
CONTINUOUS
 62
    7
 10
33.428932500000002
 20
226.57402049999999
 11
33.428932500000002
 21
226.50123550000001
  0
LINE
  8
_0-0_0
  6
CONTINUOUS
 62
    7
 10
33.428932500000002
 20
226.66979950000001
 11
33.428932500000002
 21
226.57402049999999
  0
LINE
  8
_0-0_0
  6
CONTINUOUS
 62
    7
 10
33.428932500000002
 20
226.70001250000001
 11
33.428932500000002
 21
226.66979950000001
  0
LINE
  8
_0-0_0
  6
CONTINUOUS
 62
    7
 10
33.428932500000002
 20
226.78756749999999
 11
33.428932500000002
 21
226.70001250000001
  0
LINE
  8
_0-0_0
  6
CONTINUOUS
 62
    7
 10
33.428932500000002
 20
226.9259945
 11
33.428932500000002
 21
226.78756749999999
  0
LINE
  8
_0-0_0
  6
CONTINUOUS
 62
    7
 10
33.428932500000002
 20
227.08358749999999
 11
33.428932500000002
 21
226.9259945
  0
LINE
  8
_0-0_0
  6
CONTINUOUS
 62
    7
 10
33.428932500000002
 20
227.25860550000002
 11
33.428932500000002
 21
227.08358749999999
  0
LINE
  8
_0-0_0
  6
CONTINUOUS
 62
    7
 10
33.428932500000002
 20
227.4491275
 11
33.428932500000002
 21
227.25860550000002
  0
LINE
  8
_0-0_0
  6
CONTINUOUS
 62
    7
 10
33.428932500000002
 20
227.65309150000002
 11
33.428932500000002
 21
227.4491275
  0
LINE
  8
_0-0_0
  6
CONTINUOUS
 62
    7
 10
33.428932500000002
 20
227.86824050000001
 11
33.428932500000002
 21
227.65309150000002
  0
LINE
  8
_0-0_0
  6
CONTINUOUS
 62
    7
 10
33.428932500000002
 20
228.09222450000001
 11
33.428932500000002
 21
227.86824050000001
  0
LINE
  8
_0-0_0
  6
CONTINUOUS
 62
    7
 10
33.428932500000002
 20
228.32260149999999
 11
33.428932500000002
 21
228.09222450000001
  0
LINE
  8
_0-0_0
  6
CONTINUOUS
 62
    7
 10
33.428932500000002
 20
228.55682350000001
 11
33.428932500000002
 21
228.32260149999999
  0
LINE
  8
_0-0_0
  6
CONTINUOUS
 62
    7
 10
33.428932500000002
 20
228.7923275
 11
33.428932500000002
 21
228.55682350000001
  0
LINE
  8
_0-0_0
  6
CONTINUOUS
 62
    7
 10
33.428932500000002
 20
229.02655050000001
 11
33.428932500000002
 21
228.7923275
  0
LINE
  8
_0-0_0
  6
CONTINUOUS
 62
    7
 10
33.428932500000002
 20
229.2569125
 11
33.428932500000002
 21
229.02655050000001
  0
LINE
  8
_0-0_0
  6
CONTINUOUS
 62
    7
 10
33.428932500000002
 20
229.4808955
 11
33.428932500000002
 21
229.2569125
  0
LINE
  8
_0-0_0
  6
CONTINUOUS
 62
    7
 10
33.428932500000002
 20
229.6960445
 11
33.428932500000002
 21
229.4808955
  0
LINE
  8
_0-0_0
  6
CONTINUOUS
 62
    7
 10
33.428932500000002
 20
229.75328049999999
 11
33.428932500000002
 21
229.6960445
  0
LINE
  8
_0-0_0
  6
CONTINUOUS
 62
    7
 10
48.428932500000002
 20
221.93661449999999
 11
48.428932500000002
 21
222.9822695
  0
LINE
  8
_0-0_0
  6
CONTINUOUS
 62
    7
 10
48.428932500000002
 20
224.2668765
 11
48.428932500000002
 21
222.9822695
  0
LINE
  8
_0-0_0
  6
CONTINUOUS
 62
    7
 10
48.428932500000002
 20
224.38226349999999
 11
48.428932500000002
 21
224.2668765
  0
LINE
  8
_0-0_0
  6
CONTINUOUS
 62
    7
 10
48.428932500000002
 20
221.93661449999999
 11
48.428932500000002
 21
218.81251549999999
  0
LINE
  8
_0-0_0
  6
CONTINUOUS
 62
    7
 10
48.428932500000002
 20
216.3668825
 11
48.428932500000002
 21
216.4822695
  0
LINE
  8
_0-0_0
  6
CONTINUOUS
 62
    7
 10
48.428932500000002
 20
217.7668765
 11
48.428932500000002
 21
216.4822695
  0
LINE
  8
_0-0_0
  6
CONTINUOUS
 62
    7
 10
48.428932500000002
 20
217.7668765
 11
48.428932500000002
 21
218.81251549999999
  0
LINE
  8
_0-0_0
  6
CONTINUOUS
 62
    7
 10
33.428932500000002
 20
213.30000250000001
 11
33.428932500000002
 21
213.15327450000001
  0
LINE
  8
_0-0_0
  6
CONTINUOUS
 62
    7
 10
33.428932500000002
 20
213.49053950000001
 11
33.428932500000002
 21
213.30000250000001
  0
LINE
  8
_0-0_0
  6
CONTINUOUS
 62
    7
 10
33.428932500000002
 20
213.66555750000001
 11
33.428932500000002
 21
213.49053950000001
  0
LINE
  8
_0-0_0
  6
CONTINUOUS
 62
    7
 10
33.428932500000002
 20
213.8231505
 11
33.428932500000002
 21
213.66555750000001
  0
LINE
  8
_0-0_0
  6
CONTINUOUS
 62
    7
 10
33.428932500000002
 20
213.9615785
 11
33.428932500000002
 21
213.8231505
  0
LINE
  8
_0-0_0
  6
CONTINUOUS
 62
    7
 10
33.428932500000002
 20
214.0793305
 11
33.428932500000002
 21
213.9615785
  0
LINE
  8
_0-0_0
  6
CONTINUOUS
 62
    7
 10
33.428932500000002
 20
214.17512550000001
 11
33.428932500000002
 21
214.0793305
  0
LINE
  8
_0-0_0
  6
CONTINUOUS
 62
    7
 10
33.428932500000002
 20
214.24790949999999
 11
33.428932500000002
 21
214.17512550000001
  0
LINE
  8
_0-0_0
  6
CONTINUOUS
 62
    7
 10
33.428932500000002
 20
214.2968745
 11
33.428932500000002
 21
214.24790949999999
  0
LINE
  8
_0-0_0
  6
CONTINUOUS
 62
    7
 10
33.428932500000002
 20
214.3245695
 11
33.428932500000002
 21
214.2968745
  0
LINE
  8
_0-0_0
  6
CONTINUOUS
 62
    7
 10
33.428932500000002
 20
214.3245695
 11
33.428932500000002
 21
214.32148749999999
  0
LINE
  8
_0-0_0
  6
CONTINUOUS
 62
    7
 10
33.428932500000002
 20
209.8276515
 11
33.428932500000002
 21
209.8245695
  0
LINE
  8
_0-0_0
  6
CONTINUOUS
 62
    7
 10
33.428932500000002
 20
209.85226449999999
 11
33.428932500000002
 21
209.8245695
  0
LINE
  8
_0-0_0
  6
CONTINUOUS
 62
    7
 10
33.428932500000002
 20
209.90124449999999
 11
33.428932500000002
 21
209.85226449999999
  0
LINE
  8
_0-0_0
  6
CONTINUOUS
 62
    7
 10
33.428932500000002
 20
209.97401450000001
 11
33.428932500000002
 21
209.90124449999999
  0
LINE
  8
_0-0_0
  6
CONTINUOUS
 62
    7
 10
33.428932500000002
 20
210.06980849999999
 11
33.428932500000002
 21
209.97401450000001
  0
LINE
  8
_0-0_0
  6
CONTINUOUS
 62
    7
 10
33.428932500000002
 20
210.10000550000001
 11
33.428932500000002
 21
210.06980849999999
  0
LINE
  8
_0-0_0
  6
CONTINUOUS
 62
    7
 10
33.428932500000002
 20
210.18756049999999
 11
33.428932500000002
 21
210.10000550000001
  0
LINE
  8
_0-0_0
  6
CONTINUOUS
 62
    7
 10
33.428932500000002
 20
210.32598849999999
 11
33.428932500000002
 21
210.18756049999999
  0
LINE
  8
_0-0_0
  6
CONTINUOUS
 62
    7
 10
33.428932500000002
 20
210.48358150000001
 11
33.428932500000002
 21
210.32598849999999
  0
LINE
  8
_0-0_0
  6
CONTINUOUS
 62
    7
 10
33.428932500000002
 20
210.65859950000001
 11
33.428932500000002
 21
210.48358150000001
  0
LINE
  8
_0-0_0
  6
CONTINUOUS
 62
    7
 10
33.428932500000002
 20
210.84913650000001
 11
33.428932500000002
 21
210.65859950000001
  0
LINE
  8
_0-0_0
  6
CONTINUOUS
 62
    7
 10
33.428932500000002
 20
211.05308550000001
 11
33.428932500000002
 21
210.84913650000001
  0
LINE
  8
_0-0_0
  6
CONTINUOUS
 62
    7
 10
33.428932500000002
 20
211.26823450000001
 11
33.428932500000002
 21
211.05308550000001
  0
LINE
  8
_0-0_0
  6
CONTINUOUS
 62
    7
 10
33.428932500000002
 20
211.4922335
 11
33.428932500000002
 21
211.26823450000001
  0
LINE
  8
_0-0_0
  6
CONTINUOUS
 62
    7
 10
33.428932500000002
 20
211.72259550000001
 11
33.428932500000002
 21
211.4922335
  0
LINE
  8
_0-0_0
  6
CONTINUOUS
 62
    7
 10
33.428932500000002
 20
211.9568175
 11
33.428932500000002
 21
211.72259550000001
  0
LINE
  8
_0-0_0
  6
CONTINUOUS
 62
    7
 10
33.428932500000002
 20
212.19232149999999
 11
33.428932500000002
 21
211.9568175
  0
LINE
  8
_0-0_0
  6
CONTINUOUS
 62
    7
 10
33.428932500000002
 20
212.42654450000001
 11
33.428932500000002
 21
212.19232149999999
  0
LINE
  8
_0-0_0
  6
CONTINUOUS
 62
    7
 10
33.428932500000002
 20
212.65692150000001
 11
33.428932500000002
 21
212.42654450000001
  0
LINE
  8
_0-0_0
  6
CONTINUOUS
 62
    7
 10
33.428932500000002
 20
212.88090550000001
 11
33.428932500000002
 21
212.65692150000001
  0
LINE
  8
_0-0_0
  6
CONTINUOUS
 62
    7
 10
33.428932500000002
 20
213.09605350000001
 11
33.428932500000002
 21
212.88090550000001
  0
LINE
  8
_0-0_0
  6
CONTINUOUS
 62
    7
 10
33.428932500000002
 20
213.15327450000001
 11
33.428932500000002
 21
213.09605350000001
  0
LINE
  8
_0-0_0
  6
CONTINUOUS
 62
    7
 10
144.42892449999999
 20
222.9245755
 11
140.42892449999999
 21
222.9245755
  0
ARC
  8
_0-0_0
  6
CONTINUOUS
 62
    7
 10
140.42892449999999
 20
225.1745755
 40
2.25
 50
90.000003000000007
 51
269.99999700000006
  0
LINE
  8
_0-0_0
  6
CONTINUOUS
 62
    7
 10
140.42892449999999
 20
227.4245755
 11
144.42892449999999
 21
227.4245755
  0
ARC
  8
_0-0_0
  6
CONTINUOUS
 62
    7
 10
144.42892449999999
 20
225.1745755
 40
2.25
 50
269.99999700000001
 51
90.000002999999992
  0
ARC
  8
_0-0_0
  6
CONTINUOUS
 62
    7
 10
84.428924499999994
 20
225.1745755
 40
2.25
 50
90.000003000000007
 51
269.99999700000006
  0
LINE
  8
_0-0_0
  6
CONTINUOUS
 62
    7
 10
84.428924499999994
 20
227.4245755
 11
88.428924499999994
 21
227.4245755
  0
ARC
  8
_0-0_0
  6
CONTINUOUS
 62
    7
 10
88.428924499999994
 20
225.1745755
 40
2.25
 50
269.99999700000001
 51
90.000002999999992
  0
LINE
  8
_0-0_0
  6
CONTINUOUS
 62
    7
 10
88.428924499999994
 20
222.9245755
 11
84.428924499999994
 21
222.9245755
  0
LINE
  8
_0-0_0
  6
CONTINUOUS
 62
    7
 10
33.428932500000002
 20
229.90000950000001
 11
33.178932500000002
 21
229.9245755
  0
LINE
  8
_0-0_0
  6
CONTINUOUS
 62
    7
 10
33.428932500000002
 20
229.6960445
 11
33.178932500000002
 21
229.9245755
  0
LINE
  8
_0-0_0
  6
CONTINUOUS
 62
    7
 10
33.428932500000002
 20
230.09054549999999
 11
33.178932500000002
 21
230.14404250000001
  0
LINE
  8
_0-0_0
  6
CONTINUOUS
 62
    7
 10
33.428932500000002
 20
229.90000950000001
 11
33.178932500000002
 21
230.14404250000001
  0
LINE
  8
_0-0_0
  6
CONTINUOUS
 62
    7
 10
33.428932500000002
 20
230.26556350000001
 11
33.178932500000002
 21
230.3473965
  0
LINE
  8
_0-0_0
  6
CONTINUOUS
 62
    7
 10
33.428932500000002
 20
230.09054549999999
 11
33.178932500000002
 21
230.3473965
  0
LINE
  8
_0-0_0
  6
CONTINUOUS
 62
    7
 10
33.428932500000002
 20
230.4231565
 11
33.178932500000002
 21
230.53244050000001
  0
LINE
  8
_0-0_0
  6
CONTINUOUS
 62
    7
 10
33.428932500000002
 20
230.26556350000001
 11
33.178932500000002
 21
230.53244050000001
  0
LINE
  8
_0-0_0
  6
CONTINUOUS
 62
    7
 10
33.428932500000002
 20
230.56158450000001
 11
33.178932500000002
 21
230.6971125
  0
LINE
  8
_0-0_0
  6
CONTINUOUS
 62
    7
 10
33.428932500000002
 20
230.4231565
 11
33.178932500000002
 21
230.6971125
  0
LINE
  8
_0-0_0
  6
CONTINUOUS
 62
    7
 10
33.428932500000002
 20
230.67933650000001
 11
33.178932500000002
 21
230.8396305
  0
LINE
  8
_0-0_0
  6
CONTINUOUS
 62
    7
 10
33.428932500000002
 20
230.56158450000001
 11
33.178932500000002
 21
230.8396305
  0
LINE
  8
_0-0_0
  6
CONTINUOUS
 62
    7
 10
33.428932500000002
 20
230.77513150000001
 11
33.178932500000002
 21
230.95843450000001
  0
LINE
  8
_0-0_0
  6
CONTINUOUS
 62
    7
 10
33.428932500000002
 20
230.67933650000001
 11
33.178932500000002
 21
230.95843450000001
  0
LINE
  8
_0-0_0
  6
CONTINUOUS
 62
    7
 10
33.428932500000002
 20
230.84790050000001
 11
33.178932500000002
 21
231.05221549999999
  0
LINE
  8
_0-0_0
  6
CONTINUOUS
 62
    7
 10
33.428932500000002
 20
230.77513150000001
 11
33.178932500000002
 21
231.05221549999999
  0
LINE
  8
_0-0_0
  6
CONTINUOUS
 62
    7
 10
33.428932500000002
 20
230.89686549999999
 11
33.178932500000002
 21
231.1199335
  0
LINE
  8
_0-0_0
  6
CONTINUOUS
 62
    7
 10
33.428932500000002
 20
230.84790050000001
 11
33.178932500000002
 21
231.1199335
  0
LINE
  8
_0-0_0
  6
CONTINUOUS
 62
    7
 10
33.428932500000002
 20
230.9214935
 11
33.178932500000002
 21
231.16087350000001
  0
LINE
  8
_0-0_0
  6
CONTINUOUS
 62
    7
 10
33.428932500000002
 20
230.89686549999999
 11
33.178932500000002
 21
231.16087350000001
  0
LINE
  8
_0-0_0
  6
CONTINUOUS
 62
    7
 10
33.428932500000002
 20
230.9214935
 11
33.178932500000002
 21
231.1745755
  0
LINE
  8
_0-0_0
  6
CONTINUOUS
 62
    7
 10
33.428932500000002
 20
226.42765750000001
 11
33.178932500000002
 21
226.1745755
  0
LINE
  8
_0-0_0
  6
CONTINUOUS
 62
    7
 10
33.428932500000002
 20
226.4522705
 11
33.178932500000002
 21
226.18826250000001
  0
LINE
  8
_0-0_0
  6
CONTINUOUS
 62
    7
 10
33.428932500000002
 20
226.42765750000001
 11
33.178932500000002
 21
226.18826250000001
  0
LINE
  8
_0-0_0
  6
CONTINUOUS
 62
    7
 10
33.428932500000002
 20
226.50123550000001
 11
33.178932500000002
 21
226.22920250000001
  0
LINE
  8
_0-0_0
  6
CONTINUOUS
 62
    7
 10
33.428932500000002
 20
226.4522705
 11
33.178932500000002
 21
226.22920250000001
  0
LINE
  8
_0-0_0
  6
CONTINUOUS
 62
    7
 10
33.428932500000002
 20
226.57402049999999
 11
33.178932500000002
 21
226.29693549999999
  0
LINE
  8
_0-0_0
  6
CONTINUOUS
 62
    7
 10
33.428932500000002
 20
226.50123550000001
 11
33.178932500000002
 21
226.29693549999999
  0
LINE
  8
_0-0_0
  6
CONTINUOUS
 62
    7
 10
33.428932500000002
 20
226.66979950000001
 11
33.178932500000002
 21
226.39070150000001
  0
LINE
  8
_0-0_0
  6
CONTINUOUS
 62
    7
 10
33.428932500000002
 20
226.57402049999999
 11
33.178932500000002
 21
226.39070150000001
  0
LINE
  8
_0-0_0
  6
CONTINUOUS
 62
    7
 10
33.428932500000002
 20
226.66979950000001
 11
33.298965500000008
 21
226.58595249999999
  0
LINE
  8
_0-0_0
  6
CONTINUOUS
 62
    7
 10
33.428932500000002
 20
226.78756749999999
 11
33.178932500000002
 21
226.50950650000001
  0
LINE
  8
_0-0_0
  6
CONTINUOUS
 62
    7
 10
33.298965500000008
 20
226.58595249999999
 11
33.178932500000002
 21
226.50950650000001
  0
LINE
  8
_0-0_0
  6
CONTINUOUS
 62
    7
 10
33.428932500000002
 20
226.9259945
 11
33.178932500000002
 21
226.65202350000001
  0
LINE
  8
_0-0_0
  6
CONTINUOUS
 62
    7
 10
33.428932500000002
 20
226.78756749999999
 11
33.178932500000002
 21
226.65202350000001
  0
LINE
  8
_0-0_0
  6
CONTINUOUS
 62
    7
 10
33.428932500000002
 20
227.08358749999999
 11
33.178932500000002
 21
226.8167115
  0
LINE
  8
_0-0_0
  6
CONTINUOUS
 62
    7
 10
33.428932500000002
 20
226.9259945
 11
33.178932500000002
 21
226.8167115
  0
LINE
  8
_0-0_0
  6
CONTINUOUS
 62
    7
 10
33.428932500000002
 20
227.25860550000002
 11
33.178932500000002
 21
227.00173950000001
  0
LINE
  8
_0-0_0
  6
CONTINUOUS
 62
    7
 10
33.428932500000002
 20
227.08358749999999
 11
33.178932500000002
 21
227.00173950000001
  0
LINE
  8
_0-0_0
  6
CONTINUOUS
 62
    7
 10
33.428932500000002
 20
227.4491275
 11
33.178932500000002
 21
227.20510849999999
  0
LINE
  8
_0-0_0
  6
CONTINUOUS
 62
    7
 10
33.428932500000002
 20
227.25860550000002
 11
33.178932500000002
 21
227.20510849999999
  0
LINE
  8
_0-0_0
  6
CONTINUOUS
 62
    7
 10
33.428932500000002
 20
227.65309150000002
 11
33.178932500000002
 21
227.4245755
  0
LINE
  8
_0-0_0
  6
CONTINUOUS
 62
    7
 10
33.428932500000002
 20
227.4491275
 11
33.178932500000002
 21
227.4245755
  0
LINE
  8
_0-0_0
  6
CONTINUOUS
 62
    7
 10
33.428932500000002
 20
227.86824050000001
 11
33.178932500000002
 21
227.65772950000002
  0
LINE
  8
_0-0_0
  6
CONTINUOUS
 62
    7
 10
33.428932500000002
 20
227.65309150000002
 11
33.178932500000002
 21
227.65772950000002
  0
LINE
  8
_0-0_0
  6
CONTINUOUS
 62
    7
 10
33.428932500000002
 20
228.09222450000001
 11
33.178932500000002
 21
227.90202350000001
  0
LINE
  8
_0-0_0
  6
CONTINUOUS
 62
    7
 10
33.428932500000002
 20
227.86824050000001
 11
33.178932500000002
 21
227.90202350000001
  0
LINE
  8
_0-0_0
  6
CONTINUOUS
 62
    7
 10
33.428932500000002
 20
228.32260149999999
 11
33.178932500000002
 21
228.1547855
  0
LINE
  8
_0-0_0
  6
CONTINUOUS
 62
    7
 10
33.428932500000002
 20
228.09222450000001
 11
33.178932500000002
 21
228.1547855
  0
LINE
  8
_0-0_0
  6
CONTINUOUS
 62
    7
 10
33.428932500000002
 20
228.55682350000001
 11
33.178932500000002
 21
228.4132535
  0
LINE
  8
_0-0_0
  6
CONTINUOUS
 62
    7
 10
33.428932500000002
 20
228.32260149999999
 11
33.178932500000002
 21
228.4132535
  0
LINE
  8
_0-0_0
  6
CONTINUOUS
 62
    7
 10
33.428932500000002
 20
228.7923275
 11
33.178932500000002
 21
228.6745755
  0
LINE
  8
_0-0_0
  6
CONTINUOUS
 62
    7
 10
33.428932500000002
 20
228.55682350000001
 11
33.178932500000002
 21
228.6745755
  0
LINE
  8
_0-0_0
  6
CONTINUOUS
 62
    7
 10
33.428932500000002
 20
229.02655050000001
 11
33.178932500000002
 21
228.93589750000001
  0
LINE
  8
_0-0_0
  6
CONTINUOUS
 62
    7
 10
33.428932500000002
 20
228.7923275
 11
33.178932500000002
 21
228.93589750000001
  0
LINE
  8
_0-0_0
  6
CONTINUOUS
 62
    7
 10
33.428932500000002
 20
229.2569125
 11
33.178932500000002
 21
229.19435150000001
  0
LINE
  8
_0-0_0
  6
CONTINUOUS
 62
    7
 10
33.428932500000002
 20
229.02655050000001
 11
33.178932500000002
 21
229.19435150000001
  0
LINE
  8
_0-0_0
  6
CONTINUOUS
 62
    7
 10
33.428932500000002
 20
229.4808955
 11
33.178932500000002
 21
229.4471125
  0
LINE
  8
_0-0_0
  6
CONTINUOUS
 62
    7
 10
33.428932500000002
 20
229.2569125
 11
33.178932500000002
 21
229.4471125
  0
LINE
  8
_0-0_0
  6
CONTINUOUS
 62
    7
 10
33.428932500000002
 20
229.6960445
 11
33.178932500000002
 21
229.6914065
  0
LINE
  8
_0-0_0
  6
CONTINUOUS
 62
    7
 10
33.428932500000002
 20
229.4808955
 11
33.178932500000002
 21
229.6914065
  0
LINE
  8
_0-0_0
  6
CONTINUOUS
 62
    7
 10
48.428932500000002
 20
224.2668765
 11
38.721107500000016
 21
224.2668765
  0
LINE
  8
_0-0_0
  6
CONTINUOUS
 62
    7
 10
38.721107500000016
 20
224.2668765
 11
38.666626500000007
 21
224.33682250000001
  0
LINE
  8
_0-0_0
  6
CONTINUOUS
 62
    7
 10
38.666626500000007
 20
224.33682250000001
 11
38.615524499999992
 21
224.40563950000001
  0
LINE
  8
_0-0_0
  6
CONTINUOUS
 62
    7
 10
38.615524499999992
 20
224.40563950000001
 11
38.567886499999986
 21
224.47314449999999
  0
LINE
  8
_0-0_0
  6
CONTINUOUS
 62
    7
 10
38.567886499999986
 20
224.47314449999999
 11
38.52338450000002
 21
224.53968750000001
  0
LINE
  8
_0-0_0
  6
CONTINUOUS
 62
    7
 10
38.52338450000002
 20
224.53968750000001
 11
38.468658500000004
 21
224.6272275
  0
LINE
  8
_0-0_0
  6
CONTINUOUS
 62
    7
 10
38.468658500000004
 20
224.6272275
 11
38.419158500000009
 21
224.7133335
  0
LINE
  8
_0-0_0
  6
CONTINUOUS
 62
    7
 10
38.419158500000009
 20
224.7133335
 11
38.374687499999993
 21
224.7981715
  0
LINE
  8
_0-0_0
  6
CONTINUOUS
 62
    7
 10
38.374687499999993
 20
224.7981715
 11
38.327720499999998
 21
224.8984835
  0
LINE
  8
_0-0_0
  6
CONTINUOUS
 62
    7
 10
38.327720499999998
 20
224.8984835
 11
38.287513499999989
 21
224.99740550000001
  0
LINE
  8
_0-0_0
  6
CONTINUOUS
 62
    7
 10
38.287513499999989
 20
224.99740550000001
 11
38.253845500000011
 21
225.0951685
  0
LINE
  8
_0-0_0
  6
CONTINUOUS
 62
    7
 10
38.253845500000011
 20
225.0951685
 11
38.2265625
 21
225.1919705
  0
LINE
  8
_0-0_0
  6
CONTINUOUS
 62
    7
 10
38.2265625
 20
225.1919705
 11
38.205513499999995
 21
225.28802450000001
  0
LINE
  8
_0-0_0
  6
CONTINUOUS
 62
    7
 10
38.205513499999995
 20
225.28802450000001
 11
38.1895825
 21
225.3918765
  0
LINE
  8
_0-0_0
  6
CONTINUOUS
 62
    7
 10
38.1895825
 20
225.3918765
 11
38.1808245
 21
225.49530050000001
  0
LINE
  8
_0-0_0
  6
CONTINUOUS
 62
    7
 10
38.1808245
 20
225.49530050000001
 11
38.179191500000002
 21
225.59854150000001
  0
LINE
  8
_0-0_0
  6
CONTINUOUS
 62
    7
 10
38.179191500000002
 20
225.59854150000001
 11
38.184661500000004
 21
225.70182750000001
  0
LINE
  8
_0-0_0
  6
CONTINUOUS
 62
    7
 10
38.184661500000004
 20
225.70182750000001
 11
38.197265500000015
 21
225.8054195
  0
LINE
  8
_0-0_0
  6
CONTINUOUS
 62
    7
 10
38.197265500000015
 20
225.8054195
 11
38.217086499999994
 21
225.90957650000001
  0
LINE
  8
_0-0_0
  6
CONTINUOUS
 62
    7
 10
38.217086499999994
 20
225.90957650000001
 11
38.24423250000001
 21
226.01452649999999
  0
LINE
  8
_0-0_0
  6
CONTINUOUS
 62
    7
 10
38.24423250000001
 20
226.01452649999999
 11
38.278877500000021
 21
226.12055950000001
  0
LINE
  8
_0-0_0
  6
CONTINUOUS
 62
    7
 10
38.278877500000021
 20
226.12055950000001
 11
38.32122050000001
 21
226.2279355
  0
LINE
  8
_0-0_0
  6
CONTINUOUS
 62
    7
 10
38.32122050000001
 20
226.2279355
 11
38.371536499999991
 21
226.33694450000002
  0
LINE
  8
_0-0_0
  6
CONTINUOUS
 62
    7
 10
38.371536499999991
 20
226.33694450000002
 11
38.417236500000001
 21
226.42460650000001
  0
LINE
  8
_0-0_0
  6
CONTINUOUS
 62
    7
 10
48.428932500000002
 20
222.9822695
 11
38.721107500000016
 21
222.9822695
  0
LINE
  8
_0-0_0
  6
CONTINUOUS
 62
    7
 10
38.721107500000016
 20
222.9822695
 11
38.626770500000021
 21
222.73564150000001
  0
LINE
  8
_0-0_0
  6
CONTINUOUS
 62
    7
 10
38.626770500000021
 20
222.73564150000001
 11
38.542823499999997
 21
222.49568149999999
  0
LINE
  8
_0-0_0
  6
CONTINUOUS
 62
    7
 10
38.542823499999997
 20
222.49568149999999
 11
38.468658500000004
 21
222.26156650000001
  0
LINE
  8
_0-0_0
  6
CONTINUOUS
 62
    7
 10
38.468658500000004
 20
222.26156650000001
 11
38.403785500000026
 21
222.03251650000001
  0
LINE
  8
_0-0_0
  6
CONTINUOUS
 62
    7
 10
38.403785500000026
 20
222.03251650000001
 11
38.347747500000025
 21
221.80784550000001
  0
LINE
  8
_0-0_0
  6
CONTINUOUS
 62
    7
 10
38.347747500000025
 20
221.80784550000001
 11
38.300178500000015
 21
221.58686850000001
  0
LINE
  8
_0-0_0
  6
CONTINUOUS
 62
    7
 10
38.300178500000015
 20
221.58686850000001
 11
38.260772500000002
 21
221.36895749999999
  0
LINE
  8
_0-0_0
  6
CONTINUOUS
 62
    7
 10
38.260772500000002
 20
221.36895749999999
 11
38.229278500000021
 21
221.1535035
  0
LINE
  8
_0-0_0
  6
CONTINUOUS
 62
    7
 10
38.229278500000021
 20
221.1535035
 11
38.205513499999995
 21
220.93997150000001
  0
LINE
  8
_0-0_0
  6
CONTINUOUS
 62
    7
 10
38.205513499999995
 20
220.93997150000001
 11
38.1895825
 21
220.73225350000001
  0
LINE
  8
_0-0_0
  6
CONTINUOUS
 62
    7
 10
38.1895825
 20
220.73225350000001
 11
38.1808245
 21
220.52540550000001
  0
LINE
  8
_0-0_0
  6
CONTINUOUS
 62
    7
 10
38.1808245
 20
220.52540550000001
 11
38.179191500000002
 21
220.3189395
  0
LINE
  8
_0-0_0
  6
CONTINUOUS
 62
    7
 10
38.179191500000002
 20
220.3189395
 11
38.184661500000004
 21
220.11235049999999
  0
LINE
  8
_0-0_0
  6
CONTINUOUS
 62
    7
 10
38.184661500000004
 20
220.11235049999999
 11
38.197265500000015
 21
219.90516650000001
  0
LINE
  8
_0-0_0
  6
CONTINUOUS
 62
    7
 10
38.197265500000015
 20
219.90516650000001
 11
38.217086499999994
 21
219.69686849999999
  0
LINE
  8
_0-0_0
  6
CONTINUOUS
 62
    7
 10
38.217086499999994
 20
219.69686849999999
 11
38.24423250000001
 21
219.4869535
  0
LINE
  8
_0-0_0
  6
CONTINUOUS
 62
    7
 10
38.24423250000001
 20
219.4869535
 11
38.278877500000021
 21
219.27488650000001
  0
LINE
  8
_0-0_0
  6
CONTINUOUS
 62
    7
 10
38.278877500000021
 20
219.27488650000001
 11
38.32122050000001
 21
219.0601345
  0
LINE
  8
_0-0_0
  6
CONTINUOUS
 62
    7
 10
38.32122050000001
 20
219.0601345
 11
38.371536499999991
 21
218.84213249999999
  0
LINE
  8
_0-0_0
  6
CONTINUOUS
 62
    7
 10
38.371536499999991
 20
218.84213249999999
 11
38.42578850000001
 21
218.63584850000001
  0
LINE
  8
_0-0_0
  6
CONTINUOUS
 62
    7
 10
38.42578850000001
 20
218.63584850000001
 11
38.487495500000023
 21
218.4257355
  0
LINE
  8
_0-0_0
  6
CONTINUOUS
 62
    7
 10
38.487495500000023
 20
218.4257355
 11
38.557014500000008
 21
218.2112735
  0
LINE
  8
_0-0_0
  6
CONTINUOUS
 62
    7
 10
38.557014500000008
 20
218.2112735
 11
38.634727499999997
 21
217.9918515
  0
LINE
  8
_0-0_0
  6
CONTINUOUS
 62
    7
 10
38.634727499999997
 20
217.9918515
 11
38.721107500000016
 21
217.7668765
  0
LINE
  8
_0-0_0
  6
CONTINUOUS
 62
    7
 10
48.428932500000002
 20
217.7668765
 11
38.721107500000016
 21
217.7668765
  0
ARC
  8
_0-0_0
  6
CONTINUOUS
 62
    7
 10
43.592659500000025
 20
223.6245725
 40
4.9136889999999998
 50
172.48898299999999
 51
187.51101699999998
  0
LINE
  8
_0-0_0
  6
CONTINUOUS
 62
    7
 10
48.428932500000002
 20
216.4822695
 11
38.721107500000016
 21
216.4822695
  0
LINE
  8
_0-0_0
  6
CONTINUOUS
 62
    7
 10
38.721107500000016
 20
213.8745725
 11
38.666626500000007
 21
213.9445035
  0
LINE
  8
_0-0_0
  6
CONTINUOUS
 62
    7
 10
38.666626500000007
 20
213.9445035
 11
38.615524499999992
 21
214.01333650000001
  0
LINE
  8
_0-0_0
  6
CONTINUOUS
 62
    7
 10
38.615524499999992
 20
214.01333650000001
 11
38.567886499999986
 21
214.08084049999999
  0
LINE
  8
_0-0_0
  6
CONTINUOUS
 62
    7
 10
38.567886499999986
 20
214.08084049999999
 11
38.52338450000002
 21
214.14738450000002
  0
LINE
  8
_0-0_0
  6
CONTINUOUS
 62
    7
 10
38.52338450000002
 20
214.14738450000002
 11
38.468658500000004
 21
214.23492450000001
  0
LINE
  8
_0-0_0
  6
CONTINUOUS
 62
    7
 10
38.468658500000004
 20
214.23492450000001
 11
38.419158500000009
 21
214.32102950000001
  0
LINE
  8
_0-0_0
  6
CONTINUOUS
 62
    7
 10
38.419158500000009
 20
214.32102950000001
 11
38.374687499999993
 21
214.40585350000001
  0
LINE
  8
_0-0_0
  6
CONTINUOUS
 62
    7
 10
38.374687499999993
 20
214.40585350000001
 11
38.327720499999998
 21
214.5061795
  0
LINE
  8
_0-0_0
  6
CONTINUOUS
 62
    7
 10
38.327720499999998
 20
214.5061795
 11
38.287513499999989
 21
214.60510250000002
  0
LINE
  8
_0-0_0
  6
CONTINUOUS
 62
    7
 10
38.287513499999989
 20
214.60510250000002
 11
38.253845500000011
 21
214.7028655
  0
LINE
  8
_0-0_0
  6
CONTINUOUS
 62
    7
 10
38.253845500000011
 20
214.7028655
 11
38.2265625
 21
214.7996675
  0
LINE
  8
_0-0_0
  6
CONTINUOUS
 62
    7
 10
38.2265625
 20
214.7996675
 11
38.205513499999995
 21
214.89572150000001
  0
LINE
  8
_0-0_0
  6
CONTINUOUS
 62
    7
 10
38.205513499999995
 20
214.89572150000001
 11
38.1895825
 21
214.9995725
  0
LINE
  8
_0-0_0
  6
CONTINUOUS
 62
    7
 10
38.1895825
 20
214.9995725
 11
38.1808245
 21
215.10299649999999
  0
LINE
  8
_0-0_0
  6
CONTINUOUS
 62
    7
 10
38.1808245
 20
215.10299649999999
 11
38.179191500000002
 21
215.20623750000001
  0
LINE
  8
_0-0_0
  6
CONTINUOUS
 62
    7
 10
38.179191500000002
 20
215.20623750000001
 11
38.184661500000004
 21
215.30952450000001
  0
LINE
  8
_0-0_0
  6
CONTINUOUS
 62
    7
 10
38.184661500000004
 20
215.30952450000001
 11
38.197265500000015
 21
215.4131165
  0
LINE
  8
_0-0_0
  6
CONTINUOUS
 62
    7
 10
38.197265500000015
 20
215.4131165
 11
38.217086499999994
 21
215.51727249999999
  0
LINE
  8
_0-0_0
  6
CONTINUOUS
 62
    7
 10
38.217086499999994
 20
215.51727249999999
 11
38.24423250000001
 21
215.62222249999999
  0
LINE
  8
_0-0_0
  6
CONTINUOUS
 62
    7
 10
38.24423250000001
 20
215.62222249999999
 11
38.278877500000021
 21
215.72825650000001
  0
LINE
  8
_0-0_0
  6
CONTINUOUS
 62
    7
 10
38.278877500000021
 20
215.72825650000001
 11
38.32122050000001
 21
215.8356325
  0
LINE
  8
_0-0_0
  6
CONTINUOUS
 62
    7
 10
38.32122050000001
 20
215.8356325
 11
38.371536499999991
 21
215.94464049999999
  0
LINE
  8
_0-0_0
  6
CONTINUOUS
 62
    7
 10
38.371536499999991
 20
215.94464049999999
 11
38.42578850000001
 21
216.04779049999999
  0
LINE
  8
_0-0_0
  6
CONTINUOUS
 62
    7
 10
38.42578850000001
 20
216.04779049999999
 11
38.487495500000023
 21
216.15283149999999
  0
LINE
  8
_0-0_0
  6
CONTINUOUS
 62
    7
 10
38.487495500000023
 20
216.15283149999999
 11
38.557014500000008
 21
216.26007050000001
  0
LINE
  8
_0-0_0
  6
CONTINUOUS
 62
    7
 10
38.557014500000008
 20
216.26007050000001
 11
38.634727499999997
 21
216.36978150000002
  0
LINE
  8
_0-0_0
  6
CONTINUOUS
 62
    7
 10
38.634727499999997
 20
216.36978150000002
 11
38.721107500000016
 21
216.4822695
  0
LINE
  8
_0-0_0
  6
CONTINUOUS
 62
    7
 10
48.428932500000002
 20
213.8745725
 11
38.721107500000016
 21
213.8745725
  0
ARC
  8
_0-0_0
  6
CONTINUOUS
 62
    7
 10
43.602821500000005
 20
217.12368749999999
 40
4.9238749999999998
 50
172.49424200000001
 51
181.535968
  0
ARC
  8
_0-0_0
  6
CONTINUOUS
 62
    7
 10
43.640846500000009
 20
217.12863150000001
 40
4.9620009999999999
 50
181.58130700000004
 51
187.48478900000003
  0
LINE
  8
_0-0_0
  6
CONTINUOUS
 62
    7
 10
38.678932500000002
 20
213.8745725
 11
38.721107500000016
 21
213.8745725
  0
LINE
  8
_0-0_0
  6
CONTINUOUS
 62
    7
 10
33.428932500000002
 20
213.30000250000001
 11
33.178932500000002
 21
213.3245695
  0
LINE
  8
_0-0_0
  6
CONTINUOUS
 62
    7
 10
33.428932500000002
 20
213.09605350000001
 11
33.178932500000002
 21
213.3245695
  0
LINE
  8
_0-0_0
  6
CONTINUOUS
 62
    7
 10
33.428932500000002
 20
213.49053950000001
 11
33.178932500000002
 21
213.5440365
  0
LINE
  8
_0-0_0
  6
CONTINUOUS
 62
    7
 10
33.428932500000002
 20
213.30000250000001
 11
33.178932500000002
 21
213.5440365
  0
LINE
  8
_0-0_0
  6
CONTINUOUS
 62
    7
 10
33.428932500000002
 20
213.66555750000001
 11
33.178932500000002
 21
213.74740550000001
  0
LINE
  8
_0-0_0
  6
CONTINUOUS
 62
    7
 10
33.428932500000002
 20
213.49053950000001
 11
33.178932500000002
 21
213.74740550000001
  0
LINE
  8
_0-0_0
  6
CONTINUOUS
 62
    7
 10
33.428932500000002
 20
213.8231505
 11
33.178932500000002
 21
213.9324335
  0
LINE
  8
_0-0_0
  6
CONTINUOUS
 62
    7
 10
33.428932500000002
 20
213.66555750000001
 11
33.178932500000002
 21
213.9324335
  0
LINE
  8
_0-0_0
  6
CONTINUOUS
 62
    7
 10
33.428932500000002
 20
213.9615785
 11
33.178932500000002
 21
214.0971065
  0
LINE
  8
_0-0_0
  6
CONTINUOUS
 62
    7
 10
33.428932500000002
 20
213.8231505
 11
33.178932500000002
 21
214.0971065
  0
LINE
  8
_0-0_0
  6
CONTINUOUS
 62
    7
 10
33.428932500000002
 20
214.0793305
 11
33.178932500000002
 21
214.23963950000001
  0
LINE
  8
_0-0_0
  6
CONTINUOUS
 62
    7
 10
33.428932500000002
 20
213.9615785
 11
33.178932500000002
 21
214.23963950000001
  0
LINE
  8
_0-0_0
  6
CONTINUOUS
 62
    7
 10
33.428932500000002
 20
214.17512550000001
 11
33.178932500000002
 21
214.3584285
  0
LINE
  8
_0-0_0
  6
CONTINUOUS
 62
    7
 10
33.428932500000002
 20
214.0793305
 11
33.178932500000002
 21
214.3584285
  0
LINE
  8
_0-0_0
  6
CONTINUOUS
 62
    7
 10
33.428932500000002
 20
214.24790949999999
 11
33.178932500000002
 21
214.45220950000001
  0
LINE
  8
_0-0_0
  6
CONTINUOUS
 62
    7
 10
33.428932500000002
 20
214.17512550000001
 11
33.178932500000002
 21
214.45220950000001
  0
LINE
  8
_0-0_0
  6
CONTINUOUS
 62
    7
 10
33.428932500000002
 20
214.2968745
 11
33.178932500000002
 21
214.51994350000001
  0
LINE
  8
_0-0_0
  6
CONTINUOUS
 62
    7
 10
33.428932500000002
 20
214.24790949999999
 11
33.178932500000002
 21
214.51994350000001
  0
LINE
  8
_0-0_0
  6
CONTINUOUS
 62
    7
 10
33.428932500000002
 20
214.32148749999999
 11
33.178932500000002
 21
214.56088249999999
  0
LINE
  8
_0-0_0
  6
CONTINUOUS
 62
    7
 10
33.428932500000002
 20
214.2968745
 11
33.178932500000002
 21
214.56088249999999
  0
LINE
  8
_0-0_0
  6
CONTINUOUS
 62
    7
 10
33.428932500000002
 20
214.32148749999999
 11
33.178932500000002
 21
214.5745695
  0
LINE
  8
_0-0_0
  6
CONTINUOUS
 62
    7
 10
33.428932500000002
 20
209.8276515
 11
33.178932500000002
 21
209.5745695
  0
LINE
  8
_0-0_0
  6
CONTINUOUS
 62
    7
 10
33.428932500000002
 20
209.85226449999999
 11
33.178932500000002
 21
209.58827149999999
  0
LINE
  8
_0-0_0
  6
CONTINUOUS
 62
    7
 10
33.428932500000002
 20
209.8276515
 11
33.178932500000002
 21
209.58827149999999
  0
LINE
  8
_0-0_0
  6
CONTINUOUS
 62
    7
 10
33.428932500000002
 20
209.90124449999999
 11
33.178932500000002
 21
209.6292115
  0
LINE
  8
_0-0_0
  6
CONTINUOUS
 62
    7
 10
33.428932500000002
 20
209.85226449999999
 11
33.178932500000002
 21
209.6292115
  0
LINE
  8
_0-0_0
  6
CONTINUOUS
 62
    7
 10
33.428932500000002
 20
209.97401450000001
 11
33.178932500000002
 21
209.69692950000001
  0
LINE
  8
_0-0_0
  6
CONTINUOUS
 62
    7
 10
33.428932500000002
 20
209.90124449999999
 11
33.178932500000002
 21
209.69692950000001
  0
LINE
  8
_0-0_0
  6
CONTINUOUS
 62
    7
 10
33.428932500000002
 20
210.06980849999999
 11
33.178932500000002
 21
209.79071049999999
  0
LINE
  8
_0-0_0
  6
CONTINUOUS
 62
    7
 10
33.428932500000002
 20
209.97401450000001
 11
33.178932500000002
 21
209.79071049999999
  0
LINE
  8
_0-0_0
  6
CONTINUOUS
 62
    7
 10
33.428932500000002
 20
210.06980849999999
 11
33.298965500000008
 21
209.9859615
  0
LINE
  8
_0-0_0
  6
CONTINUOUS
 62
    7
 10
33.428932500000002
 20
210.18756049999999
 11
33.178932500000002
 21
209.9095155
  0
LINE
  8
_0-0_0
  6
CONTINUOUS
 62
    7
 10
33.298965500000008
 20
209.9859615
 11
33.178932500000002
 21
209.9095155
  0
LINE
  8
_0-0_0
  6
CONTINUOUS
 62
    7
 10
33.428932500000002
 20
210.32598849999999
 11
33.178932500000002
 21
210.0520325
  0
LINE
  8
_0-0_0
  6
CONTINUOUS
 62
    7
 10
33.428932500000002
 20
210.18756049999999
 11
33.178932500000002
 21
210.0520325
  0
LINE
  8
_0-0_0
  6
CONTINUOUS
 62
    7
 10
33.428932500000002
 20
210.48358150000001
 11
33.178932500000002
 21
210.21670549999999
  0
LINE
  8
_0-0_0
  6
CONTINUOUS
 62
    7
 10
33.428932500000002
 20
210.32598849999999
 11
33.178932500000002
 21
210.21670549999999
  0
LINE
  8
_0-0_0
  6
CONTINUOUS
 62
    7
 10
33.428932500000002
 20
210.65859950000001
 11
33.178932500000002
 21
210.4017485
  0
LINE
  8
_0-0_0
  6
CONTINUOUS
 62
    7
 10
33.428932500000002
 20
210.48358150000001
 11
33.178932500000002
 21
210.4017485
  0
LINE
  8
_0-0_0
  6
CONTINUOUS
 62
    7
 10
33.428932500000002
 20
210.84913650000001
 11
33.178932500000002
 21
210.60510250000002
  0
LINE
  8
_0-0_0
  6
CONTINUOUS
 62
    7
 10
33.428932500000002
 20
210.65859950000001
 11
33.178932500000002
 21
210.60510250000002
  0
LINE
  8
_0-0_0
  6
CONTINUOUS
 62
    7
 10
33.428932500000002
 20
211.05308550000001
 11
33.178932500000002
 21
210.8245695
  0
LINE
  8
_0-0_0
  6
CONTINUOUS
 62
    7
 10
33.428932500000002
 20
210.84913650000001
 11
33.178932500000002
 21
210.8245695
  0
LINE
  8
_0-0_0
  6
CONTINUOUS
 62
    7
 10
33.428932500000002
 20
211.26823450000001
 11
33.178932500000002
 21
211.05772350000001
  0
LINE
  8
_0-0_0
  6
CONTINUOUS
 62
    7
 10
33.428932500000002
 20
211.05308550000001
 11
33.178932500000002
 21
211.05772350000001
  0
LINE
  8
_0-0_0
  6
CONTINUOUS
 62
    7
 10
33.428932500000002
 20
211.4922335
 11
33.178932500000002
 21
211.3020325
  0
LINE
  8
_0-0_0
  6
CONTINUOUS
 62
    7
 10
33.428932500000002
 20
211.26823450000001
 11
33.178932500000002
 21
211.3020325
  0
LINE
  8
_0-0_0
  6
CONTINUOUS
 62
    7
 10
33.428932500000002
 20
211.72259550000001
 11
33.178932500000002
 21
211.55479450000001
  0
LINE
  8
_0-0_0
  6
CONTINUOUS
 62
    7
 10
33.428932500000002
 20
211.4922335
 11
33.178932500000002
 21
211.55479450000001
  0
LINE
  8
_0-0_0
  6
CONTINUOUS
 62
    7
 10
33.428932500000002
 20
211.9568175
 11
33.178932500000002
 21
211.81324749999999
  0
LINE
  8
_0-0_0
  6
CONTINUOUS
 62
    7
 10
33.428932500000002
 20
211.72259550000001
 11
33.178932500000002
 21
211.81324749999999
  0
LINE
  8
_0-0_0
  6
CONTINUOUS
 62
    7
 10
33.428932500000002
 20
212.19232149999999
 11
33.178932500000002
 21
212.0745695
  0
LINE
  8
_0-0_0
  6
CONTINUOUS
 62
    7
 10
33.428932500000002
 20
211.9568175
 11
33.178932500000002
 21
212.0745695
  0
LINE
  8
_0-0_0
  6
CONTINUOUS
 62
    7
 10
33.428932500000002
 20
212.42654450000001
 11
33.178932500000002
 21
212.3358915
  0
LINE
  8
_0-0_0
  6
CONTINUOUS
 62
    7
 10
33.428932500000002
 20
212.19232149999999
 11
33.178932500000002
 21
212.3358915
  0
LINE
  8
_0-0_0
  6
CONTINUOUS
 62
    7
 10
33.428932500000002
 20
212.65692150000001
 11
33.178932500000002
 21
212.59434450000001
  0
LINE
  8
_0-0_0
  6
CONTINUOUS
 62
    7
 10
33.428932500000002
 20
212.42654450000001
 11
33.178932500000002
 21
212.59434450000001
  0
LINE
  8
_0-0_0
  6
CONTINUOUS
 62
    7
 10
33.428932500000002
 20
212.88090550000001
 11
33.178932500000002
 21
212.8471065
  0
LINE
  8
_0-0_0
  6
CONTINUOUS
 62
    7
 10
33.428932500000002
 20
212.65692150000001
 11
33.178932500000002
 21
212.8471065
  0
LINE
  8
_0-0_0
  6
CONTINUOUS
 62
    7
 10
33.428932500000002
 20
213.09605350000001
 11
33.178932500000002
 21
213.09141550000001
  0
LINE
  8
_0-0_0
  6
CONTINUOUS
 62
    7
 10
33.428932500000002
 20
212.88090550000001
 11
33.178932500000002
 21
213.09141550000001
  0
LINE
  8
_0-0_0
  6
CONTINUOUS
 62
    7
 10
23.678932500000002
 20
229.90000950000001
 11
23.928932500000002
 21
229.9245755
  0
LINE
  8
_0-0_0
  6
CONTINUOUS
 62
    7
 10
23.928932500000002
 20
229.9245755
 11
33.178932500000002
 21
229.9245755
  0
LINE
  8
_0-0_0
  6
CONTINUOUS
 62
    7
 10
23.678932500000002
 20
229.6960445
 11
23.928932500000002
 21
229.9245755
  0
LINE
  8
_0-0_0
  6
CONTINUOUS
 62
    7
 10
23.678932500000002
 20
229.6960445
 11
33.428932500000002
 21
229.6960445
  0
LINE
  8
_0-0_0
  6
CONTINUOUS
 62
    7
 10
23.678932500000002
 20
230.09054549999999
 11
23.928932500000002
 21
230.14404250000001
  0
LINE
  8
_0-0_0
  6
CONTINUOUS
 62
    7
 10
23.928932500000002
 20
230.14404250000001
 11
33.178932500000002
 21
230.14404250000001
  0
LINE
  8
_0-0_0
  6
CONTINUOUS
 62
    7
 10
23.678932500000002
 20
229.90000950000001
 11
23.928932500000002
 21
230.14404250000001
  0
LINE
  8
_0-0_0
  6
CONTINUOUS
 62
    7
 10
23.678932500000002
 20
230.26556350000001
 11
23.928932500000002
 21
230.3473965
  0
LINE
  8
_0-0_0
  6
CONTINUOUS
 62
    7
 10
23.928932500000002
 20
230.3473965
 11
33.178932500000002
 21
230.3473965
  0
LINE
  8
_0-0_0
  6
CONTINUOUS
 62
    7
 10
23.678932500000002
 20
230.09054549999999
 11
23.928932500000002
 21
230.3473965
  0
LINE
  8
_0-0_0
  6
CONTINUOUS
 62
    7
 10
23.678932500000002
 20
230.4231565
 11
23.928932500000002
 21
230.53244050000001
  0
LINE
  8
_0-0_0
  6
CONTINUOUS
 62
    7
 10
23.928932500000002
 20
230.53244050000001
 11
33.178932500000002
 21
230.53244050000001
  0
LINE
  8
_0-0_0
  6
CONTINUOUS
 62
    7
 10
23.678932500000002
 20
230.26556350000001
 11
23.928932500000002
 21
230.53244050000001
  0
LINE
  8
_0-0_0
  6
CONTINUOUS
 62
    7
 10
23.678932500000002
 20
230.56158450000001
 11
23.928932500000002
 21
230.6971125
  0
LINE
  8
_0-0_0
  6
CONTINUOUS
 62
    7
 10
23.928932500000002
 20
230.6971125
 11
33.178932500000002
 21
230.6971125
  0
LINE
  8
_0-0_0
  6
CONTINUOUS
 62
    7
 10
23.678932500000002
 20
230.4231565
 11
23.928932500000002
 21
230.6971125
  0
LINE
  8
_0-0_0
  6
CONTINUOUS
 62
    7
 10
23.678932500000002
 20
230.67933650000001
 11
23.928932500000002
 21
230.8396305
  0
LINE
  8
_0-0_0
  6
CONTINUOUS
 62
    7
 10
23.928932500000002
 20
230.8396305
 11
33.178932500000002
 21
230.8396305
  0
LINE
  8
_0-0_0
  6
CONTINUOUS
 62
    7
 10
23.678932500000002
 20
230.56158450000001
 11
23.928932500000002
 21
230.8396305
  0
LINE
  8
_0-0_0
  6
CONTINUOUS
 62
    7
 10
23.678932500000002
 20
230.77513150000001
 11
23.928932500000002
 21
230.95843450000001
  0
LINE
  8
_0-0_0
  6
CONTINUOUS
 62
    7
 10
23.928932500000002
 20
230.95843450000001
 11
33.178932500000002
 21
230.95843450000001
  0
LINE
  8
_0-0_0
  6
CONTINUOUS
 62
    7
 10
23.678932500000002
 20
230.67933650000001
 11
23.928932500000002
 21
230.95843450000001
  0
LINE
  8
_0-0_0
  6
CONTINUOUS
 62
    7
 10
23.678932500000002
 20
230.84790050000001
 11
23.928932500000002
 21
231.05221549999999
  0
LINE
  8
_0-0_0
  6
CONTINUOUS
 62
    7
 10
23.928932500000002
 20
231.05221549999999
 11
33.178932500000002
 21
231.05221549999999
  0
LINE
  8
_0-0_0
  6
CONTINUOUS
 62
    7
 10
23.678932500000002
 20
230.77513150000001
 11
23.928932500000002
 21
231.05221549999999
  0
LINE
  8
_0-0_0
  6
CONTINUOUS
 62
    7
 10
23.678932500000002
 20
230.89686549999999
 11
23.928932500000002
 21
231.1199335
  0
LINE
  8
_0-0_0
  6
CONTINUOUS
 62
    7
 10
23.928932500000002
 20
231.1199335
 11
33.178932500000002
 21
231.1199335
  0
LINE
  8
_0-0_0
  6
CONTINUOUS
 62
    7
 10
23.678932500000002
 20
230.84790050000001
 11
23.928932500000002
 21
231.1199335
  0
LINE
  8
_0-0_0
  6
CONTINUOUS
 62
    7
 10
23.678932500000002
 20
230.9214935
 11
23.928932500000002
 21
231.16087350000001
  0
LINE
  8
_0-0_0
  6
CONTINUOUS
 62
    7
 10
23.928932500000002
 20
231.16087350000001
 11
33.178932500000002
 21
231.16087350000001
  0
LINE
  8
_0-0_0
  6
CONTINUOUS
 62
    7
 10
23.678932500000002
 20
230.89686549999999
 11
23.928932500000002
 21
231.16087350000001
  0
LINE
  8
_0-0_0
  6
CONTINUOUS
 62
    7
 10
23.928932500000002
 20
231.1745755
 11
33.178932500000002
 21
231.1745755
  0
LINE
  8
_0-0_0
  6
CONTINUOUS
 62
    7
 10
23.678932500000002
 20
230.9214935
 11
23.928932500000002
 21
231.1745755
  0
LINE
  8
_0-0_0
  6
CONTINUOUS
 62
    7
 10
23.678932500000002
 20
226.42765750000001
 11
23.928932500000002
 21
226.1745755
  0
LINE
  8
_0-0_0
  6
CONTINUOUS
 62
    7
 10
23.928932500000002
 20
226.1745755
 11
33.178932500000002
 21
226.1745755
  0
LINE
  8
_0-0_0
  6
CONTINUOUS
 62
    7
 10
23.678932500000002
 20
226.4522705
 11
23.928932500000002
 21
226.18826250000001
  0
LINE
  8
_0-0_0
  6
CONTINUOUS
 62
    7
 10
23.928932500000002
 20
226.18826250000001
 11
33.178932500000002
 21
226.18826250000001
  0
LINE
  8
_0-0_0
  6
CONTINUOUS
 62
    7
 10
23.678932500000002
 20
226.42765750000001
 11
23.928932500000002
 21
226.18826250000001
  0
LINE
  8
_0-0_0
  6
CONTINUOUS
 62
    7
 10
23.678932500000002
 20
226.50123550000001
 11
23.928932500000002
 21
226.22920250000001
  0
LINE
  8
_0-0_0
  6
CONTINUOUS
 62
    7
 10
23.928932500000002
 20
226.22920250000001
 11
33.178932500000002
 21
226.22920250000001
  0
LINE
  8
_0-0_0
  6
CONTINUOUS
 62
    7
 10
23.678932500000002
 20
226.4522705
 11
23.928932500000002
 21
226.22920250000001
  0
LINE
  8
_0-0_0
  6
CONTINUOUS
 62
    7
 10
23.678932500000002
 20
226.57402049999999
 11
23.928932500000002
 21
226.29693549999999
  0
LINE
  8
_0-0_0
  6
CONTINUOUS
 62
    7
 10
23.928932500000002
 20
226.29693549999999
 11
33.178932500000002
 21
226.29693549999999
  0
LINE
  8
_0-0_0
  6
CONTINUOUS
 62
    7
 10
23.678932500000002
 20
226.50123550000001
 11
23.928932500000002
 21
226.29693549999999
  0
LINE
  8
_0-0_0
  6
CONTINUOUS
 62
    7
 10
23.678932500000002
 20
226.66979950000001
 11
23.928932500000002
 21
226.39070150000001
  0
LINE
  8
_0-0_0
  6
CONTINUOUS
 62
    7
 10
23.928932500000002
 20
226.39070150000001
 11
33.178932500000002
 21
226.39070150000001
  0
LINE
  8
_0-0_0
  6
CONTINUOUS
 62
    7
 10
23.678932500000002
 20
226.57402049999999
 11
23.928932500000002
 21
226.39070150000001
  0
LINE
  8
_0-0_0
  6
CONTINUOUS
 62
    7
 10
23.928932500000002
 20
226.50950650000001
 11
33.178932500000002
 21
226.50950650000001
  0
LINE
  8
_0-0_0
  6
CONTINUOUS
 62
    7
 10
23.808898499999998
 20
226.58595249999999
 11
23.928932500000002
 21
226.50950650000001
  0
LINE
  8
_0-0_0
  6
CONTINUOUS
 62
    7
 10
23.678932500000002
 20
226.66979950000001
 11
23.808898499999998
 21
226.58595249999999
  0
LINE
  8
_0-0_0
  6
CONTINUOUS
 62
    7
 10
23.678932500000002
 20
226.78756749999999
 11
23.928932500000002
 21
226.50950650000001
  0
LINE
  8
_0-0_0
  6
CONTINUOUS
 62
    7
 10
23.678932500000002
 20
226.9259945
 11
23.928932500000002
 21
226.65202350000001
  0
LINE
  8
_0-0_0
  6
CONTINUOUS
 62
    7
 10
23.928932500000002
 20
226.65202350000001
 11
33.178932500000002
 21
226.65202350000001
  0
LINE
  8
_0-0_0
  6
CONTINUOUS
 62
    7
 10
23.678932500000002
 20
226.78756749999999
 11
23.928932500000002
 21
226.65202350000001
  0
LINE
  8
_0-0_0
  6
CONTINUOUS
 62
    7
 10
23.678932500000002
 20
227.08358749999999
 11
23.928932500000002
 21
226.8167115
  0
LINE
  8
_0-0_0
  6
CONTINUOUS
 62
    7
 10
23.928932500000002
 20
226.8167115
 11
33.178932500000002
 21
226.8167115
  0
LINE
  8
_0-0_0
  6
CONTINUOUS
 62
    7
 10
23.678932500000002
 20
226.9259945
 11
23.928932500000002
 21
226.8167115
  0
LINE
  8
_0-0_0
  6
CONTINUOUS
 62
    7
 10
23.678932500000002
 20
227.25860550000002
 11
23.928932500000002
 21
227.00173950000001
  0
LINE
  8
_0-0_0
  6
CONTINUOUS
 62
    7
 10
23.928932500000002
 20
227.00173950000001
 11
33.178932500000002
 21
227.00173950000001
  0
LINE
  8
_0-0_0
  6
CONTINUOUS
 62
    7
 10
23.678932500000002
 20
227.08358749999999
 11
23.928932500000002
 21
227.00173950000001
  0
LINE
  8
_0-0_0
  6
CONTINUOUS
 62
    7
 10
23.678932500000002
 20
227.4491275
 11
23.928932500000002
 21
227.20510849999999
  0
LINE
  8
_0-0_0
  6
CONTINUOUS
 62
    7
 10
23.928932500000002
 20
227.20510849999999
 11
33.178932500000002
 21
227.20510849999999
  0
LINE
  8
_0-0_0
  6
CONTINUOUS
 62
    7
 10
23.678932500000002
 20
227.25860550000002
 11
23.928932500000002
 21
227.20510849999999
  0
LINE
  8
_0-0_0
  6
CONTINUOUS
 62
    7
 10
23.678932500000002
 20
227.65309150000002
 11
23.928932500000002
 21
227.4245755
  0
LINE
  8
_0-0_0
  6
CONTINUOUS
 62
    7
 10
23.928932500000002
 20
227.4245755
 11
33.178932500000002
 21
227.4245755
  0
LINE
  8
_0-0_0
  6
CONTINUOUS
 62
    7
 10
23.678932500000002
 20
227.65309150000002
 11
33.428932500000002
 21
227.65309150000002
  0
LINE
  8
_0-0_0
  6
CONTINUOUS
 62
    7
 10
23.678932500000002
 20
227.4491275
 11
23.928932500000002
 21
227.4245755
  0
LINE
  8
_0-0_0
  6
CONTINUOUS
 62
    7
 10
23.678932500000002
 20
227.86824050000001
 11
23.928932500000002
 21
227.65772950000002
  0
LINE
  8
_0-0_0
  6
CONTINUOUS
 62
    7
 10
23.928932500000002
 20
227.65772950000002
 11
33.178932500000002
 21
227.65772950000002
  0
LINE
  8
_0-0_0
  6
CONTINUOUS
 62
    7
 10
23.678932500000002
 20
227.86824050000001
 11
33.428932500000002
 21
227.86824050000001
  0
LINE
  8
_0-0_0
  6
CONTINUOUS
 62
    7
 10
23.678932500000002
 20
227.65309150000002
 11
23.928932500000002
 21
227.65772950000002
  0
LINE
  8
_0-0_0
  6
CONTINUOUS
 62
    7
 10
23.678932500000002
 20
228.09222450000001
 11
23.928932500000002
 21
227.90202350000001
  0
LINE
  8
_0-0_0
  6
CONTINUOUS
 62
    7
 10
23.928932500000002
 20
227.90202350000001
 11
33.178932500000002
 21
227.90202350000001
  0
LINE
  8
_0-0_0
  6
CONTINUOUS
 62
    7
 10
23.678932500000002
 20
228.09222450000001
 11
33.428932500000002
 21
228.09222450000001
  0
LINE
  8
_0-0_0
  6
CONTINUOUS
 62
    7
 10
23.678932500000002
 20
227.86824050000001
 11
23.928932500000002
 21
227.90202350000001
  0
LINE
  8
_0-0_0
  6
CONTINUOUS
 62
    7
 10
23.678932500000002
 20
228.32260149999999
 11
23.928932500000002
 21
228.1547855
  0
LINE
  8
_0-0_0
  6
CONTINUOUS
 62
    7
 10
23.928932500000002
 20
228.1547855
 11
33.178932500000002
 21
228.1547855
  0
LINE
  8
_0-0_0
  6
CONTINUOUS
 62
    7
 10
23.678932500000002
 20
228.32260149999999
 11
33.428932500000002
 21
228.32260149999999
  0
LINE
  8
_0-0_0
  6
CONTINUOUS
 62
    7
 10
23.678932500000002
 20
228.09222450000001
 11
23.928932500000002
 21
228.1547855
  0
LINE
  8
_0-0_0
  6
CONTINUOUS
 62
    7
 10
23.678932500000002
 20
228.55682350000001
 11
23.928932500000002
 21
228.4132535
  0
LINE
  8
_0-0_0
  6
CONTINUOUS
 62
    7
 10
23.928932500000002
 20
228.4132535
 11
33.178932500000002
 21
228.4132535
  0
LINE
  8
_0-0_0
  6
CONTINUOUS
 62
    7
 10
23.678932500000002
 20
228.55682350000001
 11
33.428932500000002
 21
228.55682350000001
  0
LINE
  8
_0-0_0
  6
CONTINUOUS
 62
    7
 10
23.678932500000002
 20
228.32260149999999
 11
23.928932500000002
 21
228.4132535
  0
LINE
  8
_0-0_0
  6
CONTINUOUS
 62
    7
 10
23.678932500000002
 20
228.7923275
 11
23.928932500000002
 21
228.6745755
  0
LINE
  8
_0-0_0
  6
CONTINUOUS
 62
    7
 10
23.928932500000002
 20
228.6745755
 11
33.178932500000002
 21
228.6745755
  0
LINE
  8
_0-0_0
  6
CONTINUOUS
 62
    7
 10
23.678932500000002
 20
228.7923275
 11
33.428932500000002
 21
228.7923275
  0
LINE
  8
_0-0_0
  6
CONTINUOUS
 62
    7
 10
23.678932500000002
 20
228.55682350000001
 11
23.928932500000002
 21
228.6745755
  0
LINE
  8
_0-0_0
  6
CONTINUOUS
 62
    7
 10
23.678932500000002
 20
229.02655050000001
 11
23.928932500000002
 21
228.93589750000001
  0
LINE
  8
_0-0_0
  6
CONTINUOUS
 62
    7
 10
23.928932500000002
 20
228.93589750000001
 11
33.178932500000002
 21
228.93589750000001
  0
LINE
  8
_0-0_0
  6
CONTINUOUS
 62
    7
 10
23.678932500000002
 20
229.02655050000001
 11
33.428932500000002
 21
229.02655050000001
  0
LINE
  8
_0-0_0
  6
CONTINUOUS
 62
    7
 10
23.678932500000002
 20
228.7923275
 11
23.928932500000002
 21
228.93589750000001
  0
LINE
  8
_0-0_0
  6
CONTINUOUS
 62
    7
 10
23.678932500000002
 20
229.2569125
 11
23.928932500000002
 21
229.19435150000001
  0
LINE
  8
_0-0_0
  6
CONTINUOUS
 62
    7
 10
23.928932500000002
 20
229.19435150000001
 11
33.178932500000002
 21
229.19435150000001
  0
LINE
  8
_0-0_0
  6
CONTINUOUS
 62
    7
 10
23.678932500000002
 20
229.2569125
 11
33.428932500000002
 21
229.2569125
  0
LINE
  8
_0-0_0
  6
CONTINUOUS
 62
    7
 10
23.678932500000002
 20
229.02655050000001
 11
23.928932500000002
 21
229.19435150000001
  0
LINE
  8
_0-0_0
  6
CONTINUOUS
 62
    7
 10
23.678932500000002
 20
229.4808955
 11
23.928932500000002
 21
229.4471125
  0
LINE
  8
_0-0_0
  6
CONTINUOUS
 62
    7
 10
23.928932500000002
 20
229.4471125
 11
33.178932500000002
 21
229.4471125
  0
LINE
  8
_0-0_0
  6
CONTINUOUS
 62
    7
 10
23.678932500000002
 20
229.4808955
 11
33.428932500000002
 21
229.4808955
  0
LINE
  8
_0-0_0
  6
CONTINUOUS
 62
    7
 10
23.678932500000002
 20
229.2569125
 11
23.928932500000002
 21
229.4471125
  0
LINE
  8
_0-0_0
  6
CONTINUOUS
 62
    7
 10
23.678932500000002
 20
229.6960445
 11
23.928932500000002
 21
229.6914065
  0
LINE
  8
_0-0_0
  6
CONTINUOUS
 62
    7
 10
23.928932500000002
 20
229.6914065
 11
33.178932500000002
 21
229.6914065
  0
LINE
  8
_0-0_0
  6
CONTINUOUS
 62
    7
 10
23.678932500000002
 20
229.4808955
 11
23.928932500000002
 21
229.6914065
  0
LINE
  8
_0-0_0
  6
CONTINUOUS
 62
    7
 10
37.428932500000002
 20
225.6245725
 11
37.428932500000002
 21
217.64302050000001
  0
LINE
  8
_0-0_0
  6
CONTINUOUS
 62
    7
 10
37.428932500000002
 20
217.64302050000001
 11
37.428932500000002
 21
215.1245725
  0
LINE
  8
_0-0_0
  6
CONTINUOUS
 62
    7
 10
23.678932500000002
 20
213.30000250000001
 11
23.928932500000002
 21
213.3245695
  0
LINE
  8
_0-0_0
  6
CONTINUOUS
 62
    7
 10
23.928932500000002
 20
213.3245695
 11
33.178932500000002
 21
213.3245695
  0
LINE
  8
_0-0_0
  6
CONTINUOUS
 62
    7
 10
23.678932500000002
 20
213.09605350000001
 11
23.928932500000002
 21
213.3245695
  0
LINE
  8
_0-0_0
  6
CONTINUOUS
 62
    7
 10
23.678932500000002
 20
213.09605350000001
 11
33.428932500000002
 21
213.09605350000001
  0
LINE
  8
_0-0_0
  6
CONTINUOUS
 62
    7
 10
23.678932500000002
 20
213.49053950000001
 11
23.928932500000002
 21
213.5440365
  0
LINE
  8
_0-0_0
  6
CONTINUOUS
 62
    7
 10
23.928932500000002
 20
213.5440365
 11
33.178932500000002
 21
213.5440365
  0
LINE
  8
_0-0_0
  6
CONTINUOUS
 62
    7
 10
23.678932500000002
 20
213.30000250000001
 11
23.928932500000002
 21
213.5440365
  0
LINE
  8
_0-0_0
  6
CONTINUOUS
 62
    7
 10
23.678932500000002
 20
213.66555750000001
 11
23.928932500000002
 21
213.74740550000001
  0
LINE
  8
_0-0_0
  6
CONTINUOUS
 62
    7
 10
23.928932500000002
 20
213.74740550000001
 11
33.178932500000002
 21
213.74740550000001
  0
LINE
  8
_0-0_0
  6
CONTINUOUS
 62
    7
 10
23.678932500000002
 20
213.49053950000001
 11
23.928932500000002
 21
213.74740550000001
  0
LINE
  8
_0-0_0
  6
CONTINUOUS
 62
    7
 10
23.678932500000002
 20
213.8231505
 11
23.928932500000002
 21
213.9324335
  0
LINE
  8
_0-0_0
  6
CONTINUOUS
 62
    7
 10
23.928932500000002
 20
213.9324335
 11
33.178932500000002
 21
213.9324335
  0
LINE
  8
_0-0_0
  6
CONTINUOUS
 62
    7
 10
23.678932500000002
 20
213.66555750000001
 11
23.928932500000002
 21
213.9324335
  0
LINE
  8
_0-0_0
  6
CONTINUOUS
 62
    7
 10
23.678932500000002
 20
213.9615785
 11
23.928932500000002
 21
214.0971065
  0
LINE
  8
_0-0_0
  6
CONTINUOUS
 62
    7
 10
23.928932500000002
 20
214.0971065
 11
33.178932500000002
 21
214.0971065
  0
LINE
  8
_0-0_0
  6
CONTINUOUS
 62
    7
 10
23.678932500000002
 20
213.8231505
 11
23.928932500000002
 21
214.0971065
  0
LINE
  8
_0-0_0
  6
CONTINUOUS
 62
    7
 10
23.678932500000002
 20
214.0793305
 11
23.928932500000002
 21
214.23963950000001
  0
LINE
  8
_0-0_0
  6
CONTINUOUS
 62
    7
 10
23.928932500000002
 20
214.23963950000001
 11
33.178932500000002
 21
214.23963950000001
  0
LINE
  8
_0-0_0
  6
CONTINUOUS
 62
    7
 10
23.678932500000002
 20
213.9615785
 11
23.928932500000002
 21
214.23963950000001
  0
LINE
  8
_0-0_0
  6
CONTINUOUS
 62
    7
 10
23.678932500000002
 20
214.17512550000001
 11
23.928932500000002
 21
214.3584285
  0
LINE
  8
_0-0_0
  6
CONTINUOUS
 62
    7
 10
23.928932500000002
 20
214.3584285
 11
33.178932500000002
 21
214.3584285
  0
LINE
  8
_0-0_0
  6
CONTINUOUS
 62
    7
 10
23.678932500000002
 20
214.0793305
 11
23.928932500000002
 21
214.3584285
  0
LINE
  8
_0-0_0
  6
CONTINUOUS
 62
    7
 10
23.678932500000002
 20
214.24790949999999
 11
23.928932500000002
 21
214.45220950000001
  0
LINE
  8
_0-0_0
  6
CONTINUOUS
 62
    7
 10
23.928932500000002
 20
214.45220950000001
 11
33.178932500000002
 21
214.45220950000001
  0
LINE
  8
_0-0_0
  6
CONTINUOUS
 62
    7
 10
23.678932500000002
 20
214.17512550000001
 11
23.928932500000002
 21
214.45220950000001
  0
LINE
  8
_0-0_0
  6
CONTINUOUS
 62
    7
 10
23.678932500000002
 20
214.2968745
 11
23.928932500000002
 21
214.51994350000001
  0
LINE
  8
_0-0_0
  6
CONTINUOUS
 62
    7
 10
23.928932500000002
 20
214.51994350000001
 11
33.178932500000002
 21
214.51994350000001
  0
LINE
  8
_0-0_0
  6
CONTINUOUS
 62
    7
 10
23.678932500000002
 20
214.24790949999999
 11
23.928932500000002
 21
214.51994350000001
  0
LINE
  8
_0-0_0
  6
CONTINUOUS
 62
    7
 10
23.678932500000002
 20
214.32148749999999
 11
23.928932500000002
 21
214.56088249999999
  0
LINE
  8
_0-0_0
  6
CONTINUOUS
 62
    7
 10
23.928932500000002
 20
214.56088249999999
 11
33.178932500000002
 21
214.56088249999999
  0
LINE
  8
_0-0_0
  6
CONTINUOUS
 62
    7
 10
23.678932500000002
 20
214.2968745
 11
23.928932500000002
 21
214.56088249999999
  0
LINE
  8
_0-0_0
  6
CONTINUOUS
 62
    7
 10
23.928932500000002
 20
214.5745695
 11
33.178932500000002
 21
214.5745695
  0
LINE
  8
_0-0_0
  6
CONTINUOUS
 62
    7
 10
23.678932500000002
 20
214.32148749999999
 11
23.928932500000002
 21
214.5745695
  0
LINE
  8
_0-0_0
  6
CONTINUOUS
 62
    7
 10
23.678932500000002
 20
209.8276515
 11
23.928932500000002
 21
209.5745695
  0
LINE
  8
_0-0_0
  6
CONTINUOUS
 62
    7
 10
23.928932500000002
 20
209.5745695
 11
33.178932500000002
 21
209.5745695
  0
LINE
  8
_0-0_0
  6
CONTINUOUS
 62
    7
 10
23.678932500000002
 20
209.85226449999999
 11
23.928932500000002
 21
209.58827149999999
  0
LINE
  8
_0-0_0
  6
CONTINUOUS
 62
    7
 10
23.928932500000002
 20
209.58827149999999
 11
33.178932500000002
 21
209.58827149999999
  0
LINE
  8
_0-0_0
  6
CONTINUOUS
 62
    7
 10
23.678932500000002
 20
209.8276515
 11
23.928932500000002
 21
209.58827149999999
  0
LINE
  8
_0-0_0
  6
CONTINUOUS
 62
    7
 10
23.678932500000002
 20
209.90124449999999
 11
23.928932500000002
 21
209.6292115
  0
LINE
  8
_0-0_0
  6
CONTINUOUS
 62
    7
 10
23.928932500000002
 20
209.6292115
 11
33.178932500000002
 21
209.6292115
  0
LINE
  8
_0-0_0
  6
CONTINUOUS
 62
    7
 10
23.678932500000002
 20
209.85226449999999
 11
23.928932500000002
 21
209.6292115
  0
LINE
  8
_0-0_0
  6
CONTINUOUS
 62
    7
 10
23.678932500000002
 20
209.97401450000001
 11
23.928932500000002
 21
209.69692950000001
  0
LINE
  8
_0-0_0
  6
CONTINUOUS
 62
    7
 10
23.928932500000002
 20
209.69692950000001
 11
33.178932500000002
 21
209.69692950000001
  0
LINE
  8
_0-0_0
  6
CONTINUOUS
 62
    7
 10
23.678932500000002
 20
209.90124449999999
 11
23.928932500000002
 21
209.69692950000001
  0
LINE
  8
_0-0_0
  6
CONTINUOUS
 62
    7
 10
23.678932500000002
 20
210.06980849999999
 11
23.928932500000002
 21
209.79071049999999
  0
LINE
  8
_0-0_0
  6
CONTINUOUS
 62
    7
 10
23.928932500000002
 20
209.79071049999999
 11
33.178932500000002
 21
209.79071049999999
  0
LINE
  8
_0-0_0
  6
CONTINUOUS
 62
    7
 10
23.678932500000002
 20
209.97401450000001
 11
23.928932500000002
 21
209.79071049999999
  0
LINE
  8
_0-0_0
  6
CONTINUOUS
 62
    7
 10
23.928932500000002
 20
209.9095155
 11
33.178932500000002
 21
209.9095155
  0
LINE
  8
_0-0_0
  6
CONTINUOUS
 62
    7
 10
23.808898499999998
 20
209.9859615
 11
23.928932500000002
 21
209.9095155
  0
LINE
  8
_0-0_0
  6
CONTINUOUS
 62
    7
 10
23.678932500000002
 20
210.06980849999999
 11
23.808898499999998
 21
209.9859615
  0
LINE
  8
_0-0_0
  6
CONTINUOUS
 62
    7
 10
23.678932500000002
 20
210.18756049999999
 11
23.928932500000002
 21
209.9095155
  0
LINE
  8
_0-0_0
  6
CONTINUOUS
 62
    7
 10
23.678932500000002
 20
210.32598849999999
 11
23.928932500000002
 21
210.0520325
  0
LINE
  8
_0-0_0
  6
CONTINUOUS
 62
    7
 10
23.928932500000002
 20
210.0520325
 11
33.178932500000002
 21
210.0520325
  0
LINE
  8
_0-0_0
  6
CONTINUOUS
 62
    7
 10
23.678932500000002
 20
210.18756049999999
 11
23.928932500000002
 21
210.0520325
  0
LINE
  8
_0-0_0
  6
CONTINUOUS
 62
    7
 10
23.678932500000002
 20
210.48358150000001
 11
23.928932500000002
 21
210.21670549999999
  0
LINE
  8
_0-0_0
  6
CONTINUOUS
 62
    7
 10
23.928932500000002
 20
210.21670549999999
 11
33.178932500000002
 21
210.21670549999999
  0
LINE
  8
_0-0_0
  6
CONTINUOUS
 62
    7
 10
23.678932500000002
 20
210.32598849999999
 11
23.928932500000002
 21
210.21670549999999
  0
LINE
  8
_0-0_0
  6
CONTINUOUS
 62
    7
 10
23.678932500000002
 20
210.65859950000001
 11
23.928932500000002
 21
210.4017485
  0
LINE
  8
_0-0_0
  6
CONTINUOUS
 62
    7
 10
23.928932500000002
 20
210.4017485
 11
33.178932500000002
 21
210.4017485
  0
LINE
  8
_0-0_0
  6
CONTINUOUS
 62
    7
 10
23.678932500000002
 20
210.48358150000001
 11
23.928932500000002
 21
210.4017485
  0
LINE
  8
_0-0_0
  6
CONTINUOUS
 62
    7
 10
23.678932500000002
 20
210.84913650000001
 11
23.928932500000002
 21
210.60510250000002
  0
LINE
  8
_0-0_0
  6
CONTINUOUS
 62
    7
 10
23.928932500000002
 20
210.60510250000002
 11
33.178932500000002
 21
210.60510250000002
  0
LINE
  8
_0-0_0
  6
CONTINUOUS
 62
    7
 10
23.678932500000002
 20
210.65859950000001
 11
23.928932500000002
 21
210.60510250000002
  0
LINE
  8
_0-0_0
  6
CONTINUOUS
 62
    7
 10
23.678932500000002
 20
211.05308550000001
 11
23.928932500000002
 21
210.8245695
  0
LINE
  8
_0-0_0
  6
CONTINUOUS
 62
    7
 10
23.928932500000002
 20
210.8245695
 11
33.178932500000002
 21
210.8245695
  0
LINE
  8
_0-0_0
  6
CONTINUOUS
 62
    7
 10
23.678932500000002
 20
211.05308550000001
 11
33.428932500000002
 21
211.05308550000001
  0
LINE
  8
_0-0_0
  6
CONTINUOUS
 62
    7
 10
23.678932500000002
 20
210.84913650000001
 11
23.928932500000002
 21
210.8245695
  0
LINE
  8
_0-0_0
  6
CONTINUOUS
 62
    7
 10
23.678932500000002
 20
211.26823450000001
 11
23.928932500000002
 21
211.05772350000001
  0
LINE
  8
_0-0_0
  6
CONTINUOUS
 62
    7
 10
23.928932500000002
 20
211.05772350000001
 11
33.178932500000002
 21
211.05772350000001
  0
LINE
  8
_0-0_0
  6
CONTINUOUS
 62
    7
 10
23.678932500000002
 20
211.26823450000001
 11
33.428932500000002
 21
211.26823450000001
  0
LINE
  8
_0-0_0
  6
CONTINUOUS
 62
    7
 10
23.678932500000002
 20
211.05308550000001
 11
23.928932500000002
 21
211.05772350000001
  0
LINE
  8
_0-0_0
  6
CONTINUOUS
 62
    7
 10
23.678932500000002
 20
211.4922335
 11
23.928932500000002
 21
211.3020325
  0
LINE
  8
_0-0_0
  6
CONTINUOUS
 62
    7
 10
23.928932500000002
 20
211.3020325
 11
33.178932500000002
 21
211.3020325
  0
LINE
  8
_0-0_0
  6
CONTINUOUS
 62
    7
 10
23.678932500000002
 20
211.4922335
 11
33.428932500000002
 21
211.4922335
  0
LINE
  8
_0-0_0
  6
CONTINUOUS
 62
    7
 10
23.678932500000002
 20
211.26823450000001
 11
23.928932500000002
 21
211.3020325
  0
LINE
  8
_0-0_0
  6
CONTINUOUS
 62
    7
 10
23.678932500000002
 20
211.72259550000001
 11
23.928932500000002
 21
211.55479450000001
  0
LINE
  8
_0-0_0
  6
CONTINUOUS
 62
    7
 10
23.928932500000002
 20
211.55479450000001
 11
33.178932500000002
 21
211.55479450000001
  0
LINE
  8
_0-0_0
  6
CONTINUOUS
 62
    7
 10
23.678932500000002
 20
211.72259550000001
 11
33.428932500000002
 21
211.72259550000001
  0
LINE
  8
_0-0_0
  6
CONTINUOUS
 62
    7
 10
23.678932500000002
 20
211.4922335
 11
23.928932500000002
 21
211.55479450000001
  0
LINE
  8
_0-0_0
  6
CONTINUOUS
 62
    7
 10
23.678932500000002
 20
211.9568175
 11
23.928932500000002
 21
211.81324749999999
  0
LINE
  8
_0-0_0
  6
CONTINUOUS
 62
    7
 10
23.928932500000002
 20
211.81324749999999
 11
33.178932500000002
 21
211.81324749999999
  0
LINE
  8
_0-0_0
  6
CONTINUOUS
 62
    7
 10
23.678932500000002
 20
211.9568175
 11
33.428932500000002
 21
211.9568175
  0
LINE
  8
_0-0_0
  6
CONTINUOUS
 62
    7
 10
23.678932500000002
 20
211.72259550000001
 11
23.928932500000002
 21
211.81324749999999
  0
LINE
  8
_0-0_0
  6
CONTINUOUS
 62
    7
 10
23.678932500000002
 20
212.19232149999999
 11
23.928932500000002
 21
212.0745695
  0
LINE
  8
_0-0_0
  6
CONTINUOUS
 62
    7
 10
23.928932500000002
 20
212.0745695
 11
33.178932500000002
 21
212.0745695
  0
LINE
  8
_0-0_0
  6
CONTINUOUS
 62
    7
 10
23.678932500000002
 20
212.19232149999999
 11
33.428932500000002
 21
212.19232149999999
  0
LINE
  8
_0-0_0
  6
CONTINUOUS
 62
    7
 10
23.678932500000002
 20
211.9568175
 11
23.928932500000002
 21
212.0745695
  0
LINE
  8
_0-0_0
  6
CONTINUOUS
 62
    7
 10
23.678932500000002
 20
212.42654450000001
 11
23.928932500000002
 21
212.3358915
  0
LINE
  8
_0-0_0
  6
CONTINUOUS
 62
    7
 10
23.928932500000002
 20
212.3358915
 11
33.178932500000002
 21
212.3358915
  0
LINE
  8
_0-0_0
  6
CONTINUOUS
 62
    7
 10
23.678932500000002
 20
212.42654450000001
 11
33.428932500000002
 21
212.42654450000001
  0
LINE
  8
_0-0_0
  6
CONTINUOUS
 62
    7
 10
23.678932500000002
 20
212.19232149999999
 11
23.928932500000002
 21
212.3358915
  0
LINE
  8
_0-0_0
  6
CONTINUOUS
 62
    7
 10
23.678932500000002
 20
212.65692150000001
 11
23.928932500000002
 21
212.59434450000001
  0
LINE
  8
_0-0_0
  6
CONTINUOUS
 62
    7
 10
23.928932500000002
 20
212.59434450000001
 11
33.178932500000002
 21
212.59434450000001
  0
LINE
  8
_0-0_0
  6
CONTINUOUS
 62
    7
 10
23.678932500000002
 20
212.65692150000001
 11
33.428932500000002
 21
212.65692150000001
  0
LINE
  8
_0-0_0
  6
CONTINUOUS
 62
    7
 10
23.678932500000002
 20
212.42654450000001
 11
23.928932500000002
 21
212.59434450000001
  0
LINE
  8
_0-0_0
  6
CONTINUOUS
 62
    7
 10
23.678932500000002
 20
212.88090550000001
 11
23.928932500000002
 21
212.8471065
  0
LINE
  8
_0-0_0
  6
CONTINUOUS
 62
    7
 10
23.928932500000002
 20
212.8471065
 11
33.178932500000002
 21
212.8471065
  0
LINE
  8
_0-0_0
  6
CONTINUOUS
 62
    7
 10
23.678932500000002
 20
212.88090550000001
 11
33.428932500000002
 21
212.88090550000001
  0
LINE
  8
_0-0_0
  6
CONTINUOUS
 62
    7
 10
23.678932500000002
 20
212.65692150000001
 11
23.928932500000002
 21
212.8471065
  0
LINE
  8
_0-0_0
  6
CONTINUOUS
 62
    7
 10
23.678932500000002
 20
213.09605350000001
 11
23.928932500000002
 21
213.09141550000001
  0
LINE
  8
_0-0_0
  6
CONTINUOUS
 62
    7
 10
23.928932500000002
 20
213.09141550000001
 11
33.178932500000002
 21
213.09141550000001
  0
LINE
  8
_0-0_0
  6
CONTINUOUS
 62
    7
 10
23.678932500000002
 20
212.88090550000001
 11
23.928932500000002
 21
213.09141550000001
  0
LINE
  8
_0-0_0
  6
CONTINUOUS
 62
    7
 10
23.428932500000002
 20
230.6745755
 11
23.428932500000002
 21
226.91940249999999
  0
LINE
  8
_0-0_0
  6
CONTINUOUS
 62
    7
 10
23.428932500000002
 20
226.91940249999999
 11
23.428932500000002
 21
226.6745755
  0
LINE
  8
_0-0_0
  6
CONTINUOUS
 62
    7
 10
23.428932500000002
 20
214.0745695
 11
23.428932500000002
 21
210.3194125
  0
LINE
  8
_0-0_0
  6
CONTINUOUS
 62
    7
 10
23.428932500000002
 20
210.3194125
 11
23.428932500000002
 21
210.0745695
  0
LINE
  8
_0-0_0
  6
CONTINUOUS
 62
    7
 10
37.028930500000001
 20
225.3745725
 11
37.028930500000001
 21
222.8745725
  0
LINE
  8
_0-0_0
  6
CONTINUOUS
 62
    7
 10
37.028930500000001
 20
222.8745725
 11
37.028930500000001
 21
215.3745725
  0
LINE
  8
_0-0_0
  6
CONTINUOUS
 62
    7
 10
36.228935500000006
 20
224.9126895
 11
36.228935500000006
 21
222.6436305
  0
LINE
  8
_0-0_0
  6
CONTINUOUS
 62
    7
 10
36.228935500000006
 20
222.6436305
 11
36.228935500000006
 21
215.8364565
  0
LINE
  8
_0-0_0
  6
CONTINUOUS
 62
    7
 10
-21.771068499999984
 20
224.3745725
 11
-21.771068499999984
 21
224.37322950000001
  0
LINE
  8
_0-0_0
  6
CONTINUOUS
 62
    7
 10
-21.771068499999984
 20
224.37322950000001
 11
-21.771068499999984
 21
216.3745725
  0
LINE
  8
_0-0_0
  6
CONTINUOUS
 62
    7
 10
59.428924499999994
 20
230.9245755
 11
33.428932500000002
 21
230.9245755
  0
LINE
  8
_0-0_0
  6
CONTINUOUS
 62
    7
 10
59.428924499999994
 20
226.4245755
 11
33.428932500000002
 21
226.4245755
  0
LINE
  8
_0-0_0
  6
CONTINUOUS
 62
    7
 10
38.228920500000015
 20
214.3245695
 11
33.428932500000002
 21
214.3245695
  0
LINE
  8
_0-0_0
  6
CONTINUOUS
 62
    7
 10
53.678894500000013
 20
209.8245695
 11
33.428932500000002
 21
209.8245695
  0
LINE
  8
_0-0_0
  6
CONTINUOUS
 62
    7
 10
33.428932500000002
 20
230.9245755
 11
33.178932500000002
 21
231.1745755
  0
LINE
  8
_0-0_0
  6
CONTINUOUS
 62
    7
 10
33.428932500000002
 20
226.4245755
 11
33.178932500000002
 21
226.1745755
  0
LINE
  8
_0-0_0
  6
CONTINUOUS
 62
    7
 10
33.428932500000002
 20
214.3245695
 11
33.178932500000002
 21
214.5745695
  0
LINE
  8
_0-0_0
  6
CONTINUOUS
 62
    7
 10
33.428932500000002
 20
209.8245695
 11
33.178932500000002
 21
209.5745695
  0
LINE
  8
_0-0_0
  6
CONTINUOUS
 62
    7
 10
37.428932500000002
 20
225.6245725
 11
38.228927499999998
 21
226.42456050000001
  0
LINE
  8
_0-0_0
  6
CONTINUOUS
 62
    7
 10
37.428932500000002
 20
215.1245725
 11
38.678932500000002
 21
213.8745725
  0
LINE
  8
_0-0_0
  6
CONTINUOUS
 62
    7
 10
23.428932500000002
 20
230.6745755
 11
23.928779500000019
 21
231.1744075
  0
LINE
  8
_0-0_0
  6
CONTINUOUS
 62
    7
 10
23.428932500000002
 20
226.6745755
 11
23.928779500000019
 21
226.17472850000001
  0
LINE
  8
_0-0_0
  6
CONTINUOUS
 62
    7
 10
23.428932500000002
 20
214.0745695
 11
23.928779500000019
 21
214.57441650000001
  0
LINE
  8
_0-0_0
  6
CONTINUOUS
 62
    7
 10
23.428932500000002
 20
210.0745695
 11
23.928779500000019
 21
209.57472250000001
  0
LINE
  8
_0-0_0
  6
CONTINUOUS
 62
    7
 10
37.428932500000002
 20
225.3745725
 11
37.028930500000001
 21
225.3745725
  0
LINE
  8
_0-0_0
  6
CONTINUOUS
 62
    7
 10
37.428932500000002
 20
215.3745725
 11
37.028930500000001
 21
215.3745725
  0
LINE
  8
_0-0_0
  6
CONTINUOUS
 62
    7
 10
36.228935500000006
 20
224.9126895
 11
37.028930500000001
 21
225.3745725
  0
LINE
  8
_0-0_0
  6
CONTINUOUS
 62
    7
 10
36.228935500000006
 20
215.8364565
 11
37.028930500000001
 21
215.3745725
  0
LINE
  8
_0-0_0
  6
CONTINUOUS
 62
    7
 10
36.228935500000006
 20
224.3745725
 11
-21.771068499999984
 21
224.3745725
  0
LINE
  8
_0-0_0
  6
CONTINUOUS
 62
    7
 10
36.228935500000006
 20
216.3745725
 11
-21.771068499999984
 21
216.3745725
  0
LINE
  8
_0-0_0
  6
CONTINUOUS
 62
    7
 10
43.928932500000002
 20
249.2746425
 11
46.383705500000019
 21
249.2746425
  0
LINE
  8
_0-0_0
  6
CONTINUOUS
 62
    7
 10
43.928932500000002
 20
236.0746455
 11
43.928932500000002
 21
249.2746425
  0
LINE
  8
_0-0_0
  6
CONTINUOUS
 62
    7
 10
496.92892449999999
 20
236.0746455
 11
496.92892449999999
 21
249.2746425
  0
LINE
  8
_0-0_0
  6
CONTINUOUS
 62
    7
 10
494.47415150000006
 20
249.2746425
 11
496.92892449999999
 21
249.2746425
  0
ARC
  8
_0-0_0
  6
CONTINUOUS
 62
    7
 10
487.92892449999999
 20
253.87464850000001
 40
8
 50
215.099627
 51
324.90037799999999
  0
LINE
  8
_0-0_0
  6
CONTINUOUS
 62
    7
 10
59.474151500000005
 20
249.2746425
 11
481.38369750000004
 21
249.2746425
  0
ARC
  8
_0-0_0
  6
CONTINUOUS
 62
    7
 10
52.928924499999994
 20
253.87464850000001
 40
8
 50
215.099627
 51
324.90037799999999
  0
LINE
  8
_0-0_0
  6
CONTINUOUS
 62
    7
 10
46.383705500000019
 20
249.2746425
 11
46.294723500000003
 21
249.4039305
  0
LINE
  8
_0-0_0
  6
CONTINUOUS
 62
    7
 10
59.474151500000005
 20
249.2746425
 11
59.563140500000003
 21
249.4039305
  0
LINE
  8
_0-0_0
  6
CONTINUOUS
 62
    7
 10
59.656280500000008
 20
249.54534950000001
 11
59.563140500000003
 21
249.4039305
  0
LINE
  8
_0-0_0
  6
CONTINUOUS
 62
    7
 10
59.656280500000008
 20
249.54534950000001
 11
59.737747500000012
 21
249.67465150000001
  0
ARC
  8
_0-0_0
  6
CONTINUOUS
 62
    7
 10
52.928924499999994
 20
253.87464850000001
 40
8
 50
328.33175599999993
 51
334.05550899999992
  0
LINE
  8
_0-0_0
  6
CONTINUOUS
 62
    7
 10
60.122680500000001
 20
250.37464850000001
 11
60.184158499999995
 21
250.50393650000001
  0
LINE
  8
_0-0_0
  6
CONTINUOUS
 62
    7
 10
60.248199499999998
 20
250.64535549999999
 11
60.184158499999995
 21
250.50393650000001
  0
LINE
  8
_0-0_0
  6
CONTINUOUS
 62
    7
 10
60.248199499999998
 20
250.64535549999999
 11
60.303894500000013
 21
250.7746425
  0
ARC
  8
_0-0_0
  6
CONTINUOUS
 62
    7
 10
52.928924499999994
 20
253.87464850000001
 40
8
 50
337.20097500000003
 51
342.54240199999998
  0
LINE
  8
_0-0_0
  6
CONTINUOUS
 62
    7
 10
60.560455500000018
 20
251.47463949999999
 11
60.599914500000011
 21
251.60394250000002
  0
LINE
  8
_0-0_0
  6
CONTINUOUS
 62
    7
 10
60.640350500000011
 20
251.7453615
 11
60.599914500000011
 21
251.60394250000002
  0
LINE
  8
_0-0_0
  6
CONTINUOUS
 62
    7
 10
60.640350500000011
 20
251.7453615
 11
60.674896500000017
 21
251.87464850000001
  0
ARC
  8
_0-0_0
  6
CONTINUOUS
 62
    7
 10
52.928924499999994
 20
253.87464850000001
 40
8
 50
345.52249499999999
 51
350.64797900000002
  0
LINE
  8
_0-0_0
  6
CONTINUOUS
 62
    7
 10
60.822601500000019
 20
252.5746455
 11
60.8428045
 21
252.70393350000001
  0
LINE
  8
_0-0_0
  6
CONTINUOUS
 62
    7
 10
60.862442500000014
 20
252.84535249999999
 11
60.8428045
 21
252.70393350000001
  0
LINE
  8
_0-0_0
  6
CONTINUOUS
 62
    7
 10
60.862442500000014
 20
252.84535249999999
 11
60.878143499999993
 21
252.97463949999999
  0
ARC
  8
_0-0_0
  6
CONTINUOUS
 62
    7
 10
52.928924499999994
 20
253.87464850000001
 40
8
 50
353.54056400000002
 51
358.56744600000002
  0
LINE
  8
_0-0_0
  6
CONTINUOUS
 62
    7
 10
60.92643750000002
 20
253.67465150000001
 11
60.928619499999996
 21
253.80392449999999
  0
LINE
  8
_0-0_0
  6
CONTINUOUS
 62
    7
 10
60.928619499999996
 20
253.80392449999999
 11
60.928939500000013
 21
253.87464850000001
  0
LINE
  8
_0-0_0
  6
CONTINUOUS
 62
    7
 10
44.929245500000007
 20
253.80392449999999
 11
44.928932500000002
 21
253.87464850000001
  0
LINE
  8
_0-0_0
  6
CONTINUOUS
 62
    7
 10
44.931434500000023
 20
253.67465150000001
 11
44.929245500000007
 21
253.80392449999999
  0
ARC
  8
_0-0_0
  6
CONTINUOUS
 62
    7
 10
52.928924499999994
 20
253.87464850000001
 40
8
 50
181.432545
 51
186.45945499999999
  0
LINE
  8
_0-0_0
  6
CONTINUOUS
 62
    7
 10
44.995422500000018
 20
252.84535249999999
 11
44.979721500000011
 21
252.97463949999999
  0
LINE
  8
_0-0_0
  6
CONTINUOUS
 62
    7
 10
44.995422500000018
 20
252.84535249999999
 11
45.015052500000024
 21
252.70393350000001
  0
LINE
  8
_0-0_0
  6
CONTINUOUS
 62
    7
 10
45.035263499999985
 20
252.5746455
 11
45.015052500000024
 21
252.70393350000001
  0
ARC
  8
_0-0_0
  6
CONTINUOUS
 62
    7
 10
52.928924499999994
 20
253.87464850000001
 40
8
 50
189.35203999999999
 51
194.47751
  0
LINE
  8
_0-0_0
  6
CONTINUOUS
 62
    7
 10
45.217506500000013
 20
251.7453615
 11
45.182968500000015
 21
251.87464850000001
  0
LINE
  8
_0-0_0
  6
CONTINUOUS
 62
    7
 10
45.217506500000013
 20
251.7453615
 11
45.257957500000003
 21
251.60394250000002
  0
LINE
  8
_0-0_0
  6
CONTINUOUS
 62
    7
 10
45.297416499999997
 20
251.47463949999999
 11
45.257957500000003
 21
251.60394250000002
  0
ARC
  8
_0-0_0
  6
CONTINUOUS
 62
    7
 10
52.928924499999994
 20
253.87464850000001
 40
8
 50
197.45760300000001
 51
202.79902999999999
  0
LINE
  8
_0-0_0
  6
CONTINUOUS
 62
    7
 10
45.609664500000008
 20
250.64535549999999
 11
45.553978499999999
 21
250.7746425
  0
LINE
  8
_0-0_0
  6
CONTINUOUS
 62
    7
 10
45.609664500000008
 20
250.64535549999999
 11
45.673706500000009
 21
250.50393650000001
  0
LINE
  8
_0-0_0
  6
CONTINUOUS
 62
    7
 10
45.735183500000005
 20
250.37464850000001
 11
45.673706500000009
 21
250.50393650000001
  0
ARC
  8
_0-0_0
  6
CONTINUOUS
 62
    7
 10
52.928924499999994
 20
253.87464850000001
 40
8
 50
205.94448199999999
 51
211.66823500000001
  0
LINE
  8
_0-0_0
  6
CONTINUOUS
 62
    7
 10
46.201583500000027
 20
249.54534950000001
 11
46.120117499999992
 21
249.67465150000001
  0
LINE
  8
_0-0_0
  6
CONTINUOUS
 62
    7
 10
46.201583500000027
 20
249.54534950000001
 11
46.294723500000003
 21
249.4039305
  0
LINE
  8
_0-0_0
  6
CONTINUOUS
 62
    7
 10
481.38369750000004
 20
249.2746425
 11
481.29470849999996
 21
249.4039305
  0
LINE
  8
_0-0_0
  6
CONTINUOUS
 62
    7
 10
479.92922950000002
 20
253.80392449999999
 11
479.92892449999999
 21
253.87464850000001
  0
LINE
  8
_0-0_0
  6
CONTINUOUS
 62
    7
 10
479.93142750000004
 20
253.67465150000001
 11
479.92922950000002
 21
253.80392449999999
  0
ARC
  8
_0-0_0
  6
CONTINUOUS
 62
    7
 10
487.92892449999999
 20
253.87464850000001
 40
8
 50
181.432545
 51
186.45945499999999
  0
LINE
  8
_0-0_0
  6
CONTINUOUS
 62
    7
 10
479.99545250000006
 20
252.84535249999999
 11
479.97970550000002
 21
252.97463949999999
  0
LINE
  8
_0-0_0
  6
CONTINUOUS
 62
    7
 10
479.99545250000006
 20
252.84535249999999
 11
480.01504550000004
 21
252.70393350000001
  0
LINE
  8
_0-0_0
  6
CONTINUOUS
 62
    7
 10
480.03524749999997
 20
252.5746455
 11
480.01504550000004
 21
252.70393350000001
  0
ARC
  8
_0-0_0
  6
CONTINUOUS
 62
    7
 10
487.92892449999999
 20
253.87464850000001
 40
8
 50
189.35203999999999
 51
194.47751
  0
LINE
  8
_0-0_0
  6
CONTINUOUS
 62
    7
 10
480.21749850000003
 20
251.7453615
 11
480.18295250000006
 21
251.87464850000001
  0
LINE
  8
_0-0_0
  6
CONTINUOUS
 62
    7
 10
480.21749850000003
 20
251.7453615
 11
480.25796549999995
 21
251.60394250000002
  0
LINE
  8
_0-0_0
  6
CONTINUOUS
 62
    7
 10
480.29745449999996
 20
251.47463949999999
 11
480.25796549999995
 21
251.60394250000002
  0
ARC
  8
_0-0_0
  6
CONTINUOUS
 62
    7
 10
487.92892449999999
 20
253.87464850000001
 40
8
 50
197.45760300000001
 51
202.79902999999999
  0
LINE
  8
_0-0_0
  6
CONTINUOUS
 62
    7
 10
480.60964950000005
 20
250.64535549999999
 11
480.55398549999995
 21
250.7746425
  0
LINE
  8
_0-0_0
  6
CONTINUOUS
 62
    7
 10
480.60964950000005
 20
250.64535549999999
 11
480.67373650000002
 21
250.50393650000001
  0
LINE
  8
_0-0_0
  6
CONTINUOUS
 62
    7
 10
480.73519950000002
 20
250.37464850000001
 11
480.67373650000002
 21
250.50393650000001
  0
ARC
  8
_0-0_0
  6
CONTINUOUS
 62
    7
 10
487.92892449999999
 20
253.87464850000001
 40
8
 50
205.94448199999999
 51
211.66823500000001
  0
LINE
  8
_0-0_0
  6
CONTINUOUS
 62
    7
 10
481.20156850000001
 20
249.54534950000001
 11
481.12014750000003
 21
249.67465150000001
  0
LINE
  8
_0-0_0
  6
CONTINUOUS
 62
    7
 10
481.20156850000001
 20
249.54534950000001
 11
481.29470849999996
 21
249.4039305
  0
LINE
  8
_0-0_0
  6
CONTINUOUS
 62
    7
 10
494.47415150000006
 20
249.2746425
 11
494.56314050000003
 21
249.4039305
  0
LINE
  8
_0-0_0
  6
CONTINUOUS
 62
    7
 10
494.65628049999998
 20
249.54534950000001
 11
494.56314050000003
 21
249.4039305
  0
LINE
  8
_0-0_0
  6
CONTINUOUS
 62
    7
 10
494.65628049999998
 20
249.54534950000001
 11
494.73776250000003
 21
249.67465150000001
  0
ARC
  8
_0-0_0
  6
CONTINUOUS
 62
    7
 10
487.92892449999999
 20
253.87464850000001
 40
8
 50
328.33175599999993
 51
334.05550899999992
  0
LINE
  8
_0-0_0
  6
CONTINUOUS
 62
    7
 10
495.12271150000004
 20
250.37464850000001
 11
495.18417350000004
 21
250.50393650000001
  0
LINE
  8
_0-0_0
  6
CONTINUOUS
 62
    7
 10
495.24819950000006
 20
250.64535549999999
 11
495.18417350000004
 21
250.50393650000001
  0
LINE
  8
_0-0_0
  6
CONTINUOUS
 62
    7
 10
495.24819950000006
 20
250.64535549999999
 11
495.30392449999999
 21
250.7746425
  0
ARC
  8
_0-0_0
  6
CONTINUOUS
 62
    7
 10
487.92892449999999
 20
253.87464850000001
 40
8
 50
337.20097500000003
 51
342.54240199999998
  0
LINE
  8
_0-0_0
  6
CONTINUOUS
 62
    7
 10
495.56045549999999
 20
251.47463949999999
 11
495.59994549999999
 21
251.60394250000002
  0
LINE
  8
_0-0_0
  6
CONTINUOUS
 62
    7
 10
495.64035049999995
 20
251.7453615
 11
495.59994549999999
 21
251.60394250000002
  0
LINE
  8
_0-0_0
  6
CONTINUOUS
 62
    7
 10
495.64035049999995
 20
251.7453615
 11
495.67489650000005
 21
251.87464850000001
  0
ARC
  8
_0-0_0
  6
CONTINUOUS
 62
    7
 10
487.92892449999999
 20
253.87464850000001
 40
8
 50
345.52249499999999
 51
350.64797900000002
  0
LINE
  8
_0-0_0
  6
CONTINUOUS
 62
    7
 10
495.82260150000002
 20
252.5746455
 11
495.84280450000006
 21
252.70393350000001
  0
LINE
  8
_0-0_0
  6
CONTINUOUS
 62
    7
 10
495.8624575
 20
252.84535249999999
 11
495.84280450000006
 21
252.70393350000001
  0
LINE
  8
_0-0_0
  6
CONTINUOUS
 62
    7
 10
495.8624575
 20
252.84535249999999
 11
495.87814349999996
 21
252.97463949999999
  0
ARC
  8
_0-0_0
  6
CONTINUOUS
 62
    7
 10
487.92892449999999
 20
253.87464850000001
 40
8
 50
353.54056400000002
 51
358.56744600000002
  0
LINE
  8
_0-0_0
  6
CONTINUOUS
 62
    7
 10
495.92642250000006
 20
253.67465150000001
 11
495.92861949999997
 21
253.80392449999999
  0
LINE
  8
_0-0_0
  6
CONTINUOUS
 62
    7
 10
495.92861949999997
 20
253.80392449999999
 11
495.92892449999999
 21
253.87464850000001
  0
LINE
  8
_0-0_0
  6
CONTINUOUS
 62
    7
 10
496.92892449999999
 20
249.4039305
 11
496.92892449999999
 21
249.2746425
  0
LINE
  8
_0-0_0
  6
CONTINUOUS
 62
    7
 10
496.92892449999999
 20
258.20393350000001
 11
496.92892449999999
 21
258.34535249999999
  0
LINE
  8
_0-0_0
  6
CONTINUOUS
 62
    7
 10
496.92892449999999
 20
258.20393350000001
 11
496.92892449999999
 21
258.07464549999997
  0
LINE
  8
_0-0_0
  6
CONTINUOUS
 62
    7
 10
496.92892449999999
 20
257.37464850000003
 11
496.92892449999999
 21
258.07464549999997
  0
LINE
  8
_0-0_0
  6
CONTINUOUS
 62
    7
 10
496.92892449999999
 20
257.2453615
 11
496.92892449999999
 21
257.37464850000003
  0
LINE
  8
_0-0_0
  6
CONTINUOUS
 62
    7
 10
496.92892449999999
 20
257.1039275
 11
496.92892449999999
 21
257.2453615
  0
LINE
  8
_0-0_0
  6
CONTINUOUS
 62
    7
 10
496.92892449999999
 20
257.1039275
 11
496.92892449999999
 21
256.97463949999997
  0
LINE
  8
_0-0_0
  6
CONTINUOUS
 62
    7
 10
496.92892449999999
 20
256.27464250000003
 11
496.92892449999999
 21
256.97463949999997
  0
LINE
  8
_0-0_0
  6
CONTINUOUS
 62
    7
 10
496.92892449999999
 20
256.14535549999999
 11
496.92892449999999
 21
256.27464250000003
  0
LINE
  8
_0-0_0
  6
CONTINUOUS
 62
    7
 10
496.92892449999999
 20
256.00393650000001
 11
496.92892449999999
 21
256.14535549999999
  0
LINE
  8
_0-0_0
  6
CONTINUOUS
 62
    7
 10
496.92892449999999
 20
256.00393650000001
 11
496.92892449999999
 21
255.87464850000001
  0
LINE
  8
_0-0_0
  6
CONTINUOUS
 62
    7
 10
496.92892449999999
 20
255.17465150000001
 11
496.92892449999999
 21
255.87464850000001
  0
LINE
  8
_0-0_0
  6
CONTINUOUS
 62
    7
 10
496.92892449999999
 20
255.04534950000001
 11
496.92892449999999
 21
255.17465150000001
  0
LINE
  8
_0-0_0
  6
CONTINUOUS
 62
    7
 10
496.92892449999999
 20
254.9039305
 11
496.92892449999999
 21
255.04534950000001
  0
LINE
  8
_0-0_0
  6
CONTINUOUS
 62
    7
 10
496.92892449999999
 20
254.9039305
 11
496.92892449999999
 21
254.7746425
  0
LINE
  8
_0-0_0
  6
CONTINUOUS
 62
    7
 10
496.92892449999999
 20
254.0746455
 11
496.92892449999999
 21
254.7746425
  0
LINE
  8
_0-0_0
  6
CONTINUOUS
 62
    7
 10
496.92892449999999
 20
253.9453585
 11
496.92892449999999
 21
254.0746455
  0
LINE
  8
_0-0_0
  6
CONTINUOUS
 62
    7
 10
496.92892449999999
 20
253.80392449999999
 11
496.92892449999999
 21
253.9453585
  0
LINE
  8
_0-0_0
  6
CONTINUOUS
 62
    7
 10
496.92892449999999
 20
253.80392449999999
 11
496.92892449999999
 21
253.67465150000001
  0
LINE
  8
_0-0_0
  6
CONTINUOUS
 62
    7
 10
496.92892449999999
 20
252.97463949999999
 11
496.92892449999999
 21
253.67465150000001
  0
LINE
  8
_0-0_0
  6
CONTINUOUS
 62
    7
 10
496.92892449999999
 20
252.84535249999999
 11
496.92892449999999
 21
252.97463949999999
  0
LINE
  8
_0-0_0
  6
CONTINUOUS
 62
    7
 10
496.92892449999999
 20
252.70393350000001
 11
496.92892449999999
 21
252.84535249999999
  0
LINE
  8
_0-0_0
  6
CONTINUOUS
 62
    7
 10
496.92892449999999
 20
252.70393350000001
 11
496.92892449999999
 21
252.5746455
  0
LINE
  8
_0-0_0
  6
CONTINUOUS
 62
    7
 10
496.92892449999999
 20
251.87464850000001
 11
496.92892449999999
 21
252.5746455
  0
LINE
  8
_0-0_0
  6
CONTINUOUS
 62
    7
 10
496.92892449999999
 20
251.7453615
 11
496.92892449999999
 21
251.87464850000001
  0
LINE
  8
_0-0_0
  6
CONTINUOUS
 62
    7
 10
496.92892449999999
 20
251.60394250000002
 11
496.92892449999999
 21
251.7453615
  0
LINE
  8
_0-0_0
  6
CONTINUOUS
 62
    7
 10
496.92892449999999
 20
251.60394250000002
 11
496.92892449999999
 21
251.47463949999999
  0
LINE
  8
_0-0_0
  6
CONTINUOUS
 62
    7
 10
496.92892449999999
 20
250.7746425
 11
496.92892449999999
 21
251.47463949999999
  0
LINE
  8
_0-0_0
  6
CONTINUOUS
 62
    7
 10
496.92892449999999
 20
250.64535549999999
 11
496.92892449999999
 21
250.7746425
  0
LINE
  8
_0-0_0
  6
CONTINUOUS
 62
    7
 10
496.92892449999999
 20
250.50393650000001
 11
496.92892449999999
 21
250.64535549999999
  0
LINE
  8
_0-0_0
  6
CONTINUOUS
 62
    7
 10
496.92892449999999
 20
250.50393650000001
 11
496.92892449999999
 21
250.37464850000001
  0
LINE
  8
_0-0_0
  6
CONTINUOUS
 62
    7
 10
496.92892449999999
 20
249.67465150000001
 11
496.92892449999999
 21
250.37464850000001
  0
LINE
  8
_0-0_0
  6
CONTINUOUS
 62
    7
 10
496.92892449999999
 20
249.54534950000001
 11
496.92892449999999
 21
249.67465150000001
  0
LINE
  8
_0-0_0
  6
CONTINUOUS
 62
    7
 10
496.92892449999999
 20
249.4039305
 11
496.92892449999999
 21
249.54534950000001
  0
LINE
  8
_0-0_0
  6
CONTINUOUS
 62
    7
 10
496.92892449999999
 20
235.5746455
 11
496.92892449999999
 21
236.0746455
  0
LINE
  8
_0-0_0
  6
CONTINUOUS
 62
    7
 10
496.92892449999999
 20
264.07464549999997
 11
496.92892449999999
 21
263.4806825
  0
LINE
  8
_0-0_0
  6
CONTINUOUS
 62
    7
 10
496.92892449999999
 20
258.47463949999997
 11
496.92892449999999
 21
263.4806825
  0
LINE
  8
_0-0_0
  6
CONTINUOUS
 62
    7
 10
496.92892449999999
 20
258.34535249999999
 11
496.92892449999999
 21
258.47463949999997
  0
LINE
  8
_0-0_0
  6
CONTINUOUS
 62
    7
 10
43.928932500000002
 20
235.5746455
 11
43.928932500000002
 21
236.0746455
  0
LINE
  8
_0-0_0
  6
CONTINUOUS
 62
    7
 10
43.928932500000002
 20
235.5746455
 11
496.92892449999999
 21
235.5746455
  0
LINE
  8
_0-0_0
  6
CONTINUOUS
 62
    7
 10
43.928932500000002
 20
249.4039305
 11
43.928932500000002
 21
249.54534950000001
  0
LINE
  8
_0-0_0
  6
CONTINUOUS
 62
    7
 10
43.928932500000002
 20
249.4039305
 11
43.928932500000002
 21
249.2746425
  0
LINE
  8
_0-0_0
  6
CONTINUOUS
 62
    7
 10
43.928932500000002
 20
264.07464549999997
 11
43.928932500000002
 21
263.4806825
  0
LINE
  8
_0-0_0
  6
CONTINUOUS
 62
    7
 10
43.928932500000002
 20
258.47463949999997
 11
43.928932500000002
 21
263.4806825
  0
LINE
  8
_0-0_0
  6
CONTINUOUS
 62
    7
 10
43.928932500000002
 20
258.34535249999999
 11
43.928932500000002
 21
258.47463949999997
  0
LINE
  8
_0-0_0
  6
CONTINUOUS
 62
    7
 10
43.928932500000002
 20
258.20393350000001
 11
43.928932500000002
 21
258.34535249999999
  0
LINE
  8
_0-0_0
  6
CONTINUOUS
 62
    7
 10
43.928932500000002
 20
258.20393350000001
 11
43.928932500000002
 21
258.07464549999997
  0
LINE
  8
_0-0_0
  6
CONTINUOUS
 62
    7
 10
43.928932500000002
 20
257.37464850000003
 11
43.928932500000002
 21
258.07464549999997
  0
LINE
  8
_0-0_0
  6
CONTINUOUS
 62
    7
 10
43.928932500000002
 20
257.2453615
 11
43.928932500000002
 21
257.37464850000003
  0
LINE
  8
_0-0_0
  6
CONTINUOUS
 62
    7
 10
43.928932500000002
 20
257.1039275
 11
43.928932500000002
 21
257.2453615
  0
LINE
  8
_0-0_0
  6
CONTINUOUS
 62
    7
 10
43.928932500000002
 20
257.1039275
 11
43.928932500000002
 21
256.97463949999997
  0
LINE
  8
_0-0_0
  6
CONTINUOUS
 62
    7
 10
43.928932500000002
 20
256.27464250000003
 11
43.928932500000002
 21
256.97463949999997
  0
LINE
  8
_0-0_0
  6
CONTINUOUS
 62
    7
 10
43.928932500000002
 20
256.14535549999999
 11
43.928932500000002
 21
256.27464250000003
  0
LINE
  8
_0-0_0
  6
CONTINUOUS
 62
    7
 10
43.928932500000002
 20
256.00393650000001
 11
43.928932500000002
 21
256.14535549999999
  0
LINE
  8
_0-0_0
  6
CONTINUOUS
 62
    7
 10
43.928932500000002
 20
256.00393650000001
 11
43.928932500000002
 21
255.87464850000001
  0
LINE
  8
_0-0_0
  6
CONTINUOUS
 62
    7
 10
43.928932500000002
 20
255.17465150000001
 11
43.928932500000002
 21
255.87464850000001
  0
LINE
  8
_0-0_0
  6
CONTINUOUS
 62
    7
 10
43.928932500000002
 20
255.04534950000001
 11
43.928932500000002
 21
255.17465150000001
  0
LINE
  8
_0-0_0
  6
CONTINUOUS
 62
    7
 10
43.928932500000002
 20
254.9039305
 11
43.928932500000002
 21
255.04534950000001
  0
LINE
  8
_0-0_0
  6
CONTINUOUS
 62
    7
 10
43.928932500000002
 20
254.9039305
 11
43.928932500000002
 21
254.7746425
  0
LINE
  8
_0-0_0
  6
CONTINUOUS
 62
    7
 10
43.928932500000002
 20
254.0746455
 11
43.928932500000002
 21
254.7746425
  0
LINE
  8
_0-0_0
  6
CONTINUOUS
 62
    7
 10
43.928932500000002
 20
253.9453585
 11
43.928932500000002
 21
254.0746455
  0
LINE
  8
_0-0_0
  6
CONTINUOUS
 62
    7
 10
43.928932500000002
 20
253.80392449999999
 11
43.928932500000002
 21
253.9453585
  0
LINE
  8
_0-0_0
  6
CONTINUOUS
 62
    7
 10
43.928932500000002
 20
253.80392449999999
 11
43.928932500000002
 21
253.67465150000001
  0
LINE
  8
_0-0_0
  6
CONTINUOUS
 62
    7
 10
43.928932500000002
 20
252.97463949999999
 11
43.928932500000002
 21
253.67465150000001
  0
LINE
  8
_0-0_0
  6
CONTINUOUS
 62
    7
 10
43.928932500000002
 20
252.84535249999999
 11
43.928932500000002
 21
252.97463949999999
  0
LINE
  8
_0-0_0
  6
CONTINUOUS
 62
    7
 10
43.928932500000002
 20
252.70393350000001
 11
43.928932500000002
 21
252.84535249999999
  0
LINE
  8
_0-0_0
  6
CONTINUOUS
 62
    7
 10
43.928932500000002
 20
252.70393350000001
 11
43.928932500000002
 21
252.5746455
  0
LINE
  8
_0-0_0
  6
CONTINUOUS
 62
    7
 10
43.928932500000002
 20
251.87464850000001
 11
43.928932500000002
 21
252.5746455
  0
LINE
  8
_0-0_0
  6
CONTINUOUS
 62
    7
 10
43.928932500000002
 20
251.7453615
 11
43.928932500000002
 21
251.87464850000001
  0
LINE
  8
_0-0_0
  6
CONTINUOUS
 62
    7
 10
43.928932500000002
 20
251.60394250000002
 11
43.928932500000002
 21
251.7453615
  0
LINE
  8
_0-0_0
  6
CONTINUOUS
 62
    7
 10
43.928932500000002
 20
251.60394250000002
 11
43.928932500000002
 21
251.47463949999999
  0
LINE
  8
_0-0_0
  6
CONTINUOUS
 62
    7
 10
43.928932500000002
 20
250.7746425
 11
43.928932500000002
 21
251.47463949999999
  0
LINE
  8
_0-0_0
  6
CONTINUOUS
 62
    7
 10
43.928932500000002
 20
250.64535549999999
 11
43.928932500000002
 21
250.7746425
  0
LINE
  8
_0-0_0
  6
CONTINUOUS
 62
    7
 10
43.928932500000002
 20
250.50393650000001
 11
43.928932500000002
 21
250.64535549999999
  0
LINE
  8
_0-0_0
  6
CONTINUOUS
 62
    7
 10
43.928932500000002
 20
250.50393650000001
 11
43.928932500000002
 21
250.37464850000001
  0
LINE
  8
_0-0_0
  6
CONTINUOUS
 62
    7
 10
43.928932500000002
 20
249.67465150000001
 11
43.928932500000002
 21
250.37464850000001
  0
LINE
  8
_0-0_0
  6
CONTINUOUS
 62
    7
 10
43.928932500000002
 20
249.54534950000001
 11
43.928932500000002
 21
249.67465150000001
  0
LINE
  8
_0-0_0
  6
CONTINUOUS
 62
    7
 10
430.92892449999999
 20
241.5746455
 11
437.92892449999999
 21
241.5746455
  0
ARC
  8
_0-0_0
  6
CONTINUOUS
 62
    7
 10
430.92892449999999
 20
241.0746455
 40
0.5
 50
90.000003000000007
 51
180.00000900000001
  0
LINE
  8
_0-0_0
  6
CONTINUOUS
 62
    7
 10
430.42892449999999
 20
241.0746455
 11
430.42892449999999
 21
237.0746455
  0
ARC
  8
_0-0_0
  6
CONTINUOUS
 62
    7
 10
430.92892449999999
 20
237.0746455
 40
0.5
 50
180.00000900000003
 51
269.99999700000001
  0
LINE
  8
_0-0_0
  6
CONTINUOUS
 62
    7
 10
437.92892449999999
 20
236.5746455
 11
430.92892449999999
 21
236.5746455
  0
ARC
  8
_0-0_0
  6
CONTINUOUS
 62
    7
 10
437.92892449999999
 20
237.0746455
 40
0.5
 50
269.99999700000001
 51
0
  0
LINE
  8
_0-0_0
  6
CONTINUOUS
 62
    7
 10
438.42892449999999
 20
237.0746455
 11
438.42892449999999
 21
241.0746455
  0
ARC
  8
_0-0_0
  6
CONTINUOUS
 62
    7
 10
437.92892449999999
 20
241.0746455
 40
0.5
 50
0
 51
90.000003000000007
  0
ARC
  8
_0-0_0
  6
CONTINUOUS
 62
    7
 10
110.92892449999999
 20
241.0746455
 40
0.5
 50
90.000003000000007
 51
180.00000900000001
  0
LINE
  8
_0-0_0
  6
CONTINUOUS
 62
    7
 10
110.42892449999999
 20
241.0746455
 11
110.42892449999999
 21
237.0746455
  0
ARC
  8
_0-0_0
  6
CONTINUOUS
 62
    7
 10
110.92892449999999
 20
237.0746455
 40
0.5
 50
180.00000900000003
 51
269.99999700000001
  0
LINE
  8
_0-0_0
  6
CONTINUOUS
 62
    7
 10
117.92892449999999
 20
236.5746455
 11
110.92892449999999
 21
236.5746455
  0
ARC
  8
_0-0_0
  6
CONTINUOUS
 62
    7
 10
117.92892449999999
 20
237.0746455
 40
0.5
 50
269.99999700000001
 51
0
  0
LINE
  8
_0-0_0
  6
CONTINUOUS
 62
    7
 10
118.42892449999999
 20
237.0746455
 11
118.42892449999999
 21
241.0746455
  0
ARC
  8
_0-0_0
  6
CONTINUOUS
 62
    7
 10
117.92892449999999
 20
241.0746455
 40
0.5
 50
0
 51
90.000003000000007
  0
LINE
  8
_0-0_0
  6
CONTINUOUS
 62
    7
 10
110.92892449999999
 20
241.5746455
 11
117.92892449999999
 21
241.5746455
  0
LINE
  8
_0-0_0
  6
CONTINUOUS
 62
    7
 10
43.928932500000002
 20
249.67465150000001
 11
46.120117499999992
 21
249.67465150000001
  0
LINE
  8
_0-0_0
  6
CONTINUOUS
 62
    7
 10
43.928932500000002
 20
250.37464850000001
 11
45.735183500000005
 21
250.37464850000001
  0
LINE
  8
_0-0_0
  6
CONTINUOUS
 62
    7
 10
43.928932500000002
 20
250.7746425
 11
45.553978499999999
 21
250.7746425
  0
LINE
  8
_0-0_0
  6
CONTINUOUS
 62
    7
 10
43.928932500000002
 20
251.47463949999999
 11
45.297416499999997
 21
251.47463949999999
  0
LINE
  8
_0-0_0
  6
CONTINUOUS
 62
    7
 10
43.928932500000002
 20
251.87464850000001
 11
45.182968500000015
 21
251.87464850000001
  0
LINE
  8
_0-0_0
  6
CONTINUOUS
 62
    7
 10
43.928932500000002
 20
252.5746455
 11
45.035263499999985
 21
252.5746455
  0
LINE
  8
_0-0_0
  6
CONTINUOUS
 62
    7
 10
43.928932500000002
 20
252.97463949999999
 11
44.979721500000011
 21
252.97463949999999
  0
LINE
  8
_0-0_0
  6
CONTINUOUS
 62
    7
 10
43.928932500000002
 20
253.67465150000001
 11
44.931434500000023
 21
253.67465150000001
  0
LINE
  8
_0-0_0
  6
CONTINUOUS
 62
    7
 10
44.928932500000002
 20
253.87464850000001
 11
44.929245500000007
 21
253.9453585
  0
LINE
  8
_0-0_0
  6
CONTINUOUS
 62
    7
 10
60.928939500000013
 20
253.87464850000001
 11
60.928619499999996
 21
253.9453585
  0
LINE
  8
_0-0_0
  6
CONTINUOUS
 62
    7
 10
60.92643750000002
 20
254.0746455
 11
60.928619499999996
 21
253.9453585
  0
ARC
  8
_0-0_0
  6
CONTINUOUS
 62
    7
 10
52.928924499999994
 20
253.87464850000001
 40
8
 50
1.432544
 51
6.4594489999999993
  0
LINE
  8
_0-0_0
  6
CONTINUOUS
 62
    7
 10
60.862442500000014
 20
254.9039305
 11
60.878143499999993
 21
254.7746425
  0
LINE
  8
_0-0_0
  6
CONTINUOUS
 62
    7
 10
60.862442500000014
 20
254.9039305
 11
60.8428045
 21
255.04534950000001
  0
LINE
  8
_0-0_0
  6
CONTINUOUS
 62
    7
 10
60.822601500000019
 20
255.17465150000001
 11
60.8428045
 21
255.04534950000001
  0
ARC
  8
_0-0_0
  6
CONTINUOUS
 62
    7
 10
52.928924499999994
 20
253.87464850000001
 40
8
 50
9.3520350000000008
 51
14.477510999999998
  0
LINE
  8
_0-0_0
  6
CONTINUOUS
 62
    7
 10
60.640350500000011
 20
256.00393650000001
 11
60.674896500000017
 21
255.87464850000001
  0
LINE
  8
_0-0_0
  6
CONTINUOUS
 62
    7
 10
60.640350500000011
 20
256.00393650000001
 11
60.599914500000011
 21
256.14535549999999
  0
LINE
  8
_0-0_0
  6
CONTINUOUS
 62
    7
 10
60.560455500000018
 20
256.27464250000003
 11
60.599914500000011
 21
256.14535549999999
  0
ARC
  8
_0-0_0
  6
CONTINUOUS
 62
    7
 10
52.928924499999994
 20
253.87464850000001
 40
8
 50
17.457602999999999
 51
22.799030999999999
  0
LINE
  8
_0-0_0
  6
CONTINUOUS
 62
    7
 10
60.248199499999998
 20
257.1039275
 11
60.303894500000013
 21
256.97463949999997
  0
LINE
  8
_0-0_0
  6
CONTINUOUS
 62
    7
 10
60.248199499999998
 20
257.1039275
 11
60.184158499999995
 21
257.2453615
  0
LINE
  8
_0-0_0
  6
CONTINUOUS
 62
    7
 10
60.122680500000001
 20
257.37464850000003
 11
60.184158499999995
 21
257.2453615
  0
ARC
  8
_0-0_0
  6
CONTINUOUS
 62
    7
 10
52.928924499999994
 20
253.87464850000001
 40
8
 50
25.944476999999999
 51
31.668240000000001
  0
LINE
  8
_0-0_0
  6
CONTINUOUS
 62
    7
 10
59.656280500000008
 20
258.20393350000001
 11
59.737747500000012
 21
258.07464549999997
  0
LINE
  8
_0-0_0
  6
CONTINUOUS
 62
    7
 10
59.656280500000008
 20
258.20393350000001
 11
59.563140500000003
 21
258.34535249999999
  0
LINE
  8
_0-0_0
  6
CONTINUOUS
 62
    7
 10
59.474151500000005
 20
258.47463949999997
 11
59.563140500000003
 21
258.34535249999999
  0
ARC
  8
_0-0_0
  6
CONTINUOUS
 62
    7
 10
52.928924499999994
 20
253.87464850000001
 40
8
 50
35.099632
 51
144.900373
  0
LINE
  8
_0-0_0
  6
CONTINUOUS
 62
    7
 10
46.383705500000019
 20
258.47463949999997
 11
46.294723500000003
 21
258.34535249999999
  0
LINE
  8
_0-0_0
  6
CONTINUOUS
 62
    7
 10
46.201583500000027
 20
258.20393350000001
 11
46.294723500000003
 21
258.34535249999999
  0
LINE
  8
_0-0_0
  6
CONTINUOUS
 62
    7
 10
46.201583500000027
 20
258.20393350000001
 11
46.120117499999992
 21
258.07464549999997
  0
ARC
  8
_0-0_0
  6
CONTINUOUS
 62
    7
 10
52.928924499999994
 20
253.87464850000001
 40
8
 50
148.33176499999999
 51
154.05551800000001
  0
LINE
  8
_0-0_0
  6
CONTINUOUS
 62
    7
 10
45.735183500000005
 20
257.37464850000003
 11
45.673706500000009
 21
257.2453615
  0
LINE
  8
_0-0_0
  6
CONTINUOUS
 62
    7
 10
45.609664500000008
 20
257.1039275
 11
45.673706500000009
 21
257.2453615
  0
LINE
  8
_0-0_0
  6
CONTINUOUS
 62
    7
 10
45.609664500000008
 20
257.1039275
 11
45.553978499999999
 21
256.97463949999997
  0
ARC
  8
_0-0_0
  6
CONTINUOUS
 62
    7
 10
52.928924499999994
 20
253.87464850000001
 40
8
 50
157.20097000000001
 51
162.54239699999999
  0
LINE
  8
_0-0_0
  6
CONTINUOUS
 62
    7
 10
45.297416499999997
 20
256.27464250000003
 11
45.257957500000003
 21
256.14535549999999
  0
LINE
  8
_0-0_0
  6
CONTINUOUS
 62
    7
 10
45.217506500000013
 20
256.00393650000001
 11
45.257957500000003
 21
256.14535549999999
  0
LINE
  8
_0-0_0
  6
CONTINUOUS
 62
    7
 10
45.217506500000013
 20
256.00393650000001
 11
45.182968500000015
 21
255.87464850000001
  0
ARC
  8
_0-0_0
  6
CONTINUOUS
 62
    7
 10
52.928924499999994
 20
253.87464850000001
 40
8
 50
165.52249
 51
170.64796000000001
  0
LINE
  8
_0-0_0
  6
CONTINUOUS
 62
    7
 10
45.035263499999985
 20
255.17465150000001
 11
45.015052500000024
 21
255.04534950000001
  0
LINE
  8
_0-0_0
  6
CONTINUOUS
 62
    7
 10
44.995422500000018
 20
254.9039305
 11
45.015052500000024
 21
255.04534950000001
  0
LINE
  8
_0-0_0
  6
CONTINUOUS
 62
    7
 10
44.995422500000018
 20
254.9039305
 11
44.979721500000011
 21
254.7746425
  0
ARC
  8
_0-0_0
  6
CONTINUOUS
 62
    7
 10
52.928924499999994
 20
253.87464850000001
 40
8
 50
173.54054500000001
 51
178.567455
  0
LINE
  8
_0-0_0
  6
CONTINUOUS
 62
    7
 10
44.931434500000023
 20
254.0746455
 11
44.929245500000007
 21
253.9453585
  0
CIRCLE
  8
_0-0_0
  6
CONTINUOUS
 62
    7
 10
52.928924499999994
 20
253.87464850000001
 40
7.5
  0
LINE
  8
_0-0_0
  6
CONTINUOUS
 62
    7
 10
479.92892449999999
 20
253.87464850000001
 11
479.92922950000002
 21
253.9453585
  0
LINE
  8
_0-0_0
  6
CONTINUOUS
 62
    7
 10
60.92643750000002
 20
253.67465150000001
 11
479.93142750000004
 21
253.67465150000001
  0
LINE
  8
_0-0_0
  6
CONTINUOUS
 62
    7
 10
60.878143499999993
 20
252.97463949999999
 11
479.97970550000002
 21
252.97463949999999
  0
LINE
  8
_0-0_0
  6
CONTINUOUS
 62
    7
 10
60.822601500000019
 20
252.5746455
 11
480.03524749999997
 21
252.5746455
  0
LINE
  8
_0-0_0
  6
CONTINUOUS
 62
    7
 10
60.674896500000017
 20
251.87464850000001
 11
480.18295250000006
 21
251.87464850000001
  0
LINE
  8
_0-0_0
  6
CONTINUOUS
 62
    7
 10
60.560455500000018
 20
251.47463949999999
 11
480.29745449999996
 21
251.47463949999999
  0
LINE
  8
_0-0_0
  6
CONTINUOUS
 62
    7
 10
60.303894500000013
 20
250.7746425
 11
480.55398549999995
 21
250.7746425
  0
LINE
  8
_0-0_0
  6
CONTINUOUS
 62
    7
 10
60.122680500000001
 20
250.37464850000001
 11
480.73519950000002
 21
250.37464850000001
  0
LINE
  8
_0-0_0
  6
CONTINUOUS
 62
    7
 10
59.737747500000012
 20
249.67465150000001
 11
481.12014750000003
 21
249.67465150000001
  0
LINE
  8
_0-0_0
  6
CONTINUOUS
 62
    7
 10
495.92892449999999
 20
253.87464850000001
 11
495.92861949999997
 21
253.9453585
  0
LINE
  8
_0-0_0
  6
CONTINUOUS
 62
    7
 10
495.92642250000006
 20
253.67465150000001
 11
496.92892449999999
 21
253.67465150000001
  0
LINE
  8
_0-0_0
  6
CONTINUOUS
 62
    7
 10
495.87814349999996
 20
252.97463949999999
 11
496.92892449999999
 21
252.97463949999999
  0
LINE
  8
_0-0_0
  6
CONTINUOUS
 62
    7
 10
495.82260150000002
 20
252.5746455
 11
496.92892449999999
 21
252.5746455
  0
LINE
  8
_0-0_0
  6
CONTINUOUS
 62
    7
 10
495.67489650000005
 20
251.87464850000001
 11
496.92892449999999
 21
251.87464850000001
  0
LINE
  8
_0-0_0
  6
CONTINUOUS
 62
    7
 10
495.56045549999999
 20
251.47463949999999
 11
496.92892449999999
 21
251.47463949999999
  0
LINE
  8
_0-0_0
  6
CONTINUOUS
 62
    7
 10
495.30392449999999
 20
250.7746425
 11
496.92892449999999
 21
250.7746425
  0
LINE
  8
_0-0_0
  6
CONTINUOUS
 62
    7
 10
495.12271150000004
 20
250.37464850000001
 11
496.92892449999999
 21
250.37464850000001
  0
LINE
  8
_0-0_0
  6
CONTINUOUS
 62
    7
 10
494.73776250000003
 20
249.67465150000001
 11
496.92892449999999
 21
249.67465150000001
  0
LINE
  8
_0-0_0
  6
CONTINUOUS
 62
    7
 10
494.47415150000006
 20
258.47463949999997
 11
494.56314050000003
 21
258.34535249999999
  0
ARC
  8
_0-0_0
  6
CONTINUOUS
 62
    7
 10
487.92892449999999
 20
253.87464850000001
 40
8
 50
35.099632
 51
144.900373
  0
LINE
  8
_0-0_0
  6
CONTINUOUS
 62
    7
 10
481.38369750000004
 20
258.47463949999997
 11
481.29470849999996
 21
258.34535249999999
  0
LINE
  8
_0-0_0
  6
CONTINUOUS
 62
    7
 10
481.20156850000001
 20
258.20393350000001
 11
481.29470849999996
 21
258.34535249999999
  0
LINE
  8
_0-0_0
  6
CONTINUOUS
 62
    7
 10
481.20156850000001
 20
258.20393350000001
 11
481.12014750000003
 21
258.07464549999997
  0
ARC
  8
_0-0_0
  6
CONTINUOUS
 62
    7
 10
487.92892449999999
 20
253.87464850000001
 40
8
 50
148.33176499999999
 51
154.05551800000001
  0
LINE
  8
_0-0_0
  6
CONTINUOUS
 62
    7
 10
480.73519950000002
 20
257.37464850000003
 11
480.67373650000002
 21
257.2453615
  0
LINE
  8
_0-0_0
  6
CONTINUOUS
 62
    7
 10
480.60964950000005
 20
257.1039275
 11
480.67373650000002
 21
257.2453615
  0
LINE
  8
_0-0_0
  6
CONTINUOUS
 62
    7
 10
480.60964950000005
 20
257.1039275
 11
480.55398549999995
 21
256.97463949999997
  0
ARC
  8
_0-0_0
  6
CONTINUOUS
 62
    7
 10
487.92892449999999
 20
253.87464850000001
 40
8
 50
157.20097000000001
 51
162.54239699999999
  0
LINE
  8
_0-0_0
  6
CONTINUOUS
 62
    7
 10
480.29745449999996
 20
256.27464250000003
 11
480.25796549999995
 21
256.14535549999999
  0
LINE
  8
_0-0_0
  6
CONTINUOUS
 62
    7
 10
480.21749850000003
 20
256.00393650000001
 11
480.25796549999995
 21
256.14535549999999
  0
LINE
  8
_0-0_0
  6
CONTINUOUS
 62
    7
 10
480.21749850000003
 20
256.00393650000001
 11
480.18295250000006
 21
255.87464850000001
  0
ARC
  8
_0-0_0
  6
CONTINUOUS
 62
    7
 10
487.92892449999999
 20
253.87464850000001
 40
8
 50
165.52249
 51
170.64796000000001
  0
LINE
  8
_0-0_0
  6
CONTINUOUS
 62
    7
 10
480.03524749999997
 20
255.17465150000001
 11
480.01504550000004
 21
255.04534950000001
  0
LINE
  8
_0-0_0
  6
CONTINUOUS
 62
    7
 10
479.99545250000006
 20
254.9039305
 11
480.01504550000004
 21
255.04534950000001
  0
LINE
  8
_0-0_0
  6
CONTINUOUS
 62
    7
 10
479.99545250000006
 20
254.9039305
 11
479.97970550000002
 21
254.7746425
  0
ARC
  8
_0-0_0
  6
CONTINUOUS
 62
    7
 10
487.92892449999999
 20
253.87464850000001
 40
8
 50
173.54054500000001
 51
178.567455
  0
LINE
  8
_0-0_0
  6
CONTINUOUS
 62
    7
 10
479.93142750000004
 20
254.0746455
 11
479.92922950000002
 21
253.9453585
  0
LINE
  8
_0-0_0
  6
CONTINUOUS
 62
    7
 10
495.92642250000006
 20
254.0746455
 11
495.92861949999997
 21
253.9453585
  0
ARC
  8
_0-0_0
  6
CONTINUOUS
 62
    7
 10
487.92892449999999
 20
253.87464850000001
 40
8
 50
1.432544
 51
6.4594489999999993
  0
LINE
  8
_0-0_0
  6
CONTINUOUS
 62
    7
 10
495.8624575
 20
254.9039305
 11
495.87814349999996
 21
254.7746425
  0
LINE
  8
_0-0_0
  6
CONTINUOUS
 62
    7
 10
495.8624575
 20
254.9039305
 11
495.84280450000006
 21
255.04534950000001
  0
LINE
  8
_0-0_0
  6
CONTINUOUS
 62
    7
 10
495.82260150000002
 20
255.17465150000001
 11
495.84280450000006
 21
255.04534950000001
  0
ARC
  8
_0-0_0
  6
CONTINUOUS
 62
    7
 10
487.92892449999999
 20
253.87464850000001
 40
8
 50
9.3520350000000008
 51
14.477510999999998
  0
LINE
  8
_0-0_0
  6
CONTINUOUS
 62
    7
 10
495.64035049999995
 20
256.00393650000001
 11
495.67489650000005
 21
255.87464850000001
  0
LINE
  8
_0-0_0
  6
CONTINUOUS
 62
    7
 10
495.64035049999995
 20
256.00393650000001
 11
495.59994549999999
 21
256.14535549999999
  0
LINE
  8
_0-0_0
  6
CONTINUOUS
 62
    7
 10
495.56045549999999
 20
256.27464250000003
 11
495.59994549999999
 21
256.14535549999999
  0
ARC
  8
_0-0_0
  6
CONTINUOUS
 62
    7
 10
487.92892449999999
 20
253.87464850000001
 40
8
 50
17.457602999999999
 51
22.799030999999999
  0
LINE
  8
_0-0_0
  6
CONTINUOUS
 62
    7
 10
495.24819950000006
 20
257.1039275
 11
495.30392449999999
 21
256.97463949999997
  0
LINE
  8
_0-0_0
  6
CONTINUOUS
 62
    7
 10
495.24819950000006
 20
257.1039275
 11
495.18417350000004
 21
257.2453615
  0
LINE
  8
_0-0_0
  6
CONTINUOUS
 62
    7
 10
495.12271150000004
 20
257.37464850000003
 11
495.18417350000004
 21
257.2453615
  0
ARC
  8
_0-0_0
  6
CONTINUOUS
 62
    7
 10
487.92892449999999
 20
253.87464850000001
 40
8
 50
25.944476999999999
 51
31.668240000000001
  0
LINE
  8
_0-0_0
  6
CONTINUOUS
 62
    7
 10
494.65628049999998
 20
258.20393350000001
 11
494.73776250000003
 21
258.07464549999997
  0
LINE
  8
_0-0_0
  6
CONTINUOUS
 62
    7
 10
494.65628049999998
 20
258.20393350000001
 11
494.56314050000003
 21
258.34535249999999
  0
CIRCLE
  8
_0-0_0
  6
CONTINUOUS
 62
    7
 10
487.92892449999999
 20
253.87464850000001
 40
7.5
  0
LINE
  8
_0-0_0
  6
CONTINUOUS
 62
    7
 10
494.73776250000003
 20
258.07464549999997
 11
496.92892449999999
 21
258.07464549999997
  0
LINE
  8
_0-0_0
  6
CONTINUOUS
 62
    7
 10
495.12271150000004
 20
257.37464850000003
 11
496.92892449999999
 21
257.37464850000003
  0
LINE
  8
_0-0_0
  6
CONTINUOUS
 62
    7
 10
495.30392449999999
 20
256.97463949999997
 11
496.92892449999999
 21
256.97463949999997
  0
LINE
  8
_0-0_0
  6
CONTINUOUS
 62
    7
 10
495.56045549999999
 20
256.27464250000003
 11
496.92892449999999
 21
256.27464250000003
  0
LINE
  8
_0-0_0
  6
CONTINUOUS
 62
    7
 10
495.67489650000005
 20
255.87464850000001
 11
496.92892449999999
 21
255.87464850000001
  0
LINE
  8
_0-0_0
  6
CONTINUOUS
 62
    7
 10
495.82260150000002
 20
255.17465150000001
 11
496.92892449999999
 21
255.17465150000001
  0
LINE
  8
_0-0_0
  6
CONTINUOUS
 62
    7
 10
495.87814349999996
 20
254.7746425
 11
496.92892449999999
 21
254.7746425
  0
LINE
  8
_0-0_0
  6
CONTINUOUS
 62
    7
 10
495.92642250000006
 20
254.0746455
 11
496.92892449999999
 21
254.0746455
  0
LINE
  8
_0-0_0
  6
CONTINUOUS
 62
    7
 10
497.42892449999999
 20
237.37464850000001
 11
496.92892449999999
 21
237.37464850000001
  0
LINE
  8
_0-0_0
  6
CONTINUOUS
 62
    7
 10
497.42892449999999
 20
239.5746455
 11
496.92892449999999
 21
239.5746455
  0
LINE
  8
_0-0_0
  6
CONTINUOUS
 62
    7
 10
497.42892449999999
 20
241.87464850000001
 11
496.92892449999999
 21
241.87464850000001
  0
LINE
  8
_0-0_0
  6
CONTINUOUS
 62
    7
 10
496.92892449999999
 20
244.17465150000001
 11
497.42892449999999
 21
244.17465150000001
  0
LINE
  8
_0-0_0
  6
CONTINUOUS
 62
    7
 10
497.42892449999999
 20
264.37464850000003
 11
497.42892449999999
 21
264.27464250000003
  0
LINE
  8
_0-0_0
  6
CONTINUOUS
 62
    7
 10
43.428932500000002
 20
264.37464850000003
 11
43.428932500000002
 21
264.27464250000003
  0
LINE
  8
_0-0_0
  6
CONTINUOUS
 62
    7
 10
43.428932500000002
 20
244.17465150000001
 11
43.928932500000002
 21
244.17465150000001
  0
LINE
  8
_0-0_0
  6
CONTINUOUS
 62
    7
 10
43.928932500000002
 20
264.07464549999997
 11
496.92892449999999
 21
264.07464549999997
  0
LINE
  8
_0-0_0
  6
CONTINUOUS
 62
    7
 10
43.928932500000002
 20
263.4806825
 11
496.92892449999999
 21
263.4806825
  0
LINE
  8
_0-0_0
  6
CONTINUOUS
 62
    7
 10
59.474151500000005
 20
258.47463949999997
 11
481.38369750000004
 21
258.47463949999997
  0
LINE
  8
_0-0_0
  6
CONTINUOUS
 62
    7
 10
494.47415150000006
 20
258.47463949999997
 11
496.92892449999999
 21
258.47463949999997
  0
LINE
  8
_0-0_0
  6
CONTINUOUS
 62
    7
 10
43.928932500000002
 20
258.47463949999997
 11
46.383705500000019
 21
258.47463949999997
  0
LINE
  8
_0-0_0
  6
CONTINUOUS
 62
    7
 10
43.428932500000002
 20
237.37464850000001
 11
43.928932500000002
 21
237.37464850000001
  0
LINE
  8
_0-0_0
  6
CONTINUOUS
 62
    7
 10
43.428932500000002
 20
239.5746455
 11
43.928932500000002
 21
239.5746455
  0
LINE
  8
_0-0_0
  6
CONTINUOUS
 62
    7
 10
43.428932500000002
 20
241.87464850000001
 11
43.928932500000002
 21
241.87464850000001
  0
LINE
  8
_0-0_0
  6
CONTINUOUS
 62
    7
 10
43.928932500000002
 20
258.07464549999997
 11
46.120117499999992
 21
258.07464549999997
  0
LINE
  8
_0-0_0
  6
CONTINUOUS
 62
    7
 10
43.928932500000002
 20
257.37464850000003
 11
45.735183500000005
 21
257.37464850000003
  0
LINE
  8
_0-0_0
  6
CONTINUOUS
 62
    7
 10
43.928932500000002
 20
256.97463949999997
 11
45.553978499999999
 21
256.97463949999997
  0
LINE
  8
_0-0_0
  6
CONTINUOUS
 62
    7
 10
43.928932500000002
 20
256.27464250000003
 11
45.297416499999997
 21
256.27464250000003
  0
LINE
  8
_0-0_0
  6
CONTINUOUS
 62
    7
 10
43.928932500000002
 20
255.87464850000001
 11
45.182968500000015
 21
255.87464850000001
  0
LINE
  8
_0-0_0
  6
CONTINUOUS
 62
    7
 10
43.928932500000002
 20
255.17465150000001
 11
45.035263499999985
 21
255.17465150000001
  0
LINE
  8
_0-0_0
  6
CONTINUOUS
 62
    7
 10
43.928932500000002
 20
254.7746425
 11
44.979721500000011
 21
254.7746425
  0
LINE
  8
_0-0_0
  6
CONTINUOUS
 62
    7
 10
43.928932500000002
 20
254.0746455
 11
44.931434500000023
 21
254.0746455
  0
LINE
  8
_0-0_0
  6
CONTINUOUS
 62
    7
 10
59.737747500000012
 20
258.07464549999997
 11
481.12014750000003
 21
258.07464549999997
  0
LINE
  8
_0-0_0
  6
CONTINUOUS
 62
    7
 10
60.122680500000001
 20
257.37464850000003
 11
480.73519950000002
 21
257.37464850000003
  0
LINE
  8
_0-0_0
  6
CONTINUOUS
 62
    7
 10
60.303894500000013
 20
256.97463949999997
 11
480.55398549999995
 21
256.97463949999997
  0
LINE
  8
_0-0_0
  6
CONTINUOUS
 62
    7
 10
60.560455500000018
 20
256.27464250000003
 11
480.29745449999996
 21
256.27464250000003
  0
LINE
  8
_0-0_0
  6
CONTINUOUS
 62
    7
 10
60.674896500000017
 20
255.87464850000001
 11
480.18295250000006
 21
255.87464850000001
  0
LINE
  8
_0-0_0
  6
CONTINUOUS
 62
    7
 10
60.822601500000019
 20
255.17465150000001
 11
480.03524749999997
 21
255.17465150000001
  0
LINE
  8
_0-0_0
  6
CONTINUOUS
 62
    7
 10
60.878143499999993
 20
254.7746425
 11
479.97970550000002
 21
254.7746425
  0
LINE
  8
_0-0_0
  6
CONTINUOUS
 62
    7
 10
60.92643750000002
 20
254.0746455
 11
479.93142750000004
 21
254.0746455
  0
LINE
  8
_0-0_0
  6
CONTINUOUS
 62
    7
 10
497.42892449999999
 20
235.87464850000001
 11
496.92892449999999
 21
235.87464850000001
  0
LINE
  8
_0-0_0
  6
CONTINUOUS
 62
    7
 10
497.42892449999999
 20
263.47463949999997
 11
497.42892449999999
 21
264.27464250000003
  0
LINE
  8
_0-0_0
  6
CONTINUOUS
 62
    7
 10
497.42892449999999
 20
235.67465150000001
 11
497.42892449999999
 21
263.47463949999997
  0
LINE
  8
_0-0_0
  6
CONTINUOUS
 62
    7
 10
43.428932500000002
 20
263.47463949999997
 11
43.428932500000002
 21
264.27464250000003
  0
LINE
  8
_0-0_0
  6
CONTINUOUS
 62
    7
 10
43.428932500000002
 20
235.67465150000001
 11
43.428932500000002
 21
263.47463949999997
  0
ARC
  8
_0-0_0
  6
CONTINUOUS
 62
    7
 10
52.928924499999994
 20
254.5746455
 40
12.800000000000001
 50
73.932597000000001
 51
106.06740099999999
  0
ARC
  8
_0-0_0
  6
CONTINUOUS
 62
    7
 10
487.92892449999999
 20
254.5746455
 40
12.800000000000001
 50
73.932597000000001
 51
106.06740099999999
  0
LINE
  8
_0-0_0
  6
CONTINUOUS
 62
    7
 10
497.42892449999999
 20
264.37464850000003
 11
497.42892449999999
 21
266.87464850000003
  0
LINE
  8
_0-0_0
  6
CONTINUOUS
 62
    7
 10
43.428932500000002
 20
266.87464850000003
 11
497.42892449999999
 21
266.87464850000003
  0
LINE
  8
_0-0_0
  6
CONTINUOUS
 62
    7
 10
43.428932500000002
 20
264.37464850000003
 11
43.428932500000002
 21
266.87464850000003
  0
LINE
  8
_0-0_0
  6
CONTINUOUS
 62
    7
 10
43.428932500000002
 20
235.87464850000001
 11
43.928932500000002
 21
235.87464850000001
  0
ARC
  8
_0-0_0
  6
CONTINUOUS
 62
    7
 10
435.72891249999998
 20
240.7746425
 40
0.2
 50
339.62356199999999
 51
90.000002999999978
  0
LINE
  8
_0-0_0
  6
CONTINUOUS
 62
    7
 10
435.91641249999998
 20
240.70500150000001
 11
434.61642449999999
 21
237.20500150000001
  0
ARC
  8
_0-0_0
  6
CONTINUOUS
 62
    7
 10
434.42892449999999
 20
237.2746425
 40
0.2
 50
200.37643
 51
339.62356199999999
  0
LINE
  8
_0-0_0
  6
CONTINUOUS
 62
    7
 10
432.94143650000001
 20
240.70500150000001
 11
434.24142449999999
 21
237.20500150000001
  0
ARC
  8
_0-0_0
  6
CONTINUOUS
 62
    7
 10
433.12893650000001
 20
240.7746425
 40
0.2
 50
90.000003000000007
 51
200.37643
  0
LINE
  8
_0-0_0
  6
CONTINUOUS
 62
    7
 10
433.12893650000001
 20
240.97463949999999
 11
435.72891249999998
 21
240.97463949999999
  0
ARC
  8
_0-0_0
  6
CONTINUOUS
 62
    7
 10
115.7289275
 20
240.7746425
 40
0.2
 50
339.62356199999999
 51
90.000002999999978
  0
LINE
  8
_0-0_0
  6
CONTINUOUS
 62
    7
 10
115.91641250000001
 20
240.70500150000001
 11
114.6164095
 21
237.20500150000001
  0
ARC
  8
_0-0_0
  6
CONTINUOUS
 62
    7
 10
114.42892449999999
 20
237.2746425
 40
0.2
 50
200.37643
 51
339.62356199999999
  0
LINE
  8
_0-0_0
  6
CONTINUOUS
 62
    7
 10
112.94143650000001
 20
240.70500150000001
 11
114.24143950000001
 21
237.20500150000001
  0
ARC
  8
_0-0_0
  6
CONTINUOUS
 62
    7
 10
113.12892150000002
 20
240.7746425
 40
0.2
 50
90.000003000000007
 51
200.37643
  0
LINE
  8
_0-0_0
  6
CONTINUOUS
 62
    7
 10
113.12892150000002
 20
240.97463949999999
 11
115.7289275
 21
240.97463949999999
  0
CIRCLE
  8
_0-0_0
  6
CONTINUOUS
 62
    7
 10
52.928924499999994
 20
253.87464850000001
 40
5
  0
CIRCLE
  8
_0-0_0
  6
CONTINUOUS
 62
    7
 10
487.92892449999999
 20
253.87464850000001
 40
5
  0
LINE
  8
_0-0_0
  6
CONTINUOUS
 62
    7
 10
498.42892449999999
 20
263.47463949999997
 11
497.42892449999999
 21
263.47463949999997
  0
LINE
  8
_0-0_0
  6
CONTINUOUS
 62
    7
 10
498.42892449999999
 20
264.51162750000003
 11
497.42892449999999
 21
264.51162750000003
  0
LINE
  8
_0-0_0
  6
CONTINUOUS
 62
    7
 10
498.42892449999999
 20
235.67465150000001
 11
497.42892449999999
 21
235.67465150000001
  0
LINE
  8
_0-0_0
  6
CONTINUOUS
 62
    7
 10
42.428932500000002
 20
263.47463949999997
 11
43.428932500000002
 21
263.47463949999997
  0
LINE
  8
_0-0_0
  6
CONTINUOUS
 62
    7
 10
42.428932500000002
 20
264.47463949999997
 11
43.428932500000002
 21
264.47463949999997
  0
LINE
  8
_0-0_0
  6
CONTINUOUS
 62
    7
 10
42.428932500000002
 20
235.67465150000001
 11
43.428932500000002
 21
235.67465150000001
  0
LINE
  8
_0-0_0
  6
CONTINUOUS
 62
    7
 10
498.42892449999999
 20
266.67465149999998
 11
497.42892449999999
 21
266.67465149999998
  0
LINE
  8
_0-0_0
  6
CONTINUOUS
 62
    7
 10
42.428932500000002
 20
266.67465149999998
 11
43.428932500000002
 21
266.67465149999998
  0
LINE
  8
_0-0_0
  6
CONTINUOUS
 62
    7
 10
499.42892449999999
 20
263.06042450000001
 11
499.42794849999996
 21
263.07893350000001
  0
LINE
  8
_0-0_0
  6
CONTINUOUS
 62
    7
 10
499.42794849999996
 20
263.07893350000001
 11
499.4249575
 21
263.09738149999998
  0
LINE
  8
_0-0_0
  6
CONTINUOUS
 62
    7
 10
499.4249575
 20
263.09738149999998
 11
499.41970849999996
 21
263.11651549999999
  0
LINE
  8
_0-0_0
  6
CONTINUOUS
 62
    7
 10
499.41970849999996
 20
263.11651549999999
 11
499.41232349999996
 21
263.13552849999996
  0
LINE
  8
_0-0_0
  6
CONTINUOUS
 62
    7
 10
499.41232349999996
 20
263.13552849999996
 11
499.39175450000005
 21
263.17224150000004
  0
LINE
  8
_0-0_0
  6
CONTINUOUS
 62
    7
 10
499.39175450000005
 20
263.17224150000004
 11
499.36337249999997
 21
263.20793149999997
  0
LINE
  8
_0-0_0
  6
CONTINUOUS
 62
    7
 10
499.36337249999997
 20
263.20793149999997
 11
499.32748449999997
 21
263.24221750000004
  0
LINE
  8
_0-0_0
  6
CONTINUOUS
 62
    7
 10
499.32748449999997
 20
263.24221750000004
 11
499.27890049999996
 21
263.27867149999997
  0
LINE
  8
_0-0_0
  6
CONTINUOUS
 62
    7
 10
499.27890049999996
 20
263.27867149999997
 11
499.22207649999996
 21
263.31268249999999
  0
LINE
  8
_0-0_0
  6
CONTINUOUS
 62
    7
 10
499.22207649999996
 20
263.31268249999999
 11
499.15792850000003
 21
263.34393249999999
  0
LINE
  8
_0-0_0
  6
CONTINUOUS
 62
    7
 10
499.15792850000003
 20
263.34393249999999
 11
499.08731050000006
 21
263.37219249999998
  0
LINE
  8
_0-0_0
  6
CONTINUOUS
 62
    7
 10
499.08731050000006
 20
263.37219249999998
 11
499.03921549999995
 21
263.38853449999999
  0
LINE
  8
_0-0_0
  6
CONTINUOUS
 62
    7
 10
499.03921549999995
 20
263.38853449999999
 11
498.98910550000005
 21
263.40353349999998
  0
LINE
  8
_0-0_0
  6
CONTINUOUS
 62
    7
 10
498.98910550000005
 20
263.40353349999998
 11
498.93240349999996
 21
263.41830449999998
  0
LINE
  8
_0-0_0
  6
CONTINUOUS
 62
    7
 10
498.93240349999996
 20
263.41830449999998
 11
498.87380949999999
 21
263.43139650000001
  0
LINE
  8
_0-0_0
  6
CONTINUOUS
 62
    7
 10
498.87380949999999
 20
263.43139650000001
 11
498.75698850000003
 21
263.45172149999996
  0
LINE
  8
_0-0_0
  6
CONTINUOUS
 62
    7
 10
498.75698850000003
 20
263.45172149999996
 11
498.64956649999999
 21
263.46443149999999
  0
LINE
  8
_0-0_0
  6
CONTINUOUS
 62
    7
 10
498.64956649999999
 20
263.46443149999999
 11
498.53982550000001
 21
263.47209150000003
  0
LINE
  8
_0-0_0
  6
CONTINUOUS
 62
    7
 10
498.53982550000001
 20
263.47209150000003
 11
498.42892449999999
 21
263.47463949999997
  0
LINE
  8
_0-0_0
  6
CONTINUOUS
 62
    7
 10
499.42892449999999
 20
263.06042450000001
 11
499.42892449999999
 21
264.06048550000003
  0
LINE
  8
_0-0_0
  6
CONTINUOUS
 62
    7
 10
499.42892449999999
 20
264.06048550000003
 11
499.42605549999996
 21
264.09207149999997
  0
LINE
  8
_0-0_0
  6
CONTINUOUS
 62
    7
 10
499.42605549999996
 20
264.09207149999997
 11
499.41732750000006
 21
264.1241455
  0
LINE
  8
_0-0_0
  6
CONTINUOUS
 62
    7
 10
499.41732750000006
 20
264.1241455
 11
499.40274050000005
 21
264.15641749999998
  0
LINE
  8
_0-0_0
  6
CONTINUOUS
 62
    7
 10
499.40274050000005
 20
264.15641749999998
 11
499.38253750000001
 21
264.18856749999998
  0
LINE
  8
_0-0_0
  6
CONTINUOUS
 62
    7
 10
499.38253750000001
 20
264.18856749999998
 11
499.36593649999998
 21
264.20980850000001
  0
LINE
  8
_0-0_0
  6
CONTINUOUS
 62
    7
 10
499.36593649999998
 20
264.20980850000001
 11
499.3470155
 21
264.23075849999998
  0
LINE
  8
_0-0_0
  6
CONTINUOUS
 62
    7
 10
499.3470155
 20
264.23075849999998
 11
499.30227650000006
 21
264.27153050000004
  0
LINE
  8
_0-0_0
  6
CONTINUOUS
 62
    7
 10
499.30227650000006
 20
264.27153050000004
 11
499.24899249999999
 21
264.31028750000002
  0
LINE
  8
_0-0_0
  6
CONTINUOUS
 62
    7
 10
499.24899249999999
 20
264.31028750000002
 11
499.19906649999996
 21
264.3404845
  0
LINE
  8
_0-0_0
  6
CONTINUOUS
 62
    7
 10
499.19906649999996
 20
264.3404845
 11
499.14437850000002
 21
264.36871350000001
  0
LINE
  8
_0-0_0
  6
CONTINUOUS
 62
    7
 10
499.14437850000002
 20
264.36871350000001
 11
499.08541850000006
 21
264.3947445
  0
LINE
  8
_0-0_0
  6
CONTINUOUS
 62
    7
 10
499.08541850000006
 20
264.3947445
 11
499.03866549999998
 21
264.4127345
  0
LINE
  8
_0-0_0
  6
CONTINUOUS
 62
    7
 10
499.03866549999998
 20
264.4127345
 11
498.98995950000005
 21
264.4293515
  0
LINE
  8
_0-0_0
  6
CONTINUOUS
 62
    7
 10
498.98995950000005
 20
264.4293515
 11
498.88760349999995
 21
264.45822150000004
  0
LINE
  8
_0-0_0
  6
CONTINUOUS
 62
    7
 10
498.88760349999995
 20
264.45822150000004
 11
498.77981550000004
 21
264.48104850000004
  0
LINE
  8
_0-0_0
  6
CONTINUOUS
 62
    7
 10
498.77981550000004
 20
264.48104850000004
 11
498.66824350000002
 21
264.4976345
  0
LINE
  8
_0-0_0
  6
CONTINUOUS
 62
    7
 10
498.66824350000002
 20
264.4976345
 11
498.55416850000006
 21
264.50784250000004
  0
LINE
  8
_0-0_0
  6
CONTINUOUS
 62
    7
 10
498.55416850000006
 20
264.50784250000004
 11
498.42892449999999
 21
264.51162750000003
  0
ARC
  8
_0-0_0
  6
CONTINUOUS
 62
    7
 10
498.42892449999999
 20
236.67465150000001
 40
1
 50
269.99999700000001
 51
0
  0
LINE
  8
_0-0_0
  6
CONTINUOUS
 62
    7
 10
499.42892449999999
 20
236.67465150000001
 11
499.42892449999999
 21
263.06042450000001
  0
LINE
  8
_0-0_0
  6
CONTINUOUS
 62
    7
 10
41.428932500000002
 20
263.06042450000001
 11
41.429931500000009
 21
263.07893350000001
  0
LINE
  8
_0-0_0
  6
CONTINUOUS
 62
    7
 10
41.429931500000009
 20
263.07893350000001
 11
41.432930499999998
 21
263.09738149999998
  0
LINE
  8
_0-0_0
  6
CONTINUOUS
 62
    7
 10
41.432930499999998
 20
263.09738149999998
 11
41.438163500000002
 21
263.11651549999999
  0
LINE
  8
_0-0_0
  6
CONTINUOUS
 62
    7
 10
41.438163500000002
 20
263.11651549999999
 11
41.44554149999999
 21
263.13552849999996
  0
LINE
  8
_0-0_0
  6
CONTINUOUS
 62
    7
 10
41.44554149999999
 20
263.13552849999996
 11
41.466095499999994
 21
263.17224150000004
  0
LINE
  8
_0-0_0
  6
CONTINUOUS
 62
    7
 10
41.466095499999994
 20
263.17224150000004
 11
41.494491500000009
 21
263.20793149999997
  0
LINE
  8
_0-0_0
  6
CONTINUOUS
 62
    7
 10
41.494491500000009
 20
263.20793149999997
 11
41.530372499999999
 21
263.24221750000004
  0
LINE
  8
_0-0_0
  6
CONTINUOUS
 62
    7
 10
41.530372499999999
 20
263.24221750000004
 11
41.578994500000022
 21
263.27867149999997
  0
LINE
  8
_0-0_0
  6
CONTINUOUS
 62
    7
 10
41.578994500000022
 20
263.27867149999997
 11
41.63578050000001
 21
263.31268249999999
  0
LINE
  8
_0-0_0
  6
CONTINUOUS
 62
    7
 10
41.63578050000001
 20
263.31268249999999
 11
41.699920500000019
 21
263.34393249999999
  0
LINE
  8
_0-0_0
  6
CONTINUOUS
 62
    7
 10
41.699920500000019
 20
263.34393249999999
 11
41.770568500000024
 21
263.37219249999998
  0
LINE
  8
_0-0_0
  6
CONTINUOUS
 62
    7
 10
41.770568500000024
 20
263.37219249999998
 11
41.818649499999992
 21
263.38853449999999
  0
LINE
  8
_0-0_0
  6
CONTINUOUS
 62
    7
 10
41.818649499999992
 20
263.38853449999999
 11
41.868789499999991
 21
263.40353349999998
  0
LINE
  8
_0-0_0
  6
CONTINUOUS
 62
    7
 10
41.868789499999991
 20
263.40353349999998
 11
41.925491500000021
 21
263.41830449999998
  0
LINE
  8
_0-0_0
  6
CONTINUOUS
 62
    7
 10
41.925491500000021
 20
263.41830449999998
 11
41.984092500000003
 21
263.43139650000001
  0
LINE
  8
_0-0_0
  6
CONTINUOUS
 62
    7
 10
41.984092500000003
 20
263.43139650000001
 11
42.100875500000001
 21
263.45172149999996
  0
LINE
  8
_0-0_0
  6
CONTINUOUS
 62
    7
 10
42.100875500000001
 20
263.45172149999996
 11
42.208282499999996
 21
263.46443149999999
  0
LINE
  8
_0-0_0
  6
CONTINUOUS
 62
    7
 10
42.208282499999996
 20
263.46443149999999
 11
42.318046500000008
 21
263.47209150000003
  0
LINE
  8
_0-0_0
  6
CONTINUOUS
 62
    7
 10
42.318046500000008
 20
263.47209150000003
 11
42.428932500000002
 21
263.47463949999997
  0
LINE
  8
_0-0_0
  6
CONTINUOUS
 62
    7
 10
41.428932500000002
 20
264.03009050000003
 11
41.431823500000007
 21
264.06100449999997
  0
LINE
  8
_0-0_0
  6
CONTINUOUS
 62
    7
 10
41.431823500000007
 20
264.06100449999997
 11
41.440521499999988
 21
264.09243749999996
  0
LINE
  8
_0-0_0
  6
CONTINUOUS
 62
    7
 10
41.440521499999988
 20
264.09243749999996
 11
41.455001500000009
 21
264.12411450000002
  0
LINE
  8
_0-0_0
  6
CONTINUOUS
 62
    7
 10
41.455001500000009
 20
264.12411450000002
 11
41.475174500000008
 21
264.15570049999997
  0
LINE
  8
_0-0_0
  6
CONTINUOUS
 62
    7
 10
41.475174500000008
 20
264.15570049999997
 11
41.491691500000002
 21
264.17657450000002
  0
LINE
  8
_0-0_0
  6
CONTINUOUS
 62
    7
 10
41.491691500000002
 20
264.17657450000002
 11
41.510597500000017
 21
264.19718950000004
  0
LINE
  8
_0-0_0
  6
CONTINUOUS
 62
    7
 10
41.510597500000017
 20
264.19718950000004
 11
41.555236500000007
 21
264.23733549999997
  0
LINE
  8
_0-0_0
  6
CONTINUOUS
 62
    7
 10
41.555236500000007
 20
264.23733549999997
 11
41.608367499999986
 21
264.27554350000003
  0
LINE
  8
_0-0_0
  6
CONTINUOUS
 62
    7
 10
41.608367499999986
 20
264.27554350000003
 11
41.658264500000001
 21
264.30535850000001
  0
LINE
  8
_0-0_0
  6
CONTINUOUS
 62
    7
 10
41.658264500000001
 20
264.30535850000001
 11
41.712936500000012
 21
264.3332365
  0
LINE
  8
_0-0_0
  6
CONTINUOUS
 62
    7
 10
41.712936500000012
 20
264.3332365
 11
41.771904500000005
 21
264.35896249999996
  0
LINE
  8
_0-0_0
  6
CONTINUOUS
 62
    7
 10
41.771904500000005
 20
264.35896249999996
 11
41.818664500000011
 21
264.3767545
  0
LINE
  8
_0-0_0
  6
CONTINUOUS
 62
    7
 10
41.818664500000011
 20
264.3767545
 11
41.867370499999993
 21
264.39318850000001
  0
LINE
  8
_0-0_0
  6
CONTINUOUS
 62
    7
 10
41.867370499999993
 20
264.39318850000001
 11
41.969802500000014
 21
264.42175250000003
  0
LINE
  8
_0-0_0
  6
CONTINUOUS
 62
    7
 10
41.969802500000014
 20
264.42175250000003
 11
42.077621500000021
 21
264.4443665
  0
LINE
  8
_0-0_0
  6
CONTINUOUS
 62
    7
 10
42.077621500000021
 20
264.4443665
 11
42.18930850000001
 21
264.46076949999997
  0
LINE
  8
_0-0_0
  6
CONTINUOUS
 62
    7
 10
42.18930850000001
 20
264.46076949999997
 11
42.303466500000013
 21
264.47088650000001
  0
LINE
  8
_0-0_0
  6
CONTINUOUS
 62
    7
 10
42.303466500000013
 20
264.47088650000001
 11
42.428932500000002
 21
264.47463949999997
  0
LINE
  8
_0-0_0
  6
CONTINUOUS
 62
    7
 10
41.428932500000002
 20
263.06042450000001
 11
41.428932500000002
 21
264.03009050000003
  0
ARC
  8
_0-0_0
  6
CONTINUOUS
 62
    7
 10
42.428932500000002
 20
236.67465150000001
 40
1
 50
180.00000900000003
 51
269.99999700000001
  0
LINE
  8
_0-0_0
  6
CONTINUOUS
 62
    7
 10
41.428932500000002
 20
236.67465150000001
 11
41.428932500000002
 21
263.06042450000001
  0
LINE
  8
_0-0_0
  6
CONTINUOUS
 62
    7
 10
499.42892449999999
 20
264.06048550000003
 11
499.42892449999999
 21
265.67465149999998
  0
ARC
  8
_0-0_0
  6
CONTINUOUS
 62
    7
 10
498.42892449999999
 20
265.67465149999998
 40
1
 50
0
 51
90.000003000000007
  0
ARC
  8
_0-0_0
  6
CONTINUOUS
 62
    7
 10
42.428932500000002
 20
265.67465149999998
 40
1
 50
90.000003000000007
 51
180.00000900000001
  0
LINE
  8
_0-0_0
  6
CONTINUOUS
 62
    7
 10
41.428932500000002
 20
264.03009050000003
 11
41.428932500000002
 21
265.67465149999998
  0
LINE
  8
_0-0_0
  6
CONTINUOUS
 62
    7
 10
-46.386741499999971
 20
233.5745695
 11
-46.386741499999971
 21
233.5495755
  0
LINE
  8
_0-0_0
  6
CONTINUOUS
 62
    7
 10
-46.386741499999971
 20
230.49745150000001
 11
-46.386741499999971
 21
230.59957850000001
  0
LINE
  8
_0-0_0
  6
CONTINUOUS
 62
    7
 10
-46.386741499999971
 20
209.47456350000002
 11
-46.386741499999971
 21
210.25169350000002
  0
LINE
  8
_0-0_0
  6
CONTINUOUS
 62
    7
 10
-63.18673849999999
 20
209.47456350000002
 11
-46.386741499999971
 21
209.47456350000002
  0
LINE
  8
_0-0_0
  6
CONTINUOUS
 62
    7
 10
-63.18673849999999
 20
217.3745725
 11
-63.18673849999999
 21
209.47456350000002
  0
LINE
  8
_0-0_0
  6
CONTINUOUS
 62
    7
 10
-63.18673849999999
 20
229.82989449999999
 11
-63.18673849999999
 21
223.3745725
  0
LINE
  8
_0-0_0
  6
CONTINUOUS
 62
    7
 10
-45.88675649999999
 20
212.97456350000002
 11
-45.686736499999995
 21
212.97456350000002
  0
LINE
  8
_0-0_0
  6
CONTINUOUS
 62
    7
 10
-45.686736499999995
 20
212.97456350000002
 11
-45.686736499999995
 21
215.97456350000002
  0
LINE
  8
_0-0_0
  6
CONTINUOUS
 62
    7
 10
-45.686736499999995
 20
229.5745695
 11
-45.686736499999995
 21
215.97456350000002
  0
LINE
  8
_0-0_0
  6
CONTINUOUS
 62
    7
 10
-45.886741499999971
 20
232.5745695
 11
-45.686736499999995
 21
232.5745695
  0
LINE
  8
_0-0_0
  6
CONTINUOUS
 62
    7
 10
-45.686736499999995
 20
229.5745695
 11
-45.686736499999995
 21
232.5745695
  0
LINE
  8
_0-0_0
  6
CONTINUOUS
 62
    7
 10
-46.586738500000024
 20
231.8736265
 11
-46.586738500000024
 21
230.69444250000001
  0
LINE
  8
_0-0_0
  6
CONTINUOUS
 62
    7
 10
-46.586738500000024
 20
234.0745695
 11
-46.586738500000024
 21
233.5745695
  0
LINE
  8
_0-0_0
  6
CONTINUOUS
 62
    7
 10
-47.586738499999967
 20
231.1580505
 11
-47.586738499999967
 21
231.8745725
  0
ARC
  8
_0-0_0
  6
CONTINUOUS
 62
    7
 10
-47.886739499999976
 20
229.1745755
 40
2
 50
0
 51
90.000003000000007
  0
LINE
  8
_0-0_0
  6
CONTINUOUS
 62
    7
 10
-45.886741499999971
 20
225.6745755
 11
-45.886741499999971
 21
228.6745755
  0
LINE
  8
_0-0_0
  6
CONTINUOUS
 62
    7
 10
-45.886741499999971
 20
228.6745755
 11
-45.886741499999971
 21
229.1745755
  0
LINE
  8
_0-0_0
  6
CONTINUOUS
 62
    7
 10
-45.886741499999971
 20
211.5745695
 11
-45.886741499999971
 21
225.1745755
  0
LINE
  8
_0-0_0
  6
CONTINUOUS
 62
    7
 10
-45.886741499999971
 20
225.6745755
 11
-45.886741499999971
 21
225.1745755
  0
ARC
  8
_0-0_0
  6
CONTINUOUS
 62
    7
 10
-47.886739499999976
 20
211.5745695
 40
2
 50
273.84026500000004
 51
0.000010000000014
  0
LINE
  8
_0-0_0
  6
CONTINUOUS
 62
    7
 10
-61.18673849999999
 20
231.1580505
 11
-61.18673849999999
 21
231.8745725
  0
LINE
  8
_0-0_0
  6
CONTINUOUS
 62
    7
 10
-61.18673849999999
 20
231.1580505
 11
-61.18673849999999
 21
231.15194650000001
  0
LINE
  8
_0-0_0
  6
CONTINUOUS
 62
    7
 10
-63.18673849999999
 20
229.82989449999999
 11
-63.18673849999999
 21
230.32989449999999
  0
LINE
  8
_0-0_0
  6
CONTINUOUS
 62
    7
 10
-62.886737499999981
 20
229.1745755
 11
-62.886737499999981
 21
215.5745695
  0
LINE
  8
_0-0_0
  6
CONTINUOUS
 62
    7
 10
-62.886737499999981
 20
215.0745695
 11
-62.886737499999981
 21
215.5745695
  0
LINE
  8
_0-0_0
  6
CONTINUOUS
 62
    7
 10
-62.886737499999981
 20
212.0745695
 11
-62.886737499999981
 21
215.0745695
  0
LINE
  8
_0-0_0
  6
CONTINUOUS
 62
    7
 10
-62.886737499999981
 20
211.5745695
 11
-62.886737499999981
 21
212.0745695
  0
ARC
  8
_0-0_0
  6
CONTINUOUS
 62
    7
 10
-60.886737499999981
 20
229.1745755
 40
2
 50
93.840255999999997
 51
180.00000900000001
  0
LINE
  8
_0-0_0
  6
CONTINUOUS
 62
    7
 10
-63.18673849999999
 20
217.3745725
 11
-63.18673849999999
 21
223.3745725
  0
LINE
  8
_0-0_0
  6
CONTINUOUS
 62
    7
 10
-63.18673849999999
 20
231.8745725
 11
-63.18673849999999
 21
230.3298795
  0
LINE
  8
_0-0_0
  6
CONTINUOUS
 62
    7
 10
-63.18673849999999
 20
223.3745725
 11
-62.886747500000013
 21
223.3745725
  0
LINE
  8
_0-0_0
  6
CONTINUOUS
 62
    7
 10
-63.18673849999999
 20
217.3745725
 11
-62.886747500000013
 21
217.3745725
  0
LINE
  8
_0-0_0
  6
CONTINUOUS
 62
    7
 10
-47.886739499999976
 20
209.5745695
 11
-56.886737499999981
 21
209.5745695
  0
LINE
  8
_0-0_0
  6
CONTINUOUS
 62
    7
 10
-60.386737499999981
 20
209.5745695
 11
-60.886737499999981
 21
209.5745695
  0
LINE
  8
_0-0_0
  6
CONTINUOUS
 62
    7
 10
-57.386737499999981
 20
209.5745695
 11
-60.386737499999981
 21
209.5745695
  0
LINE
  8
_0-0_0
  6
CONTINUOUS
 62
    7
 10
-56.886737499999981
 20
209.5745695
 11
-57.386737499999981
 21
209.5745695
  0
ARC
  8
_0-0_0
  6
CONTINUOUS
 62
    7
 10
-60.886737499999981
 20
211.5745695
 40
2
 50
180.00000900000003
 51
269.99999700000001
  0
ARC
  8
_0-0_0
  6
CONTINUOUS
 62
    7
 10
-47.086738499999967
 20
234.0745695
 40
0.5
 50
0
 51
90.000003000000007
  0
LINE
  8
_0-0_0
  6
CONTINUOUS
 62
    7
 10
-48.586738499999967
 20
234.5745695
 11
-47.086738499999967
 21
234.5745695
  0
ARC
  8
_0-0_0
  6
CONTINUOUS
 62
    7
 10
-48.586738499999967
 20
235.5745695
 40
1
 50
180.00000900000003
 51
269.99999700000001
  0
LINE
  8
_0-0_0
  6
CONTINUOUS
 62
    7
 10
-49.586738499999967
 20
235.5745695
 11
-49.586738499999967
 21
235.67465150000001
  0
LINE
  8
_0-0_0
  6
CONTINUOUS
 62
    7
 10
-50.086738499999967
 20
234.5745695
 11
-50.086738499999967
 21
235.67465150000001
  0
ARC
  8
_0-0_0
  6
CONTINUOUS
 62
    7
 10
-49.086738499999967
 20
234.5745695
 40
1
 50
180.00000900000003
 51
269.99999700000001
  0
LINE
  8
_0-0_0
  6
CONTINUOUS
 62
    7
 10
-49.086738499999967
 20
233.5745695
 11
-49.28673950000001
 21
233.5745695
  0
ARC
  8
_0-0_0
  6
CONTINUOUS
 62
    7
 10
-49.28673950000001
 20
234.5745695
 40
1
 50
180.00000900000003
 51
269.99999700000001
  0
ARC
  8
_0-0_0
  6
CONTINUOUS
 62
    7
 10
-59.486738500000001
 20
234.5745695
 40
1
 50
269.99999700000001
 51
0
  0
LINE
  8
_0-0_0
  6
CONTINUOUS
 62
    7
 10
-59.486738500000001
 20
233.5745695
 11
-60.18673849999999
 21
233.5745695
  0
LINE
  8
_0-0_0
  6
CONTINUOUS
 62
    7
 10
-46.386741499999971
 20
233.5745695
 11
-46.586738500000024
 21
233.5745695
  0
LINE
  8
_0-0_0
  6
CONTINUOUS
 62
    7
 10
-63.18673849999999
 20
231.8745725
 11
-46.386741499999971
 21
231.8745725
  0
LINE
  8
_0-0_0
  6
CONTINUOUS
 62
    7
 10
-46.386741499999971
 20
231.8745725
 11
-46.386741499999971
 21
233.5745695
  0
LINE
  8
_0-0_0
  6
CONTINUOUS
 62
    7
 10
-50.28673950000001
 20
235.67465150000001
 11
-50.28673950000001
 21
234.5745695
  0
LINE
  8
_0-0_0
  6
CONTINUOUS
 62
    7
 10
-58.486740499999996
 20
234.5745695
 11
-58.486740499999996
 21
235.67465150000001
  0
LINE
  8
_0-0_0
  6
CONTINUOUS
 62
    7
 10
-62.18673849999999
 20
233.5745695
 11
-63.18673849999999
 21
233.5745695
  0
LINE
  8
_0-0_0
  6
CONTINUOUS
 62
    7
 10
-63.18673849999999
 20
231.8745725
 11
-63.18673849999999
 21
233.5745695
  0
LINE
  8
_0-0_0
  6
CONTINUOUS
 62
    7
 10
-47.886739499999976
 20
231.1745755
 11
-48.386739499999976
 21
231.1745755
  0
CIRCLE
  8
_0-0_0
  6
CONTINUOUS
 62
    7
 10
-48.386739499999976
 20
228.6745755
 40
2.5
  0
LINE
  8
_0-0_0
  6
CONTINUOUS
 62
    7
 10
-60.886737499999981
 20
231.1745755
 11
-51.886737499999981
 21
231.1745755
  0
LINE
  8
_0-0_0
  6
CONTINUOUS
 62
    7
 10
-48.386739499999976
 20
231.1745755
 11
-51.386737499999981
 21
231.1745755
  0
LINE
  8
_0-0_0
  6
CONTINUOUS
 62
    7
 10
-51.886737499999981
 20
231.1745755
 11
-51.386737499999981
 21
231.1745755
  0
ARC
  8
_0-0_0
  6
CONTINUOUS
 62
    7
 10
-46.386741499999971
 20
225.1745755
 40
0.5
 50
0
 51
90.000003000000007
  0
LINE
  8
_0-0_0
  6
CONTINUOUS
 62
    7
 10
-47.886739499999976
 20
209.6772005
 11
-47.870859499999995
 21
209.64994849999999
  0
LINE
  8
_0-0_0
  6
CONTINUOUS
 62
    7
 10
-47.870859499999995
 20
209.64994849999999
 11
-47.855014499999982
 21
209.6269685
  0
LINE
  8
_0-0_0
  6
CONTINUOUS
 62
    7
 10
-47.855014499999982
 20
209.6269685
 11
-47.84103349999998
 21
209.61021450000001
  0
LINE
  8
_0-0_0
  6
CONTINUOUS
 62
    7
 10
-47.84103349999998
 20
209.61021450000001
 11
-47.827135499999997
 21
209.59689349999999
  0
LINE
  8
_0-0_0
  6
CONTINUOUS
 62
    7
 10
-47.827135499999997
 20
209.59689349999999
 11
-47.814918499999976
 21
209.58796649999999
  0
LINE
  8
_0-0_0
  6
CONTINUOUS
 62
    7
 10
-47.814918499999976
 20
209.58796649999999
 11
-47.802799499999992
 21
209.58174149999999
  0
LINE
  8
_0-0_0
  6
CONTINUOUS
 62
    7
 10
-47.802799499999992
 20
209.58174149999999
 11
-47.791932499999973
 21
209.57846050000001
  0
LINE
  8
_0-0_0
  6
CONTINUOUS
 62
    7
 10
-47.791932499999973
 20
209.57846050000001
 11
-47.781173500000023
 21
209.57740749999999
  0
LINE
  8
_0-0_0
  6
CONTINUOUS
 62
    7
 10
-47.781173500000023
 20
209.57740749999999
 11
-47.778713499999981
 21
209.5774845
  0
LINE
  8
_0-0_0
  6
CONTINUOUS
 62
    7
 10
-62.18673849999999
 20
230.69444250000001
 11
-62.18673849999999
 21
231.8736265
  0
ARC
  8
_0-0_0
  6
CONTINUOUS
 62
    7
 10
-62.386737499999981
 20
215.5745695
 40
0.5
 50
180.00000900000003
 51
269.99999700000001
  0
CIRCLE
  8
_0-0_0
  6
CONTINUOUS
 62
    7
 10
-60.386737499999981
 20
212.0745695
 40
2.5
  0
LINE
  8
_0-0_0
  6
CONTINUOUS
 62
    7
 10
-60.886737499999981
 20
231.0719455
 11
-60.902618500000017
 21
231.0991975
  0
LINE
  8
_0-0_0
  6
CONTINUOUS
 62
    7
 10
-60.902618500000017
 20
231.0991975
 11
-60.91846449999997
 21
231.12217749999999
  0
LINE
  8
_0-0_0
  6
CONTINUOUS
 62
    7
 10
-60.91846449999997
 20
231.12217749999999
 11
-60.932443499999977
 21
231.13893150000001
  0
LINE
  8
_0-0_0
  6
CONTINUOUS
 62
    7
 10
-60.932443499999977
 20
231.13893150000001
 11
-60.946344500000009
 21
231.1522525
  0
LINE
  8
_0-0_0
  6
CONTINUOUS
 62
    7
 10
-60.946344500000009
 20
231.1522525
 11
-60.958560499999976
 21
231.16117850000001
  0
LINE
  8
_0-0_0
  6
CONTINUOUS
 62
    7
 10
-60.958560499999976
 20
231.16117850000001
 11
-60.970680500000014
 21
231.16738850000002
  0
LINE
  8
_0-0_0
  6
CONTINUOUS
 62
    7
 10
-60.970680500000014
 20
231.16738850000002
 11
-60.981544499999984
 21
231.1706695
  0
LINE
  8
_0-0_0
  6
CONTINUOUS
 62
    7
 10
-60.981544499999984
 20
231.1706695
 11
-60.992305499999986
 21
231.17172250000002
  0
LINE
  8
_0-0_0
  6
CONTINUOUS
 62
    7
 10
-60.992305499999986
 20
231.17172250000002
 11
-60.994766499999969
 21
231.1716615
  0
LINE
  8
_0-0_0
  6
CONTINUOUS
 62
    7
 10
-63.18673849999999
 20
212.97456350000002
 11
-63.28673950000001
 21
212.97456350000002
  0
LINE
  8
_0-0_0
  6
CONTINUOUS
 62
    7
 10
-63.28673950000001
 20
212.97456350000002
 11
-63.28673950000001
 21
215.97456350000002
  0
LINE
  8
_0-0_0
  6
CONTINUOUS
 62
    7
 10
-63.28673950000001
 20
215.97456350000002
 11
-63.28673950000001
 21
229.5745695
  0
LINE
  8
_0-0_0
  6
CONTINUOUS
 62
    7
 10
-63.18673849999999
 20
232.5745695
 11
-63.28673950000001
 21
232.5745695
  0
LINE
  8
_0-0_0
  6
CONTINUOUS
 62
    7
 10
-63.28673950000001
 20
229.5745695
 11
-63.28673950000001
 21
232.5745695
  0
ARC
  8
_0-0_0
  6
CONTINUOUS
 62
    7
 10
-56.886737499999981
 20
210.0745695
 40
0.5
 50
180.00000900000003
 51
269.99999700000001
  0
ARC
  8
_0-0_0
  6
CONTINUOUS
 62
    7
 10
-60.18673849999999
 20
235.0746455
 40
1.5
 50
269.99999700000001
 51
0
  0
ARC
  8
_0-0_0
  6
CONTINUOUS
 62
    7
 10
-61.68673849999999
 20
234.0746455
 40
0.5
 50
90.000003000000007
 51
180.00000900000001
  0
LINE
  8
_0-0_0
  6
CONTINUOUS
 62
    7
 10
-61.68673849999999
 20
234.5746455
 11
-60.18673849999999
 21
234.5746455
  0
ARC
  8
_0-0_0
  6
CONTINUOUS
 62
    7
 10
-60.18673849999999
 20
235.5746455
 40
1
 50
269.99999700000001
 51
0
  0
LINE
  8
_0-0_0
  6
CONTINUOUS
 62
    7
 10
-59.18673849999999
 20
235.67465150000001
 11
-59.18673849999999
 21
235.5746455
  0
LINE
  8
_0-0_0
  6
CONTINUOUS
 62
    7
 10
-58.68673849999999
 20
235.67465150000001
 11
-58.68673849999999
 21
235.0746455
  0
LINE
  8
_0-0_0
  6
CONTINUOUS
 62
    7
 10
-62.18673849999999
 20
233.5746455
 11
-62.18673849999999
 21
234.0746455
  0
ARC
  8
_0-0_0
  6
CONTINUOUS
 62
    7
 10
-51.886737499999981
 20
230.6745755
 40
0.5
 50
0
 51
90.000003000000007
  0
LINE
  8
_0-0_0
  6
CONTINUOUS
 62
    7
 10
-51.386737499999981
 20
230.59759550000001
 11
-51.386737499999981
 21
230.6745755
  0
LINE
  8
_0-0_0
  6
CONTINUOUS
 62
    7
 10
-51.386737499999981
 20
229.15606650000001
 11
-51.386737499999981
 21
230.59759550000001
  0
LINE
  8
_0-0_0
  6
CONTINUOUS
 62
    7
 10
-51.386737499999981
 20
228.6745755
 11
-51.386737499999981
 21
229.15606650000001
  0
ARC
  8
_0-0_0
  6
CONTINUOUS
 62
    7
 10
-48.386739499999976
 20
228.6745755
 40
3
 50
180.00000900000003
 51
269.99999700000001
  0
LINE
  8
_0-0_0
  6
CONTINUOUS
 62
    7
 10
-47.905237499999998
 20
225.6745755
 11
-48.386739499999976
 21
225.6745755
  0
LINE
  8
_0-0_0
  6
CONTINUOUS
 62
    7
 10
-47.905237499999998
 20
225.6745755
 11
-46.46371449999998
 21
225.6745755
  0
LINE
  8
_0-0_0
  6
CONTINUOUS
 62
    7
 10
-46.386741499999971
 20
225.6745755
 11
-46.46371449999998
 21
225.6745755
  0
LINE
  8
_0-0_0
  6
CONTINUOUS
 62
    7
 10
-62.309764499999972
 20
215.0745695
 11
-62.386737499999981
 21
215.0745695
  0
LINE
  8
_0-0_0
  6
CONTINUOUS
 62
    7
 10
-60.386737499999981
 20
215.0745695
 11
-60.868240500000013
 21
215.0745695
  0
LINE
  8
_0-0_0
  6
CONTINUOUS
 62
    7
 10
-60.868240500000013
 20
215.0745695
 11
-62.309764499999972
 21
215.0745695
  0
LINE
  8
_0-0_0
  6
CONTINUOUS
 62
    7
 10
-57.386737499999981
 20
210.0745695
 11
-57.386737499999981
 21
210.15155050000001
  0
LINE
  8
_0-0_0
  6
CONTINUOUS
 62
    7
 10
-57.386737499999981
 20
211.5930635
 11
-57.386737499999981
 21
210.15155050000001
  0
LINE
  8
_0-0_0
  6
CONTINUOUS
 62
    7
 10
-57.386737499999981
 20
211.5930635
 11
-57.386737499999981
 21
212.0745695
  0
ARC
  8
_0-0_0
  6
CONTINUOUS
 62
    7
 10
-60.386737499999981
 20
212.0745695
 40
3
 50
0
 51
89.999995999999996
  0
LINE
  8
_0-0_0
  6
CONTINUOUS
 62
    7
 10
-45.886741499999971
 20
232.68583649999999
 11
-45.886741499999971
 21
230.7995755
  0
LINE
  8
_0-0_0
  6
CONTINUOUS
 62
    7
 10
-45.886741499999971
 20
233.34957850000001
 11
-45.886741499999971
 21
232.68583649999999
  0
ARC
  8
_0-0_0
  6
CONTINUOUS
 62
    7
 10
-51.156621499999972
 20
221.54780550000001
 40
3.063396
 50
19.82113
 51
25.289563000000001
  0
ARC
  8
_0-0_0
  6
CONTINUOUS
 62
    7
 10
-51.156301499999984
 20
219.20120249999999
 40
3.0630519999999999
 50
334.71006
 51
340.17869200000001
  0
ARC
  8
_0-0_0
  6
CONTINUOUS
 62
    7
 10
-57.616853499999991
 20
219.2013245
 40
3.063399
 50
199.82113599999997
 51
205.28948099999999
  0
ARC
  8
_0-0_0
  6
CONTINUOUS
 62
    7
 10
-57.617172499999981
 20
221.5479425
 40
3.0630549999999999
 50
154.710137
 51
160.17869999999999
  0
ARC
  8
_0-0_0
  6
CONTINUOUS
 62
    7
 10
-54.386737499999981
 20
220.3745725
 40
6.5
 50
340.10416099999998
 51
19.895609999999952
  0
ARC
  8
_0-0_0
  6
CONTINUOUS
 62
    7
 10
-54.386737499999981
 20
220.3745725
 40
6.5
 50
160.10415599999999
 51
199.895612
  0
LINE
  8
_0-0_0
  6
CONTINUOUS
 62
    7
 10
-62.886737499999981
 20
231.4633785
 11
-62.886737499999981
 21
231.87368749999999
  0
LINE
  8
_0-0_0
  6
CONTINUOUS
 62
    7
 10
-62.886737499999981
 20
230.8044735
 11
-62.886737499999981
 21
231.4633785
  0
LINE
  8
_0-0_0
  6
CONTINUOUS
 62
    7
 10
-55.128408499999978
 20
226.8745725
 11
-59.645069499999977
 21
224.2668765
  0
LINE
  8
_0-0_0
  6
CONTINUOUS
 62
    7
 10
-53.645069499999977
 20
226.8745725
 11
-55.128408499999978
 21
226.8745725
  0
LINE
  8
_0-0_0
  6
CONTINUOUS
 62
    7
 10
-49.128408499999978
 20
224.2668765
 11
-53.645069499999977
 21
226.8745725
  0
LINE
  8
_0-0_0
  6
CONTINUOUS
 62
    7
 10
-48.386739499999976
 20
222.9822695
 11
-48.386739499999976
 21
217.7668765
  0
LINE
  8
_0-0_0
  6
CONTINUOUS
 62
    7
 10
-49.128408499999978
 20
224.2668765
 11
-48.386739499999976
 21
222.9822695
  0
LINE
  8
_0-0_0
  6
CONTINUOUS
 62
    7
 10
-53.645069499999977
 20
213.8745725
 11
-49.128408499999978
 21
216.4822695
  0
LINE
  8
_0-0_0
  6
CONTINUOUS
 62
    7
 10
-48.83428349999997
 20
216.99169950000001
 11
-48.386739499999976
 21
217.7668765
  0
LINE
  8
_0-0_0
  6
CONTINUOUS
 62
    7
 10
-48.83428349999997
 20
216.99169950000001
 11
-49.128408499999978
 21
216.4822695
  0
LINE
  8
_0-0_0
  6
CONTINUOUS
 62
    7
 10
-55.128408499999978
 20
213.8745725
 11
-53.645069499999977
 21
213.8745725
  0
LINE
  8
_0-0_0
  6
CONTINUOUS
 62
    7
 10
-59.645069499999977
 20
216.4822695
 11
-55.128408499999978
 21
213.8745725
  0
LINE
  8
_0-0_0
  6
CONTINUOUS
 62
    7
 10
-60.386737499999981
 20
222.9822695
 11
-60.386737499999981
 21
217.7668765
  0
LINE
  8
_0-0_0
  6
CONTINUOUS
 62
    7
 10
-59.645069499999977
 20
216.4822695
 11
-60.386737499999981
 21
217.7668765
  0
LINE
  8
_0-0_0
  6
CONTINUOUS
 62
    7
 10
-59.939193499999988
 20
223.7574305
 11
-60.386737499999981
 21
222.9822695
  0
LINE
  8
_0-0_0
  6
CONTINUOUS
 62
    7
 10
-59.939193499999988
 20
223.7574305
 11
-59.645069499999977
 21
224.2668765
  0
LINE
  8
_0-0_0
  6
CONTINUOUS
 62
    7
 10
-46.499732499999993
 20
229.90000950000001
 11
-46.221675500000003
 21
229.9245755
  0
LINE
  8
_0-0_0
  6
CONTINUOUS
 62
    7
 10
-46.381973500000015
 20
229.6960445
 11
-46.221675500000003
 21
229.9245755
  0
LINE
  8
_0-0_0
  6
CONTINUOUS
 62
    7
 10
-46.638160499999969
 20
230.09054549999999
 11
-46.364196499999991
 21
230.14402749999999
  0
LINE
  8
_0-0_0
  6
CONTINUOUS
 62
    7
 10
-46.499732499999993
 20
229.90000950000001
 11
-46.364196499999991
 21
230.14402749999999
  0
LINE
  8
_0-0_0
  6
CONTINUOUS
 62
    7
 10
-46.795749499999999
 20
230.26556350000001
 11
-46.528877500000021
 21
230.3473965
  0
LINE
  8
_0-0_0
  6
CONTINUOUS
 62
    7
 10
-46.638160499999969
 20
230.09054549999999
 11
-46.528877500000021
 21
230.3473965
  0
LINE
  8
_0-0_0
  6
CONTINUOUS
 62
    7
 10
-46.970767499999965
 20
230.4231565
 11
-46.713912499999992
 21
230.53244050000001
  0
LINE
  8
_0-0_0
  6
CONTINUOUS
 62
    7
 10
-46.795749499999999
 20
230.26556350000001
 11
-46.713912499999992
 21
230.53244050000001
  0
LINE
  8
_0-0_0
  6
CONTINUOUS
 62
    7
 10
-47.161300499999982
 20
230.56158450000001
 11
-46.917274499999962
 21
230.6971125
  0
LINE
  8
_0-0_0
  6
CONTINUOUS
 62
    7
 10
-46.970767499999965
 20
230.4231565
 11
-46.917274499999962
 21
230.6971125
  0
LINE
  8
_0-0_0
  6
CONTINUOUS
 62
    7
 10
-47.365261499999974
 20
230.67933650000001
 11
-47.136739499999976
 21
230.8396305
  0
LINE
  8
_0-0_0
  6
CONTINUOUS
 62
    7
 10
-47.161300499999982
 20
230.56158450000001
 11
-47.136739499999976
 21
230.8396305
  0
LINE
  8
_0-0_0
  6
CONTINUOUS
 62
    7
 10
-47.580411499999968
 20
230.77513150000001
 11
-47.369897499999979
 21
230.95843450000001
  0
LINE
  8
_0-0_0
  6
CONTINUOUS
 62
    7
 10
-47.365261499999974
 20
230.67933650000001
 11
-47.369897499999979
 21
230.95843450000001
  0
LINE
  8
_0-0_0
  6
CONTINUOUS
 62
    7
 10
-47.804395499999998
 20
230.84790050000001
 11
-47.614196499999991
 21
231.05221549999999
  0
LINE
  8
_0-0_0
  6
CONTINUOUS
 62
    7
 10
-47.580411499999968
 20
230.77513150000001
 11
-47.614196499999991
 21
231.05221549999999
  0
LINE
  8
_0-0_0
  6
CONTINUOUS
 62
    7
 10
-48.034761500000002
 20
230.89686549999999
 11
-47.866960500000005
 21
231.1199335
  0
LINE
  8
_0-0_0
  6
CONTINUOUS
 62
    7
 10
-47.804395499999998
 20
230.84790050000001
 11
-47.866960500000005
 21
231.1199335
  0
LINE
  8
_0-0_0
  6
CONTINUOUS
 62
    7
 10
-48.26898349999999
 20
230.9214935
 11
-48.125417499999969
 21
231.16087350000001
  0
LINE
  8
_0-0_0
  6
CONTINUOUS
 62
    7
 10
-48.034761500000002
 20
230.89686549999999
 11
-48.125417499999969
 21
231.16087350000001
  0
LINE
  8
_0-0_0
  6
CONTINUOUS
 62
    7
 10
-48.504495500000019
 20
230.9214935
 11
-48.386739499999976
 21
231.1745755
  0
LINE
  8
_0-0_0
  6
CONTINUOUS
 62
    7
 10
-48.26898349999999
 20
230.9214935
 11
-48.386739499999976
 21
231.1745755
  0
LINE
  8
_0-0_0
  6
CONTINUOUS
 62
    7
 10
-48.73871650000001
 20
230.89686549999999
 11
-48.648059499999988
 21
231.16087350000001
  0
LINE
  8
_0-0_0
  6
CONTINUOUS
 62
    7
 10
-48.504495500000019
 20
230.9214935
 11
-48.648059499999988
 21
231.16087350000001
  0
LINE
  8
_0-0_0
  6
CONTINUOUS
 62
    7
 10
-48.969081500000016
 20
230.84790050000001
 11
-48.906518500000004
 21
231.1199335
  0
LINE
  8
_0-0_0
  6
CONTINUOUS
 62
    7
 10
-48.73871650000001
 20
230.89686549999999
 11
-48.906518500000004
 21
231.1199335
  0
LINE
  8
_0-0_0
  6
CONTINUOUS
 62
    7
 10
-49.193067499999984
 20
230.77513150000001
 11
-49.159280500000023
 21
231.05221549999999
  0
LINE
  8
_0-0_0
  6
CONTINUOUS
 62
    7
 10
-48.969081500000016
 20
230.84790050000001
 11
-49.159280500000023
 21
231.05221549999999
  0
LINE
  8
_0-0_0
  6
CONTINUOUS
 62
    7
 10
-49.408218499999975
 20
230.67933650000001
 11
-49.403581499999973
 21
230.95843450000001
  0
LINE
  8
_0-0_0
  6
CONTINUOUS
 62
    7
 10
-49.193067499999984
 20
230.77513150000001
 11
-49.403581499999973
 21
230.95843450000001
  0
LINE
  8
_0-0_0
  6
CONTINUOUS
 62
    7
 10
-49.527755500000012
 20
230.7631835
 11
-49.636739499999976
 21
230.8396305
  0
LINE
  8
_0-0_0
  6
CONTINUOUS
 62
    7
 10
-49.408218499999975
 20
230.67933650000001
 11
-49.527755500000012
 21
230.7631835
  0
LINE
  8
_0-0_0
  6
CONTINUOUS
 62
    7
 10
-49.612176499999975
 20
230.56158450000001
 11
-49.636739499999976
 21
230.8396305
  0
LINE
  8
_0-0_0
  6
CONTINUOUS
 62
    7
 10
-49.802709499999992
 20
230.4231565
 11
-49.856203499999992
 21
230.6971125
  0
LINE
  8
_0-0_0
  6
CONTINUOUS
 62
    7
 10
-49.612176499999975
 20
230.56158450000001
 11
-49.856203499999992
 21
230.6971125
  0
LINE
  8
_0-0_0
  6
CONTINUOUS
 62
    7
 10
-49.977729500000009
 20
230.26556350000001
 11
-50.059566500000017
 21
230.53244050000001
  0
LINE
  8
_0-0_0
  6
CONTINUOUS
 62
    7
 10
-49.802709499999992
 20
230.4231565
 11
-50.059566500000017
 21
230.53244050000001
  0
LINE
  8
_0-0_0
  6
CONTINUOUS
 62
    7
 10
-50.135316499999988
 20
230.09054549999999
 11
-50.24460049999999
 21
230.3473965
  0
LINE
  8
_0-0_0
  6
CONTINUOUS
 62
    7
 10
-49.977729500000009
 20
230.26556350000001
 11
-50.24460049999999
 21
230.3473965
  0
LINE
  8
_0-0_0
  6
CONTINUOUS
 62
    7
 10
-50.273748500000011
 20
229.90000950000001
 11
-50.409280500000023
 21
230.14402749999999
  0
LINE
  8
_0-0_0
  6
CONTINUOUS
 62
    7
 10
-50.135316499999988
 20
230.09054549999999
 11
-50.409280500000023
 21
230.14402749999999
  0
LINE
  8
_0-0_0
  6
CONTINUOUS
 62
    7
 10
-50.391504499999996
 20
229.6960445
 11
-50.55180150000001
 21
229.9245755
  0
LINE
  8
_0-0_0
  6
CONTINUOUS
 62
    7
 10
-50.273748500000011
 20
229.90000950000001
 11
-50.55180150000001
 21
229.9245755
  0
LINE
  8
_0-0_0
  6
CONTINUOUS
 62
    7
 10
-50.487295500000016
 20
229.4808955
 11
-50.670602499999973
 21
229.6914065
  0
LINE
  8
_0-0_0
  6
CONTINUOUS
 62
    7
 10
-50.391504499999996
 20
229.6960445
 11
-50.670602499999973
 21
229.6914065
  0
LINE
  8
_0-0_0
  6
CONTINUOUS
 62
    7
 10
-50.560071499999992
 20
229.2569125
 11
-50.764379500000018
 21
229.4471125
  0
LINE
  8
_0-0_0
  6
CONTINUOUS
 62
    7
 10
-50.487295500000016
 20
229.4808955
 11
-50.764379500000018
 21
229.4471125
  0
LINE
  8
_0-0_0
  6
CONTINUOUS
 62
    7
 10
-50.609037499999999
 20
229.02655050000001
 11
-50.832107500000006
 21
229.19435150000001
  0
LINE
  8
_0-0_0
  6
CONTINUOUS
 62
    7
 10
-50.560071499999992
 20
229.2569125
 11
-50.832107500000006
 21
229.19435150000001
  0
LINE
  8
_0-0_0
  6
CONTINUOUS
 62
    7
 10
-50.609037499999999
 20
229.02655050000001
 11
-50.873042499999997
 21
228.93589750000001
  0
LINE
  8
_0-0_0
  6
CONTINUOUS
 62
    7
 10
-50.633655499999975
 20
228.7923275
 11
-50.873042499999997
 21
228.93589750000001
  0
LINE
  8
_0-0_0
  6
CONTINUOUS
 62
    7
 10
-50.633655499999975
 20
228.55680849999999
 11
-50.886739499999976
 21
228.6745755
  0
LINE
  8
_0-0_0
  6
CONTINUOUS
 62
    7
 10
-50.633655499999975
 20
228.7923275
 11
-50.886739499999976
 21
228.6745755
  0
LINE
  8
_0-0_0
  6
CONTINUOUS
 62
    7
 10
-50.609037499999999
 20
228.32260149999999
 11
-50.873042499999997
 21
228.4132535
  0
LINE
  8
_0-0_0
  6
CONTINUOUS
 62
    7
 10
-50.633655499999975
 20
228.55680849999999
 11
-50.873042499999997
 21
228.4132535
  0
LINE
  8
_0-0_0
  6
CONTINUOUS
 62
    7
 10
-50.560071499999992
 20
228.09222450000001
 11
-50.832107500000006
 21
228.1547855
  0
LINE
  8
_0-0_0
  6
CONTINUOUS
 62
    7
 10
-50.609037499999999
 20
228.32260149999999
 11
-50.832107500000006
 21
228.1547855
  0
LINE
  8
_0-0_0
  6
CONTINUOUS
 62
    7
 10
-50.487295500000016
 20
227.86824050000001
 11
-50.764379500000018
 21
227.90202350000001
  0
LINE
  8
_0-0_0
  6
CONTINUOUS
 62
    7
 10
-50.560071499999992
 20
228.09222450000001
 11
-50.764379500000018
 21
227.90202350000001
  0
LINE
  8
_0-0_0
  6
CONTINUOUS
 62
    7
 10
-50.391504499999996
 20
227.65309150000002
 11
-50.670602499999973
 21
227.65772950000002
  0
LINE
  8
_0-0_0
  6
CONTINUOUS
 62
    7
 10
-50.487295500000016
 20
227.86824050000001
 11
-50.670602499999973
 21
227.65772950000002
  0
LINE
  8
_0-0_0
  6
CONTINUOUS
 62
    7
 10
-50.273748500000011
 20
227.4491275
 11
-50.55180150000001
 21
227.4245755
  0
LINE
  8
_0-0_0
  6
CONTINUOUS
 62
    7
 10
-50.391504499999996
 20
227.65309150000002
 11
-50.55180150000001
 21
227.4245755
  0
LINE
  8
_0-0_0
  6
CONTINUOUS
 62
    7
 10
-50.135316499999988
 20
227.25860550000002
 11
-50.409280500000023
 21
227.20510849999999
  0
LINE
  8
_0-0_0
  6
CONTINUOUS
 62
    7
 10
-50.273748500000011
 20
227.4491275
 11
-50.409280500000023
 21
227.20510849999999
  0
LINE
  8
_0-0_0
  6
CONTINUOUS
 62
    7
 10
-49.977729500000009
 20
227.08358749999999
 11
-50.24460049999999
 21
227.00173950000001
  0
LINE
  8
_0-0_0
  6
CONTINUOUS
 62
    7
 10
-50.135316499999988
 20
227.25860550000002
 11
-50.24460049999999
 21
227.00173950000001
  0
LINE
  8
_0-0_0
  6
CONTINUOUS
 62
    7
 10
-49.802709499999992
 20
226.9259945
 11
-50.059566500000017
 21
226.8167115
  0
LINE
  8
_0-0_0
  6
CONTINUOUS
 62
    7
 10
-49.977729500000009
 20
227.08358749999999
 11
-50.059566500000017
 21
226.8167115
  0
LINE
  8
_0-0_0
  6
CONTINUOUS
 62
    7
 10
-49.612176499999975
 20
226.78756749999999
 11
-49.856203499999992
 21
226.65202350000001
  0
LINE
  8
_0-0_0
  6
CONTINUOUS
 62
    7
 10
-49.802709499999992
 20
226.9259945
 11
-49.856203499999992
 21
226.65202350000001
  0
LINE
  8
_0-0_0
  6
CONTINUOUS
 62
    7
 10
-49.408218499999975
 20
226.66979950000001
 11
-49.636739499999976
 21
226.50950650000001
  0
LINE
  8
_0-0_0
  6
CONTINUOUS
 62
    7
 10
-49.612176499999975
 20
226.78756749999999
 11
-49.636739499999976
 21
226.50950650000001
  0
LINE
  8
_0-0_0
  6
CONTINUOUS
 62
    7
 10
-49.193067499999984
 20
226.57402049999999
 11
-49.403581499999973
 21
226.39070150000001
  0
LINE
  8
_0-0_0
  6
CONTINUOUS
 62
    7
 10
-49.408218499999975
 20
226.66979950000001
 11
-49.403581499999973
 21
226.39070150000001
  0
LINE
  8
_0-0_0
  6
CONTINUOUS
 62
    7
 10
-48.969081500000016
 20
226.50123550000001
 11
-49.159280500000023
 21
226.29693549999999
  0
LINE
  8
_0-0_0
  6
CONTINUOUS
 62
    7
 10
-49.193067499999984
 20
226.57402049999999
 11
-49.159280500000023
 21
226.29693549999999
  0
LINE
  8
_0-0_0
  6
CONTINUOUS
 62
    7
 10
-48.73871650000001
 20
226.4522705
 11
-48.906518500000004
 21
226.22920250000001
  0
LINE
  8
_0-0_0
  6
CONTINUOUS
 62
    7
 10
-48.969081500000016
 20
226.50123550000001
 11
-48.906518500000004
 21
226.22920250000001
  0
LINE
  8
_0-0_0
  6
CONTINUOUS
 62
    7
 10
-48.504495500000019
 20
226.42765750000001
 11
-48.648059499999988
 21
226.18826250000001
  0
LINE
  8
_0-0_0
  6
CONTINUOUS
 62
    7
 10
-48.73871650000001
 20
226.4522705
 11
-48.648059499999988
 21
226.18826250000001
  0
LINE
  8
_0-0_0
  6
CONTINUOUS
 62
    7
 10
-48.26898349999999
 20
226.42765750000001
 11
-48.386739499999976
 21
226.1745755
  0
LINE
  8
_0-0_0
  6
CONTINUOUS
 62
    7
 10
-48.504495500000019
 20
226.42765750000001
 11
-48.386739499999976
 21
226.1745755
  0
LINE
  8
_0-0_0
  6
CONTINUOUS
 62
    7
 10
-48.034761500000002
 20
226.4522705
 11
-48.125417499999969
 21
226.18826250000001
  0
LINE
  8
_0-0_0
  6
CONTINUOUS
 62
    7
 10
-48.26898349999999
 20
226.42765750000001
 11
-48.125417499999969
 21
226.18826250000001
  0
LINE
  8
_0-0_0
  6
CONTINUOUS
 62
    7
 10
-47.804395499999998
 20
226.50123550000001
 11
-47.866960500000005
 21
226.22920250000001
  0
LINE
  8
_0-0_0
  6
CONTINUOUS
 62
    7
 10
-48.034761500000002
 20
226.4522705
 11
-47.866960500000005
 21
226.22920250000001
  0
LINE
  8
_0-0_0
  6
CONTINUOUS
 62
    7
 10
-47.580411499999968
 20
226.57402049999999
 11
-47.614196499999991
 21
226.29693549999999
  0
LINE
  8
_0-0_0
  6
CONTINUOUS
 62
    7
 10
-47.804395499999998
 20
226.50123550000001
 11
-47.614196499999991
 21
226.29693549999999
  0
LINE
  8
_0-0_0
  6
CONTINUOUS
 62
    7
 10
-47.365261499999974
 20
226.66979950000001
 11
-47.369897499999979
 21
226.39070150000001
  0
LINE
  8
_0-0_0
  6
CONTINUOUS
 62
    7
 10
-47.580411499999968
 20
226.57402049999999
 11
-47.369897499999979
 21
226.39070150000001
  0
LINE
  8
_0-0_0
  6
CONTINUOUS
 62
    7
 10
-47.245723499999997
 20
226.58595249999999
 11
-47.136739499999976
 21
226.50950650000001
  0
LINE
  8
_0-0_0
  6
CONTINUOUS
 62
    7
 10
-47.365261499999974
 20
226.66979950000001
 11
-47.245723499999997
 21
226.58595249999999
  0
LINE
  8
_0-0_0
  6
CONTINUOUS
 62
    7
 10
-47.161300499999982
 20
226.78756749999999
 11
-47.136739499999976
 21
226.50950650000001
  0
LINE
  8
_0-0_0
  6
CONTINUOUS
 62
    7
 10
-46.970767499999965
 20
226.9259945
 11
-46.917274499999962
 21
226.65202350000001
  0
LINE
  8
_0-0_0
  6
CONTINUOUS
 62
    7
 10
-47.161300499999982
 20
226.78756749999999
 11
-46.917274499999962
 21
226.65202350000001
  0
LINE
  8
_0-0_0
  6
CONTINUOUS
 62
    7
 10
-46.795749499999999
 20
227.08358749999999
 11
-46.713912499999992
 21
226.8167115
  0
LINE
  8
_0-0_0
  6
CONTINUOUS
 62
    7
 10
-46.970767499999965
 20
226.9259945
 11
-46.713912499999992
 21
226.8167115
  0
LINE
  8
_0-0_0
  6
CONTINUOUS
 62
    7
 10
-46.638160499999969
 20
227.25860550000002
 11
-46.528877500000021
 21
227.00173950000001
  0
LINE
  8
_0-0_0
  6
CONTINUOUS
 62
    7
 10
-46.795749499999999
 20
227.08358749999999
 11
-46.528877500000021
 21
227.00173950000001
  0
LINE
  8
_0-0_0
  6
CONTINUOUS
 62
    7
 10
-46.499732499999993
 20
227.4491275
 11
-46.364196499999991
 21
227.20510849999999
  0
LINE
  8
_0-0_0
  6
CONTINUOUS
 62
    7
 10
-46.638160499999969
 20
227.25860550000002
 11
-46.364196499999991
 21
227.20510849999999
  0
LINE
  8
_0-0_0
  6
CONTINUOUS
 62
    7
 10
-46.381973500000015
 20
227.65309150000002
 11
-46.221675500000003
 21
227.4245755
  0
LINE
  8
_0-0_0
  6
CONTINUOUS
 62
    7
 10
-46.499732499999993
 20
227.4491275
 11
-46.221675500000003
 21
227.4245755
  0
LINE
  8
_0-0_0
  6
CONTINUOUS
 62
    7
 10
-46.286182499999995
 20
227.86824050000001
 11
-46.102874499999984
 21
227.65772950000002
  0
LINE
  8
_0-0_0
  6
CONTINUOUS
 62
    7
 10
-46.381973500000015
 20
227.65309150000002
 11
-46.102874499999984
 21
227.65772950000002
  0
LINE
  8
_0-0_0
  6
CONTINUOUS
 62
    7
 10
-46.213405500000022
 20
228.09222450000001
 11
-46.009097499999996
 21
227.90202350000001
  0
LINE
  8
_0-0_0
  6
CONTINUOUS
 62
    7
 10
-46.286182499999995
 20
227.86824050000001
 11
-46.009097499999996
 21
227.90202350000001
  0
LINE
  8
_0-0_0
  6
CONTINUOUS
 62
    7
 10
-46.164440500000012
 20
228.32260149999999
 11
-45.94136850000001
 21
228.1547855
  0
LINE
  8
_0-0_0
  6
CONTINUOUS
 62
    7
 10
-46.213405500000022
 20
228.09222450000001
 11
-45.94136850000001
 21
228.1547855
  0
LINE
  8
_0-0_0
  6
CONTINUOUS
 62
    7
 10
-46.139823499999977
 20
228.55680849999999
 11
-45.900436500000012
 21
228.4132535
  0
LINE
  8
_0-0_0
  6
CONTINUOUS
 62
    7
 10
-46.164440500000012
 20
228.32260149999999
 11
-45.900436500000012
 21
228.4132535
  0
LINE
  8
_0-0_0
  6
CONTINUOUS
 62
    7
 10
-46.139823499999977
 20
228.7923275
 11
-45.886741499999971
 21
228.6745755
  0
LINE
  8
_0-0_0
  6
CONTINUOUS
 62
    7
 10
-46.139823499999977
 20
228.55680849999999
 11
-45.886741499999971
 21
228.6745755
  0
LINE
  8
_0-0_0
  6
CONTINUOUS
 62
    7
 10
-46.164440500000012
 20
229.02655050000001
 11
-45.900436500000012
 21
228.93589750000001
  0
LINE
  8
_0-0_0
  6
CONTINUOUS
 62
    7
 10
-46.139823499999977
 20
228.7923275
 11
-45.900436500000012
 21
228.93589750000001
  0
LINE
  8
_0-0_0
  6
CONTINUOUS
 62
    7
 10
-46.213405500000022
 20
229.2569125
 11
-45.94136850000001
 21
229.19435150000001
  0
LINE
  8
_0-0_0
  6
CONTINUOUS
 62
    7
 10
-46.164440500000012
 20
229.02655050000001
 11
-45.94136850000001
 21
229.19435150000001
  0
LINE
  8
_0-0_0
  6
CONTINUOUS
 62
    7
 10
-46.286182499999995
 20
229.4808955
 11
-46.009097499999996
 21
229.4471125
  0
LINE
  8
_0-0_0
  6
CONTINUOUS
 62
    7
 10
-46.213405500000022
 20
229.2569125
 11
-46.009097499999996
 21
229.4471125
  0
LINE
  8
_0-0_0
  6
CONTINUOUS
 62
    7
 10
-46.381973500000015
 20
229.6960445
 11
-46.102874499999984
 21
229.6914065
  0
LINE
  8
_0-0_0
  6
CONTINUOUS
 62
    7
 10
-46.286182499999995
 20
229.4808955
 11
-46.102874499999984
 21
229.6914065
  0
CIRCLE
  8
_0-0_0
  6
CONTINUOUS
 62
    7
 10
-54.386737499999981
 20
220.3745725
 40
5.25
  0
LINE
  8
_0-0_0
  6
CONTINUOUS
 62
    7
 10
-58.499729500000001
 20
213.30000250000001
 11
-58.221675500000003
 21
213.3245695
  0
LINE
  8
_0-0_0
  6
CONTINUOUS
 62
    7
 10
-58.381973500000015
 20
213.09605350000001
 11
-58.221675500000003
 21
213.3245695
  0
LINE
  8
_0-0_0
  6
CONTINUOUS
 62
    7
 10
-58.638160499999969
 20
213.49053950000001
 11
-58.364196499999991
 21
213.5440365
  0
LINE
  8
_0-0_0
  6
CONTINUOUS
 62
    7
 10
-58.499729500000001
 20
213.30000250000001
 11
-58.364196499999991
 21
213.5440365
  0
LINE
  8
_0-0_0
  6
CONTINUOUS
 62
    7
 10
-58.795749499999999
 20
213.66555750000001
 11
-58.528877500000021
 21
213.74740550000001
  0
LINE
  8
_0-0_0
  6
CONTINUOUS
 62
    7
 10
-58.638160499999969
 20
213.49053950000001
 11
-58.528877500000021
 21
213.74740550000001
  0
LINE
  8
_0-0_0
  6
CONTINUOUS
 62
    7
 10
-58.970767499999965
 20
213.8231505
 11
-58.713912499999992
 21
213.9324335
  0
LINE
  8
_0-0_0
  6
CONTINUOUS
 62
    7
 10
-58.795749499999999
 20
213.66555750000001
 11
-58.713912499999992
 21
213.9324335
  0
LINE
  8
_0-0_0
  6
CONTINUOUS
 62
    7
 10
-59.161300499999982
 20
213.9615785
 11
-58.917278500000009
 21
214.0971065
  0
LINE
  8
_0-0_0
  6
CONTINUOUS
 62
    7
 10
-58.970767499999965
 20
213.8231505
 11
-58.917278500000009
 21
214.0971065
  0
LINE
  8
_0-0_0
  6
CONTINUOUS
 62
    7
 10
-59.365259499999979
 20
214.0793305
 11
-59.136737499999981
 21
214.23963950000001
  0
LINE
  8
_0-0_0
  6
CONTINUOUS
 62
    7
 10
-59.161300499999982
 20
213.9615785
 11
-59.136737499999981
 21
214.23963950000001
  0
LINE
  8
_0-0_0
  6
CONTINUOUS
 62
    7
 10
-59.580409499999973
 20
214.17512550000001
 11
-59.369895499999984
 21
214.3584285
  0
LINE
  8
_0-0_0
  6
CONTINUOUS
 62
    7
 10
-59.365259499999979
 20
214.0793305
 11
-59.369895499999984
 21
214.3584285
  0
LINE
  8
_0-0_0
  6
CONTINUOUS
 62
    7
 10
-59.804395499999998
 20
214.24790949999999
 11
-59.614196499999991
 21
214.45220950000001
  0
LINE
  8
_0-0_0
  6
CONTINUOUS
 62
    7
 10
-59.580409499999973
 20
214.17512550000001
 11
-59.614196499999991
 21
214.45220950000001
  0
LINE
  8
_0-0_0
  6
CONTINUOUS
 62
    7
 10
-60.034761500000002
 20
214.2968745
 11
-59.866960500000005
 21
214.51994350000001
  0
LINE
  8
_0-0_0
  6
CONTINUOUS
 62
    7
 10
-59.804395499999998
 20
214.24790949999999
 11
-59.866960500000005
 21
214.51994350000001
  0
LINE
  8
_0-0_0
  6
CONTINUOUS
 62
    7
 10
-60.268981499999995
 20
214.32148749999999
 11
-60.125417499999969
 21
214.56088249999999
  0
LINE
  8
_0-0_0
  6
CONTINUOUS
 62
    7
 10
-60.034761500000002
 20
214.2968745
 11
-60.125417499999969
 21
214.56088249999999
  0
LINE
  8
_0-0_0
  6
CONTINUOUS
 62
    7
 10
-60.504493499999967
 20
214.32148749999999
 11
-60.386737499999981
 21
214.5745695
  0
LINE
  8
_0-0_0
  6
CONTINUOUS
 62
    7
 10
-60.268981499999995
 20
214.32148749999999
 11
-60.386737499999981
 21
214.5745695
  0
LINE
  8
_0-0_0
  6
CONTINUOUS
 62
    7
 10
-60.73871650000001
 20
214.2968745
 11
-60.648059499999988
 21
214.56088249999999
  0
LINE
  8
_0-0_0
  6
CONTINUOUS
 62
    7
 10
-60.504493499999967
 20
214.32148749999999
 11
-60.648059499999988
 21
214.56088249999999
  0
LINE
  8
_0-0_0
  6
CONTINUOUS
 62
    7
 10
-60.969081500000016
 20
214.24790949999999
 11
-60.906516500000009
 21
214.51994350000001
  0
LINE
  8
_0-0_0
  6
CONTINUOUS
 62
    7
 10
-60.73871650000001
 20
214.2968745
 11
-60.906516500000009
 21
214.51994350000001
  0
LINE
  8
_0-0_0
  6
CONTINUOUS
 62
    7
 10
-61.193067499999984
 20
214.17512550000001
 11
-61.159280500000023
 21
214.45220950000001
  0
LINE
  8
_0-0_0
  6
CONTINUOUS
 62
    7
 10
-60.969081500000016
 20
214.24790949999999
 11
-61.159280500000023
 21
214.45220950000001
  0
LINE
  8
_0-0_0
  6
CONTINUOUS
 62
    7
 10
-61.408218499999975
 20
214.0793305
 11
-61.403579499999978
 21
214.3584285
  0
LINE
  8
_0-0_0
  6
CONTINUOUS
 62
    7
 10
-61.193067499999984
 20
214.17512550000001
 11
-61.403579499999978
 21
214.3584285
  0
LINE
  8
_0-0_0
  6
CONTINUOUS
 62
    7
 10
-61.527755500000012
 20
214.16319250000001
 11
-61.636737499999981
 21
214.23963950000001
  0
LINE
  8
_0-0_0
  6
CONTINUOUS
 62
    7
 10
-61.408218499999975
 20
214.0793305
 11
-61.527755500000012
 21
214.16319250000001
  0
LINE
  8
_0-0_0
  6
CONTINUOUS
 62
    7
 10
-61.612176499999975
 20
213.9615785
 11
-61.636737499999981
 21
214.23963950000001
  0
LINE
  8
_0-0_0
  6
CONTINUOUS
 62
    7
 10
-61.802709499999992
 20
213.8231505
 11
-61.856201499999997
 21
214.0971065
  0
LINE
  8
_0-0_0
  6
CONTINUOUS
 62
    7
 10
-61.612176499999975
 20
213.9615785
 11
-61.856201499999997
 21
214.0971065
  0
LINE
  8
_0-0_0
  6
CONTINUOUS
 62
    7
 10
-61.977729500000009
 20
213.66555750000001
 11
-62.059566500000017
 21
213.9324335
  0
LINE
  8
_0-0_0
  6
CONTINUOUS
 62
    7
 10
-61.802709499999992
 20
213.8231505
 11
-62.059566500000017
 21
213.9324335
  0
LINE
  8
_0-0_0
  6
CONTINUOUS
 62
    7
 10
-62.135316499999988
 20
213.49053950000001
 11
-62.24460049999999
 21
213.74740550000001
  0
LINE
  8
_0-0_0
  6
CONTINUOUS
 62
    7
 10
-61.977729500000009
 20
213.66555750000001
 11
-62.24460049999999
 21
213.74740550000001
  0
LINE
  8
_0-0_0
  6
CONTINUOUS
 62
    7
 10
-62.273748500000011
 20
213.30000250000001
 11
-62.409282500000018
 21
213.5440365
  0
LINE
  8
_0-0_0
  6
CONTINUOUS
 62
    7
 10
-62.135316499999988
 20
213.49053950000001
 11
-62.409282500000018
 21
213.5440365
  0
LINE
  8
_0-0_0
  6
CONTINUOUS
 62
    7
 10
-62.391502500000001
 20
213.09605350000001
 11
-62.551803500000005
 21
213.3245695
  0
LINE
  8
_0-0_0
  6
CONTINUOUS
 62
    7
 10
-62.273748500000011
 20
213.30000250000001
 11
-62.551803500000005
 21
213.3245695
  0
LINE
  8
_0-0_0
  6
CONTINUOUS
 62
    7
 10
-62.487295500000016
 20
212.88090550000001
 11
-62.670602499999973
 21
213.09141550000001
  0
LINE
  8
_0-0_0
  6
CONTINUOUS
 62
    7
 10
-62.391502500000001
 20
213.09605350000001
 11
-62.670602499999973
 21
213.09141550000001
  0
LINE
  8
_0-0_0
  6
CONTINUOUS
 62
    7
 10
-62.560071499999992
 20
212.65692150000001
 11
-62.764381500000013
 21
212.8471065
  0
LINE
  8
_0-0_0
  6
CONTINUOUS
 62
    7
 10
-62.487295500000016
 20
212.88090550000001
 11
-62.764381500000013
 21
212.8471065
  0
LINE
  8
_0-0_0
  6
CONTINUOUS
 62
    7
 10
-62.609037499999999
 20
212.42654450000001
 11
-62.832107500000006
 21
212.59434450000001
  0
LINE
  8
_0-0_0
  6
CONTINUOUS
 62
    7
 10
-62.560071499999992
 20
212.65692150000001
 11
-62.832107500000006
 21
212.59434450000001
  0
LINE
  8
_0-0_0
  6
CONTINUOUS
 62
    7
 10
-62.609037499999999
 20
212.42654450000001
 11
-62.873042499999997
 21
212.3358915
  0
LINE
  8
_0-0_0
  6
CONTINUOUS
 62
    7
 10
-62.633655499999975
 20
212.19232149999999
 11
-62.873042499999997
 21
212.3358915
  0
LINE
  8
_0-0_0
  6
CONTINUOUS
 62
    7
 10
-62.633655499999975
 20
211.9568175
 11
-62.886737499999981
 21
212.0745695
  0
LINE
  8
_0-0_0
  6
CONTINUOUS
 62
    7
 10
-62.633655499999975
 20
212.19232149999999
 11
-62.886737499999981
 21
212.0745695
  0
LINE
  8
_0-0_0
  6
CONTINUOUS
 62
    7
 10
-62.609037499999999
 20
211.72259550000001
 11
-62.873042499999997
 21
211.81324749999999
  0
LINE
  8
_0-0_0
  6
CONTINUOUS
 62
    7
 10
-62.633655499999975
 20
211.9568175
 11
-62.873042499999997
 21
211.81324749999999
  0
LINE
  8
_0-0_0
  6
CONTINUOUS
 62
    7
 10
-62.560071499999992
 20
211.4922335
 11
-62.832107500000006
 21
211.55479450000001
  0
LINE
  8
_0-0_0
  6
CONTINUOUS
 62
    7
 10
-62.609037499999999
 20
211.72259550000001
 11
-62.832107500000006
 21
211.55479450000001
  0
LINE
  8
_0-0_0
  6
CONTINUOUS
 62
    7
 10
-62.487295500000016
 20
211.26823450000001
 11
-62.764381500000013
 21
211.3020325
  0
LINE
  8
_0-0_0
  6
CONTINUOUS
 62
    7
 10
-62.560071499999992
 20
211.4922335
 11
-62.764381500000013
 21
211.3020325
  0
LINE
  8
_0-0_0
  6
CONTINUOUS
 62
    7
 10
-62.391502500000001
 20
211.05308550000001
 11
-62.670602499999973
 21
211.05772350000001
  0
LINE
  8
_0-0_0
  6
CONTINUOUS
 62
    7
 10
-62.487295500000016
 20
211.26823450000001
 11
-62.670602499999973
 21
211.05772350000001
  0
LINE
  8
_0-0_0
  6
CONTINUOUS
 62
    7
 10
-62.273748500000011
 20
210.84913650000001
 11
-62.551803500000005
 21
210.8245695
  0
LINE
  8
_0-0_0
  6
CONTINUOUS
 62
    7
 10
-62.391502500000001
 20
211.05308550000001
 11
-62.551803500000005
 21
210.8245695
  0
LINE
  8
_0-0_0
  6
CONTINUOUS
 62
    7
 10
-62.135316499999988
 20
210.65859950000001
 11
-62.409282500000018
 21
210.60510250000002
  0
LINE
  8
_0-0_0
  6
CONTINUOUS
 62
    7
 10
-62.273748500000011
 20
210.84913650000001
 11
-62.409282500000018
 21
210.60510250000002
  0
LINE
  8
_0-0_0
  6
CONTINUOUS
 62
    7
 10
-61.977729500000009
 20
210.48358150000001
 11
-62.24460049999999
 21
210.4017485
  0
LINE
  8
_0-0_0
  6
CONTINUOUS
 62
    7
 10
-62.135316499999988
 20
210.65859950000001
 11
-62.24460049999999
 21
210.4017485
  0
LINE
  8
_0-0_0
  6
CONTINUOUS
 62
    7
 10
-61.802709499999992
 20
210.32598849999999
 11
-62.059566500000017
 21
210.21670549999999
  0
LINE
  8
_0-0_0
  6
CONTINUOUS
 62
    7
 10
-61.977729500000009
 20
210.48358150000001
 11
-62.059566500000017
 21
210.21670549999999
  0
LINE
  8
_0-0_0
  6
CONTINUOUS
 62
    7
 10
-61.612176499999975
 20
210.18756049999999
 11
-61.856201499999997
 21
210.0520325
  0
LINE
  8
_0-0_0
  6
CONTINUOUS
 62
    7
 10
-61.802709499999992
 20
210.32598849999999
 11
-61.856201499999997
 21
210.0520325
  0
LINE
  8
_0-0_0
  6
CONTINUOUS
 62
    7
 10
-61.408218499999975
 20
210.06980849999999
 11
-61.636737499999981
 21
209.9095155
  0
LINE
  8
_0-0_0
  6
CONTINUOUS
 62
    7
 10
-61.612176499999975
 20
210.18756049999999
 11
-61.636737499999981
 21
209.9095155
  0
LINE
  8
_0-0_0
  6
CONTINUOUS
 62
    7
 10
-61.193067499999984
 20
209.97401450000001
 11
-61.403579499999978
 21
209.79071049999999
  0
LINE
  8
_0-0_0
  6
CONTINUOUS
 62
    7
 10
-61.408218499999975
 20
210.06980849999999
 11
-61.403579499999978
 21
209.79071049999999
  0
LINE
  8
_0-0_0
  6
CONTINUOUS
 62
    7
 10
-60.969081500000016
 20
209.90124449999999
 11
-61.159280500000023
 21
209.69692950000001
  0
LINE
  8
_0-0_0
  6
CONTINUOUS
 62
    7
 10
-61.193067499999984
 20
209.97401450000001
 11
-61.159280500000023
 21
209.69692950000001
  0
LINE
  8
_0-0_0
  6
CONTINUOUS
 62
    7
 10
-60.73871650000001
 20
209.85226449999999
 11
-60.906516500000009
 21
209.6292115
  0
LINE
  8
_0-0_0
  6
CONTINUOUS
 62
    7
 10
-60.969081500000016
 20
209.90124449999999
 11
-60.906516500000009
 21
209.6292115
  0
LINE
  8
_0-0_0
  6
CONTINUOUS
 62
    7
 10
-60.504493499999967
 20
209.8276515
 11
-60.648059499999988
 21
209.58827149999999
  0
LINE
  8
_0-0_0
  6
CONTINUOUS
 62
    7
 10
-60.73871650000001
 20
209.85226449999999
 11
-60.648059499999988
 21
209.58827149999999
  0
LINE
  8
_0-0_0
  6
CONTINUOUS
 62
    7
 10
-60.268981499999995
 20
209.8276515
 11
-60.386737499999981
 21
209.5745695
  0
LINE
  8
_0-0_0
  6
CONTINUOUS
 62
    7
 10
-60.504493499999967
 20
209.8276515
 11
-60.386737499999981
 21
209.5745695
  0
LINE
  8
_0-0_0
  6
CONTINUOUS
 62
    7
 10
-60.034761500000002
 20
209.85226449999999
 11
-60.125417499999969
 21
209.58827149999999
  0
LINE
  8
_0-0_0
  6
CONTINUOUS
 62
    7
 10
-60.268981499999995
 20
209.8276515
 11
-60.125417499999969
 21
209.58827149999999
  0
LINE
  8
_0-0_0
  6
CONTINUOUS
 62
    7
 10
-59.804395499999998
 20
209.90124449999999
 11
-59.866960500000005
 21
209.6292115
  0
LINE
  8
_0-0_0
  6
CONTINUOUS
 62
    7
 10
-60.034761500000002
 20
209.85226449999999
 11
-59.866960500000005
 21
209.6292115
  0
LINE
  8
_0-0_0
  6
CONTINUOUS
 62
    7
 10
-59.580409499999973
 20
209.97401450000001
 11
-59.614196499999991
 21
209.69692950000001
  0
LINE
  8
_0-0_0
  6
CONTINUOUS
 62
    7
 10
-59.804395499999998
 20
209.90124449999999
 11
-59.614196499999991
 21
209.69692950000001
  0
LINE
  8
_0-0_0
  6
CONTINUOUS
 62
    7
 10
-59.365259499999979
 20
210.06980849999999
 11
-59.369895499999984
 21
209.79071049999999
  0
LINE
  8
_0-0_0
  6
CONTINUOUS
 62
    7
 10
-59.580409499999973
 20
209.97401450000001
 11
-59.369895499999984
 21
209.79071049999999
  0
LINE
  8
_0-0_0
  6
CONTINUOUS
 62
    7
 10
-59.245723499999997
 20
209.9859615
 11
-59.136737499999981
 21
209.9095155
  0
LINE
  8
_0-0_0
  6
CONTINUOUS
 62
    7
 10
-59.365259499999979
 20
210.06980849999999
 11
-59.245723499999997
 21
209.9859615
  0
LINE
  8
_0-0_0
  6
CONTINUOUS
 62
    7
 10
-59.161300499999982
 20
210.18756049999999
 11
-59.136737499999981
 21
209.9095155
  0
LINE
  8
_0-0_0
  6
CONTINUOUS
 62
    7
 10
-58.970767499999965
 20
210.32598849999999
 11
-58.917278500000009
 21
210.0520325
  0
LINE
  8
_0-0_0
  6
CONTINUOUS
 62
    7
 10
-59.161300499999982
 20
210.18756049999999
 11
-58.917278500000009
 21
210.0520325
  0
LINE
  8
_0-0_0
  6
CONTINUOUS
 62
    7
 10
-58.795749499999999
 20
210.48358150000001
 11
-58.713912499999992
 21
210.21670549999999
  0
LINE
  8
_0-0_0
  6
CONTINUOUS
 62
    7
 10
-58.970767499999965
 20
210.32598849999999
 11
-58.713912499999992
 21
210.21670549999999
  0
LINE
  8
_0-0_0
  6
CONTINUOUS
 62
    7
 10
-58.638160499999969
 20
210.65859950000001
 11
-58.528877500000021
 21
210.4017485
  0
LINE
  8
_0-0_0
  6
CONTINUOUS
 62
    7
 10
-58.795749499999999
 20
210.48358150000001
 11
-58.528877500000021
 21
210.4017485
  0
LINE
  8
_0-0_0
  6
CONTINUOUS
 62
    7
 10
-58.499729500000001
 20
210.84913650000001
 11
-58.364196499999991
 21
210.60510250000002
  0
LINE
  8
_0-0_0
  6
CONTINUOUS
 62
    7
 10
-58.638160499999969
 20
210.65859950000001
 11
-58.364196499999991
 21
210.60510250000002
  0
LINE
  8
_0-0_0
  6
CONTINUOUS
 62
    7
 10
-58.381973500000015
 20
211.05308550000001
 11
-58.221675500000003
 21
210.8245695
  0
LINE
  8
_0-0_0
  6
CONTINUOUS
 62
    7
 10
-58.499729500000001
 20
210.84913650000001
 11
-58.221675500000003
 21
210.8245695
  0
LINE
  8
_0-0_0
  6
CONTINUOUS
 62
    7
 10
-58.286182499999995
 20
211.26823450000001
 11
-58.102874499999984
 21
211.05772350000001
  0
LINE
  8
_0-0_0
  6
CONTINUOUS
 62
    7
 10
-58.381973500000015
 20
211.05308550000001
 11
-58.102874499999984
 21
211.05772350000001
  0
LINE
  8
_0-0_0
  6
CONTINUOUS
 62
    7
 10
-58.213405500000022
 20
211.4922335
 11
-58.009097499999996
 21
211.3020325
  0
LINE
  8
_0-0_0
  6
CONTINUOUS
 62
    7
 10
-58.286182499999995
 20
211.26823450000001
 11
-58.009097499999996
 21
211.3020325
  0
LINE
  8
_0-0_0
  6
CONTINUOUS
 62
    7
 10
-58.164440500000012
 20
211.72259550000001
 11
-57.941369500000008
 21
211.55479450000001
  0
LINE
  8
_0-0_0
  6
CONTINUOUS
 62
    7
 10
-58.213405500000022
 20
211.4922335
 11
-57.941369500000008
 21
211.55479450000001
  0
LINE
  8
_0-0_0
  6
CONTINUOUS
 62
    7
 10
-58.139823499999977
 20
211.9568175
 11
-57.900434500000017
 21
211.81324749999999
  0
LINE
  8
_0-0_0
  6
CONTINUOUS
 62
    7
 10
-58.164440500000012
 20
211.72259550000001
 11
-57.900434500000017
 21
211.81324749999999
  0
LINE
  8
_0-0_0
  6
CONTINUOUS
 62
    7
 10
-58.139823499999977
 20
212.19232149999999
 11
-57.886737499999981
 21
212.0745695
  0
LINE
  8
_0-0_0
  6
CONTINUOUS
 62
    7
 10
-58.139823499999977
 20
211.9568175
 11
-57.886737499999981
 21
212.0745695
  0
LINE
  8
_0-0_0
  6
CONTINUOUS
 62
    7
 10
-58.164440500000012
 20
212.42654450000001
 11
-57.900434500000017
 21
212.3358915
  0
LINE
  8
_0-0_0
  6
CONTINUOUS
 62
    7
 10
-58.139823499999977
 20
212.19232149999999
 11
-57.900434500000017
 21
212.3358915
  0
LINE
  8
_0-0_0
  6
CONTINUOUS
 62
    7
 10
-58.213405500000022
 20
212.65692150000001
 11
-57.941369500000008
 21
212.59434450000001
  0
LINE
  8
_0-0_0
  6
CONTINUOUS
 62
    7
 10
-58.164440500000012
 20
212.42654450000001
 11
-57.941369500000008
 21
212.59434450000001
  0
LINE
  8
_0-0_0
  6
CONTINUOUS
 62
    7
 10
-58.286182499999995
 20
212.88090550000001
 11
-58.009097499999996
 21
212.8471065
  0
LINE
  8
_0-0_0
  6
CONTINUOUS
 62
    7
 10
-58.213405500000022
 20
212.65692150000001
 11
-58.009097499999996
 21
212.8471065
  0
LINE
  8
_0-0_0
  6
CONTINUOUS
 62
    7
 10
-58.381973500000015
 20
213.09605350000001
 11
-58.102874499999984
 21
213.09141550000001
  0
LINE
  8
_0-0_0
  6
CONTINUOUS
 62
    7
 10
-58.286182499999995
 20
212.88090550000001
 11
-58.102874499999984
 21
213.09141550000001
  0
CIRCLE
  8
_0-0_0
  6
CONTINUOUS
 62
    7
 10
-48.386739499999976
 20
228.6745755
 40
2
  0
CIRCLE
  8
_0-0_0
  6
CONTINUOUS
 62
    7
 10
-60.386737499999981
 20
212.0745695
 40
2
  0
LINE
  8
_0-0_0
  6
CONTINUOUS
 62
    7
 10
-47.804630499999973
 20
227.6745755
 11
-48.968849499999976
 21
227.6745755
  0
LINE
  8
_0-0_0
  6
CONTINUOUS
 62
    7
 10
-48.968849499999976
 20
227.6745755
 11
-49.53673950000001
 21
228.6745755
  0
LINE
  8
_0-0_0
  6
CONTINUOUS
 62
    7
 10
-49.53673950000001
 20
228.6745755
 11
-48.968849499999976
 21
229.6745755
  0
LINE
  8
_0-0_0
  6
CONTINUOUS
 62
    7
 10
-48.968849499999976
 20
229.6745755
 11
-47.804630499999973
 21
229.6745755
  0
LINE
  8
_0-0_0
  6
CONTINUOUS
 62
    7
 10
-47.804630499999973
 20
229.6745755
 11
-47.236740499999996
 21
228.6745755
  0
LINE
  8
_0-0_0
  6
CONTINUOUS
 62
    7
 10
-47.236740499999996
 20
228.6745755
 11
-47.804630499999973
 21
227.6745755
  0
CIRCLE
  8
_0-0_0
  6
CONTINUOUS
 62
    7
 10
-54.386737499999981
 20
220.3745725
 40
5
  0
LINE
  8
_0-0_0
  6
CONTINUOUS
 62
    7
 10
-59.804630499999973
 20
211.0745695
 11
-60.968847499999981
 21
211.0745695
  0
LINE
  8
_0-0_0
  6
CONTINUOUS
 62
    7
 10
-60.968847499999981
 20
211.0745695
 11
-61.53673950000001
 21
212.0745695
  0
LINE
  8
_0-0_0
  6
CONTINUOUS
 62
    7
 10
-61.53673950000001
 20
212.0745695
 11
-60.968847499999981
 21
213.0745695
  0
LINE
  8
_0-0_0
  6
CONTINUOUS
 62
    7
 10
-60.968847499999981
 20
213.0745695
 11
-59.804630499999973
 21
213.0745695
  0
LINE
  8
_0-0_0
  6
CONTINUOUS
 62
    7
 10
-59.804630499999973
 20
213.0745695
 11
-59.236740499999996
 21
212.0745695
  0
LINE
  8
_0-0_0
  6
CONTINUOUS
 62
    7
 10
-59.236740499999996
 20
212.0745695
 11
-59.804630499999973
 21
211.0745695
  0
CIRCLE
  8
_0-0_0
  6
CONTINUOUS
 62
    7
 10
-54.386737499999981
 20
220.3745725
 40
4.5381200000000002
  0
CIRCLE
  8
_0-0_0
  6
CONTINUOUS
 62
    7
 10
-54.386737499999981
 20
220.3745725
 40
4
  0
LINE
  8
_0-0_0
  6
CONTINUOUS
 62
    7
 10
-62.5193175
 20
230.32989449999999
 11
-63.18673849999999
 21
230.32989449999999
  0
ARC
  8
_0-0_0
  6
CONTINUOUS
 62
    7
 10
-46.386741499999971
 20
230.7995755
 40
0.2
 50
179.94055499999999
 51
269.99997000000002
  0
ARC
  8
_0-0_0
  6
CONTINUOUS
 62
    7
 10
-47.886739499999976
 20
211.5745695
 40
2
 50
269.99999700000001
 51
273.84026499999999
  0
ARC
  8
_0-0_0
  6
CONTINUOUS
 62
    7
 10
-60.886737499999981
 20
229.1745755
 40
2
 50
90.000003000000007
 51
93.840255999999997
  0
LINE
  8
_0-0_0
  6
CONTINUOUS
 62
    7
 10
-46.086738500000024
 20
230.59957850000001
 11
-46.386741499999971
 21
230.59957850000001
  0
LINE
  8
_0-0_0
  6
CONTINUOUS
 62
    7
 10
-46.086738500000024
 20
233.5495755
 11
-46.386741499999971
 21
233.5495755
  0
ARC
  8
_0-0_0
  6
CONTINUOUS
 62
    7
 10
-62.386737499999981
 20
230.79965150000001
 40
0.2
 50
270.00002499999994
 51
0.0594439999999606
  0
ARC
  8
_0-0_0
  6
CONTINUOUS
 62
    7
 10
-46.086772499999995
 20
230.7996215
 40
0.200055
 50
270.00964199999999
 51
1.3705509999999435
  0
ARC
  8
_0-0_0
  6
CONTINUOUS
 62
    7
 10
-46.086738500000024
 20
233.34957850000001
 40
0.2
 50
359.91222800000003
 51
89.999948000000003
  0
LINE
  8
_0-0_0
  6
CONTINUOUS
 62
    7
 10
-62.68673849999999
 20
230.59963949999999
 11
-62.386737499999981
 21
230.59963949999999
  0
ARC
  8
_0-0_0
  6
CONTINUOUS
 62
    7
 10
-62.686706500000014
 20
230.79969750000001
 40
0.200055
 50
178.629446
 51
269.99035300000003
  0
LINE
  8
_0-0_0
  6
CONTINUOUS
 62
    7
 10
-45.686736499999995
 20
236.0746455
 11
-45.686736499999995
 21
249.2746425
  0
ARC
  8
_0-0_0
  6
CONTINUOUS
 62
    7
 10
-46.186736499999995
 20
236.0746455
 40
0.5
 50
269.99999700000001
 51
0
  0
ARC
  8
_0-0_0
  6
CONTINUOUS
 62
    7
 10
-45.745315500000004
 20
249.47463949999999
 40
0.1
 50
135
 51
225
  0
LINE
  8
_0-0_0
  6
CONTINUOUS
 62
    7
 10
-45.816028500000016
 20
249.4039305
 11
-45.686736499999995
 21
249.2746425
  0
LINE
  8
_0-0_0
  6
CONTINUOUS
 62
    7
 10
-46.186736499999995
 20
235.5746455
 11
-48.086738499999967
 21
235.5746455
  0
ARC
  8
_0-0_0
  6
CONTINUOUS
 62
    7
 10
-48.086738499999967
 20
236.0746455
 40
0.5
 50
233.12990600000001
 51
269.99999700000001
  0
ARC
  8
_0-0_0
  6
CONTINUOUS
 62
    7
 10
-60.78673950000001
 20
236.0746455
 40
0.5
 50
269.99999700000001
 51
306.87009999999998
  0
LINE
  8
_0-0_0
  6
CONTINUOUS
 62
    7
 10
-60.78673950000001
 20
235.5746455
 11
-62.68673849999999
 21
235.5746455
  0
ARC
  8
_0-0_0
  6
CONTINUOUS
 62
    7
 10
-62.68673849999999
 20
236.0746455
 40
0.5
 50
180.00000900000003
 51
269.99999700000001
  0
LINE
  8
_0-0_0
  6
CONTINUOUS
 62
    7
 10
-63.18673849999999
 20
245.50964350000001
 11
-63.18673849999999
 21
236.0746455
  0
LINE
  8
_0-0_0
  6
CONTINUOUS
 62
    7
 10
-63.18673849999999
 20
245.50964350000001
 11
-62.486740499999996
 21
245.50964350000001
  0
LINE
  8
_0-0_0
  6
CONTINUOUS
 62
    7
 10
-46.486740499999996
 20
264.07464549999997
 11
-46.280708500000003
 21
264.07464549999997
  0
LINE
  8
_0-0_0
  6
CONTINUOUS
 62
    7
 10
-46.280708500000003
 20
264.07464549999997
 11
-45.686736499999995
 21
263.4806825
  0
LINE
  8
_0-0_0
  6
CONTINUOUS
 62
    7
 10
-45.686736499999995
 20
258.47463949999997
 11
-45.686736499999995
 21
263.4806825
  0
LINE
  8
_0-0_0
  6
CONTINUOUS
 62
    7
 10
-45.816028500000016
 20
258.34535249999999
 11
-45.686736499999995
 21
258.47463949999997
  0
ARC
  8
_0-0_0
  6
CONTINUOUS
 62
    7
 10
-45.745315500000004
 20
258.27464250000003
 40
0.1
 50
135
 51
225
  0
LINE
  8
_0-0_0
  6
CONTINUOUS
 62
    7
 10
-45.816028500000016
 20
258.20393350000001
 11
-45.686736499999995
 21
258.07464549999997
  0
LINE
  8
_0-0_0
  6
CONTINUOUS
 62
    7
 10
-45.686736499999995
 20
257.37464850000003
 11
-45.686736499999995
 21
258.07464549999997
  0
LINE
  8
_0-0_0
  6
CONTINUOUS
 62
    7
 10
-45.816028500000016
 20
257.2453615
 11
-45.686736499999995
 21
257.37464850000003
  0
ARC
  8
_0-0_0
  6
CONTINUOUS
 62
    7
 10
-45.745315500000004
 20
257.17465149999998
 40
0.1
 50
135
 51
225
  0
LINE
  8
_0-0_0
  6
CONTINUOUS
 62
    7
 10
-45.816028500000016
 20
257.1039275
 11
-45.686736499999995
 21
256.97463949999997
  0
LINE
  8
_0-0_0
  6
CONTINUOUS
 62
    7
 10
-45.686736499999995
 20
256.27464250000003
 11
-45.686736499999995
 21
256.97463949999997
  0
LINE
  8
_0-0_0
  6
CONTINUOUS
 62
    7
 10
-45.816028500000016
 20
256.14535549999999
 11
-45.686736499999995
 21
256.27464250000003
  0
ARC
  8
_0-0_0
  6
CONTINUOUS
 62
    7
 10
-45.745315500000004
 20
256.07464549999997
 40
0.1
 50
135
 51
225
  0
LINE
  8
_0-0_0
  6
CONTINUOUS
 62
    7
 10
-45.816028500000016
 20
256.00393650000001
 11
-45.686736499999995
 21
255.87464850000001
  0
LINE
  8
_0-0_0
  6
CONTINUOUS
 62
    7
 10
-45.686736499999995
 20
255.17465150000001
 11
-45.686736499999995
 21
255.87464850000001
  0
LINE
  8
_0-0_0
  6
CONTINUOUS
 62
    7
 10
-45.816028500000016
 20
255.04534950000001
 11
-45.686736499999995
 21
255.17465150000001
  0
ARC
  8
_0-0_0
  6
CONTINUOUS
 62
    7
 10
-45.745315500000004
 20
254.97463949999999
 40
0.1
 50
135
 51
225
  0
LINE
  8
_0-0_0
  6
CONTINUOUS
 62
    7
 10
-45.816028500000016
 20
254.9039305
 11
-45.686736499999995
 21
254.7746425
  0
LINE
  8
_0-0_0
  6
CONTINUOUS
 62
    7
 10
-45.686736499999995
 20
254.0746455
 11
-45.686736499999995
 21
254.7746425
  0
LINE
  8
_0-0_0
  6
CONTINUOUS
 62
    7
 10
-45.816028500000016
 20
253.9453585
 11
-45.686736499999995
 21
254.0746455
  0
ARC
  8
_0-0_0
  6
CONTINUOUS
 62
    7
 10
-45.745315500000004
 20
253.87464850000001
 40
0.1
 50
135
 51
225
  0
LINE
  8
_0-0_0
  6
CONTINUOUS
 62
    7
 10
-45.816028500000016
 20
253.80392449999999
 11
-45.686736499999995
 21
253.67465150000001
  0
LINE
  8
_0-0_0
  6
CONTINUOUS
 62
    7
 10
-45.686736499999995
 20
252.97463949999999
 11
-45.686736499999995
 21
253.67465150000001
  0
LINE
  8
_0-0_0
  6
CONTINUOUS
 62
    7
 10
-45.816028500000016
 20
252.84535249999999
 11
-45.686736499999995
 21
252.97463949999999
  0
ARC
  8
_0-0_0
  6
CONTINUOUS
 62
    7
 10
-45.745315500000004
 20
252.7746425
 40
0.1
 50
135
 51
225
  0
LINE
  8
_0-0_0
  6
CONTINUOUS
 62
    7
 10
-45.816028500000016
 20
252.70393350000001
 11
-45.686736499999995
 21
252.5746455
  0
LINE
  8
_0-0_0
  6
CONTINUOUS
 62
    7
 10
-45.686736499999995
 20
251.87464850000001
 11
-45.686736499999995
 21
252.5746455
  0
LINE
  8
_0-0_0
  6
CONTINUOUS
 62
    7
 10
-45.816028500000016
 20
251.7453615
 11
-45.686736499999995
 21
251.87464850000001
  0
ARC
  8
_0-0_0
  6
CONTINUOUS
 62
    7
 10
-45.745315500000004
 20
251.67465150000001
 40
0.1
 50
135
 51
225
  0
LINE
  8
_0-0_0
  6
CONTINUOUS
 62
    7
 10
-45.816028500000016
 20
251.60394250000002
 11
-45.686736499999995
 21
251.47463949999999
  0
LINE
  8
_0-0_0
  6
CONTINUOUS
 62
    7
 10
-45.686736499999995
 20
250.7746425
 11
-45.686736499999995
 21
251.47463949999999
  0
LINE
  8
_0-0_0
  6
CONTINUOUS
 62
    7
 10
-45.816028500000016
 20
250.64535549999999
 11
-45.686736499999995
 21
250.7746425
  0
ARC
  8
_0-0_0
  6
CONTINUOUS
 62
    7
 10
-45.745315500000004
 20
250.5746455
 40
0.1
 50
135
 51
225
  0
LINE
  8
_0-0_0
  6
CONTINUOUS
 62
    7
 10
-45.816028500000016
 20
250.50393650000001
 11
-45.686736499999995
 21
250.37464850000001
  0
LINE
  8
_0-0_0
  6
CONTINUOUS
 62
    7
 10
-45.686736499999995
 20
249.67465150000001
 11
-45.686736499999995
 21
250.37464850000001
  0
LINE
  8
_0-0_0
  6
CONTINUOUS
 62
    7
 10
-45.816028500000016
 20
249.54534950000001
 11
-45.686736499999995
 21
249.67465150000001
  0
LINE
  8
_0-0_0
  6
CONTINUOUS
 62
    7
 10
-45.686736499999995
 20
241.5746455
 11
-45.586738499999996
 21
241.5746455
  0
LINE
  8
_0-0_0
  6
CONTINUOUS
 62
    7
 10
-45.586738499999996
 20
241.0746455
 11
-45.586738499999996
 21
241.5746455
  0
LINE
  8
_0-0_0
  6
CONTINUOUS
 62
    7
 10
-45.586738499999996
 20
241.0746455
 11
-45.586738499999996
 21
237.0746455
  0
LINE
  8
_0-0_0
  6
CONTINUOUS
 62
    7
 10
-45.686736499999995
 20
236.5746455
 11
-45.586738499999996
 21
236.5746455
  0
LINE
  8
_0-0_0
  6
CONTINUOUS
 62
    7
 10
-45.586738499999996
 20
236.5746455
 11
-45.586738499999996
 21
237.0746455
  0
LINE
  8
_0-0_0
  6
CONTINUOUS
 62
    7
 10
-63.18673849999999
 20
245.57466149999999
 11
-63.18673849999999
 21
245.50964350000001
  0
LINE
  8
_0-0_0
  6
CONTINUOUS
 62
    7
 10
-46.686736499999995
 20
264.37464850000003
 11
-46.686736499999995
 21
264.27464250000003
  0
LINE
  8
_0-0_0
  6
CONTINUOUS
 62
    7
 10
-63.28673950000001
 20
245.5746455
 11
-62.486738500000001
 21
245.5746455
  0
LINE
  8
_0-0_0
  6
CONTINUOUS
 62
    7
 10
-62.78673950000001
 20
267.37464850000003
 11
-62.78673950000001
 21
263.15310650000004
  0
LINE
  8
_0-0_0
  6
CONTINUOUS
 62
    7
 10
-61.68673849999999
 20
267.37464850000003
 11
-61.68673849999999
 21
264.37464850000003
  0
LINE
  8
_0-0_0
  6
CONTINUOUS
 62
    7
 10
-62.78673950000001
 20
263.15310650000004
 11
-62.486738500000001
 21
263.15310650000004
  0
ARC
  8
_0-0_0
  6
CONTINUOUS
 62
    7
 10
-59.18673849999999
 20
264.37464850000003
 40
2.5
 50
90.000003000000007
 51
180.00000900000001
  0
ARC
  8
_0-0_0
  6
CONTINUOUS
 62
    7
 10
-49.18673849999999
 20
264.37464850000003
 40
2.5
 50
0
 51
90.000003000000007
  0
LINE
  8
_0-0_0
  6
CONTINUOUS
 62
    7
 10
-61.68673849999999
 20
264.27464250000003
 11
-61.68673849999999
 21
264.37464850000003
  0
LINE
  8
_0-0_0
  6
CONTINUOUS
 62
    7
 10
-49.18673849999999
 20
266.87464850000003
 11
-59.18673849999999
 21
266.87464850000003
  0
LINE
  8
_0-0_0
  6
CONTINUOUS
 62
    7
 10
-45.486740499999996
 20
237.0746455
 11
-45.486740499999996
 21
237.20500150000001
  0
LINE
  8
_0-0_0
  6
CONTINUOUS
 62
    7
 10
-45.486740499999996
 20
240.70500150000001
 11
-45.486740499999996
 21
237.20500150000001
  0
LINE
  8
_0-0_0
  6
CONTINUOUS
 62
    7
 10
-45.586738499999996
 20
240.97463949999999
 11
-45.486740499999996
 21
240.97463949999999
  0
LINE
  8
_0-0_0
  6
CONTINUOUS
 62
    7
 10
-45.486740499999996
 20
240.70500150000001
 11
-45.486740499999996
 21
240.97463949999999
  0
LINE
  8
_0-0_0
  6
CONTINUOUS
 62
    7
 10
-45.886737499999981
 20
263.47463949999997
 11
-46.886737499999981
 21
264.47463949999997
  0
LINE
  8
_0-0_0
  6
CONTINUOUS
 62
    7
 10
-45.886741499999971
 20
235.67465150000001
 11
-45.886737499999981
 21
263.47463949999997
  0
LINE
  8
_0-0_0
  6
CONTINUOUS
 62
    7
 10
-62.486738500000001
 20
235.67465150000001
 11
-45.886741499999971
 21
235.67465150000001
  0
LINE
  8
_0-0_0
  6
CONTINUOUS
 62
    7
 10
-62.486738500000001
 20
263.47463949999997
 11
-62.486738500000001
 21
235.67465150000001
  0
LINE
  8
_0-0_0
  6
CONTINUOUS
 62
    7
 10
-63.28673950000001
 20
245.5746455
 11
-63.28673950000001
 21
262.3874515
  0
LINE
  8
_0-0_0
  6
CONTINUOUS
 62
    7
 10
-63.28673950000001
 20
266.87464850000003
 11
-63.28673950000001
 21
262.3874515
  0
ARC
  8
_0-0_0
  6
CONTINUOUS
 62
    7
 10
-31.834999499999981
 20
242.3924715
 40
37.269466000000001
 50
146.14857699999999
 51
147.55443399999999
  0
ARC
  8
_0-0_0
  6
CONTINUOUS
 62
    7
 10
-49.45578549999999
 20
264.07464549999997
 40
2.6000000000000001
 50
8.8498839999999994
 51
90.000002999999992
  0
LINE
  8
_0-0_0
  6
CONTINUOUS
 62
    7
 10
-49.45578549999999
 20
266.67465149999998
 11
-58.917692499999987
 21
266.67465149999998
  0
ARC
  8
_0-0_0
  6
CONTINUOUS
 62
    7
 10
-58.917692499999987
 20
264.07464549999997
 40
2.6000000000000001
 50
90.000003000000007
 51
171.150115
  0
LINE
  8
_0-0_0
  6
CONTINUOUS
 62
    7
 10
-62.486738500000001
 20
263.47463949999997
 11
-61.486738500000001
 21
264.47463949999997
  0
LINE
  8
_0-0_0
  6
CONTINUOUS
 62
    7
 10
-46.886737499999981
 20
263.06042450000001
 11
-45.886737499999981
 21
263.47463949999997
  0
ARC
  8
_0-0_0
  6
CONTINUOUS
 62
    7
 10
-52.429279500000007
 20
275.26077250000003
 40
12.126564999999999
 50
292.155034
 51
297.19674500000002
  0
LINE
  8
_0-0_0
  6
CONTINUOUS
 62
    7
 10
-46.886741499999971
 20
236.67465150000001
 11
-45.886741499999971
 21
235.67465150000001
  0
LINE
  8
_0-0_0
  6
CONTINUOUS
 62
    7
 10
-61.486738500000001
 20
236.67465150000001
 11
-62.486738500000001
 21
235.67465150000001
  0
LINE
  8
_0-0_0
  6
CONTINUOUS
 62
    7
 10
-61.486738500000001
 20
263.06042450000001
 11
-62.486738500000001
 21
263.47463949999997
  0
ARC
  8
_0-0_0
  6
CONTINUOUS
 62
    7
 10
-55.94419849999997
 20
275.26077250000003
 40
12.126567
 50
242.80325699999997
 51
247.84494000000001
  0
CIRCLE
  8
_0-0_0
  6
CONTINUOUS
 62
    7
 10
-54.18673849999999
 20
243.87464850000001
 40
2.0670000000000002
  0
LINE
  8
_0-0_0
  6
CONTINUOUS
 62
    7
 10
-61.68673849999999
 20
267.37464850000003
 11
-62.78673950000001
 21
267.37464850000003
  0
LINE
  8
_0-0_0
  6
CONTINUOUS
 62
    7
 10
-45.586738499999996
 20
237.0746455
 11
-45.486740499999996
 21
237.0746455
  0
LINE
  8
_0-0_0
  6
CONTINUOUS
 62
    7
 10
-45.586738499999996
 20
237.0746455
 11
-45.486740499999996
 21
237.0746455
  0
LINE
  8
_0-0_0
  6
CONTINUOUS
 62
    7
 10
-63.28673950000001
 20
266.87464850000003
 11
-62.78673950000001
 21
267.37464850000003
  0
ENDSEC
  0
EOF
