  0
SECTION
  2
HEADER
  9
$ACADVER
  1
AC1009
  9
$INSBASE
 10
0
 20
0
 30
0
  9
$EXTMIN
 10
0
 20
0
  9
$EXTMAX
 10
420.5
 20
297
  9
$LIMMIN
 10
0
 20
0
  9
$LIMMAX
 10
420.5
 20
297
  9
$LTSCALE
 40
0.5
  0
ENDSEC
  0
SECTION
  2
TABLES
  0
TABLE
  2
LTYPE
 70
     9
  0
LTYPE
  2
CONTINUOUS
 70
    64
  3
実線
 72
    65
 73
     0
 40
0.0
  0
LTYPE
  2
DASHED1
 70
    64
  3
--  --  --  --  --  --  --  --  
 72
    65
 73
     2
 40
2.5
 49
1.25
 49
-1.25
  0
LTYPE
  2
DASHED2
 70
    64
  3
----    ----    ----    ----    
 72
    65
 73
     2
 40
5.0
 49
2.5
 49
-2.5
  0
LTYPE
  2
DASHED3
 70
    64
  3
------  ------  ------  ------  
 72
    65
 73
     2
 40
5.0
 49
3.75
 49
-1.25
  0
LTYPE
  2
CENTER1
 70
    64
  3
----- - ----- - ----- - ----- - 
 72
    65
 73
     4
 40
10.0
 49
6.25
 49
-1.25
 49
1.25
 49
-1.25
  0
LTYPE
  2
CENTER2
 70
    64
  3
----------  --  ----------  --  
 72
    65
 73
     4
 40
20.0
 49
12.5
 49
-2.5
 49
2.5
 49
-2.5
  0
LTYPE
  2
PHANTOM1
 70
    64
  3
--- - - --- - - --- - - --- - - 
 72
    65
 73
     6
 40
10.0
 49
3.25
 49
-1.25
 49
1.25
 49
-1.25
 49
1.25
 49
-1.25
  0
LTYPE
  2
PHANTOM2
 70
    64
  3
--------  -  -  --------  -  -  
 72
    65
 73
     6
 40
20.0
 49
10.0
 49
-2.5
 49
1.25
 49
-2.5
 49
1.25
 49
-2.5
  0
LTYPE
  2
DOT
 70
    64
  3
-   -   -   -   -   -   -   -   
 72
    65
 73
     2
 40
2.5
 49
0.625
 49
-1.875
  0
LTYPE
  2
DUMMY
 70
    64
  3
ダミー
 72
    65
 73
     0
 40
0.0
  0
LTYPE
  2
RAND1
 70
    64
  3
ランダム線1
 72
    65
 73
     4
 40
10.0
 49
1.0
 49
-2.0
 49
3.0
 49
-4.0
  0
LTYPE
  2
RAND2
 70
    64
  3
ランダム線2
 72
    65
 73
     4
 40
14.0
 49
2.0
 49
-3.0
 49
4.0
 49
-5.0
  0
LTYPE
  2
RAND3
 70
    64
  3
ランダム線3
 72
    65
 73
     4
 40
18.0
 49
3.0
 49
-4.0
 49
5.0
 49
-6.0
  0
LTYPE
  2
RAND4
 70
    64
  3
ランダム線4
 72
    65
 73
     4
 40
22.0
 49
4.0
 49
-5.0
 49
6.0
 49
-7.0
  0
LTYPE
  2
RAND5
 70
    64
  3
ランダム線5
 72
    65
 73
     4
 40
26.0
 49
5.0
 49
-6.0
 49
7.0
 49
-8.0
  0
LTYPE
  2
LONG1
 70
    64
  3
----------  --  ----------  --  
 72
    65
 73
     4
 40
40.0
 49
32.5
 49
-2.5
 49
2.5
 49
-2.5
  0
LTYPE
  2
LONG2
 70
    64
  3
--------  -  -  --------  -  -  
 72
    65
 73
     6
 40
40.0
 49
30.0
 49
-2.5
 49
1.25
 49
-2.5
 49
1.25
 49
-2.5
  0
LTYPE
  2
LONG3
 70
    64
  3
+++++++++++++++..+++++++++++++++
 72
    65
 73
     2
 40
40.0
 49
37.5
 49
-2.5
  0
LTYPE
  2
LONG4
 70
    64
  3
+++++++++++++++..+++++++++++++++
 72
    65
 73
     2
 40
80.0
 49
75.0
 49
-5.0
  0
LTYPE
  2
LONG5
 70
    64
  3
----------  --  ----------  --  
 72
    65
 73
     4
 40
60.0
 49
37.5
 49
-7.5
 49
7.5
 49
-7.5
  0
LTYPE
  2
dashed
 70
   64
  3
-------   -------------   ------
 72
   65
 73
    2
 40
7.5
 49
6
 49
-1.5
  0
LTYPE
  2
dashed_spaced
 70
   64
  3
----        --------        ----
 72
   65
 73
    2
 40
12
 49
6
 49
-6
  0
LTYPE
  2
long_dashed_dotted
 70
   64
  3
------------- --- --------------
 72
   65
 73
    4
 40
15.25
 49
12
 49
-1.5
 49
0.25
 49
-1.5
  0
LTYPE
  2
long_dashed_double-dotted
 70
   64
  3
----------- --- --- ------------
 72
   65
 73
    6
 40
17
 49
12
 49
-1.5
 49
0.25
 49
-1.5
 49
0.25
 49
-1.5
  0
LTYPE
  2
long_dashed_triplicate-dotted
 70
   64
  3
--------- --- --- --- ----------
 72
   65
 73
    8
 40
18.75
 49
12
 49
-1.5
 49
0.25
 49
-1.5
 49
0.25
 49
-1.5
 49
0.25
 49
-1.5
  0
LTYPE
  2
dotted
 70
   64
  3
   -       -       -       -    
 72
   65
 73
    2
 40
1.75
 49
0.25
 49
-1.5
  0
LTYPE
  2
chain
 70
   64
  3
-------------- -- --------------
 72
   65
 73
    4
 40
18.5
 49
12
 49
-1.5
 49
3.5
 49
-1.5
  0
LTYPE
  2
chain_double_dash
 70
   64
  3
------------ -- -- -------------
 72
   65
 73
    6
 40
23.5
 49
12
 49
-1.5
 49
3.5
 49
-1.5
 49
3.5
 49
-1.5
  0
LTYPE
  2
dashed_dotted
 70
   64
  3
-----------     -     ----------
 72
   65
 73
    4
 40
9.25
 49
6
 49
-1.5
 49
0.25
 49
-1.5
  0
LTYPE
  2
double-dashed_dotted
 70
   64
  3
------   -----------   -   -----
 72
   65
 73
    6
 40
16.75
 49
6
 49
-1.5
 49
6
 49
-1.5
 49
0.25
 49
-1.5
  0
LTYPE
  2
dashed_double-dotted
 70
   64
  3
---------    -    -    ---------
 72
   65
 73
    6
 40
11
 49
6
 49
-1.5
 49
0.25
 49
-1.5
 49
0.25
 49
-1.5
  0
LTYPE
  2
double-dashed_double-dotted
 70
   64
  3
-----   ---------   -   -   ----
 72
   65
 73
    8
 40
18.5
 49
6
 49
-1.5
 49
6
 49
-1.5
 49
0.25
 49
-1.5
 49
0.25
 49
-1.5
  0
LTYPE
  2
dashed_triplicate-dotted
 70
   64
  3
-------    -    -    -    ------
 72
   65
 73
    8
 40
12.75
 49
6
 49
-1.5
 49
0.25
 49
-1.5
 49
0.25
 49
-1.5
 49
0.25
 49
-1.5
  0
LTYPE
  2
double-dashed_triplicate-dotted
 70
   64
  3
-----  ---------  -  -  -  -----
 72
   65
 73
   10
 40
20.25
 49
6
 49
-1.5
 49
6
 49
-1.5
 49
0.25
 49
-1.5
 49
0.25
 49
-1.5
 49
0.25
 49
-1.5
  0
LTYPE
  2
undefined
 70
   64
  3
--------------------------------
 72
   65
 73
    0
 40
0
  0
ENDTAB
  0
TABLE
  2
STYLE
  5
3
100
AcDbSymbolTable
 70
     1
  0
STYLE
  5
10
100
AcDbSymbolTableRecord
100
AcDbTextStyleTableRecord
  2
STANDARD
 70
     0
 40
0.0
 41
1.0
 50
0.0
 71
     0
 42
0.2
  3
txt
  4
bigfont.shx
  0
STYLE
  5
26
100
AcDbSymbolTableRecord
100
AcDbTextStyleTableRecord
  2
TATEGAKI
 70
    68
 40
0.0
 41
1.0
 50
0.0
 71
     0
 42
1.0
  3
txt
  4
bigfont.shx
  0
ENDTAB
  0
TABLE
  2
LAYER
 70
    2
  0
LAYER
  2
_0-0_0
 70
   64
 62
    7
  6
CONTINUOUS
  0
LAYER
  2
ADD_LINE
 70
   64
 62
    7
  6
CONTINUOUS
  0
ENDTAB
  0
ENDSEC
  0
SECTION
  2
BLOCKS
  0
ENDSEC
  0
SECTION
  2
ENTITIES
  0
LINE
  8
_0-0_0
  6
CONTINUOUS
 62
    7
 10
-1.0710674999999981
 20
268.1751405
 11
-1.0710674999999981
 21
268.1741485
  0
LINE
  8
_0-0_0
  6
CONTINUOUS
 62
    7
 10
151.74143950000001
 20
229.2442015
 11
150.44143650000001
 21
225.7442015
  0
ARC
  8
_0-0_0
  6
CONTINUOUS
 62
    7
 10
151.92892449999999
 20
229.1745755
 40
0.2
 50
20.376434999999997
 51
159.62357000000003
  0
ARC
  8
_0-0_0
  6
CONTINUOUS
 62
    7
 10
189.92892449999999
 20
232.0745695
 40
2.2000000000000002
 50
180.00000900000003
 51
303.74900400000001
  0
LINE
  8
_0-0_0
  6
CONTINUOUS
 62
    7
 10
187.7289275
 20
233.5745695
 11
187.7289275
 21
232.0745695
  0
LINE
  8
_0-0_0
  6
CONTINUOUS
 62
    7
 10
187.7289275
 20
233.5745695
 11
113.12893650000001
 21
233.5745695
  0
LINE
  8
_0-0_0
  6
CONTINUOUS
 62
    7
 10
113.12893650000001
 20
233.5745695
 11
113.12893650000001
 21
232.0745695
  0
ARC
  8
_0-0_0
  6
CONTINUOUS
 62
    7
 10
110.92892449999999
 20
232.0745695
 40
2.2000000000000002
 50
236.25102899999999
 51
0
  0
ARC
  8
_0-0_0
  6
CONTINUOUS
 62
    7
 10
109.42892449999999
 20
229.82957450000001
 40
0.5
 50
56.251010000000008
 51
180.00000900000001
  0
LINE
  8
_0-0_0
  6
CONTINUOUS
 62
    7
 10
108.92892449999999
 20
209.47456350000002
 11
108.92892449999999
 21
210.25169350000002
  0
LINE
  8
_0-0_0
  6
CONTINUOUS
 62
    7
 10
108.92892449999999
 20
209.47456350000002
 11
118.7289275
 21
209.47456350000002
  0
ARC
  8
_0-0_0
  6
CONTINUOUS
 62
    7
 10
118.7289275
 20
209.6745755
 40
0.2
 50
269.99999700000001
 51
0
  0
LINE
  8
_0-0_0
  6
CONTINUOUS
 62
    7
 10
118.92892449999999
 20
211.3745725
 11
118.92892449999999
 21
209.6745755
  0
ARC
  8
_0-0_0
  6
CONTINUOUS
 62
    7
 10
119.12893650000001
 20
211.3745725
 40
0.2
 50
90.000003000000007
 51
180.00000900000001
  0
LINE
  8
_0-0_0
  6
CONTINUOUS
 62
    7
 10
119.62893650000001
 20
211.5745695
 11
119.12893650000001
 21
211.5745695
  0
ARC
  8
_0-0_0
  6
CONTINUOUS
 62
    7
 10
119.62893650000001
 20
211.0745695
 40
0.5
 50
90.000003000000007
 51
180.00000900000001
  0
LINE
  8
_0-0_0
  6
CONTINUOUS
 62
    7
 10
119.12893650000001
 20
209.5745695
 11
119.12893650000001
 21
211.0745695
  0
LINE
  8
_0-0_0
  6
CONTINUOUS
 62
    7
 10
188.7289275
 20
209.5745695
 11
119.12893650000001
 21
209.5745695
  0
LINE
  8
_0-0_0
  6
CONTINUOUS
 62
    7
 10
188.7289275
 20
209.5745695
 11
188.7289275
 21
211.0745695
  0
ARC
  8
_0-0_0
  6
CONTINUOUS
 62
    7
 10
188.2289275
 20
211.0745695
 40
0.5
 50
0
 51
90.000003000000007
  0
LINE
  8
_0-0_0
  6
CONTINUOUS
 62
    7
 10
188.7289275
 20
211.5745695
 11
188.2289275
 21
211.5745695
  0
ARC
  8
_0-0_0
  6
CONTINUOUS
 62
    7
 10
188.7289275
 20
211.3745725
 40
0.2
 50
0
 51
90.000003000000007
  0
LINE
  8
_0-0_0
  6
CONTINUOUS
 62
    7
 10
188.92892449999999
 20
209.6745755
 11
188.92892449999999
 21
211.3745725
  0
ARC
  8
_0-0_0
  6
CONTINUOUS
 62
    7
 10
189.12892150000002
 20
209.6745755
 40
0.2
 50
180.00000900000003
 51
269.99999700000001
  0
LINE
  8
_0-0_0
  6
CONTINUOUS
 62
    7
 10
189.12892150000002
 20
209.47456350000002
 11
189.92892449999999
 21
209.47456350000002
  0
ARC
  8
_0-0_0
  6
CONTINUOUS
 62
    7
 10
189.92892449999999
 20
211.47456350000002
 40
2
 50
269.99999700000001
 51
0.0000099999999886
  0
LINE
  8
_0-0_0
  6
CONTINUOUS
 62
    7
 10
191.92892449999999
 20
229.82957450000001
 11
191.92892449999999
 21
211.47456350000002
  0
ARC
  8
_0-0_0
  6
CONTINUOUS
 62
    7
 10
191.42892449999999
 20
229.82957450000001
 40
0.5
 50
0
 51
123.74898500000002
  0
LINE
  8
_0-0_0
  6
CONTINUOUS
 62
    7
 10
120.42892449999999
 20
211.77456649999999
 11
120.42892449999999
 21
211.97456350000002
  0
LINE
  8
_0-0_0
  6
CONTINUOUS
 62
    7
 10
120.42892449999999
 20
211.97456350000002
 11
187.42892449999999
 21
211.97456350000002
  0
LINE
  8
_0-0_0
  6
CONTINUOUS
 62
    7
 10
187.42892449999999
 20
211.77456649999999
 11
187.42892449999999
 21
211.97456350000002
  0
ARC
  8
_0-0_0
  6
CONTINUOUS
 62
    7
 10
187.62892150000002
 20
211.77456649999999
 40
0.2
 50
180.00000900000003
 51
269.99999700000001
  0
LINE
  8
_0-0_0
  6
CONTINUOUS
 62
    7
 10
187.62892150000002
 20
211.5745695
 11
120.2289275
 21
211.5745695
  0
ARC
  8
_0-0_0
  6
CONTINUOUS
 62
    7
 10
120.2289275
 20
211.77456649999999
 40
0.2
 50
269.99999700000001
 51
0
  0
ARC
  8
_0-0_0
  6
CONTINUOUS
 62
    7
 10
150.62892150000002
 20
225.6745755
 40
0.2
 50
159.62357
 51
269.99999700000001
  0
LINE
  8
_0-0_0
  6
CONTINUOUS
 62
    7
 10
150.62892150000002
 20
225.47457850000001
 11
153.2289275
 21
225.47457850000001
  0
ARC
  8
_0-0_0
  6
CONTINUOUS
 62
    7
 10
153.2289275
 20
225.6745755
 40
0.2
 50
269.99999700000001
 51
20.376435000000019
  0
LINE
  8
_0-0_0
  6
CONTINUOUS
 62
    7
 10
153.41641250000001
 20
225.7442015
 11
152.1164095
 21
229.2442015
  0
LINE
  8
_0-0_0
  6
CONTINUOUS
 62
    7
 10
108.92892449999999
 20
229.1745755
 11
108.92892449999999
 21
231.15194650000001
  0
LINE
  8
_0-0_0
  6
CONTINUOUS
 62
    7
 10
108.92892449999999
 20
229.1745755
 11
108.92892449999999
 21
211.5745695
  0
LINE
  8
_0-0_0
  6
CONTINUOUS
 62
    7
 10
108.92892449999999
 20
210.25169350000002
 11
108.92892449999999
 21
211.5745695
  0
LINE
  8
_0-0_0
  6
CONTINUOUS
 62
    7
 10
191.92892449999999
 20
235.5745695
 11
191.92892449999999
 21
234.5745695
  0
LINE
  8
_0-0_0
  6
CONTINUOUS
 62
    7
 10
191.92892449999999
 20
234.5745695
 11
191.92892449999999
 21
234.0745695
  0
LINE
  8
_0-0_0
  6
CONTINUOUS
 62
    7
 10
191.92892449999999
 20
234.0745695
 11
191.92892449999999
 21
232.0745695
  0
LINE
  8
_0-0_0
  6
CONTINUOUS
 62
    7
 10
191.92892449999999
 20
232.0745695
 11
191.92892449999999
 21
229.82957450000001
  0
LINE
  8
_0-0_0
  6
CONTINUOUS
 62
    7
 10
169.92892449999999
 20
229.5745695
 11
169.92892449999999
 21
215.97456350000002
  0
ARC
  8
_0-0_0
  6
CONTINUOUS
 62
    7
 10
172.92892449999999
 20
229.5745695
 40
3
 50
90.000003000000007
 51
180.00000900000001
  0
LINE
  8
_0-0_0
  6
CONTINUOUS
 62
    7
 10
186.26286350000001
 20
232.5745695
 11
172.92892449999999
 21
232.5745695
  0
ARC
  8
_0-0_0
  6
CONTINUOUS
 62
    7
 10
186.26286350000001
 20
231.5745695
 40
1
 50
7.7664340000000012
 51
90.000002999999992
  0
ARC
  8
_0-0_0
  6
CONTINUOUS
 62
    7
 10
189.92892449999999
 20
232.0745695
 40
2.7000000000000002
 50
187.76643899999999
 51
254.31966600000001
  0
ARC
  8
_0-0_0
  6
CONTINUOUS
 62
    7
 10
188.92892449999999
 20
228.51226750000001
 40
1
 50
0
 51
74.319649999999996
  0
LINE
  8
_0-0_0
  6
CONTINUOUS
 62
    7
 10
189.92892449999999
 20
215.97456350000002
 11
189.92892449999999
 21
228.51226750000001
  0
ARC
  8
_0-0_0
  6
CONTINUOUS
 62
    7
 10
186.92892449999999
 20
215.97456350000002
 40
3
 50
269.99999700000001
 51
0.0000099999999886
  0
LINE
  8
_0-0_0
  6
CONTINUOUS
 62
    7
 10
172.92892449999999
 20
212.97456350000002
 11
186.92892449999999
 21
212.97456350000002
  0
ARC
  8
_0-0_0
  6
CONTINUOUS
 62
    7
 10
172.92892449999999
 20
215.97456350000002
 40
3
 50
180.00000900000003
 51
269.99999700000001
  0
LINE
  8
_0-0_0
  6
CONTINUOUS
 62
    7
 10
115.92892449999999
 20
212.97456350000002
 11
130.92892449999999
 21
212.97456350000002
  0
ARC
  8
_0-0_0
  6
CONTINUOUS
 62
    7
 10
115.92892449999999
 20
215.97456350000002
 40
3
 50
180.00000900000003
 51
269.99999700000001
  0
LINE
  8
_0-0_0
  6
CONTINUOUS
 62
    7
 10
112.92892449999999
 20
229.5745695
 11
112.92892449999999
 21
215.97456350000002
  0
ARC
  8
_0-0_0
  6
CONTINUOUS
 62
    7
 10
115.92892449999999
 20
229.5745695
 40
3
 50
90.000003000000007
 51
180.00000900000001
  0
LINE
  8
_0-0_0
  6
CONTINUOUS
 62
    7
 10
130.92892449999999
 20
232.5745695
 11
115.92892449999999
 21
232.5745695
  0
ARC
  8
_0-0_0
  6
CONTINUOUS
 62
    7
 10
130.92892449999999
 20
229.5745695
 40
3
 50
0
 51
90.000003000000007
  0
LINE
  8
_0-0_0
  6
CONTINUOUS
 62
    7
 10
133.92892449999999
 20
215.97456350000002
 11
133.92892449999999
 21
229.5745695
  0
ARC
  8
_0-0_0
  6
CONTINUOUS
 62
    7
 10
130.92892449999999
 20
215.97456350000002
 40
3
 50
269.99999700000001
 51
0.0000099999999886
  0
LINE
  8
_0-0_0
  6
CONTINUOUS
 62
    7
 10
187.92892449999999
 20
233.5745695
 11
187.7289275
 21
233.5745695
  0
ARC
  8
_0-0_0
  6
CONTINUOUS
 62
    7
 10
189.92892449999999
 20
232.0745695
 40
2
 50
180.00000900000003
 51
0.0000000000000254
  0
LINE
  8
_0-0_0
  6
CONTINUOUS
 62
    7
 10
187.92892449999999
 20
233.5745695
 11
187.92892449999999
 21
232.0745695
  0
LINE
  8
_0-0_0
  6
CONTINUOUS
 62
    7
 10
113.12893650000001
 20
233.5745695
 11
112.92892449999999
 21
233.5745695
  0
LINE
  8
_0-0_0
  6
CONTINUOUS
 62
    7
 10
112.92892449999999
 20
233.5745695
 11
112.92892449999999
 21
232.0745695
  0
ARC
  8
_0-0_0
  6
CONTINUOUS
 62
    7
 10
110.92892449999999
 20
232.0745695
 40
2
 50
180.00000900000003
 51
0.0000000000000254
  0
LINE
  8
_0-0_0
  6
CONTINUOUS
 62
    7
 10
95.428924499999994
 20
234.0745695
 11
95.428924499999994
 21
233.5745695
  0
LINE
  8
_0-0_0
  6
CONTINUOUS
 62
    7
 10
108.92892449999999
 20
231.1580505
 11
108.92892449999999
 21
231.8745725
  0
LINE
  8
_0-0_0
  6
CONTINUOUS
 62
    7
 10
108.92892449999999
 20
231.1580505
 11
108.92892449999999
 21
231.15194650000001
  0
LINE
  8
_0-0_0
  6
CONTINUOUS
 62
    7
 10
108.92892449999999
 20
229.9434205
 11
108.92892449999999
 21
229.82957450000001
  0
LINE
  8
_0-0_0
  6
CONTINUOUS
 62
    7
 10
96.928924499999994
 20
231.1745755
 11
96.928924499999994
 21
229.1745755
  0
LINE
  8
_0-0_0
  6
CONTINUOUS
 62
    7
 10
108.92892449999999
 20
231.1745755
 11
96.928924499999994
 21
231.1745755
  0
LINE
  8
_0-0_0
  6
CONTINUOUS
 62
    7
 10
96.928924499999994
 20
225.6745755
 11
96.928924499999994
 21
228.6745755
  0
LINE
  8
_0-0_0
  6
CONTINUOUS
 62
    7
 10
96.928924499999994
 20
228.6745755
 11
96.928924499999994
 21
229.1745755
  0
LINE
  8
_0-0_0
  6
CONTINUOUS
 62
    7
 10
96.928924499999994
 20
225.6745755
 11
96.928924499999994
 21
225.1745755
  0
ARC
  8
_0-0_0
  6
CONTINUOUS
 62
    7
 10
102.92893950000001
 20
225.87455750000001
 40
0.500016
 50
0.001164
 51
179.99560600000004
  0
LINE
  8
_0-0_0
  6
CONTINUOUS
 62
    7
 10
102.42892449999999
 20
225.8745725
 11
102.42892449999999
 21
213.8745725
  0
ARC
  8
_0-0_0
  6
CONTINUOUS
 62
    7
 10
102.92893950000001
 20
213.87458749999999
 40
0.500016
 50
180.00117
 51
359.995611
  0
LINE
  8
_0-0_0
  6
CONTINUOUS
 62
    7
 10
103.42892449999999
 20
225.8745725
 11
103.42892449999999
 21
213.8745725
  0
ARC
  8
_0-0_0
  6
CONTINUOUS
 62
    7
 10
101.42893950000001
 20
225.87455750000001
 40
0.500016
 50
0.001164
 51
179.99560600000004
  0
LINE
  8
_0-0_0
  6
CONTINUOUS
 62
    7
 10
100.92892449999999
 20
225.8745725
 11
100.92892449999999
 21
213.8745725
  0
ARC
  8
_0-0_0
  6
CONTINUOUS
 62
    7
 10
101.42893950000001
 20
213.87458749999999
 40
0.500016
 50
180.00117
 51
359.995611
  0
LINE
  8
_0-0_0
  6
CONTINUOUS
 62
    7
 10
101.92892449999999
 20
225.8745725
 11
101.92892449999999
 21
213.8745725
  0
ARC
  8
_0-0_0
  6
CONTINUOUS
 62
    7
 10
99.928939500000013
 20
225.87455750000001
 40
0.500016
 50
0.001164
 51
179.99560600000004
  0
LINE
  8
_0-0_0
  6
CONTINUOUS
 62
    7
 10
99.428924499999994
 20
225.8745725
 11
99.428924499999994
 21
213.8745725
  0
ARC
  8
_0-0_0
  6
CONTINUOUS
 62
    7
 10
99.928939500000013
 20
213.87458749999999
 40
0.500016
 50
180.00117
 51
359.995611
  0
LINE
  8
_0-0_0
  6
CONTINUOUS
 62
    7
 10
100.42892449999999
 20
225.8745725
 11
100.42892449999999
 21
213.8745725
  0
ARC
  8
_0-0_0
  6
CONTINUOUS
 62
    7
 10
98.428939500000013
 20
225.87455750000001
 40
0.500016
 50
0.001164
 51
179.99560600000004
  0
LINE
  8
_0-0_0
  6
CONTINUOUS
 62
    7
 10
97.928924499999994
 20
225.8745725
 11
97.928924499999994
 21
213.8745725
  0
ARC
  8
_0-0_0
  6
CONTINUOUS
 62
    7
 10
98.428939500000013
 20
213.87458749999999
 40
0.500016
 50
180.00117
 51
359.995611
  0
LINE
  8
_0-0_0
  6
CONTINUOUS
 62
    7
 10
98.928924499999994
 20
225.8745725
 11
98.928924499999994
 21
213.8745725
  0
LINE
  8
_0-0_0
  6
CONTINUOUS
 62
    7
 10
108.92892449999999
 20
209.5745695
 11
92.253479499999997
 21
209.5745695
  0
LINE
  8
_0-0_0
  6
CONTINUOUS
 62
    7
 10
119.4789275
 20
211.55154450000001
 11
119.4789275
 21
211.5745695
  0
LINE
  8
_0-0_0
  6
CONTINUOUS
 62
    7
 10
188.37892150000002
 20
211.55154450000001
 11
188.37892150000002
 21
211.5745695
  0
LINE
  8
_0-0_0
  6
CONTINUOUS
 62
    7
 10
95.428924499999994
 20
234.0745695
 11
95.428924499999994
 21
234.5745695
  0
LINE
  8
_0-0_0
  6
CONTINUOUS
 62
    7
 10
191.92892449999999
 20
234.5745695
 11
95.428924499999994
 21
234.5745695
  0
LINE
  8
_0-0_0
  6
CONTINUOUS
 62
    7
 10
95.428924499999994
 20
234.5745695
 11
95.428924499999994
 21
235.5745695
  0
LINE
  8
_0-0_0
  6
CONTINUOUS
 62
    7
 10
191.92904650000003
 20
235.57463050000001
 11
191.92904650000003
 21
235.0746455
  0
LINE
  8
_0-0_0
  6
CONTINUOUS
 62
    7
 10
191.92904650000003
 20
235.0746455
 11
191.92904650000003
 21
233.5746455
  0
ARC
  8
_0-0_0
  6
CONTINUOUS
 62
    7
 10
182.42892449999999
 20
225.1745755
 40
4.5
 50
269.99999700000001
 51
90.000002999999992
  0
LINE
  8
_0-0_0
  6
CONTINUOUS
 62
    7
 10
182.42892449999999
 20
220.6745755
 11
177.42892449999999
 21
220.6745755
  0
ARC
  8
_0-0_0
  6
CONTINUOUS
 62
    7
 10
177.42892449999999
 20
225.1745755
 40
4.5
 50
90.000003000000007
 51
269.99999700000006
  0
LINE
  8
_0-0_0
  6
CONTINUOUS
 62
    7
 10
177.42892449999999
 20
229.6745755
 11
182.42892449999999
 21
229.6745755
  0
ARC
  8
_0-0_0
  6
CONTINUOUS
 62
    7
 10
126.42892449999999
 20
225.1745755
 40
4.5
 50
269.99999700000001
 51
90.000002999999992
  0
LINE
  8
_0-0_0
  6
CONTINUOUS
 62
    7
 10
126.42892449999999
 20
220.6745755
 11
121.42892449999999
 21
220.6745755
  0
ARC
  8
_0-0_0
  6
CONTINUOUS
 62
    7
 10
121.42892449999999
 20
225.1745755
 40
4.5
 50
90.000003000000007
 51
269.99999700000006
  0
LINE
  8
_0-0_0
  6
CONTINUOUS
 62
    7
 10
121.42892449999999
 20
229.6745755
 11
126.42892449999999
 21
229.6745755
  0
LINE
  8
_0-0_0
  6
CONTINUOUS
 62
    7
 10
108.92892449999999
 20
231.8745725
 11
108.92892449999999
 21
233.5745695
  0
LINE
  8
_0-0_0
  6
CONTINUOUS
 62
    7
 10
108.92892449999999
 20
233.5745695
 11
95.428924499999994
 21
233.5745695
  0
LINE
  8
_0-0_0
  6
CONTINUOUS
 62
    7
 10
95.428924499999994
 20
231.8745725
 11
95.428924499999994
 21
233.5745695
  0
LINE
  8
_0-0_0
  6
CONTINUOUS
 62
    7
 10
96.928924499999994
 20
231.1745755
 11
92.253479499999997
 21
231.1745755
  0
LINE
  8
_0-0_0
  6
CONTINUOUS
 62
    7
 10
96.928924499999994
 20
225.6745755
 11
92.253479499999997
 21
225.6745755
  0
LINE
  8
_0-0_0
  6
CONTINUOUS
 62
    7
 10
91.621032500000013
 20
209.6772005
 11
91.740539500000011
 21
209.64158649999999
  0
LINE
  8
_0-0_0
  6
CONTINUOUS
 62
    7
 10
91.740539500000011
 20
209.64158649999999
 11
91.86209150000002
 21
209.6137085
  0
LINE
  8
_0-0_0
  6
CONTINUOUS
 62
    7
 10
91.86209150000002
 20
209.6137085
 11
91.985214500000012
 21
209.59367349999999
  0
LINE
  8
_0-0_0
  6
CONTINUOUS
 62
    7
 10
91.985214500000012
 20
209.59367349999999
 11
92.109436500000015
 21
209.5815585
  0
LINE
  8
_0-0_0
  6
CONTINUOUS
 62
    7
 10
92.109436500000015
 20
209.5815585
 11
92.234252499999997
 21
209.57742250000001
  0
LINE
  8
_0-0_0
  6
CONTINUOUS
 62
    7
 10
92.234252499999997
 20
209.57742250000001
 11
92.253479499999997
 21
209.5774845
  0
ARC
  8
_0-0_0
  6
CONTINUOUS
 62
    7
 10
92.253479499999997
 20
211.5745695
 40
2
 50
251.56498899999997
 51
269.99999700000001
  0
LINE
  8
_0-0_0
  6
CONTINUOUS
 62
    7
 10
95.428924499999994
 20
231.8745725
 11
108.92892449999999
 21
231.8745725
  0
CIRCLE
  8
_0-0_0
  6
CONTINUOUS
 62
    7
 10
189.92892449999999
 20
232.0745695
 40
1.4750000000000001
  0
CIRCLE
  8
_0-0_0
  6
CONTINUOUS
 62
    7
 10
110.92892449999999
 20
232.0745695
 40
1.4750000000000001
  0
ARC
  8
_0-0_0
  6
CONTINUOUS
 62
    7
 10
92.253479499999997
 20
229.1745755
 40
2
 50
90.000003000000007
 51
108.434997
  0
LINE
  8
_0-0_0
  6
CONTINUOUS
 62
    7
 10
87.454589499999997
 20
225.6745755
 11
86.761230500000011
 21
225.6745755
  0
LINE
  8
_0-0_0
  6
CONTINUOUS
 62
    7
 10
87.454589499999997
 20
225.6745755
 11
91.779144500000001
 21
225.6745755
  0
LINE
  8
_0-0_0
  6
CONTINUOUS
 62
    7
 10
92.253479499999997
 20
225.6745755
 11
91.779144500000001
 21
225.6745755
  0
LINE
  8
_0-0_0
  6
CONTINUOUS
 62
    7
 10
87.296478500000006
 20
211.1187285
 11
91.621032500000013
 21
209.6772005
  0
LINE
  8
_0-0_0
  6
CONTINUOUS
 62
    7
 10
186.4789275
 20
225.1745755
 11
184.16952550000002
 21
221.1745755
  0
LINE
  8
_0-0_0
  6
CONTINUOUS
 62
    7
 10
175.68832449999999
 20
221.1745755
 11
184.16952550000002
 21
221.1745755
  0
LINE
  8
_0-0_0
  6
CONTINUOUS
 62
    7
 10
175.68832449999999
 20
221.1745755
 11
173.37892150000002
 21
225.1745755
  0
LINE
  8
_0-0_0
  6
CONTINUOUS
 62
    7
 10
173.37892150000002
 20
225.1745755
 11
175.68832449999999
 21
229.1745755
  0
LINE
  8
_0-0_0
  6
CONTINUOUS
 62
    7
 10
184.16952550000002
 20
229.1745755
 11
175.68832449999999
 21
229.1745755
  0
LINE
  8
_0-0_0
  6
CONTINUOUS
 62
    7
 10
184.16952550000002
 20
229.1745755
 11
186.4789275
 21
225.1745755
  0
LINE
  8
_0-0_0
  6
CONTINUOUS
 62
    7
 10
119.68832449999999
 20
229.1745755
 11
117.37893650000001
 21
225.1745755
  0
LINE
  8
_0-0_0
  6
CONTINUOUS
 62
    7
 10
128.16952550000002
 20
229.1745755
 11
119.68832449999999
 21
229.1745755
  0
LINE
  8
_0-0_0
  6
CONTINUOUS
 62
    7
 10
130.4789275
 20
225.1745755
 11
128.16952550000002
 21
229.1745755
  0
LINE
  8
_0-0_0
  6
CONTINUOUS
 62
    7
 10
128.16952550000002
 20
221.1745755
 11
130.4789275
 21
225.1745755
  0
LINE
  8
_0-0_0
  6
CONTINUOUS
 62
    7
 10
119.68832449999999
 20
221.1745755
 11
128.16952550000002
 21
221.1745755
  0
LINE
  8
_0-0_0
  6
CONTINUOUS
 62
    7
 10
117.37893650000001
 20
225.1745755
 11
119.68832449999999
 21
221.1745755
  0
LINE
  8
_0-0_0
  6
CONTINUOUS
 62
    7
 10
91.178924499999994
 20
230.92456050000001
 11
91.621032500000013
 21
231.07192950000001
  0
LINE
  8
_0-0_0
  6
CONTINUOUS
 62
    7
 10
85.928924499999994
 20
226.42460650000001
 11
85.928924499999994
 21
225.30358849999999
  0
LINE
  8
_0-0_0
  6
CONTINUOUS
 62
    7
 10
85.928924499999994
 20
224.38226349999999
 11
85.928924499999994
 21
225.30358849999999
  0
LINE
  8
_0-0_0
  6
CONTINUOUS
 62
    7
 10
86.228942500000016
 20
222.5865785
 11
86.170135500000015
 21
222.8334045
  0
LINE
  8
_0-0_0
  6
CONTINUOUS
 62
    7
 10
86.170135500000015
 20
222.8334045
 11
86.120361500000001
 21
223.02574150000001
  0
LINE
  8
_0-0_0
  6
CONTINUOUS
 62
    7
 10
86.120361500000001
 20
223.02574150000001
 11
86.049240499999996
 21
223.29153450000001
  0
LINE
  8
_0-0_0
  6
CONTINUOUS
 62
    7
 10
86.049240499999996
 20
223.29153450000001
 11
86.016281500000019
 21
223.41824349999999
  0
LINE
  8
_0-0_0
  6
CONTINUOUS
 62
    7
 10
86.016281500000019
 20
223.41824349999999
 11
85.991027500000001
 21
223.52166750000001
  0
LINE
  8
_0-0_0
  6
CONTINUOUS
 62
    7
 10
85.991027500000001
 20
223.52166750000001
 11
85.968994500000008
 21
223.6216125
  0
LINE
  8
_0-0_0
  6
CONTINUOUS
 62
    7
 10
85.968994500000008
 20
223.6216125
 11
85.947616500000009
 21
223.7393185
  0
LINE
  8
_0-0_0
  6
CONTINUOUS
 62
    7
 10
85.947616500000009
 20
223.7393185
 11
85.939041500000002
 21
223.80145250000001
  0
LINE
  8
_0-0_0
  6
CONTINUOUS
 62
    7
 10
85.939041500000002
 20
223.80145250000001
 11
85.932952499999999
 21
223.86206050000001
  0
LINE
  8
_0-0_0
  6
CONTINUOUS
 62
    7
 10
85.932952499999999
 20
223.86206050000001
 11
85.929962500000016
 21
223.91128549999999
  0
LINE
  8
_0-0_0
  6
CONTINUOUS
 62
    7
 10
85.929962500000016
 20
223.91128549999999
 11
85.928924499999994
 21
223.9595185
  0
LINE
  8
_0-0_0
  6
CONTINUOUS
 62
    7
 10
86.228942500000016
 20
218.16255150000001
 11
86.312393500000013
 21
218.54122950000001
  0
LINE
  8
_0-0_0
  6
CONTINUOUS
 62
    7
 10
86.312393500000013
 20
218.54122950000001
 11
86.352478500000018
 21
218.73275749999999
  0
LINE
  8
_0-0_0
  6
CONTINUOUS
 62
    7
 10
86.352478500000018
 20
218.73275749999999
 11
86.408569499999999
 21
219.02278150000001
  0
LINE
  8
_0-0_0
  6
CONTINUOUS
 62
    7
 10
86.408569499999999
 20
219.02278150000001
 11
86.446167500000001
 21
219.24237049999999
  0
LINE
  8
_0-0_0
  6
CONTINUOUS
 62
    7
 10
86.446167500000001
 20
219.24237049999999
 11
86.478820500000012
 21
219.46362250000001
  0
LINE
  8
_0-0_0
  6
CONTINUOUS
 62
    7
 10
86.478820500000012
 20
219.46362250000001
 11
86.505981500000019
 21
219.6904145
  0
LINE
  8
_0-0_0
  6
CONTINUOUS
 62
    7
 10
86.505981500000019
 20
219.6904145
 11
86.526031500000016
 21
219.91781650000001
  0
LINE
  8
_0-0_0
  6
CONTINUOUS
 62
    7
 10
86.526031500000016
 20
219.91781650000001
 11
86.533203500000013
 21
220.03153950000001
  0
LINE
  8
_0-0_0
  6
CONTINUOUS
 62
    7
 10
86.533203500000013
 20
220.03153950000001
 11
86.53836050000001
 21
220.1452175
  0
LINE
  8
_0-0_0
  6
CONTINUOUS
 62
    7
 10
86.53836050000001
 20
220.1452175
 11
86.542068499999999
 21
220.2966615
  0
LINE
  8
_0-0_0
  6
CONTINUOUS
 62
    7
 10
86.542068499999999
 20
220.2966615
 11
86.542129500000016
 21
220.44790650000002
  0
LINE
  8
_0-0_0
  6
CONTINUOUS
 62
    7
 10
86.542129500000016
 20
220.44790650000002
 11
86.538543500000003
 21
220.59896850000001
  0
LINE
  8
_0-0_0
  6
CONTINUOUS
 62
    7
 10
86.538543500000003
 20
220.59896850000001
 11
86.529052500000006
 21
220.78750550000001
  0
LINE
  8
_0-0_0
  6
CONTINUOUS
 62
    7
 10
86.529052500000006
 20
220.78750550000001
 11
86.514175499999993
 21
220.97576850000002
  0
LINE
  8
_0-0_0
  6
CONTINUOUS
 62
    7
 10
86.514175499999993
 20
220.97576850000002
 11
86.494262500000019
 21
221.16369650000001
  0
LINE
  8
_0-0_0
  6
CONTINUOUS
 62
    7
 10
86.494262500000019
 20
221.16369650000001
 11
86.477874500000013
 21
221.29257150000001
  0
LINE
  8
_0-0_0
  6
CONTINUOUS
 62
    7
 10
86.477874500000013
 20
221.29257150000001
 11
86.459457500000013
 21
221.4212345
  0
LINE
  8
_0-0_0
  6
CONTINUOUS
 62
    7
 10
86.459457500000013
 20
221.4212345
 11
86.435302500000006
 21
221.57316550000002
  0
LINE
  8
_0-0_0
  6
CONTINUOUS
 62
    7
 10
86.435302500000006
 20
221.57316550000002
 11
86.408905500000003
 21
221.7245025
  0
LINE
  8
_0-0_0
  6
CONTINUOUS
 62
    7
 10
86.408905500000003
 20
221.7245025
 11
86.352722499999999
 21
222.01512149999999
  0
LINE
  8
_0-0_0
  6
CONTINUOUS
 62
    7
 10
86.352722499999999
 20
222.01512149999999
 11
86.312561500000015
 21
222.2070765
  0
LINE
  8
_0-0_0
  6
CONTINUOUS
 62
    7
 10
86.312561500000015
 20
222.2070765
 11
86.228942500000016
 21
222.5865785
  0
LINE
  8
_0-0_0
  6
CONTINUOUS
 62
    7
 10
86.228927499999998
 20
218.16255150000001
 11
86.170135500000015
 21
217.91571049999999
  0
LINE
  8
_0-0_0
  6
CONTINUOUS
 62
    7
 10
86.170135500000015
 20
217.91571049999999
 11
86.120361500000001
 21
217.72337350000001
  0
LINE
  8
_0-0_0
  6
CONTINUOUS
 62
    7
 10
86.120361500000001
 20
217.72337350000001
 11
86.049255500000015
 21
217.4576265
  0
LINE
  8
_0-0_0
  6
CONTINUOUS
 62
    7
 10
86.049255500000015
 20
217.4576265
 11
86.01629650000001
 21
217.33093249999999
  0
LINE
  8
_0-0_0
  6
CONTINUOUS
 62
    7
 10
86.01629650000001
 20
217.33093249999999
 11
85.991027500000001
 21
217.22749350000001
  0
LINE
  8
_0-0_0
  6
CONTINUOUS
 62
    7
 10
85.991027500000001
 20
217.22749350000001
 11
85.968994500000008
 21
217.12751750000001
  0
LINE
  8
_0-0_0
  6
CONTINUOUS
 62
    7
 10
85.968994500000008
 20
217.12751750000001
 11
85.947601500000019
 21
217.0098265
  0
LINE
  8
_0-0_0
  6
CONTINUOUS
 62
    7
 10
85.947601500000019
 20
217.0098265
 11
85.939041500000002
 21
216.94769250000002
  0
LINE
  8
_0-0_0
  6
CONTINUOUS
 62
    7
 10
85.939041500000002
 20
216.94769250000002
 11
85.932952499999999
 21
216.88708450000001
  0
LINE
  8
_0-0_0
  6
CONTINUOUS
 62
    7
 10
85.932952499999999
 20
216.88708450000001
 11
85.929962500000016
 21
216.83784449999999
  0
LINE
  8
_0-0_0
  6
CONTINUOUS
 62
    7
 10
85.929962500000016
 20
216.83784449999999
 11
85.928924499999994
 21
216.7896265
  0
LINE
  8
_0-0_0
  6
CONTINUOUS
 62
    7
 10
85.928924499999994
 20
213.0160975
 11
85.928924499999994
 21
216.3668825
  0
ARC
  8
_0-0_0
  6
CONTINUOUS
 62
    7
 10
87.928924499999994
 20
213.0160975
 40
2
 50
180.00000900000003
 51
251.56498900000003
  0
LINE
  8
_0-0_0
  6
CONTINUOUS
 62
    7
 10
190.37893650000001
 20
231.8745725
 11
191.0289305
 21
231.8745725
  0
ARC
  8
_0-0_0
  6
CONTINUOUS
 62
    7
 10
190.37893650000001
 20
231.6245725
 40
0.25
 50
90.000003000000007
 51
180.00000900000001
  0
LINE
  8
_0-0_0
  6
CONTINUOUS
 62
    7
 10
190.12893650000001
 20
231.6245725
 11
190.12893650000001
 21
230.97457850000001
  0
LINE
  8
_0-0_0
  6
CONTINUOUS
 62
    7
 10
189.72891249999998
 20
230.97457850000001
 11
190.12893650000001
 21
230.97457850000001
  0
LINE
  8
_0-0_0
  6
CONTINUOUS
 62
    7
 10
189.72891249999998
 20
230.97457850000001
 11
189.72891249999998
 21
231.6245725
  0
ARC
  8
_0-0_0
  6
CONTINUOUS
 62
    7
 10
189.4789275
 20
231.6245725
 40
0.25
 50
0
 51
90.000003000000007
  0
LINE
  8
_0-0_0
  6
CONTINUOUS
 62
    7
 10
188.82893350000001
 20
231.8745725
 11
189.4789275
 21
231.8745725
  0
LINE
  8
_0-0_0
  6
CONTINUOUS
 62
    7
 10
188.82893350000001
 20
231.8745725
 11
188.82893350000001
 21
232.27456649999999
  0
LINE
  8
_0-0_0
  6
CONTINUOUS
 62
    7
 10
189.4789275
 20
232.27456649999999
 11
188.82893350000001
 21
232.27456649999999
  0
ARC
  8
_0-0_0
  6
CONTINUOUS
 62
    7
 10
189.4789275
 20
232.52456649999999
 40
0.25
 50
269.99999700000001
 51
0
  0
LINE
  8
_0-0_0
  6
CONTINUOUS
 62
    7
 10
189.72891249999998
 20
232.52456649999999
 11
189.72891249999998
 21
233.1745755
  0
LINE
  8
_0-0_0
  6
CONTINUOUS
 62
    7
 10
190.12893650000001
 20
233.1745755
 11
189.72891249999998
 21
233.1745755
  0
LINE
  8
_0-0_0
  6
CONTINUOUS
 62
    7
 10
190.12893650000001
 20
233.1745755
 11
190.12893650000001
 21
232.52456649999999
  0
ARC
  8
_0-0_0
  6
CONTINUOUS
 62
    7
 10
190.37893650000001
 20
232.52456649999999
 40
0.25
 50
180.00000900000003
 51
269.99999700000001
  0
LINE
  8
_0-0_0
  6
CONTINUOUS
 62
    7
 10
191.0289305
 20
232.27456649999999
 11
190.37893650000001
 21
232.27456649999999
  0
LINE
  8
_0-0_0
  6
CONTINUOUS
 62
    7
 10
191.0289305
 20
232.27456649999999
 11
191.0289305
 21
231.8745725
  0
LINE
  8
_0-0_0
  6
CONTINUOUS
 62
    7
 10
111.37893650000001
 20
231.8745725
 11
112.0289305
 21
231.8745725
  0
ARC
  8
_0-0_0
  6
CONTINUOUS
 62
    7
 10
111.37893650000001
 20
231.6245725
 40
0.25
 50
90.000003000000007
 51
180.00000900000001
  0
LINE
  8
_0-0_0
  6
CONTINUOUS
 62
    7
 10
111.12893650000001
 20
231.6245725
 11
111.12893650000001
 21
230.97457850000001
  0
LINE
  8
_0-0_0
  6
CONTINUOUS
 62
    7
 10
110.7289275
 20
230.97457850000001
 11
111.12893650000001
 21
230.97457850000001
  0
LINE
  8
_0-0_0
  6
CONTINUOUS
 62
    7
 10
110.7289275
 20
230.97457850000001
 11
110.7289275
 21
231.6245725
  0
ARC
  8
_0-0_0
  6
CONTINUOUS
 62
    7
 10
110.4789275
 20
231.6245725
 40
0.25
 50
0
 51
90.000003000000007
  0
LINE
  8
_0-0_0
  6
CONTINUOUS
 62
    7
 10
109.82893350000001
 20
231.8745725
 11
110.4789275
 21
231.8745725
  0
LINE
  8
_0-0_0
  6
CONTINUOUS
 62
    7
 10
109.82893350000001
 20
231.8745725
 11
109.82893350000001
 21
232.27456649999999
  0
LINE
  8
_0-0_0
  6
CONTINUOUS
 62
    7
 10
110.4789275
 20
232.27456649999999
 11
109.82893350000001
 21
232.27456649999999
  0
ARC
  8
_0-0_0
  6
CONTINUOUS
 62
    7
 10
110.4789275
 20
232.52456649999999
 40
0.25
 50
269.99999700000001
 51
0
  0
LINE
  8
_0-0_0
  6
CONTINUOUS
 62
    7
 10
110.7289275
 20
232.52456649999999
 11
110.7289275
 21
233.1745755
  0
LINE
  8
_0-0_0
  6
CONTINUOUS
 62
    7
 10
111.12893650000001
 20
233.1745755
 11
110.7289275
 21
233.1745755
  0
LINE
  8
_0-0_0
  6
CONTINUOUS
 62
    7
 10
111.12893650000001
 20
233.1745755
 11
111.12893650000001
 21
232.52456649999999
  0
ARC
  8
_0-0_0
  6
CONTINUOUS
 62
    7
 10
111.37893650000001
 20
232.52456649999999
 40
0.25
 50
180.00000900000003
 51
269.99999700000001
  0
LINE
  8
_0-0_0
  6
CONTINUOUS
 62
    7
 10
112.0289305
 20
232.27456649999999
 11
111.37893650000001
 21
232.27456649999999
  0
LINE
  8
_0-0_0
  6
CONTINUOUS
 62
    7
 10
112.0289305
 20
232.27456649999999
 11
112.0289305
 21
231.8745725
  0
LINE
  8
_0-0_0
  6
CONTINUOUS
 62
    7
 10
70.928924499999994
 20
229.90000950000001
 11
70.928924499999994
 21
229.75328049999999
  0
LINE
  8
_0-0_0
  6
CONTINUOUS
 62
    7
 10
70.928924499999994
 20
230.09054549999999
 11
70.928924499999994
 21
229.90000950000001
  0
LINE
  8
_0-0_0
  6
CONTINUOUS
 62
    7
 10
70.928924499999994
 20
230.26556350000001
 11
70.928924499999994
 21
230.09054549999999
  0
LINE
  8
_0-0_0
  6
CONTINUOUS
 62
    7
 10
70.928924499999994
 20
230.4231565
 11
70.928924499999994
 21
230.26556350000001
  0
LINE
  8
_0-0_0
  6
CONTINUOUS
 62
    7
 10
70.928924499999994
 20
230.56158450000001
 11
70.928924499999994
 21
230.4231565
  0
LINE
  8
_0-0_0
  6
CONTINUOUS
 62
    7
 10
70.928924499999994
 20
230.67933650000001
 11
70.928924499999994
 21
230.56158450000001
  0
LINE
  8
_0-0_0
  6
CONTINUOUS
 62
    7
 10
70.928924499999994
 20
230.77513150000001
 11
70.928924499999994
 21
230.67933650000001
  0
LINE
  8
_0-0_0
  6
CONTINUOUS
 62
    7
 10
70.928924499999994
 20
230.84790050000001
 11
70.928924499999994
 21
230.77513150000001
  0
LINE
  8
_0-0_0
  6
CONTINUOUS
 62
    7
 10
70.928924499999994
 20
230.89686549999999
 11
70.928924499999994
 21
230.84790050000001
  0
LINE
  8
_0-0_0
  6
CONTINUOUS
 62
    7
 10
70.928924499999994
 20
230.9245755
 11
70.928924499999994
 21
230.89686549999999
  0
LINE
  8
_0-0_0
  6
CONTINUOUS
 62
    7
 10
70.928924499999994
 20
230.9245755
 11
70.928924499999994
 21
230.9214935
  0
LINE
  8
_0-0_0
  6
CONTINUOUS
 62
    7
 10
70.928924499999994
 20
226.42765750000001
 11
70.928924499999994
 21
226.4245755
  0
LINE
  8
_0-0_0
  6
CONTINUOUS
 62
    7
 10
70.928924499999994
 20
226.4522705
 11
70.928924499999994
 21
226.4245755
  0
LINE
  8
_0-0_0
  6
CONTINUOUS
 62
    7
 10
70.928924499999994
 20
226.50123550000001
 11
70.928924499999994
 21
226.4522705
  0
LINE
  8
_0-0_0
  6
CONTINUOUS
 62
    7
 10
70.928924499999994
 20
226.57402049999999
 11
70.928924499999994
 21
226.50123550000001
  0
LINE
  8
_0-0_0
  6
CONTINUOUS
 62
    7
 10
70.928924499999994
 20
226.66979950000001
 11
70.928924499999994
 21
226.57402049999999
  0
LINE
  8
_0-0_0
  6
CONTINUOUS
 62
    7
 10
70.928924499999994
 20
226.70001250000001
 11
70.928924499999994
 21
226.66979950000001
  0
LINE
  8
_0-0_0
  6
CONTINUOUS
 62
    7
 10
70.928924499999994
 20
226.78756749999999
 11
70.928924499999994
 21
226.70001250000001
  0
LINE
  8
_0-0_0
  6
CONTINUOUS
 62
    7
 10
70.928924499999994
 20
226.9259945
 11
70.928924499999994
 21
226.78756749999999
  0
LINE
  8
_0-0_0
  6
CONTINUOUS
 62
    7
 10
70.928924499999994
 20
227.08358749999999
 11
70.928924499999994
 21
226.9259945
  0
LINE
  8
_0-0_0
  6
CONTINUOUS
 62
    7
 10
70.928924499999994
 20
227.25860550000002
 11
70.928924499999994
 21
227.08358749999999
  0
LINE
  8
_0-0_0
  6
CONTINUOUS
 62
    7
 10
70.928924499999994
 20
227.4491275
 11
70.928924499999994
 21
227.25860550000002
  0
LINE
  8
_0-0_0
  6
CONTINUOUS
 62
    7
 10
70.928924499999994
 20
227.65309150000002
 11
70.928924499999994
 21
227.4491275
  0
LINE
  8
_0-0_0
  6
CONTINUOUS
 62
    7
 10
70.928924499999994
 20
227.86824050000001
 11
70.928924499999994
 21
227.65309150000002
  0
LINE
  8
_0-0_0
  6
CONTINUOUS
 62
    7
 10
70.928924499999994
 20
228.09222450000001
 11
70.928924499999994
 21
227.86824050000001
  0
LINE
  8
_0-0_0
  6
CONTINUOUS
 62
    7
 10
70.928924499999994
 20
228.32260149999999
 11
70.928924499999994
 21
228.09222450000001
  0
LINE
  8
_0-0_0
  6
CONTINUOUS
 62
    7
 10
70.928924499999994
 20
228.55682350000001
 11
70.928924499999994
 21
228.32260149999999
  0
LINE
  8
_0-0_0
  6
CONTINUOUS
 62
    7
 10
70.928924499999994
 20
228.7923275
 11
70.928924499999994
 21
228.55682350000001
  0
LINE
  8
_0-0_0
  6
CONTINUOUS
 62
    7
 10
70.928924499999994
 20
229.02655050000001
 11
70.928924499999994
 21
228.7923275
  0
LINE
  8
_0-0_0
  6
CONTINUOUS
 62
    7
 10
70.928924499999994
 20
229.2569125
 11
70.928924499999994
 21
229.02655050000001
  0
LINE
  8
_0-0_0
  6
CONTINUOUS
 62
    7
 10
70.928924499999994
 20
229.4808955
 11
70.928924499999994
 21
229.2569125
  0
LINE
  8
_0-0_0
  6
CONTINUOUS
 62
    7
 10
70.928924499999994
 20
229.6960445
 11
70.928924499999994
 21
229.4808955
  0
LINE
  8
_0-0_0
  6
CONTINUOUS
 62
    7
 10
70.928924499999994
 20
229.75328049999999
 11
70.928924499999994
 21
229.6960445
  0
LINE
  8
_0-0_0
  6
CONTINUOUS
 62
    7
 10
85.928924499999994
 20
221.93661449999999
 11
85.928924499999994
 21
222.9822695
  0
LINE
  8
_0-0_0
  6
CONTINUOUS
 62
    7
 10
85.928924499999994
 20
224.2668765
 11
85.928924499999994
 21
222.9822695
  0
LINE
  8
_0-0_0
  6
CONTINUOUS
 62
    7
 10
85.928924499999994
 20
224.38226349999999
 11
85.928924499999994
 21
224.2668765
  0
LINE
  8
_0-0_0
  6
CONTINUOUS
 62
    7
 10
85.928924499999994
 20
221.93661449999999
 11
85.928924499999994
 21
218.81251549999999
  0
LINE
  8
_0-0_0
  6
CONTINUOUS
 62
    7
 10
85.928924499999994
 20
216.3668825
 11
85.928924499999994
 21
216.4822695
  0
LINE
  8
_0-0_0
  6
CONTINUOUS
 62
    7
 10
85.928924499999994
 20
217.7668765
 11
85.928924499999994
 21
216.4822695
  0
LINE
  8
_0-0_0
  6
CONTINUOUS
 62
    7
 10
85.928924499999994
 20
217.7668765
 11
85.928924499999994
 21
218.81251549999999
  0
LINE
  8
_0-0_0
  6
CONTINUOUS
 62
    7
 10
70.928924499999994
 20
213.30000250000001
 11
70.928924499999994
 21
213.15327450000001
  0
LINE
  8
_0-0_0
  6
CONTINUOUS
 62
    7
 10
70.928924499999994
 20
213.49053950000001
 11
70.928924499999994
 21
213.30000250000001
  0
LINE
  8
_0-0_0
  6
CONTINUOUS
 62
    7
 10
70.928924499999994
 20
213.66555750000001
 11
70.928924499999994
 21
213.49053950000001
  0
LINE
  8
_0-0_0
  6
CONTINUOUS
 62
    7
 10
70.928924499999994
 20
213.8231505
 11
70.928924499999994
 21
213.66555750000001
  0
LINE
  8
_0-0_0
  6
CONTINUOUS
 62
    7
 10
70.928924499999994
 20
213.9615785
 11
70.928924499999994
 21
213.8231505
  0
LINE
  8
_0-0_0
  6
CONTINUOUS
 62
    7
 10
70.928924499999994
 20
214.0793305
 11
70.928924499999994
 21
213.9615785
  0
LINE
  8
_0-0_0
  6
CONTINUOUS
 62
    7
 10
70.928924499999994
 20
214.17512550000001
 11
70.928924499999994
 21
214.0793305
  0
LINE
  8
_0-0_0
  6
CONTINUOUS
 62
    7
 10
70.928924499999994
 20
214.24790949999999
 11
70.928924499999994
 21
214.17512550000001
  0
LINE
  8
_0-0_0
  6
CONTINUOUS
 62
    7
 10
70.928924499999994
 20
214.2968745
 11
70.928924499999994
 21
214.24790949999999
  0
LINE
  8
_0-0_0
  6
CONTINUOUS
 62
    7
 10
70.928924499999994
 20
214.3245695
 11
70.928924499999994
 21
214.2968745
  0
LINE
  8
_0-0_0
  6
CONTINUOUS
 62
    7
 10
70.928924499999994
 20
214.3245695
 11
70.928924499999994
 21
214.32148749999999
  0
LINE
  8
_0-0_0
  6
CONTINUOUS
 62
    7
 10
70.928924499999994
 20
209.8276515
 11
70.928924499999994
 21
209.8245695
  0
LINE
  8
_0-0_0
  6
CONTINUOUS
 62
    7
 10
70.928924499999994
 20
209.85226449999999
 11
70.928924499999994
 21
209.8276515
  0
LINE
  8
_0-0_0
  6
CONTINUOUS
 62
    7
 10
70.928924499999994
 20
209.90124449999999
 11
70.928924499999994
 21
209.85226449999999
  0
LINE
  8
_0-0_0
  6
CONTINUOUS
 62
    7
 10
70.928924499999994
 20
209.97401450000001
 11
70.928924499999994
 21
209.90124449999999
  0
LINE
  8
_0-0_0
  6
CONTINUOUS
 62
    7
 10
70.928924499999994
 20
210.06980849999999
 11
70.928924499999994
 21
209.97401450000001
  0
LINE
  8
_0-0_0
  6
CONTINUOUS
 62
    7
 10
70.928924499999994
 20
210.10000550000001
 11
70.928924499999994
 21
210.06980849999999
  0
LINE
  8
_0-0_0
  6
CONTINUOUS
 62
    7
 10
70.928924499999994
 20
210.18756049999999
 11
70.928924499999994
 21
210.10000550000001
  0
LINE
  8
_0-0_0
  6
CONTINUOUS
 62
    7
 10
70.928924499999994
 20
210.32598849999999
 11
70.928924499999994
 21
210.18756049999999
  0
LINE
  8
_0-0_0
  6
CONTINUOUS
 62
    7
 10
70.928924499999994
 20
210.48358150000001
 11
70.928924499999994
 21
210.32598849999999
  0
LINE
  8
_0-0_0
  6
CONTINUOUS
 62
    7
 10
70.928924499999994
 20
210.65859950000001
 11
70.928924499999994
 21
210.48358150000001
  0
LINE
  8
_0-0_0
  6
CONTINUOUS
 62
    7
 10
70.928924499999994
 20
210.84913650000001
 11
70.928924499999994
 21
210.65859950000001
  0
LINE
  8
_0-0_0
  6
CONTINUOUS
 62
    7
 10
70.928924499999994
 20
211.05308550000001
 11
70.928924499999994
 21
210.84913650000001
  0
LINE
  8
_0-0_0
  6
CONTINUOUS
 62
    7
 10
70.928924499999994
 20
211.26823450000001
 11
70.928924499999994
 21
211.05308550000001
  0
LINE
  8
_0-0_0
  6
CONTINUOUS
 62
    7
 10
70.928924499999994
 20
211.4922335
 11
70.928924499999994
 21
211.26823450000001
  0
LINE
  8
_0-0_0
  6
CONTINUOUS
 62
    7
 10
70.928924499999994
 20
211.72259550000001
 11
70.928924499999994
 21
211.4922335
  0
LINE
  8
_0-0_0
  6
CONTINUOUS
 62
    7
 10
70.928924499999994
 20
211.9568175
 11
70.928924499999994
 21
211.72259550000001
  0
LINE
  8
_0-0_0
  6
CONTINUOUS
 62
    7
 10
70.928924499999994
 20
212.19232149999999
 11
70.928924499999994
 21
211.9568175
  0
LINE
  8
_0-0_0
  6
CONTINUOUS
 62
    7
 10
70.928924499999994
 20
212.42654450000001
 11
70.928924499999994
 21
212.19232149999999
  0
LINE
  8
_0-0_0
  6
CONTINUOUS
 62
    7
 10
70.928924499999994
 20
212.65692150000001
 11
70.928924499999994
 21
212.42654450000001
  0
LINE
  8
_0-0_0
  6
CONTINUOUS
 62
    7
 10
70.928924499999994
 20
212.88090550000001
 11
70.928924499999994
 21
212.65692150000001
  0
LINE
  8
_0-0_0
  6
CONTINUOUS
 62
    7
 10
70.928924499999994
 20
213.09605350000001
 11
70.928924499999994
 21
212.88090550000001
  0
LINE
  8
_0-0_0
  6
CONTINUOUS
 62
    7
 10
70.928924499999994
 20
213.15327450000001
 11
70.928924499999994
 21
213.09605350000001
  0
LINE
  8
_0-0_0
  6
CONTINUOUS
 62
    7
 10
181.92892449999999
 20
222.9245755
 11
177.92892449999999
 21
222.9245755
  0
ARC
  8
_0-0_0
  6
CONTINUOUS
 62
    7
 10
177.92892449999999
 20
225.1745755
 40
2.25
 50
90.000003000000007
 51
269.99999700000006
  0
LINE
  8
_0-0_0
  6
CONTINUOUS
 62
    7
 10
177.92892449999999
 20
227.4245755
 11
181.92892449999999
 21
227.4245755
  0
ARC
  8
_0-0_0
  6
CONTINUOUS
 62
    7
 10
181.92892449999999
 20
225.1745755
 40
2.25
 50
269.99999700000001
 51
90.000002999999992
  0
ARC
  8
_0-0_0
  6
CONTINUOUS
 62
    7
 10
121.92892449999999
 20
225.1745755
 40
2.25
 50
90.000003000000007
 51
269.99999700000006
  0
LINE
  8
_0-0_0
  6
CONTINUOUS
 62
    7
 10
121.92892449999999
 20
227.4245755
 11
125.92892449999999
 21
227.4245755
  0
ARC
  8
_0-0_0
  6
CONTINUOUS
 62
    7
 10
125.92892449999999
 20
225.1745755
 40
2.25
 50
269.99999700000001
 51
90.000002999999992
  0
LINE
  8
_0-0_0
  6
CONTINUOUS
 62
    7
 10
125.92892449999999
 20
222.9245755
 11
121.92892449999999
 21
222.9245755
  0
LINE
  8
_0-0_0
  6
CONTINUOUS
 62
    7
 10
70.928924499999994
 20
229.90000950000001
 11
70.678924499999994
 21
229.9245755
  0
LINE
  8
_0-0_0
  6
CONTINUOUS
 62
    7
 10
70.928924499999994
 20
229.6960445
 11
70.678924499999994
 21
229.9245755
  0
LINE
  8
_0-0_0
  6
CONTINUOUS
 62
    7
 10
70.928924499999994
 20
230.09054549999999
 11
70.678924499999994
 21
230.14404250000001
  0
LINE
  8
_0-0_0
  6
CONTINUOUS
 62
    7
 10
70.928924499999994
 20
229.90000950000001
 11
70.678924499999994
 21
230.14404250000001
  0
LINE
  8
_0-0_0
  6
CONTINUOUS
 62
    7
 10
70.928924499999994
 20
230.26556350000001
 11
70.678924499999994
 21
230.3473965
  0
LINE
  8
_0-0_0
  6
CONTINUOUS
 62
    7
 10
70.928924499999994
 20
230.09054549999999
 11
70.678924499999994
 21
230.3473965
  0
LINE
  8
_0-0_0
  6
CONTINUOUS
 62
    7
 10
70.928924499999994
 20
230.4231565
 11
70.678924499999994
 21
230.53244050000001
  0
LINE
  8
_0-0_0
  6
CONTINUOUS
 62
    7
 10
70.928924499999994
 20
230.26556350000001
 11
70.678924499999994
 21
230.53244050000001
  0
LINE
  8
_0-0_0
  6
CONTINUOUS
 62
    7
 10
70.928924499999994
 20
230.56158450000001
 11
70.678924499999994
 21
230.6971125
  0
LINE
  8
_0-0_0
  6
CONTINUOUS
 62
    7
 10
70.928924499999994
 20
230.4231565
 11
70.678924499999994
 21
230.6971125
  0
LINE
  8
_0-0_0
  6
CONTINUOUS
 62
    7
 10
70.928924499999994
 20
230.67933650000001
 11
70.678924499999994
 21
230.8396305
  0
LINE
  8
_0-0_0
  6
CONTINUOUS
 62
    7
 10
70.928924499999994
 20
230.56158450000001
 11
70.678924499999994
 21
230.8396305
  0
LINE
  8
_0-0_0
  6
CONTINUOUS
 62
    7
 10
70.928924499999994
 20
230.77513150000001
 11
70.678924499999994
 21
230.95843450000001
  0
LINE
  8
_0-0_0
  6
CONTINUOUS
 62
    7
 10
70.928924499999994
 20
230.67933650000001
 11
70.678924499999994
 21
230.95843450000001
  0
LINE
  8
_0-0_0
  6
CONTINUOUS
 62
    7
 10
70.928924499999994
 20
230.84790050000001
 11
70.678924499999994
 21
231.05221549999999
  0
LINE
  8
_0-0_0
  6
CONTINUOUS
 62
    7
 10
70.928924499999994
 20
230.77513150000001
 11
70.678924499999994
 21
231.05221549999999
  0
LINE
  8
_0-0_0
  6
CONTINUOUS
 62
    7
 10
70.928924499999994
 20
230.89686549999999
 11
70.678924499999994
 21
231.1199335
  0
LINE
  8
_0-0_0
  6
CONTINUOUS
 62
    7
 10
70.928924499999994
 20
230.84790050000001
 11
70.678924499999994
 21
231.1199335
  0
LINE
  8
_0-0_0
  6
CONTINUOUS
 62
    7
 10
70.928924499999994
 20
230.9214935
 11
70.678924499999994
 21
231.16087350000001
  0
LINE
  8
_0-0_0
  6
CONTINUOUS
 62
    7
 10
70.928924499999994
 20
230.89686549999999
 11
70.678924499999994
 21
231.16087350000001
  0
LINE
  8
_0-0_0
  6
CONTINUOUS
 62
    7
 10
70.928924499999994
 20
230.9214935
 11
70.678924499999994
 21
231.1745755
  0
LINE
  8
_0-0_0
  6
CONTINUOUS
 62
    7
 10
70.928924499999994
 20
226.42765750000001
 11
70.678924499999994
 21
226.1745755
  0
LINE
  8
_0-0_0
  6
CONTINUOUS
 62
    7
 10
70.928924499999994
 20
226.4522705
 11
70.678924499999994
 21
226.18826250000001
  0
LINE
  8
_0-0_0
  6
CONTINUOUS
 62
    7
 10
70.928924499999994
 20
226.42765750000001
 11
70.678924499999994
 21
226.18826250000001
  0
LINE
  8
_0-0_0
  6
CONTINUOUS
 62
    7
 10
70.928924499999994
 20
226.50123550000001
 11
70.678924499999994
 21
226.22920250000001
  0
LINE
  8
_0-0_0
  6
CONTINUOUS
 62
    7
 10
70.928924499999994
 20
226.4522705
 11
70.678924499999994
 21
226.22920250000001
  0
LINE
  8
_0-0_0
  6
CONTINUOUS
 62
    7
 10
70.928924499999994
 20
226.57402049999999
 11
70.678924499999994
 21
226.29693549999999
  0
LINE
  8
_0-0_0
  6
CONTINUOUS
 62
    7
 10
70.928924499999994
 20
226.50123550000001
 11
70.678924499999994
 21
226.29693549999999
  0
LINE
  8
_0-0_0
  6
CONTINUOUS
 62
    7
 10
70.928924499999994
 20
226.66979950000001
 11
70.678924499999994
 21
226.39070150000001
  0
LINE
  8
_0-0_0
  6
CONTINUOUS
 62
    7
 10
70.928924499999994
 20
226.57402049999999
 11
70.678924499999994
 21
226.39070150000001
  0
LINE
  8
_0-0_0
  6
CONTINUOUS
 62
    7
 10
70.928924499999994
 20
226.66979950000001
 11
70.798965500000008
 21
226.58595249999999
  0
LINE
  8
_0-0_0
  6
CONTINUOUS
 62
    7
 10
70.928924499999994
 20
226.78756749999999
 11
70.678924499999994
 21
226.50950650000001
  0
LINE
  8
_0-0_0
  6
CONTINUOUS
 62
    7
 10
70.798965500000008
 20
226.58595249999999
 11
70.678924499999994
 21
226.50950650000001
  0
LINE
  8
_0-0_0
  6
CONTINUOUS
 62
    7
 10
70.928924499999994
 20
226.9259945
 11
70.678924499999994
 21
226.65202350000001
  0
LINE
  8
_0-0_0
  6
CONTINUOUS
 62
    7
 10
70.928924499999994
 20
226.78756749999999
 11
70.678924499999994
 21
226.65202350000001
  0
LINE
  8
_0-0_0
  6
CONTINUOUS
 62
    7
 10
70.928924499999994
 20
227.08358749999999
 11
70.678924499999994
 21
226.8167115
  0
LINE
  8
_0-0_0
  6
CONTINUOUS
 62
    7
 10
70.928924499999994
 20
226.9259945
 11
70.678924499999994
 21
226.8167115
  0
LINE
  8
_0-0_0
  6
CONTINUOUS
 62
    7
 10
70.928924499999994
 20
227.25860550000002
 11
70.678924499999994
 21
227.00173950000001
  0
LINE
  8
_0-0_0
  6
CONTINUOUS
 62
    7
 10
70.928924499999994
 20
227.08358749999999
 11
70.678924499999994
 21
227.00173950000001
  0
LINE
  8
_0-0_0
  6
CONTINUOUS
 62
    7
 10
70.928924499999994
 20
227.4491275
 11
70.678924499999994
 21
227.20510849999999
  0
LINE
  8
_0-0_0
  6
CONTINUOUS
 62
    7
 10
70.928924499999994
 20
227.25860550000002
 11
70.678924499999994
 21
227.20510849999999
  0
LINE
  8
_0-0_0
  6
CONTINUOUS
 62
    7
 10
70.928924499999994
 20
227.65309150000002
 11
70.678924499999994
 21
227.4245755
  0
LINE
  8
_0-0_0
  6
CONTINUOUS
 62
    7
 10
70.928924499999994
 20
227.4491275
 11
70.678924499999994
 21
227.4245755
  0
LINE
  8
_0-0_0
  6
CONTINUOUS
 62
    7
 10
70.928924499999994
 20
227.86824050000001
 11
70.678924499999994
 21
227.65772950000002
  0
LINE
  8
_0-0_0
  6
CONTINUOUS
 62
    7
 10
70.928924499999994
 20
227.65309150000002
 11
70.678924499999994
 21
227.65772950000002
  0
LINE
  8
_0-0_0
  6
CONTINUOUS
 62
    7
 10
70.928924499999994
 20
228.09222450000001
 11
70.678924499999994
 21
227.90202350000001
  0
LINE
  8
_0-0_0
  6
CONTINUOUS
 62
    7
 10
70.928924499999994
 20
227.86824050000001
 11
70.678924499999994
 21
227.90202350000001
  0
LINE
  8
_0-0_0
  6
CONTINUOUS
 62
    7
 10
70.928924499999994
 20
228.32260149999999
 11
70.678924499999994
 21
228.1547855
  0
LINE
  8
_0-0_0
  6
CONTINUOUS
 62
    7
 10
70.928924499999994
 20
228.09222450000001
 11
70.678924499999994
 21
228.1547855
  0
LINE
  8
_0-0_0
  6
CONTINUOUS
 62
    7
 10
70.928924499999994
 20
228.55682350000001
 11
70.678924499999994
 21
228.4132535
  0
LINE
  8
_0-0_0
  6
CONTINUOUS
 62
    7
 10
70.928924499999994
 20
228.32260149999999
 11
70.678924499999994
 21
228.4132535
  0
LINE
  8
_0-0_0
  6
CONTINUOUS
 62
    7
 10
70.928924499999994
 20
228.7923275
 11
70.678924499999994
 21
228.6745755
  0
LINE
  8
_0-0_0
  6
CONTINUOUS
 62
    7
 10
70.928924499999994
 20
228.55682350000001
 11
70.678924499999994
 21
228.6745755
  0
LINE
  8
_0-0_0
  6
CONTINUOUS
 62
    7
 10
70.928924499999994
 20
229.02655050000001
 11
70.678924499999994
 21
228.93589750000001
  0
LINE
  8
_0-0_0
  6
CONTINUOUS
 62
    7
 10
70.928924499999994
 20
228.7923275
 11
70.678924499999994
 21
228.93589750000001
  0
LINE
  8
_0-0_0
  6
CONTINUOUS
 62
    7
 10
70.928924499999994
 20
229.2569125
 11
70.678924499999994
 21
229.19435150000001
  0
LINE
  8
_0-0_0
  6
CONTINUOUS
 62
    7
 10
70.928924499999994
 20
229.02655050000001
 11
70.678924499999994
 21
229.19435150000001
  0
LINE
  8
_0-0_0
  6
CONTINUOUS
 62
    7
 10
70.928924499999994
 20
229.4808955
 11
70.678924499999994
 21
229.4471125
  0
LINE
  8
_0-0_0
  6
CONTINUOUS
 62
    7
 10
70.928924499999994
 20
229.2569125
 11
70.678924499999994
 21
229.4471125
  0
LINE
  8
_0-0_0
  6
CONTINUOUS
 62
    7
 10
70.928924499999994
 20
229.6960445
 11
70.678924499999994
 21
229.6914065
  0
LINE
  8
_0-0_0
  6
CONTINUOUS
 62
    7
 10
70.928924499999994
 20
229.4808955
 11
70.678924499999994
 21
229.6914065
  0
LINE
  8
_0-0_0
  6
CONTINUOUS
 62
    7
 10
85.928924499999994
 20
224.2668765
 11
76.221099500000008
 21
224.2668765
  0
LINE
  8
_0-0_0
  6
CONTINUOUS
 62
    7
 10
76.221099500000008
 20
224.2668765
 11
76.166626500000007
 21
224.33682250000001
  0
LINE
  8
_0-0_0
  6
CONTINUOUS
 62
    7
 10
76.166626500000007
 20
224.33682250000001
 11
76.115524499999992
 21
224.40563950000001
  0
LINE
  8
_0-0_0
  6
CONTINUOUS
 62
    7
 10
76.115524499999992
 20
224.40563950000001
 11
76.067886500000014
 21
224.47314449999999
  0
LINE
  8
_0-0_0
  6
CONTINUOUS
 62
    7
 10
76.067886500000014
 20
224.47314449999999
 11
76.023376500000012
 21
224.53968750000001
  0
LINE
  8
_0-0_0
  6
CONTINUOUS
 62
    7
 10
76.023376500000012
 20
224.53968750000001
 11
75.968658500000004
 21
224.6272275
  0
LINE
  8
_0-0_0
  6
CONTINUOUS
 62
    7
 10
75.968658500000004
 20
224.6272275
 11
75.919158500000009
 21
224.7133335
  0
LINE
  8
_0-0_0
  6
CONTINUOUS
 62
    7
 10
75.919158500000009
 20
224.7133335
 11
75.874694500000004
 21
224.7981715
  0
LINE
  8
_0-0_0
  6
CONTINUOUS
 62
    7
 10
75.874694500000004
 20
224.7981715
 11
75.827728500000006
 21
224.8984835
  0
LINE
  8
_0-0_0
  6
CONTINUOUS
 62
    7
 10
75.827728500000006
 20
224.8984835
 11
75.787506500000006
 21
224.99740550000001
  0
LINE
  8
_0-0_0
  6
CONTINUOUS
 62
    7
 10
75.787506500000006
 20
224.99740550000001
 11
75.753845500000011
 21
225.0951685
  0
LINE
  8
_0-0_0
  6
CONTINUOUS
 62
    7
 10
75.753845500000011
 20
225.0951685
 11
75.7265625
 21
225.1919705
  0
LINE
  8
_0-0_0
  6
CONTINUOUS
 62
    7
 10
75.7265625
 20
225.1919705
 11
75.705505500000015
 21
225.28802450000001
  0
LINE
  8
_0-0_0
  6
CONTINUOUS
 62
    7
 10
75.705505500000015
 20
225.28802450000001
 11
75.689575500000018
 21
225.3918765
  0
LINE
  8
_0-0_0
  6
CONTINUOUS
 62
    7
 10
75.689575500000018
 20
225.3918765
 11
75.68081650000002
 21
225.49530050000001
  0
LINE
  8
_0-0_0
  6
CONTINUOUS
 62
    7
 10
75.68081650000002
 20
225.49530050000001
 11
75.67919950000001
 21
225.59854150000001
  0
LINE
  8
_0-0_0
  6
CONTINUOUS
 62
    7
 10
75.67919950000001
 20
225.59854150000001
 11
75.684661500000004
 21
225.70182750000001
  0
LINE
  8
_0-0_0
  6
CONTINUOUS
 62
    7
 10
75.684661500000004
 20
225.70182750000001
 11
75.697265500000015
 21
225.8054195
  0
LINE
  8
_0-0_0
  6
CONTINUOUS
 62
    7
 10
75.697265500000015
 20
225.8054195
 11
75.717086499999994
 21
225.90957650000001
  0
LINE
  8
_0-0_0
  6
CONTINUOUS
 62
    7
 10
75.717086499999994
 20
225.90957650000001
 11
75.74423250000001
 21
226.01452649999999
  0
LINE
  8
_0-0_0
  6
CONTINUOUS
 62
    7
 10
75.74423250000001
 20
226.01452649999999
 11
75.778869500000013
 21
226.12055950000001
  0
LINE
  8
_0-0_0
  6
CONTINUOUS
 62
    7
 10
75.778869500000013
 20
226.12055950000001
 11
75.821228500000018
 21
226.2279355
  0
LINE
  8
_0-0_0
  6
CONTINUOUS
 62
    7
 10
75.821228500000018
 20
226.2279355
 11
75.871536500000019
 21
226.33694450000002
  0
LINE
  8
_0-0_0
  6
CONTINUOUS
 62
    7
 10
75.871536500000019
 20
226.33694450000002
 11
75.917236500000001
 21
226.42460650000001
  0
LINE
  8
_0-0_0
  6
CONTINUOUS
 62
    7
 10
85.928924499999994
 20
222.9822695
 11
76.221099500000008
 21
222.9822695
  0
LINE
  8
_0-0_0
  6
CONTINUOUS
 62
    7
 10
76.221099500000008
 20
222.9822695
 11
76.126770499999992
 21
222.73564150000001
  0
LINE
  8
_0-0_0
  6
CONTINUOUS
 62
    7
 10
76.126770499999992
 20
222.73564150000001
 11
76.042816500000015
 21
222.49568149999999
  0
LINE
  8
_0-0_0
  6
CONTINUOUS
 62
    7
 10
76.042816500000015
 20
222.49568149999999
 11
75.968658500000004
 21
222.26156650000001
  0
LINE
  8
_0-0_0
  6
CONTINUOUS
 62
    7
 10
75.968658500000004
 20
222.26156650000001
 11
75.903778500000016
 21
222.03251650000001
  0
LINE
  8
_0-0_0
  6
CONTINUOUS
 62
    7
 10
75.903778500000016
 20
222.03251650000001
 11
75.847747499999997
 21
221.80784550000001
  0
LINE
  8
_0-0_0
  6
CONTINUOUS
 62
    7
 10
75.847747499999997
 20
221.80784550000001
 11
75.800170500000007
 21
221.58686850000001
  0
LINE
  8
_0-0_0
  6
CONTINUOUS
 62
    7
 10
75.800170500000007
 20
221.58686850000001
 11
75.760772500000002
 21
221.36895749999999
  0
LINE
  8
_0-0_0
  6
CONTINUOUS
 62
    7
 10
75.760772500000002
 20
221.36895749999999
 11
75.729278499999992
 21
221.1535035
  0
LINE
  8
_0-0_0
  6
CONTINUOUS
 62
    7
 10
75.729278499999992
 20
221.1535035
 11
75.705505500000015
 21
220.93997150000001
  0
LINE
  8
_0-0_0
  6
CONTINUOUS
 62
    7
 10
75.705505500000015
 20
220.93997150000001
 11
75.689575500000018
 21
220.73225350000001
  0
LINE
  8
_0-0_0
  6
CONTINUOUS
 62
    7
 10
75.689575500000018
 20
220.73225350000001
 11
75.68081650000002
 21
220.52540550000001
  0
LINE
  8
_0-0_0
  6
CONTINUOUS
 62
    7
 10
75.68081650000002
 20
220.52540550000001
 11
75.67919950000001
 21
220.3189395
  0
LINE
  8
_0-0_0
  6
CONTINUOUS
 62
    7
 10
75.67919950000001
 20
220.3189395
 11
75.684661500000004
 21
220.11235049999999
  0
LINE
  8
_0-0_0
  6
CONTINUOUS
 62
    7
 10
75.684661500000004
 20
220.11235049999999
 11
75.697265500000015
 21
219.90516650000001
  0
LINE
  8
_0-0_0
  6
CONTINUOUS
 62
    7
 10
75.697265500000015
 20
219.90516650000001
 11
75.717086499999994
 21
219.69686849999999
  0
LINE
  8
_0-0_0
  6
CONTINUOUS
 62
    7
 10
75.717086499999994
 20
219.69686849999999
 11
75.74423250000001
 21
219.4869535
  0
LINE
  8
_0-0_0
  6
CONTINUOUS
 62
    7
 10
75.74423250000001
 20
219.4869535
 11
75.778869500000013
 21
219.27488650000001
  0
LINE
  8
_0-0_0
  6
CONTINUOUS
 62
    7
 10
75.778869500000013
 20
219.27488650000001
 11
75.821228500000018
 21
219.0601345
  0
LINE
  8
_0-0_0
  6
CONTINUOUS
 62
    7
 10
75.821228500000018
 20
219.0601345
 11
75.871536500000019
 21
218.84213249999999
  0
LINE
  8
_0-0_0
  6
CONTINUOUS
 62
    7
 10
75.871536500000019
 20
218.84213249999999
 11
75.925781499999999
 21
218.63584850000001
  0
LINE
  8
_0-0_0
  6
CONTINUOUS
 62
    7
 10
75.925781499999999
 20
218.63584850000001
 11
75.987487500000015
 21
218.4257355
  0
LINE
  8
_0-0_0
  6
CONTINUOUS
 62
    7
 10
75.987487500000015
 20
218.4257355
 11
76.0570065
 21
218.2112735
  0
LINE
  8
_0-0_0
  6
CONTINUOUS
 62
    7
 10
76.0570065
 20
218.2112735
 11
76.134735500000005
 21
217.9918515
  0
LINE
  8
_0-0_0
  6
CONTINUOUS
 62
    7
 10
76.134735500000005
 20
217.9918515
 11
76.221099500000008
 21
217.7668765
  0
LINE
  8
_0-0_0
  6
CONTINUOUS
 62
    7
 10
85.928924499999994
 20
217.7668765
 11
76.221099500000008
 21
217.7668765
  0
ARC
  8
_0-0_0
  6
CONTINUOUS
 62
    7
 10
81.092651500000017
 20
223.6245725
 40
4.9136889999999998
 50
172.48898299999999
 51
187.51101699999998
  0
LINE
  8
_0-0_0
  6
CONTINUOUS
 62
    7
 10
85.928924499999994
 20
216.4822695
 11
76.221099500000008
 21
216.4822695
  0
LINE
  8
_0-0_0
  6
CONTINUOUS
 62
    7
 10
76.221099500000008
 20
213.8745725
 11
76.166626500000007
 21
213.9445035
  0
LINE
  8
_0-0_0
  6
CONTINUOUS
 62
    7
 10
76.166626500000007
 20
213.9445035
 11
76.115524499999992
 21
214.01333650000001
  0
LINE
  8
_0-0_0
  6
CONTINUOUS
 62
    7
 10
76.115524499999992
 20
214.01333650000001
 11
76.067886500000014
 21
214.08084049999999
  0
LINE
  8
_0-0_0
  6
CONTINUOUS
 62
    7
 10
76.067886500000014
 20
214.08084049999999
 11
76.023376500000012
 21
214.14738450000002
  0
LINE
  8
_0-0_0
  6
CONTINUOUS
 62
    7
 10
76.023376500000012
 20
214.14738450000002
 11
75.968658500000004
 21
214.23492450000001
  0
LINE
  8
_0-0_0
  6
CONTINUOUS
 62
    7
 10
75.968658500000004
 20
214.23492450000001
 11
75.919158500000009
 21
214.32102950000001
  0
LINE
  8
_0-0_0
  6
CONTINUOUS
 62
    7
 10
75.919158500000009
 20
214.32102950000001
 11
75.874694500000004
 21
214.40585350000001
  0
LINE
  8
_0-0_0
  6
CONTINUOUS
 62
    7
 10
75.874694500000004
 20
214.40585350000001
 11
75.827728500000006
 21
214.5061795
  0
LINE
  8
_0-0_0
  6
CONTINUOUS
 62
    7
 10
75.827728500000006
 20
214.5061795
 11
75.787506500000006
 21
214.60510250000002
  0
LINE
  8
_0-0_0
  6
CONTINUOUS
 62
    7
 10
75.787506500000006
 20
214.60510250000002
 11
75.753845500000011
 21
214.7028655
  0
LINE
  8
_0-0_0
  6
CONTINUOUS
 62
    7
 10
75.753845500000011
 20
214.7028655
 11
75.7265625
 21
214.7996675
  0
LINE
  8
_0-0_0
  6
CONTINUOUS
 62
    7
 10
75.7265625
 20
214.7996675
 11
75.705505500000015
 21
214.89572150000001
  0
LINE
  8
_0-0_0
  6
CONTINUOUS
 62
    7
 10
75.705505500000015
 20
214.89572150000001
 11
75.689575500000018
 21
214.9995725
  0
LINE
  8
_0-0_0
  6
CONTINUOUS
 62
    7
 10
75.689575500000018
 20
214.9995725
 11
75.68081650000002
 21
215.10299649999999
  0
LINE
  8
_0-0_0
  6
CONTINUOUS
 62
    7
 10
75.68081650000002
 20
215.10299649999999
 11
75.67919950000001
 21
215.20623750000001
  0
LINE
  8
_0-0_0
  6
CONTINUOUS
 62
    7
 10
75.67919950000001
 20
215.20623750000001
 11
75.684661500000004
 21
215.30952450000001
  0
LINE
  8
_0-0_0
  6
CONTINUOUS
 62
    7
 10
75.684661500000004
 20
215.30952450000001
 11
75.697265500000015
 21
215.4131165
  0
LINE
  8
_0-0_0
  6
CONTINUOUS
 62
    7
 10
75.697265500000015
 20
215.4131165
 11
75.717086499999994
 21
215.51727249999999
  0
LINE
  8
_0-0_0
  6
CONTINUOUS
 62
    7
 10
75.717086499999994
 20
215.51727249999999
 11
75.74423250000001
 21
215.62222249999999
  0
LINE
  8
_0-0_0
  6
CONTINUOUS
 62
    7
 10
75.74423250000001
 20
215.62222249999999
 11
75.778869500000013
 21
215.72825650000001
  0
LINE
  8
_0-0_0
  6
CONTINUOUS
 62
    7
 10
75.778869500000013
 20
215.72825650000001
 11
75.821228500000018
 21
215.8356325
  0
LINE
  8
_0-0_0
  6
CONTINUOUS
 62
    7
 10
75.821228500000018
 20
215.8356325
 11
75.871536500000019
 21
215.94464049999999
  0
LINE
  8
_0-0_0
  6
CONTINUOUS
 62
    7
 10
75.871536500000019
 20
215.94464049999999
 11
75.925781499999999
 21
216.04779049999999
  0
LINE
  8
_0-0_0
  6
CONTINUOUS
 62
    7
 10
75.925781499999999
 20
216.04779049999999
 11
75.987487500000015
 21
216.15283149999999
  0
LINE
  8
_0-0_0
  6
CONTINUOUS
 62
    7
 10
75.987487500000015
 20
216.15283149999999
 11
76.0570065
 21
216.26007050000001
  0
LINE
  8
_0-0_0
  6
CONTINUOUS
 62
    7
 10
76.0570065
 20
216.26007050000001
 11
76.134735500000005
 21
216.36978150000002
  0
LINE
  8
_0-0_0
  6
CONTINUOUS
 62
    7
 10
76.134735500000005
 20
216.36978150000002
 11
76.221099500000008
 21
216.4822695
  0
LINE
  8
_0-0_0
  6
CONTINUOUS
 62
    7
 10
85.928924499999994
 20
213.8745725
 11
76.221099500000008
 21
213.8745725
  0
ARC
  8
_0-0_0
  6
CONTINUOUS
 62
    7
 10
81.102813499999996
 20
217.12368749999999
 40
4.9238749999999998
 50
172.49424200000001
 51
181.535968
  0
ARC
  8
_0-0_0
  6
CONTINUOUS
 62
    7
 10
81.140838500000001
 20
217.12863150000001
 40
4.9620009999999999
 50
181.58130700000004
 51
187.48478900000003
  0
LINE
  8
_0-0_0
  6
CONTINUOUS
 62
    7
 10
76.178924499999994
 20
213.8745725
 11
76.221099500000008
 21
213.8745725
  0
LINE
  8
_0-0_0
  6
CONTINUOUS
 62
    7
 10
70.928924499999994
 20
213.30000250000001
 11
70.678924499999994
 21
213.3245695
  0
LINE
  8
_0-0_0
  6
CONTINUOUS
 62
    7
 10
70.928924499999994
 20
213.09605350000001
 11
70.678924499999994
 21
213.3245695
  0
LINE
  8
_0-0_0
  6
CONTINUOUS
 62
    7
 10
70.928924499999994
 20
213.49053950000001
 11
70.678924499999994
 21
213.5440365
  0
LINE
  8
_0-0_0
  6
CONTINUOUS
 62
    7
 10
70.928924499999994
 20
213.30000250000001
 11
70.678924499999994
 21
213.5440365
  0
LINE
  8
_0-0_0
  6
CONTINUOUS
 62
    7
 10
70.928924499999994
 20
213.66555750000001
 11
70.678924499999994
 21
213.74740550000001
  0
LINE
  8
_0-0_0
  6
CONTINUOUS
 62
    7
 10
70.928924499999994
 20
213.49053950000001
 11
70.678924499999994
 21
213.74740550000001
  0
LINE
  8
_0-0_0
  6
CONTINUOUS
 62
    7
 10
70.928924499999994
 20
213.8231505
 11
70.678924499999994
 21
213.9324335
  0
LINE
  8
_0-0_0
  6
CONTINUOUS
 62
    7
 10
70.928924499999994
 20
213.66555750000001
 11
70.678924499999994
 21
213.9324335
  0
LINE
  8
_0-0_0
  6
CONTINUOUS
 62
    7
 10
70.928924499999994
 20
213.9615785
 11
70.678924499999994
 21
214.0971065
  0
LINE
  8
_0-0_0
  6
CONTINUOUS
 62
    7
 10
70.928924499999994
 20
213.8231505
 11
70.678924499999994
 21
214.0971065
  0
LINE
  8
_0-0_0
  6
CONTINUOUS
 62
    7
 10
70.928924499999994
 20
214.0793305
 11
70.678924499999994
 21
214.23963950000001
  0
LINE
  8
_0-0_0
  6
CONTINUOUS
 62
    7
 10
70.928924499999994
 20
213.9615785
 11
70.678924499999994
 21
214.23963950000001
  0
LINE
  8
_0-0_0
  6
CONTINUOUS
 62
    7
 10
70.928924499999994
 20
214.17512550000001
 11
70.678924499999994
 21
214.3584285
  0
LINE
  8
_0-0_0
  6
CONTINUOUS
 62
    7
 10
70.928924499999994
 20
214.0793305
 11
70.678924499999994
 21
214.3584285
  0
LINE
  8
_0-0_0
  6
CONTINUOUS
 62
    7
 10
70.928924499999994
 20
214.24790949999999
 11
70.678924499999994
 21
214.45220950000001
  0
LINE
  8
_0-0_0
  6
CONTINUOUS
 62
    7
 10
70.928924499999994
 20
214.17512550000001
 11
70.678924499999994
 21
214.45220950000001
  0
LINE
  8
_0-0_0
  6
CONTINUOUS
 62
    7
 10
70.928924499999994
 20
214.2968745
 11
70.678924499999994
 21
214.51994350000001
  0
LINE
  8
_0-0_0
  6
CONTINUOUS
 62
    7
 10
70.928924499999994
 20
214.24790949999999
 11
70.678924499999994
 21
214.51994350000001
  0
LINE
  8
_0-0_0
  6
CONTINUOUS
 62
    7
 10
70.928924499999994
 20
214.32148749999999
 11
70.678924499999994
 21
214.56088249999999
  0
LINE
  8
_0-0_0
  6
CONTINUOUS
 62
    7
 10
70.928924499999994
 20
214.2968745
 11
70.678924499999994
 21
214.56088249999999
  0
LINE
  8
_0-0_0
  6
CONTINUOUS
 62
    7
 10
70.928924499999994
 20
214.32148749999999
 11
70.678924499999994
 21
214.5745695
  0
LINE
  8
_0-0_0
  6
CONTINUOUS
 62
    7
 10
70.928924499999994
 20
209.8276515
 11
70.678924499999994
 21
209.5745695
  0
LINE
  8
_0-0_0
  6
CONTINUOUS
 62
    7
 10
70.928924499999994
 20
209.85226449999999
 11
70.678924499999994
 21
209.58827149999999
  0
LINE
  8
_0-0_0
  6
CONTINUOUS
 62
    7
 10
70.928924499999994
 20
209.8276515
 11
70.678924499999994
 21
209.58827149999999
  0
LINE
  8
_0-0_0
  6
CONTINUOUS
 62
    7
 10
70.928924499999994
 20
209.90124449999999
 11
70.678924499999994
 21
209.6292115
  0
LINE
  8
_0-0_0
  6
CONTINUOUS
 62
    7
 10
70.928924499999994
 20
209.85226449999999
 11
70.678924499999994
 21
209.6292115
  0
LINE
  8
_0-0_0
  6
CONTINUOUS
 62
    7
 10
70.928924499999994
 20
209.97401450000001
 11
70.678924499999994
 21
209.69692950000001
  0
LINE
  8
_0-0_0
  6
CONTINUOUS
 62
    7
 10
70.928924499999994
 20
209.90124449999999
 11
70.678924499999994
 21
209.69692950000001
  0
LINE
  8
_0-0_0
  6
CONTINUOUS
 62
    7
 10
70.928924499999994
 20
210.06980849999999
 11
70.678924499999994
 21
209.79071049999999
  0
LINE
  8
_0-0_0
  6
CONTINUOUS
 62
    7
 10
70.928924499999994
 20
209.97401450000001
 11
70.678924499999994
 21
209.79071049999999
  0
LINE
  8
_0-0_0
  6
CONTINUOUS
 62
    7
 10
70.928924499999994
 20
210.06980849999999
 11
70.798965500000008
 21
209.9859615
  0
LINE
  8
_0-0_0
  6
CONTINUOUS
 62
    7
 10
70.928924499999994
 20
210.18756049999999
 11
70.678924499999994
 21
209.9095155
  0
LINE
  8
_0-0_0
  6
CONTINUOUS
 62
    7
 10
70.798965500000008
 20
209.9859615
 11
70.678924499999994
 21
209.9095155
  0
LINE
  8
_0-0_0
  6
CONTINUOUS
 62
    7
 10
70.928924499999994
 20
210.32598849999999
 11
70.678924499999994
 21
210.0520325
  0
LINE
  8
_0-0_0
  6
CONTINUOUS
 62
    7
 10
70.928924499999994
 20
210.18756049999999
 11
70.678924499999994
 21
210.0520325
  0
LINE
  8
_0-0_0
  6
CONTINUOUS
 62
    7
 10
70.928924499999994
 20
210.48358150000001
 11
70.678924499999994
 21
210.21670549999999
  0
LINE
  8
_0-0_0
  6
CONTINUOUS
 62
    7
 10
70.928924499999994
 20
210.32598849999999
 11
70.678924499999994
 21
210.21670549999999
  0
LINE
  8
_0-0_0
  6
CONTINUOUS
 62
    7
 10
70.928924499999994
 20
210.65859950000001
 11
70.678924499999994
 21
210.4017485
  0
LINE
  8
_0-0_0
  6
CONTINUOUS
 62
    7
 10
70.928924499999994
 20
210.48358150000001
 11
70.678924499999994
 21
210.4017485
  0
LINE
  8
_0-0_0
  6
CONTINUOUS
 62
    7
 10
70.928924499999994
 20
210.84913650000001
 11
70.678924499999994
 21
210.60510250000002
  0
LINE
  8
_0-0_0
  6
CONTINUOUS
 62
    7
 10
70.928924499999994
 20
210.65859950000001
 11
70.678924499999994
 21
210.60510250000002
  0
LINE
  8
_0-0_0
  6
CONTINUOUS
 62
    7
 10
70.928924499999994
 20
211.05308550000001
 11
70.678924499999994
 21
210.8245695
  0
LINE
  8
_0-0_0
  6
CONTINUOUS
 62
    7
 10
70.928924499999994
 20
210.84913650000001
 11
70.678924499999994
 21
210.8245695
  0
LINE
  8
_0-0_0
  6
CONTINUOUS
 62
    7
 10
70.928924499999994
 20
211.26823450000001
 11
70.678924499999994
 21
211.05772350000001
  0
LINE
  8
_0-0_0
  6
CONTINUOUS
 62
    7
 10
70.928924499999994
 20
211.05308550000001
 11
70.678924499999994
 21
211.05772350000001
  0
LINE
  8
_0-0_0
  6
CONTINUOUS
 62
    7
 10
70.928924499999994
 20
211.4922335
 11
70.678924499999994
 21
211.3020325
  0
LINE
  8
_0-0_0
  6
CONTINUOUS
 62
    7
 10
70.928924499999994
 20
211.26823450000001
 11
70.678924499999994
 21
211.3020325
  0
LINE
  8
_0-0_0
  6
CONTINUOUS
 62
    7
 10
70.928924499999994
 20
211.72259550000001
 11
70.678924499999994
 21
211.55479450000001
  0
LINE
  8
_0-0_0
  6
CONTINUOUS
 62
    7
 10
70.928924499999994
 20
211.4922335
 11
70.678924499999994
 21
211.55479450000001
  0
LINE
  8
_0-0_0
  6
CONTINUOUS
 62
    7
 10
70.928924499999994
 20
211.9568175
 11
70.678924499999994
 21
211.81324749999999
  0
LINE
  8
_0-0_0
  6
CONTINUOUS
 62
    7
 10
70.928924499999994
 20
211.72259550000001
 11
70.678924499999994
 21
211.81324749999999
  0
LINE
  8
_0-0_0
  6
CONTINUOUS
 62
    7
 10
70.928924499999994
 20
212.19232149999999
 11
70.678924499999994
 21
212.0745695
  0
LINE
  8
_0-0_0
  6
CONTINUOUS
 62
    7
 10
70.928924499999994
 20
211.9568175
 11
70.678924499999994
 21
212.0745695
  0
LINE
  8
_0-0_0
  6
CONTINUOUS
 62
    7
 10
70.928924499999994
 20
212.42654450000001
 11
70.678924499999994
 21
212.3358915
  0
LINE
  8
_0-0_0
  6
CONTINUOUS
 62
    7
 10
70.928924499999994
 20
212.19232149999999
 11
70.678924499999994
 21
212.3358915
  0
LINE
  8
_0-0_0
  6
CONTINUOUS
 62
    7
 10
70.928924499999994
 20
212.65692150000001
 11
70.678924499999994
 21
212.59434450000001
  0
LINE
  8
_0-0_0
  6
CONTINUOUS
 62
    7
 10
70.928924499999994
 20
212.42654450000001
 11
70.678924499999994
 21
212.59434450000001
  0
LINE
  8
_0-0_0
  6
CONTINUOUS
 62
    7
 10
70.928924499999994
 20
212.88090550000001
 11
70.678924499999994
 21
212.8471065
  0
LINE
  8
_0-0_0
  6
CONTINUOUS
 62
    7
 10
70.928924499999994
 20
212.65692150000001
 11
70.678924499999994
 21
212.8471065
  0
LINE
  8
_0-0_0
  6
CONTINUOUS
 62
    7
 10
70.928924499999994
 20
213.09605350000001
 11
70.678924499999994
 21
213.09141550000001
  0
LINE
  8
_0-0_0
  6
CONTINUOUS
 62
    7
 10
70.928924499999994
 20
212.88090550000001
 11
70.678924499999994
 21
213.09141550000001
  0
LINE
  8
_0-0_0
  6
CONTINUOUS
 62
    7
 10
61.178932500000002
 20
229.90000950000001
 11
61.428932500000002
 21
229.9245755
  0
LINE
  8
_0-0_0
  6
CONTINUOUS
 62
    7
 10
61.428932500000002
 20
229.9245755
 11
70.678924499999994
 21
229.9245755
  0
LINE
  8
_0-0_0
  6
CONTINUOUS
 62
    7
 10
61.178932500000002
 20
229.6960445
 11
61.428932500000002
 21
229.9245755
  0
LINE
  8
_0-0_0
  6
CONTINUOUS
 62
    7
 10
61.178932500000002
 20
229.6960445
 11
70.928924499999994
 21
229.6960445
  0
LINE
  8
_0-0_0
  6
CONTINUOUS
 62
    7
 10
61.178932500000002
 20
230.09054549999999
 11
61.428932500000002
 21
230.14404250000001
  0
LINE
  8
_0-0_0
  6
CONTINUOUS
 62
    7
 10
61.428932500000002
 20
230.14404250000001
 11
70.678924499999994
 21
230.14404250000001
  0
LINE
  8
_0-0_0
  6
CONTINUOUS
 62
    7
 10
61.178932500000002
 20
229.90000950000001
 11
61.428932500000002
 21
230.14404250000001
  0
LINE
  8
_0-0_0
  6
CONTINUOUS
 62
    7
 10
61.178932500000002
 20
230.26556350000001
 11
61.428932500000002
 21
230.3473965
  0
LINE
  8
_0-0_0
  6
CONTINUOUS
 62
    7
 10
61.428932500000002
 20
230.3473965
 11
70.678924499999994
 21
230.3473965
  0
LINE
  8
_0-0_0
  6
CONTINUOUS
 62
    7
 10
61.178932500000002
 20
230.09054549999999
 11
61.428932500000002
 21
230.3473965
  0
LINE
  8
_0-0_0
  6
CONTINUOUS
 62
    7
 10
61.178932500000002
 20
230.4231565
 11
61.428932500000002
 21
230.53244050000001
  0
LINE
  8
_0-0_0
  6
CONTINUOUS
 62
    7
 10
61.428932500000002
 20
230.53244050000001
 11
70.678924499999994
 21
230.53244050000001
  0
LINE
  8
_0-0_0
  6
CONTINUOUS
 62
    7
 10
61.178932500000002
 20
230.26556350000001
 11
61.428932500000002
 21
230.53244050000001
  0
LINE
  8
_0-0_0
  6
CONTINUOUS
 62
    7
 10
61.178932500000002
 20
230.56158450000001
 11
61.428932500000002
 21
230.6971125
  0
LINE
  8
_0-0_0
  6
CONTINUOUS
 62
    7
 10
61.428932500000002
 20
230.6971125
 11
70.678924499999994
 21
230.6971125
  0
LINE
  8
_0-0_0
  6
CONTINUOUS
 62
    7
 10
61.178932500000002
 20
230.4231565
 11
61.428932500000002
 21
230.6971125
  0
LINE
  8
_0-0_0
  6
CONTINUOUS
 62
    7
 10
61.178932500000002
 20
230.67933650000001
 11
61.428932500000002
 21
230.8396305
  0
LINE
  8
_0-0_0
  6
CONTINUOUS
 62
    7
 10
61.428932500000002
 20
230.8396305
 11
70.678924499999994
 21
230.8396305
  0
LINE
  8
_0-0_0
  6
CONTINUOUS
 62
    7
 10
61.178932500000002
 20
230.56158450000001
 11
61.428932500000002
 21
230.8396305
  0
LINE
  8
_0-0_0
  6
CONTINUOUS
 62
    7
 10
61.178932500000002
 20
230.77513150000001
 11
61.428932500000002
 21
230.95843450000001
  0
LINE
  8
_0-0_0
  6
CONTINUOUS
 62
    7
 10
61.428932500000002
 20
230.95843450000001
 11
70.678924499999994
 21
230.95843450000001
  0
LINE
  8
_0-0_0
  6
CONTINUOUS
 62
    7
 10
61.178932500000002
 20
230.67933650000001
 11
61.428932500000002
 21
230.95843450000001
  0
LINE
  8
_0-0_0
  6
CONTINUOUS
 62
    7
 10
61.178932500000002
 20
230.84790050000001
 11
61.428932500000002
 21
231.05221549999999
  0
LINE
  8
_0-0_0
  6
CONTINUOUS
 62
    7
 10
61.428932500000002
 20
231.05221549999999
 11
70.678924499999994
 21
231.05221549999999
  0
LINE
  8
_0-0_0
  6
CONTINUOUS
 62
    7
 10
61.178932500000002
 20
230.77513150000001
 11
61.428932500000002
 21
231.05221549999999
  0
LINE
  8
_0-0_0
  6
CONTINUOUS
 62
    7
 10
61.178932500000002
 20
230.89686549999999
 11
61.428932500000002
 21
231.1199335
  0
LINE
  8
_0-0_0
  6
CONTINUOUS
 62
    7
 10
61.428932500000002
 20
231.1199335
 11
70.678924499999994
 21
231.1199335
  0
LINE
  8
_0-0_0
  6
CONTINUOUS
 62
    7
 10
61.178932500000002
 20
230.84790050000001
 11
61.428932500000002
 21
231.1199335
  0
LINE
  8
_0-0_0
  6
CONTINUOUS
 62
    7
 10
61.178932500000002
 20
230.9214935
 11
61.428932500000002
 21
231.16087350000001
  0
LINE
  8
_0-0_0
  6
CONTINUOUS
 62
    7
 10
61.428932500000002
 20
231.16087350000001
 11
70.678924499999994
 21
231.16087350000001
  0
LINE
  8
_0-0_0
  6
CONTINUOUS
 62
    7
 10
61.178932500000002
 20
230.89686549999999
 11
61.428932500000002
 21
231.16087350000001
  0
LINE
  8
_0-0_0
  6
CONTINUOUS
 62
    7
 10
61.428932500000002
 20
231.1745755
 11
70.678924499999994
 21
231.1745755
  0
LINE
  8
_0-0_0
  6
CONTINUOUS
 62
    7
 10
61.178932500000002
 20
230.9214935
 11
61.428932500000002
 21
231.1745755
  0
LINE
  8
_0-0_0
  6
CONTINUOUS
 62
    7
 10
61.178932500000002
 20
226.42765750000001
 11
61.428932500000002
 21
226.1745755
  0
LINE
  8
_0-0_0
  6
CONTINUOUS
 62
    7
 10
61.428932500000002
 20
226.1745755
 11
70.678924499999994
 21
226.1745755
  0
LINE
  8
_0-0_0
  6
CONTINUOUS
 62
    7
 10
61.178932500000002
 20
226.4522705
 11
61.428932500000002
 21
226.18826250000001
  0
LINE
  8
_0-0_0
  6
CONTINUOUS
 62
    7
 10
61.428932500000002
 20
226.18826250000001
 11
70.678924499999994
 21
226.18826250000001
  0
LINE
  8
_0-0_0
  6
CONTINUOUS
 62
    7
 10
61.178932500000002
 20
226.42765750000001
 11
61.428932500000002
 21
226.18826250000001
  0
LINE
  8
_0-0_0
  6
CONTINUOUS
 62
    7
 10
61.178932500000002
 20
226.50123550000001
 11
61.428932500000002
 21
226.22920250000001
  0
LINE
  8
_0-0_0
  6
CONTINUOUS
 62
    7
 10
61.428932500000002
 20
226.22920250000001
 11
70.678924499999994
 21
226.22920250000001
  0
LINE
  8
_0-0_0
  6
CONTINUOUS
 62
    7
 10
61.178932500000002
 20
226.4522705
 11
61.428932500000002
 21
226.22920250000001
  0
LINE
  8
_0-0_0
  6
CONTINUOUS
 62
    7
 10
61.178932500000002
 20
226.57402049999999
 11
61.428932500000002
 21
226.29693549999999
  0
LINE
  8
_0-0_0
  6
CONTINUOUS
 62
    7
 10
61.428932500000002
 20
226.29693549999999
 11
70.678924499999994
 21
226.29693549999999
  0
LINE
  8
_0-0_0
  6
CONTINUOUS
 62
    7
 10
61.178932500000002
 20
226.50123550000001
 11
61.428932500000002
 21
226.29693549999999
  0
LINE
  8
_0-0_0
  6
CONTINUOUS
 62
    7
 10
61.178932500000002
 20
226.66979950000001
 11
61.428932500000002
 21
226.39070150000001
  0
LINE
  8
_0-0_0
  6
CONTINUOUS
 62
    7
 10
61.428932500000002
 20
226.39070150000001
 11
70.678924499999994
 21
226.39070150000001
  0
LINE
  8
_0-0_0
  6
CONTINUOUS
 62
    7
 10
61.178932500000002
 20
226.57402049999999
 11
61.428932500000002
 21
226.39070150000001
  0
LINE
  8
_0-0_0
  6
CONTINUOUS
 62
    7
 10
61.428932500000002
 20
226.50950650000001
 11
70.678924499999994
 21
226.50950650000001
  0
LINE
  8
_0-0_0
  6
CONTINUOUS
 62
    7
 10
61.308898499999998
 20
226.58595249999999
 11
61.428932500000002
 21
226.50950650000001
  0
LINE
  8
_0-0_0
  6
CONTINUOUS
 62
    7
 10
61.178932500000002
 20
226.66979950000001
 11
61.308898499999998
 21
226.58595249999999
  0
LINE
  8
_0-0_0
  6
CONTINUOUS
 62
    7
 10
61.178932500000002
 20
226.78756749999999
 11
61.428932500000002
 21
226.50950650000001
  0
LINE
  8
_0-0_0
  6
CONTINUOUS
 62
    7
 10
61.178932500000002
 20
226.9259945
 11
61.428932500000002
 21
226.65202350000001
  0
LINE
  8
_0-0_0
  6
CONTINUOUS
 62
    7
 10
61.428932500000002
 20
226.65202350000001
 11
70.678924499999994
 21
226.65202350000001
  0
LINE
  8
_0-0_0
  6
CONTINUOUS
 62
    7
 10
61.178932500000002
 20
226.78756749999999
 11
61.428932500000002
 21
226.65202350000001
  0
LINE
  8
_0-0_0
  6
CONTINUOUS
 62
    7
 10
61.178932500000002
 20
227.08358749999999
 11
61.428932500000002
 21
226.8167115
  0
LINE
  8
_0-0_0
  6
CONTINUOUS
 62
    7
 10
61.428932500000002
 20
226.8167115
 11
70.678924499999994
 21
226.8167115
  0
LINE
  8
_0-0_0
  6
CONTINUOUS
 62
    7
 10
61.178932500000002
 20
226.9259945
 11
61.428932500000002
 21
226.8167115
  0
LINE
  8
_0-0_0
  6
CONTINUOUS
 62
    7
 10
61.178932500000002
 20
227.25860550000002
 11
61.428932500000002
 21
227.00173950000001
  0
LINE
  8
_0-0_0
  6
CONTINUOUS
 62
    7
 10
61.428932500000002
 20
227.00173950000001
 11
70.678924499999994
 21
227.00173950000001
  0
LINE
  8
_0-0_0
  6
CONTINUOUS
 62
    7
 10
61.178932500000002
 20
227.08358749999999
 11
61.428932500000002
 21
227.00173950000001
  0
LINE
  8
_0-0_0
  6
CONTINUOUS
 62
    7
 10
61.178932500000002
 20
227.4491275
 11
61.428932500000002
 21
227.20510849999999
  0
LINE
  8
_0-0_0
  6
CONTINUOUS
 62
    7
 10
61.428932500000002
 20
227.20510849999999
 11
70.678924499999994
 21
227.20510849999999
  0
LINE
  8
_0-0_0
  6
CONTINUOUS
 62
    7
 10
61.178932500000002
 20
227.25860550000002
 11
61.428932500000002
 21
227.20510849999999
  0
LINE
  8
_0-0_0
  6
CONTINUOUS
 62
    7
 10
61.178932500000002
 20
227.65309150000002
 11
61.428932500000002
 21
227.4245755
  0
LINE
  8
_0-0_0
  6
CONTINUOUS
 62
    7
 10
61.428932500000002
 20
227.4245755
 11
70.678924499999994
 21
227.4245755
  0
LINE
  8
_0-0_0
  6
CONTINUOUS
 62
    7
 10
61.178932500000002
 20
227.65309150000002
 11
70.928924499999994
 21
227.65309150000002
  0
LINE
  8
_0-0_0
  6
CONTINUOUS
 62
    7
 10
61.178932500000002
 20
227.4491275
 11
61.428932500000002
 21
227.4245755
  0
LINE
  8
_0-0_0
  6
CONTINUOUS
 62
    7
 10
61.178932500000002
 20
227.86824050000001
 11
61.428932500000002
 21
227.65772950000002
  0
LINE
  8
_0-0_0
  6
CONTINUOUS
 62
    7
 10
61.428932500000002
 20
227.65772950000002
 11
70.678924499999994
 21
227.65772950000002
  0
LINE
  8
_0-0_0
  6
CONTINUOUS
 62
    7
 10
61.178932500000002
 20
227.86824050000001
 11
70.928924499999994
 21
227.86824050000001
  0
LINE
  8
_0-0_0
  6
CONTINUOUS
 62
    7
 10
61.178932500000002
 20
227.65309150000002
 11
61.428932500000002
 21
227.65772950000002
  0
LINE
  8
_0-0_0
  6
CONTINUOUS
 62
    7
 10
61.178932500000002
 20
228.09222450000001
 11
61.428932500000002
 21
227.90202350000001
  0
LINE
  8
_0-0_0
  6
CONTINUOUS
 62
    7
 10
61.428932500000002
 20
227.90202350000001
 11
70.678924499999994
 21
227.90202350000001
  0
LINE
  8
_0-0_0
  6
CONTINUOUS
 62
    7
 10
61.178932500000002
 20
228.09222450000001
 11
70.928924499999994
 21
228.09222450000001
  0
LINE
  8
_0-0_0
  6
CONTINUOUS
 62
    7
 10
61.178932500000002
 20
227.86824050000001
 11
61.428932500000002
 21
227.90202350000001
  0
LINE
  8
_0-0_0
  6
CONTINUOUS
 62
    7
 10
61.178932500000002
 20
228.32260149999999
 11
61.428932500000002
 21
228.1547855
  0
LINE
  8
_0-0_0
  6
CONTINUOUS
 62
    7
 10
61.428932500000002
 20
228.1547855
 11
70.678924499999994
 21
228.1547855
  0
LINE
  8
_0-0_0
  6
CONTINUOUS
 62
    7
 10
61.178932500000002
 20
228.32260149999999
 11
70.928924499999994
 21
228.32260149999999
  0
LINE
  8
_0-0_0
  6
CONTINUOUS
 62
    7
 10
61.178932500000002
 20
228.09222450000001
 11
61.428932500000002
 21
228.1547855
  0
LINE
  8
_0-0_0
  6
CONTINUOUS
 62
    7
 10
61.178932500000002
 20
228.55682350000001
 11
61.428932500000002
 21
228.4132535
  0
LINE
  8
_0-0_0
  6
CONTINUOUS
 62
    7
 10
61.428932500000002
 20
228.4132535
 11
70.678924499999994
 21
228.4132535
  0
LINE
  8
_0-0_0
  6
CONTINUOUS
 62
    7
 10
61.178932500000002
 20
228.55682350000001
 11
70.928924499999994
 21
228.55682350000001
  0
LINE
  8
_0-0_0
  6
CONTINUOUS
 62
    7
 10
61.178932500000002
 20
228.32260149999999
 11
61.428932500000002
 21
228.4132535
  0
LINE
  8
_0-0_0
  6
CONTINUOUS
 62
    7
 10
61.178932500000002
 20
228.7923275
 11
61.428932500000002
 21
228.6745755
  0
LINE
  8
_0-0_0
  6
CONTINUOUS
 62
    7
 10
61.428932500000002
 20
228.6745755
 11
70.678924499999994
 21
228.6745755
  0
LINE
  8
_0-0_0
  6
CONTINUOUS
 62
    7
 10
61.178932500000002
 20
228.7923275
 11
70.928924499999994
 21
228.7923275
  0
LINE
  8
_0-0_0
  6
CONTINUOUS
 62
    7
 10
61.178932500000002
 20
228.55682350000001
 11
61.428932500000002
 21
228.6745755
  0
LINE
  8
_0-0_0
  6
CONTINUOUS
 62
    7
 10
61.178932500000002
 20
229.02655050000001
 11
61.428932500000002
 21
228.93589750000001
  0
LINE
  8
_0-0_0
  6
CONTINUOUS
 62
    7
 10
61.428932500000002
 20
228.93589750000001
 11
70.678924499999994
 21
228.93589750000001
  0
LINE
  8
_0-0_0
  6
CONTINUOUS
 62
    7
 10
61.178932500000002
 20
229.02655050000001
 11
70.928924499999994
 21
229.02655050000001
  0
LINE
  8
_0-0_0
  6
CONTINUOUS
 62
    7
 10
61.178932500000002
 20
228.7923275
 11
61.428932500000002
 21
228.93589750000001
  0
LINE
  8
_0-0_0
  6
CONTINUOUS
 62
    7
 10
61.178932500000002
 20
229.2569125
 11
61.428932500000002
 21
229.19435150000001
  0
LINE
  8
_0-0_0
  6
CONTINUOUS
 62
    7
 10
61.428932500000002
 20
229.19435150000001
 11
70.678924499999994
 21
229.19435150000001
  0
LINE
  8
_0-0_0
  6
CONTINUOUS
 62
    7
 10
61.178932500000002
 20
229.2569125
 11
70.928924499999994
 21
229.2569125
  0
LINE
  8
_0-0_0
  6
CONTINUOUS
 62
    7
 10
61.178932500000002
 20
229.02655050000001
 11
61.428932500000002
 21
229.19435150000001
  0
LINE
  8
_0-0_0
  6
CONTINUOUS
 62
    7
 10
61.178932500000002
 20
229.4808955
 11
61.428932500000002
 21
229.4471125
  0
LINE
  8
_0-0_0
  6
CONTINUOUS
 62
    7
 10
61.428932500000002
 20
229.4471125
 11
70.678924499999994
 21
229.4471125
  0
LINE
  8
_0-0_0
  6
CONTINUOUS
 62
    7
 10
61.178932500000002
 20
229.4808955
 11
70.928924499999994
 21
229.4808955
  0
LINE
  8
_0-0_0
  6
CONTINUOUS
 62
    7
 10
61.178932500000002
 20
229.2569125
 11
61.428932500000002
 21
229.4471125
  0
LINE
  8
_0-0_0
  6
CONTINUOUS
 62
    7
 10
61.178932500000002
 20
229.6960445
 11
61.428932500000002
 21
229.6914065
  0
LINE
  8
_0-0_0
  6
CONTINUOUS
 62
    7
 10
61.428932500000002
 20
229.6914065
 11
70.678924499999994
 21
229.6914065
  0
LINE
  8
_0-0_0
  6
CONTINUOUS
 62
    7
 10
61.178932500000002
 20
229.4808955
 11
61.428932500000002
 21
229.6914065
  0
LINE
  8
_0-0_0
  6
CONTINUOUS
 62
    7
 10
74.928924499999994
 20
225.6245725
 11
74.928924499999994
 21
217.64302050000001
  0
LINE
  8
_0-0_0
  6
CONTINUOUS
 62
    7
 10
74.928924499999994
 20
217.64302050000001
 11
74.928924499999994
 21
215.1245725
  0
LINE
  8
_0-0_0
  6
CONTINUOUS
 62
    7
 10
61.178932500000002
 20
213.30000250000001
 11
61.428932500000002
 21
213.3245695
  0
LINE
  8
_0-0_0
  6
CONTINUOUS
 62
    7
 10
61.428932500000002
 20
213.3245695
 11
70.678924499999994
 21
213.3245695
  0
LINE
  8
_0-0_0
  6
CONTINUOUS
 62
    7
 10
61.178932500000002
 20
213.09605350000001
 11
61.428932500000002
 21
213.3245695
  0
LINE
  8
_0-0_0
  6
CONTINUOUS
 62
    7
 10
61.178932500000002
 20
213.09605350000001
 11
70.928924499999994
 21
213.09605350000001
  0
LINE
  8
_0-0_0
  6
CONTINUOUS
 62
    7
 10
61.178932500000002
 20
213.49053950000001
 11
61.428932500000002
 21
213.5440365
  0
LINE
  8
_0-0_0
  6
CONTINUOUS
 62
    7
 10
61.428932500000002
 20
213.5440365
 11
70.678924499999994
 21
213.5440365
  0
LINE
  8
_0-0_0
  6
CONTINUOUS
 62
    7
 10
61.178932500000002
 20
213.30000250000001
 11
61.428932500000002
 21
213.5440365
  0
LINE
  8
_0-0_0
  6
CONTINUOUS
 62
    7
 10
61.178932500000002
 20
213.66555750000001
 11
61.428932500000002
 21
213.74740550000001
  0
LINE
  8
_0-0_0
  6
CONTINUOUS
 62
    7
 10
61.428932500000002
 20
213.74740550000001
 11
70.678924499999994
 21
213.74740550000001
  0
LINE
  8
_0-0_0
  6
CONTINUOUS
 62
    7
 10
61.178932500000002
 20
213.49053950000001
 11
61.428932500000002
 21
213.74740550000001
  0
LINE
  8
_0-0_0
  6
CONTINUOUS
 62
    7
 10
61.178932500000002
 20
213.8231505
 11
61.428932500000002
 21
213.9324335
  0
LINE
  8
_0-0_0
  6
CONTINUOUS
 62
    7
 10
61.428932500000002
 20
213.9324335
 11
70.678924499999994
 21
213.9324335
  0
LINE
  8
_0-0_0
  6
CONTINUOUS
 62
    7
 10
61.178932500000002
 20
213.66555750000001
 11
61.428932500000002
 21
213.9324335
  0
LINE
  8
_0-0_0
  6
CONTINUOUS
 62
    7
 10
61.178932500000002
 20
213.9615785
 11
61.428932500000002
 21
214.0971065
  0
LINE
  8
_0-0_0
  6
CONTINUOUS
 62
    7
 10
61.428932500000002
 20
214.0971065
 11
70.678924499999994
 21
214.0971065
  0
LINE
  8
_0-0_0
  6
CONTINUOUS
 62
    7
 10
61.178932500000002
 20
213.8231505
 11
61.428932500000002
 21
214.0971065
  0
LINE
  8
_0-0_0
  6
CONTINUOUS
 62
    7
 10
61.178932500000002
 20
214.0793305
 11
61.428932500000002
 21
214.23963950000001
  0
LINE
  8
_0-0_0
  6
CONTINUOUS
 62
    7
 10
61.428932500000002
 20
214.23963950000001
 11
70.678924499999994
 21
214.23963950000001
  0
LINE
  8
_0-0_0
  6
CONTINUOUS
 62
    7
 10
61.178932500000002
 20
213.9615785
 11
61.428932500000002
 21
214.23963950000001
  0
LINE
  8
_0-0_0
  6
CONTINUOUS
 62
    7
 10
61.178932500000002
 20
214.17512550000001
 11
61.428932500000002
 21
214.3584285
  0
LINE
  8
_0-0_0
  6
CONTINUOUS
 62
    7
 10
61.428932500000002
 20
214.3584285
 11
70.678924499999994
 21
214.3584285
  0
LINE
  8
_0-0_0
  6
CONTINUOUS
 62
    7
 10
61.178932500000002
 20
214.0793305
 11
61.428932500000002
 21
214.3584285
  0
LINE
  8
_0-0_0
  6
CONTINUOUS
 62
    7
 10
61.178932500000002
 20
214.24790949999999
 11
61.428932500000002
 21
214.45220950000001
  0
LINE
  8
_0-0_0
  6
CONTINUOUS
 62
    7
 10
61.428932500000002
 20
214.45220950000001
 11
70.678924499999994
 21
214.45220950000001
  0
LINE
  8
_0-0_0
  6
CONTINUOUS
 62
    7
 10
61.178932500000002
 20
214.17512550000001
 11
61.428932500000002
 21
214.45220950000001
  0
LINE
  8
_0-0_0
  6
CONTINUOUS
 62
    7
 10
61.178932500000002
 20
214.2968745
 11
61.428932500000002
 21
214.51994350000001
  0
LINE
  8
_0-0_0
  6
CONTINUOUS
 62
    7
 10
61.428932500000002
 20
214.51994350000001
 11
70.678924499999994
 21
214.51994350000001
  0
LINE
  8
_0-0_0
  6
CONTINUOUS
 62
    7
 10
61.178932500000002
 20
214.24790949999999
 11
61.428932500000002
 21
214.51994350000001
  0
LINE
  8
_0-0_0
  6
CONTINUOUS
 62
    7
 10
61.178932500000002
 20
214.32148749999999
 11
61.428932500000002
 21
214.56088249999999
  0
LINE
  8
_0-0_0
  6
CONTINUOUS
 62
    7
 10
61.428932500000002
 20
214.56088249999999
 11
70.678924499999994
 21
214.56088249999999
  0
LINE
  8
_0-0_0
  6
CONTINUOUS
 62
    7
 10
61.178932500000002
 20
214.2968745
 11
61.428932500000002
 21
214.56088249999999
  0
LINE
  8
_0-0_0
  6
CONTINUOUS
 62
    7
 10
61.428932500000002
 20
214.5745695
 11
70.678924499999994
 21
214.5745695
  0
LINE
  8
_0-0_0
  6
CONTINUOUS
 62
    7
 10
61.178932500000002
 20
214.32148749999999
 11
61.428932500000002
 21
214.5745695
  0
LINE
  8
_0-0_0
  6
CONTINUOUS
 62
    7
 10
61.178932500000002
 20
209.8276515
 11
61.428932500000002
 21
209.5745695
  0
LINE
  8
_0-0_0
  6
CONTINUOUS
 62
    7
 10
61.428932500000002
 20
209.5745695
 11
70.678924499999994
 21
209.5745695
  0
LINE
  8
_0-0_0
  6
CONTINUOUS
 62
    7
 10
61.178932500000002
 20
209.85226449999999
 11
61.428932500000002
 21
209.58827149999999
  0
LINE
  8
_0-0_0
  6
CONTINUOUS
 62
    7
 10
61.428932500000002
 20
209.58827149999999
 11
70.678924499999994
 21
209.58827149999999
  0
LINE
  8
_0-0_0
  6
CONTINUOUS
 62
    7
 10
61.178932500000002
 20
209.8276515
 11
61.428932500000002
 21
209.58827149999999
  0
LINE
  8
_0-0_0
  6
CONTINUOUS
 62
    7
 10
61.178932500000002
 20
209.90124449999999
 11
61.428932500000002
 21
209.6292115
  0
LINE
  8
_0-0_0
  6
CONTINUOUS
 62
    7
 10
61.428932500000002
 20
209.6292115
 11
70.678924499999994
 21
209.6292115
  0
LINE
  8
_0-0_0
  6
CONTINUOUS
 62
    7
 10
61.178932500000002
 20
209.85226449999999
 11
61.428932500000002
 21
209.6292115
  0
LINE
  8
_0-0_0
  6
CONTINUOUS
 62
    7
 10
61.178932500000002
 20
209.97401450000001
 11
61.428932500000002
 21
209.69692950000001
  0
LINE
  8
_0-0_0
  6
CONTINUOUS
 62
    7
 10
61.428932500000002
 20
209.69692950000001
 11
70.678924499999994
 21
209.69692950000001
  0
LINE
  8
_0-0_0
  6
CONTINUOUS
 62
    7
 10
61.178932500000002
 20
209.90124449999999
 11
61.428932500000002
 21
209.69692950000001
  0
LINE
  8
_0-0_0
  6
CONTINUOUS
 62
    7
 10
61.178932500000002
 20
210.06980849999999
 11
61.428932500000002
 21
209.79071049999999
  0
LINE
  8
_0-0_0
  6
CONTINUOUS
 62
    7
 10
61.428932500000002
 20
209.79071049999999
 11
70.678924499999994
 21
209.79071049999999
  0
LINE
  8
_0-0_0
  6
CONTINUOUS
 62
    7
 10
61.178932500000002
 20
209.97401450000001
 11
61.428932500000002
 21
209.79071049999999
  0
LINE
  8
_0-0_0
  6
CONTINUOUS
 62
    7
 10
61.428932500000002
 20
209.9095155
 11
70.678924499999994
 21
209.9095155
  0
LINE
  8
_0-0_0
  6
CONTINUOUS
 62
    7
 10
61.308898499999998
 20
209.9859615
 11
61.428932500000002
 21
209.9095155
  0
LINE
  8
_0-0_0
  6
CONTINUOUS
 62
    7
 10
61.178932500000002
 20
210.06980849999999
 11
61.308898499999998
 21
209.9859615
  0
LINE
  8
_0-0_0
  6
CONTINUOUS
 62
    7
 10
61.178932500000002
 20
210.18756049999999
 11
61.428932500000002
 21
209.9095155
  0
LINE
  8
_0-0_0
  6
CONTINUOUS
 62
    7
 10
61.178932500000002
 20
210.32598849999999
 11
61.428932500000002
 21
210.0520325
  0
LINE
  8
_0-0_0
  6
CONTINUOUS
 62
    7
 10
61.428932500000002
 20
210.0520325
 11
70.678924499999994
 21
210.0520325
  0
LINE
  8
_0-0_0
  6
CONTINUOUS
 62
    7
 10
61.178932500000002
 20
210.18756049999999
 11
61.428932500000002
 21
210.0520325
  0
LINE
  8
_0-0_0
  6
CONTINUOUS
 62
    7
 10
61.178932500000002
 20
210.48358150000001
 11
61.428932500000002
 21
210.21670549999999
  0
LINE
  8
_0-0_0
  6
CONTINUOUS
 62
    7
 10
61.428932500000002
 20
210.21670549999999
 11
70.678924499999994
 21
210.21670549999999
  0
LINE
  8
_0-0_0
  6
CONTINUOUS
 62
    7
 10
61.178932500000002
 20
210.32598849999999
 11
61.428932500000002
 21
210.21670549999999
  0
LINE
  8
_0-0_0
  6
CONTINUOUS
 62
    7
 10
61.178932500000002
 20
210.65859950000001
 11
61.428932500000002
 21
210.4017485
  0
LINE
  8
_0-0_0
  6
CONTINUOUS
 62
    7
 10
61.428932500000002
 20
210.4017485
 11
70.678924499999994
 21
210.4017485
  0
LINE
  8
_0-0_0
  6
CONTINUOUS
 62
    7
 10
61.178932500000002
 20
210.48358150000001
 11
61.428932500000002
 21
210.4017485
  0
LINE
  8
_0-0_0
  6
CONTINUOUS
 62
    7
 10
61.178932500000002
 20
210.84913650000001
 11
61.428932500000002
 21
210.60510250000002
  0
LINE
  8
_0-0_0
  6
CONTINUOUS
 62
    7
 10
61.428932500000002
 20
210.60510250000002
 11
70.678924499999994
 21
210.60510250000002
  0
LINE
  8
_0-0_0
  6
CONTINUOUS
 62
    7
 10
61.178932500000002
 20
210.65859950000001
 11
61.428932500000002
 21
210.60510250000002
  0
LINE
  8
_0-0_0
  6
CONTINUOUS
 62
    7
 10
61.178932500000002
 20
211.05308550000001
 11
61.428932500000002
 21
210.8245695
  0
LINE
  8
_0-0_0
  6
CONTINUOUS
 62
    7
 10
61.428932500000002
 20
210.8245695
 11
70.678924499999994
 21
210.8245695
  0
LINE
  8
_0-0_0
  6
CONTINUOUS
 62
    7
 10
61.178932500000002
 20
211.05308550000001
 11
70.928924499999994
 21
211.05308550000001
  0
LINE
  8
_0-0_0
  6
CONTINUOUS
 62
    7
 10
61.178932500000002
 20
210.84913650000001
 11
61.428932500000002
 21
210.8245695
  0
LINE
  8
_0-0_0
  6
CONTINUOUS
 62
    7
 10
61.178932500000002
 20
211.26823450000001
 11
61.428932500000002
 21
211.05772350000001
  0
LINE
  8
_0-0_0
  6
CONTINUOUS
 62
    7
 10
61.428932500000002
 20
211.05772350000001
 11
70.678924499999994
 21
211.05772350000001
  0
LINE
  8
_0-0_0
  6
CONTINUOUS
 62
    7
 10
61.178932500000002
 20
211.26823450000001
 11
70.928924499999994
 21
211.26823450000001
  0
LINE
  8
_0-0_0
  6
CONTINUOUS
 62
    7
 10
61.178932500000002
 20
211.05308550000001
 11
61.428932500000002
 21
211.05772350000001
  0
LINE
  8
_0-0_0
  6
CONTINUOUS
 62
    7
 10
61.178932500000002
 20
211.4922335
 11
61.428932500000002
 21
211.3020325
  0
LINE
  8
_0-0_0
  6
CONTINUOUS
 62
    7
 10
61.428932500000002
 20
211.3020325
 11
70.678924499999994
 21
211.3020325
  0
LINE
  8
_0-0_0
  6
CONTINUOUS
 62
    7
 10
61.178932500000002
 20
211.4922335
 11
70.928924499999994
 21
211.4922335
  0
LINE
  8
_0-0_0
  6
CONTINUOUS
 62
    7
 10
61.178932500000002
 20
211.26823450000001
 11
61.428932500000002
 21
211.3020325
  0
LINE
  8
_0-0_0
  6
CONTINUOUS
 62
    7
 10
61.178932500000002
 20
211.72259550000001
 11
61.428932500000002
 21
211.55479450000001
  0
LINE
  8
_0-0_0
  6
CONTINUOUS
 62
    7
 10
61.428932500000002
 20
211.55479450000001
 11
70.678924499999994
 21
211.55479450000001
  0
LINE
  8
_0-0_0
  6
CONTINUOUS
 62
    7
 10
61.178932500000002
 20
211.72259550000001
 11
70.928924499999994
 21
211.72259550000001
  0
LINE
  8
_0-0_0
  6
CONTINUOUS
 62
    7
 10
61.178932500000002
 20
211.4922335
 11
61.428932500000002
 21
211.55479450000001
  0
LINE
  8
_0-0_0
  6
CONTINUOUS
 62
    7
 10
61.178932500000002
 20
211.9568175
 11
61.428932500000002
 21
211.81324749999999
  0
LINE
  8
_0-0_0
  6
CONTINUOUS
 62
    7
 10
61.428932500000002
 20
211.81324749999999
 11
70.678924499999994
 21
211.81324749999999
  0
LINE
  8
_0-0_0
  6
CONTINUOUS
 62
    7
 10
61.178932500000002
 20
211.9568175
 11
70.928924499999994
 21
211.9568175
  0
LINE
  8
_0-0_0
  6
CONTINUOUS
 62
    7
 10
61.178932500000002
 20
211.72259550000001
 11
61.428932500000002
 21
211.81324749999999
  0
LINE
  8
_0-0_0
  6
CONTINUOUS
 62
    7
 10
61.178932500000002
 20
212.19232149999999
 11
61.428932500000002
 21
212.0745695
  0
LINE
  8
_0-0_0
  6
CONTINUOUS
 62
    7
 10
61.428932500000002
 20
212.0745695
 11
70.678924499999994
 21
212.0745695
  0
LINE
  8
_0-0_0
  6
CONTINUOUS
 62
    7
 10
61.178932500000002
 20
212.19232149999999
 11
70.928924499999994
 21
212.19232149999999
  0
LINE
  8
_0-0_0
  6
CONTINUOUS
 62
    7
 10
61.178932500000002
 20
211.9568175
 11
61.428932500000002
 21
212.0745695
  0
LINE
  8
_0-0_0
  6
CONTINUOUS
 62
    7
 10
61.178932500000002
 20
212.42654450000001
 11
61.428932500000002
 21
212.3358915
  0
LINE
  8
_0-0_0
  6
CONTINUOUS
 62
    7
 10
61.428932500000002
 20
212.3358915
 11
70.678924499999994
 21
212.3358915
  0
LINE
  8
_0-0_0
  6
CONTINUOUS
 62
    7
 10
61.178932500000002
 20
212.42654450000001
 11
70.928924499999994
 21
212.42654450000001
  0
LINE
  8
_0-0_0
  6
CONTINUOUS
 62
    7
 10
61.178932500000002
 20
212.19232149999999
 11
61.428932500000002
 21
212.3358915
  0
LINE
  8
_0-0_0
  6
CONTINUOUS
 62
    7
 10
61.178932500000002
 20
212.65692150000001
 11
61.428932500000002
 21
212.59434450000001
  0
LINE
  8
_0-0_0
  6
CONTINUOUS
 62
    7
 10
61.428932500000002
 20
212.59434450000001
 11
70.678924499999994
 21
212.59434450000001
  0
LINE
  8
_0-0_0
  6
CONTINUOUS
 62
    7
 10
61.178932500000002
 20
212.65692150000001
 11
70.928924499999994
 21
212.65692150000001
  0
LINE
  8
_0-0_0
  6
CONTINUOUS
 62
    7
 10
61.178932500000002
 20
212.42654450000001
 11
61.428932500000002
 21
212.59434450000001
  0
LINE
  8
_0-0_0
  6
CONTINUOUS
 62
    7
 10
61.178932500000002
 20
212.88090550000001
 11
61.428932500000002
 21
212.8471065
  0
LINE
  8
_0-0_0
  6
CONTINUOUS
 62
    7
 10
61.428932500000002
 20
212.8471065
 11
70.678924499999994
 21
212.8471065
  0
LINE
  8
_0-0_0
  6
CONTINUOUS
 62
    7
 10
61.178932500000002
 20
212.88090550000001
 11
70.928924499999994
 21
212.88090550000001
  0
LINE
  8
_0-0_0
  6
CONTINUOUS
 62
    7
 10
61.178932500000002
 20
212.65692150000001
 11
61.428932500000002
 21
212.8471065
  0
LINE
  8
_0-0_0
  6
CONTINUOUS
 62
    7
 10
61.178932500000002
 20
213.09605350000001
 11
61.428932500000002
 21
213.09141550000001
  0
LINE
  8
_0-0_0
  6
CONTINUOUS
 62
    7
 10
61.428932500000002
 20
213.09141550000001
 11
70.678924499999994
 21
213.09141550000001
  0
LINE
  8
_0-0_0
  6
CONTINUOUS
 62
    7
 10
61.178932500000002
 20
212.88090550000001
 11
61.428932500000002
 21
213.09141550000001
  0
LINE
  8
_0-0_0
  6
CONTINUOUS
 62
    7
 10
60.928932500000002
 20
230.6745755
 11
60.928932500000002
 21
226.91940249999999
  0
LINE
  8
_0-0_0
  6
CONTINUOUS
 62
    7
 10
60.928932500000002
 20
226.91940249999999
 11
60.928932500000002
 21
226.6745755
  0
LINE
  8
_0-0_0
  6
CONTINUOUS
 62
    7
 10
60.928932500000002
 20
214.0745695
 11
60.928932500000002
 21
210.3194125
  0
LINE
  8
_0-0_0
  6
CONTINUOUS
 62
    7
 10
60.928932500000002
 20
210.3194125
 11
60.928932500000002
 21
210.0745695
  0
LINE
  8
_0-0_0
  6
CONTINUOUS
 62
    7
 10
74.528930500000001
 20
225.3745725
 11
74.528930500000001
 21
222.8745725
  0
LINE
  8
_0-0_0
  6
CONTINUOUS
 62
    7
 10
74.528930500000001
 20
222.8745725
 11
74.528930500000001
 21
215.3745725
  0
LINE
  8
_0-0_0
  6
CONTINUOUS
 62
    7
 10
73.728942500000016
 20
224.9126895
 11
73.728942500000016
 21
222.6436305
  0
LINE
  8
_0-0_0
  6
CONTINUOUS
 62
    7
 10
73.728942500000016
 20
222.6436305
 11
73.728942500000016
 21
215.8364565
  0
LINE
  8
_0-0_0
  6
CONTINUOUS
 62
    7
 10
15.728927499999998
 20
224.3745725
 11
15.728927499999998
 21
224.37322950000001
  0
LINE
  8
_0-0_0
  6
CONTINUOUS
 62
    7
 10
15.728927499999998
 20
224.37322950000001
 11
15.728927499999998
 21
216.3745725
  0
LINE
  8
_0-0_0
  6
CONTINUOUS
 62
    7
 10
96.928924499999994
 20
230.9245755
 11
70.928924499999994
 21
230.9245755
  0
LINE
  8
_0-0_0
  6
CONTINUOUS
 62
    7
 10
96.928924499999994
 20
226.4245755
 11
70.928924499999994
 21
226.4245755
  0
LINE
  8
_0-0_0
  6
CONTINUOUS
 62
    7
 10
75.728912500000007
 20
214.3245695
 11
70.928924499999994
 21
214.3245695
  0
LINE
  8
_0-0_0
  6
CONTINUOUS
 62
    7
 10
91.178894500000013
 20
209.8245695
 11
70.928924499999994
 21
209.8245695
  0
LINE
  8
_0-0_0
  6
CONTINUOUS
 62
    7
 10
70.928924499999994
 20
230.9245755
 11
70.678924499999994
 21
231.1745755
  0
LINE
  8
_0-0_0
  6
CONTINUOUS
 62
    7
 10
70.928924499999994
 20
226.4245755
 11
70.678924499999994
 21
226.1745755
  0
LINE
  8
_0-0_0
  6
CONTINUOUS
 62
    7
 10
70.928924499999994
 20
214.3245695
 11
70.678924499999994
 21
214.5745695
  0
LINE
  8
_0-0_0
  6
CONTINUOUS
 62
    7
 10
74.928924499999994
 20
225.6245725
 11
75.728927499999998
 21
226.42456050000001
  0
LINE
  8
_0-0_0
  6
CONTINUOUS
 62
    7
 10
74.928924499999994
 20
215.1245725
 11
76.178924499999994
 21
213.8745725
  0
LINE
  8
_0-0_0
  6
CONTINUOUS
 62
    7
 10
60.928932500000002
 20
230.6745755
 11
61.428779500000019
 21
231.1744075
  0
LINE
  8
_0-0_0
  6
CONTINUOUS
 62
    7
 10
60.928932500000002
 20
226.6745755
 11
61.428779500000019
 21
226.17472850000001
  0
LINE
  8
_0-0_0
  6
CONTINUOUS
 62
    7
 10
60.928932500000002
 20
214.0745695
 11
61.428779500000019
 21
214.57441650000001
  0
LINE
  8
_0-0_0
  6
CONTINUOUS
 62
    7
 10
60.928932500000002
 20
210.0745695
 11
61.428779500000019
 21
209.57472250000001
  0
LINE
  8
_0-0_0
  6
CONTINUOUS
 62
    7
 10
74.928924499999994
 20
225.3745725
 11
74.528930500000001
 21
225.3745725
  0
LINE
  8
_0-0_0
  6
CONTINUOUS
 62
    7
 10
74.928924499999994
 20
215.3745725
 11
74.528930500000001
 21
215.3745725
  0
LINE
  8
_0-0_0
  6
CONTINUOUS
 62
    7
 10
73.728942500000016
 20
224.9126895
 11
74.528930500000001
 21
225.3745725
  0
LINE
  8
_0-0_0
  6
CONTINUOUS
 62
    7
 10
73.728942500000016
 20
215.8364565
 11
74.528930500000001
 21
215.3745725
  0
LINE
  8
_0-0_0
  6
CONTINUOUS
 62
    7
 10
73.728942500000016
 20
224.3745725
 11
15.728927499999998
 21
224.3745725
  0
LINE
  8
_0-0_0
  6
CONTINUOUS
 62
    7
 10
73.728942500000016
 20
216.3745725
 11
15.728927499999998
 21
216.3745725
  0
LINE
  8
_0-0_0
  6
CONTINUOUS
 62
    7
 10
81.428924499999994
 20
249.2746425
 11
83.883697500000011
 21
249.2746425
  0
LINE
  8
_0-0_0
  6
CONTINUOUS
 62
    7
 10
81.428924499999994
 20
236.0746455
 11
81.428924499999994
 21
249.2746425
  0
LINE
  8
_0-0_0
  6
CONTINUOUS
 62
    7
 10
484.42892449999999
 20
236.0746455
 11
484.42892449999999
 21
249.2746425
  0
LINE
  8
_0-0_0
  6
CONTINUOUS
 62
    7
 10
481.97415150000006
 20
249.2746425
 11
484.42892449999999
 21
249.2746425
  0
ARC
  8
_0-0_0
  6
CONTINUOUS
 62
    7
 10
475.42892449999999
 20
253.87464850000001
 40
8
 50
215.099627
 51
324.90037799999999
  0
LINE
  8
_0-0_0
  6
CONTINUOUS
 62
    7
 10
96.974151500000005
 20
249.2746425
 11
468.88369750000004
 21
249.2746425
  0
ARC
  8
_0-0_0
  6
CONTINUOUS
 62
    7
 10
90.428924499999994
 20
253.87464850000001
 40
8
 50
215.099627
 51
324.90037799999999
  0
LINE
  8
_0-0_0
  6
CONTINUOUS
 62
    7
 10
83.883697500000011
 20
249.2746425
 11
83.794723500000003
 21
249.4039305
  0
LINE
  8
_0-0_0
  6
CONTINUOUS
 62
    7
 10
96.974151500000005
 20
249.2746425
 11
97.063140500000003
 21
249.4039305
  0
LINE
  8
_0-0_0
  6
CONTINUOUS
 62
    7
 10
97.156280500000008
 20
249.54534950000001
 11
97.063140500000003
 21
249.4039305
  0
LINE
  8
_0-0_0
  6
CONTINUOUS
 62
    7
 10
97.156280500000008
 20
249.54534950000001
 11
97.237747500000012
 21
249.67465150000001
  0
ARC
  8
_0-0_0
  6
CONTINUOUS
 62
    7
 10
90.428924499999994
 20
253.87464850000001
 40
8
 50
328.33175599999993
 51
334.05550899999992
  0
LINE
  8
_0-0_0
  6
CONTINUOUS
 62
    7
 10
97.622680500000001
 20
250.37464850000001
 11
97.684158499999995
 21
250.50393650000001
  0
LINE
  8
_0-0_0
  6
CONTINUOUS
 62
    7
 10
97.748199499999998
 20
250.64535549999999
 11
97.684158499999995
 21
250.50393650000001
  0
LINE
  8
_0-0_0
  6
CONTINUOUS
 62
    7
 10
97.748199499999998
 20
250.64535549999999
 11
97.803894500000013
 21
250.7746425
  0
ARC
  8
_0-0_0
  6
CONTINUOUS
 62
    7
 10
90.428924499999994
 20
253.87464850000001
 40
8
 50
337.20097500000003
 51
342.54240199999998
  0
LINE
  8
_0-0_0
  6
CONTINUOUS
 62
    7
 10
98.060455500000018
 20
251.47463949999999
 11
98.099914500000011
 21
251.60394250000002
  0
LINE
  8
_0-0_0
  6
CONTINUOUS
 62
    7
 10
98.140350500000011
 20
251.7453615
 11
98.099914500000011
 21
251.60394250000002
  0
LINE
  8
_0-0_0
  6
CONTINUOUS
 62
    7
 10
98.140350500000011
 20
251.7453615
 11
98.174896500000017
 21
251.87464850000001
  0
ARC
  8
_0-0_0
  6
CONTINUOUS
 62
    7
 10
90.428924499999994
 20
253.87464850000001
 40
8
 50
345.52249499999999
 51
350.64797900000002
  0
LINE
  8
_0-0_0
  6
CONTINUOUS
 62
    7
 10
98.322601500000019
 20
252.5746455
 11
98.3428045
 21
252.70393350000001
  0
LINE
  8
_0-0_0
  6
CONTINUOUS
 62
    7
 10
98.362442500000014
 20
252.84535249999999
 11
98.3428045
 21
252.70393350000001
  0
LINE
  8
_0-0_0
  6
CONTINUOUS
 62
    7
 10
98.362442500000014
 20
252.84535249999999
 11
98.378143499999993
 21
252.97463949999999
  0
ARC
  8
_0-0_0
  6
CONTINUOUS
 62
    7
 10
90.428924499999994
 20
253.87464850000001
 40
8
 50
353.54056400000002
 51
358.56744600000002
  0
LINE
  8
_0-0_0
  6
CONTINUOUS
 62
    7
 10
98.42643750000002
 20
253.67465150000001
 11
98.428619499999996
 21
253.80392449999999
  0
LINE
  8
_0-0_0
  6
CONTINUOUS
 62
    7
 10
98.428619499999996
 20
253.80392449999999
 11
98.428939500000013
 21
253.87464850000001
  0
LINE
  8
_0-0_0
  6
CONTINUOUS
 62
    7
 10
82.429245500000007
 20
253.80392449999999
 11
82.428924499999994
 21
253.87464850000001
  0
LINE
  8
_0-0_0
  6
CONTINUOUS
 62
    7
 10
82.431427500000012
 20
253.67465150000001
 11
82.429245500000007
 21
253.80392449999999
  0
ARC
  8
_0-0_0
  6
CONTINUOUS
 62
    7
 10
90.428924499999994
 20
253.87464850000001
 40
8
 50
181.432545
 51
186.45945499999999
  0
LINE
  8
_0-0_0
  6
CONTINUOUS
 62
    7
 10
82.495422500000018
 20
252.84535249999999
 11
82.479721500000011
 21
252.97463949999999
  0
LINE
  8
_0-0_0
  6
CONTINUOUS
 62
    7
 10
82.495422500000018
 20
252.84535249999999
 11
82.515045500000014
 21
252.70393350000001
  0
LINE
  8
_0-0_0
  6
CONTINUOUS
 62
    7
 10
82.535263500000013
 20
252.5746455
 11
82.515045500000014
 21
252.70393350000001
  0
ARC
  8
_0-0_0
  6
CONTINUOUS
 62
    7
 10
90.428924499999994
 20
253.87464850000001
 40
8
 50
189.35203999999999
 51
194.47751
  0
LINE
  8
_0-0_0
  6
CONTINUOUS
 62
    7
 10
82.717498500000005
 20
251.7453615
 11
82.682968500000015
 21
251.87464850000001
  0
LINE
  8
_0-0_0
  6
CONTINUOUS
 62
    7
 10
82.717498500000005
 20
251.7453615
 11
82.757965500000012
 21
251.60394250000002
  0
LINE
  8
_0-0_0
  6
CONTINUOUS
 62
    7
 10
82.797424500000005
 20
251.47463949999999
 11
82.757965500000012
 21
251.60394250000002
  0
ARC
  8
_0-0_0
  6
CONTINUOUS
 62
    7
 10
90.428924499999994
 20
253.87464850000001
 40
8
 50
197.45760300000001
 51
202.79902999999999
  0
LINE
  8
_0-0_0
  6
CONTINUOUS
 62
    7
 10
83.109664500000008
 20
250.64535549999999
 11
83.05398550000001
 21
250.7746425
  0
LINE
  8
_0-0_0
  6
CONTINUOUS
 62
    7
 10
83.109664500000008
 20
250.64535549999999
 11
83.173706500000009
 21
250.50393650000001
  0
LINE
  8
_0-0_0
  6
CONTINUOUS
 62
    7
 10
83.235183500000005
 20
250.37464850000001
 11
83.173706500000009
 21
250.50393650000001
  0
ARC
  8
_0-0_0
  6
CONTINUOUS
 62
    7
 10
90.428924499999994
 20
253.87464850000001
 40
8
 50
205.94448199999999
 51
211.66823500000001
  0
LINE
  8
_0-0_0
  6
CONTINUOUS
 62
    7
 10
83.701583499999998
 20
249.54534950000001
 11
83.620117499999992
 21
249.67465150000001
  0
LINE
  8
_0-0_0
  6
CONTINUOUS
 62
    7
 10
83.701583499999998
 20
249.54534950000001
 11
83.794723500000003
 21
249.4039305
  0
LINE
  8
_0-0_0
  6
CONTINUOUS
 62
    7
 10
468.88369750000004
 20
249.2746425
 11
468.79470849999996
 21
249.4039305
  0
LINE
  8
_0-0_0
  6
CONTINUOUS
 62
    7
 10
467.42922950000002
 20
253.80392449999999
 11
467.42892449999999
 21
253.87464850000001
  0
LINE
  8
_0-0_0
  6
CONTINUOUS
 62
    7
 10
467.43142750000004
 20
253.67465150000001
 11
467.42922950000002
 21
253.80392449999999
  0
ARC
  8
_0-0_0
  6
CONTINUOUS
 62
    7
 10
475.42892449999999
 20
253.87464850000001
 40
8
 50
181.432545
 51
186.45945499999999
  0
LINE
  8
_0-0_0
  6
CONTINUOUS
 62
    7
 10
467.49545250000006
 20
252.84535249999999
 11
467.47970550000002
 21
252.97463949999999
  0
LINE
  8
_0-0_0
  6
CONTINUOUS
 62
    7
 10
467.49545250000006
 20
252.84535249999999
 11
467.51504550000004
 21
252.70393350000001
  0
LINE
  8
_0-0_0
  6
CONTINUOUS
 62
    7
 10
467.53524749999997
 20
252.5746455
 11
467.51504550000004
 21
252.70393350000001
  0
ARC
  8
_0-0_0
  6
CONTINUOUS
 62
    7
 10
475.42892449999999
 20
253.87464850000001
 40
8
 50
189.35203999999999
 51
194.47751
  0
LINE
  8
_0-0_0
  6
CONTINUOUS
 62
    7
 10
467.71749850000003
 20
251.7453615
 11
467.68295250000006
 21
251.87464850000001
  0
LINE
  8
_0-0_0
  6
CONTINUOUS
 62
    7
 10
467.71749850000003
 20
251.7453615
 11
467.75796549999995
 21
251.60394250000002
  0
LINE
  8
_0-0_0
  6
CONTINUOUS
 62
    7
 10
467.79745449999996
 20
251.47463949999999
 11
467.75796549999995
 21
251.60394250000002
  0
ARC
  8
_0-0_0
  6
CONTINUOUS
 62
    7
 10
475.42892449999999
 20
253.87464850000001
 40
8
 50
197.45760300000001
 51
202.79902999999999
  0
LINE
  8
_0-0_0
  6
CONTINUOUS
 62
    7
 10
468.10964950000005
 20
250.64535549999999
 11
468.05398549999995
 21
250.7746425
  0
LINE
  8
_0-0_0
  6
CONTINUOUS
 62
    7
 10
468.10964950000005
 20
250.64535549999999
 11
468.17373650000002
 21
250.50393650000001
  0
LINE
  8
_0-0_0
  6
CONTINUOUS
 62
    7
 10
468.23519950000002
 20
250.37464850000001
 11
468.17373650000002
 21
250.50393650000001
  0
ARC
  8
_0-0_0
  6
CONTINUOUS
 62
    7
 10
475.42892449999999
 20
253.87464850000001
 40
8
 50
205.94448199999999
 51
211.66823500000001
  0
LINE
  8
_0-0_0
  6
CONTINUOUS
 62
    7
 10
468.70156850000001
 20
249.54534950000001
 11
468.62014750000003
 21
249.67465150000001
  0
LINE
  8
_0-0_0
  6
CONTINUOUS
 62
    7
 10
468.70156850000001
 20
249.54534950000001
 11
468.79470849999996
 21
249.4039305
  0
LINE
  8
_0-0_0
  6
CONTINUOUS
 62
    7
 10
481.97415150000006
 20
249.2746425
 11
482.06314050000003
 21
249.4039305
  0
LINE
  8
_0-0_0
  6
CONTINUOUS
 62
    7
 10
482.15628049999998
 20
249.54534950000001
 11
482.06314050000003
 21
249.4039305
  0
LINE
  8
_0-0_0
  6
CONTINUOUS
 62
    7
 10
482.15628049999998
 20
249.54534950000001
 11
482.23776250000003
 21
249.67465150000001
  0
ARC
  8
_0-0_0
  6
CONTINUOUS
 62
    7
 10
475.42892449999999
 20
253.87464850000001
 40
8
 50
328.33175599999993
 51
334.05550899999992
  0
LINE
  8
_0-0_0
  6
CONTINUOUS
 62
    7
 10
482.62271150000004
 20
250.37464850000001
 11
482.68417350000004
 21
250.50393650000001
  0
LINE
  8
_0-0_0
  6
CONTINUOUS
 62
    7
 10
482.74819950000006
 20
250.64535549999999
 11
482.68417350000004
 21
250.50393650000001
  0
LINE
  8
_0-0_0
  6
CONTINUOUS
 62
    7
 10
482.74819950000006
 20
250.64535549999999
 11
482.80392449999999
 21
250.7746425
  0
ARC
  8
_0-0_0
  6
CONTINUOUS
 62
    7
 10
475.42892449999999
 20
253.87464850000001
 40
8
 50
337.20097500000003
 51
342.54240199999998
  0
LINE
  8
_0-0_0
  6
CONTINUOUS
 62
    7
 10
483.06045549999999
 20
251.47463949999999
 11
483.09994549999999
 21
251.60394250000002
  0
LINE
  8
_0-0_0
  6
CONTINUOUS
 62
    7
 10
483.14035049999995
 20
251.7453615
 11
483.09994549999999
 21
251.60394250000002
  0
LINE
  8
_0-0_0
  6
CONTINUOUS
 62
    7
 10
483.14035049999995
 20
251.7453615
 11
483.17489650000005
 21
251.87464850000001
  0
ARC
  8
_0-0_0
  6
CONTINUOUS
 62
    7
 10
475.42892449999999
 20
253.87464850000001
 40
8
 50
345.52249499999999
 51
350.64797900000002
  0
LINE
  8
_0-0_0
  6
CONTINUOUS
 62
    7
 10
483.32260150000002
 20
252.5746455
 11
483.34280450000006
 21
252.70393350000001
  0
LINE
  8
_0-0_0
  6
CONTINUOUS
 62
    7
 10
483.3624575
 20
252.84535249999999
 11
483.34280450000006
 21
252.70393350000001
  0
LINE
  8
_0-0_0
  6
CONTINUOUS
 62
    7
 10
483.3624575
 20
252.84535249999999
 11
483.37814349999996
 21
252.97463949999999
  0
ARC
  8
_0-0_0
  6
CONTINUOUS
 62
    7
 10
475.42892449999999
 20
253.87464850000001
 40
8
 50
353.54056400000002
 51
358.56744600000002
  0
LINE
  8
_0-0_0
  6
CONTINUOUS
 62
    7
 10
483.42642250000006
 20
253.67465150000001
 11
483.42861949999997
 21
253.80392449999999
  0
LINE
  8
_0-0_0
  6
CONTINUOUS
 62
    7
 10
483.42861949999997
 20
253.80392449999999
 11
483.42892449999999
 21
253.87464850000001
  0
LINE
  8
_0-0_0
  6
CONTINUOUS
 62
    7
 10
484.42892449999999
 20
249.4039305
 11
484.42892449999999
 21
249.2746425
  0
LINE
  8
_0-0_0
  6
CONTINUOUS
 62
    7
 10
484.42892449999999
 20
258.20393350000001
 11
484.42892449999999
 21
258.34535249999999
  0
LINE
  8
_0-0_0
  6
CONTINUOUS
 62
    7
 10
484.42892449999999
 20
258.20393350000001
 11
484.42892449999999
 21
258.07464549999997
  0
LINE
  8
_0-0_0
  6
CONTINUOUS
 62
    7
 10
484.42892449999999
 20
257.37464850000003
 11
484.42892449999999
 21
258.07464549999997
  0
LINE
  8
_0-0_0
  6
CONTINUOUS
 62
    7
 10
484.42892449999999
 20
257.2453615
 11
484.42892449999999
 21
257.37464850000003
  0
LINE
  8
_0-0_0
  6
CONTINUOUS
 62
    7
 10
484.42892449999999
 20
257.1039275
 11
484.42892449999999
 21
257.2453615
  0
LINE
  8
_0-0_0
  6
CONTINUOUS
 62
    7
 10
484.42892449999999
 20
257.1039275
 11
484.42892449999999
 21
256.97463949999997
  0
LINE
  8
_0-0_0
  6
CONTINUOUS
 62
    7
 10
484.42892449999999
 20
256.27464250000003
 11
484.42892449999999
 21
256.97463949999997
  0
LINE
  8
_0-0_0
  6
CONTINUOUS
 62
    7
 10
484.42892449999999
 20
256.14535549999999
 11
484.42892449999999
 21
256.27464250000003
  0
LINE
  8
_0-0_0
  6
CONTINUOUS
 62
    7
 10
484.42892449999999
 20
256.00393650000001
 11
484.42892449999999
 21
256.14535549999999
  0
LINE
  8
_0-0_0
  6
CONTINUOUS
 62
    7
 10
484.42892449999999
 20
256.00393650000001
 11
484.42892449999999
 21
255.87464850000001
  0
LINE
  8
_0-0_0
  6
CONTINUOUS
 62
    7
 10
484.42892449999999
 20
255.17465150000001
 11
484.42892449999999
 21
255.87464850000001
  0
LINE
  8
_0-0_0
  6
CONTINUOUS
 62
    7
 10
484.42892449999999
 20
255.04534950000001
 11
484.42892449999999
 21
255.17465150000001
  0
LINE
  8
_0-0_0
  6
CONTINUOUS
 62
    7
 10
484.42892449999999
 20
254.9039305
 11
484.42892449999999
 21
255.04534950000001
  0
LINE
  8
_0-0_0
  6
CONTINUOUS
 62
    7
 10
484.42892449999999
 20
254.9039305
 11
484.42892449999999
 21
254.7746425
  0
LINE
  8
_0-0_0
  6
CONTINUOUS
 62
    7
 10
484.42892449999999
 20
254.0746455
 11
484.42892449999999
 21
254.7746425
  0
LINE
  8
_0-0_0
  6
CONTINUOUS
 62
    7
 10
484.42892449999999
 20
253.9453585
 11
484.42892449999999
 21
254.0746455
  0
LINE
  8
_0-0_0
  6
CONTINUOUS
 62
    7
 10
484.42892449999999
 20
253.80392449999999
 11
484.42892449999999
 21
253.9453585
  0
LINE
  8
_0-0_0
  6
CONTINUOUS
 62
    7
 10
484.42892449999999
 20
253.80392449999999
 11
484.42892449999999
 21
253.67465150000001
  0
LINE
  8
_0-0_0
  6
CONTINUOUS
 62
    7
 10
484.42892449999999
 20
252.97463949999999
 11
484.42892449999999
 21
253.67465150000001
  0
LINE
  8
_0-0_0
  6
CONTINUOUS
 62
    7
 10
484.42892449999999
 20
252.84535249999999
 11
484.42892449999999
 21
252.97463949999999
  0
LINE
  8
_0-0_0
  6
CONTINUOUS
 62
    7
 10
484.42892449999999
 20
252.70393350000001
 11
484.42892449999999
 21
252.84535249999999
  0
LINE
  8
_0-0_0
  6
CONTINUOUS
 62
    7
 10
484.42892449999999
 20
252.70393350000001
 11
484.42892449999999
 21
252.5746455
  0
LINE
  8
_0-0_0
  6
CONTINUOUS
 62
    7
 10
484.42892449999999
 20
251.87464850000001
 11
484.42892449999999
 21
252.5746455
  0
LINE
  8
_0-0_0
  6
CONTINUOUS
 62
    7
 10
484.42892449999999
 20
251.7453615
 11
484.42892449999999
 21
251.87464850000001
  0
LINE
  8
_0-0_0
  6
CONTINUOUS
 62
    7
 10
484.42892449999999
 20
251.60394250000002
 11
484.42892449999999
 21
251.7453615
  0
LINE
  8
_0-0_0
  6
CONTINUOUS
 62
    7
 10
484.42892449999999
 20
251.60394250000002
 11
484.42892449999999
 21
251.47463949999999
  0
LINE
  8
_0-0_0
  6
CONTINUOUS
 62
    7
 10
484.42892449999999
 20
250.7746425
 11
484.42892449999999
 21
251.47463949999999
  0
LINE
  8
_0-0_0
  6
CONTINUOUS
 62
    7
 10
484.42892449999999
 20
250.64535549999999
 11
484.42892449999999
 21
250.7746425
  0
LINE
  8
_0-0_0
  6
CONTINUOUS
 62
    7
 10
484.42892449999999
 20
250.50393650000001
 11
484.42892449999999
 21
250.64535549999999
  0
LINE
  8
_0-0_0
  6
CONTINUOUS
 62
    7
 10
484.42892449999999
 20
250.50393650000001
 11
484.42892449999999
 21
250.37464850000001
  0
LINE
  8
_0-0_0
  6
CONTINUOUS
 62
    7
 10
484.42892449999999
 20
249.67465150000001
 11
484.42892449999999
 21
250.37464850000001
  0
LINE
  8
_0-0_0
  6
CONTINUOUS
 62
    7
 10
484.42892449999999
 20
249.54534950000001
 11
484.42892449999999
 21
249.67465150000001
  0
LINE
  8
_0-0_0
  6
CONTINUOUS
 62
    7
 10
484.42892449999999
 20
249.4039305
 11
484.42892449999999
 21
249.54534950000001
  0
LINE
  8
_0-0_0
  6
CONTINUOUS
 62
    7
 10
484.42892449999999
 20
235.5746455
 11
484.42892449999999
 21
236.0746455
  0
LINE
  8
_0-0_0
  6
CONTINUOUS
 62
    7
 10
484.42892449999999
 20
264.07464549999997
 11
484.42892449999999
 21
263.4806825
  0
LINE
  8
_0-0_0
  6
CONTINUOUS
 62
    7
 10
484.42892449999999
 20
258.47463949999997
 11
484.42892449999999
 21
263.4806825
  0
LINE
  8
_0-0_0
  6
CONTINUOUS
 62
    7
 10
484.42892449999999
 20
258.34535249999999
 11
484.42892449999999
 21
258.47463949999997
  0
LINE
  8
_0-0_0
  6
CONTINUOUS
 62
    7
 10
81.428924499999994
 20
235.5746455
 11
81.428924499999994
 21
236.0746455
  0
LINE
  8
_0-0_0
  6
CONTINUOUS
 62
    7
 10
81.428924499999994
 20
235.5746455
 11
484.42892449999999
 21
235.5746455
  0
LINE
  8
_0-0_0
  6
CONTINUOUS
 62
    7
 10
81.428924499999994
 20
249.4039305
 11
81.428924499999994
 21
249.54534950000001
  0
LINE
  8
_0-0_0
  6
CONTINUOUS
 62
    7
 10
81.428924499999994
 20
249.4039305
 11
81.428924499999994
 21
249.2746425
  0
LINE
  8
_0-0_0
  6
CONTINUOUS
 62
    7
 10
81.428924499999994
 20
264.07464549999997
 11
81.428924499999994
 21
263.4806825
  0
LINE
  8
_0-0_0
  6
CONTINUOUS
 62
    7
 10
81.428924499999994
 20
258.47463949999997
 11
81.428924499999994
 21
263.4806825
  0
LINE
  8
_0-0_0
  6
CONTINUOUS
 62
    7
 10
81.428924499999994
 20
258.34535249999999
 11
81.428924499999994
 21
258.47463949999997
  0
LINE
  8
_0-0_0
  6
CONTINUOUS
 62
    7
 10
81.428924499999994
 20
258.20393350000001
 11
81.428924499999994
 21
258.34535249999999
  0
LINE
  8
_0-0_0
  6
CONTINUOUS
 62
    7
 10
81.428924499999994
 20
258.20393350000001
 11
81.428924499999994
 21
258.07464549999997
  0
LINE
  8
_0-0_0
  6
CONTINUOUS
 62
    7
 10
81.428924499999994
 20
257.37464850000003
 11
81.428924499999994
 21
258.07464549999997
  0
LINE
  8
_0-0_0
  6
CONTINUOUS
 62
    7
 10
81.428924499999994
 20
257.2453615
 11
81.428924499999994
 21
257.37464850000003
  0
LINE
  8
_0-0_0
  6
CONTINUOUS
 62
    7
 10
81.428924499999994
 20
257.1039275
 11
81.428924499999994
 21
257.2453615
  0
LINE
  8
_0-0_0
  6
CONTINUOUS
 62
    7
 10
81.428924499999994
 20
257.1039275
 11
81.428924499999994
 21
256.97463949999997
  0
LINE
  8
_0-0_0
  6
CONTINUOUS
 62
    7
 10
81.428924499999994
 20
256.27464250000003
 11
81.428924499999994
 21
256.97463949999997
  0
LINE
  8
_0-0_0
  6
CONTINUOUS
 62
    7
 10
81.428924499999994
 20
256.14535549999999
 11
81.428924499999994
 21
256.27464250000003
  0
LINE
  8
_0-0_0
  6
CONTINUOUS
 62
    7
 10
81.428924499999994
 20
256.00393650000001
 11
81.428924499999994
 21
256.14535549999999
  0
LINE
  8
_0-0_0
  6
CONTINUOUS
 62
    7
 10
81.428924499999994
 20
256.00393650000001
 11
81.428924499999994
 21
255.87464850000001
  0
LINE
  8
_0-0_0
  6
CONTINUOUS
 62
    7
 10
81.428924499999994
 20
255.17465150000001
 11
81.428924499999994
 21
255.87464850000001
  0
LINE
  8
_0-0_0
  6
CONTINUOUS
 62
    7
 10
81.428924499999994
 20
255.04534950000001
 11
81.428924499999994
 21
255.17465150000001
  0
LINE
  8
_0-0_0
  6
CONTINUOUS
 62
    7
 10
81.428924499999994
 20
254.9039305
 11
81.428924499999994
 21
255.04534950000001
  0
LINE
  8
_0-0_0
  6
CONTINUOUS
 62
    7
 10
81.428924499999994
 20
254.9039305
 11
81.428924499999994
 21
254.7746425
  0
LINE
  8
_0-0_0
  6
CONTINUOUS
 62
    7
 10
81.428924499999994
 20
254.0746455
 11
81.428924499999994
 21
254.7746425
  0
LINE
  8
_0-0_0
  6
CONTINUOUS
 62
    7
 10
81.428924499999994
 20
253.9453585
 11
81.428924499999994
 21
254.0746455
  0
LINE
  8
_0-0_0
  6
CONTINUOUS
 62
    7
 10
81.428924499999994
 20
253.80392449999999
 11
81.428924499999994
 21
253.9453585
  0
LINE
  8
_0-0_0
  6
CONTINUOUS
 62
    7
 10
81.428924499999994
 20
253.80392449999999
 11
81.428924499999994
 21
253.67465150000001
  0
LINE
  8
_0-0_0
  6
CONTINUOUS
 62
    7
 10
81.428924499999994
 20
252.97463949999999
 11
81.428924499999994
 21
253.67465150000001
  0
LINE
  8
_0-0_0
  6
CONTINUOUS
 62
    7
 10
81.428924499999994
 20
252.84535249999999
 11
81.428924499999994
 21
252.97463949999999
  0
LINE
  8
_0-0_0
  6
CONTINUOUS
 62
    7
 10
81.428924499999994
 20
252.70393350000001
 11
81.428924499999994
 21
252.84535249999999
  0
LINE
  8
_0-0_0
  6
CONTINUOUS
 62
    7
 10
81.428924499999994
 20
252.70393350000001
 11
81.428924499999994
 21
252.5746455
  0
LINE
  8
_0-0_0
  6
CONTINUOUS
 62
    7
 10
81.428924499999994
 20
251.87464850000001
 11
81.428924499999994
 21
252.5746455
  0
LINE
  8
_0-0_0
  6
CONTINUOUS
 62
    7
 10
81.428924499999994
 20
251.7453615
 11
81.428924499999994
 21
251.87464850000001
  0
LINE
  8
_0-0_0
  6
CONTINUOUS
 62
    7
 10
81.428924499999994
 20
251.60394250000002
 11
81.428924499999994
 21
251.7453615
  0
LINE
  8
_0-0_0
  6
CONTINUOUS
 62
    7
 10
81.428924499999994
 20
251.60394250000002
 11
81.428924499999994
 21
251.47463949999999
  0
LINE
  8
_0-0_0
  6
CONTINUOUS
 62
    7
 10
81.428924499999994
 20
250.7746425
 11
81.428924499999994
 21
251.47463949999999
  0
LINE
  8
_0-0_0
  6
CONTINUOUS
 62
    7
 10
81.428924499999994
 20
250.64535549999999
 11
81.428924499999994
 21
250.7746425
  0
LINE
  8
_0-0_0
  6
CONTINUOUS
 62
    7
 10
81.428924499999994
 20
250.50393650000001
 11
81.428924499999994
 21
250.64535549999999
  0
LINE
  8
_0-0_0
  6
CONTINUOUS
 62
    7
 10
81.428924499999994
 20
250.50393650000001
 11
81.428924499999994
 21
250.37464850000001
  0
LINE
  8
_0-0_0
  6
CONTINUOUS
 62
    7
 10
81.428924499999994
 20
249.67465150000001
 11
81.428924499999994
 21
250.37464850000001
  0
LINE
  8
_0-0_0
  6
CONTINUOUS
 62
    7
 10
81.428924499999994
 20
249.54534950000001
 11
81.428924499999994
 21
249.67465150000001
  0
LINE
  8
_0-0_0
  6
CONTINUOUS
 62
    7
 10
418.42892449999999
 20
241.5746455
 11
425.42892449999999
 21
241.5746455
  0
ARC
  8
_0-0_0
  6
CONTINUOUS
 62
    7
 10
418.42892449999999
 20
241.0746455
 40
0.5
 50
90.000003000000007
 51
180.00000900000001
  0
LINE
  8
_0-0_0
  6
CONTINUOUS
 62
    7
 10
417.92892449999999
 20
241.0746455
 11
417.92892449999999
 21
237.0746455
  0
ARC
  8
_0-0_0
  6
CONTINUOUS
 62
    7
 10
418.42892449999999
 20
237.0746455
 40
0.5
 50
180.00000900000003
 51
269.99999700000001
  0
LINE
  8
_0-0_0
  6
CONTINUOUS
 62
    7
 10
425.42892449999999
 20
236.5746455
 11
418.42892449999999
 21
236.5746455
  0
ARC
  8
_0-0_0
  6
CONTINUOUS
 62
    7
 10
425.42892449999999
 20
237.0746455
 40
0.5
 50
269.99999700000001
 51
0
  0
LINE
  8
_0-0_0
  6
CONTINUOUS
 62
    7
 10
425.92892449999999
 20
237.0746455
 11
425.92892449999999
 21
241.0746455
  0
ARC
  8
_0-0_0
  6
CONTINUOUS
 62
    7
 10
425.42892449999999
 20
241.0746455
 40
0.5
 50
0
 51
90.000003000000007
  0
ARC
  8
_0-0_0
  6
CONTINUOUS
 62
    7
 10
148.42892449999999
 20
241.0746455
 40
0.5
 50
90.000003000000007
 51
180.00000900000001
  0
LINE
  8
_0-0_0
  6
CONTINUOUS
 62
    7
 10
147.92892449999999
 20
241.0746455
 11
147.92892449999999
 21
237.0746455
  0
ARC
  8
_0-0_0
  6
CONTINUOUS
 62
    7
 10
148.42892449999999
 20
237.0746455
 40
0.5
 50
180.00000900000003
 51
269.99999700000001
  0
LINE
  8
_0-0_0
  6
CONTINUOUS
 62
    7
 10
155.42892449999999
 20
236.5746455
 11
148.42892449999999
 21
236.5746455
  0
ARC
  8
_0-0_0
  6
CONTINUOUS
 62
    7
 10
155.42892449999999
 20
237.0746455
 40
0.5
 50
269.99999700000001
 51
0
  0
LINE
  8
_0-0_0
  6
CONTINUOUS
 62
    7
 10
155.92892449999999
 20
237.0746455
 11
155.92892449999999
 21
241.0746455
  0
ARC
  8
_0-0_0
  6
CONTINUOUS
 62
    7
 10
155.42892449999999
 20
241.0746455
 40
0.5
 50
0
 51
90.000003000000007
  0
LINE
  8
_0-0_0
  6
CONTINUOUS
 62
    7
 10
148.42892449999999
 20
241.5746455
 11
155.42892449999999
 21
241.5746455
  0
LINE
  8
_0-0_0
  6
CONTINUOUS
 62
    7
 10
81.428924499999994
 20
249.67465150000001
 11
83.620117499999992
 21
249.67465150000001
  0
LINE
  8
_0-0_0
  6
CONTINUOUS
 62
    7
 10
81.428924499999994
 20
250.37464850000001
 11
83.235183500000005
 21
250.37464850000001
  0
LINE
  8
_0-0_0
  6
CONTINUOUS
 62
    7
 10
81.428924499999994
 20
250.7746425
 11
83.05398550000001
 21
250.7746425
  0
LINE
  8
_0-0_0
  6
CONTINUOUS
 62
    7
 10
81.428924499999994
 20
251.47463949999999
 11
82.797424500000005
 21
251.47463949999999
  0
LINE
  8
_0-0_0
  6
CONTINUOUS
 62
    7
 10
81.428924499999994
 20
251.87464850000001
 11
82.682968500000015
 21
251.87464850000001
  0
LINE
  8
_0-0_0
  6
CONTINUOUS
 62
    7
 10
81.428924499999994
 20
252.5746455
 11
82.535263500000013
 21
252.5746455
  0
LINE
  8
_0-0_0
  6
CONTINUOUS
 62
    7
 10
81.428924499999994
 20
252.97463949999999
 11
82.479721500000011
 21
252.97463949999999
  0
LINE
  8
_0-0_0
  6
CONTINUOUS
 62
    7
 10
81.428924499999994
 20
253.67465150000001
 11
82.431427500000012
 21
253.67465150000001
  0
LINE
  8
_0-0_0
  6
CONTINUOUS
 62
    7
 10
82.428924499999994
 20
253.87464850000001
 11
82.429245500000007
 21
253.9453585
  0
LINE
  8
_0-0_0
  6
CONTINUOUS
 62
    7
 10
98.428939500000013
 20
253.87464850000001
 11
98.428619499999996
 21
253.9453585
  0
LINE
  8
_0-0_0
  6
CONTINUOUS
 62
    7
 10
98.42643750000002
 20
254.0746455
 11
98.428619499999996
 21
253.9453585
  0
ARC
  8
_0-0_0
  6
CONTINUOUS
 62
    7
 10
90.428924499999994
 20
253.87464850000001
 40
8
 50
1.432544
 51
6.4594489999999993
  0
LINE
  8
_0-0_0
  6
CONTINUOUS
 62
    7
 10
98.362442500000014
 20
254.9039305
 11
98.378143499999993
 21
254.7746425
  0
LINE
  8
_0-0_0
  6
CONTINUOUS
 62
    7
 10
98.362442500000014
 20
254.9039305
 11
98.3428045
 21
255.04534950000001
  0
LINE
  8
_0-0_0
  6
CONTINUOUS
 62
    7
 10
98.322601500000019
 20
255.17465150000001
 11
98.3428045
 21
255.04534950000001
  0
ARC
  8
_0-0_0
  6
CONTINUOUS
 62
    7
 10
90.428924499999994
 20
253.87464850000001
 40
8
 50
9.3520350000000008
 51
14.477510999999998
  0
LINE
  8
_0-0_0
  6
CONTINUOUS
 62
    7
 10
98.140350500000011
 20
256.00393650000001
 11
98.174896500000017
 21
255.87464850000001
  0
LINE
  8
_0-0_0
  6
CONTINUOUS
 62
    7
 10
98.140350500000011
 20
256.00393650000001
 11
98.099914500000011
 21
256.14535549999999
  0
LINE
  8
_0-0_0
  6
CONTINUOUS
 62
    7
 10
98.060455500000018
 20
256.27464250000003
 11
98.099914500000011
 21
256.14535549999999
  0
ARC
  8
_0-0_0
  6
CONTINUOUS
 62
    7
 10
90.428924499999994
 20
253.87464850000001
 40
8
 50
17.457602999999999
 51
22.799030999999999
  0
LINE
  8
_0-0_0
  6
CONTINUOUS
 62
    7
 10
97.748199499999998
 20
257.1039275
 11
97.803894500000013
 21
256.97463949999997
  0
LINE
  8
_0-0_0
  6
CONTINUOUS
 62
    7
 10
97.748199499999998
 20
257.1039275
 11
97.684158499999995
 21
257.2453615
  0
LINE
  8
_0-0_0
  6
CONTINUOUS
 62
    7
 10
97.622680500000001
 20
257.37464850000003
 11
97.684158499999995
 21
257.2453615
  0
ARC
  8
_0-0_0
  6
CONTINUOUS
 62
    7
 10
90.428924499999994
 20
253.87464850000001
 40
8
 50
25.944476999999999
 51
31.668240000000001
  0
LINE
  8
_0-0_0
  6
CONTINUOUS
 62
    7
 10
97.156280500000008
 20
258.20393350000001
 11
97.237747500000012
 21
258.07464549999997
  0
LINE
  8
_0-0_0
  6
CONTINUOUS
 62
    7
 10
97.156280500000008
 20
258.20393350000001
 11
97.063140500000003
 21
258.34535249999999
  0
LINE
  8
_0-0_0
  6
CONTINUOUS
 62
    7
 10
96.974151500000005
 20
258.47463949999997
 11
97.063140500000003
 21
258.34535249999999
  0
ARC
  8
_0-0_0
  6
CONTINUOUS
 62
    7
 10
90.428924499999994
 20
253.87464850000001
 40
8
 50
35.099632
 51
144.900373
  0
LINE
  8
_0-0_0
  6
CONTINUOUS
 62
    7
 10
83.883697500000011
 20
258.47463949999997
 11
83.794723500000003
 21
258.34535249999999
  0
LINE
  8
_0-0_0
  6
CONTINUOUS
 62
    7
 10
83.701583499999998
 20
258.20393350000001
 11
83.794723500000003
 21
258.34535249999999
  0
LINE
  8
_0-0_0
  6
CONTINUOUS
 62
    7
 10
83.701583499999998
 20
258.20393350000001
 11
83.620117499999992
 21
258.07464549999997
  0
ARC
  8
_0-0_0
  6
CONTINUOUS
 62
    7
 10
90.428924499999994
 20
253.87464850000001
 40
8
 50
148.33176499999999
 51
154.05551800000001
  0
LINE
  8
_0-0_0
  6
CONTINUOUS
 62
    7
 10
83.235183500000005
 20
257.37464850000003
 11
83.173706500000009
 21
257.2453615
  0
LINE
  8
_0-0_0
  6
CONTINUOUS
 62
    7
 10
83.109664500000008
 20
257.1039275
 11
83.173706500000009
 21
257.2453615
  0
LINE
  8
_0-0_0
  6
CONTINUOUS
 62
    7
 10
83.109664500000008
 20
257.1039275
 11
83.05398550000001
 21
256.97463949999997
  0
ARC
  8
_0-0_0
  6
CONTINUOUS
 62
    7
 10
90.428924499999994
 20
253.87464850000001
 40
8
 50
157.20097000000001
 51
162.54239699999999
  0
LINE
  8
_0-0_0
  6
CONTINUOUS
 62
    7
 10
82.797424500000005
 20
256.27464250000003
 11
82.757965500000012
 21
256.14535549999999
  0
LINE
  8
_0-0_0
  6
CONTINUOUS
 62
    7
 10
82.717498500000005
 20
256.00393650000001
 11
82.757965500000012
 21
256.14535549999999
  0
LINE
  8
_0-0_0
  6
CONTINUOUS
 62
    7
 10
82.717498500000005
 20
256.00393650000001
 11
82.682968500000015
 21
255.87464850000001
  0
ARC
  8
_0-0_0
  6
CONTINUOUS
 62
    7
 10
90.428924499999994
 20
253.87464850000001
 40
8
 50
165.52249
 51
170.64796000000001
  0
LINE
  8
_0-0_0
  6
CONTINUOUS
 62
    7
 10
82.535263500000013
 20
255.17465150000001
 11
82.515045500000014
 21
255.04534950000001
  0
LINE
  8
_0-0_0
  6
CONTINUOUS
 62
    7
 10
82.495422500000018
 20
254.9039305
 11
82.515045500000014
 21
255.04534950000001
  0
LINE
  8
_0-0_0
  6
CONTINUOUS
 62
    7
 10
82.495422500000018
 20
254.9039305
 11
82.479721500000011
 21
254.7746425
  0
ARC
  8
_0-0_0
  6
CONTINUOUS
 62
    7
 10
90.428924499999994
 20
253.87464850000001
 40
8
 50
173.54054500000001
 51
178.567455
  0
LINE
  8
_0-0_0
  6
CONTINUOUS
 62
    7
 10
82.431427500000012
 20
254.0746455
 11
82.429245500000007
 21
253.9453585
  0
CIRCLE
  8
_0-0_0
  6
CONTINUOUS
 62
    7
 10
90.428924499999994
 20
253.87464850000001
 40
7.5
  0
LINE
  8
_0-0_0
  6
CONTINUOUS
 62
    7
 10
467.42892449999999
 20
253.87464850000001
 11
467.42922950000002
 21
253.9453585
  0
LINE
  8
_0-0_0
  6
CONTINUOUS
 62
    7
 10
98.42643750000002
 20
253.67465150000001
 11
467.43142750000004
 21
253.67465150000001
  0
LINE
  8
_0-0_0
  6
CONTINUOUS
 62
    7
 10
98.378143499999993
 20
252.97463949999999
 11
467.47970550000002
 21
252.97463949999999
  0
LINE
  8
_0-0_0
  6
CONTINUOUS
 62
    7
 10
98.322601500000019
 20
252.5746455
 11
467.53524749999997
 21
252.5746455
  0
LINE
  8
_0-0_0
  6
CONTINUOUS
 62
    7
 10
98.174896500000017
 20
251.87464850000001
 11
467.68295250000006
 21
251.87464850000001
  0
LINE
  8
_0-0_0
  6
CONTINUOUS
 62
    7
 10
98.060455500000018
 20
251.47463949999999
 11
467.79745449999996
 21
251.47463949999999
  0
LINE
  8
_0-0_0
  6
CONTINUOUS
 62
    7
 10
97.803894500000013
 20
250.7746425
 11
468.05398549999995
 21
250.7746425
  0
LINE
  8
_0-0_0
  6
CONTINUOUS
 62
    7
 10
97.622680500000001
 20
250.37464850000001
 11
468.23519950000002
 21
250.37464850000001
  0
LINE
  8
_0-0_0
  6
CONTINUOUS
 62
    7
 10
97.237747500000012
 20
249.67465150000001
 11
468.62014750000003
 21
249.67465150000001
  0
LINE
  8
_0-0_0
  6
CONTINUOUS
 62
    7
 10
483.42892449999999
 20
253.87464850000001
 11
483.42861949999997
 21
253.9453585
  0
LINE
  8
_0-0_0
  6
CONTINUOUS
 62
    7
 10
483.42642250000006
 20
253.67465150000001
 11
484.42892449999999
 21
253.67465150000001
  0
LINE
  8
_0-0_0
  6
CONTINUOUS
 62
    7
 10
483.37814349999996
 20
252.97463949999999
 11
484.42892449999999
 21
252.97463949999999
  0
LINE
  8
_0-0_0
  6
CONTINUOUS
 62
    7
 10
483.32260150000002
 20
252.5746455
 11
484.42892449999999
 21
252.5746455
  0
LINE
  8
_0-0_0
  6
CONTINUOUS
 62
    7
 10
483.17489650000005
 20
251.87464850000001
 11
484.42892449999999
 21
251.87464850000001
  0
LINE
  8
_0-0_0
  6
CONTINUOUS
 62
    7
 10
483.06045549999999
 20
251.47463949999999
 11
484.42892449999999
 21
251.47463949999999
  0
LINE
  8
_0-0_0
  6
CONTINUOUS
 62
    7
 10
482.80392449999999
 20
250.7746425
 11
484.42892449999999
 21
250.7746425
  0
LINE
  8
_0-0_0
  6
CONTINUOUS
 62
    7
 10
482.62271150000004
 20
250.37464850000001
 11
484.42892449999999
 21
250.37464850000001
  0
LINE
  8
_0-0_0
  6
CONTINUOUS
 62
    7
 10
482.23776250000003
 20
249.67465150000001
 11
484.42892449999999
 21
249.67465150000001
  0
LINE
  8
_0-0_0
  6
CONTINUOUS
 62
    7
 10
481.97415150000006
 20
258.47463949999997
 11
482.06314050000003
 21
258.34535249999999
  0
ARC
  8
_0-0_0
  6
CONTINUOUS
 62
    7
 10
475.42892449999999
 20
253.87464850000001
 40
8
 50
35.099632
 51
144.900373
  0
LINE
  8
_0-0_0
  6
CONTINUOUS
 62
    7
 10
468.88369750000004
 20
258.47463949999997
 11
468.79470849999996
 21
258.34535249999999
  0
LINE
  8
_0-0_0
  6
CONTINUOUS
 62
    7
 10
468.70156850000001
 20
258.20393350000001
 11
468.79470849999996
 21
258.34535249999999
  0
LINE
  8
_0-0_0
  6
CONTINUOUS
 62
    7
 10
468.70156850000001
 20
258.20393350000001
 11
468.62014750000003
 21
258.07464549999997
  0
ARC
  8
_0-0_0
  6
CONTINUOUS
 62
    7
 10
475.42892449999999
 20
253.87464850000001
 40
8
 50
148.33176499999999
 51
154.05551800000001
  0
LINE
  8
_0-0_0
  6
CONTINUOUS
 62
    7
 10
468.23519950000002
 20
257.37464850000003
 11
468.17373650000002
 21
257.2453615
  0
LINE
  8
_0-0_0
  6
CONTINUOUS
 62
    7
 10
468.10964950000005
 20
257.1039275
 11
468.17373650000002
 21
257.2453615
  0
LINE
  8
_0-0_0
  6
CONTINUOUS
 62
    7
 10
468.10964950000005
 20
257.1039275
 11
468.05398549999995
 21
256.97463949999997
  0
ARC
  8
_0-0_0
  6
CONTINUOUS
 62
    7
 10
475.42892449999999
 20
253.87464850000001
 40
8
 50
157.20097000000001
 51
162.54239699999999
  0
LINE
  8
_0-0_0
  6
CONTINUOUS
 62
    7
 10
467.79745449999996
 20
256.27464250000003
 11
467.75796549999995
 21
256.14535549999999
  0
LINE
  8
_0-0_0
  6
CONTINUOUS
 62
    7
 10
467.71749850000003
 20
256.00393650000001
 11
467.75796549999995
 21
256.14535549999999
  0
LINE
  8
_0-0_0
  6
CONTINUOUS
 62
    7
 10
467.71749850000003
 20
256.00393650000001
 11
467.68295250000006
 21
255.87464850000001
  0
ARC
  8
_0-0_0
  6
CONTINUOUS
 62
    7
 10
475.42892449999999
 20
253.87464850000001
 40
8
 50
165.52249
 51
170.64796000000001
  0
LINE
  8
_0-0_0
  6
CONTINUOUS
 62
    7
 10
467.53524749999997
 20
255.17465150000001
 11
467.51504550000004
 21
255.04534950000001
  0
LINE
  8
_0-0_0
  6
CONTINUOUS
 62
    7
 10
467.49545250000006
 20
254.9039305
 11
467.51504550000004
 21
255.04534950000001
  0
LINE
  8
_0-0_0
  6
CONTINUOUS
 62
    7
 10
467.49545250000006
 20
254.9039305
 11
467.47970550000002
 21
254.7746425
  0
ARC
  8
_0-0_0
  6
CONTINUOUS
 62
    7
 10
475.42892449999999
 20
253.87464850000001
 40
8
 50
173.54054500000001
 51
178.567455
  0
LINE
  8
_0-0_0
  6
CONTINUOUS
 62
    7
 10
467.43142750000004
 20
254.0746455
 11
467.42922950000002
 21
253.9453585
  0
LINE
  8
_0-0_0
  6
CONTINUOUS
 62
    7
 10
483.42642250000006
 20
254.0746455
 11
483.42861949999997
 21
253.9453585
  0
ARC
  8
_0-0_0
  6
CONTINUOUS
 62
    7
 10
475.42892449999999
 20
253.87464850000001
 40
8
 50
1.432544
 51
6.4594489999999993
  0
LINE
  8
_0-0_0
  6
CONTINUOUS
 62
    7
 10
483.3624575
 20
254.9039305
 11
483.37814349999996
 21
254.7746425
  0
LINE
  8
_0-0_0
  6
CONTINUOUS
 62
    7
 10
483.3624575
 20
254.9039305
 11
483.34280450000006
 21
255.04534950000001
  0
LINE
  8
_0-0_0
  6
CONTINUOUS
 62
    7
 10
483.32260150000002
 20
255.17465150000001
 11
483.34280450000006
 21
255.04534950000001
  0
ARC
  8
_0-0_0
  6
CONTINUOUS
 62
    7
 10
475.42892449999999
 20
253.87464850000001
 40
8
 50
9.3520350000000008
 51
14.477510999999998
  0
LINE
  8
_0-0_0
  6
CONTINUOUS
 62
    7
 10
483.14035049999995
 20
256.00393650000001
 11
483.17489650000005
 21
255.87464850000001
  0
LINE
  8
_0-0_0
  6
CONTINUOUS
 62
    7
 10
483.14035049999995
 20
256.00393650000001
 11
483.09994549999999
 21
256.14535549999999
  0
LINE
  8
_0-0_0
  6
CONTINUOUS
 62
    7
 10
483.06045549999999
 20
256.27464250000003
 11
483.09994549999999
 21
256.14535549999999
  0
ARC
  8
_0-0_0
  6
CONTINUOUS
 62
    7
 10
475.42892449999999
 20
253.87464850000001
 40
8
 50
17.457602999999999
 51
22.799030999999999
  0
LINE
  8
_0-0_0
  6
CONTINUOUS
 62
    7
 10
482.74819950000006
 20
257.1039275
 11
482.80392449999999
 21
256.97463949999997
  0
LINE
  8
_0-0_0
  6
CONTINUOUS
 62
    7
 10
482.74819950000006
 20
257.1039275
 11
482.68417350000004
 21
257.2453615
  0
LINE
  8
_0-0_0
  6
CONTINUOUS
 62
    7
 10
482.62271150000004
 20
257.37464850000003
 11
482.68417350000004
 21
257.2453615
  0
ARC
  8
_0-0_0
  6
CONTINUOUS
 62
    7
 10
475.42892449999999
 20
253.87464850000001
 40
8
 50
25.944476999999999
 51
31.668240000000001
  0
LINE
  8
_0-0_0
  6
CONTINUOUS
 62
    7
 10
482.15628049999998
 20
258.20393350000001
 11
482.23776250000003
 21
258.07464549999997
  0
LINE
  8
_0-0_0
  6
CONTINUOUS
 62
    7
 10
482.15628049999998
 20
258.20393350000001
 11
482.06314050000003
 21
258.34535249999999
  0
CIRCLE
  8
_0-0_0
  6
CONTINUOUS
 62
    7
 10
475.42892449999999
 20
253.87464850000001
 40
7.5
  0
LINE
  8
_0-0_0
  6
CONTINUOUS
 62
    7
 10
482.23776250000003
 20
258.07464549999997
 11
484.42892449999999
 21
258.07464549999997
  0
LINE
  8
_0-0_0
  6
CONTINUOUS
 62
    7
 10
482.62271150000004
 20
257.37464850000003
 11
484.42892449999999
 21
257.37464850000003
  0
LINE
  8
_0-0_0
  6
CONTINUOUS
 62
    7
 10
482.80392449999999
 20
256.97463949999997
 11
484.42892449999999
 21
256.97463949999997
  0
LINE
  8
_0-0_0
  6
CONTINUOUS
 62
    7
 10
483.06045549999999
 20
256.27464250000003
 11
484.42892449999999
 21
256.27464250000003
  0
LINE
  8
_0-0_0
  6
CONTINUOUS
 62
    7
 10
483.17489650000005
 20
255.87464850000001
 11
484.42892449999999
 21
255.87464850000001
  0
LINE
  8
_0-0_0
  6
CONTINUOUS
 62
    7
 10
483.32260150000002
 20
255.17465150000001
 11
484.42892449999999
 21
255.17465150000001
  0
LINE
  8
_0-0_0
  6
CONTINUOUS
 62
    7
 10
483.37814349999996
 20
254.7746425
 11
484.42892449999999
 21
254.7746425
  0
LINE
  8
_0-0_0
  6
CONTINUOUS
 62
    7
 10
483.42642250000006
 20
254.0746455
 11
484.42892449999999
 21
254.0746455
  0
LINE
  8
_0-0_0
  6
CONTINUOUS
 62
    7
 10
484.92892449999999
 20
237.37464850000001
 11
484.42892449999999
 21
237.37464850000001
  0
LINE
  8
_0-0_0
  6
CONTINUOUS
 62
    7
 10
484.92892449999999
 20
239.5746455
 11
484.42892449999999
 21
239.5746455
  0
LINE
  8
_0-0_0
  6
CONTINUOUS
 62
    7
 10
484.92892449999999
 20
241.87464850000001
 11
484.42892449999999
 21
241.87464850000001
  0
LINE
  8
_0-0_0
  6
CONTINUOUS
 62
    7
 10
484.42892449999999
 20
244.17465150000001
 11
484.92892449999999
 21
244.17465150000001
  0
LINE
  8
_0-0_0
  6
CONTINUOUS
 62
    7
 10
484.92892449999999
 20
264.37464850000003
 11
484.92892449999999
 21
264.27464250000003
  0
LINE
  8
_0-0_0
  6
CONTINUOUS
 62
    7
 10
80.928924499999994
 20
264.37464850000003
 11
80.928924499999994
 21
264.27464250000003
  0
LINE
  8
_0-0_0
  6
CONTINUOUS
 62
    7
 10
80.928924499999994
 20
244.17465150000001
 11
81.428924499999994
 21
244.17465150000001
  0
LINE
  8
_0-0_0
  6
CONTINUOUS
 62
    7
 10
81.428924499999994
 20
264.07464549999997
 11
484.42892449999999
 21
264.07464549999997
  0
LINE
  8
_0-0_0
  6
CONTINUOUS
 62
    7
 10
81.428924499999994
 20
263.4806825
 11
484.42892449999999
 21
263.4806825
  0
LINE
  8
_0-0_0
  6
CONTINUOUS
 62
    7
 10
96.974151500000005
 20
258.47463949999997
 11
468.88369750000004
 21
258.47463949999997
  0
LINE
  8
_0-0_0
  6
CONTINUOUS
 62
    7
 10
481.97415150000006
 20
258.47463949999997
 11
484.42892449999999
 21
258.47463949999997
  0
LINE
  8
_0-0_0
  6
CONTINUOUS
 62
    7
 10
81.428924499999994
 20
258.47463949999997
 11
83.883697500000011
 21
258.47463949999997
  0
LINE
  8
_0-0_0
  6
CONTINUOUS
 62
    7
 10
80.928924499999994
 20
237.37464850000001
 11
81.428924499999994
 21
237.37464850000001
  0
LINE
  8
_0-0_0
  6
CONTINUOUS
 62
    7
 10
80.928924499999994
 20
239.5746455
 11
81.428924499999994
 21
239.5746455
  0
LINE
  8
_0-0_0
  6
CONTINUOUS
 62
    7
 10
80.928924499999994
 20
241.87464850000001
 11
81.428924499999994
 21
241.87464850000001
  0
LINE
  8
_0-0_0
  6
CONTINUOUS
 62
    7
 10
81.428924499999994
 20
258.07464549999997
 11
83.620117499999992
 21
258.07464549999997
  0
LINE
  8
_0-0_0
  6
CONTINUOUS
 62
    7
 10
81.428924499999994
 20
257.37464850000003
 11
83.235183500000005
 21
257.37464850000003
  0
LINE
  8
_0-0_0
  6
CONTINUOUS
 62
    7
 10
81.428924499999994
 20
256.97463949999997
 11
83.05398550000001
 21
256.97463949999997
  0
LINE
  8
_0-0_0
  6
CONTINUOUS
 62
    7
 10
81.428924499999994
 20
256.27464250000003
 11
82.797424500000005
 21
256.27464250000003
  0
LINE
  8
_0-0_0
  6
CONTINUOUS
 62
    7
 10
81.428924499999994
 20
255.87464850000001
 11
82.682968500000015
 21
255.87464850000001
  0
LINE
  8
_0-0_0
  6
CONTINUOUS
 62
    7
 10
81.428924499999994
 20
255.17465150000001
 11
82.535263500000013
 21
255.17465150000001
  0
LINE
  8
_0-0_0
  6
CONTINUOUS
 62
    7
 10
81.428924499999994
 20
254.7746425
 11
82.479721500000011
 21
254.7746425
  0
LINE
  8
_0-0_0
  6
CONTINUOUS
 62
    7
 10
81.428924499999994
 20
254.0746455
 11
82.431427500000012
 21
254.0746455
  0
LINE
  8
_0-0_0
  6
CONTINUOUS
 62
    7
 10
97.237747500000012
 20
258.07464549999997
 11
468.62014750000003
 21
258.07464549999997
  0
LINE
  8
_0-0_0
  6
CONTINUOUS
 62
    7
 10
97.622680500000001
 20
257.37464850000003
 11
468.23519950000002
 21
257.37464850000003
  0
LINE
  8
_0-0_0
  6
CONTINUOUS
 62
    7
 10
97.803894500000013
 20
256.97463949999997
 11
468.05398549999995
 21
256.97463949999997
  0
LINE
  8
_0-0_0
  6
CONTINUOUS
 62
    7
 10
98.060455500000018
 20
256.27464250000003
 11
467.79745449999996
 21
256.27464250000003
  0
LINE
  8
_0-0_0
  6
CONTINUOUS
 62
    7
 10
98.174896500000017
 20
255.87464850000001
 11
467.68295250000006
 21
255.87464850000001
  0
LINE
  8
_0-0_0
  6
CONTINUOUS
 62
    7
 10
98.322601500000019
 20
255.17465150000001
 11
467.53524749999997
 21
255.17465150000001
  0
LINE
  8
_0-0_0
  6
CONTINUOUS
 62
    7
 10
98.378143499999993
 20
254.7746425
 11
467.47970550000002
 21
254.7746425
  0
LINE
  8
_0-0_0
  6
CONTINUOUS
 62
    7
 10
98.42643750000002
 20
254.0746455
 11
467.43142750000004
 21
254.0746455
  0
LINE
  8
_0-0_0
  6
CONTINUOUS
 62
    7
 10
484.92892449999999
 20
235.87464850000001
 11
484.42892449999999
 21
235.87464850000001
  0
LINE
  8
_0-0_0
  6
CONTINUOUS
 62
    7
 10
484.92892449999999
 20
263.47463949999997
 11
484.92892449999999
 21
264.27464250000003
  0
LINE
  8
_0-0_0
  6
CONTINUOUS
 62
    7
 10
484.92892449999999
 20
235.67465150000001
 11
484.92892449999999
 21
263.47463949999997
  0
LINE
  8
_0-0_0
  6
CONTINUOUS
 62
    7
 10
80.928924499999994
 20
263.47463949999997
 11
80.928924499999994
 21
264.27464250000003
  0
LINE
  8
_0-0_0
  6
CONTINUOUS
 62
    7
 10
80.928924499999994
 20
235.67465150000001
 11
80.928924499999994
 21
263.47463949999997
  0
ARC
  8
_0-0_0
  6
CONTINUOUS
 62
    7
 10
90.428924499999994
 20
254.5746455
 40
12.800000000000001
 50
73.932597000000001
 51
106.06740099999999
  0
ARC
  8
_0-0_0
  6
CONTINUOUS
 62
    7
 10
475.42892449999999
 20
254.5746455
 40
12.800000000000001
 50
73.932597000000001
 51
106.06740099999999
  0
LINE
  8
_0-0_0
  6
CONTINUOUS
 62
    7
 10
484.92892449999999
 20
264.37464850000003
 11
484.92892449999999
 21
266.87464850000003
  0
LINE
  8
_0-0_0
  6
CONTINUOUS
 62
    7
 10
80.928924499999994
 20
266.87464850000003
 11
484.92892449999999
 21
266.87464850000003
  0
LINE
  8
_0-0_0
  6
CONTINUOUS
 62
    7
 10
80.928924499999994
 20
264.37464850000003
 11
80.928924499999994
 21
266.87464850000003
  0
LINE
  8
_0-0_0
  6
CONTINUOUS
 62
    7
 10
80.928924499999994
 20
235.87464850000001
 11
81.428924499999994
 21
235.87464850000001
  0
ARC
  8
_0-0_0
  6
CONTINUOUS
 62
    7
 10
423.22891249999998
 20
240.7746425
 40
0.2
 50
339.62356199999999
 51
90.000002999999978
  0
LINE
  8
_0-0_0
  6
CONTINUOUS
 62
    7
 10
423.41641249999998
 20
240.70500150000001
 11
422.11642449999999
 21
237.20500150000001
  0
ARC
  8
_0-0_0
  6
CONTINUOUS
 62
    7
 10
421.92892449999999
 20
237.2746425
 40
0.2
 50
200.37643
 51
339.62356199999999
  0
LINE
  8
_0-0_0
  6
CONTINUOUS
 62
    7
 10
420.44143650000001
 20
240.70500150000001
 11
421.74142449999999
 21
237.20500150000001
  0
ARC
  8
_0-0_0
  6
CONTINUOUS
 62
    7
 10
420.62893650000001
 20
240.7746425
 40
0.2
 50
90.000003000000007
 51
200.37643
  0
LINE
  8
_0-0_0
  6
CONTINUOUS
 62
    7
 10
420.62893650000001
 20
240.97463949999999
 11
423.22891249999998
 21
240.97463949999999
  0
ARC
  8
_0-0_0
  6
CONTINUOUS
 62
    7
 10
153.2289275
 20
240.7746425
 40
0.2
 50
339.62356199999999
 51
90.000002999999978
  0
LINE
  8
_0-0_0
  6
CONTINUOUS
 62
    7
 10
153.41641250000001
 20
240.70500150000001
 11
152.1164095
 21
237.20500150000001
  0
ARC
  8
_0-0_0
  6
CONTINUOUS
 62
    7
 10
151.92892449999999
 20
237.2746425
 40
0.2
 50
200.37643
 51
339.62356199999999
  0
LINE
  8
_0-0_0
  6
CONTINUOUS
 62
    7
 10
150.44143650000001
 20
240.70500150000001
 11
151.74143950000001
 21
237.20500150000001
  0
ARC
  8
_0-0_0
  6
CONTINUOUS
 62
    7
 10
150.62892150000002
 20
240.7746425
 40
0.2
 50
90.000003000000007
 51
200.37643
  0
LINE
  8
_0-0_0
  6
CONTINUOUS
 62
    7
 10
150.62892150000002
 20
240.97463949999999
 11
153.2289275
 21
240.97463949999999
  0
CIRCLE
  8
_0-0_0
  6
CONTINUOUS
 62
    7
 10
90.428924499999994
 20
253.87464850000001
 40
5
  0
CIRCLE
  8
_0-0_0
  6
CONTINUOUS
 62
    7
 10
475.42892449999999
 20
253.87464850000001
 40
5
  0
LINE
  8
_0-0_0
  6
CONTINUOUS
 62
    7
 10
485.92892449999999
 20
263.47463949999997
 11
484.92892449999999
 21
263.47463949999997
  0
LINE
  8
_0-0_0
  6
CONTINUOUS
 62
    7
 10
485.92892449999999
 20
264.51162750000003
 11
484.92892449999999
 21
264.51162750000003
  0
LINE
  8
_0-0_0
  6
CONTINUOUS
 62
    7
 10
485.92892449999999
 20
235.67465150000001
 11
484.92892449999999
 21
235.67465150000001
  0
LINE
  8
_0-0_0
  6
CONTINUOUS
 62
    7
 10
79.928924499999994
 20
263.47463949999997
 11
80.928924499999994
 21
263.47463949999997
  0
LINE
  8
_0-0_0
  6
CONTINUOUS
 62
    7
 10
79.928924499999994
 20
264.47463949999997
 11
80.928924499999994
 21
264.47463949999997
  0
LINE
  8
_0-0_0
  6
CONTINUOUS
 62
    7
 10
79.928924499999994
 20
235.67465150000001
 11
80.928924499999994
 21
235.67465150000001
  0
LINE
  8
_0-0_0
  6
CONTINUOUS
 62
    7
 10
485.92892449999999
 20
266.67465149999998
 11
484.92892449999999
 21
266.67465149999998
  0
LINE
  8
_0-0_0
  6
CONTINUOUS
 62
    7
 10
79.928924499999994
 20
266.67465149999998
 11
80.928924499999994
 21
266.67465149999998
  0
LINE
  8
_0-0_0
  6
CONTINUOUS
 62
    7
 10
486.92892449999999
 20
263.06042450000001
 11
486.92794849999996
 21
263.07893350000001
  0
LINE
  8
_0-0_0
  6
CONTINUOUS
 62
    7
 10
486.92794849999996
 20
263.07893350000001
 11
486.9249575
 21
263.09738149999998
  0
LINE
  8
_0-0_0
  6
CONTINUOUS
 62
    7
 10
486.9249575
 20
263.09738149999998
 11
486.91970849999996
 21
263.11651549999999
  0
LINE
  8
_0-0_0
  6
CONTINUOUS
 62
    7
 10
486.91970849999996
 20
263.11651549999999
 11
486.91232349999996
 21
263.13552849999996
  0
LINE
  8
_0-0_0
  6
CONTINUOUS
 62
    7
 10
486.91232349999996
 20
263.13552849999996
 11
486.89175450000005
 21
263.17224150000004
  0
LINE
  8
_0-0_0
  6
CONTINUOUS
 62
    7
 10
486.89175450000005
 20
263.17224150000004
 11
486.86337249999997
 21
263.20793149999997
  0
LINE
  8
_0-0_0
  6
CONTINUOUS
 62
    7
 10
486.86337249999997
 20
263.20793149999997
 11
486.82748449999997
 21
263.24221750000004
  0
LINE
  8
_0-0_0
  6
CONTINUOUS
 62
    7
 10
486.82748449999997
 20
263.24221750000004
 11
486.77890049999996
 21
263.27867149999997
  0
LINE
  8
_0-0_0
  6
CONTINUOUS
 62
    7
 10
486.77890049999996
 20
263.27867149999997
 11
486.72207649999996
 21
263.31268249999999
  0
LINE
  8
_0-0_0
  6
CONTINUOUS
 62
    7
 10
486.72207649999996
 20
263.31268249999999
 11
486.65792850000003
 21
263.34393249999999
  0
LINE
  8
_0-0_0
  6
CONTINUOUS
 62
    7
 10
486.65792850000003
 20
263.34393249999999
 11
486.58731050000006
 21
263.37219249999998
  0
LINE
  8
_0-0_0
  6
CONTINUOUS
 62
    7
 10
486.58731050000006
 20
263.37219249999998
 11
486.53921549999995
 21
263.38853449999999
  0
LINE
  8
_0-0_0
  6
CONTINUOUS
 62
    7
 10
486.53921549999995
 20
263.38853449999999
 11
486.48910550000005
 21
263.40353349999998
  0
LINE
  8
_0-0_0
  6
CONTINUOUS
 62
    7
 10
486.48910550000005
 20
263.40353349999998
 11
486.43240349999996
 21
263.41830449999998
  0
LINE
  8
_0-0_0
  6
CONTINUOUS
 62
    7
 10
486.43240349999996
 20
263.41830449999998
 11
486.37380949999999
 21
263.43139650000001
  0
LINE
  8
_0-0_0
  6
CONTINUOUS
 62
    7
 10
486.37380949999999
 20
263.43139650000001
 11
486.25698850000003
 21
263.45172149999996
  0
LINE
  8
_0-0_0
  6
CONTINUOUS
 62
    7
 10
486.25698850000003
 20
263.45172149999996
 11
486.14956649999999
 21
263.46443149999999
  0
LINE
  8
_0-0_0
  6
CONTINUOUS
 62
    7
 10
486.14956649999999
 20
263.46443149999999
 11
486.03982550000001
 21
263.47209150000003
  0
LINE
  8
_0-0_0
  6
CONTINUOUS
 62
    7
 10
486.03982550000001
 20
263.47209150000003
 11
485.92892449999999
 21
263.47463949999997
  0
LINE
  8
_0-0_0
  6
CONTINUOUS
 62
    7
 10
486.92892449999999
 20
263.06042450000001
 11
486.92892449999999
 21
264.06048550000003
  0
LINE
  8
_0-0_0
  6
CONTINUOUS
 62
    7
 10
486.92892449999999
 20
264.06048550000003
 11
486.92605549999996
 21
264.09207149999997
  0
LINE
  8
_0-0_0
  6
CONTINUOUS
 62
    7
 10
486.92605549999996
 20
264.09207149999997
 11
486.91732750000006
 21
264.1241455
  0
LINE
  8
_0-0_0
  6
CONTINUOUS
 62
    7
 10
486.91732750000006
 20
264.1241455
 11
486.90274050000005
 21
264.15641749999998
  0
LINE
  8
_0-0_0
  6
CONTINUOUS
 62
    7
 10
486.90274050000005
 20
264.15641749999998
 11
486.88253750000001
 21
264.18856749999998
  0
LINE
  8
_0-0_0
  6
CONTINUOUS
 62
    7
 10
486.88253750000001
 20
264.18856749999998
 11
486.86593649999998
 21
264.20980850000001
  0
LINE
  8
_0-0_0
  6
CONTINUOUS
 62
    7
 10
486.86593649999998
 20
264.20980850000001
 11
486.8470155
 21
264.23075849999998
  0
LINE
  8
_0-0_0
  6
CONTINUOUS
 62
    7
 10
486.8470155
 20
264.23075849999998
 11
486.80227650000006
 21
264.27153050000004
  0
LINE
  8
_0-0_0
  6
CONTINUOUS
 62
    7
 10
486.80227650000006
 20
264.27153050000004
 11
486.74899249999999
 21
264.31028750000002
  0
LINE
  8
_0-0_0
  6
CONTINUOUS
 62
    7
 10
486.74899249999999
 20
264.31028750000002
 11
486.69906649999996
 21
264.3404845
  0
LINE
  8
_0-0_0
  6
CONTINUOUS
 62
    7
 10
486.69906649999996
 20
264.3404845
 11
486.64437850000002
 21
264.36871350000001
  0
LINE
  8
_0-0_0
  6
CONTINUOUS
 62
    7
 10
486.64437850000002
 20
264.36871350000001
 11
486.58541850000006
 21
264.3947445
  0
LINE
  8
_0-0_0
  6
CONTINUOUS
 62
    7
 10
486.58541850000006
 20
264.3947445
 11
486.53866549999998
 21
264.4127345
  0
LINE
  8
_0-0_0
  6
CONTINUOUS
 62
    7
 10
486.53866549999998
 20
264.4127345
 11
486.48995950000005
 21
264.4293515
  0
LINE
  8
_0-0_0
  6
CONTINUOUS
 62
    7
 10
486.48995950000005
 20
264.4293515
 11
486.38760349999995
 21
264.45822150000004
  0
LINE
  8
_0-0_0
  6
CONTINUOUS
 62
    7
 10
486.38760349999995
 20
264.45822150000004
 11
486.27981550000004
 21
264.48104850000004
  0
LINE
  8
_0-0_0
  6
CONTINUOUS
 62
    7
 10
486.27981550000004
 20
264.48104850000004
 11
486.16824350000002
 21
264.4976345
  0
LINE
  8
_0-0_0
  6
CONTINUOUS
 62
    7
 10
486.16824350000002
 20
264.4976345
 11
486.05416850000006
 21
264.50784250000004
  0
LINE
  8
_0-0_0
  6
CONTINUOUS
 62
    7
 10
486.05416850000006
 20
264.50784250000004
 11
485.92892449999999
 21
264.51162750000003
  0
ARC
  8
_0-0_0
  6
CONTINUOUS
 62
    7
 10
485.92892449999999
 20
236.67465150000001
 40
1
 50
269.99999700000001
 51
0
  0
LINE
  8
_0-0_0
  6
CONTINUOUS
 62
    7
 10
486.92892449999999
 20
236.67465150000001
 11
486.92892449999999
 21
263.06042450000001
  0
LINE
  8
_0-0_0
  6
CONTINUOUS
 62
    7
 10
78.928924499999994
 20
263.06042450000001
 11
78.929931500000009
 21
263.07893350000001
  0
LINE
  8
_0-0_0
  6
CONTINUOUS
 62
    7
 10
78.929931500000009
 20
263.07893350000001
 11
78.932922500000018
 21
263.09738149999998
  0
LINE
  8
_0-0_0
  6
CONTINUOUS
 62
    7
 10
78.932922500000018
 20
263.09738149999998
 11
78.93817150000001
 21
263.11651549999999
  0
LINE
  8
_0-0_0
  6
CONTINUOUS
 62
    7
 10
78.93817150000001
 20
263.11651549999999
 11
78.945541500000019
 21
263.13552849999996
  0
LINE
  8
_0-0_0
  6
CONTINUOUS
 62
    7
 10
78.945541500000019
 20
263.13552849999996
 11
78.966095499999994
 21
263.17224150000004
  0
LINE
  8
_0-0_0
  6
CONTINUOUS
 62
    7
 10
78.966095499999994
 20
263.17224150000004
 11
78.994491500000009
 21
263.20793149999997
  0
LINE
  8
_0-0_0
  6
CONTINUOUS
 62
    7
 10
78.994491500000009
 20
263.20793149999997
 11
79.030365500000016
 21
263.24221750000004
  0
LINE
  8
_0-0_0
  6
CONTINUOUS
 62
    7
 10
79.030365500000016
 20
263.24221750000004
 11
79.078994499999993
 21
263.27867149999997
  0
LINE
  8
_0-0_0
  6
CONTINUOUS
 62
    7
 10
79.078994499999993
 20
263.27867149999997
 11
79.135772500000002
 21
263.31268249999999
  0
LINE
  8
_0-0_0
  6
CONTINUOUS
 62
    7
 10
79.135772500000002
 20
263.31268249999999
 11
79.199920500000019
 21
263.34393249999999
  0
LINE
  8
_0-0_0
  6
CONTINUOUS
 62
    7
 10
79.199920500000019
 20
263.34393249999999
 11
79.270568499999996
 21
263.37219249999998
  0
LINE
  8
_0-0_0
  6
CONTINUOUS
 62
    7
 10
79.270568499999996
 20
263.37219249999998
 11
79.318649499999992
 21
263.38853449999999
  0
LINE
  8
_0-0_0
  6
CONTINUOUS
 62
    7
 10
79.318649499999992
 20
263.38853449999999
 11
79.36878950000002
 21
263.40353349999998
  0
LINE
  8
_0-0_0
  6
CONTINUOUS
 62
    7
 10
79.36878950000002
 20
263.40353349999998
 11
79.425491499999993
 21
263.41830449999998
  0
LINE
  8
_0-0_0
  6
CONTINUOUS
 62
    7
 10
79.425491499999993
 20
263.41830449999998
 11
79.484100500000011
 21
263.43139650000001
  0
LINE
  8
_0-0_0
  6
CONTINUOUS
 62
    7
 10
79.484100500000011
 20
263.43139650000001
 11
79.600875500000001
 21
263.45172149999996
  0
LINE
  8
_0-0_0
  6
CONTINUOUS
 62
    7
 10
79.600875500000001
 20
263.45172149999996
 11
79.708282499999996
 21
263.46443149999999
  0
LINE
  8
_0-0_0
  6
CONTINUOUS
 62
    7
 10
79.708282499999996
 20
263.46443149999999
 11
79.818054500000017
 21
263.47209150000003
  0
LINE
  8
_0-0_0
  6
CONTINUOUS
 62
    7
 10
79.818054500000017
 20
263.47209150000003
 11
79.928924499999994
 21
263.47463949999997
  0
LINE
  8
_0-0_0
  6
CONTINUOUS
 62
    7
 10
78.928924499999994
 20
264.03009050000003
 11
78.931823500000007
 21
264.06100449999997
  0
LINE
  8
_0-0_0
  6
CONTINUOUS
 62
    7
 10
78.931823500000007
 20
264.06100449999997
 11
78.940521500000017
 21
264.09243749999996
  0
LINE
  8
_0-0_0
  6
CONTINUOUS
 62
    7
 10
78.940521500000017
 20
264.09243749999996
 11
78.955001500000009
 21
264.12411450000002
  0
LINE
  8
_0-0_0
  6
CONTINUOUS
 62
    7
 10
78.955001500000009
 20
264.12411450000002
 11
78.975174500000008
 21
264.15570049999997
  0
LINE
  8
_0-0_0
  6
CONTINUOUS
 62
    7
 10
78.975174500000008
 20
264.15570049999997
 11
78.99169950000001
 21
264.17657450000002
  0
LINE
  8
_0-0_0
  6
CONTINUOUS
 62
    7
 10
78.99169950000001
 20
264.17657450000002
 11
79.010589500000009
 21
264.19718950000004
  0
LINE
  8
_0-0_0
  6
CONTINUOUS
 62
    7
 10
79.010589500000009
 20
264.19718950000004
 11
79.055236500000007
 21
264.23733549999997
  0
LINE
  8
_0-0_0
  6
CONTINUOUS
 62
    7
 10
79.055236500000007
 20
264.23733549999997
 11
79.108367500000014
 21
264.27554350000003
  0
LINE
  8
_0-0_0
  6
CONTINUOUS
 62
    7
 10
79.108367500000014
 20
264.27554350000003
 11
79.158264500000001
 21
264.30535850000001
  0
LINE
  8
_0-0_0
  6
CONTINUOUS
 62
    7
 10
79.158264500000001
 20
264.30535850000001
 11
79.212936500000012
 21
264.3332365
  0
LINE
  8
_0-0_0
  6
CONTINUOUS
 62
    7
 10
79.212936500000012
 20
264.3332365
 11
79.271911500000016
 21
264.35896249999996
  0
LINE
  8
_0-0_0
  6
CONTINUOUS
 62
    7
 10
79.271911500000016
 20
264.35896249999996
 11
79.318664500000011
 21
264.3767545
  0
LINE
  8
_0-0_0
  6
CONTINUOUS
 62
    7
 10
79.318664500000011
 20
264.3767545
 11
79.367370499999993
 21
264.39318850000001
  0
LINE
  8
_0-0_0
  6
CONTINUOUS
 62
    7
 10
79.367370499999993
 20
264.39318850000001
 11
79.469802500000014
 21
264.42175250000003
  0
LINE
  8
_0-0_0
  6
CONTINUOUS
 62
    7
 10
79.469802500000014
 20
264.42175250000003
 11
79.577621499999992
 21
264.4443665
  0
LINE
  8
_0-0_0
  6
CONTINUOUS
 62
    7
 10
79.577621499999992
 20
264.4443665
 11
79.689300500000002
 21
264.46076949999997
  0
LINE
  8
_0-0_0
  6
CONTINUOUS
 62
    7
 10
79.689300500000002
 20
264.46076949999997
 11
79.803466500000013
 21
264.47088650000001
  0
LINE
  8
_0-0_0
  6
CONTINUOUS
 62
    7
 10
79.803466500000013
 20
264.47088650000001
 11
79.928924499999994
 21
264.47463949999997
  0
LINE
  8
_0-0_0
  6
CONTINUOUS
 62
    7
 10
78.928924499999994
 20
263.06042450000001
 11
78.928924499999994
 21
264.03009050000003
  0
ARC
  8
_0-0_0
  6
CONTINUOUS
 62
    7
 10
79.928924499999994
 20
236.67465150000001
 40
1
 50
180.00000900000003
 51
269.99999700000001
  0
LINE
  8
_0-0_0
  6
CONTINUOUS
 62
    7
 10
78.928924499999994
 20
236.67465150000001
 11
78.928924499999994
 21
263.06042450000001
  0
LINE
  8
_0-0_0
  6
CONTINUOUS
 62
    7
 10
486.92892449999999
 20
264.06048550000003
 11
486.92892449999999
 21
265.67465149999998
  0
ARC
  8
_0-0_0
  6
CONTINUOUS
 62
    7
 10
485.92892449999999
 20
265.67465149999998
 40
1
 50
0
 51
90.000003000000007
  0
ARC
  8
_0-0_0
  6
CONTINUOUS
 62
    7
 10
79.928924499999994
 20
265.67465149999998
 40
1
 50
90.000003000000007
 51
180.00000900000001
  0
LINE
  8
_0-0_0
  6
CONTINUOUS
 62
    7
 10
78.928924499999994
 20
264.03009050000003
 11
78.928924499999994
 21
265.67465149999998
  0
LINE
  8
_0-0_0
  6
CONTINUOUS
 62
    7
 10
-8.8867414999999994
 20
233.5745695
 11
-8.8867414999999994
 21
233.5495755
  0
LINE
  8
_0-0_0
  6
CONTINUOUS
 62
    7
 10
-8.8867414999999994
 20
230.49745150000001
 11
-8.8867414999999994
 21
230.59957850000001
  0
LINE
  8
_0-0_0
  6
CONTINUOUS
 62
    7
 10
-8.8867414999999994
 20
209.47456350000002
 11
-8.8867414999999994
 21
210.25169350000002
  0
LINE
  8
_0-0_0
  6
CONTINUOUS
 62
    7
 10
-25.686736499999995
 20
209.47456350000002
 11
-8.8867414999999994
 21
209.47456350000002
  0
LINE
  8
_0-0_0
  6
CONTINUOUS
 62
    7
 10
-25.686736499999995
 20
217.3745725
 11
-25.686736499999995
 21
209.47456350000002
  0
LINE
  8
_0-0_0
  6
CONTINUOUS
 62
    7
 10
-25.686736499999995
 20
229.82989449999999
 11
-25.686736499999995
 21
223.3745725
  0
LINE
  8
_0-0_0
  6
CONTINUOUS
 62
    7
 10
-8.38675649999999
 20
212.97456350000002
 11
-8.186736499999995
 21
212.97456350000002
  0
LINE
  8
_0-0_0
  6
CONTINUOUS
 62
    7
 10
-8.186736499999995
 20
212.97456350000002
 11
-8.186736499999995
 21
215.97456350000002
  0
LINE
  8
_0-0_0
  6
CONTINUOUS
 62
    7
 10
-8.186736499999995
 20
229.5745695
 11
-8.186736499999995
 21
215.97456350000002
  0
LINE
  8
_0-0_0
  6
CONTINUOUS
 62
    7
 10
-8.3867414999999994
 20
232.5745695
 11
-8.186736499999995
 21
232.5745695
  0
LINE
  8
_0-0_0
  6
CONTINUOUS
 62
    7
 10
-8.186736499999995
 20
229.5745695
 11
-8.186736499999995
 21
232.5745695
  0
LINE
  8
_0-0_0
  6
CONTINUOUS
 62
    7
 10
-9.0867384999999956
 20
231.8736265
 11
-9.0867384999999956
 21
230.69444250000001
  0
LINE
  8
_0-0_0
  6
CONTINUOUS
 62
    7
 10
-9.0867384999999956
 20
234.0745695
 11
-9.0867384999999956
 21
233.5745695
  0
LINE
  8
_0-0_0
  6
CONTINUOUS
 62
    7
 10
-10.086738499999996
 20
231.1580505
 11
-10.086738499999996
 21
231.8745725
  0
ARC
  8
_0-0_0
  6
CONTINUOUS
 62
    7
 10
-10.386741499999999
 20
229.1745755
 40
2
 50
0
 51
90.000003000000007
  0
LINE
  8
_0-0_0
  6
CONTINUOUS
 62
    7
 10
-8.3867414999999994
 20
225.6745755
 11
-8.3867414999999994
 21
228.6745755
  0
LINE
  8
_0-0_0
  6
CONTINUOUS
 62
    7
 10
-8.3867414999999994
 20
228.6745755
 11
-8.3867414999999994
 21
229.1745755
  0
LINE
  8
_0-0_0
  6
CONTINUOUS
 62
    7
 10
-8.3867414999999994
 20
211.5745695
 11
-8.3867414999999994
 21
225.1745755
  0
LINE
  8
_0-0_0
  6
CONTINUOUS
 62
    7
 10
-8.3867414999999994
 20
225.6745755
 11
-8.3867414999999994
 21
225.1745755
  0
ARC
  8
_0-0_0
  6
CONTINUOUS
 62
    7
 10
-10.386741499999999
 20
211.5745695
 40
2
 50
273.84026500000004
 51
0.000010000000014
  0
LINE
  8
_0-0_0
  6
CONTINUOUS
 62
    7
 10
-23.686736499999995
 20
231.1580505
 11
-23.686736499999995
 21
231.8745725
  0
LINE
  8
_0-0_0
  6
CONTINUOUS
 62
    7
 10
-23.686736499999995
 20
231.1580505
 11
-23.686736499999995
 21
231.15194650000001
  0
LINE
  8
_0-0_0
  6
CONTINUOUS
 62
    7
 10
-25.686736499999995
 20
229.82989449999999
 11
-25.686736499999995
 21
230.32989449999999
  0
LINE
  8
_0-0_0
  6
CONTINUOUS
 62
    7
 10
-25.386737499999981
 20
229.1745755
 11
-25.386737499999981
 21
215.5745695
  0
LINE
  8
_0-0_0
  6
CONTINUOUS
 62
    7
 10
-25.386737499999981
 20
215.0745695
 11
-25.386737499999981
 21
215.5745695
  0
LINE
  8
_0-0_0
  6
CONTINUOUS
 62
    7
 10
-25.386737499999981
 20
212.0745695
 11
-25.386737499999981
 21
215.0745695
  0
LINE
  8
_0-0_0
  6
CONTINUOUS
 62
    7
 10
-25.386737499999981
 20
211.5745695
 11
-25.386737499999981
 21
212.0745695
  0
ARC
  8
_0-0_0
  6
CONTINUOUS
 62
    7
 10
-23.386737499999981
 20
229.1745755
 40
2
 50
93.840255999999997
 51
180.00000900000001
  0
LINE
  8
_0-0_0
  6
CONTINUOUS
 62
    7
 10
-25.686736499999995
 20
217.3745725
 11
-25.686736499999995
 21
223.3745725
  0
LINE
  8
_0-0_0
  6
CONTINUOUS
 62
    7
 10
-25.686736499999995
 20
231.8745725
 11
-25.686736499999995
 21
230.3298795
  0
LINE
  8
_0-0_0
  6
CONTINUOUS
 62
    7
 10
-25.686736499999995
 20
223.3745725
 11
-25.386745499999989
 21
223.3745725
  0
LINE
  8
_0-0_0
  6
CONTINUOUS
 62
    7
 10
-25.686736499999995
 20
217.3745725
 11
-25.386745499999989
 21
217.3745725
  0
LINE
  8
_0-0_0
  6
CONTINUOUS
 62
    7
 10
-10.386741499999999
 20
209.5745695
 11
-19.386737499999981
 21
209.5745695
  0
LINE
  8
_0-0_0
  6
CONTINUOUS
 62
    7
 10
-22.886737499999981
 20
209.5745695
 11
-23.386737499999981
 21
209.5745695
  0
LINE
  8
_0-0_0
  6
CONTINUOUS
 62
    7
 10
-19.886737499999981
 20
209.5745695
 11
-22.886737499999981
 21
209.5745695
  0
LINE
  8
_0-0_0
  6
CONTINUOUS
 62
    7
 10
-19.386737499999981
 20
209.5745695
 11
-19.886737499999981
 21
209.5745695
  0
ARC
  8
_0-0_0
  6
CONTINUOUS
 62
    7
 10
-23.386737499999981
 20
211.5745695
 40
2
 50
180.00000900000003
 51
269.99999700000001
  0
ARC
  8
_0-0_0
  6
CONTINUOUS
 62
    7
 10
-9.5867384999999956
 20
234.0745695
 40
0.5
 50
0
 51
90.000003000000007
  0
LINE
  8
_0-0_0
  6
CONTINUOUS
 62
    7
 10
-11.086738499999996
 20
234.5745695
 11
-9.5867384999999956
 21
234.5745695
  0
ARC
  8
_0-0_0
  6
CONTINUOUS
 62
    7
 10
-11.086738499999996
 20
235.5745695
 40
1
 50
180.00000900000003
 51
269.99999700000001
  0
LINE
  8
_0-0_0
  6
CONTINUOUS
 62
    7
 10
-12.086738499999996
 20
235.5745695
 11
-12.086738499999996
 21
235.67465150000001
  0
LINE
  8
_0-0_0
  6
CONTINUOUS
 62
    7
 10
-12.586738499999996
 20
234.5745695
 11
-12.586738499999996
 21
235.67465150000001
  0
ARC
  8
_0-0_0
  6
CONTINUOUS
 62
    7
 10
-11.586738499999996
 20
234.5745695
 40
1
 50
180.00000900000003
 51
269.99999700000001
  0
LINE
  8
_0-0_0
  6
CONTINUOUS
 62
    7
 10
-11.586738499999996
 20
233.5745695
 11
-11.78673950000001
 21
233.5745695
  0
ARC
  8
_0-0_0
  6
CONTINUOUS
 62
    7
 10
-11.78673950000001
 20
234.5745695
 40
1
 50
180.00000900000003
 51
269.99999700000001
  0
ARC
  8
_0-0_0
  6
CONTINUOUS
 62
    7
 10
-21.986740499999996
 20
234.5745695
 40
1
 50
269.99999700000001
 51
0
  0
LINE
  8
_0-0_0
  6
CONTINUOUS
 62
    7
 10
-21.986740499999996
 20
233.5745695
 11
-22.686736499999995
 21
233.5745695
  0
LINE
  8
_0-0_0
  6
CONTINUOUS
 62
    7
 10
-8.8867414999999994
 20
233.5745695
 11
-9.0867384999999956
 21
233.5745695
  0
LINE
  8
_0-0_0
  6
CONTINUOUS
 62
    7
 10
-25.686736499999995
 20
231.8745725
 11
-8.8867414999999994
 21
231.8745725
  0
LINE
  8
_0-0_0
  6
CONTINUOUS
 62
    7
 10
-8.8867414999999994
 20
231.8745725
 11
-8.8867414999999994
 21
233.5745695
  0
LINE
  8
_0-0_0
  6
CONTINUOUS
 62
    7
 10
-12.78673950000001
 20
235.67465150000001
 11
-12.78673950000001
 21
234.5745695
  0
LINE
  8
_0-0_0
  6
CONTINUOUS
 62
    7
 10
-20.986740499999996
 20
234.5745695
 11
-20.986740499999996
 21
235.67465150000001
  0
LINE
  8
_0-0_0
  6
CONTINUOUS
 62
    7
 10
-24.686736499999995
 20
233.5745695
 11
-25.686736499999995
 21
233.5745695
  0
LINE
  8
_0-0_0
  6
CONTINUOUS
 62
    7
 10
-25.686736499999995
 20
231.8745725
 11
-25.686736499999995
 21
233.5745695
  0
LINE
  8
_0-0_0
  6
CONTINUOUS
 62
    7
 10
-10.386741499999999
 20
231.1745755
 11
-10.886741499999999
 21
231.1745755
  0
CIRCLE
  8
_0-0_0
  6
CONTINUOUS
 62
    7
 10
-10.886741499999999
 20
228.6745755
 40
2.5
  0
LINE
  8
_0-0_0
  6
CONTINUOUS
 62
    7
 10
-23.386737499999981
 20
231.1745755
 11
-14.386737499999981
 21
231.1745755
  0
LINE
  8
_0-0_0
  6
CONTINUOUS
 62
    7
 10
-10.886741499999999
 20
231.1745755
 11
-13.886737499999981
 21
231.1745755
  0
LINE
  8
_0-0_0
  6
CONTINUOUS
 62
    7
 10
-14.386737499999981
 20
231.1745755
 11
-13.886737499999981
 21
231.1745755
  0
ARC
  8
_0-0_0
  6
CONTINUOUS
 62
    7
 10
-8.8867414999999994
 20
225.1745755
 40
0.5
 50
0
 51
90.000003000000007
  0
LINE
  8
_0-0_0
  6
CONTINUOUS
 62
    7
 10
-10.386741499999999
 20
209.6772005
 11
-10.3708575
 21
209.64994849999999
  0
LINE
  8
_0-0_0
  6
CONTINUOUS
 62
    7
 10
-10.3708575
 20
209.64994849999999
 11
-10.355014499999982
 21
209.6269685
  0
LINE
  8
_0-0_0
  6
CONTINUOUS
 62
    7
 10
-10.355014499999982
 20
209.6269685
 11
-10.34103349999998
 21
209.61021450000001
  0
LINE
  8
_0-0_0
  6
CONTINUOUS
 62
    7
 10
-10.34103349999998
 20
209.61021450000001
 11
-10.327133500000002
 21
209.59689349999999
  0
LINE
  8
_0-0_0
  6
CONTINUOUS
 62
    7
 10
-10.327133500000002
 20
209.59689349999999
 11
-10.314918499999976
 21
209.58796649999999
  0
LINE
  8
_0-0_0
  6
CONTINUOUS
 62
    7
 10
-10.314918499999976
 20
209.58796649999999
 11
-10.302799499999992
 21
209.58174149999999
  0
LINE
  8
_0-0_0
  6
CONTINUOUS
 62
    7
 10
-10.302799499999992
 20
209.58174149999999
 11
-10.291931500000004
 21
209.57846050000001
  0
LINE
  8
_0-0_0
  6
CONTINUOUS
 62
    7
 10
-10.291931500000004
 20
209.57846050000001
 11
-10.281173499999994
 21
209.57740749999999
  0
LINE
  8
_0-0_0
  6
CONTINUOUS
 62
    7
 10
-10.281173499999994
 20
209.57740749999999
 11
-10.278713499999981
 21
209.5774845
  0
LINE
  8
_0-0_0
  6
CONTINUOUS
 62
    7
 10
-24.686736499999995
 20
230.69444250000001
 11
-24.686736499999995
 21
231.8736265
  0
ARC
  8
_0-0_0
  6
CONTINUOUS
 62
    7
 10
-24.886737499999981
 20
215.5745695
 40
0.5
 50
180.00000900000003
 51
269.99999700000001
  0
CIRCLE
  8
_0-0_0
  6
CONTINUOUS
 62
    7
 10
-22.886737499999981
 20
212.0745695
 40
2.5
  0
LINE
  8
_0-0_0
  6
CONTINUOUS
 62
    7
 10
-23.386737499999981
 20
231.0719455
 11
-23.402618499999988
 21
231.0991975
  0
LINE
  8
_0-0_0
  6
CONTINUOUS
 62
    7
 10
-23.402618499999988
 20
231.0991975
 11
-23.418464499999999
 21
231.12217749999999
  0
LINE
  8
_0-0_0
  6
CONTINUOUS
 62
    7
 10
-23.418464499999999
 20
231.12217749999999
 11
-23.4324455
 21
231.13893150000001
  0
LINE
  8
_0-0_0
  6
CONTINUOUS
 62
    7
 10
-23.4324455
 20
231.13893150000001
 11
-23.446342499999986
 21
231.1522525
  0
LINE
  8
_0-0_0
  6
CONTINUOUS
 62
    7
 10
-23.446342499999986
 20
231.1522525
 11
-23.458560500000004
 21
231.16117850000001
  0
LINE
  8
_0-0_0
  6
CONTINUOUS
 62
    7
 10
-23.458560500000004
 20
231.16117850000001
 11
-23.470680499999986
 21
231.16738850000002
  0
LINE
  8
_0-0_0
  6
CONTINUOUS
 62
    7
 10
-23.470680499999986
 20
231.16738850000002
 11
-23.481544499999984
 21
231.1706695
  0
LINE
  8
_0-0_0
  6
CONTINUOUS
 62
    7
 10
-23.481544499999984
 20
231.1706695
 11
-23.492305499999986
 21
231.17172250000002
  0
LINE
  8
_0-0_0
  6
CONTINUOUS
 62
    7
 10
-23.492305499999986
 20
231.17172250000002
 11
-23.494766499999997
 21
231.1716615
  0
LINE
  8
_0-0_0
  6
CONTINUOUS
 62
    7
 10
-25.686736499999995
 20
212.97456350000002
 11
-25.78673950000001
 21
212.97456350000002
  0
LINE
  8
_0-0_0
  6
CONTINUOUS
 62
    7
 10
-25.78673950000001
 20
212.97456350000002
 11
-25.78673950000001
 21
215.97456350000002
  0
LINE
  8
_0-0_0
  6
CONTINUOUS
 62
    7
 10
-25.78673950000001
 20
215.97456350000002
 11
-25.78673950000001
 21
229.5745695
  0
LINE
  8
_0-0_0
  6
CONTINUOUS
 62
    7
 10
-25.686736499999995
 20
232.5745695
 11
-25.78673950000001
 21
232.5745695
  0
LINE
  8
_0-0_0
  6
CONTINUOUS
 62
    7
 10
-25.78673950000001
 20
229.5745695
 11
-25.78673950000001
 21
232.5745695
  0
ARC
  8
_0-0_0
  6
CONTINUOUS
 62
    7
 10
-19.386737499999981
 20
210.0745695
 40
0.5
 50
180.00000900000003
 51
269.99999700000001
  0
ARC
  8
_0-0_0
  6
CONTINUOUS
 62
    7
 10
-22.686736499999995
 20
235.0746455
 40
1.5
 50
269.99999700000001
 51
0
  0
ARC
  8
_0-0_0
  6
CONTINUOUS
 62
    7
 10
-24.186736499999995
 20
234.0746455
 40
0.5
 50
90.000003000000007
 51
180.00000900000001
  0
LINE
  8
_0-0_0
  6
CONTINUOUS
 62
    7
 10
-24.186736499999995
 20
234.5746455
 11
-22.686736499999995
 21
234.5746455
  0
ARC
  8
_0-0_0
  6
CONTINUOUS
 62
    7
 10
-22.686736499999995
 20
235.5746455
 40
1
 50
269.99999700000001
 51
0
  0
LINE
  8
_0-0_0
  6
CONTINUOUS
 62
    7
 10
-21.686736499999995
 20
235.67465150000001
 11
-21.686736499999995
 21
235.5746455
  0
LINE
  8
_0-0_0
  6
CONTINUOUS
 62
    7
 10
-21.186736499999995
 20
235.67465150000001
 11
-21.186736499999995
 21
235.0746455
  0
LINE
  8
_0-0_0
  6
CONTINUOUS
 62
    7
 10
-24.686736499999995
 20
233.5746455
 11
-24.686736499999995
 21
234.0746455
  0
ARC
  8
_0-0_0
  6
CONTINUOUS
 62
    7
 10
-14.386737499999981
 20
230.6745755
 40
0.5
 50
0
 51
90.000003000000007
  0
LINE
  8
_0-0_0
  6
CONTINUOUS
 62
    7
 10
-13.886737499999981
 20
230.59759550000001
 11
-13.886737499999981
 21
230.6745755
  0
LINE
  8
_0-0_0
  6
CONTINUOUS
 62
    7
 10
-13.886737499999981
 20
229.15606650000001
 11
-13.886737499999981
 21
230.59759550000001
  0
LINE
  8
_0-0_0
  6
CONTINUOUS
 62
    7
 10
-13.886737499999981
 20
228.6745755
 11
-13.886737499999981
 21
229.15606650000001
  0
ARC
  8
_0-0_0
  6
CONTINUOUS
 62
    7
 10
-10.886741499999999
 20
228.6745755
 40
3
 50
180.00000900000003
 51
269.99999700000001
  0
LINE
  8
_0-0_0
  6
CONTINUOUS
 62
    7
 10
-10.405235500000003
 20
225.6745755
 11
-10.886741499999999
 21
225.6745755
  0
LINE
  8
_0-0_0
  6
CONTINUOUS
 62
    7
 10
-10.405235500000003
 20
225.6745755
 11
-8.9637144999999805
 21
225.6745755
  0
LINE
  8
_0-0_0
  6
CONTINUOUS
 62
    7
 10
-8.8867414999999994
 20
225.6745755
 11
-8.9637144999999805
 21
225.6745755
  0
LINE
  8
_0-0_0
  6
CONTINUOUS
 62
    7
 10
-24.8097645
 20
215.0745695
 11
-24.886737499999981
 21
215.0745695
  0
LINE
  8
_0-0_0
  6
CONTINUOUS
 62
    7
 10
-22.886737499999981
 20
215.0745695
 11
-23.368240499999985
 21
215.0745695
  0
LINE
  8
_0-0_0
  6
CONTINUOUS
 62
    7
 10
-23.368240499999985
 20
215.0745695
 11
-24.8097645
 21
215.0745695
  0
LINE
  8
_0-0_0
  6
CONTINUOUS
 62
    7
 10
-19.886737499999981
 20
210.0745695
 11
-19.886737499999981
 21
210.15155050000001
  0
LINE
  8
_0-0_0
  6
CONTINUOUS
 62
    7
 10
-19.886737499999981
 20
211.5930635
 11
-19.886737499999981
 21
210.15155050000001
  0
LINE
  8
_0-0_0
  6
CONTINUOUS
 62
    7
 10
-19.886737499999981
 20
211.5930635
 11
-19.886737499999981
 21
212.0745695
  0
ARC
  8
_0-0_0
  6
CONTINUOUS
 62
    7
 10
-22.886737499999981
 20
212.0745695
 40
3
 50
0
 51
89.999995999999996
  0
LINE
  8
_0-0_0
  6
CONTINUOUS
 62
    7
 10
-8.3867414999999994
 20
232.68583649999999
 11
-8.3867414999999994
 21
230.7995755
  0
LINE
  8
_0-0_0
  6
CONTINUOUS
 62
    7
 10
-8.3867414999999994
 20
233.34957850000001
 11
-8.3867414999999994
 21
232.68583649999999
  0
ARC
  8
_0-0_0
  6
CONTINUOUS
 62
    7
 10
-13.656623499999995
 20
221.54780550000001
 40
3.063396
 50
19.82113
 51
25.289563000000001
  0
ARC
  8
_0-0_0
  6
CONTINUOUS
 62
    7
 10
-13.656303499999979
 20
219.20120249999999
 40
3.0630519999999999
 50
334.71006
 51
340.17869200000001
  0
ARC
  8
_0-0_0
  6
CONTINUOUS
 62
    7
 10
-20.116851499999996
 20
219.2013245
 40
3.063399
 50
199.82113599999997
 51
205.28948099999999
  0
ARC
  8
_0-0_0
  6
CONTINUOUS
 62
    7
 10
-20.117172499999981
 20
221.5479425
 40
3.0630549999999999
 50
154.710137
 51
160.17869999999999
  0
ARC
  8
_0-0_0
  6
CONTINUOUS
 62
    7
 10
-16.886737499999981
 20
220.3745725
 40
6.5
 50
340.10416099999998
 51
19.895609999999952
  0
ARC
  8
_0-0_0
  6
CONTINUOUS
 62
    7
 10
-16.886737499999981
 20
220.3745725
 40
6.5
 50
160.10415599999999
 51
199.895612
  0
LINE
  8
_0-0_0
  6
CONTINUOUS
 62
    7
 10
-25.386737499999981
 20
231.4633785
 11
-25.386737499999981
 21
231.87368749999999
  0
LINE
  8
_0-0_0
  6
CONTINUOUS
 62
    7
 10
-25.386737499999981
 20
230.8044735
 11
-25.386737499999981
 21
231.4633785
  0
LINE
  8
_0-0_0
  6
CONTINUOUS
 62
    7
 10
-17.628410500000001
 20
226.8745725
 11
-22.145069499999977
 21
224.2668765
  0
LINE
  8
_0-0_0
  6
CONTINUOUS
 62
    7
 10
-16.145069499999977
 20
226.8745725
 11
-17.628410500000001
 21
226.8745725
  0
LINE
  8
_0-0_0
  6
CONTINUOUS
 62
    7
 10
-11.628410500000001
 20
224.2668765
 11
-16.145069499999977
 21
226.8745725
  0
LINE
  8
_0-0_0
  6
CONTINUOUS
 62
    7
 10
-10.886741499999999
 20
222.9822695
 11
-10.886741499999999
 21
217.7668765
  0
LINE
  8
_0-0_0
  6
CONTINUOUS
 62
    7
 10
-11.628410500000001
 20
224.2668765
 11
-10.886741499999999
 21
222.9822695
  0
LINE
  8
_0-0_0
  6
CONTINUOUS
 62
    7
 10
-16.145069499999977
 20
213.8745725
 11
-11.628410500000001
 21
216.4822695
  0
LINE
  8
_0-0_0
  6
CONTINUOUS
 62
    7
 10
-11.334281500000003
 20
216.99169950000001
 11
-10.886741499999999
 21
217.7668765
  0
LINE
  8
_0-0_0
  6
CONTINUOUS
 62
    7
 10
-11.334281500000003
 20
216.99169950000001
 11
-11.628410500000001
 21
216.4822695
  0
LINE
  8
_0-0_0
  6
CONTINUOUS
 62
    7
 10
-17.628410500000001
 20
213.8745725
 11
-16.145069499999977
 21
213.8745725
  0
LINE
  8
_0-0_0
  6
CONTINUOUS
 62
    7
 10
-22.145069499999977
 20
216.4822695
 11
-17.628410500000001
 21
213.8745725
  0
LINE
  8
_0-0_0
  6
CONTINUOUS
 62
    7
 10
-22.886737499999981
 20
222.9822695
 11
-22.886737499999981
 21
217.7668765
  0
LINE
  8
_0-0_0
  6
CONTINUOUS
 62
    7
 10
-22.145069499999977
 20
216.4822695
 11
-22.886737499999981
 21
217.7668765
  0
LINE
  8
_0-0_0
  6
CONTINUOUS
 62
    7
 10
-22.439193499999988
 20
223.7574305
 11
-22.886737499999981
 21
222.9822695
  0
LINE
  8
_0-0_0
  6
CONTINUOUS
 62
    7
 10
-22.439193499999988
 20
223.7574305
 11
-22.145069499999977
 21
224.2668765
  0
LINE
  8
_0-0_0
  6
CONTINUOUS
 62
    7
 10
-8.9997324999999933
 20
229.90000950000001
 11
-8.7216755000000035
 21
229.9245755
  0
LINE
  8
_0-0_0
  6
CONTINUOUS
 62
    7
 10
-8.8819734999999866
 20
229.6960445
 11
-8.7216755000000035
 21
229.9245755
  0
LINE
  8
_0-0_0
  6
CONTINUOUS
 62
    7
 10
-9.1381604999999979
 20
230.09054549999999
 11
-8.8641964999999914
 21
230.14402749999999
  0
LINE
  8
_0-0_0
  6
CONTINUOUS
 62
    7
 10
-8.9997324999999933
 20
229.90000950000001
 11
-8.8641964999999914
 21
230.14402749999999
  0
LINE
  8
_0-0_0
  6
CONTINUOUS
 62
    7
 10
-9.2957494999999994
 20
230.26556350000001
 11
-9.028877499999993
 21
230.3473965
  0
LINE
  8
_0-0_0
  6
CONTINUOUS
 62
    7
 10
-9.1381604999999979
 20
230.09054549999999
 11
-9.028877499999993
 21
230.3473965
  0
LINE
  8
_0-0_0
  6
CONTINUOUS
 62
    7
 10
-9.4707674999999938
 20
230.4231565
 11
-9.2139124999999922
 21
230.53244050000001
  0
LINE
  8
_0-0_0
  6
CONTINUOUS
 62
    7
 10
-9.2957494999999994
 20
230.26556350000001
 11
-9.2139124999999922
 21
230.53244050000001
  0
LINE
  8
_0-0_0
  6
CONTINUOUS
 62
    7
 10
-9.6613004999999816
 20
230.56158450000001
 11
-9.4172744999999907
 21
230.6971125
  0
LINE
  8
_0-0_0
  6
CONTINUOUS
 62
    7
 10
-9.4707674999999938
 20
230.4231565
 11
-9.4172744999999907
 21
230.6971125
  0
LINE
  8
_0-0_0
  6
CONTINUOUS
 62
    7
 10
-9.8652615000000026
 20
230.67933650000001
 11
-9.6367414999999994
 21
230.8396305
  0
LINE
  8
_0-0_0
  6
CONTINUOUS
 62
    7
 10
-9.6613004999999816
 20
230.56158450000001
 11
-9.6367414999999994
 21
230.8396305
  0
LINE
  8
_0-0_0
  6
CONTINUOUS
 62
    7
 10
-10.080413499999992
 20
230.77513150000001
 11
-9.8698954999999842
 21
230.95843450000001
  0
LINE
  8
_0-0_0
  6
CONTINUOUS
 62
    7
 10
-9.8652615000000026
 20
230.67933650000001
 11
-9.8698954999999842
 21
230.95843450000001
  0
LINE
  8
_0-0_0
  6
CONTINUOUS
 62
    7
 10
-10.304397499999993
 20
230.84790050000001
 11
-10.114196499999991
 21
231.05221549999999
  0
LINE
  8
_0-0_0
  6
CONTINUOUS
 62
    7
 10
-10.080413499999992
 20
230.77513150000001
 11
-10.114196499999991
 21
231.05221549999999
  0
LINE
  8
_0-0_0
  6
CONTINUOUS
 62
    7
 10
-10.534759500000007
 20
230.89686549999999
 11
-10.36695850000001
 21
231.1199335
  0
LINE
  8
_0-0_0
  6
CONTINUOUS
 62
    7
 10
-10.304397499999993
 20
230.84790050000001
 11
-10.36695850000001
 21
231.1199335
  0
LINE
  8
_0-0_0
  6
CONTINUOUS
 62
    7
 10
-10.768981499999995
 20
230.9214935
 11
-10.625419499999992
 21
231.16087350000001
  0
LINE
  8
_0-0_0
  6
CONTINUOUS
 62
    7
 10
-10.534759500000007
 20
230.89686549999999
 11
-10.625419499999992
 21
231.16087350000001
  0
LINE
  8
_0-0_0
  6
CONTINUOUS
 62
    7
 10
-11.004493499999995
 20
230.9214935
 11
-10.886741499999999
 21
231.1745755
  0
LINE
  8
_0-0_0
  6
CONTINUOUS
 62
    7
 10
-10.768981499999995
 20
230.9214935
 11
-10.886741499999999
 21
231.1745755
  0
LINE
  8
_0-0_0
  6
CONTINUOUS
 62
    7
 10
-11.23871650000001
 20
230.89686549999999
 11
-11.148059499999988
 21
231.16087350000001
  0
LINE
  8
_0-0_0
  6
CONTINUOUS
 62
    7
 10
-11.004493499999995
 20
230.9214935
 11
-11.148059499999988
 21
231.16087350000001
  0
LINE
  8
_0-0_0
  6
CONTINUOUS
 62
    7
 10
-11.469081499999987
 20
230.84790050000001
 11
-11.406516500000009
 21
231.1199335
  0
LINE
  8
_0-0_0
  6
CONTINUOUS
 62
    7
 10
-11.23871650000001
 20
230.89686549999999
 11
-11.406516500000009
 21
231.1199335
  0
LINE
  8
_0-0_0
  6
CONTINUOUS
 62
    7
 10
-11.693069499999979
 20
230.77513150000001
 11
-11.659278499999999
 21
231.05221549999999
  0
LINE
  8
_0-0_0
  6
CONTINUOUS
 62
    7
 10
-11.469081499999987
 20
230.84790050000001
 11
-11.659278499999999
 21
231.05221549999999
  0
LINE
  8
_0-0_0
  6
CONTINUOUS
 62
    7
 10
-11.908218500000004
 20
230.67933650000001
 11
-11.903579499999978
 21
230.95843450000001
  0
LINE
  8
_0-0_0
  6
CONTINUOUS
 62
    7
 10
-11.693069499999979
 20
230.77513150000001
 11
-11.903579499999978
 21
230.95843450000001
  0
LINE
  8
_0-0_0
  6
CONTINUOUS
 62
    7
 10
-12.027755499999984
 20
230.7631835
 11
-12.136741499999999
 21
230.8396305
  0
LINE
  8
_0-0_0
  6
CONTINUOUS
 62
    7
 10
-11.908218500000004
 20
230.67933650000001
 11
-12.027755499999984
 21
230.7631835
  0
LINE
  8
_0-0_0
  6
CONTINUOUS
 62
    7
 10
-12.112174499999981
 20
230.56158450000001
 11
-12.136741499999999
 21
230.8396305
  0
LINE
  8
_0-0_0
  6
CONTINUOUS
 62
    7
 10
-12.302711499999987
 20
230.4231565
 11
-12.356201499999997
 21
230.6971125
  0
LINE
  8
_0-0_0
  6
CONTINUOUS
 62
    7
 10
-12.112174499999981
 20
230.56158450000001
 11
-12.356201499999997
 21
230.6971125
  0
LINE
  8
_0-0_0
  6
CONTINUOUS
 62
    7
 10
-12.477729500000009
 20
230.26556350000001
 11
-12.559566499999988
 21
230.53244050000001
  0
LINE
  8
_0-0_0
  6
CONTINUOUS
 62
    7
 10
-12.302711499999987
 20
230.4231565
 11
-12.559566499999988
 21
230.53244050000001
  0
LINE
  8
_0-0_0
  6
CONTINUOUS
 62
    7
 10
-12.635314499999993
 20
230.09054549999999
 11
-12.744598499999995
 21
230.3473965
  0
LINE
  8
_0-0_0
  6
CONTINUOUS
 62
    7
 10
-12.477729500000009
 20
230.26556350000001
 11
-12.744598499999995
 21
230.3473965
  0
LINE
  8
_0-0_0
  6
CONTINUOUS
 62
    7
 10
-12.773750500000006
 20
229.90000950000001
 11
-12.909278499999999
 21
230.14402749999999
  0
LINE
  8
_0-0_0
  6
CONTINUOUS
 62
    7
 10
-12.635314499999993
 20
230.09054549999999
 11
-12.909278499999999
 21
230.14402749999999
  0
LINE
  8
_0-0_0
  6
CONTINUOUS
 62
    7
 10
-12.891502500000001
 20
229.6960445
 11
-13.051803500000005
 21
229.9245755
  0
LINE
  8
_0-0_0
  6
CONTINUOUS
 62
    7
 10
-12.773750500000006
 20
229.90000950000001
 11
-13.051803500000005
 21
229.9245755
  0
LINE
  8
_0-0_0
  6
CONTINUOUS
 62
    7
 10
-12.987296499999985
 20
229.4808955
 11
-13.170600499999978
 21
229.6914065
  0
LINE
  8
_0-0_0
  6
CONTINUOUS
 62
    7
 10
-12.891502500000001
 20
229.6960445
 11
-13.170600499999978
 21
229.6914065
  0
LINE
  8
_0-0_0
  6
CONTINUOUS
 62
    7
 10
-13.060073499999987
 20
229.2569125
 11
-13.264381499999985
 21
229.4471125
  0
LINE
  8
_0-0_0
  6
CONTINUOUS
 62
    7
 10
-12.987296499999985
 20
229.4808955
 11
-13.264381499999985
 21
229.4471125
  0
LINE
  8
_0-0_0
  6
CONTINUOUS
 62
    7
 10
-13.109039499999994
 20
229.02655050000001
 11
-13.332107500000006
 21
229.19435150000001
  0
LINE
  8
_0-0_0
  6
CONTINUOUS
 62
    7
 10
-13.060073499999987
 20
229.2569125
 11
-13.332107500000006
 21
229.19435150000001
  0
LINE
  8
_0-0_0
  6
CONTINUOUS
 62
    7
 10
-13.109039499999994
 20
229.02655050000001
 11
-13.373042499999997
 21
228.93589750000001
  0
LINE
  8
_0-0_0
  6
CONTINUOUS
 62
    7
 10
-13.133655500000003
 20
228.7923275
 11
-13.373042499999997
 21
228.93589750000001
  0
LINE
  8
_0-0_0
  6
CONTINUOUS
 62
    7
 10
-13.133655500000003
 20
228.55680849999999
 11
-13.386741499999999
 21
228.6745755
  0
LINE
  8
_0-0_0
  6
CONTINUOUS
 62
    7
 10
-13.133655500000003
 20
228.7923275
 11
-13.386741499999999
 21
228.6745755
  0
LINE
  8
_0-0_0
  6
CONTINUOUS
 62
    7
 10
-13.109039499999994
 20
228.32260149999999
 11
-13.373042499999997
 21
228.4132535
  0
LINE
  8
_0-0_0
  6
CONTINUOUS
 62
    7
 10
-13.133655500000003
 20
228.55680849999999
 11
-13.373042499999997
 21
228.4132535
  0
LINE
  8
_0-0_0
  6
CONTINUOUS
 62
    7
 10
-13.060073499999987
 20
228.09222450000001
 11
-13.332107500000006
 21
228.1547855
  0
LINE
  8
_0-0_0
  6
CONTINUOUS
 62
    7
 10
-13.109039499999994
 20
228.32260149999999
 11
-13.332107500000006
 21
228.1547855
  0
LINE
  8
_0-0_0
  6
CONTINUOUS
 62
    7
 10
-12.987296499999985
 20
227.86824050000001
 11
-13.264381499999985
 21
227.90202350000001
  0
LINE
  8
_0-0_0
  6
CONTINUOUS
 62
    7
 10
-13.060073499999987
 20
228.09222450000001
 11
-13.264381499999985
 21
227.90202350000001
  0
LINE
  8
_0-0_0
  6
CONTINUOUS
 62
    7
 10
-12.891502500000001
 20
227.65309150000002
 11
-13.170600499999978
 21
227.65772950000002
  0
LINE
  8
_0-0_0
  6
CONTINUOUS
 62
    7
 10
-12.987296499999985
 20
227.86824050000001
 11
-13.170600499999978
 21
227.65772950000002
  0
LINE
  8
_0-0_0
  6
CONTINUOUS
 62
    7
 10
-12.773750500000006
 20
227.4491275
 11
-13.051803500000005
 21
227.4245755
  0
LINE
  8
_0-0_0
  6
CONTINUOUS
 62
    7
 10
-12.891502500000001
 20
227.65309150000002
 11
-13.051803500000005
 21
227.4245755
  0
LINE
  8
_0-0_0
  6
CONTINUOUS
 62
    7
 10
-12.635314499999993
 20
227.25860550000002
 11
-12.909278499999999
 21
227.20510849999999
  0
LINE
  8
_0-0_0
  6
CONTINUOUS
 62
    7
 10
-12.773750500000006
 20
227.4491275
 11
-12.909278499999999
 21
227.20510849999999
  0
LINE
  8
_0-0_0
  6
CONTINUOUS
 62
    7
 10
-12.477729500000009
 20
227.08358749999999
 11
-12.744598499999995
 21
227.00173950000001
  0
LINE
  8
_0-0_0
  6
CONTINUOUS
 62
    7
 10
-12.635314499999993
 20
227.25860550000002
 11
-12.744598499999995
 21
227.00173950000001
  0
LINE
  8
_0-0_0
  6
CONTINUOUS
 62
    7
 10
-12.302711499999987
 20
226.9259945
 11
-12.559566499999988
 21
226.8167115
  0
LINE
  8
_0-0_0
  6
CONTINUOUS
 62
    7
 10
-12.477729500000009
 20
227.08358749999999
 11
-12.559566499999988
 21
226.8167115
  0
LINE
  8
_0-0_0
  6
CONTINUOUS
 62
    7
 10
-12.112174499999981
 20
226.78756749999999
 11
-12.356201499999997
 21
226.65202350000001
  0
LINE
  8
_0-0_0
  6
CONTINUOUS
 62
    7
 10
-12.302711499999987
 20
226.9259945
 11
-12.356201499999997
 21
226.65202350000001
  0
LINE
  8
_0-0_0
  6
CONTINUOUS
 62
    7
 10
-11.908218500000004
 20
226.66979950000001
 11
-12.136741499999999
 21
226.50950650000001
  0
LINE
  8
_0-0_0
  6
CONTINUOUS
 62
    7
 10
-12.112174499999981
 20
226.78756749999999
 11
-12.136741499999999
 21
226.50950650000001
  0
LINE
  8
_0-0_0
  6
CONTINUOUS
 62
    7
 10
-11.693069499999979
 20
226.57402049999999
 11
-11.903579499999978
 21
226.39070150000001
  0
LINE
  8
_0-0_0
  6
CONTINUOUS
 62
    7
 10
-11.908218500000004
 20
226.66979950000001
 11
-11.903579499999978
 21
226.39070150000001
  0
LINE
  8
_0-0_0
  6
CONTINUOUS
 62
    7
 10
-11.469081499999987
 20
226.50123550000001
 11
-11.659278499999999
 21
226.29693549999999
  0
LINE
  8
_0-0_0
  6
CONTINUOUS
 62
    7
 10
-11.693069499999979
 20
226.57402049999999
 11
-11.659278499999999
 21
226.29693549999999
  0
LINE
  8
_0-0_0
  6
CONTINUOUS
 62
    7
 10
-11.23871650000001
 20
226.4522705
 11
-11.406516500000009
 21
226.22920250000001
  0
LINE
  8
_0-0_0
  6
CONTINUOUS
 62
    7
 10
-11.469081499999987
 20
226.50123550000001
 11
-11.406516500000009
 21
226.22920250000001
  0
LINE
  8
_0-0_0
  6
CONTINUOUS
 62
    7
 10
-11.004493499999995
 20
226.42765750000001
 11
-11.148059499999988
 21
226.18826250000001
  0
LINE
  8
_0-0_0
  6
CONTINUOUS
 62
    7
 10
-11.23871650000001
 20
226.4522705
 11
-11.148059499999988
 21
226.18826250000001
  0
LINE
  8
_0-0_0
  6
CONTINUOUS
 62
    7
 10
-10.768981499999995
 20
226.42765750000001
 11
-10.886741499999999
 21
226.1745755
  0
LINE
  8
_0-0_0
  6
CONTINUOUS
 62
    7
 10
-11.004493499999995
 20
226.42765750000001
 11
-10.886741499999999
 21
226.1745755
  0
LINE
  8
_0-0_0
  6
CONTINUOUS
 62
    7
 10
-10.534759500000007
 20
226.4522705
 11
-10.625419499999992
 21
226.18826250000001
  0
LINE
  8
_0-0_0
  6
CONTINUOUS
 62
    7
 10
-10.768981499999995
 20
226.42765750000001
 11
-10.625419499999992
 21
226.18826250000001
  0
LINE
  8
_0-0_0
  6
CONTINUOUS
 62
    7
 10
-10.304397499999993
 20
226.50123550000001
 11
-10.36695850000001
 21
226.22920250000001
  0
LINE
  8
_0-0_0
  6
CONTINUOUS
 62
    7
 10
-10.534759500000007
 20
226.4522705
 11
-10.36695850000001
 21
226.22920250000001
  0
LINE
  8
_0-0_0
  6
CONTINUOUS
 62
    7
 10
-10.080413499999992
 20
226.57402049999999
 11
-10.114196499999991
 21
226.29693549999999
  0
LINE
  8
_0-0_0
  6
CONTINUOUS
 62
    7
 10
-10.304397499999993
 20
226.50123550000001
 11
-10.114196499999991
 21
226.29693549999999
  0
LINE
  8
_0-0_0
  6
CONTINUOUS
 62
    7
 10
-9.8652615000000026
 20
226.66979950000001
 11
-9.8698954999999842
 21
226.39070150000001
  0
LINE
  8
_0-0_0
  6
CONTINUOUS
 62
    7
 10
-10.080413499999992
 20
226.57402049999999
 11
-9.8698954999999842
 21
226.39070150000001
  0
LINE
  8
_0-0_0
  6
CONTINUOUS
 62
    7
 10
-9.7457234999999969
 20
226.58595249999999
 11
-9.6367414999999994
 21
226.50950650000001
  0
LINE
  8
_0-0_0
  6
CONTINUOUS
 62
    7
 10
-9.8652615000000026
 20
226.66979950000001
 11
-9.7457234999999969
 21
226.58595249999999
  0
LINE
  8
_0-0_0
  6
CONTINUOUS
 62
    7
 10
-9.6613004999999816
 20
226.78756749999999
 11
-9.6367414999999994
 21
226.50950650000001
  0
LINE
  8
_0-0_0
  6
CONTINUOUS
 62
    7
 10
-9.4707674999999938
 20
226.9259945
 11
-9.4172744999999907
 21
226.65202350000001
  0
LINE
  8
_0-0_0
  6
CONTINUOUS
 62
    7
 10
-9.6613004999999816
 20
226.78756749999999
 11
-9.4172744999999907
 21
226.65202350000001
  0
LINE
  8
_0-0_0
  6
CONTINUOUS
 62
    7
 10
-9.2957494999999994
 20
227.08358749999999
 11
-9.2139124999999922
 21
226.8167115
  0
LINE
  8
_0-0_0
  6
CONTINUOUS
 62
    7
 10
-9.4707674999999938
 20
226.9259945
 11
-9.2139124999999922
 21
226.8167115
  0
LINE
  8
_0-0_0
  6
CONTINUOUS
 62
    7
 10
-9.1381604999999979
 20
227.25860550000002
 11
-9.028877499999993
 21
227.00173950000001
  0
LINE
  8
_0-0_0
  6
CONTINUOUS
 62
    7
 10
-9.2957494999999994
 20
227.08358749999999
 11
-9.028877499999993
 21
227.00173950000001
  0
LINE
  8
_0-0_0
  6
CONTINUOUS
 62
    7
 10
-8.9997324999999933
 20
227.4491275
 11
-8.8641964999999914
 21
227.20510849999999
  0
LINE
  8
_0-0_0
  6
CONTINUOUS
 62
    7
 10
-9.1381604999999979
 20
227.25860550000002
 11
-8.8641964999999914
 21
227.20510849999999
  0
LINE
  8
_0-0_0
  6
CONTINUOUS
 62
    7
 10
-8.8819734999999866
 20
227.65309150000002
 11
-8.7216755000000035
 21
227.4245755
  0
LINE
  8
_0-0_0
  6
CONTINUOUS
 62
    7
 10
-8.9997324999999933
 20
227.4491275
 11
-8.7216755000000035
 21
227.4245755
  0
LINE
  8
_0-0_0
  6
CONTINUOUS
 62
    7
 10
-8.7861824999999953
 20
227.86824050000001
 11
-8.6028744999999844
 21
227.65772950000002
  0
LINE
  8
_0-0_0
  6
CONTINUOUS
 62
    7
 10
-8.8819734999999866
 20
227.65309150000002
 11
-8.6028744999999844
 21
227.65772950000002
  0
LINE
  8
_0-0_0
  6
CONTINUOUS
 62
    7
 10
-8.7134054999999933
 20
228.09222450000001
 11
-8.5090974999999958
 21
227.90202350000001
  0
LINE
  8
_0-0_0
  6
CONTINUOUS
 62
    7
 10
-8.7861824999999953
 20
227.86824050000001
 11
-8.5090974999999958
 21
227.90202350000001
  0
LINE
  8
_0-0_0
  6
CONTINUOUS
 62
    7
 10
-8.6644404999999836
 20
228.32260149999999
 11
-8.44136850000001
 21
228.1547855
  0
LINE
  8
_0-0_0
  6
CONTINUOUS
 62
    7
 10
-8.7134054999999933
 20
228.09222450000001
 11
-8.44136850000001
 21
228.1547855
  0
LINE
  8
_0-0_0
  6
CONTINUOUS
 62
    7
 10
-8.6398234999999772
 20
228.55680849999999
 11
-8.4004364999999837
 21
228.4132535
  0
LINE
  8
_0-0_0
  6
CONTINUOUS
 62
    7
 10
-8.6644404999999836
 20
228.32260149999999
 11
-8.4004364999999837
 21
228.4132535
  0
LINE
  8
_0-0_0
  6
CONTINUOUS
 62
    7
 10
-8.6398234999999772
 20
228.7923275
 11
-8.3867414999999994
 21
228.6745755
  0
LINE
  8
_0-0_0
  6
CONTINUOUS
 62
    7
 10
-8.6398234999999772
 20
228.55680849999999
 11
-8.3867414999999994
 21
228.6745755
  0
LINE
  8
_0-0_0
  6
CONTINUOUS
 62
    7
 10
-8.6644404999999836
 20
229.02655050000001
 11
-8.4004364999999837
 21
228.93589750000001
  0
LINE
  8
_0-0_0
  6
CONTINUOUS
 62
    7
 10
-8.6398234999999772
 20
228.7923275
 11
-8.4004364999999837
 21
228.93589750000001
  0
LINE
  8
_0-0_0
  6
CONTINUOUS
 62
    7
 10
-8.7134054999999933
 20
229.2569125
 11
-8.44136850000001
 21
229.19435150000001
  0
LINE
  8
_0-0_0
  6
CONTINUOUS
 62
    7
 10
-8.6644404999999836
 20
229.02655050000001
 11
-8.44136850000001
 21
229.19435150000001
  0
LINE
  8
_0-0_0
  6
CONTINUOUS
 62
    7
 10
-8.7861824999999953
 20
229.4808955
 11
-8.5090974999999958
 21
229.4471125
  0
LINE
  8
_0-0_0
  6
CONTINUOUS
 62
    7
 10
-8.7134054999999933
 20
229.2569125
 11
-8.5090974999999958
 21
229.4471125
  0
LINE
  8
_0-0_0
  6
CONTINUOUS
 62
    7
 10
-8.8819734999999866
 20
229.6960445
 11
-8.6028744999999844
 21
229.6914065
  0
LINE
  8
_0-0_0
  6
CONTINUOUS
 62
    7
 10
-8.7861824999999953
 20
229.4808955
 11
-8.6028744999999844
 21
229.6914065
  0
CIRCLE
  8
_0-0_0
  6
CONTINUOUS
 62
    7
 10
-16.886737499999981
 20
220.3745725
 40
5.25
  0
LINE
  8
_0-0_0
  6
CONTINUOUS
 62
    7
 10
-20.999729500000001
 20
213.30000250000001
 11
-20.721675500000003
 21
213.3245695
  0
LINE
  8
_0-0_0
  6
CONTINUOUS
 62
    7
 10
-20.881973499999987
 20
213.09605350000001
 11
-20.721675500000003
 21
213.3245695
  0
LINE
  8
_0-0_0
  6
CONTINUOUS
 62
    7
 10
-21.138160499999998
 20
213.49053950000001
 11
-20.864196499999991
 21
213.5440365
  0
LINE
  8
_0-0_0
  6
CONTINUOUS
 62
    7
 10
-20.999729500000001
 20
213.30000250000001
 11
-20.864196499999991
 21
213.5440365
  0
LINE
  8
_0-0_0
  6
CONTINUOUS
 62
    7
 10
-21.295749499999999
 20
213.66555750000001
 11
-21.028877499999993
 21
213.74740550000001
  0
LINE
  8
_0-0_0
  6
CONTINUOUS
 62
    7
 10
-21.138160499999998
 20
213.49053950000001
 11
-21.028877499999993
 21
213.74740550000001
  0
LINE
  8
_0-0_0
  6
CONTINUOUS
 62
    7
 10
-21.470767499999994
 20
213.8231505
 11
-21.213912499999992
 21
213.9324335
  0
LINE
  8
_0-0_0
  6
CONTINUOUS
 62
    7
 10
-21.295749499999999
 20
213.66555750000001
 11
-21.213912499999992
 21
213.9324335
  0
LINE
  8
_0-0_0
  6
CONTINUOUS
 62
    7
 10
-21.661300499999982
 20
213.9615785
 11
-21.417278500000009
 21
214.0971065
  0
LINE
  8
_0-0_0
  6
CONTINUOUS
 62
    7
 10
-21.470767499999994
 20
213.8231505
 11
-21.417278500000009
 21
214.0971065
  0
LINE
  8
_0-0_0
  6
CONTINUOUS
 62
    7
 10
-21.865261500000003
 20
214.0793305
 11
-21.636737499999981
 21
214.23963950000001
  0
LINE
  8
_0-0_0
  6
CONTINUOUS
 62
    7
 10
-21.661300499999982
 20
213.9615785
 11
-21.636737499999981
 21
214.23963950000001
  0
LINE
  8
_0-0_0
  6
CONTINUOUS
 62
    7
 10
-22.080409500000002
 20
214.17512550000001
 11
-21.869895499999984
 21
214.3584285
  0
LINE
  8
_0-0_0
  6
CONTINUOUS
 62
    7
 10
-21.865261500000003
 20
214.0793305
 11
-21.869895499999984
 21
214.3584285
  0
LINE
  8
_0-0_0
  6
CONTINUOUS
 62
    7
 10
-22.304397499999993
 20
214.24790949999999
 11
-22.114196499999991
 21
214.45220950000001
  0
LINE
  8
_0-0_0
  6
CONTINUOUS
 62
    7
 10
-22.080409500000002
 20
214.17512550000001
 11
-22.114196499999991
 21
214.45220950000001
  0
LINE
  8
_0-0_0
  6
CONTINUOUS
 62
    7
 10
-22.534763499999997
 20
214.2968745
 11
-22.36695850000001
 21
214.51994350000001
  0
LINE
  8
_0-0_0
  6
CONTINUOUS
 62
    7
 10
-22.304397499999993
 20
214.24790949999999
 11
-22.36695850000001
 21
214.51994350000001
  0
LINE
  8
_0-0_0
  6
CONTINUOUS
 62
    7
 10
-22.768981499999995
 20
214.32148749999999
 11
-22.625419499999992
 21
214.56088249999999
  0
LINE
  8
_0-0_0
  6
CONTINUOUS
 62
    7
 10
-22.534763499999997
 20
214.2968745
 11
-22.625419499999992
 21
214.56088249999999
  0
LINE
  8
_0-0_0
  6
CONTINUOUS
 62
    7
 10
-23.004493499999995
 20
214.32148749999999
 11
-22.886737499999981
 21
214.5745695
  0
LINE
  8
_0-0_0
  6
CONTINUOUS
 62
    7
 10
-22.768981499999995
 20
214.32148749999999
 11
-22.886737499999981
 21
214.5745695
  0
LINE
  8
_0-0_0
  6
CONTINUOUS
 62
    7
 10
-23.23871650000001
 20
214.2968745
 11
-23.148059499999988
 21
214.56088249999999
  0
LINE
  8
_0-0_0
  6
CONTINUOUS
 62
    7
 10
-23.004493499999995
 20
214.32148749999999
 11
-23.148059499999988
 21
214.56088249999999
  0
LINE
  8
_0-0_0
  6
CONTINUOUS
 62
    7
 10
-23.469081499999987
 20
214.24790949999999
 11
-23.406516500000009
 21
214.51994350000001
  0
LINE
  8
_0-0_0
  6
CONTINUOUS
 62
    7
 10
-23.23871650000001
 20
214.2968745
 11
-23.406516500000009
 21
214.51994350000001
  0
LINE
  8
_0-0_0
  6
CONTINUOUS
 62
    7
 10
-23.693065499999989
 20
214.17512550000001
 11
-23.659278499999999
 21
214.45220950000001
  0
LINE
  8
_0-0_0
  6
CONTINUOUS
 62
    7
 10
-23.469081499999987
 20
214.24790949999999
 11
-23.659278499999999
 21
214.45220950000001
  0
LINE
  8
_0-0_0
  6
CONTINUOUS
 62
    7
 10
-23.908218500000004
 20
214.0793305
 11
-23.903579499999978
 21
214.3584285
  0
LINE
  8
_0-0_0
  6
CONTINUOUS
 62
    7
 10
-23.693065499999989
 20
214.17512550000001
 11
-23.903579499999978
 21
214.3584285
  0
LINE
  8
_0-0_0
  6
CONTINUOUS
 62
    7
 10
-24.027755499999984
 20
214.16319250000001
 11
-24.136737499999981
 21
214.23963950000001
  0
LINE
  8
_0-0_0
  6
CONTINUOUS
 62
    7
 10
-23.908218500000004
 20
214.0793305
 11
-24.027755499999984
 21
214.16319250000001
  0
LINE
  8
_0-0_0
  6
CONTINUOUS
 62
    7
 10
-24.112174499999981
 20
213.9615785
 11
-24.136737499999981
 21
214.23963950000001
  0
LINE
  8
_0-0_0
  6
CONTINUOUS
 62
    7
 10
-24.302711499999987
 20
213.8231505
 11
-24.356201499999997
 21
214.0971065
  0
LINE
  8
_0-0_0
  6
CONTINUOUS
 62
    7
 10
-24.112174499999981
 20
213.9615785
 11
-24.356201499999997
 21
214.0971065
  0
LINE
  8
_0-0_0
  6
CONTINUOUS
 62
    7
 10
-24.477729500000009
 20
213.66555750000001
 11
-24.559566499999988
 21
213.9324335
  0
LINE
  8
_0-0_0
  6
CONTINUOUS
 62
    7
 10
-24.302711499999987
 20
213.8231505
 11
-24.559566499999988
 21
213.9324335
  0
LINE
  8
_0-0_0
  6
CONTINUOUS
 62
    7
 10
-24.635314499999993
 20
213.49053950000001
 11
-24.744602499999985
 21
213.74740550000001
  0
LINE
  8
_0-0_0
  6
CONTINUOUS
 62
    7
 10
-24.477729500000009
 20
213.66555750000001
 11
-24.744602499999985
 21
213.74740550000001
  0
LINE
  8
_0-0_0
  6
CONTINUOUS
 62
    7
 10
-24.773746499999987
 20
213.30000250000001
 11
-24.909282499999989
 21
213.5440365
  0
LINE
  8
_0-0_0
  6
CONTINUOUS
 62
    7
 10
-24.635314499999993
 20
213.49053950000001
 11
-24.909282499999989
 21
213.5440365
  0
LINE
  8
_0-0_0
  6
CONTINUOUS
 62
    7
 10
-24.891502500000001
 20
213.09605350000001
 11
-25.051803500000005
 21
213.3245695
  0
LINE
  8
_0-0_0
  6
CONTINUOUS
 62
    7
 10
-24.773746499999987
 20
213.30000250000001
 11
-25.051803500000005
 21
213.3245695
  0
LINE
  8
_0-0_0
  6
CONTINUOUS
 62
    7
 10
-24.987293499999993
 20
212.88090550000001
 11
-25.170600499999978
 21
213.09141550000001
  0
LINE
  8
_0-0_0
  6
CONTINUOUS
 62
    7
 10
-24.891502500000001
 20
213.09605350000001
 11
-25.170600499999978
 21
213.09141550000001
  0
LINE
  8
_0-0_0
  6
CONTINUOUS
 62
    7
 10
-25.060073499999987
 20
212.65692150000001
 11
-25.264381499999985
 21
212.8471065
  0
LINE
  8
_0-0_0
  6
CONTINUOUS
 62
    7
 10
-24.987293499999993
 20
212.88090550000001
 11
-25.264381499999985
 21
212.8471065
  0
LINE
  8
_0-0_0
  6
CONTINUOUS
 62
    7
 10
-25.109039499999994
 20
212.42654450000001
 11
-25.332107500000006
 21
212.59434450000001
  0
LINE
  8
_0-0_0
  6
CONTINUOUS
 62
    7
 10
-25.060073499999987
 20
212.65692150000001
 11
-25.332107500000006
 21
212.59434450000001
  0
LINE
  8
_0-0_0
  6
CONTINUOUS
 62
    7
 10
-25.109039499999994
 20
212.42654450000001
 11
-25.373042499999997
 21
212.3358915
  0
LINE
  8
_0-0_0
  6
CONTINUOUS
 62
    7
 10
-25.133655500000003
 20
212.19232149999999
 11
-25.373042499999997
 21
212.3358915
  0
LINE
  8
_0-0_0
  6
CONTINUOUS
 62
    7
 10
-25.133655500000003
 20
211.9568175
 11
-25.386737499999981
 21
212.0745695
  0
LINE
  8
_0-0_0
  6
CONTINUOUS
 62
    7
 10
-25.133655500000003
 20
212.19232149999999
 11
-25.386737499999981
 21
212.0745695
  0
LINE
  8
_0-0_0
  6
CONTINUOUS
 62
    7
 10
-25.109039499999994
 20
211.72259550000001
 11
-25.373042499999997
 21
211.81324749999999
  0
LINE
  8
_0-0_0
  6
CONTINUOUS
 62
    7
 10
-25.133655500000003
 20
211.9568175
 11
-25.373042499999997
 21
211.81324749999999
  0
LINE
  8
_0-0_0
  6
CONTINUOUS
 62
    7
 10
-25.060073499999987
 20
211.4922335
 11
-25.332107500000006
 21
211.55479450000001
  0
LINE
  8
_0-0_0
  6
CONTINUOUS
 62
    7
 10
-25.109039499999994
 20
211.72259550000001
 11
-25.332107500000006
 21
211.55479450000001
  0
LINE
  8
_0-0_0
  6
CONTINUOUS
 62
    7
 10
-24.987293499999993
 20
211.26823450000001
 11
-25.264381499999985
 21
211.3020325
  0
LINE
  8
_0-0_0
  6
CONTINUOUS
 62
    7
 10
-25.060073499999987
 20
211.4922335
 11
-25.264381499999985
 21
211.3020325
  0
LINE
  8
_0-0_0
  6
CONTINUOUS
 62
    7
 10
-24.891502500000001
 20
211.05308550000001
 11
-25.170600499999978
 21
211.05772350000001
  0
LINE
  8
_0-0_0
  6
CONTINUOUS
 62
    7
 10
-24.987293499999993
 20
211.26823450000001
 11
-25.170600499999978
 21
211.05772350000001
  0
LINE
  8
_0-0_0
  6
CONTINUOUS
 62
    7
 10
-24.773746499999987
 20
210.84913650000001
 11
-25.051803500000005
 21
210.8245695
  0
LINE
  8
_0-0_0
  6
CONTINUOUS
 62
    7
 10
-24.891502500000001
 20
211.05308550000001
 11
-25.051803500000005
 21
210.8245695
  0
LINE
  8
_0-0_0
  6
CONTINUOUS
 62
    7
 10
-24.635314499999993
 20
210.65859950000001
 11
-24.909282499999989
 21
210.60510250000002
  0
LINE
  8
_0-0_0
  6
CONTINUOUS
 62
    7
 10
-24.773746499999987
 20
210.84913650000001
 11
-24.909282499999989
 21
210.60510250000002
  0
LINE
  8
_0-0_0
  6
CONTINUOUS
 62
    7
 10
-24.477729500000009
 20
210.48358150000001
 11
-24.744602499999985
 21
210.4017485
  0
LINE
  8
_0-0_0
  6
CONTINUOUS
 62
    7
 10
-24.635314499999993
 20
210.65859950000001
 11
-24.744602499999985
 21
210.4017485
  0
LINE
  8
_0-0_0
  6
CONTINUOUS
 62
    7
 10
-24.302711499999987
 20
210.32598849999999
 11
-24.559566499999988
 21
210.21670549999999
  0
LINE
  8
_0-0_0
  6
CONTINUOUS
 62
    7
 10
-24.477729500000009
 20
210.48358150000001
 11
-24.559566499999988
 21
210.21670549999999
  0
LINE
  8
_0-0_0
  6
CONTINUOUS
 62
    7
 10
-24.112174499999981
 20
210.18756049999999
 11
-24.356201499999997
 21
210.0520325
  0
LINE
  8
_0-0_0
  6
CONTINUOUS
 62
    7
 10
-24.302711499999987
 20
210.32598849999999
 11
-24.356201499999997
 21
210.0520325
  0
LINE
  8
_0-0_0
  6
CONTINUOUS
 62
    7
 10
-23.908218500000004
 20
210.06980849999999
 11
-24.136737499999981
 21
209.9095155
  0
LINE
  8
_0-0_0
  6
CONTINUOUS
 62
    7
 10
-24.112174499999981
 20
210.18756049999999
 11
-24.136737499999981
 21
209.9095155
  0
LINE
  8
_0-0_0
  6
CONTINUOUS
 62
    7
 10
-23.693065499999989
 20
209.97401450000001
 11
-23.903579499999978
 21
209.79071049999999
  0
LINE
  8
_0-0_0
  6
CONTINUOUS
 62
    7
 10
-23.908218500000004
 20
210.06980849999999
 11
-23.903579499999978
 21
209.79071049999999
  0
LINE
  8
_0-0_0
  6
CONTINUOUS
 62
    7
 10
-23.469081499999987
 20
209.90124449999999
 11
-23.659278499999999
 21
209.69692950000001
  0
LINE
  8
_0-0_0
  6
CONTINUOUS
 62
    7
 10
-23.693065499999989
 20
209.97401450000001
 11
-23.659278499999999
 21
209.69692950000001
  0
LINE
  8
_0-0_0
  6
CONTINUOUS
 62
    7
 10
-23.23871650000001
 20
209.85226449999999
 11
-23.406516500000009
 21
209.6292115
  0
LINE
  8
_0-0_0
  6
CONTINUOUS
 62
    7
 10
-23.469081499999987
 20
209.90124449999999
 11
-23.406516500000009
 21
209.6292115
  0
LINE
  8
_0-0_0
  6
CONTINUOUS
 62
    7
 10
-23.004493499999995
 20
209.8276515
 11
-23.148059499999988
 21
209.58827149999999
  0
LINE
  8
_0-0_0
  6
CONTINUOUS
 62
    7
 10
-23.23871650000001
 20
209.85226449999999
 11
-23.148059499999988
 21
209.58827149999999
  0
LINE
  8
_0-0_0
  6
CONTINUOUS
 62
    7
 10
-22.768981499999995
 20
209.8276515
 11
-22.886737499999981
 21
209.5745695
  0
LINE
  8
_0-0_0
  6
CONTINUOUS
 62
    7
 10
-23.004493499999995
 20
209.8276515
 11
-22.886737499999981
 21
209.5745695
  0
LINE
  8
_0-0_0
  6
CONTINUOUS
 62
    7
 10
-22.534763499999997
 20
209.85226449999999
 11
-22.625419499999992
 21
209.58827149999999
  0
LINE
  8
_0-0_0
  6
CONTINUOUS
 62
    7
 10
-22.768981499999995
 20
209.8276515
 11
-22.625419499999992
 21
209.58827149999999
  0
LINE
  8
_0-0_0
  6
CONTINUOUS
 62
    7
 10
-22.304397499999993
 20
209.90124449999999
 11
-22.36695850000001
 21
209.6292115
  0
LINE
  8
_0-0_0
  6
CONTINUOUS
 62
    7
 10
-22.534763499999997
 20
209.85226449999999
 11
-22.36695850000001
 21
209.6292115
  0
LINE
  8
_0-0_0
  6
CONTINUOUS
 62
    7
 10
-22.080409500000002
 20
209.97401450000001
 11
-22.114196499999991
 21
209.69692950000001
  0
LINE
  8
_0-0_0
  6
CONTINUOUS
 62
    7
 10
-22.304397499999993
 20
209.90124449999999
 11
-22.114196499999991
 21
209.69692950000001
  0
LINE
  8
_0-0_0
  6
CONTINUOUS
 62
    7
 10
-21.865261500000003
 20
210.06980849999999
 11
-21.869895499999984
 21
209.79071049999999
  0
LINE
  8
_0-0_0
  6
CONTINUOUS
 62
    7
 10
-22.080409500000002
 20
209.97401450000001
 11
-21.869895499999984
 21
209.79071049999999
  0
LINE
  8
_0-0_0
  6
CONTINUOUS
 62
    7
 10
-21.745723499999997
 20
209.9859615
 11
-21.636737499999981
 21
209.9095155
  0
LINE
  8
_0-0_0
  6
CONTINUOUS
 62
    7
 10
-21.865261500000003
 20
210.06980849999999
 11
-21.745723499999997
 21
209.9859615
  0
LINE
  8
_0-0_0
  6
CONTINUOUS
 62
    7
 10
-21.661300499999982
 20
210.18756049999999
 11
-21.636737499999981
 21
209.9095155
  0
LINE
  8
_0-0_0
  6
CONTINUOUS
 62
    7
 10
-21.470767499999994
 20
210.32598849999999
 11
-21.417278500000009
 21
210.0520325
  0
LINE
  8
_0-0_0
  6
CONTINUOUS
 62
    7
 10
-21.661300499999982
 20
210.18756049999999
 11
-21.417278500000009
 21
210.0520325
  0
LINE
  8
_0-0_0
  6
CONTINUOUS
 62
    7
 10
-21.295749499999999
 20
210.48358150000001
 11
-21.213912499999992
 21
210.21670549999999
  0
LINE
  8
_0-0_0
  6
CONTINUOUS
 62
    7
 10
-21.470767499999994
 20
210.32598849999999
 11
-21.213912499999992
 21
210.21670549999999
  0
LINE
  8
_0-0_0
  6
CONTINUOUS
 62
    7
 10
-21.138160499999998
 20
210.65859950000001
 11
-21.028877499999993
 21
210.4017485
  0
LINE
  8
_0-0_0
  6
CONTINUOUS
 62
    7
 10
-21.295749499999999
 20
210.48358150000001
 11
-21.028877499999993
 21
210.4017485
  0
LINE
  8
_0-0_0
  6
CONTINUOUS
 62
    7
 10
-20.999729500000001
 20
210.84913650000001
 11
-20.864196499999991
 21
210.60510250000002
  0
LINE
  8
_0-0_0
  6
CONTINUOUS
 62
    7
 10
-21.138160499999998
 20
210.65859950000001
 11
-20.864196499999991
 21
210.60510250000002
  0
LINE
  8
_0-0_0
  6
CONTINUOUS
 62
    7
 10
-20.881973499999987
 20
211.05308550000001
 11
-20.721675500000003
 21
210.8245695
  0
LINE
  8
_0-0_0
  6
CONTINUOUS
 62
    7
 10
-20.999729500000001
 20
210.84913650000001
 11
-20.721675500000003
 21
210.8245695
  0
LINE
  8
_0-0_0
  6
CONTINUOUS
 62
    7
 10
-20.786182499999995
 20
211.26823450000001
 11
-20.602874499999984
 21
211.05772350000001
  0
LINE
  8
_0-0_0
  6
CONTINUOUS
 62
    7
 10
-20.881973499999987
 20
211.05308550000001
 11
-20.602874499999984
 21
211.05772350000001
  0
LINE
  8
_0-0_0
  6
CONTINUOUS
 62
    7
 10
-20.713405499999993
 20
211.4922335
 11
-20.509097499999996
 21
211.3020325
  0
LINE
  8
_0-0_0
  6
CONTINUOUS
 62
    7
 10
-20.786182499999995
 20
211.26823450000001
 11
-20.509097499999996
 21
211.3020325
  0
LINE
  8
_0-0_0
  6
CONTINUOUS
 62
    7
 10
-20.664440499999984
 20
211.72259550000001
 11
-20.44136850000001
 21
211.55479450000001
  0
LINE
  8
_0-0_0
  6
CONTINUOUS
 62
    7
 10
-20.713405499999993
 20
211.4922335
 11
-20.44136850000001
 21
211.55479450000001
  0
LINE
  8
_0-0_0
  6
CONTINUOUS
 62
    7
 10
-20.639823499999977
 20
211.9568175
 11
-20.400436499999984
 21
211.81324749999999
  0
LINE
  8
_0-0_0
  6
CONTINUOUS
 62
    7
 10
-20.664440499999984
 20
211.72259550000001
 11
-20.400436499999984
 21
211.81324749999999
  0
LINE
  8
_0-0_0
  6
CONTINUOUS
 62
    7
 10
-20.639823499999977
 20
212.19232149999999
 11
-20.386737499999981
 21
212.0745695
  0
LINE
  8
_0-0_0
  6
CONTINUOUS
 62
    7
 10
-20.639823499999977
 20
211.9568175
 11
-20.386737499999981
 21
212.0745695
  0
LINE
  8
_0-0_0
  6
CONTINUOUS
 62
    7
 10
-20.664440499999984
 20
212.42654450000001
 11
-20.400436499999984
 21
212.3358915
  0
LINE
  8
_0-0_0
  6
CONTINUOUS
 62
    7
 10
-20.639823499999977
 20
212.19232149999999
 11
-20.400436499999984
 21
212.3358915
  0
LINE
  8
_0-0_0
  6
CONTINUOUS
 62
    7
 10
-20.713405499999993
 20
212.65692150000001
 11
-20.44136850000001
 21
212.59434450000001
  0
LINE
  8
_0-0_0
  6
CONTINUOUS
 62
    7
 10
-20.664440499999984
 20
212.42654450000001
 11
-20.44136850000001
 21
212.59434450000001
  0
LINE
  8
_0-0_0
  6
CONTINUOUS
 62
    7
 10
-20.786182499999995
 20
212.88090550000001
 11
-20.509097499999996
 21
212.8471065
  0
LINE
  8
_0-0_0
  6
CONTINUOUS
 62
    7
 10
-20.713405499999993
 20
212.65692150000001
 11
-20.509097499999996
 21
212.8471065
  0
LINE
  8
_0-0_0
  6
CONTINUOUS
 62
    7
 10
-20.881973499999987
 20
213.09605350000001
 11
-20.602874499999984
 21
213.09141550000001
  0
LINE
  8
_0-0_0
  6
CONTINUOUS
 62
    7
 10
-20.786182499999995
 20
212.88090550000001
 11
-20.602874499999984
 21
213.09141550000001
  0
CIRCLE
  8
_0-0_0
  6
CONTINUOUS
 62
    7
 10
-10.886741499999999
 20
228.6745755
 40
2
  0
CIRCLE
  8
_0-0_0
  6
CONTINUOUS
 62
    7
 10
-22.886737499999981
 20
212.0745695
 40
2
  0
LINE
  8
_0-0_0
  6
CONTINUOUS
 62
    7
 10
-10.304630500000002
 20
227.6745755
 11
-11.468849499999976
 21
227.6745755
  0
LINE
  8
_0-0_0
  6
CONTINUOUS
 62
    7
 10
-11.468849499999976
 20
227.6745755
 11
-12.03673950000001
 21
228.6745755
  0
LINE
  8
_0-0_0
  6
CONTINUOUS
 62
    7
 10
-12.03673950000001
 20
228.6745755
 11
-11.468849499999976
 21
229.6745755
  0
LINE
  8
_0-0_0
  6
CONTINUOUS
 62
    7
 10
-11.468849499999976
 20
229.6745755
 11
-10.304630500000002
 21
229.6745755
  0
LINE
  8
_0-0_0
  6
CONTINUOUS
 62
    7
 10
-10.304630500000002
 20
229.6745755
 11
-9.7367404999999962
 21
228.6745755
  0
LINE
  8
_0-0_0
  6
CONTINUOUS
 62
    7
 10
-9.7367404999999962
 20
228.6745755
 11
-10.304630500000002
 21
227.6745755
  0
CIRCLE
  8
_0-0_0
  6
CONTINUOUS
 62
    7
 10
-16.886737499999981
 20
220.3745725
 40
5
  0
LINE
  8
_0-0_0
  6
CONTINUOUS
 62
    7
 10
-22.304630500000002
 20
211.0745695
 11
-23.468849499999976
 21
211.0745695
  0
LINE
  8
_0-0_0
  6
CONTINUOUS
 62
    7
 10
-23.468849499999976
 20
211.0745695
 11
-24.03673950000001
 21
212.0745695
  0
LINE
  8
_0-0_0
  6
CONTINUOUS
 62
    7
 10
-24.03673950000001
 20
212.0745695
 11
-23.468849499999976
 21
213.0745695
  0
LINE
  8
_0-0_0
  6
CONTINUOUS
 62
    7
 10
-23.468849499999976
 20
213.0745695
 11
-22.304630500000002
 21
213.0745695
  0
LINE
  8
_0-0_0
  6
CONTINUOUS
 62
    7
 10
-22.304630500000002
 20
213.0745695
 11
-21.736740499999996
 21
212.0745695
  0
LINE
  8
_0-0_0
  6
CONTINUOUS
 62
    7
 10
-21.736740499999996
 20
212.0745695
 11
-22.304630500000002
 21
211.0745695
  0
CIRCLE
  8
_0-0_0
  6
CONTINUOUS
 62
    7
 10
-16.886737499999981
 20
220.3745725
 40
4.5381200000000002
  0
CIRCLE
  8
_0-0_0
  6
CONTINUOUS
 62
    7
 10
-16.886737499999981
 20
220.3745725
 40
4
  0
LINE
  8
_0-0_0
  6
CONTINUOUS
 62
    7
 10
-25.0193175
 20
230.32989449999999
 11
-25.686736499999995
 21
230.32989449999999
  0
ARC
  8
_0-0_0
  6
CONTINUOUS
 62
    7
 10
-8.8867414999999994
 20
230.7995755
 40
0.2
 50
179.94055499999999
 51
269.99997000000002
  0
ARC
  8
_0-0_0
  6
CONTINUOUS
 62
    7
 10
-10.386741499999999
 20
211.5745695
 40
2
 50
269.99999700000001
 51
273.84026499999999
  0
ARC
  8
_0-0_0
  6
CONTINUOUS
 62
    7
 10
-23.386737499999981
 20
229.1745755
 40
2
 50
90.000003000000007
 51
93.840255999999997
  0
LINE
  8
_0-0_0
  6
CONTINUOUS
 62
    7
 10
-8.5867384999999956
 20
230.59957850000001
 11
-8.8867414999999994
 21
230.59957850000001
  0
LINE
  8
_0-0_0
  6
CONTINUOUS
 62
    7
 10
-8.5867384999999956
 20
233.5495755
 11
-8.8867414999999994
 21
233.5495755
  0
ARC
  8
_0-0_0
  6
CONTINUOUS
 62
    7
 10
-24.886737499999981
 20
230.79965150000001
 40
0.2
 50
270.00002499999994
 51
0.0594439999999606
  0
ARC
  8
_0-0_0
  6
CONTINUOUS
 62
    7
 10
-8.586772499999995
 20
230.7996215
 40
0.200055
 50
270.00964199999999
 51
1.3705509999999435
  0
ARC
  8
_0-0_0
  6
CONTINUOUS
 62
    7
 10
-8.5867384999999956
 20
233.34957850000001
 40
0.2
 50
359.91222800000003
 51
89.999948000000003
  0
LINE
  8
_0-0_0
  6
CONTINUOUS
 62
    7
 10
-25.186736499999995
 20
230.59963949999999
 11
-24.886737499999981
 21
230.59963949999999
  0
ARC
  8
_0-0_0
  6
CONTINUOUS
 62
    7
 10
-25.186706499999985
 20
230.79969750000001
 40
0.200055
 50
178.629446
 51
269.99035300000003
  0
LINE
  8
_0-0_0
  6
CONTINUOUS
 62
    7
 10
-8.186736499999995
 20
236.0746455
 11
-8.186736499999995
 21
249.2746425
  0
ARC
  8
_0-0_0
  6
CONTINUOUS
 62
    7
 10
-8.686736499999995
 20
236.0746455
 40
0.5
 50
269.99999700000001
 51
0
  0
ARC
  8
_0-0_0
  6
CONTINUOUS
 62
    7
 10
-8.2453155000000038
 20
249.47463949999999
 40
0.1
 50
135
 51
225
  0
LINE
  8
_0-0_0
  6
CONTINUOUS
 62
    7
 10
-8.3160284999999874
 20
249.4039305
 11
-8.186736499999995
 21
249.2746425
  0
LINE
  8
_0-0_0
  6
CONTINUOUS
 62
    7
 10
-8.686736499999995
 20
235.5746455
 11
-10.586738499999996
 21
235.5746455
  0
ARC
  8
_0-0_0
  6
CONTINUOUS
 62
    7
 10
-10.586738499999996
 20
236.0746455
 40
0.5
 50
233.12990600000001
 51
269.99999700000001
  0
ARC
  8
_0-0_0
  6
CONTINUOUS
 62
    7
 10
-23.28673950000001
 20
236.0746455
 40
0.5
 50
269.99999700000001
 51
306.87009999999998
  0
LINE
  8
_0-0_0
  6
CONTINUOUS
 62
    7
 10
-23.28673950000001
 20
235.5746455
 11
-25.186736499999995
 21
235.5746455
  0
ARC
  8
_0-0_0
  6
CONTINUOUS
 62
    7
 10
-25.186736499999995
 20
236.0746455
 40
0.5
 50
180.00000900000003
 51
269.99999700000001
  0
LINE
  8
_0-0_0
  6
CONTINUOUS
 62
    7
 10
-25.686736499999995
 20
245.50964350000001
 11
-25.686736499999995
 21
236.0746455
  0
LINE
  8
_0-0_0
  6
CONTINUOUS
 62
    7
 10
-25.686736499999995
 20
245.50964350000001
 11
-24.986740499999996
 21
245.50964350000001
  0
LINE
  8
_0-0_0
  6
CONTINUOUS
 62
    7
 10
-8.9867404999999962
 20
264.07464549999997
 11
-8.7807085000000029
 21
264.07464549999997
  0
LINE
  8
_0-0_0
  6
CONTINUOUS
 62
    7
 10
-8.7807085000000029
 20
264.07464549999997
 11
-8.186736499999995
 21
263.4806825
  0
LINE
  8
_0-0_0
  6
CONTINUOUS
 62
    7
 10
-8.186736499999995
 20
258.47463949999997
 11
-8.186736499999995
 21
263.4806825
  0
LINE
  8
_0-0_0
  6
CONTINUOUS
 62
    7
 10
-8.3160284999999874
 20
258.34535249999999
 11
-8.186736499999995
 21
258.47463949999997
  0
ARC
  8
_0-0_0
  6
CONTINUOUS
 62
    7
 10
-8.2453155000000038
 20
258.27464250000003
 40
0.1
 50
135
 51
225
  0
LINE
  8
_0-0_0
  6
CONTINUOUS
 62
    7
 10
-8.3160284999999874
 20
258.20393350000001
 11
-8.186736499999995
 21
258.07464549999997
  0
LINE
  8
_0-0_0
  6
CONTINUOUS
 62
    7
 10
-8.186736499999995
 20
257.37464850000003
 11
-8.186736499999995
 21
258.07464549999997
  0
LINE
  8
_0-0_0
  6
CONTINUOUS
 62
    7
 10
-8.3160284999999874
 20
257.2453615
 11
-8.186736499999995
 21
257.37464850000003
  0
ARC
  8
_0-0_0
  6
CONTINUOUS
 62
    7
 10
-8.2453155000000038
 20
257.17465149999998
 40
0.1
 50
135
 51
225
  0
LINE
  8
_0-0_0
  6
CONTINUOUS
 62
    7
 10
-8.3160284999999874
 20
257.1039275
 11
-8.186736499999995
 21
256.97463949999997
  0
LINE
  8
_0-0_0
  6
CONTINUOUS
 62
    7
 10
-8.186736499999995
 20
256.27464250000003
 11
-8.186736499999995
 21
256.97463949999997
  0
LINE
  8
_0-0_0
  6
CONTINUOUS
 62
    7
 10
-8.3160284999999874
 20
256.14535549999999
 11
-8.186736499999995
 21
256.27464250000003
  0
ARC
  8
_0-0_0
  6
CONTINUOUS
 62
    7
 10
-8.2453155000000038
 20
256.07464549999997
 40
0.1
 50
135
 51
225
  0
LINE
  8
_0-0_0
  6
CONTINUOUS
 62
    7
 10
-8.3160284999999874
 20
256.00393650000001
 11
-8.186736499999995
 21
255.87464850000001
  0
LINE
  8
_0-0_0
  6
CONTINUOUS
 62
    7
 10
-8.186736499999995
 20
255.17465150000001
 11
-8.186736499999995
 21
255.87464850000001
  0
LINE
  8
_0-0_0
  6
CONTINUOUS
 62
    7
 10
-8.3160284999999874
 20
255.04534950000001
 11
-8.186736499999995
 21
255.17465150000001
  0
ARC
  8
_0-0_0
  6
CONTINUOUS
 62
    7
 10
-8.2453155000000038
 20
254.97463949999999
 40
0.1
 50
135
 51
225
  0
LINE
  8
_0-0_0
  6
CONTINUOUS
 62
    7
 10
-8.3160284999999874
 20
254.9039305
 11
-8.186736499999995
 21
254.7746425
  0
LINE
  8
_0-0_0
  6
CONTINUOUS
 62
    7
 10
-8.186736499999995
 20
254.0746455
 11
-8.186736499999995
 21
254.7746425
  0
LINE
  8
_0-0_0
  6
CONTINUOUS
 62
    7
 10
-8.3160284999999874
 20
253.9453585
 11
-8.186736499999995
 21
254.0746455
  0
ARC
  8
_0-0_0
  6
CONTINUOUS
 62
    7
 10
-8.2453155000000038
 20
253.87464850000001
 40
0.1
 50
135
 51
225
  0
LINE
  8
_0-0_0
  6
CONTINUOUS
 62
    7
 10
-8.3160284999999874
 20
253.80392449999999
 11
-8.186736499999995
 21
253.67465150000001
  0
LINE
  8
_0-0_0
  6
CONTINUOUS
 62
    7
 10
-8.186736499999995
 20
252.97463949999999
 11
-8.186736499999995
 21
253.67465150000001
  0
LINE
  8
_0-0_0
  6
CONTINUOUS
 62
    7
 10
-8.3160284999999874
 20
252.84535249999999
 11
-8.186736499999995
 21
252.97463949999999
  0
ARC
  8
_0-0_0
  6
CONTINUOUS
 62
    7
 10
-8.2453155000000038
 20
252.7746425
 40
0.1
 50
135
 51
225
  0
LINE
  8
_0-0_0
  6
CONTINUOUS
 62
    7
 10
-8.3160284999999874
 20
252.70393350000001
 11
-8.186736499999995
 21
252.5746455
  0
LINE
  8
_0-0_0
  6
CONTINUOUS
 62
    7
 10
-8.186736499999995
 20
251.87464850000001
 11
-8.186736499999995
 21
252.5746455
  0
LINE
  8
_0-0_0
  6
CONTINUOUS
 62
    7
 10
-8.3160284999999874
 20
251.7453615
 11
-8.186736499999995
 21
251.87464850000001
  0
ARC
  8
_0-0_0
  6
CONTINUOUS
 62
    7
 10
-8.2453155000000038
 20
251.67465150000001
 40
0.1
 50
135
 51
225
  0
LINE
  8
_0-0_0
  6
CONTINUOUS
 62
    7
 10
-8.3160284999999874
 20
251.60394250000002
 11
-8.186736499999995
 21
251.47463949999999
  0
LINE
  8
_0-0_0
  6
CONTINUOUS
 62
    7
 10
-8.186736499999995
 20
250.7746425
 11
-8.186736499999995
 21
251.47463949999999
  0
LINE
  8
_0-0_0
  6
CONTINUOUS
 62
    7
 10
-8.3160284999999874
 20
250.64535549999999
 11
-8.186736499999995
 21
250.7746425
  0
ARC
  8
_0-0_0
  6
CONTINUOUS
 62
    7
 10
-8.2453155000000038
 20
250.5746455
 40
0.1
 50
135
 51
225
  0
LINE
  8
_0-0_0
  6
CONTINUOUS
 62
    7
 10
-8.3160284999999874
 20
250.50393650000001
 11
-8.186736499999995
 21
250.37464850000001
  0
LINE
  8
_0-0_0
  6
CONTINUOUS
 62
    7
 10
-8.186736499999995
 20
249.67465150000001
 11
-8.186736499999995
 21
250.37464850000001
  0
LINE
  8
_0-0_0
  6
CONTINUOUS
 62
    7
 10
-8.3160284999999874
 20
249.54534950000001
 11
-8.186736499999995
 21
249.67465150000001
  0
LINE
  8
_0-0_0
  6
CONTINUOUS
 62
    7
 10
-8.186736499999995
 20
241.5746455
 11
-8.0867384999999956
 21
241.5746455
  0
LINE
  8
_0-0_0
  6
CONTINUOUS
 62
    7
 10
-8.0867384999999956
 20
241.0746455
 11
-8.0867384999999956
 21
241.5746455
  0
LINE
  8
_0-0_0
  6
CONTINUOUS
 62
    7
 10
-8.0867384999999956
 20
241.0746455
 11
-8.0867384999999956
 21
237.0746455
  0
LINE
  8
_0-0_0
  6
CONTINUOUS
 62
    7
 10
-8.186736499999995
 20
236.5746455
 11
-8.0867384999999956
 21
236.5746455
  0
LINE
  8
_0-0_0
  6
CONTINUOUS
 62
    7
 10
-8.0867384999999956
 20
236.5746455
 11
-8.0867384999999956
 21
237.0746455
  0
LINE
  8
_0-0_0
  6
CONTINUOUS
 62
    7
 10
-25.686736499999995
 20
245.57466149999999
 11
-25.686736499999995
 21
245.50964350000001
  0
LINE
  8
_0-0_0
  6
CONTINUOUS
 62
    7
 10
-9.186736499999995
 20
264.37464850000003
 11
-9.186736499999995
 21
264.27464250000003
  0
LINE
  8
_0-0_0
  6
CONTINUOUS
 62
    7
 10
-25.78673950000001
 20
245.5746455
 11
-24.986740499999996
 21
245.5746455
  0
LINE
  8
_0-0_0
  6
CONTINUOUS
 62
    7
 10
-25.28673950000001
 20
267.37464850000003
 11
-25.28673950000001
 21
263.15310650000004
  0
LINE
  8
_0-0_0
  6
CONTINUOUS
 62
    7
 10
-24.186736499999995
 20
267.37464850000003
 11
-24.186736499999995
 21
264.37464850000003
  0
LINE
  8
_0-0_0
  6
CONTINUOUS
 62
    7
 10
-25.28673950000001
 20
263.15310650000004
 11
-24.986740499999996
 21
263.15310650000004
  0
ARC
  8
_0-0_0
  6
CONTINUOUS
 62
    7
 10
-21.686736499999995
 20
264.37464850000003
 40
2.5
 50
90.000003000000007
 51
180.00000900000001
  0
ARC
  8
_0-0_0
  6
CONTINUOUS
 62
    7
 10
-11.686736499999995
 20
264.37464850000003
 40
2.5
 50
0
 51
90.000003000000007
  0
LINE
  8
_0-0_0
  6
CONTINUOUS
 62
    7
 10
-24.186736499999995
 20
264.27464250000003
 11
-24.186736499999995
 21
264.37464850000003
  0
LINE
  8
_0-0_0
  6
CONTINUOUS
 62
    7
 10
-11.686736499999995
 20
266.87464850000003
 11
-21.686736499999995
 21
266.87464850000003
  0
LINE
  8
_0-0_0
  6
CONTINUOUS
 62
    7
 10
-7.9867404999999962
 20
237.0746455
 11
-7.9867404999999962
 21
237.20500150000001
  0
LINE
  8
_0-0_0
  6
CONTINUOUS
 62
    7
 10
-7.9867404999999962
 20
240.70500150000001
 11
-7.9867404999999962
 21
237.20500150000001
  0
LINE
  8
_0-0_0
  6
CONTINUOUS
 62
    7
 10
-8.0867384999999956
 20
240.97463949999999
 11
-7.9867404999999962
 21
240.97463949999999
  0
LINE
  8
_0-0_0
  6
CONTINUOUS
 62
    7
 10
-7.9867404999999962
 20
240.70500150000001
 11
-7.9867404999999962
 21
240.97463949999999
  0
LINE
  8
_0-0_0
  6
CONTINUOUS
 62
    7
 10
-8.3867374999999811
 20
263.47463949999997
 11
-9.3867374999999811
 21
264.47463949999997
  0
LINE
  8
_0-0_0
  6
CONTINUOUS
 62
    7
 10
-8.3867414999999994
 20
235.67465150000001
 11
-8.3867374999999811
 21
263.47463949999997
  0
LINE
  8
_0-0_0
  6
CONTINUOUS
 62
    7
 10
-24.986740499999996
 20
235.67465150000001
 11
-8.3867414999999994
 21
235.67465150000001
  0
LINE
  8
_0-0_0
  6
CONTINUOUS
 62
    7
 10
-24.986740499999996
 20
263.47463949999997
 11
-24.986740499999996
 21
235.67465150000001
  0
LINE
  8
_0-0_0
  6
CONTINUOUS
 62
    7
 10
-25.78673950000001
 20
245.5746455
 11
-25.78673950000001
 21
262.3874515
  0
LINE
  8
_0-0_0
  6
CONTINUOUS
 62
    7
 10
-25.78673950000001
 20
266.87464850000003
 11
-25.78673950000001
 21
262.3874515
  0
ARC
  8
_0-0_0
  6
CONTINUOUS
 62
    7
 10
5.6650005000000192
 20
242.3924715
 40
37.269466000000001
 50
146.14857699999999
 51
147.55443399999999
  0
ARC
  8
_0-0_0
  6
CONTINUOUS
 62
    7
 10
-11.955787499999985
 20
264.07464549999997
 40
2.6000000000000001
 50
8.8498839999999994
 51
90.000002999999992
  0
LINE
  8
_0-0_0
  6
CONTINUOUS
 62
    7
 10
-11.955787499999985
 20
266.67465149999998
 11
-21.417694499999982
 21
266.67465149999998
  0
ARC
  8
_0-0_0
  6
CONTINUOUS
 62
    7
 10
-21.417694499999982
 20
264.07464549999997
 40
2.6000000000000001
 50
90.000003000000007
 51
171.150115
  0
LINE
  8
_0-0_0
  6
CONTINUOUS
 62
    7
 10
-24.986740499999996
 20
263.47463949999997
 11
-23.986740499999996
 21
264.47463949999997
  0
LINE
  8
_0-0_0
  6
CONTINUOUS
 62
    7
 10
-9.3867374999999811
 20
263.06042450000001
 11
-8.3867374999999811
 21
263.47463949999997
  0
ARC
  8
_0-0_0
  6
CONTINUOUS
 62
    7
 10
-14.929279500000007
 20
275.26077250000003
 40
12.126564999999999
 50
292.155034
 51
297.19674500000002
  0
LINE
  8
_0-0_0
  6
CONTINUOUS
 62
    7
 10
-9.3867414999999994
 20
236.67465150000001
 11
-8.3867414999999994
 21
235.67465150000001
  0
LINE
  8
_0-0_0
  6
CONTINUOUS
 62
    7
 10
-23.986740499999996
 20
236.67465150000001
 11
-24.986740499999996
 21
235.67465150000001
  0
LINE
  8
_0-0_0
  6
CONTINUOUS
 62
    7
 10
-23.986740499999996
 20
263.06042450000001
 11
-24.986740499999996
 21
263.47463949999997
  0
ARC
  8
_0-0_0
  6
CONTINUOUS
 62
    7
 10
-18.444198499999999
 20
275.26077250000003
 40
12.126567
 50
242.80325699999997
 51
247.84494000000001
  0
CIRCLE
  8
_0-0_0
  6
CONTINUOUS
 62
    7
 10
-16.686736499999995
 20
243.87464850000001
 40
2.0670000000000002
  0
LINE
  8
_0-0_0
  6
CONTINUOUS
 62
    7
 10
-24.186736499999995
 20
267.37464850000003
 11
-25.28673950000001
 21
267.37464850000003
  0
LINE
  8
_0-0_0
  6
CONTINUOUS
 62
    7
 10
-8.0867384999999956
 20
237.0746455
 11
-7.9867404999999962
 21
237.0746455
  0
LINE
  8
_0-0_0
  6
CONTINUOUS
 62
    7
 10
-8.0867384999999956
 20
237.0746455
 11
-7.9867404999999962
 21
237.0746455
  0
LINE
  8
_0-0_0
  6
CONTINUOUS
 62
    7
 10
-25.78673950000001
 20
266.87464850000003
 11
-25.28673950000001
 21
267.37464850000003
  0
ENDSEC
  0
EOF
