  0
SECTION
  2
HEADER
  9
$ACADVER
  1
AC1015
  9
$ACADMAINTVER
 70
     6
  9
$DWGCODEPAGE
  3
ANSI_1252
  9
$INSBASE
 10
0.0
 20
0.0
 30
0.0
  9
$EXTMIN
 10
0.0
 20
0.0
 30
0.0
  9
$EXTMAX
 10
551.647034
 20
276.850006
 30
2.0
  9
$LIMMIN
 10
0.0
 20
0.0
  9
$LIMMAX
 10
420.0
 20
297.0
  9
$ORTHOMODE
 70
     0
  9
$REGENMODE
 70
     1
  9
$FILLMODE
 70
     1
  9
$QTEXTMODE
 70
     0
  9
$MIRRTEXT
 70
     1
  9
$LTSCALE
 40
1.0
  9
$ATTMODE
 70
     1
  9
$TEXTSIZE
 40
2.5
  9
$TRACEWID
 40
1.0
  9
$TEXTSTYLE
  7
Standard
  9
$CLAYER
  8
0
  9
$CELTYPE
  6
ByLayer
  9
$CECOLOR
 62
   256
  9
$CELTSCALE
 40
1.0
  9
$DISPSILH
 70
     0
  9
$DIMSCALE
 40
1.0
  9
$DIMASZ
 40
2.5
  9
$DIMEXO
 40
0.625
  9
$DIMDLI
 40
3.75
  9
$DIMRND
 40
0.0
  9
$DIMDLE
 40
0.0
  9
$DIMEXE
 40
1.25
  9
$DIMTP
 40
0.0
  9
$DIMTM
 40
0.0
  9
$DIMTXT
 40
2.5
  9
$DIMCEN
 40
2.5
  9
$DIMTSZ
 40
0.0
  9
$DIMTOL
 70
     0
  9
$DIMLIM
 70
     0
  9
$DIMTIH
 70
     0
  9
$DIMTOH
 70
     0
  9
$DIMSE1
 70
     0
  9
$DIMSE2
 70
     0
  9
$DIMTAD
 70
     1
  9
$DIMZIN
 70
     8
  9
$DIMBLK
  1

  9
$DIMASO
 70
     1
  9
$DIMSHO
 70
     1
  9
$DIMPOST
  1

  9
$DIMAPOST
  1

  9
$DIMALT
 70
     0
  9
$DIMALTD
 70
     3
  9
$DIMALTF
 40
0.03937
  9
$DIMLFAC
 40
1.0
  9
$DIMTOFL
 70
     1
  9
$DIMTVP
 40
0.0
  9
$DIMTIX
 70
     0
  9
$DIMSOXD
 70
     0
  9
$DIMSAH
 70
     0
  9
$DIMBLK1
  1

  9
$DIMBLK2
  1

  9
$DIMSTYLE
  2

  9
$DIMCLRD
 70
     0
  9
$DIMCLRE
 70
     0
  9
$DIMCLRT
 70
     0
  9
$DIMTFAC
 40
1.0
  9
$DIMGAP
 40
0.625
  9
$DIMJUST
 70
     0
  9
$DIMSD1
 70
     0
  9
$DIMSD2
 70
     0
  9
$DIMTOLJ
 70
     0
  9
$DIMTZIN
 70
     8
  9
$DIMALTZ
 70
     0
  9
$DIMALTTZ
 70
     0
  9
$DIMUPT
 70
     0
  9
$DIMDEC
 70
     2
  9
$DIMTDEC
 70
     2
  9
$DIMALTU
 70
     2
  9
$DIMALTTD
 70
     3
  9
$DIMTXSTY
  7
Standard
  9
$DIMAUNIT
 70
     0
  9
$DIMADEC
 70
     0
  9
$DIMALTRND
 40
0.0
  9
$DIMAZIN
 70
     0
  9
$DIMDSEP
 70
    44
  9
$DIMATFIT
 70
     0
  9
$DIMFRAC
 70
     0
  9
$DIMLDRBLK
  1

  9
$DIMLUNIT
 70
     2
  9
$DIMLWD
 70
    -2
  9
$DIMLWE
 70
    -2
  9
$DIMTMOVE
 70
     0
  9
$LUNITS
 70
     2
  9
$LUPREC
 70
     4
  9
$SKETCHINC
 40
1.0
  9
$FILLETRAD
 40
2.5
  9
$AUNITS
 70
     0
  9
$AUPREC
 70
     0
  9
$MENU
  1
.
  9
$ELEVATION
 40
0.0
  9
$PELEVATION
 40
0.0
  9
$THICKNESS
 40
0.0
  9
$LIMCHECK
 70
     0
  9
$CHAMFERA
 40
2.5
  9
$CHAMFERB
 40
2.5
  9
$CHAMFERC
 40
0.0
  9
$CHAMFERD
 40
0.0
  9
$SKPOLY
 70
     0
  9
$TDCREATE
 40
0.000000000
  9
$TDUCREATE
 40
0.000000000
  9
$TDUPDATE
 40
0.000000000
  9
$TDUUPDATE
 40
0.000000000
  9
$TDINDWG
 40
0.0000000000
  9
$TDUSRTIMER
 40
0.0000000000
  9
$USRTIMER
 70
     1
  9
$ANGBASE
 50
0.0
  9
$ANGDIR
 70
     0
  9
$PDMODE
 70
     0
  9
$PDSIZE
 40
0.0
  9
$PLINEWID
 40
0.0
  9
$SPLFRAME
 70
     0
  9
$SPLINETYPE
 70
     6
  9
$SPLINESEGS
 70
     8
  9
$HANDSEED
  5
68D
  9
$SURFTAB1
 70
     6
  9
$SURFTAB2
 70
     6
  9
$SURFTYPE
 70
     6
  9
$SURFU
 70
     6
  9
$SURFV
 70
     6
  9
$UCSBASE
  2

  9
$UCSNAME
  2

  9
$UCSORG
 10
0.0
 20
0.0
 30
0.0
  9
$UCSXDIR
 10
1.0
 20
0.0
 30
0.0
  9
$UCSYDIR
 10
0.0
 20
1.0
 30
0.0
  9
$UCSORTHOREF
  2

  9
$UCSORTHOVIEW
 70
     1
  9
$UCSORGTOP
 10
0.0
 20
0.0
 30
0.0
  9
$UCSORGBOTTOM
 10
0.0
 20
0.0
 30
0.0
  9
$UCSORGLEFT
 10
0.0
 20
0.0
 30
0.0
  9
$UCSORGRIGHT
 10
0.0
 20
0.0
 30
0.0
  9
$UCSORGFRONT
 10
0.0
 20
0.0
 30
0.0
  9
$UCSORGBACK
 10
0.0
 20
0.0
 30
0.0
  9
$PUCSBASE
  2

  9
$PUCSNAME
  2

  9
$PUCSORG
 10
0.0
 20
0.0
 30
0.0
  9
$PUCSXDIR
 10
1.0
 20
0.0
 30
0.0
  9
$PUCSYDIR
 10
0.0
 20
1.0
 30
0.0
  9
$PUCSORTHOREF
  2

  9
$PUCSORTHOVIEW
 70
     0
  9
$PUCSORGTOP
 10
0.0
 20
0.0
 30
0.0
  9
$PUCSORGBOTTOM
 10
0.0
 20
0.0
 30
0.0
  9
$PUCSORGLEFT
 10
0.0
 20
0.0
 30
0.0
  9
$PUCSORGRIGHT
 10
0.0
 20
0.0
 30
0.0
  9
$PUCSORGFRONT
 10
0.0
 20
0.0
 30
0.0
  9
$PUCSORGBACK
 10
0.0
 20
0.0
 30
0.0
  9
$USERI1
 70
     0
  9
$USERI2
 70
     0
  9
$USERI3
 70
     0
  9
$USERI4
 70
     0
  9
$USERI5
 70
     0
  9
$USERR1
 40
0.0
  9
$USERR2
 40
0.0
  9
$USERR3
 40
0.0
  9
$USERR4
 40
0.0
  9
$USERR5
 40
0.0
  9
$WORLDVIEW
 70
     1
  9
$SHADEDGE
 70
     3
  9
$SHADEDIF
 70
    70
  9
$TILEMODE
 70
     1
  9
$MAXACTVP
 70
    48
  9
$PINSBASE
 10
0.0
 20
0.0
 30
0.0
  9
$PLIMCHECK
 70
     0
  9
$PEXTMIN
 10
0.0
 20
0.0
 30
0.0
  9
$PEXTMAX
 10
551.647034
 20
276.850006
 30
2.0
  9
$PLIMMIN
 10
0.0
 20
0.0
  9
$PLIMMAX
 10
420.0
 20
297.0
  9
$UNITMODE
 70
     0
  9
$VISRETAIN
 70
     0
  9
$PLINEGEN
 70
     0
  9
$PSLTSCALE
 70
     1
  9
$TREEDEPTH
 70
  3020
  9
$CMLSTYLE
  2
Standard
  9
$CMLJUST
 70
     0
  9
$CMLSCALE
 40
20.0
  9
$PROXYGRAPHICS
 70
     1
  9
$MEASUREMENT
 70
     1
  9
$CELWEIGHT
370
    -1
  9
$ENDCAPS
280
     0
  9
$JOINSTYLE
280
     0
  9
$LWDISPLAY
290
     0
  9
$INSUNITS
 70
     0
  9
$HYPERLINKBASE
  1

  9
$STYLESHEET
  1

  9
$XEDIT
290
     1
  9
$CEPSNTYPE
380
     0
  9
$PSTYLEMODE
290
     0
  9
$FINGERPRINTGUID
  2

  9
$VERSIONGUID
  2

  9
$EXTNAMES
290
     0
  9
$PSVPSCALE
 40
0.0
  0
ENDSEC
  0
SECTION
  2
CLASSES
  0
CLASS
  1
LWPOLYLINE
  2
AcDbPolyline
  3
AutoCAD 2000
 90
        0
280
     0
281
     1
  0
CLASS
  1
IMAGE
  2
AcDbRasterImage
  3
ISM
 90
      127
280
     0
281
     1
  0
CLASS
  1
OLE2FRAME
  2
AcDbOle2Frame
  3
AutoCAD 2000
 90
        0
280
     0
281
     1
  0
CLASS
  1
HATCH
  2
AcDbHatch
  3
AutoCAD 2000
 90
        0
280
     0
281
     1
  0
CLASS
  1
DICTIONARYVAR
  2
AcDbDictionaryVar
  3
AutoCAD 2000
 90
        0
280
     0
281
     0
  0
CLASS
  1
RASTERVARIABLES
  2
AcDbRasterVariables
  3
ISM
 90
        0
280
     0
281
     0
  0
CLASS
  1
IMAGEDEF
  2
AcDbRasterImageDef
  3
ISM
 90
        0
280
     0
281
     0
  0
CLASS
  1
IMAGEDEF_REACTOR
  2
AcDbRasterImageDefReactor
  3
ISM
 90
        1
280
     0
281
     0
  0
CLASS
  1
IDBUFFER
  2
AcDbIdBuffer
  3
AutoCAD 2000
 90
        0
280
     0
281
     0
  0
CLASS
  1
SPATIAL_FILTER
  2
AcDbSpatialFilter
  3
AutoCAD 2000
 90
        0
280
     0
281
     0
  0
CLASS
  1
XRECORD
  2
AcDbXrecord
  3
AutoCAD 2000
 90
        0
280
     0
281
     0
  0
CLASS
  1
SORTENTSTABLE
  2
AcDbSortentsTable
  3
AutoCAD 2000
 90
        0
280
     0
281
     0
  0
CLASS
  1
LAYER_INDEX
  2
AcDbLayerIndex
  3
AutoCAD 2000
 90
        0
280
     0
281
     0
  0
CLASS
  1
SPATIAL_INDEX
  2
AcDbSpatialIndex
  3
AutoCAD 2000
 90
        0
280
     0
281
     0
  0
CLASS
  1
OBJECT_PTR
  2
CAseDLPNTableRecord
  3
"ASE-LPNTableRecord"
 90
        1
280
     0
281
     0
  0
CLASS
  1
LAYOUT
  2
AcDbLayout
  3
AutoCAD 2000
 90
        0
280
     0
281
     0
  0
CLASS
  1
PLOTSETTINGS
  2
AcDbPlotSettings
  3
AutoCAD 2000
 90
        0
280
     0
281
     0
  0
CLASS
  1
ACDBDICTIONARYWDFLT
  2
AcDbDictionaryWithDefault
  3
AutoCAD 2000
 90
        0
280
     0
281
     0
  0
CLASS
  1
ACDBPLACEHOLDER
  2
AcDbPlaceHolder
  3
AutoCAD 2000
 90
        0
280
     0
281
     0
  0
CLASS
  1
VBA_PROJECT
  2
AcDbVbaProject
  3
acadvba
 90
        0
280
     0
281
     0
  0
CLASS
  1
WIPEOUT
  2
AcDbWipeout
  3
WipeOut|AutoCAD Express Tool|expresstools@autodesk.com
 90
      127
280
     0
281
     1
  0
CLASS
  1
WIPEOUTVARIABLES
  2
AcDbWipeoutVariables
  3
WipeOut|AutoCAD Express Tool|expresstools@autodesk.com
 90
        0
280
     0
281
     0
  0
CLASS
  1
RTEXT
  2
RText
  3
RText|AutoCAD Express Tool|expresstools@autodesk.com
 90
        0
280
     0
281
     1
  0
CLASS
  1
ARCALIGNEDTEXT
  2
AcDbArcAlignedText
  3
ATEXT|AutoCAD Express Tool|expresstools@autodesk.com
 90
        0
280
     0
281
     1
  0
ENDSEC
  0
SECTION
  2
TABLES
  0
TABLE
  2
VPORT
  5
7
100
AcDbSymbolTable
 70
     1
  0
VPORT
  5
15
100
AcDbSymbolTableRecord
100
AcDbViewportTableRecord
  2
*ACTIVE
 70
     0
 10
0.0
 20
0.0
 11
1.0
 21
1.0
 12
6.591288
 22
4.579184
 13
0.0
 23
0.0
 14
1.0
 24
1.0
 15
0.0
 25
0.0
 16
0.0
 26
0.0
 36
1.0
 17
0.0
 27
0.0
 37
0.0
 40
9.158369
 41
0.688564
 42
50.0
 43
0.0
 44
0.0
 50
0.0
 51
0.0
 71
     0
 72
   100
 73
     1
 74
     1
 75
     0
 76
     0
 77
     0
 78
     0
281
     0
 65
     0
110
0.0
120
0.0
130
0.0
111
1.0
121
0.0
131
0.0
112
0.0
122
1.0
132
0.0
345
0
346
0
 79
     0
146
0.0
  0
ENDTAB
  0
TABLE
  2
LTYPE
  5
4
100
AcDbSymbolTable
 70
     3
  0
LTYPE
  5
11
100
AcDbSymbolTableRecord
100
AcDbLinetypeTableRecord
  2
ByBlock
 70
    64
  3

 72
    65
 73
     0
 40
0.0
  0
LTYPE
  5
12
100
AcDbSymbolTableRecord
100
AcDbLinetypeTableRecord
  2
ByLayer
 70
    64
  3

 72
    65
 73
     0
 40
0.0
  0
LTYPE
  5
13
100
AcDbSymbolTableRecord
100
AcDbLinetypeTableRecord
  2
Continuous
 70
    64
  3
Solid line
 72
    65
 73
     0
 40
0.0
  0
ENDTAB
  0
TABLE
  2
LAYER
  5
2
100
AcDbSymbolTable
 70
     1
  0
LAYER
  5
14
100
AcDbSymbolTableRecord
100
AcDbLayerTableRecord
  2
0
 70
     0
 62
     7
  6
Continuous
290
     1
370
    -3
390
1D
  0
ENDTAB
  0
TABLE
  2
STYLE
  5
3
100
AcDbSymbolTable
 70
     1
  0
STYLE
  5
17
100
AcDbSymbolTableRecord
100
AcDbTextStyleTableRecord
  2
Standard
 70
     0
 40
0.0
 41
1.0
 50
0.0
 71
     0
 42
0.0
  3
txt
  4

  0
ENDTAB
  0
TABLE
  2
VIEW
  5
5
100
AcDbSymbolTable
 70
     0
  0
ENDTAB
  0
TABLE
  2
UCS
  5
6
100
AcDbSymbolTable
 70
     0
  0
ENDTAB
  0
TABLE
  2
APPID
  5
8
100
AcDbSymbolTable
 70
     1
  0
APPID
  5
16
100
AcDbSymbolTableRecord
100
AcDbRegAppTableRecord
  2
ACAD
 70
     0
  0
ENDTAB
  0
TABLE
  2
DIMSTYLE
  5
9
100
AcDbSymbolTable
 70
     1
100
AcDbDimStyleTable
 71
     0
  0
DIMSTYLE
105
18
100
AcDbSymbolTableRecord
100
AcDbDimStyleTableRecord
  2
Standard
 70
     0
  3

  4

 40
1.0
 41
0.18
 42
0.0625
 43
0.38
 44
0.18
 45
0.0
 46
0.0
 47
0.0
 48
0.0
 71
     0
 72
     0
 73
     1
 74
     1
 75
     0
 76
     0
 77
     0
 78
     0
 79
     0
140
0.18
141
0.09
142
0.0
143
25.4
144
1.0
145
0.0
146
1.0
147
0.09
148
0.0
170
     0
171
     2
172
     0
173
     0
174
     0
175
     0
176
     0
177
     0
178
     0
179
     0
271
     4
272
     4
273
     2
274
     2
275
     0
276
     0
277
     2
278
    46
279
     0
280
     0
281
     0
282
     0
283
     1
284
     0
285
     0
286
     0
288
     0
289
     3
340
17
341
0
342
0
343
0
344
0
371
    -2
372
    -2
  0
ENDTAB
  0
TABLE
  2
BLOCK_RECORD
  5
1
100
AcDbSymbolTable
 70
     0
  0
BLOCK_RECORD
  5
A
100
AcDbSymbolTableRecord
100
AcDbBlockTableRecord
  2
*MODEL_SPACE
340
20
  0
BLOCK_RECORD
  5
B
100
AcDbSymbolTableRecord
100
AcDbBlockTableRecord
  2
*PAPER_SPACE
340
21
  0
ENDTAB
  0
ENDSEC
  0
SECTION
  2
BLOCKS
  0
BLOCK
  5
D
100
AcDbEntity
  8
0
390
0
100
AcDbBlockBegin
  2
*MODEL_SPACE
 70
     0
 10
0.0
 20
0.0
 30
0.0
  3
*MODEL_SPACE
  1

  0
ENDBLK
  5
E
100
AcDbEntity
  8
0
390
0
100
AcDbBlockEnd
  0
BLOCK
  5
F
100
AcDbEntity
 67
     1
  8
0
390
0
100
AcDbBlockBegin
  2
*PAPER_SPACE
 70
     0
 10
0.0
 20
0.0
 30
0.0
  3
*PAPER_SPACE
  1

  0
ENDBLK
  5
10
100
AcDbEntity
 67
     1
  8
0
390
0
100
AcDbBlockEnd
  0
ENDSEC
  0
SECTION
  2
ENTITIES
  0
VIEWPORT
  5
68C
100
AcDbEntity
 67
     1
  8
0
370
     0
390
0
 62
     0
 48
0.0
100
AcDbViewport
 10
0.0
 20
0.0
 30
0.0
 40
1000.0
 41
1000.0
 68
     1
 69
     1
 12
0.0
 22
0.0
 13
0.0
 23
0.0
 14
1.0
 24
1.0
 15
1.0
 25
1.0
 16
0.0
 26
0.0
 36
1.0
 17
0.0
 27
0.0
 37
0.0
 42
50.0
 43
0.0
 44
0.0
 45
1000.0
 50
0.0
 51
0.0
 72
   100
 90
        0
340
0
  1

281
     0
 71
     0
 74
     1
110
0.0
120
0.0
130
0.0
111
1.0
121
0.0
131
0.0
112
0.0
122
1.0
132
0.0
345
0
346
0
 79
     0
146
0.0
  0
POLYLINE
  5
24
100
AcDbEntity
  8
0
370
    13
390
0
 62
     7
100
AcDb2dPolyline
 66
     1
 10
0.0
 20
0.0
 30
0.0
 71
     8
  0
VERTEX
  5
25
100
AcDbEntity
  8
0
370
     0
390
0
100
AcDbVertex
100
AcDb2dVertex
 10
180.871582
 20
148.003235
 30
0.0
  0
VERTEX
  5
26
100
AcDbEntity
  8
0
370
     0
390
0
100
AcDbVertex
100
AcDb2dVertex
 10
180.410919
 20
148.567749
 30
0.0
  0
VERTEX
  5
27
100
AcDbEntity
  8
0
370
     0
390
0
100
AcDbVertex
100
AcDb2dVertex
 10
179.719971
 20
148.809677
 30
0.0
  0
VERTEX
  5
28
100
AcDbEntity
  8
0
370
     0
390
0
100
AcDbVertex
100
AcDb2dVertex
 10
179.028992
 20
148.809677
 30
0.0
  0
VERTEX
  5
29
100
AcDbEntity
  8
0
370
     0
390
0
100
AcDbVertex
100
AcDb2dVertex
 10
178.338013
 20
148.567749
 30
0.0
  0
VERTEX
  5
2A
100
AcDbEntity
  8
0
370
     0
390
0
100
AcDbVertex
100
AcDb2dVertex
 10
177.87738
 20
147.922577
 30
0.0
  0
VERTEX
  5
2B
100
AcDbEntity
  8
0
370
     0
390
0
100
AcDbVertex
100
AcDb2dVertex
 10
177.87738
 20
147.358063
 30
0.0
  0
VERTEX
  5
2C
100
AcDbEntity
  8
0
370
     0
390
0
100
AcDbVertex
100
AcDb2dVertex
 10
178.280457
 20
146.793549
 30
0.0
  0
SEQEND
  5
2D
100
AcDbEntity
  8
0
370
     0
390
0
  0
LINE
  5
2E
100
AcDbEntity
  8
0
370
    13
390
0
 62
     7
 48
0.013568
100
AcDbLine
 10
179.374481
 20
146.39032
 30
0.0
 11
179.8927
 21
146.229034
 31
0.0
210
0.0
220
0.0
230
1.0
  0
POLYLINE
  5
2F
100
AcDbEntity
  8
0
370
    13
390
0
 62
     7
100
AcDb2dPolyline
 66
     1
 10
0.0
 20
0.0
 30
0.0
 71
     5
  0
VERTEX
  5
30
100
AcDbEntity
  8
0
370
     0
390
0
100
AcDbVertex
100
AcDb2dVertex
 10
180.410919
 20
143.970978
 30
0.0
  0
VERTEX
  5
31
100
AcDbEntity
  8
0
370
     0
390
0
100
AcDbVertex
100
AcDb2dVertex
 10
179.719971
 20
143.809677
 30
0.0
  0
VERTEX
  5
32
100
AcDbEntity
  8
0
370
     0
390
0
100
AcDbVertex
100
AcDb2dVertex
 10
179.028992
 20
143.809677
 30
0.0
  0
VERTEX
  5
33
100
AcDbEntity
  8
0
370
     0
390
0
100
AcDbVertex
100
AcDb2dVertex
 10
178.338013
 20
144.132263
 30
0.0
  0
VERTEX
  5
34
100
AcDbEntity
  8
0
370
     0
390
0
100
AcDbVertex
100
AcDb2dVertex
 10
177.87738
 20
144.696777
 30
0.0
  0
SEQEND
  5
35
100
AcDbEntity
  8
0
370
     0
390
0
  0
LINE
  5
36
100
AcDbEntity
  8
0
370
    13
390
0
 62
     7
 48
0.011692
100
AcDbLine
 10
178.913818
 20
146.470978
 30
0.0
 11
179.374481
 21
146.39032
 31
0.0
210
0.0
220
0.0
230
1.0
  0
LINE
  5
37
100
AcDbEntity
  8
0
370
    13
390
0
 62
     7
 48
0.017769
100
AcDbLine
 10
178.280457
 20
146.793549
 30
0.0
 11
178.913818
 21
146.470978
 31
0.0
210
0.0
220
0.0
230
1.0
  0
LINE
  5
38
100
AcDbEntity
  8
0
370
    13
390
0
 62
     7
 48
0.019819
100
AcDbLine
 10
180.871582
 20
144.616135
 30
0.0
 11
180.410919
 21
143.970978
 31
0.0
210
0.0
220
0.0
230
1.0
  0
LINE
  5
39
100
AcDbEntity
  8
0
370
    13
390
0
 62
     7
 48
0.018145
100
AcDbLine
 10
180.871582
 20
145.341934
 30
0.0
 11
180.871582
 21
144.616135
 31
0.0
210
0.0
220
0.0
230
1.0
  0
POLYLINE
  5
3A
100
AcDbEntity
  8
0
370
    13
390
0
 62
     7
100
AcDb2dPolyline
 66
     1
 10
0.0
 20
0.0
 30
0.0
 71
     3
  0
VERTEX
  5
3B
100
AcDbEntity
  8
0
370
     0
390
0
100
AcDbVertex
100
AcDb2dVertex
 10
179.8927
 20
146.229034
 30
0.0
  0
VERTEX
  5
3C
100
AcDbEntity
  8
0
370
     0
390
0
100
AcDbVertex
100
AcDb2dVertex
 10
180.410919
 20
145.906464
 30
0.0
  0
VERTEX
  5
3D
100
AcDbEntity
  8
0
370
     0
390
0
100
AcDbVertex
100
AcDb2dVertex
 10
180.871582
 20
145.341934
 30
0.0
  0
SEQEND
  5
3E
100
AcDbEntity
  8
0
370
     0
390
0
  0
LINE
  5
3F
100
AcDbEntity
  8
0
370
    13
390
0
 62
     7
 48
0.048943
100
AcDbLine
 10
183.789948
 20
148.809677
 30
0.0
 11
181.832214
 21
148.809677
 31
0.0
210
0.0
220
0.0
230
1.0
  0
LINE
  5
40
100
AcDbEntity
  8
0
370
    13
390
0
 62
     7
 48
0.051823
100
AcDbLine
 10
181.832214
 20
146.39032
 30
0.0
 11
183.905121
 21
146.39032
 31
0.0
210
0.0
220
0.0
230
1.0
  0
LINE
  5
41
100
AcDbEntity
  8
0
370
    13
390
0
 62
     7
 48
0.125
100
AcDbLine
 10
181.832214
 20
148.809677
 30
0.0
 11
181.832214
 21
143.809677
 31
0.0
210
0.0
220
0.0
230
1.0
  0
POLYLINE
  5
42
100
AcDbEntity
  8
0
370
    13
390
0
 62
     7
100
AcDb2dPolyline
 66
     1
 10
0.0
 20
0.0
 30
0.0
 71
     6
  0
VERTEX
  5
43
100
AcDbEntity
  8
0
370
     0
390
0
100
AcDbVertex
100
AcDb2dVertex
 10
183.789948
 20
148.809677
 30
0.0
  0
VERTEX
  5
44
100
AcDbEntity
  8
0
370
     0
390
0
100
AcDbVertex
100
AcDb2dVertex
 10
184.193024
 20
148.567749
 30
0.0
  0
VERTEX
  5
45
100
AcDbEntity
  8
0
370
     0
390
0
100
AcDbVertex
100
AcDb2dVertex
 10
184.5961
 20
148.003235
 30
0.0
  0
VERTEX
  5
46
100
AcDbEntity
  8
0
370
     0
390
0
100
AcDbVertex
100
AcDb2dVertex
 10
184.5961
 20
147.196777
 30
0.0
  0
VERTEX
  5
47
100
AcDbEntity
  8
0
370
     0
390
0
100
AcDbVertex
100
AcDb2dVertex
 10
184.308197
 20
146.712906
 30
0.0
  0
VERTEX
  5
48
100
AcDbEntity
  8
0
370
     0
390
0
100
AcDbVertex
100
AcDb2dVertex
 10
183.905121
 20
146.39032
 30
0.0
  0
SEQEND
  5
49
100
AcDbEntity
  8
0
370
     0
390
0
  0
LINE
  5
4A
100
AcDbEntity
  8
0
370
    13
390
0
 62
     7
 48
0.070648
100
AcDbLine
 10
183.444489
 20
146.39032
 30
0.0
 11
184.5961
 21
143.809677
 31
0.0
210
0.0
220
0.0
230
1.0
  0
POLYLINE
  5
4B
100
AcDbEntity
  8
0
370
    13
390
0
 62
     7
100
AcDb2dPolyline
 66
     1
 10
0.0
 20
0.0
 30
0.0
 71
    14
  0
VERTEX
  5
4C
100
AcDbEntity
  8
0
370
     0
390
0
100
AcDbVertex
100
AcDb2dVertex
 10
188.666077
 20
143.809677
 30
0.0
  0
VERTEX
  5
4D
100
AcDbEntity
  8
0
370
     0
390
0
100
AcDbVertex
100
AcDb2dVertex
 10
185.902222
 20
143.809677
 30
0.0
  0
VERTEX
  5
4E
100
AcDbEntity
  8
0
370
     0
390
0
100
AcDbVertex
100
AcDb2dVertex
 10
187.859955
 20
146.067749
 30
0.0
  0
VERTEX
  5
4F
100
AcDbEntity
  8
0
370
     0
390
0
100
AcDbVertex
100
AcDb2dVertex
 10
188.263031
 20
146.712906
 30
0.0
  0
VERTEX
  5
50
100
AcDbEntity
  8
0
370
     0
390
0
100
AcDbVertex
100
AcDb2dVertex
 10
188.43576
 20
147.196777
 30
0.0
  0
VERTEX
  5
51
100
AcDbEntity
  8
0
370
     0
390
0
100
AcDbVertex
100
AcDb2dVertex
 10
188.43576
 20
147.680649
 30
0.0
  0
VERTEX
  5
52
100
AcDbEntity
  8
0
370
     0
390
0
100
AcDbVertex
100
AcDb2dVertex
 10
188.263031
 20
148.245163
 30
0.0
  0
VERTEX
  5
53
100
AcDbEntity
  8
0
370
     0
390
0
100
AcDbVertex
100
AcDb2dVertex
 10
188.090271
 20
148.567749
 30
0.0
  0
VERTEX
  5
54
100
AcDbEntity
  8
0
370
     0
390
0
100
AcDbVertex
100
AcDb2dVertex
 10
187.687225
 20
148.809677
 30
0.0
  0
VERTEX
  5
55
100
AcDbEntity
  8
0
370
     0
390
0
100
AcDbVertex
100
AcDb2dVertex
 10
186.996246
 20
148.809677
 30
0.0
  0
VERTEX
  5
56
100
AcDbEntity
  8
0
370
     0
390
0
100
AcDbVertex
100
AcDb2dVertex
 10
186.59317
 20
148.567749
 30
0.0
  0
VERTEX
  5
57
100
AcDbEntity
  8
0
370
     0
390
0
100
AcDbVertex
100
AcDb2dVertex
 10
186.420441
 20
148.325806
 30
0.0
  0
VERTEX
  5
58
100
AcDbEntity
  8
0
370
     0
390
0
100
AcDbVertex
100
AcDb2dVertex
 10
186.190125
 20
147.841934
 30
0.0
  0
VERTEX
  5
59
100
AcDbEntity
  8
0
370
     0
390
0
100
AcDbVertex
100
AcDb2dVertex
 10
186.190125
 20
147.600006
 30
0.0
  0
SEQEND
  5
5A
100
AcDbEntity
  8
0
370
     0
390
0
  0
POLYLINE
  5
5B
100
AcDbEntity
  8
0
370
    13
390
0
 62
     7
100
AcDb2dPolyline
 66
     1
 10
0.0
 20
0.0
 30
0.0
 71
     3
  0
VERTEX
  5
5C
100
AcDbEntity
  8
0
370
     0
390
0
100
AcDbVertex
100
AcDb2dVertex
 10
189.857056
 20
148.809677
 30
0.0
  0
VERTEX
  5
5D
100
AcDbEntity
  8
0
370
     0
390
0
100
AcDbVertex
100
AcDb2dVertex
 10
192.620941
 20
148.809677
 30
0.0
  0
VERTEX
  5
5E
100
AcDbEntity
  8
0
370
     0
390
0
100
AcDbVertex
100
AcDb2dVertex
 10
190.548035
 20
143.809677
 30
0.0
  0
SEQEND
  5
5F
100
AcDbEntity
  8
0
370
     0
390
0
  0
POLYLINE
  5
60
100
AcDbEntity
  8
0
370
    13
390
0
 62
     7
100
AcDb2dPolyline
 66
     1
 10
0.0
 20
0.0
 30
0.0
 71
     3
  0
VERTEX
  5
61
100
AcDbEntity
  8
0
370
     0
390
0
100
AcDbVertex
100
AcDb2dVertex
 10
193.63916
 20
143.809677
 30
0.0
  0
VERTEX
  5
62
100
AcDbEntity
  8
0
370
     0
390
0
100
AcDbVertex
100
AcDb2dVertex
 10
195.193817
 20
148.809677
 30
0.0
  0
VERTEX
  5
63
100
AcDbEntity
  8
0
370
     0
390
0
100
AcDbVertex
100
AcDb2dVertex
 10
196.748505
 20
143.809677
 30
0.0
  0
SEQEND
  5
64
100
AcDbEntity
  8
0
370
     0
390
0
  0
LINE
  5
65
100
AcDbEntity
  8
0
370
    13
390
0
 62
     7
 48
0.051823
100
AcDbLine
 10
194.157379
 20
145.503235
 30
0.0
 11
196.230286
 21
145.503235
 31
0.0
210
0.0
220
0.0
230
1.0
  0
LINE
  5
66
100
AcDbEntity
  8
0
370
    13
390
0
 62
     7
 48
0.066218
100
AcDbLine
 10
197.939484
 20
145.825806
 30
0.0
 11
200.588196
 21
145.825806
 31
0.0
210
0.0
220
0.0
230
1.0
  0
POLYLINE
  5
67
100
AcDbEntity
  8
0
370
    13
390
0
 62
     7
100
AcDb2dPolyline
 66
     1
 10
0.0
 20
0.0
 30
0.0
 70
     1
 71
    16
  0
VERTEX
  5
68
100
AcDbEntity
  8
0
370
     0
390
0
100
AcDbVertex
100
AcDb2dVertex
 10
202.873169
 20
148.809677
 30
0.0
  0
VERTEX
  5
69
100
AcDbEntity
  8
0
370
     0
390
0
100
AcDbVertex
100
AcDb2dVertex
 10
202.239807
 20
148.567749
 30
0.0
  0
VERTEX
  5
6A
100
AcDbEntity
  8
0
370
     0
390
0
100
AcDbVertex
100
AcDb2dVertex
 10
201.836731
 20
147.761292
 30
0.0
  0
VERTEX
  5
6B
100
AcDbEntity
  8
0
370
     0
390
0
100
AcDbVertex
100
AcDb2dVertex
 10
201.664001
 20
146.954849
 30
0.0
  0
VERTEX
  5
6C
100
AcDbEntity
  8
0
370
     0
390
0
100
AcDbVertex
100
AcDb2dVertex
 10
201.664001
 20
145.906464
 30
0.0
  0
VERTEX
  5
6D
100
AcDbEntity
  8
0
370
     0
390
0
100
AcDbVertex
100
AcDb2dVertex
 10
201.836731
 20
144.858063
 30
0.0
  0
VERTEX
  5
6E
100
AcDbEntity
  8
0
370
     0
390
0
100
AcDbVertex
100
AcDb2dVertex
 10
202.239807
 20
144.05162
 30
0.0
  0
VERTEX
  5
6F
100
AcDbEntity
  8
0
370
     0
390
0
100
AcDbVertex
100
AcDb2dVertex
 10
202.873169
 20
143.809677
 30
0.0
  0
VERTEX
  5
70
100
AcDbEntity
  8
0
370
     0
390
0
100
AcDbVertex
100
AcDb2dVertex
 10
203.333832
 20
143.809677
 30
0.0
  0
VERTEX
  5
71
100
AcDbEntity
  8
0
370
     0
390
0
100
AcDbVertex
100
AcDb2dVertex
 10
203.967224
 20
144.05162
 30
0.0
  0
VERTEX
  5
72
100
AcDbEntity
  8
0
370
     0
390
0
100
AcDbVertex
100
AcDb2dVertex
 10
204.37027
 20
144.858063
 30
0.0
  0
VERTEX
  5
73
100
AcDbEntity
  8
0
370
     0
390
0
100
AcDbVertex
100
AcDb2dVertex
 10
204.54303
 20
145.825806
 30
0.0
  0
VERTEX
  5
74
100
AcDbEntity
  8
0
370
     0
390
0
100
AcDbVertex
100
AcDb2dVertex
 10
204.54303
 20
146.954849
 30
0.0
  0
VERTEX
  5
75
100
AcDbEntity
  8
0
370
     0
390
0
100
AcDbVertex
100
AcDb2dVertex
 10
204.37027
 20
147.761292
 30
0.0
  0
VERTEX
  5
76
100
AcDbEntity
  8
0
370
     0
390
0
100
AcDbVertex
100
AcDb2dVertex
 10
203.967224
 20
148.567749
 30
0.0
  0
VERTEX
  5
77
100
AcDbEntity
  8
0
370
     0
390
0
100
AcDbVertex
100
AcDb2dVertex
 10
203.333832
 20
148.809677
 30
0.0
  0
SEQEND
  5
78
100
AcDbEntity
  8
0
370
     0
390
0
  0
POLYLINE
  5
79
100
AcDbEntity
  8
0
370
    13
390
0
 62
     7
100
AcDb2dPolyline
 66
     1
 10
0.0
 20
0.0
 30
0.0
 71
    15
  0
VERTEX
  5
7A
100
AcDbEntity
  8
0
370
     0
390
0
100
AcDbVertex
100
AcDb2dVertex
 10
205.676422
 20
144.696777
 30
0.0
  0
VERTEX
  5
7B
100
AcDbEntity
  8
0
370
     0
390
0
100
AcDbVertex
100
AcDb2dVertex
 10
205.849152
 20
144.293549
 30
0.0
  0
VERTEX
  5
7C
100
AcDbEntity
  8
0
370
     0
390
0
100
AcDbVertex
100
AcDb2dVertex
 10
206.021881
 20
144.05162
 30
0.0
  0
VERTEX
  5
7D
100
AcDbEntity
  8
0
370
     0
390
0
100
AcDbVertex
100
AcDb2dVertex
 10
206.655273
 20
143.809677
 30
0.0
  0
VERTEX
  5
7E
100
AcDbEntity
  8
0
370
     0
390
0
100
AcDbVertex
100
AcDb2dVertex
 10
207.288666
 20
143.809677
 30
0.0
  0
VERTEX
  5
7F
100
AcDbEntity
  8
0
370
     0
390
0
100
AcDbVertex
100
AcDb2dVertex
 10
207.979645
 20
144.05162
 30
0.0
  0
VERTEX
  5
80
100
AcDbEntity
  8
0
370
     0
390
0
100
AcDbVertex
100
AcDb2dVertex
 10
208.325104
 20
144.535492
 30
0.0
  0
VERTEX
  5
81
100
AcDbEntity
  8
0
370
     0
390
0
100
AcDbVertex
100
AcDb2dVertex
 10
208.497864
 20
145.261292
 30
0.0
  0
VERTEX
  5
82
100
AcDbEntity
  8
0
370
     0
390
0
100
AcDbVertex
100
AcDb2dVertex
 10
208.497864
 20
145.745163
 30
0.0
  0
VERTEX
  5
83
100
AcDbEntity
  8
0
370
     0
390
0
100
AcDbVertex
100
AcDb2dVertex
 10
208.325104
 20
146.470978
 30
0.0
  0
VERTEX
  5
84
100
AcDbEntity
  8
0
370
     0
390
0
100
AcDbVertex
100
AcDb2dVertex
 10
208.152374
 20
146.712906
 30
0.0
  0
VERTEX
  5
85
100
AcDbEntity
  8
0
370
     0
390
0
100
AcDbVertex
100
AcDb2dVertex
 10
207.806885
 20
146.954849
 30
0.0
  0
VERTEX
  5
86
100
AcDbEntity
  8
0
370
     0
390
0
100
AcDbVertex
100
AcDb2dVertex
 10
207.000763
 20
146.954849
 30
0.0
  0
VERTEX
  5
87
100
AcDbEntity
  8
0
370
     0
390
0
100
AcDbVertex
100
AcDb2dVertex
 10
208.209961
 20
148.809677
 30
0.0
  0
VERTEX
  5
88
100
AcDbEntity
  8
0
370
     0
390
0
100
AcDbVertex
100
AcDb2dVertex
 10
206.079468
 20
148.809677
 30
0.0
  0
SEQEND
  5
89
100
AcDbEntity
  8
0
370
     0
390
0
  0
POLYLINE
  5
8A
100
AcDbEntity
  8
0
370
    13
390
0
 62
     7
100
AcDb2dPolyline
 66
     1
 10
0.0
 20
0.0
 30
0.0
 71
    14
  0
VERTEX
  5
8B
100
AcDbEntity
  8
0
370
     0
390
0
100
AcDbVertex
100
AcDb2dVertex
 10
212.395111
 20
143.809677
 30
0.0
  0
VERTEX
  5
8C
100
AcDbEntity
  8
0
370
     0
390
0
100
AcDbVertex
100
AcDb2dVertex
 10
209.631256
 20
143.809677
 30
0.0
  0
VERTEX
  5
8D
100
AcDbEntity
  8
0
370
     0
390
0
100
AcDbVertex
100
AcDb2dVertex
 10
211.588989
 20
146.067749
 30
0.0
  0
VERTEX
  5
8E
100
AcDbEntity
  8
0
370
     0
390
0
100
AcDbVertex
100
AcDb2dVertex
 10
211.992065
 20
146.712906
 30
0.0
  0
VERTEX
  5
8F
100
AcDbEntity
  8
0
370
     0
390
0
100
AcDbVertex
100
AcDb2dVertex
 10
212.164795
 20
147.196777
 30
0.0
  0
VERTEX
  5
90
100
AcDbEntity
  8
0
370
     0
390
0
100
AcDbVertex
100
AcDb2dVertex
 10
212.164795
 20
147.680649
 30
0.0
  0
VERTEX
  5
91
100
AcDbEntity
  8
0
370
     0
390
0
100
AcDbVertex
100
AcDb2dVertex
 10
211.992065
 20
148.245163
 30
0.0
  0
VERTEX
  5
92
100
AcDbEntity
  8
0
370
     0
390
0
100
AcDbVertex
100
AcDb2dVertex
 10
211.819305
 20
148.567749
 30
0.0
  0
VERTEX
  5
93
100
AcDbEntity
  8
0
370
     0
390
0
100
AcDbVertex
100
AcDb2dVertex
 10
211.41626
 20
148.809677
 30
0.0
  0
VERTEX
  5
94
100
AcDbEntity
  8
0
370
     0
390
0
100
AcDbVertex
100
AcDb2dVertex
 10
210.725281
 20
148.809677
 30
0.0
  0
VERTEX
  5
95
100
AcDbEntity
  8
0
370
     0
390
0
100
AcDbVertex
100
AcDb2dVertex
 10
210.322205
 20
148.567749
 30
0.0
  0
VERTEX
  5
96
100
AcDbEntity
  8
0
370
     0
390
0
100
AcDbVertex
100
AcDb2dVertex
 10
210.149475
 20
148.325806
 30
0.0
  0
VERTEX
  5
97
100
AcDbEntity
  8
0
370
     0
390
0
100
AcDbVertex
100
AcDb2dVertex
 10
209.919159
 20
147.841934
 30
0.0
  0
VERTEX
  5
98
100
AcDbEntity
  8
0
370
     0
390
0
100
AcDbVertex
100
AcDb2dVertex
 10
209.919159
 20
147.600006
 30
0.0
  0
SEQEND
  5
99
100
AcDbEntity
  8
0
370
     0
390
0
  0
LINE
  5
9A
100
AcDbEntity
  8
0
370
    35
390
0
 62
     7
 48
0.3275
100
AcDbLine
 10
549.147034
 20
245.850006
 30
0.0
 11
549.147034
 21
258.950012
 31
0.0
210
0.0
220
0.0
230
1.0
  0
LINE
  5
9B
100
AcDbEntity
  8
0
370
    35
390
0
 62
     7
 48
0.057967
100
AcDbLine
 10
549.147034
 20
258.950012
 30
0.0
 11
546.828369
 21
258.950012
 31
0.0
210
0.0
220
0.0
230
1.0
  0
ARC
  5
9C
100
AcDbEntity
  8
0
370
    35
390
0
 62
     7
100
AcDbCircle
 10
540.147034
 20
263.350006
 30
0.0
 40
8.0
210
0.0
220
0.0
230
1.0
100
AcDbArc
 50
213.367013
 51
326.632979
  0
LINE
  5
9D
100
AcDbEntity
  8
0
370
    35
390
0
 62
     7
100
AcDbLine
 10
533.465759
 20
258.950012
 30
0.0
 11
474.797028
 21
258.950012
 31
0.0
210
0.0
220
0.0
230
1.0
  0
LINE
  5
9E
100
AcDbEntity
  8
0
370
    35
390
0
 62
     7
 48
0.0975
100
AcDbLine
 10
474.797028
 20
255.050003
 30
0.0
 11
474.797028
 21
258.950012
 31
0.0
210
0.0
220
0.0
230
1.0
  0
ARC
  5
9F
100
AcDbEntity
  8
0
370
    35
390
0
 62
     7
100
AcDbCircle
 10
474.297028
 20
255.050003
 30
0.0
 40
0.5
210
0.0
220
0.0
230
1.0
100
AcDbArc
 50
180.000009
 51
360.0
  0
LINE
  5
A0
100
AcDbEntity
  8
0
370
    35
390
0
 62
     7
 48
0.0975
100
AcDbLine
 10
473.797028
 20
258.950012
 30
0.0
 11
473.797028
 21
255.050003
 31
0.0
210
0.0
220
0.0
230
1.0
  0
LINE
  5
A1
100
AcDbEntity
  8
0
370
    35
390
0
 62
     7
 48
0.0575
100
AcDbLine
 10
473.797028
 20
258.950012
 30
0.0
 11
471.49704
 21
258.950012
 31
0.0
210
0.0
220
0.0
230
1.0
  0
LINE
  5
A2
100
AcDbEntity
  8
0
370
    35
390
0
 62
     7
 48
0.0975
100
AcDbLine
 10
471.49704
 20
255.050003
 30
0.0
 11
471.49704
 21
258.950012
 31
0.0
210
0.0
220
0.0
230
1.0
  0
ARC
  5
A3
100
AcDbEntity
  8
0
370
    35
390
0
 62
     7
100
AcDbCircle
 10
470.99704
 20
255.050003
 30
0.0
 40
0.5
210
0.0
220
0.0
230
1.0
100
AcDbArc
 50
180.000009
 51
360.0
  0
LINE
  5
A4
100
AcDbEntity
  8
0
370
    35
390
0
 62
     7
 48
0.0975
100
AcDbLine
 10
470.49704
 20
258.950012
 30
0.0
 11
470.49704
 21
255.050003
 31
0.0
210
0.0
220
0.0
230
1.0
  0
LINE
  5
A5
100
AcDbEntity
  8
0
370
    35
390
0
 62
     7
100
AcDbLine
 10
470.49704
 20
258.950012
 30
0.0
 11
174.797058
 21
258.950012
 31
0.0
210
0.0
220
0.0
230
1.0
  0
LINE
  5
A6
100
AcDbEntity
  8
0
370
    35
390
0
 62
     7
 48
0.0975
100
AcDbLine
 10
174.797058
 20
255.050003
 30
0.0
 11
174.797058
 21
258.950012
 31
0.0
210
0.0
220
0.0
230
1.0
  0
ARC
  5
A7
100
AcDbEntity
  8
0
370
    35
390
0
 62
     7
100
AcDbCircle
 10
174.297058
 20
255.050003
 30
0.0
 40
0.5
210
0.0
220
0.0
230
1.0
100
AcDbArc
 50
180.000009
 51
360.0
  0
LINE
  5
A8
100
AcDbEntity
  8
0
370
    35
390
0
 62
     7
 48
0.0975
100
AcDbLine
 10
173.797058
 20
258.950012
 30
0.0
 11
173.797058
 21
255.050003
 31
0.0
210
0.0
220
0.0
230
1.0
  0
LINE
  5
A9
100
AcDbEntity
  8
0
370
    35
390
0
 62
     7
 48
0.0575
100
AcDbLine
 10
173.797058
 20
258.950012
 30
0.0
 11
171.49704
 21
258.950012
 31
0.0
210
0.0
220
0.0
230
1.0
  0
LINE
  5
AA
100
AcDbEntity
  8
0
370
    35
390
0
 62
     7
 48
0.0975
100
AcDbLine
 10
171.49704
 20
255.050003
 30
0.0
 11
171.49704
 21
258.950012
 31
0.0
210
0.0
220
0.0
230
1.0
  0
ARC
  5
AB
100
AcDbEntity
  8
0
370
    35
390
0
 62
     7
100
AcDbCircle
 10
170.99704
 20
255.050003
 30
0.0
 40
0.5
210
0.0
220
0.0
230
1.0
100
AcDbArc
 50
180.000009
 51
360.0
  0
LINE
  5
AC
100
AcDbEntity
  8
0
370
    35
390
0
 62
     7
 48
0.0975
100
AcDbLine
 10
170.49704
 20
258.950012
 30
0.0
 11
170.49704
 21
255.050003
 31
0.0
210
0.0
220
0.0
230
1.0
  0
LINE
  5
AD
100
AcDbEntity
  8
0
370
    35
390
0
 62
     7
100
AcDbLine
 10
170.49704
 20
258.950012
 30
0.0
 11
111.828369
 21
258.950012
 31
0.0
210
0.0
220
0.0
230
1.0
  0
ARC
  5
AE
100
AcDbEntity
  8
0
370
    35
390
0
 62
     7
100
AcDbCircle
 10
105.147057
 20
263.350006
 30
0.0
 40
8.0
210
0.0
220
0.0
230
1.0
100
AcDbArc
 50
213.367013
 51
326.632979
  0
LINE
  5
AF
100
AcDbEntity
  8
0
370
    35
390
0
 62
     7
 48
0.057967
100
AcDbLine
 10
98.465736
 20
258.950012
 30
0.0
 11
96.147057
 21
258.950012
 31
0.0
210
0.0
220
0.0
230
1.0
  0
LINE
  5
B0
100
AcDbEntity
  8
0
370
    35
390
0
 62
     7
 48
0.3275
100
AcDbLine
 10
96.147057
 20
245.850006
 30
0.0
 11
96.147057
 21
258.950012
 31
0.0
210
0.0
220
0.0
230
1.0
  0
LINE
  5
B1
100
AcDbEntity
  8
0
370
    35
390
0
 62
     7
 48
0.02
100
AcDbLine
 10
549.147034
 20
245.050003
 30
0.0
 11
549.147034
 21
245.850006
 31
0.0
210
0.0
220
0.0
230
1.0
  0
LINE
  5
B2
100
AcDbEntity
  8
0
370
    35
390
0
 62
     7
 48
0.02
100
AcDbLine
 10
96.147057
 20
245.850006
 30
0.0
 11
96.147057
 21
245.050003
 31
0.0
210
0.0
220
0.0
230
1.0
  0
LINE
  5
B3
100
AcDbEntity
  8
0
370
    35
390
0
 62
     7
100
AcDbLine
 10
96.147057
 20
245.050003
 30
0.0
 11
549.147034
 21
245.050003
 31
0.0
210
0.0
220
0.0
230
1.0
  0
LINE
  5
B4
100
AcDbEntity
  8
0
370
    35
390
0
 62
     7
 48
0.003232
100
AcDbLine
 10
549.147034
 20
259.079285
 30
0.0
 11
549.147034
 21
258.950012
 31
0.0
210
0.0
220
0.0
230
1.0
  0
LINE
  5
B5
100
AcDbEntity
  8
0
370
    35
390
0
 62
     7
 48
0.003535
100
AcDbLine
 10
549.147034
 20
259.079285
 30
0.0
 11
549.147034
 21
259.220703
 31
0.0
210
0.0
220
0.0
230
1.0
  0
LINE
  5
B6
100
AcDbEntity
  8
0
370
    35
390
0
 62
     7
 48
0.003233
100
AcDbLine
 10
549.147034
 20
259.350006
 30
0.0
 11
549.147034
 21
259.220703
 31
0.0
210
0.0
220
0.0
230
1.0
  0
LINE
  5
B7
100
AcDbEntity
  8
0
370
    35
390
0
 62
     7
 48
0.0175
100
AcDbLine
 10
549.147034
 20
259.350006
 30
0.0
 11
549.147034
 21
260.049988
 31
0.0
210
0.0
220
0.0
230
1.0
  0
LINE
  5
B8
100
AcDbEntity
  8
0
370
    35
390
0
 62
     7
 48
0.003233
100
AcDbLine
 10
549.147034
 20
260.179291
 30
0.0
 11
549.147034
 21
260.049988
 31
0.0
210
0.0
220
0.0
230
1.0
  0
LINE
  5
B9
100
AcDbEntity
  8
0
370
    35
390
0
 62
     7
 48
0.003535
100
AcDbLine
 10
549.147034
 20
260.179291
 30
0.0
 11
549.147034
 21
260.320709
 31
0.0
210
0.0
220
0.0
230
1.0
  0
LINE
  5
BA
100
AcDbEntity
  8
0
370
    35
390
0
 62
     7
 48
0.003233
100
AcDbLine
 10
549.147034
 20
260.450012
 30
0.0
 11
549.147034
 21
260.320709
 31
0.0
210
0.0
220
0.0
230
1.0
  0
LINE
  5
BB
100
AcDbEntity
  8
0
370
    35
390
0
 62
     7
 48
0.0175
100
AcDbLine
 10
549.147034
 20
260.450012
 30
0.0
 11
549.147034
 21
261.150024
 31
0.0
210
0.0
220
0.0
230
1.0
  0
LINE
  5
BC
100
AcDbEntity
  8
0
370
    35
390
0
 62
     7
 48
0.003232
100
AcDbLine
 10
549.147034
 20
261.279297
 30
0.0
 11
549.147034
 21
261.150024
 31
0.0
210
0.0
220
0.0
230
1.0
  0
LINE
  5
BD
100
AcDbEntity
  8
0
370
    35
390
0
 62
     7
 48
0.003535
100
AcDbLine
 10
549.147034
 20
261.279297
 30
0.0
 11
549.147034
 21
261.420715
 31
0.0
210
0.0
220
0.0
230
1.0
  0
LINE
  5
BE
100
AcDbEntity
  8
0
370
    35
390
0
 62
     7
 48
0.003232
100
AcDbLine
 10
549.147034
 20
261.549988
 30
0.0
 11
549.147034
 21
261.420715
 31
0.0
210
0.0
220
0.0
230
1.0
  0
LINE
  5
BF
100
AcDbEntity
  8
0
370
    35
390
0
 62
     7
 48
0.0175
100
AcDbLine
 10
549.147034
 20
261.549988
 30
0.0
 11
549.147034
 21
262.25
 31
0.0
210
0.0
220
0.0
230
1.0
  0
LINE
  5
C0
100
AcDbEntity
  8
0
370
    35
390
0
 62
     7
 48
0.003232
100
AcDbLine
 10
549.147034
 20
262.379272
 30
0.0
 11
549.147034
 21
262.25
 31
0.0
210
0.0
220
0.0
230
1.0
  0
LINE
  5
C1
100
AcDbEntity
  8
0
370
    35
390
0
 62
     7
 48
0.003536
100
AcDbLine
 10
549.147034
 20
262.379272
 30
0.0
 11
549.147034
 21
262.520721
 31
0.0
210
0.0
220
0.0
230
1.0
  0
LINE
  5
C2
100
AcDbEntity
  8
0
370
    35
390
0
 62
     7
 48
0.003233
100
AcDbLine
 10
549.147034
 20
262.650024
 30
0.0
 11
549.147034
 21
262.520721
 31
0.0
210
0.0
220
0.0
230
1.0
  0
LINE
  5
C3
100
AcDbEntity
  8
0
370
    35
390
0
 62
     7
 48
0.0175
100
AcDbLine
 10
549.147034
 20
262.650024
 30
0.0
 11
549.147034
 21
263.350006
 31
0.0
210
0.0
220
0.0
230
1.0
  0
LINE
  5
C4
100
AcDbEntity
  8
0
370
    35
390
0
 62
     7
 48
0.003233
100
AcDbLine
 10
549.147034
 20
263.479309
 30
0.0
 11
549.147034
 21
263.350006
 31
0.0
210
0.0
220
0.0
230
1.0
  0
LINE
  5
C5
100
AcDbEntity
  8
0
370
    35
390
0
 62
     7
 48
0.003535
100
AcDbLine
 10
549.147034
 20
263.479309
 30
0.0
 11
549.147034
 21
263.620728
 31
0.0
210
0.0
220
0.0
230
1.0
  0
LINE
  5
C6
100
AcDbEntity
  8
0
370
    35
390
0
 62
     7
 48
0.003232
100
AcDbLine
 10
549.147034
 20
263.75
 30
0.0
 11
549.147034
 21
263.620728
 31
0.0
210
0.0
220
0.0
230
1.0
  0
LINE
  5
C7
100
AcDbEntity
  8
0
370
    35
390
0
 62
     7
 48
0.0175
100
AcDbLine
 10
549.147034
 20
263.75
 30
0.0
 11
549.147034
 21
264.450012
 31
0.0
210
0.0
220
0.0
230
1.0
  0
LINE
  5
C8
100
AcDbEntity
  8
0
370
    35
390
0
 62
     7
 48
0.003232
100
AcDbLine
 10
549.147034
 20
264.579285
 30
0.0
 11
549.147034
 21
264.450012
 31
0.0
210
0.0
220
0.0
230
1.0
  0
LINE
  5
C9
100
AcDbEntity
  8
0
370
    35
390
0
 62
     7
 48
0.003535
100
AcDbLine
 10
549.147034
 20
264.579285
 30
0.0
 11
549.147034
 21
264.720703
 31
0.0
210
0.0
220
0.0
230
1.0
  0
LINE
  5
CA
100
AcDbEntity
  8
0
370
    35
390
0
 62
     7
 48
0.003233
100
AcDbLine
 10
549.147034
 20
264.850006
 30
0.0
 11
549.147034
 21
264.720703
 31
0.0
210
0.0
220
0.0
230
1.0
  0
LINE
  5
CB
100
AcDbEntity
  8
0
370
    35
390
0
 62
     7
 48
0.0175
100
AcDbLine
 10
549.147034
 20
264.850006
 30
0.0
 11
549.147034
 21
265.549988
 31
0.0
210
0.0
220
0.0
230
1.0
  0
LINE
  5
CC
100
AcDbEntity
  8
0
370
    35
390
0
 62
     7
 48
0.003233
100
AcDbLine
 10
549.147034
 20
265.679291
 30
0.0
 11
549.147034
 21
265.549988
 31
0.0
210
0.0
220
0.0
230
1.0
  0
LINE
  5
CD
100
AcDbEntity
  8
0
370
    35
390
0
 62
     7
 48
0.003535
100
AcDbLine
 10
549.147034
 20
265.679291
 30
0.0
 11
549.147034
 21
265.820709
 31
0.0
210
0.0
220
0.0
230
1.0
  0
LINE
  5
CE
100
AcDbEntity
  8
0
370
    35
390
0
 62
     7
 48
0.003233
100
AcDbLine
 10
549.147034
 20
265.950012
 30
0.0
 11
549.147034
 21
265.820709
 31
0.0
210
0.0
220
0.0
230
1.0
  0
LINE
  5
CF
100
AcDbEntity
  8
0
370
    35
390
0
 62
     7
 48
0.0175
100
AcDbLine
 10
549.147034
 20
265.950012
 30
0.0
 11
549.147034
 21
266.650024
 31
0.0
210
0.0
220
0.0
230
1.0
  0
LINE
  5
D0
100
AcDbEntity
  8
0
370
    35
390
0
 62
     7
 48
0.003232
100
AcDbLine
 10
549.147034
 20
266.779297
 30
0.0
 11
549.147034
 21
266.650024
 31
0.0
210
0.0
220
0.0
230
1.0
  0
LINE
  5
D1
100
AcDbEntity
  8
0
370
    35
390
0
 62
     7
 48
0.003535
100
AcDbLine
 10
549.147034
 20
266.779297
 30
0.0
 11
549.147034
 21
266.920715
 31
0.0
210
0.0
220
0.0
230
1.0
  0
LINE
  5
D2
100
AcDbEntity
  8
0
370
    35
390
0
 62
     7
 48
0.003232
100
AcDbLine
 10
549.147034
 20
267.049988
 30
0.0
 11
549.147034
 21
266.920715
 31
0.0
210
0.0
220
0.0
230
1.0
  0
LINE
  5
D3
100
AcDbEntity
  8
0
370
    35
390
0
 62
     7
 48
0.0175
100
AcDbLine
 10
549.147034
 20
267.049988
 30
0.0
 11
549.147034
 21
267.75
 31
0.0
210
0.0
220
0.0
230
1.0
  0
LINE
  5
D4
100
AcDbEntity
  8
0
370
    35
390
0
 62
     7
 48
0.003232
100
AcDbLine
 10
549.147034
 20
267.879272
 30
0.0
 11
549.147034
 21
267.75
 31
0.0
210
0.0
220
0.0
230
1.0
  0
LINE
  5
D5
100
AcDbEntity
  8
0
370
    35
390
0
 62
     7
 48
0.003536
100
AcDbLine
 10
549.147034
 20
267.879272
 30
0.0
 11
549.147034
 21
268.020721
 31
0.0
210
0.0
220
0.0
230
1.0
  0
LINE
  5
D6
100
AcDbEntity
  8
0
370
    35
390
0
 62
     7
 48
0.003233
100
AcDbLine
 10
549.147034
 20
268.150024
 30
0.0
 11
549.147034
 21
268.020721
 31
0.0
210
0.0
220
0.0
230
1.0
  0
LINE
  5
D7
100
AcDbEntity
  8
0
370
    35
390
0
 62
     7
 48
0.120606
100
AcDbLine
 10
549.147034
 20
268.150024
 30
0.0
 11
549.147034
 21
272.974274
 31
0.0
210
0.0
220
0.0
230
1.0
  0
LINE
  5
D8
100
AcDbEntity
  8
0
370
    35
390
0
 62
     7
 48
0.012197
100
AcDbLine
 10
549.147034
 20
273.462158
 30
0.0
 11
549.147034
 21
272.974274
 31
0.0
210
0.0
220
0.0
230
1.0
  0
LINE
  5
D9
100
AcDbEntity
  8
0
370
    35
390
0
 62
     7
 48
0.002196
100
AcDbLine
 10
549.147034
 20
273.462158
 30
0.0
 11
549.147034
 21
273.549988
 31
0.0
210
0.0
220
0.0
230
1.0
  0
LINE
  5
DA
100
AcDbEntity
  8
0
370
    35
390
0
 62
     7
 48
0.003846
100
AcDbLine
 10
546.828369
 20
258.950012
 30
0.0
 11
546.911743
 21
259.079285
 31
0.0
210
0.0
220
0.0
230
1.0
  0
ARC
  5
DB
100
AcDbEntity
  8
0
370
    35
390
0
 62
     7
100
AcDbCircle
 10
540.147034
 20
263.350006
 30
0.0
 40
8.0
210
0.0
220
0.0
230
1.0
100
AcDbArc
 50
354.980203
 51
360.0
  0
LINE
  5
DC
100
AcDbEntity
  8
0
370
    35
390
0
 62
     7
 48
0.003248
100
AcDbLine
 10
548.103943
 20
262.520721
 30
0.0
 11
548.116394
 21
262.650024
 31
0.0
210
0.0
220
0.0
230
1.0
  0
LINE
  5
DD
100
AcDbEntity
  8
0
370
    35
390
0
 62
     7
 48
0.003559
100
AcDbLine
 10
548.087952
 20
262.379272
 30
0.0
 11
548.103943
 21
262.520721
 31
0.0
210
0.0
220
0.0
230
1.0
  0
LINE
  5
DE
100
AcDbEntity
  8
0
370
    35
390
0
 62
     7
 48
0.003259
100
AcDbLine
 10
548.071045
 20
262.25
 30
0.0
 11
548.087952
 21
262.379272
 31
0.0
210
0.0
220
0.0
230
1.0
  0
ARC
  5
DF
100
AcDbEntity
  8
0
370
    35
390
0
 62
     7
100
AcDbCircle
 10
540.147034
 20
263.350006
 30
0.0
 40
8.0
210
0.0
220
0.0
230
1.0
100
AcDbArc
 50
346.997132
 51
352.096798
  0
LINE
  5
E0
100
AcDbEntity
  8
0
370
    35
390
0
 62
     7
 48
0.003323
100
AcDbLine
 10
547.91095
 20
261.420715
 30
0.0
 11
547.941895
 21
261.549988
 31
0.0
210
0.0
220
0.0
230
1.0
  0
LINE
  5
E1
100
AcDbEntity
  8
0
370
    35
390
0
 62
     7
 48
0.003652
100
AcDbLine
 10
547.87439
 20
261.279297
 30
0.0
 11
547.91095
 21
261.420715
 31
0.0
210
0.0
220
0.0
230
1.0
  0
LINE
  5
E2
100
AcDbEntity
  8
0
370
    35
390
0
 62
     7
 48
0.003353
100
AcDbLine
 10
547.838623
 20
261.150024
 30
0.0
 11
547.87439
 21
261.279297
 31
0.0
210
0.0
220
0.0
230
1.0
  0
ARC
  5
E3
100
AcDbEntity
  8
0
370
    35
390
0
 62
     7
100
AcDbCircle
 10
540.147034
 20
263.350006
 30
0.0
 40
8.0
210
0.0
220
0.0
230
1.0
100
AcDbArc
 50
338.746183
 51
344.037995
  0
LINE
  5
E4
100
AcDbEntity
  8
0
370
    35
390
0
 62
     7
 48
0.00348
100
AcDbLine
 10
547.551331
 20
260.320709
 30
0.0
 11
547.602905
 21
260.450012
 31
0.0
210
0.0
220
0.0
230
1.0
  0
LINE
  5
E5
100
AcDbEntity
  8
0
370
    35
390
0
 62
     7
 48
0.003835
100
AcDbLine
 10
547.491882
 20
260.179291
 30
0.0
 11
547.551331
 21
260.320709
 31
0.0
210
0.0
220
0.0
230
1.0
  0
LINE
  5
E6
100
AcDbEntity
  8
0
370
    35
390
0
 62
     7
 48
0.003535
100
AcDbLine
 10
547.434692
 20
260.049988
 30
0.0
 11
547.491882
 21
260.179291
 31
0.0
210
0.0
220
0.0
230
1.0
  0
ARC
  5
E7
100
AcDbEntity
  8
0
370
    35
390
0
 62
     7
100
AcDbCircle
 10
540.147034
 20
263.350006
 30
0.0
 40
8.0
210
0.0
220
0.0
230
1.0
100
AcDbArc
 50
329.999989
 51
335.63801
  0
LINE
  5
E8
100
AcDbEntity
  8
0
370
    35
390
0
 62
     7
 48
0.003753
100
AcDbLine
 10
546.998962
 20
259.220703
 30
0.0
 11
547.075256
 21
259.350006
 31
0.0
210
0.0
220
0.0
230
1.0
  0
LINE
  5
E9
100
AcDbEntity
  8
0
370
    35
390
0
 62
     7
 48
0.004154
100
AcDbLine
 10
546.911743
 20
259.079285
 30
0.0
 11
546.998962
 21
259.220703
 31
0.0
210
0.0
220
0.0
230
1.0
  0
LINE
  5
EA
100
AcDbEntity
  8
0
370
    35
390
0
 62
     7
 48
0.003846
100
AcDbLine
 10
533.465759
 20
258.950012
 30
0.0
 11
533.382385
 21
259.079285
 31
0.0
210
0.0
220
0.0
230
1.0
  0
LINE
  5
EB
100
AcDbEntity
  8
0
370
    35
390
0
 62
     7
 48
0.004155
100
AcDbLine
 10
533.382385
 20
259.079285
 30
0.0
 11
533.295105
 21
259.220703
 31
0.0
210
0.0
220
0.0
230
1.0
  0
LINE
  5
EC
100
AcDbEntity
  8
0
370
    35
390
0
 62
     7
 48
0.003753
100
AcDbLine
 10
533.295105
 20
259.220703
 30
0.0
 11
533.218872
 21
259.350006
 31
0.0
210
0.0
220
0.0
230
1.0
  0
ARC
  5
ED
100
AcDbEntity
  8
0
370
    35
390
0
 62
     7
100
AcDbCircle
 10
540.147034
 20
263.350006
 30
0.0
 40
8.0
210
0.0
220
0.0
230
1.0
100
AcDbArc
 50
204.361982
 51
210.000003
  0
LINE
  5
EE
100
AcDbEntity
  8
0
370
    35
390
0
 62
     7
 48
0.003535
100
AcDbLine
 10
532.859375
 20
260.049988
 30
0.0
 11
532.802185
 21
260.179291
 31
0.0
210
0.0
220
0.0
230
1.0
  0
LINE
  5
EF
100
AcDbEntity
  8
0
370
    35
390
0
 62
     7
 48
0.003835
100
AcDbLine
 10
532.802185
 20
260.179291
 30
0.0
 11
532.742737
 21
260.320709
 31
0.0
210
0.0
220
0.0
230
1.0
  0
LINE
  5
F0
100
AcDbEntity
  8
0
370
    35
390
0
 62
     7
 48
0.00348
100
AcDbLine
 10
532.742737
 20
260.320709
 30
0.0
 11
532.691162
 21
260.450012
 31
0.0
210
0.0
220
0.0
230
1.0
  0
ARC
  5
F1
100
AcDbEntity
  8
0
370
    35
390
0
 62
     7
100
AcDbCircle
 10
540.147034
 20
263.350006
 30
0.0
 40
8.0
210
0.0
220
0.0
230
1.0
100
AcDbArc
 50
195.96201
 51
201.253809
  0
LINE
  5
F2
100
AcDbEntity
  8
0
370
    35
390
0
 62
     7
 48
0.003354
100
AcDbLine
 10
532.455505
 20
261.150024
 30
0.0
 11
532.419678
 21
261.279297
 31
0.0
210
0.0
220
0.0
230
1.0
  0
LINE
  5
F3
100
AcDbEntity
  8
0
370
    35
390
0
 62
     7
 48
0.003651
100
AcDbLine
 10
532.419678
 20
261.279297
 30
0.0
 11
532.383179
 21
261.420715
 31
0.0
210
0.0
220
0.0
230
1.0
  0
LINE
  5
F4
100
AcDbEntity
  8
0
370
    35
390
0
 62
     7
 48
0.003323
100
AcDbLine
 10
532.383179
 20
261.420715
 30
0.0
 11
532.352173
 21
261.549988
 31
0.0
210
0.0
220
0.0
230
1.0
  0
ARC
  5
F5
100
AcDbEntity
  8
0
370
    35
390
0
 62
     7
100
AcDbCircle
 10
540.147034
 20
263.350006
 30
0.0
 40
8.0
210
0.0
220
0.0
230
1.0
100
AcDbArc
 50
187.903207
 51
193.002872
  0
LINE
  5
F6
100
AcDbEntity
  8
0
370
    35
390
0
 62
     7
 48
0.003259
100
AcDbLine
 10
532.223022
 20
262.25
 30
0.0
 11
532.206177
 21
262.379272
 31
0.0
210
0.0
220
0.0
230
1.0
  0
LINE
  5
F7
100
AcDbEntity
  8
0
370
    35
390
0
 62
     7
 48
0.003559
100
AcDbLine
 10
532.206177
 20
262.379272
 30
0.0
 11
532.190125
 21
262.520721
 31
0.0
210
0.0
220
0.0
230
1.0
  0
LINE
  5
F8
100
AcDbEntity
  8
0
370
    35
390
0
 62
     7
 48
0.003247
100
AcDbLine
 10
532.190125
 20
262.520721
 30
0.0
 11
532.177734
 21
262.650024
 31
0.0
210
0.0
220
0.0
230
1.0
  0
ARC
  5
F9
100
AcDbEntity
  8
0
370
    35
390
0
 62
     7
100
AcDbCircle
 10
540.147034
 20
263.350006
 30
0.0
 40
8.0
210
0.0
220
0.0
230
1.0
100
AcDbArc
 50
180.000009
 51
185.019802
  0
LINE
  5
FA
100
AcDbEntity
  8
0
370
    35
390
0
 62
     7
 48
0.003232
100
AcDbLine
 10
474.797028
 20
259.079285
 30
0.0
 11
474.797028
 21
258.950012
 31
0.0
210
0.0
220
0.0
230
1.0
  0
LINE
  5
FB
100
AcDbEntity
  8
0
370
    35
390
0
 62
     7
 48
0.003233
100
AcDbLine
 10
474.797028
 20
259.220703
 30
0.0
 11
474.797028
 21
259.350006
 31
0.0
210
0.0
220
0.0
230
1.0
  0
LINE
  5
FC
100
AcDbEntity
  8
0
370
    35
390
0
 62
     7
 48
0.003535
100
AcDbLine
 10
474.797028
 20
259.220703
 30
0.0
 11
474.797028
 21
259.079285
 31
0.0
210
0.0
220
0.0
230
1.0
  0
LINE
  5
FD
100
AcDbEntity
  8
0
370
    35
390
0
 62
     7
 48
0.01
100
AcDbLine
 10
474.797028
 20
265.950012
 30
0.0
 11
474.797028
 21
266.350006
 31
0.0
210
0.0
220
0.0
230
1.0
  0
LINE
  5
FE
100
AcDbEntity
  8
0
370
    35
390
0
 62
     7
 48
0.003233
100
AcDbLine
 10
474.797028
 20
265.820709
 30
0.0
 11
474.797028
 21
265.950012
 31
0.0
210
0.0
220
0.0
230
1.0
  0
LINE
  5
FF
100
AcDbEntity
  8
0
370
    35
390
0
 62
     7
 48
0.003535
100
AcDbLine
 10
474.797028
 20
265.820709
 30
0.0
 11
474.797028
 21
265.679291
 31
0.0
210
0.0
220
0.0
230
1.0
  0
LINE
  5
100
100
AcDbEntity
  8
0
370
    35
390
0
 62
     7
 48
0.003233
100
AcDbLine
 10
474.797028
 20
265.679291
 30
0.0
 11
474.797028
 21
265.549988
 31
0.0
210
0.0
220
0.0
230
1.0
  0
LINE
  5
101
100
AcDbEntity
  8
0
370
    35
390
0
 62
     7
 48
0.0175
100
AcDbLine
 10
474.797028
 20
264.850006
 30
0.0
 11
474.797028
 21
265.549988
 31
0.0
210
0.0
220
0.0
230
1.0
  0
LINE
  5
102
100
AcDbEntity
  8
0
370
    35
390
0
 62
     7
 48
0.003233
100
AcDbLine
 10
474.797028
 20
264.720703
 30
0.0
 11
474.797028
 21
264.850006
 31
0.0
210
0.0
220
0.0
230
1.0
  0
LINE
  5
103
100
AcDbEntity
  8
0
370
    35
390
0
 62
     7
 48
0.003535
100
AcDbLine
 10
474.797028
 20
264.720703
 30
0.0
 11
474.797028
 21
264.579285
 31
0.0
210
0.0
220
0.0
230
1.0
  0
LINE
  5
104
100
AcDbEntity
  8
0
370
    35
390
0
 62
     7
 48
0.003232
100
AcDbLine
 10
474.797028
 20
264.579285
 30
0.0
 11
474.797028
 21
264.450012
 31
0.0
210
0.0
220
0.0
230
1.0
  0
LINE
  5
105
100
AcDbEntity
  8
0
370
    35
390
0
 62
     7
 48
0.0175
100
AcDbLine
 10
474.797028
 20
263.75
 30
0.0
 11
474.797028
 21
264.450012
 31
0.0
210
0.0
220
0.0
230
1.0
  0
LINE
  5
106
100
AcDbEntity
  8
0
370
    35
390
0
 62
     7
 48
0.003232
100
AcDbLine
 10
474.797028
 20
263.620728
 30
0.0
 11
474.797028
 21
263.75
 31
0.0
210
0.0
220
0.0
230
1.0
  0
LINE
  5
107
100
AcDbEntity
  8
0
370
    35
390
0
 62
     7
 48
0.003535
100
AcDbLine
 10
474.797028
 20
263.620728
 30
0.0
 11
474.797028
 21
263.479309
 31
0.0
210
0.0
220
0.0
230
1.0
  0
LINE
  5
108
100
AcDbEntity
  8
0
370
    35
390
0
 62
     7
 48
0.003233
100
AcDbLine
 10
474.797028
 20
263.479309
 30
0.0
 11
474.797028
 21
263.350006
 31
0.0
210
0.0
220
0.0
230
1.0
  0
LINE
  5
109
100
AcDbEntity
  8
0
370
    35
390
0
 62
     7
 48
0.0175
100
AcDbLine
 10
474.797028
 20
262.650024
 30
0.0
 11
474.797028
 21
263.350006
 31
0.0
210
0.0
220
0.0
230
1.0
  0
LINE
  5
10A
100
AcDbEntity
  8
0
370
    35
390
0
 62
     7
 48
0.003233
100
AcDbLine
 10
474.797028
 20
262.520721
 30
0.0
 11
474.797028
 21
262.650024
 31
0.0
210
0.0
220
0.0
230
1.0
  0
LINE
  5
10B
100
AcDbEntity
  8
0
370
    35
390
0
 62
     7
 48
0.003536
100
AcDbLine
 10
474.797028
 20
262.520721
 30
0.0
 11
474.797028
 21
262.379272
 31
0.0
210
0.0
220
0.0
230
1.0
  0
LINE
  5
10C
100
AcDbEntity
  8
0
370
    35
390
0
 62
     7
 48
0.003232
100
AcDbLine
 10
474.797028
 20
262.379272
 30
0.0
 11
474.797028
 21
262.25
 31
0.0
210
0.0
220
0.0
230
1.0
  0
LINE
  5
10D
100
AcDbEntity
  8
0
370
    35
390
0
 62
     7
 48
0.0175
100
AcDbLine
 10
474.797028
 20
261.549988
 30
0.0
 11
474.797028
 21
262.25
 31
0.0
210
0.0
220
0.0
230
1.0
  0
LINE
  5
10E
100
AcDbEntity
  8
0
370
    35
390
0
 62
     7
 48
0.003232
100
AcDbLine
 10
474.797028
 20
261.420715
 30
0.0
 11
474.797028
 21
261.549988
 31
0.0
210
0.0
220
0.0
230
1.0
  0
LINE
  5
10F
100
AcDbEntity
  8
0
370
    35
390
0
 62
     7
 48
0.003535
100
AcDbLine
 10
474.797028
 20
261.420715
 30
0.0
 11
474.797028
 21
261.279297
 31
0.0
210
0.0
220
0.0
230
1.0
  0
LINE
  5
110
100
AcDbEntity
  8
0
370
    35
390
0
 62
     7
 48
0.003232
100
AcDbLine
 10
474.797028
 20
261.279297
 30
0.0
 11
474.797028
 21
261.150024
 31
0.0
210
0.0
220
0.0
230
1.0
  0
LINE
  5
111
100
AcDbEntity
  8
0
370
    35
390
0
 62
     7
 48
0.0175
100
AcDbLine
 10
474.797028
 20
260.450012
 30
0.0
 11
474.797028
 21
261.150024
 31
0.0
210
0.0
220
0.0
230
1.0
  0
LINE
  5
112
100
AcDbEntity
  8
0
370
    35
390
0
 62
     7
 48
0.003233
100
AcDbLine
 10
474.797028
 20
260.320709
 30
0.0
 11
474.797028
 21
260.450012
 31
0.0
210
0.0
220
0.0
230
1.0
  0
LINE
  5
113
100
AcDbEntity
  8
0
370
    35
390
0
 62
     7
 48
0.003535
100
AcDbLine
 10
474.797028
 20
260.320709
 30
0.0
 11
474.797028
 21
260.179291
 31
0.0
210
0.0
220
0.0
230
1.0
  0
LINE
  5
114
100
AcDbEntity
  8
0
370
    35
390
0
 62
     7
 48
0.003233
100
AcDbLine
 10
474.797028
 20
260.179291
 30
0.0
 11
474.797028
 21
260.049988
 31
0.0
210
0.0
220
0.0
230
1.0
  0
LINE
  5
115
100
AcDbEntity
  8
0
370
    35
390
0
 62
     7
 48
0.0175
100
AcDbLine
 10
474.797028
 20
259.350006
 30
0.0
 11
474.797028
 21
260.049988
 31
0.0
210
0.0
220
0.0
230
1.0
  0
LINE
  5
116
100
AcDbEntity
  8
0
370
    35
390
0
 62
     7
 48
0.0175
100
AcDbLine
 10
473.797028
 20
266.650024
 30
0.0
 11
473.797028
 21
265.950012
 31
0.0
210
0.0
220
0.0
230
1.0
  0
LINE
  5
117
100
AcDbEntity
  8
0
370
    35
390
0
 62
     7
 48
0.003232
100
AcDbLine
 10
473.797028
 20
266.779297
 30
0.0
 11
473.797028
 21
266.650024
 31
0.0
210
0.0
220
0.0
230
1.0
  0
LINE
  5
118
100
AcDbEntity
  8
0
370
    35
390
0
 62
     7
 48
0.001768
100
AcDbLine
 10
473.797028
 20
266.779297
 30
0.0
 11
473.797028
 21
266.850006
 31
0.0
210
0.0
220
0.0
230
1.0
  0
LINE
  5
119
100
AcDbEntity
  8
0
370
    35
390
0
 62
     7
 48
0.003232
100
AcDbLine
 10
473.797028
 20
259.079285
 30
0.0
 11
473.797028
 21
258.950012
 31
0.0
210
0.0
220
0.0
230
1.0
  0
LINE
  5
11A
100
AcDbEntity
  8
0
370
    35
390
0
 62
     7
 48
0.003535
100
AcDbLine
 10
473.797028
 20
259.079285
 30
0.0
 11
473.797028
 21
259.220703
 31
0.0
210
0.0
220
0.0
230
1.0
  0
LINE
  5
11B
100
AcDbEntity
  8
0
370
    35
390
0
 62
     7
 48
0.003233
100
AcDbLine
 10
473.797028
 20
259.220703
 30
0.0
 11
473.797028
 21
259.350006
 31
0.0
210
0.0
220
0.0
230
1.0
  0
LINE
  5
11C
100
AcDbEntity
  8
0
370
    35
390
0
 62
     7
 48
0.0175
100
AcDbLine
 10
473.797028
 20
260.049988
 30
0.0
 11
473.797028
 21
259.350006
 31
0.0
210
0.0
220
0.0
230
1.0
  0
LINE
  5
11D
100
AcDbEntity
  8
0
370
    35
390
0
 62
     7
 48
0.003233
100
AcDbLine
 10
473.797028
 20
260.179291
 30
0.0
 11
473.797028
 21
260.049988
 31
0.0
210
0.0
220
0.0
230
1.0
  0
LINE
  5
11E
100
AcDbEntity
  8
0
370
    35
390
0
 62
     7
 48
0.003535
100
AcDbLine
 10
473.797028
 20
260.179291
 30
0.0
 11
473.797028
 21
260.320709
 31
0.0
210
0.0
220
0.0
230
1.0
  0
LINE
  5
11F
100
AcDbEntity
  8
0
370
    35
390
0
 62
     7
 48
0.003233
100
AcDbLine
 10
473.797028
 20
260.320709
 30
0.0
 11
473.797028
 21
260.450012
 31
0.0
210
0.0
220
0.0
230
1.0
  0
LINE
  5
120
100
AcDbEntity
  8
0
370
    35
390
0
 62
     7
 48
0.0175
100
AcDbLine
 10
473.797028
 20
261.150024
 30
0.0
 11
473.797028
 21
260.450012
 31
0.0
210
0.0
220
0.0
230
1.0
  0
LINE
  5
121
100
AcDbEntity
  8
0
370
    35
390
0
 62
     7
 48
0.003232
100
AcDbLine
 10
473.797028
 20
261.279297
 30
0.0
 11
473.797028
 21
261.150024
 31
0.0
210
0.0
220
0.0
230
1.0
  0
LINE
  5
122
100
AcDbEntity
  8
0
370
    35
390
0
 62
     7
 48
0.003535
100
AcDbLine
 10
473.797028
 20
261.279297
 30
0.0
 11
473.797028
 21
261.420715
 31
0.0
210
0.0
220
0.0
230
1.0
  0
LINE
  5
123
100
AcDbEntity
  8
0
370
    35
390
0
 62
     7
 48
0.003232
100
AcDbLine
 10
473.797028
 20
261.420715
 30
0.0
 11
473.797028
 21
261.549988
 31
0.0
210
0.0
220
0.0
230
1.0
  0
LINE
  5
124
100
AcDbEntity
  8
0
370
    35
390
0
 62
     7
 48
0.0175
100
AcDbLine
 10
473.797028
 20
262.25
 30
0.0
 11
473.797028
 21
261.549988
 31
0.0
210
0.0
220
0.0
230
1.0
  0
LINE
  5
125
100
AcDbEntity
  8
0
370
    35
390
0
 62
     7
 48
0.003232
100
AcDbLine
 10
473.797028
 20
262.379272
 30
0.0
 11
473.797028
 21
262.25
 31
0.0
210
0.0
220
0.0
230
1.0
  0
LINE
  5
126
100
AcDbEntity
  8
0
370
    35
390
0
 62
     7
 48
0.003536
100
AcDbLine
 10
473.797028
 20
262.379272
 30
0.0
 11
473.797028
 21
262.520721
 31
0.0
210
0.0
220
0.0
230
1.0
  0
LINE
  5
127
100
AcDbEntity
  8
0
370
    35
390
0
 62
     7
 48
0.003233
100
AcDbLine
 10
473.797028
 20
262.520721
 30
0.0
 11
473.797028
 21
262.650024
 31
0.0
210
0.0
220
0.0
230
1.0
  0
LINE
  5
128
100
AcDbEntity
  8
0
370
    35
390
0
 62
     7
 48
0.0175
100
AcDbLine
 10
473.797028
 20
263.350006
 30
0.0
 11
473.797028
 21
262.650024
 31
0.0
210
0.0
220
0.0
230
1.0
  0
LINE
  5
129
100
AcDbEntity
  8
0
370
    35
390
0
 62
     7
 48
0.003233
100
AcDbLine
 10
473.797028
 20
263.479309
 30
0.0
 11
473.797028
 21
263.350006
 31
0.0
210
0.0
220
0.0
230
1.0
  0
LINE
  5
12A
100
AcDbEntity
  8
0
370
    35
390
0
 62
     7
 48
0.003535
100
AcDbLine
 10
473.797028
 20
263.479309
 30
0.0
 11
473.797028
 21
263.620728
 31
0.0
210
0.0
220
0.0
230
1.0
  0
LINE
  5
12B
100
AcDbEntity
  8
0
370
    35
390
0
 62
     7
 48
0.003232
100
AcDbLine
 10
473.797028
 20
263.620728
 30
0.0
 11
473.797028
 21
263.75
 31
0.0
210
0.0
220
0.0
230
1.0
  0
LINE
  5
12C
100
AcDbEntity
  8
0
370
    35
390
0
 62
     7
 48
0.0175
100
AcDbLine
 10
473.797028
 20
264.450012
 30
0.0
 11
473.797028
 21
263.75
 31
0.0
210
0.0
220
0.0
230
1.0
  0
LINE
  5
12D
100
AcDbEntity
  8
0
370
    35
390
0
 62
     7
 48
0.003232
100
AcDbLine
 10
473.797028
 20
264.579285
 30
0.0
 11
473.797028
 21
264.450012
 31
0.0
210
0.0
220
0.0
230
1.0
  0
LINE
  5
12E
100
AcDbEntity
  8
0
370
    35
390
0
 62
     7
 48
0.003535
100
AcDbLine
 10
473.797028
 20
264.579285
 30
0.0
 11
473.797028
 21
264.720703
 31
0.0
210
0.0
220
0.0
230
1.0
  0
LINE
  5
12F
100
AcDbEntity
  8
0
370
    35
390
0
 62
     7
 48
0.003233
100
AcDbLine
 10
473.797028
 20
264.720703
 30
0.0
 11
473.797028
 21
264.850006
 31
0.0
210
0.0
220
0.0
230
1.0
  0
LINE
  5
130
100
AcDbEntity
  8
0
370
    35
390
0
 62
     7
 48
0.0175
100
AcDbLine
 10
473.797028
 20
265.549988
 30
0.0
 11
473.797028
 21
264.850006
 31
0.0
210
0.0
220
0.0
230
1.0
  0
LINE
  5
131
100
AcDbEntity
  8
0
370
    35
390
0
 62
     7
 48
0.003233
100
AcDbLine
 10
473.797028
 20
265.679291
 30
0.0
 11
473.797028
 21
265.549988
 31
0.0
210
0.0
220
0.0
230
1.0
  0
LINE
  5
132
100
AcDbEntity
  8
0
370
    35
390
0
 62
     7
 48
0.003535
100
AcDbLine
 10
473.797028
 20
265.679291
 30
0.0
 11
473.797028
 21
265.820709
 31
0.0
210
0.0
220
0.0
230
1.0
  0
LINE
  5
133
100
AcDbEntity
  8
0
370
    35
390
0
 62
     7
 48
0.003233
100
AcDbLine
 10
473.797028
 20
265.820709
 30
0.0
 11
473.797028
 21
265.950012
 31
0.0
210
0.0
220
0.0
230
1.0
  0
LINE
  5
134
100
AcDbEntity
  8
0
370
    35
390
0
 62
     7
 48
0.003232
100
AcDbLine
 10
471.49704
 20
259.079285
 30
0.0
 11
471.49704
 21
258.950012
 31
0.0
210
0.0
220
0.0
230
1.0
  0
LINE
  5
135
100
AcDbEntity
  8
0
370
    35
390
0
 62
     7
 48
0.003233
100
AcDbLine
 10
471.49704
 20
259.220703
 30
0.0
 11
471.49704
 21
259.350006
 31
0.0
210
0.0
220
0.0
230
1.0
  0
LINE
  5
136
100
AcDbEntity
  8
0
370
    35
390
0
 62
     7
 48
0.003535
100
AcDbLine
 10
471.49704
 20
259.220703
 30
0.0
 11
471.49704
 21
259.079285
 31
0.0
210
0.0
220
0.0
230
1.0
  0
LINE
  5
137
100
AcDbEntity
  8
0
370
    35
390
0
 62
     7
 48
0.001768
100
AcDbLine
 10
471.49704
 20
266.850006
 30
0.0
 11
471.49704
 21
266.779297
 31
0.0
210
0.0
220
0.0
230
1.0
  0
LINE
  5
138
100
AcDbEntity
  8
0
370
    35
390
0
 62
     7
 48
0.003232
100
AcDbLine
 10
471.49704
 20
266.779297
 30
0.0
 11
471.49704
 21
266.650024
 31
0.0
210
0.0
220
0.0
230
1.0
  0
LINE
  5
139
100
AcDbEntity
  8
0
370
    35
390
0
 62
     7
 48
0.0175
100
AcDbLine
 10
471.49704
 20
265.950012
 30
0.0
 11
471.49704
 21
266.650024
 31
0.0
210
0.0
220
0.0
230
1.0
  0
LINE
  5
13A
100
AcDbEntity
  8
0
370
    35
390
0
 62
     7
 48
0.003233
100
AcDbLine
 10
471.49704
 20
265.820709
 30
0.0
 11
471.49704
 21
265.950012
 31
0.0
210
0.0
220
0.0
230
1.0
  0
LINE
  5
13B
100
AcDbEntity
  8
0
370
    35
390
0
 62
     7
 48
0.003535
100
AcDbLine
 10
471.49704
 20
265.820709
 30
0.0
 11
471.49704
 21
265.679291
 31
0.0
210
0.0
220
0.0
230
1.0
  0
LINE
  5
13C
100
AcDbEntity
  8
0
370
    35
390
0
 62
     7
 48
0.003233
100
AcDbLine
 10
471.49704
 20
265.679291
 30
0.0
 11
471.49704
 21
265.549988
 31
0.0
210
0.0
220
0.0
230
1.0
  0
LINE
  5
13D
100
AcDbEntity
  8
0
370
    35
390
0
 62
     7
 48
0.0175
100
AcDbLine
 10
471.49704
 20
264.850006
 30
0.0
 11
471.49704
 21
265.549988
 31
0.0
210
0.0
220
0.0
230
1.0
  0
LINE
  5
13E
100
AcDbEntity
  8
0
370
    35
390
0
 62
     7
 48
0.003233
100
AcDbLine
 10
471.49704
 20
264.720703
 30
0.0
 11
471.49704
 21
264.850006
 31
0.0
210
0.0
220
0.0
230
1.0
  0
LINE
  5
13F
100
AcDbEntity
  8
0
370
    35
390
0
 62
     7
 48
0.003535
100
AcDbLine
 10
471.49704
 20
264.720703
 30
0.0
 11
471.49704
 21
264.579285
 31
0.0
210
0.0
220
0.0
230
1.0
  0
LINE
  5
140
100
AcDbEntity
  8
0
370
    35
390
0
 62
     7
 48
0.003232
100
AcDbLine
 10
471.49704
 20
264.579285
 30
0.0
 11
471.49704
 21
264.450012
 31
0.0
210
0.0
220
0.0
230
1.0
  0
LINE
  5
141
100
AcDbEntity
  8
0
370
    35
390
0
 62
     7
 48
0.0175
100
AcDbLine
 10
471.49704
 20
263.75
 30
0.0
 11
471.49704
 21
264.450012
 31
0.0
210
0.0
220
0.0
230
1.0
  0
LINE
  5
142
100
AcDbEntity
  8
0
370
    35
390
0
 62
     7
 48
0.003232
100
AcDbLine
 10
471.49704
 20
263.620728
 30
0.0
 11
471.49704
 21
263.75
 31
0.0
210
0.0
220
0.0
230
1.0
  0
LINE
  5
143
100
AcDbEntity
  8
0
370
    35
390
0
 62
     7
 48
0.003535
100
AcDbLine
 10
471.49704
 20
263.620728
 30
0.0
 11
471.49704
 21
263.479309
 31
0.0
210
0.0
220
0.0
230
1.0
  0
LINE
  5
144
100
AcDbEntity
  8
0
370
    35
390
0
 62
     7
 48
0.003233
100
AcDbLine
 10
471.49704
 20
263.479309
 30
0.0
 11
471.49704
 21
263.350006
 31
0.0
210
0.0
220
0.0
230
1.0
  0
LINE
  5
145
100
AcDbEntity
  8
0
370
    35
390
0
 62
     7
 48
0.0175
100
AcDbLine
 10
471.49704
 20
262.650024
 30
0.0
 11
471.49704
 21
263.350006
 31
0.0
210
0.0
220
0.0
230
1.0
  0
LINE
  5
146
100
AcDbEntity
  8
0
370
    35
390
0
 62
     7
 48
0.003233
100
AcDbLine
 10
471.49704
 20
262.520721
 30
0.0
 11
471.49704
 21
262.650024
 31
0.0
210
0.0
220
0.0
230
1.0
  0
LINE
  5
147
100
AcDbEntity
  8
0
370
    35
390
0
 62
     7
 48
0.003536
100
AcDbLine
 10
471.49704
 20
262.520721
 30
0.0
 11
471.49704
 21
262.379272
 31
0.0
210
0.0
220
0.0
230
1.0
  0
LINE
  5
148
100
AcDbEntity
  8
0
370
    35
390
0
 62
     7
 48
0.003232
100
AcDbLine
 10
471.49704
 20
262.379272
 30
0.0
 11
471.49704
 21
262.25
 31
0.0
210
0.0
220
0.0
230
1.0
  0
LINE
  5
149
100
AcDbEntity
  8
0
370
    35
390
0
 62
     7
 48
0.0175
100
AcDbLine
 10
471.49704
 20
261.549988
 30
0.0
 11
471.49704
 21
262.25
 31
0.0
210
0.0
220
0.0
230
1.0
  0
LINE
  5
14A
100
AcDbEntity
  8
0
370
    35
390
0
 62
     7
 48
0.003232
100
AcDbLine
 10
471.49704
 20
261.420715
 30
0.0
 11
471.49704
 21
261.549988
 31
0.0
210
0.0
220
0.0
230
1.0
  0
LINE
  5
14B
100
AcDbEntity
  8
0
370
    35
390
0
 62
     7
 48
0.003535
100
AcDbLine
 10
471.49704
 20
261.420715
 30
0.0
 11
471.49704
 21
261.279297
 31
0.0
210
0.0
220
0.0
230
1.0
  0
LINE
  5
14C
100
AcDbEntity
  8
0
370
    35
390
0
 62
     7
 48
0.003232
100
AcDbLine
 10
471.49704
 20
261.279297
 30
0.0
 11
471.49704
 21
261.150024
 31
0.0
210
0.0
220
0.0
230
1.0
  0
LINE
  5
14D
100
AcDbEntity
  8
0
370
    35
390
0
 62
     7
 48
0.0175
100
AcDbLine
 10
471.49704
 20
260.450012
 30
0.0
 11
471.49704
 21
261.150024
 31
0.0
210
0.0
220
0.0
230
1.0
  0
LINE
  5
14E
100
AcDbEntity
  8
0
370
    35
390
0
 62
     7
 48
0.003233
100
AcDbLine
 10
471.49704
 20
260.320709
 30
0.0
 11
471.49704
 21
260.450012
 31
0.0
210
0.0
220
0.0
230
1.0
  0
LINE
  5
14F
100
AcDbEntity
  8
0
370
    35
390
0
 62
     7
 48
0.003535
100
AcDbLine
 10
471.49704
 20
260.320709
 30
0.0
 11
471.49704
 21
260.179291
 31
0.0
210
0.0
220
0.0
230
1.0
  0
LINE
  5
150
100
AcDbEntity
  8
0
370
    35
390
0
 62
     7
 48
0.003233
100
AcDbLine
 10
471.49704
 20
260.179291
 30
0.0
 11
471.49704
 21
260.049988
 31
0.0
210
0.0
220
0.0
230
1.0
  0
LINE
  5
151
100
AcDbEntity
  8
0
370
    35
390
0
 62
     7
 48
0.0175
100
AcDbLine
 10
471.49704
 20
259.350006
 30
0.0
 11
471.49704
 21
260.049988
 31
0.0
210
0.0
220
0.0
230
1.0
  0
LINE
  5
152
100
AcDbEntity
  8
0
370
    35
390
0
 62
     7
 48
0.003233
100
AcDbLine
 10
470.49704
 20
265.679291
 30
0.0
 11
470.49704
 21
265.549988
 31
0.0
210
0.0
220
0.0
230
1.0
  0
LINE
  5
153
100
AcDbEntity
  8
0
370
    35
390
0
 62
     7
 48
0.003535
100
AcDbLine
 10
470.49704
 20
265.679291
 30
0.0
 11
470.49704
 21
265.820709
 31
0.0
210
0.0
220
0.0
230
1.0
  0
LINE
  5
154
100
AcDbEntity
  8
0
370
    35
390
0
 62
     7
 48
0.003233
100
AcDbLine
 10
470.49704
 20
265.820709
 30
0.0
 11
470.49704
 21
265.950012
 31
0.0
210
0.0
220
0.0
230
1.0
  0
LINE
  5
155
100
AcDbEntity
  8
0
370
    35
390
0
 62
     7
 48
0.01
100
AcDbLine
 10
470.49704
 20
266.350006
 30
0.0
 11
470.49704
 21
265.950012
 31
0.0
210
0.0
220
0.0
230
1.0
  0
LINE
  5
156
100
AcDbEntity
  8
0
370
    35
390
0
 62
     7
 48
0.003232
100
AcDbLine
 10
470.49704
 20
259.079285
 30
0.0
 11
470.49704
 21
258.950012
 31
0.0
210
0.0
220
0.0
230
1.0
  0
LINE
  5
157
100
AcDbEntity
  8
0
370
    35
390
0
 62
     7
 48
0.003535
100
AcDbLine
 10
470.49704
 20
259.079285
 30
0.0
 11
470.49704
 21
259.220703
 31
0.0
210
0.0
220
0.0
230
1.0
  0
LINE
  5
158
100
AcDbEntity
  8
0
370
    35
390
0
 62
     7
 48
0.003233
100
AcDbLine
 10
470.49704
 20
259.220703
 30
0.0
 11
470.49704
 21
259.350006
 31
0.0
210
0.0
220
0.0
230
1.0
  0
LINE
  5
159
100
AcDbEntity
  8
0
370
    35
390
0
 62
     7
 48
0.0175
100
AcDbLine
 10
470.49704
 20
260.049988
 30
0.0
 11
470.49704
 21
259.350006
 31
0.0
210
0.0
220
0.0
230
1.0
  0
LINE
  5
15A
100
AcDbEntity
  8
0
370
    35
390
0
 62
     7
 48
0.003233
100
AcDbLine
 10
470.49704
 20
260.179291
 30
0.0
 11
470.49704
 21
260.049988
 31
0.0
210
0.0
220
0.0
230
1.0
  0
LINE
  5
15B
100
AcDbEntity
  8
0
370
    35
390
0
 62
     7
 48
0.003535
100
AcDbLine
 10
470.49704
 20
260.179291
 30
0.0
 11
470.49704
 21
260.320709
 31
0.0
210
0.0
220
0.0
230
1.0
  0
LINE
  5
15C
100
AcDbEntity
  8
0
370
    35
390
0
 62
     7
 48
0.003233
100
AcDbLine
 10
470.49704
 20
260.320709
 30
0.0
 11
470.49704
 21
260.450012
 31
0.0
210
0.0
220
0.0
230
1.0
  0
LINE
  5
15D
100
AcDbEntity
  8
0
370
    35
390
0
 62
     7
 48
0.0175
100
AcDbLine
 10
470.49704
 20
261.150024
 30
0.0
 11
470.49704
 21
260.450012
 31
0.0
210
0.0
220
0.0
230
1.0
  0
LINE
  5
15E
100
AcDbEntity
  8
0
370
    35
390
0
 62
     7
 48
0.003232
100
AcDbLine
 10
470.49704
 20
261.279297
 30
0.0
 11
470.49704
 21
261.150024
 31
0.0
210
0.0
220
0.0
230
1.0
  0
LINE
  5
15F
100
AcDbEntity
  8
0
370
    35
390
0
 62
     7
 48
0.003535
100
AcDbLine
 10
470.49704
 20
261.279297
 30
0.0
 11
470.49704
 21
261.420715
 31
0.0
210
0.0
220
0.0
230
1.0
  0
LINE
  5
160
100
AcDbEntity
  8
0
370
    35
390
0
 62
     7
 48
0.003232
100
AcDbLine
 10
470.49704
 20
261.420715
 30
0.0
 11
470.49704
 21
261.549988
 31
0.0
210
0.0
220
0.0
230
1.0
  0
LINE
  5
161
100
AcDbEntity
  8
0
370
    35
390
0
 62
     7
 48
0.0175
100
AcDbLine
 10
470.49704
 20
262.25
 30
0.0
 11
470.49704
 21
261.549988
 31
0.0
210
0.0
220
0.0
230
1.0
  0
LINE
  5
162
100
AcDbEntity
  8
0
370
    35
390
0
 62
     7
 48
0.003232
100
AcDbLine
 10
470.49704
 20
262.379272
 30
0.0
 11
470.49704
 21
262.25
 31
0.0
210
0.0
220
0.0
230
1.0
  0
LINE
  5
163
100
AcDbEntity
  8
0
370
    35
390
0
 62
     7
 48
0.003536
100
AcDbLine
 10
470.49704
 20
262.379272
 30
0.0
 11
470.49704
 21
262.520721
 31
0.0
210
0.0
220
0.0
230
1.0
  0
LINE
  5
164
100
AcDbEntity
  8
0
370
    35
390
0
 62
     7
 48
0.003233
100
AcDbLine
 10
470.49704
 20
262.520721
 30
0.0
 11
470.49704
 21
262.650024
 31
0.0
210
0.0
220
0.0
230
1.0
  0
LINE
  5
165
100
AcDbEntity
  8
0
370
    35
390
0
 62
     7
 48
0.0175
100
AcDbLine
 10
470.49704
 20
263.350006
 30
0.0
 11
470.49704
 21
262.650024
 31
0.0
210
0.0
220
0.0
230
1.0
  0
LINE
  5
166
100
AcDbEntity
  8
0
370
    35
390
0
 62
     7
 48
0.003233
100
AcDbLine
 10
470.49704
 20
263.479309
 30
0.0
 11
470.49704
 21
263.350006
 31
0.0
210
0.0
220
0.0
230
1.0
  0
LINE
  5
167
100
AcDbEntity
  8
0
370
    35
390
0
 62
     7
 48
0.003535
100
AcDbLine
 10
470.49704
 20
263.479309
 30
0.0
 11
470.49704
 21
263.620728
 31
0.0
210
0.0
220
0.0
230
1.0
  0
LINE
  5
168
100
AcDbEntity
  8
0
370
    35
390
0
 62
     7
 48
0.003232
100
AcDbLine
 10
470.49704
 20
263.620728
 30
0.0
 11
470.49704
 21
263.75
 31
0.0
210
0.0
220
0.0
230
1.0
  0
LINE
  5
169
100
AcDbEntity
  8
0
370
    35
390
0
 62
     7
 48
0.0175
100
AcDbLine
 10
470.49704
 20
264.450012
 30
0.0
 11
470.49704
 21
263.75
 31
0.0
210
0.0
220
0.0
230
1.0
  0
LINE
  5
16A
100
AcDbEntity
  8
0
370
    35
390
0
 62
     7
 48
0.003232
100
AcDbLine
 10
470.49704
 20
264.579285
 30
0.0
 11
470.49704
 21
264.450012
 31
0.0
210
0.0
220
0.0
230
1.0
  0
LINE
  5
16B
100
AcDbEntity
  8
0
370
    35
390
0
 62
     7
 48
0.003535
100
AcDbLine
 10
470.49704
 20
264.579285
 30
0.0
 11
470.49704
 21
264.720703
 31
0.0
210
0.0
220
0.0
230
1.0
  0
LINE
  5
16C
100
AcDbEntity
  8
0
370
    35
390
0
 62
     7
 48
0.003233
100
AcDbLine
 10
470.49704
 20
264.720703
 30
0.0
 11
470.49704
 21
264.850006
 31
0.0
210
0.0
220
0.0
230
1.0
  0
LINE
  5
16D
100
AcDbEntity
  8
0
370
    35
390
0
 62
     7
 48
0.0175
100
AcDbLine
 10
470.49704
 20
265.549988
 30
0.0
 11
470.49704
 21
264.850006
 31
0.0
210
0.0
220
0.0
230
1.0
  0
LINE
  5
16E
100
AcDbEntity
  8
0
370
    35
390
0
 62
     7
 48
0.003232
100
AcDbLine
 10
174.797058
 20
259.079285
 30
0.0
 11
174.797058
 21
258.950012
 31
0.0
210
0.0
220
0.0
230
1.0
  0
LINE
  5
16F
100
AcDbEntity
  8
0
370
    35
390
0
 62
     7
 48
0.003233
100
AcDbLine
 10
174.797058
 20
259.220703
 30
0.0
 11
174.797058
 21
259.350006
 31
0.0
210
0.0
220
0.0
230
1.0
  0
LINE
  5
170
100
AcDbEntity
  8
0
370
    35
390
0
 62
     7
 48
0.003535
100
AcDbLine
 10
174.797058
 20
259.220703
 30
0.0
 11
174.797058
 21
259.079285
 31
0.0
210
0.0
220
0.0
230
1.0
  0
LINE
  5
171
100
AcDbEntity
  8
0
370
    35
390
0
 62
     7
 48
0.01
100
AcDbLine
 10
174.797058
 20
265.950012
 30
0.0
 11
174.797058
 21
266.350006
 31
0.0
210
0.0
220
0.0
230
1.0
  0
LINE
  5
172
100
AcDbEntity
  8
0
370
    35
390
0
 62
     7
 48
0.003233
100
AcDbLine
 10
174.797058
 20
265.820709
 30
0.0
 11
174.797058
 21
265.950012
 31
0.0
210
0.0
220
0.0
230
1.0
  0
LINE
  5
173
100
AcDbEntity
  8
0
370
    35
390
0
 62
     7
 48
0.003535
100
AcDbLine
 10
174.797058
 20
265.820709
 30
0.0
 11
174.797058
 21
265.679291
 31
0.0
210
0.0
220
0.0
230
1.0
  0
LINE
  5
174
100
AcDbEntity
  8
0
370
    35
390
0
 62
     7
 48
0.003233
100
AcDbLine
 10
174.797058
 20
265.679291
 30
0.0
 11
174.797058
 21
265.549988
 31
0.0
210
0.0
220
0.0
230
1.0
  0
LINE
  5
175
100
AcDbEntity
  8
0
370
    35
390
0
 62
     7
 48
0.0175
100
AcDbLine
 10
174.797058
 20
264.850006
 30
0.0
 11
174.797058
 21
265.549988
 31
0.0
210
0.0
220
0.0
230
1.0
  0
LINE
  5
176
100
AcDbEntity
  8
0
370
    35
390
0
 62
     7
 48
0.003233
100
AcDbLine
 10
174.797058
 20
264.720703
 30
0.0
 11
174.797058
 21
264.850006
 31
0.0
210
0.0
220
0.0
230
1.0
  0
LINE
  5
177
100
AcDbEntity
  8
0
370
    35
390
0
 62
     7
 48
0.003535
100
AcDbLine
 10
174.797058
 20
264.720703
 30
0.0
 11
174.797058
 21
264.579285
 31
0.0
210
0.0
220
0.0
230
1.0
  0
LINE
  5
178
100
AcDbEntity
  8
0
370
    35
390
0
 62
     7
 48
0.003232
100
AcDbLine
 10
174.797058
 20
264.579285
 30
0.0
 11
174.797058
 21
264.450012
 31
0.0
210
0.0
220
0.0
230
1.0
  0
LINE
  5
179
100
AcDbEntity
  8
0
370
    35
390
0
 62
     7
 48
0.0175
100
AcDbLine
 10
174.797058
 20
263.75
 30
0.0
 11
174.797058
 21
264.450012
 31
0.0
210
0.0
220
0.0
230
1.0
  0
LINE
  5
17A
100
AcDbEntity
  8
0
370
    35
390
0
 62
     7
 48
0.003232
100
AcDbLine
 10
174.797058
 20
263.620728
 30
0.0
 11
174.797058
 21
263.75
 31
0.0
210
0.0
220
0.0
230
1.0
  0
LINE
  5
17B
100
AcDbEntity
  8
0
370
    35
390
0
 62
     7
 48
0.003535
100
AcDbLine
 10
174.797058
 20
263.620728
 30
0.0
 11
174.797058
 21
263.479309
 31
0.0
210
0.0
220
0.0
230
1.0
  0
LINE
  5
17C
100
AcDbEntity
  8
0
370
    35
390
0
 62
     7
 48
0.003233
100
AcDbLine
 10
174.797058
 20
263.479309
 30
0.0
 11
174.797058
 21
263.350006
 31
0.0
210
0.0
220
0.0
230
1.0
  0
LINE
  5
17D
100
AcDbEntity
  8
0
370
    35
390
0
 62
     7
 48
0.0175
100
AcDbLine
 10
174.797058
 20
262.650024
 30
0.0
 11
174.797058
 21
263.350006
 31
0.0
210
0.0
220
0.0
230
1.0
  0
LINE
  5
17E
100
AcDbEntity
  8
0
370
    35
390
0
 62
     7
 48
0.003233
100
AcDbLine
 10
174.797058
 20
262.520721
 30
0.0
 11
174.797058
 21
262.650024
 31
0.0
210
0.0
220
0.0
230
1.0
  0
LINE
  5
17F
100
AcDbEntity
  8
0
370
    35
390
0
 62
     7
 48
0.003536
100
AcDbLine
 10
174.797058
 20
262.520721
 30
0.0
 11
174.797058
 21
262.379272
 31
0.0
210
0.0
220
0.0
230
1.0
  0
LINE
  5
180
100
AcDbEntity
  8
0
370
    35
390
0
 62
     7
 48
0.003232
100
AcDbLine
 10
174.797058
 20
262.379272
 30
0.0
 11
174.797058
 21
262.25
 31
0.0
210
0.0
220
0.0
230
1.0
  0
LINE
  5
181
100
AcDbEntity
  8
0
370
    35
390
0
 62
     7
 48
0.0175
100
AcDbLine
 10
174.797058
 20
261.549988
 30
0.0
 11
174.797058
 21
262.25
 31
0.0
210
0.0
220
0.0
230
1.0
  0
LINE
  5
182
100
AcDbEntity
  8
0
370
    35
390
0
 62
     7
 48
0.003232
100
AcDbLine
 10
174.797058
 20
261.420715
 30
0.0
 11
174.797058
 21
261.549988
 31
0.0
210
0.0
220
0.0
230
1.0
  0
LINE
  5
183
100
AcDbEntity
  8
0
370
    35
390
0
 62
     7
 48
0.003535
100
AcDbLine
 10
174.797058
 20
261.420715
 30
0.0
 11
174.797058
 21
261.279297
 31
0.0
210
0.0
220
0.0
230
1.0
  0
LINE
  5
184
100
AcDbEntity
  8
0
370
    35
390
0
 62
     7
 48
0.003232
100
AcDbLine
 10
174.797058
 20
261.279297
 30
0.0
 11
174.797058
 21
261.150024
 31
0.0
210
0.0
220
0.0
230
1.0
  0
LINE
  5
185
100
AcDbEntity
  8
0
370
    35
390
0
 62
     7
 48
0.0175
100
AcDbLine
 10
174.797058
 20
260.450012
 30
0.0
 11
174.797058
 21
261.150024
 31
0.0
210
0.0
220
0.0
230
1.0
  0
LINE
  5
186
100
AcDbEntity
  8
0
370
    35
390
0
 62
     7
 48
0.003233
100
AcDbLine
 10
174.797058
 20
260.320709
 30
0.0
 11
174.797058
 21
260.450012
 31
0.0
210
0.0
220
0.0
230
1.0
  0
LINE
  5
187
100
AcDbEntity
  8
0
370
    35
390
0
 62
     7
 48
0.003535
100
AcDbLine
 10
174.797058
 20
260.320709
 30
0.0
 11
174.797058
 21
260.179291
 31
0.0
210
0.0
220
0.0
230
1.0
  0
LINE
  5
188
100
AcDbEntity
  8
0
370
    35
390
0
 62
     7
 48
0.003233
100
AcDbLine
 10
174.797058
 20
260.179291
 30
0.0
 11
174.797058
 21
260.049988
 31
0.0
210
0.0
220
0.0
230
1.0
  0
LINE
  5
189
100
AcDbEntity
  8
0
370
    35
390
0
 62
     7
 48
0.0175
100
AcDbLine
 10
174.797058
 20
259.350006
 30
0.0
 11
174.797058
 21
260.049988
 31
0.0
210
0.0
220
0.0
230
1.0
  0
LINE
  5
18A
100
AcDbEntity
  8
0
370
    35
390
0
 62
     7
 48
0.0175
100
AcDbLine
 10
173.797058
 20
266.650024
 30
0.0
 11
173.797058
 21
265.950012
 31
0.0
210
0.0
220
0.0
230
1.0
  0
LINE
  5
18B
100
AcDbEntity
  8
0
370
    35
390
0
 62
     7
 48
0.003232
100
AcDbLine
 10
173.797058
 20
266.779297
 30
0.0
 11
173.797058
 21
266.650024
 31
0.0
210
0.0
220
0.0
230
1.0
  0
LINE
  5
18C
100
AcDbEntity
  8
0
370
    35
390
0
 62
     7
 48
0.001768
100
AcDbLine
 10
173.797058
 20
266.779297
 30
0.0
 11
173.797058
 21
266.850006
 31
0.0
210
0.0
220
0.0
230
1.0
  0
LINE
  5
18D
100
AcDbEntity
  8
0
370
    35
390
0
 62
     7
 48
0.003232
100
AcDbLine
 10
173.797058
 20
259.079285
 30
0.0
 11
173.797058
 21
258.950012
 31
0.0
210
0.0
220
0.0
230
1.0
  0
LINE
  5
18E
100
AcDbEntity
  8
0
370
    35
390
0
 62
     7
 48
0.003535
100
AcDbLine
 10
173.797058
 20
259.079285
 30
0.0
 11
173.797058
 21
259.220703
 31
0.0
210
0.0
220
0.0
230
1.0
  0
LINE
  5
18F
100
AcDbEntity
  8
0
370
    35
390
0
 62
     7
 48
0.003233
100
AcDbLine
 10
173.797058
 20
259.220703
 30
0.0
 11
173.797058
 21
259.350006
 31
0.0
210
0.0
220
0.0
230
1.0
  0
LINE
  5
190
100
AcDbEntity
  8
0
370
    35
390
0
 62
     7
 48
0.0175
100
AcDbLine
 10
173.797058
 20
260.049988
 30
0.0
 11
173.797058
 21
259.350006
 31
0.0
210
0.0
220
0.0
230
1.0
  0
LINE
  5
191
100
AcDbEntity
  8
0
370
    35
390
0
 62
     7
 48
0.003233
100
AcDbLine
 10
173.797058
 20
260.179291
 30
0.0
 11
173.797058
 21
260.049988
 31
0.0
210
0.0
220
0.0
230
1.0
  0
LINE
  5
192
100
AcDbEntity
  8
0
370
    35
390
0
 62
     7
 48
0.003535
100
AcDbLine
 10
173.797058
 20
260.179291
 30
0.0
 11
173.797058
 21
260.320709
 31
0.0
210
0.0
220
0.0
230
1.0
  0
LINE
  5
193
100
AcDbEntity
  8
0
370
    35
390
0
 62
     7
 48
0.003233
100
AcDbLine
 10
173.797058
 20
260.320709
 30
0.0
 11
173.797058
 21
260.450012
 31
0.0
210
0.0
220
0.0
230
1.0
  0
LINE
  5
194
100
AcDbEntity
  8
0
370
    35
390
0
 62
     7
 48
0.0175
100
AcDbLine
 10
173.797058
 20
261.150024
 30
0.0
 11
173.797058
 21
260.450012
 31
0.0
210
0.0
220
0.0
230
1.0
  0
LINE
  5
195
100
AcDbEntity
  8
0
370
    35
390
0
 62
     7
 48
0.003232
100
AcDbLine
 10
173.797058
 20
261.279297
 30
0.0
 11
173.797058
 21
261.150024
 31
0.0
210
0.0
220
0.0
230
1.0
  0
LINE
  5
196
100
AcDbEntity
  8
0
370
    35
390
0
 62
     7
 48
0.003535
100
AcDbLine
 10
173.797058
 20
261.279297
 30
0.0
 11
173.797058
 21
261.420715
 31
0.0
210
0.0
220
0.0
230
1.0
  0
LINE
  5
197
100
AcDbEntity
  8
0
370
    35
390
0
 62
     7
 48
0.003232
100
AcDbLine
 10
173.797058
 20
261.420715
 30
0.0
 11
173.797058
 21
261.549988
 31
0.0
210
0.0
220
0.0
230
1.0
  0
LINE
  5
198
100
AcDbEntity
  8
0
370
    35
390
0
 62
     7
 48
0.0175
100
AcDbLine
 10
173.797058
 20
262.25
 30
0.0
 11
173.797058
 21
261.549988
 31
0.0
210
0.0
220
0.0
230
1.0
  0
LINE
  5
199
100
AcDbEntity
  8
0
370
    35
390
0
 62
     7
 48
0.003232
100
AcDbLine
 10
173.797058
 20
262.379272
 30
0.0
 11
173.797058
 21
262.25
 31
0.0
210
0.0
220
0.0
230
1.0
  0
LINE
  5
19A
100
AcDbEntity
  8
0
370
    35
390
0
 62
     7
 48
0.003536
100
AcDbLine
 10
173.797058
 20
262.379272
 30
0.0
 11
173.797058
 21
262.520721
 31
0.0
210
0.0
220
0.0
230
1.0
  0
LINE
  5
19B
100
AcDbEntity
  8
0
370
    35
390
0
 62
     7
 48
0.003233
100
AcDbLine
 10
173.797058
 20
262.520721
 30
0.0
 11
173.797058
 21
262.650024
 31
0.0
210
0.0
220
0.0
230
1.0
  0
LINE
  5
19C
100
AcDbEntity
  8
0
370
    35
390
0
 62
     7
 48
0.0175
100
AcDbLine
 10
173.797058
 20
263.350006
 30
0.0
 11
173.797058
 21
262.650024
 31
0.0
210
0.0
220
0.0
230
1.0
  0
LINE
  5
19D
100
AcDbEntity
  8
0
370
    35
390
0
 62
     7
 48
0.003233
100
AcDbLine
 10
173.797058
 20
263.479309
 30
0.0
 11
173.797058
 21
263.350006
 31
0.0
210
0.0
220
0.0
230
1.0
  0
LINE
  5
19E
100
AcDbEntity
  8
0
370
    35
390
0
 62
     7
 48
0.003535
100
AcDbLine
 10
173.797058
 20
263.479309
 30
0.0
 11
173.797058
 21
263.620728
 31
0.0
210
0.0
220
0.0
230
1.0
  0
LINE
  5
19F
100
AcDbEntity
  8
0
370
    35
390
0
 62
     7
 48
0.003232
100
AcDbLine
 10
173.797058
 20
263.620728
 30
0.0
 11
173.797058
 21
263.75
 31
0.0
210
0.0
220
0.0
230
1.0
  0
LINE
  5
1A0
100
AcDbEntity
  8
0
370
    35
390
0
 62
     7
 48
0.0175
100
AcDbLine
 10
173.797058
 20
264.450012
 30
0.0
 11
173.797058
 21
263.75
 31
0.0
210
0.0
220
0.0
230
1.0
  0
LINE
  5
1A1
100
AcDbEntity
  8
0
370
    35
390
0
 62
     7
 48
0.003232
100
AcDbLine
 10
173.797058
 20
264.579285
 30
0.0
 11
173.797058
 21
264.450012
 31
0.0
210
0.0
220
0.0
230
1.0
  0
LINE
  5
1A2
100
AcDbEntity
  8
0
370
    35
390
0
 62
     7
 48
0.003535
100
AcDbLine
 10
173.797058
 20
264.579285
 30
0.0
 11
173.797058
 21
264.720703
 31
0.0
210
0.0
220
0.0
230
1.0
  0
LINE
  5
1A3
100
AcDbEntity
  8
0
370
    35
390
0
 62
     7
 48
0.003233
100
AcDbLine
 10
173.797058
 20
264.720703
 30
0.0
 11
173.797058
 21
264.850006
 31
0.0
210
0.0
220
0.0
230
1.0
  0
LINE
  5
1A4
100
AcDbEntity
  8
0
370
    35
390
0
 62
     7
 48
0.0175
100
AcDbLine
 10
173.797058
 20
265.549988
 30
0.0
 11
173.797058
 21
264.850006
 31
0.0
210
0.0
220
0.0
230
1.0
  0
LINE
  5
1A5
100
AcDbEntity
  8
0
370
    35
390
0
 62
     7
 48
0.003233
100
AcDbLine
 10
173.797058
 20
265.679291
 30
0.0
 11
173.797058
 21
265.549988
 31
0.0
210
0.0
220
0.0
230
1.0
  0
LINE
  5
1A6
100
AcDbEntity
  8
0
370
    35
390
0
 62
     7
 48
0.003535
100
AcDbLine
 10
173.797058
 20
265.679291
 30
0.0
 11
173.797058
 21
265.820709
 31
0.0
210
0.0
220
0.0
230
1.0
  0
LINE
  5
1A7
100
AcDbEntity
  8
0
370
    35
390
0
 62
     7
 48
0.003233
100
AcDbLine
 10
173.797058
 20
265.820709
 30
0.0
 11
173.797058
 21
265.950012
 31
0.0
210
0.0
220
0.0
230
1.0
  0
LINE
  5
1A8
100
AcDbEntity
  8
0
370
    35
390
0
 62
     7
 48
0.003232
100
AcDbLine
 10
171.49704
 20
259.079285
 30
0.0
 11
171.49704
 21
258.950012
 31
0.0
210
0.0
220
0.0
230
1.0
  0
LINE
  5
1A9
100
AcDbEntity
  8
0
370
    35
390
0
 62
     7
 48
0.003233
100
AcDbLine
 10
171.49704
 20
259.220703
 30
0.0
 11
171.49704
 21
259.350006
 31
0.0
210
0.0
220
0.0
230
1.0
  0
LINE
  5
1AA
100
AcDbEntity
  8
0
370
    35
390
0
 62
     7
 48
0.003535
100
AcDbLine
 10
171.49704
 20
259.220703
 30
0.0
 11
171.49704
 21
259.079285
 31
0.0
210
0.0
220
0.0
230
1.0
  0
LINE
  5
1AB
100
AcDbEntity
  8
0
370
    35
390
0
 62
     7
 48
0.001768
100
AcDbLine
 10
171.49704
 20
266.850006
 30
0.0
 11
171.49704
 21
266.779297
 31
0.0
210
0.0
220
0.0
230
1.0
  0
LINE
  5
1AC
100
AcDbEntity
  8
0
370
    35
390
0
 62
     7
 48
0.003232
100
AcDbLine
 10
171.49704
 20
266.779297
 30
0.0
 11
171.49704
 21
266.650024
 31
0.0
210
0.0
220
0.0
230
1.0
  0
LINE
  5
1AD
100
AcDbEntity
  8
0
370
    35
390
0
 62
     7
 48
0.0175
100
AcDbLine
 10
171.49704
 20
265.950012
 30
0.0
 11
171.49704
 21
266.650024
 31
0.0
210
0.0
220
0.0
230
1.0
  0
LINE
  5
1AE
100
AcDbEntity
  8
0
370
    35
390
0
 62
     7
 48
0.003233
100
AcDbLine
 10
171.49704
 20
265.820709
 30
0.0
 11
171.49704
 21
265.950012
 31
0.0
210
0.0
220
0.0
230
1.0
  0
LINE
  5
1AF
100
AcDbEntity
  8
0
370
    35
390
0
 62
     7
 48
0.003535
100
AcDbLine
 10
171.49704
 20
265.820709
 30
0.0
 11
171.49704
 21
265.679291
 31
0.0
210
0.0
220
0.0
230
1.0
  0
LINE
  5
1B0
100
AcDbEntity
  8
0
370
    35
390
0
 62
     7
 48
0.003233
100
AcDbLine
 10
171.49704
 20
265.679291
 30
0.0
 11
171.49704
 21
265.549988
 31
0.0
210
0.0
220
0.0
230
1.0
  0
LINE
  5
1B1
100
AcDbEntity
  8
0
370
    35
390
0
 62
     7
 48
0.0175
100
AcDbLine
 10
171.49704
 20
264.850006
 30
0.0
 11
171.49704
 21
265.549988
 31
0.0
210
0.0
220
0.0
230
1.0
  0
LINE
  5
1B2
100
AcDbEntity
  8
0
370
    35
390
0
 62
     7
 48
0.003233
100
AcDbLine
 10
171.49704
 20
264.720703
 30
0.0
 11
171.49704
 21
264.850006
 31
0.0
210
0.0
220
0.0
230
1.0
  0
LINE
  5
1B3
100
AcDbEntity
  8
0
370
    35
390
0
 62
     7
 48
0.003535
100
AcDbLine
 10
171.49704
 20
264.720703
 30
0.0
 11
171.49704
 21
264.579285
 31
0.0
210
0.0
220
0.0
230
1.0
  0
LINE
  5
1B4
100
AcDbEntity
  8
0
370
    35
390
0
 62
     7
 48
0.003232
100
AcDbLine
 10
171.49704
 20
264.579285
 30
0.0
 11
171.49704
 21
264.450012
 31
0.0
210
0.0
220
0.0
230
1.0
  0
LINE
  5
1B5
100
AcDbEntity
  8
0
370
    35
390
0
 62
     7
 48
0.0175
100
AcDbLine
 10
171.49704
 20
263.75
 30
0.0
 11
171.49704
 21
264.450012
 31
0.0
210
0.0
220
0.0
230
1.0
  0
LINE
  5
1B6
100
AcDbEntity
  8
0
370
    35
390
0
 62
     7
 48
0.003232
100
AcDbLine
 10
171.49704
 20
263.620728
 30
0.0
 11
171.49704
 21
263.75
 31
0.0
210
0.0
220
0.0
230
1.0
  0
LINE
  5
1B7
100
AcDbEntity
  8
0
370
    35
390
0
 62
     7
 48
0.003535
100
AcDbLine
 10
171.49704
 20
263.620728
 30
0.0
 11
171.49704
 21
263.479309
 31
0.0
210
0.0
220
0.0
230
1.0
  0
LINE
  5
1B8
100
AcDbEntity
  8
0
370
    35
390
0
 62
     7
 48
0.003233
100
AcDbLine
 10
171.49704
 20
263.479309
 30
0.0
 11
171.49704
 21
263.350006
 31
0.0
210
0.0
220
0.0
230
1.0
  0
LINE
  5
1B9
100
AcDbEntity
  8
0
370
    35
390
0
 62
     7
 48
0.0175
100
AcDbLine
 10
171.49704
 20
262.650024
 30
0.0
 11
171.49704
 21
263.350006
 31
0.0
210
0.0
220
0.0
230
1.0
  0
LINE
  5
1BA
100
AcDbEntity
  8
0
370
    35
390
0
 62
     7
 48
0.003233
100
AcDbLine
 10
171.49704
 20
262.520721
 30
0.0
 11
171.49704
 21
262.650024
 31
0.0
210
0.0
220
0.0
230
1.0
  0
LINE
  5
1BB
100
AcDbEntity
  8
0
370
    35
390
0
 62
     7
 48
0.003536
100
AcDbLine
 10
171.49704
 20
262.520721
 30
0.0
 11
171.49704
 21
262.379272
 31
0.0
210
0.0
220
0.0
230
1.0
  0
LINE
  5
1BC
100
AcDbEntity
  8
0
370
    35
390
0
 62
     7
 48
0.003232
100
AcDbLine
 10
171.49704
 20
262.379272
 30
0.0
 11
171.49704
 21
262.25
 31
0.0
210
0.0
220
0.0
230
1.0
  0
LINE
  5
1BD
100
AcDbEntity
  8
0
370
    35
390
0
 62
     7
 48
0.0175
100
AcDbLine
 10
171.49704
 20
261.549988
 30
0.0
 11
171.49704
 21
262.25
 31
0.0
210
0.0
220
0.0
230
1.0
  0
LINE
  5
1BE
100
AcDbEntity
  8
0
370
    35
390
0
 62
     7
 48
0.003232
100
AcDbLine
 10
171.49704
 20
261.420715
 30
0.0
 11
171.49704
 21
261.549988
 31
0.0
210
0.0
220
0.0
230
1.0
  0
LINE
  5
1BF
100
AcDbEntity
  8
0
370
    35
390
0
 62
     7
 48
0.003535
100
AcDbLine
 10
171.49704
 20
261.420715
 30
0.0
 11
171.49704
 21
261.279297
 31
0.0
210
0.0
220
0.0
230
1.0
  0
LINE
  5
1C0
100
AcDbEntity
  8
0
370
    35
390
0
 62
     7
 48
0.003232
100
AcDbLine
 10
171.49704
 20
261.279297
 30
0.0
 11
171.49704
 21
261.150024
 31
0.0
210
0.0
220
0.0
230
1.0
  0
LINE
  5
1C1
100
AcDbEntity
  8
0
370
    35
390
0
 62
     7
 48
0.0175
100
AcDbLine
 10
171.49704
 20
260.450012
 30
0.0
 11
171.49704
 21
261.150024
 31
0.0
210
0.0
220
0.0
230
1.0
  0
LINE
  5
1C2
100
AcDbEntity
  8
0
370
    35
390
0
 62
     7
 48
0.003233
100
AcDbLine
 10
171.49704
 20
260.320709
 30
0.0
 11
171.49704
 21
260.450012
 31
0.0
210
0.0
220
0.0
230
1.0
  0
LINE
  5
1C3
100
AcDbEntity
  8
0
370
    35
390
0
 62
     7
 48
0.003535
100
AcDbLine
 10
171.49704
 20
260.320709
 30
0.0
 11
171.49704
 21
260.179291
 31
0.0
210
0.0
220
0.0
230
1.0
  0
LINE
  5
1C4
100
AcDbEntity
  8
0
370
    35
390
0
 62
     7
 48
0.003233
100
AcDbLine
 10
171.49704
 20
260.179291
 30
0.0
 11
171.49704
 21
260.049988
 31
0.0
210
0.0
220
0.0
230
1.0
  0
LINE
  5
1C5
100
AcDbEntity
  8
0
370
    35
390
0
 62
     7
 48
0.0175
100
AcDbLine
 10
171.49704
 20
259.350006
 30
0.0
 11
171.49704
 21
260.049988
 31
0.0
210
0.0
220
0.0
230
1.0
  0
LINE
  5
1C6
100
AcDbEntity
  8
0
370
    35
390
0
 62
     7
 48
0.003233
100
AcDbLine
 10
170.49704
 20
265.679291
 30
0.0
 11
170.49704
 21
265.549988
 31
0.0
210
0.0
220
0.0
230
1.0
  0
LINE
  5
1C7
100
AcDbEntity
  8
0
370
    35
390
0
 62
     7
 48
0.003535
100
AcDbLine
 10
170.49704
 20
265.679291
 30
0.0
 11
170.49704
 21
265.820709
 31
0.0
210
0.0
220
0.0
230
1.0
  0
LINE
  5
1C8
100
AcDbEntity
  8
0
370
    35
390
0
 62
     7
 48
0.003233
100
AcDbLine
 10
170.49704
 20
265.820709
 30
0.0
 11
170.49704
 21
265.950012
 31
0.0
210
0.0
220
0.0
230
1.0
  0
LINE
  5
1C9
100
AcDbEntity
  8
0
370
    35
390
0
 62
     7
 48
0.01
100
AcDbLine
 10
170.49704
 20
266.350006
 30
0.0
 11
170.49704
 21
265.950012
 31
0.0
210
0.0
220
0.0
230
1.0
  0
LINE
  5
1CA
100
AcDbEntity
  8
0
370
    35
390
0
 62
     7
 48
0.003232
100
AcDbLine
 10
170.49704
 20
259.079285
 30
0.0
 11
170.49704
 21
258.950012
 31
0.0
210
0.0
220
0.0
230
1.0
  0
LINE
  5
1CB
100
AcDbEntity
  8
0
370
    35
390
0
 62
     7
 48
0.003535
100
AcDbLine
 10
170.49704
 20
259.079285
 30
0.0
 11
170.49704
 21
259.220703
 31
0.0
210
0.0
220
0.0
230
1.0
  0
LINE
  5
1CC
100
AcDbEntity
  8
0
370
    35
390
0
 62
     7
 48
0.003233
100
AcDbLine
 10
170.49704
 20
259.220703
 30
0.0
 11
170.49704
 21
259.350006
 31
0.0
210
0.0
220
0.0
230
1.0
  0
LINE
  5
1CD
100
AcDbEntity
  8
0
370
    35
390
0
 62
     7
 48
0.0175
100
AcDbLine
 10
170.49704
 20
260.049988
 30
0.0
 11
170.49704
 21
259.350006
 31
0.0
210
0.0
220
0.0
230
1.0
  0
LINE
  5
1CE
100
AcDbEntity
  8
0
370
    35
390
0
 62
     7
 48
0.003233
100
AcDbLine
 10
170.49704
 20
260.179291
 30
0.0
 11
170.49704
 21
260.049988
 31
0.0
210
0.0
220
0.0
230
1.0
  0
LINE
  5
1CF
100
AcDbEntity
  8
0
370
    35
390
0
 62
     7
 48
0.003535
100
AcDbLine
 10
170.49704
 20
260.179291
 30
0.0
 11
170.49704
 21
260.320709
 31
0.0
210
0.0
220
0.0
230
1.0
  0
LINE
  5
1D0
100
AcDbEntity
  8
0
370
    35
390
0
 62
     7
 48
0.003233
100
AcDbLine
 10
170.49704
 20
260.320709
 30
0.0
 11
170.49704
 21
260.450012
 31
0.0
210
0.0
220
0.0
230
1.0
  0
LINE
  5
1D1
100
AcDbEntity
  8
0
370
    35
390
0
 62
     7
 48
0.0175
100
AcDbLine
 10
170.49704
 20
261.150024
 30
0.0
 11
170.49704
 21
260.450012
 31
0.0
210
0.0
220
0.0
230
1.0
  0
LINE
  5
1D2
100
AcDbEntity
  8
0
370
    35
390
0
 62
     7
 48
0.003232
100
AcDbLine
 10
170.49704
 20
261.279297
 30
0.0
 11
170.49704
 21
261.150024
 31
0.0
210
0.0
220
0.0
230
1.0
  0
LINE
  5
1D3
100
AcDbEntity
  8
0
370
    35
390
0
 62
     7
 48
0.003535
100
AcDbLine
 10
170.49704
 20
261.279297
 30
0.0
 11
170.49704
 21
261.420715
 31
0.0
210
0.0
220
0.0
230
1.0
  0
LINE
  5
1D4
100
AcDbEntity
  8
0
370
    35
390
0
 62
     7
 48
0.003232
100
AcDbLine
 10
170.49704
 20
261.420715
 30
0.0
 11
170.49704
 21
261.549988
 31
0.0
210
0.0
220
0.0
230
1.0
  0
LINE
  5
1D5
100
AcDbEntity
  8
0
370
    35
390
0
 62
     7
 48
0.0175
100
AcDbLine
 10
170.49704
 20
262.25
 30
0.0
 11
170.49704
 21
261.549988
 31
0.0
210
0.0
220
0.0
230
1.0
  0
LINE
  5
1D6
100
AcDbEntity
  8
0
370
    35
390
0
 62
     7
 48
0.003232
100
AcDbLine
 10
170.49704
 20
262.379272
 30
0.0
 11
170.49704
 21
262.25
 31
0.0
210
0.0
220
0.0
230
1.0
  0
LINE
  5
1D7
100
AcDbEntity
  8
0
370
    35
390
0
 62
     7
 48
0.003536
100
AcDbLine
 10
170.49704
 20
262.379272
 30
0.0
 11
170.49704
 21
262.520721
 31
0.0
210
0.0
220
0.0
230
1.0
  0
LINE
  5
1D8
100
AcDbEntity
  8
0
370
    35
390
0
 62
     7
 48
0.003233
100
AcDbLine
 10
170.49704
 20
262.520721
 30
0.0
 11
170.49704
 21
262.650024
 31
0.0
210
0.0
220
0.0
230
1.0
  0
LINE
  5
1D9
100
AcDbEntity
  8
0
370
    35
390
0
 62
     7
 48
0.0175
100
AcDbLine
 10
170.49704
 20
263.350006
 30
0.0
 11
170.49704
 21
262.650024
 31
0.0
210
0.0
220
0.0
230
1.0
  0
LINE
  5
1DA
100
AcDbEntity
  8
0
370
    35
390
0
 62
     7
 48
0.003233
100
AcDbLine
 10
170.49704
 20
263.479309
 30
0.0
 11
170.49704
 21
263.350006
 31
0.0
210
0.0
220
0.0
230
1.0
  0
LINE
  5
1DB
100
AcDbEntity
  8
0
370
    35
390
0
 62
     7
 48
0.003535
100
AcDbLine
 10
170.49704
 20
263.479309
 30
0.0
 11
170.49704
 21
263.620728
 31
0.0
210
0.0
220
0.0
230
1.0
  0
LINE
  5
1DC
100
AcDbEntity
  8
0
370
    35
390
0
 62
     7
 48
0.003232
100
AcDbLine
 10
170.49704
 20
263.620728
 30
0.0
 11
170.49704
 21
263.75
 31
0.0
210
0.0
220
0.0
230
1.0
  0
LINE
  5
1DD
100
AcDbEntity
  8
0
370
    35
390
0
 62
     7
 48
0.0175
100
AcDbLine
 10
170.49704
 20
264.450012
 30
0.0
 11
170.49704
 21
263.75
 31
0.0
210
0.0
220
0.0
230
1.0
  0
LINE
  5
1DE
100
AcDbEntity
  8
0
370
    35
390
0
 62
     7
 48
0.003232
100
AcDbLine
 10
170.49704
 20
264.579285
 30
0.0
 11
170.49704
 21
264.450012
 31
0.0
210
0.0
220
0.0
230
1.0
  0
LINE
  5
1DF
100
AcDbEntity
  8
0
370
    35
390
0
 62
     7
 48
0.003535
100
AcDbLine
 10
170.49704
 20
264.579285
 30
0.0
 11
170.49704
 21
264.720703
 31
0.0
210
0.0
220
0.0
230
1.0
  0
LINE
  5
1E0
100
AcDbEntity
  8
0
370
    35
390
0
 62
     7
 48
0.003233
100
AcDbLine
 10
170.49704
 20
264.720703
 30
0.0
 11
170.49704
 21
264.850006
 31
0.0
210
0.0
220
0.0
230
1.0
  0
LINE
  5
1E1
100
AcDbEntity
  8
0
370
    35
390
0
 62
     7
 48
0.0175
100
AcDbLine
 10
170.49704
 20
265.549988
 30
0.0
 11
170.49704
 21
264.850006
 31
0.0
210
0.0
220
0.0
230
1.0
  0
LINE
  5
1E2
100
AcDbEntity
  8
0
370
    35
390
0
 62
     7
 48
0.003846
100
AcDbLine
 10
111.828369
 20
258.950012
 30
0.0
 11
111.911743
 21
259.079285
 31
0.0
210
0.0
220
0.0
230
1.0
  0
ARC
  5
1E3
100
AcDbEntity
  8
0
370
    35
390
0
 62
     7
100
AcDbCircle
 10
105.147057
 20
263.350006
 30
0.0
 40
8.0
210
0.0
220
0.0
230
1.0
100
AcDbArc
 50
354.980203
 51
360.0
  0
LINE
  5
1E4
100
AcDbEntity
  8
0
370
    35
390
0
 62
     7
 48
0.003247
100
AcDbLine
 10
113.103958
 20
262.520721
 30
0.0
 11
113.116371
 21
262.650024
 31
0.0
210
0.0
220
0.0
230
1.0
  0
LINE
  5
1E5
100
AcDbEntity
  8
0
370
    35
390
0
 62
     7
 48
0.003559
100
AcDbLine
 10
113.087944
 20
262.379272
 30
0.0
 11
113.103958
 21
262.520721
 31
0.0
210
0.0
220
0.0
230
1.0
  0
LINE
  5
1E6
100
AcDbEntity
  8
0
370
    35
390
0
 62
     7
 48
0.003259
100
AcDbLine
 10
113.071068
 20
262.25
 30
0.0
 11
113.087944
 21
262.379272
 31
0.0
210
0.0
220
0.0
230
1.0
  0
ARC
  5
1E7
100
AcDbEntity
  8
0
370
    35
390
0
 62
     7
100
AcDbCircle
 10
105.147057
 20
263.350006
 30
0.0
 40
8.0
210
0.0
220
0.0
230
1.0
100
AcDbArc
 50
346.997132
 51
352.096798
  0
LINE
  5
1E8
100
AcDbEntity
  8
0
370
    35
390
0
 62
     7
 48
0.003323
100
AcDbLine
 10
112.910934
 20
261.420715
 30
0.0
 11
112.941925
 21
261.549988
 31
0.0
210
0.0
220
0.0
230
1.0
  0
LINE
  5
1E9
100
AcDbEntity
  8
0
370
    35
390
0
 62
     7
 48
0.003651
100
AcDbLine
 10
112.87442
 20
261.279297
 30
0.0
 11
112.910934
 21
261.420715
 31
0.0
210
0.0
220
0.0
230
1.0
  0
LINE
  5
1EA
100
AcDbEntity
  8
0
370
    35
390
0
 62
     7
 48
0.003354
100
AcDbLine
 10
112.838608
 20
261.150024
 30
0.0
 11
112.87442
 21
261.279297
 31
0.0
210
0.0
220
0.0
230
1.0
  0
ARC
  5
1EB
100
AcDbEntity
  8
0
370
    35
390
0
 62
     7
100
AcDbCircle
 10
105.147057
 20
263.350006
 30
0.0
 40
8.0
210
0.0
220
0.0
230
1.0
100
AcDbArc
 50
338.746183
 51
344.037995
  0
LINE
  5
1EC
100
AcDbEntity
  8
0
370
    35
390
0
 62
     7
 48
0.00348
100
AcDbLine
 10
112.551338
 20
260.320709
 30
0.0
 11
112.602928
 21
260.450012
 31
0.0
210
0.0
220
0.0
230
1.0
  0
LINE
  5
1ED
100
AcDbEntity
  8
0
370
    35
390
0
 62
     7
 48
0.003835
100
AcDbLine
 10
112.49189
 20
260.179291
 30
0.0
 11
112.551338
 21
260.320709
 31
0.0
210
0.0
220
0.0
230
1.0
  0
LINE
  5
1EE
100
AcDbEntity
  8
0
370
    35
390
0
 62
     7
 48
0.003534
100
AcDbLine
 10
112.434715
 20
260.049988
 30
0.0
 11
112.49189
 21
260.179291
 31
0.0
210
0.0
220
0.0
230
1.0
  0
ARC
  5
1EF
100
AcDbEntity
  8
0
370
    35
390
0
 62
     7
100
AcDbCircle
 10
105.147057
 20
263.350006
 30
0.0
 40
8.0
210
0.0
220
0.0
230
1.0
100
AcDbArc
 50
329.999989
 51
335.63801
  0
LINE
  5
1F0
100
AcDbEntity
  8
0
370
    35
390
0
 62
     7
 48
0.003753
100
AcDbLine
 10
111.998985
 20
259.220703
 30
0.0
 11
112.075256
 21
259.350006
 31
0.0
210
0.0
220
0.0
230
1.0
  0
LINE
  5
1F1
100
AcDbEntity
  8
0
370
    35
390
0
 62
     7
 48
0.004154
100
AcDbLine
 10
111.911743
 20
259.079285
 30
0.0
 11
111.998985
 21
259.220703
 31
0.0
210
0.0
220
0.0
230
1.0
  0
LINE
  5
1F2
100
AcDbEntity
  8
0
370
    35
390
0
 62
     7
 48
0.003846
100
AcDbLine
 10
98.465736
 20
258.950012
 30
0.0
 11
98.38237
 21
259.079285
 31
0.0
210
0.0
220
0.0
230
1.0
  0
LINE
  5
1F3
100
AcDbEntity
  8
0
370
    35
390
0
 62
     7
 48
0.004154
100
AcDbLine
 10
98.38237
 20
259.079285
 30
0.0
 11
98.295128
 21
259.220703
 31
0.0
210
0.0
220
0.0
230
1.0
  0
LINE
  5
1F4
100
AcDbEntity
  8
0
370
    35
390
0
 62
     7
 48
0.003753
100
AcDbLine
 10
98.295128
 20
259.220703
 30
0.0
 11
98.218857
 21
259.350006
 31
0.0
210
0.0
220
0.0
230
1.0
  0
ARC
  5
1F5
100
AcDbEntity
  8
0
370
    35
390
0
 62
     7
100
AcDbCircle
 10
105.147057
 20
263.350006
 30
0.0
 40
8.0
210
0.0
220
0.0
230
1.0
100
AcDbArc
 50
204.361982
 51
210.000003
  0
LINE
  5
1F6
100
AcDbEntity
  8
0
370
    35
390
0
 62
     7
 48
0.003534
100
AcDbLine
 10
97.859398
 20
260.049988
 30
0.0
 11
97.802223
 21
260.179291
 31
0.0
210
0.0
220
0.0
230
1.0
  0
LINE
  5
1F7
100
AcDbEntity
  8
0
370
    35
390
0
 62
     7
 48
0.003835
100
AcDbLine
 10
97.802223
 20
260.179291
 30
0.0
 11
97.742775
 21
260.320709
 31
0.0
210
0.0
220
0.0
230
1.0
  0
LINE
  5
1F8
100
AcDbEntity
  8
0
370
    35
390
0
 62
     7
 48
0.00348
100
AcDbLine
 10
97.742775
 20
260.320709
 30
0.0
 11
97.691185
 21
260.450012
 31
0.0
210
0.0
220
0.0
230
1.0
  0
ARC
  5
1F9
100
AcDbEntity
  8
0
370
    35
390
0
 62
     7
100
AcDbCircle
 10
105.147057
 20
263.350006
 30
0.0
 40
8.0
210
0.0
220
0.0
230
1.0
100
AcDbArc
 50
195.96201
 51
201.253809
  0
LINE
  5
1FA
100
AcDbEntity
  8
0
370
    35
390
0
 62
     7
 48
0.003354
100
AcDbLine
 10
97.455505
 20
261.150024
 30
0.0
 11
97.419693
 21
261.279297
 31
0.0
210
0.0
220
0.0
230
1.0
  0
LINE
  5
1FB
100
AcDbEntity
  8
0
370
    35
390
0
 62
     7
 48
0.003651
100
AcDbLine
 10
97.419693
 20
261.279297
 30
0.0
 11
97.383179
 21
261.420715
 31
0.0
210
0.0
220
0.0
230
1.0
  0
LINE
  5
1FC
100
AcDbEntity
  8
0
370
    35
390
0
 62
     7
 48
0.003323
100
AcDbLine
 10
97.383179
 20
261.420715
 30
0.0
 11
97.352188
 21
261.549988
 31
0.0
210
0.0
220
0.0
230
1.0
  0
ARC
  5
1FD
100
AcDbEntity
  8
0
370
    35
390
0
 62
     7
100
AcDbCircle
 10
105.147057
 20
263.350006
 30
0.0
 40
8.0
210
0.0
220
0.0
230
1.0
100
AcDbArc
 50
187.903207
 51
193.002872
  0
LINE
  5
1FE
100
AcDbEntity
  8
0
370
    35
390
0
 62
     7
 48
0.003259
100
AcDbLine
 10
97.223045
 20
262.25
 30
0.0
 11
97.206169
 21
262.379272
 31
0.0
210
0.0
220
0.0
230
1.0
  0
LINE
  5
1FF
100
AcDbEntity
  8
0
370
    35
390
0
 62
     7
 48
0.003559
100
AcDbLine
 10
97.206169
 20
262.379272
 30
0.0
 11
97.190155
 21
262.520721
 31
0.0
210
0.0
220
0.0
230
1.0
  0
LINE
  5
200
100
AcDbEntity
  8
0
370
    35
390
0
 62
     7
 48
0.003247
100
AcDbLine
 10
97.190155
 20
262.520721
 30
0.0
 11
97.177742
 21
262.650024
 31
0.0
210
0.0
220
0.0
230
1.0
  0
ARC
  5
201
100
AcDbEntity
  8
0
370
    35
390
0
 62
     7
100
AcDbCircle
 10
105.147057
 20
263.350006
 30
0.0
 40
8.0
210
0.0
220
0.0
230
1.0
100
AcDbArc
 50
180.000009
 51
185.019802
  0
LINE
  5
202
100
AcDbEntity
  8
0
370
    35
390
0
 62
     7
 48
0.003232
100
AcDbLine
 10
96.147057
 20
259.079285
 30
0.0
 11
96.147057
 21
258.950012
 31
0.0
210
0.0
220
0.0
230
1.0
  0
LINE
  5
203
100
AcDbEntity
  8
0
370
    35
390
0
 62
     7
 48
0.003535
100
AcDbLine
 10
96.147057
 20
259.220703
 30
0.0
 11
96.147057
 21
259.079285
 31
0.0
210
0.0
220
0.0
230
1.0
  0
LINE
  5
204
100
AcDbEntity
  8
0
370
    35
390
0
 62
     7
 48
0.003233
100
AcDbLine
 10
96.147057
 20
259.350006
 30
0.0
 11
96.147057
 21
259.220703
 31
0.0
210
0.0
220
0.0
230
1.0
  0
LINE
  5
205
100
AcDbEntity
  8
0
370
    35
390
0
 62
     7
 48
0.0175
100
AcDbLine
 10
96.147057
 20
259.350006
 30
0.0
 11
96.147057
 21
260.049988
 31
0.0
210
0.0
220
0.0
230
1.0
  0
LINE
  5
206
100
AcDbEntity
  8
0
370
    35
390
0
 62
     7
 48
0.003233
100
AcDbLine
 10
96.147057
 20
260.179291
 30
0.0
 11
96.147057
 21
260.049988
 31
0.0
210
0.0
220
0.0
230
1.0
  0
LINE
  5
207
100
AcDbEntity
  8
0
370
    35
390
0
 62
     7
 48
0.003535
100
AcDbLine
 10
96.147057
 20
260.320709
 30
0.0
 11
96.147057
 21
260.179291
 31
0.0
210
0.0
220
0.0
230
1.0
  0
LINE
  5
208
100
AcDbEntity
  8
0
370
    35
390
0
 62
     7
 48
0.003233
100
AcDbLine
 10
96.147057
 20
260.450012
 30
0.0
 11
96.147057
 21
260.320709
 31
0.0
210
0.0
220
0.0
230
1.0
  0
LINE
  5
209
100
AcDbEntity
  8
0
370
    35
390
0
 62
     7
 48
0.0175
100
AcDbLine
 10
96.147057
 20
260.450012
 30
0.0
 11
96.147057
 21
261.150024
 31
0.0
210
0.0
220
0.0
230
1.0
  0
LINE
  5
20A
100
AcDbEntity
  8
0
370
    35
390
0
 62
     7
 48
0.003232
100
AcDbLine
 10
96.147057
 20
261.279297
 30
0.0
 11
96.147057
 21
261.150024
 31
0.0
210
0.0
220
0.0
230
1.0
  0
LINE
  5
20B
100
AcDbEntity
  8
0
370
    35
390
0
 62
     7
 48
0.003535
100
AcDbLine
 10
96.147057
 20
261.420715
 30
0.0
 11
96.147057
 21
261.279297
 31
0.0
210
0.0
220
0.0
230
1.0
  0
LINE
  5
20C
100
AcDbEntity
  8
0
370
    35
390
0
 62
     7
 48
0.003232
100
AcDbLine
 10
96.147057
 20
261.549988
 30
0.0
 11
96.147057
 21
261.420715
 31
0.0
210
0.0
220
0.0
230
1.0
  0
LINE
  5
20D
100
AcDbEntity
  8
0
370
    35
390
0
 62
     7
 48
0.0175
100
AcDbLine
 10
96.147057
 20
261.549988
 30
0.0
 11
96.147057
 21
262.25
 31
0.0
210
0.0
220
0.0
230
1.0
  0
LINE
  5
20E
100
AcDbEntity
  8
0
370
    35
390
0
 62
     7
 48
0.003232
100
AcDbLine
 10
96.147057
 20
262.379272
 30
0.0
 11
96.147057
 21
262.25
 31
0.0
210
0.0
220
0.0
230
1.0
  0
LINE
  5
20F
100
AcDbEntity
  8
0
370
    35
390
0
 62
     7
 48
0.003536
100
AcDbLine
 10
96.147057
 20
262.520721
 30
0.0
 11
96.147057
 21
262.379272
 31
0.0
210
0.0
220
0.0
230
1.0
  0
LINE
  5
210
100
AcDbEntity
  8
0
370
    35
390
0
 62
     7
 48
0.003233
100
AcDbLine
 10
96.147057
 20
262.650024
 30
0.0
 11
96.147057
 21
262.520721
 31
0.0
210
0.0
220
0.0
230
1.0
  0
LINE
  5
211
100
AcDbEntity
  8
0
370
    35
390
0
 62
     7
 48
0.0175
100
AcDbLine
 10
96.147057
 20
262.650024
 30
0.0
 11
96.147057
 21
263.350006
 31
0.0
210
0.0
220
0.0
230
1.0
  0
LINE
  5
212
100
AcDbEntity
  8
0
370
    35
390
0
 62
     7
 48
0.003233
100
AcDbLine
 10
96.147057
 20
263.479309
 30
0.0
 11
96.147057
 21
263.350006
 31
0.0
210
0.0
220
0.0
230
1.0
  0
LINE
  5
213
100
AcDbEntity
  8
0
370
    35
390
0
 62
     7
 48
0.003535
100
AcDbLine
 10
96.147057
 20
263.620728
 30
0.0
 11
96.147057
 21
263.479309
 31
0.0
210
0.0
220
0.0
230
1.0
  0
LINE
  5
214
100
AcDbEntity
  8
0
370
    35
390
0
 62
     7
 48
0.003232
100
AcDbLine
 10
96.147057
 20
263.75
 30
0.0
 11
96.147057
 21
263.620728
 31
0.0
210
0.0
220
0.0
230
1.0
  0
LINE
  5
215
100
AcDbEntity
  8
0
370
    35
390
0
 62
     7
 48
0.0175
100
AcDbLine
 10
96.147057
 20
263.75
 30
0.0
 11
96.147057
 21
264.450012
 31
0.0
210
0.0
220
0.0
230
1.0
  0
LINE
  5
216
100
AcDbEntity
  8
0
370
    35
390
0
 62
     7
 48
0.003232
100
AcDbLine
 10
96.147057
 20
264.579285
 30
0.0
 11
96.147057
 21
264.450012
 31
0.0
210
0.0
220
0.0
230
1.0
  0
LINE
  5
217
100
AcDbEntity
  8
0
370
    35
390
0
 62
     7
 48
0.003535
100
AcDbLine
 10
96.147057
 20
264.720703
 30
0.0
 11
96.147057
 21
264.579285
 31
0.0
210
0.0
220
0.0
230
1.0
  0
LINE
  5
218
100
AcDbEntity
  8
0
370
    35
390
0
 62
     7
 48
0.003233
100
AcDbLine
 10
96.147057
 20
264.850006
 30
0.0
 11
96.147057
 21
264.720703
 31
0.0
210
0.0
220
0.0
230
1.0
  0
LINE
  5
219
100
AcDbEntity
  8
0
370
    35
390
0
 62
     7
 48
0.0175
100
AcDbLine
 10
96.147057
 20
264.850006
 30
0.0
 11
96.147057
 21
265.549988
 31
0.0
210
0.0
220
0.0
230
1.0
  0
LINE
  5
21A
100
AcDbEntity
  8
0
370
    35
390
0
 62
     7
 48
0.003233
100
AcDbLine
 10
96.147057
 20
265.679291
 30
0.0
 11
96.147057
 21
265.549988
 31
0.0
210
0.0
220
0.0
230
1.0
  0
LINE
  5
21B
100
AcDbEntity
  8
0
370
    35
390
0
 62
     7
 48
0.003535
100
AcDbLine
 10
96.147057
 20
265.820709
 30
0.0
 11
96.147057
 21
265.679291
 31
0.0
210
0.0
220
0.0
230
1.0
  0
LINE
  5
21C
100
AcDbEntity
  8
0
370
    35
390
0
 62
     7
 48
0.003233
100
AcDbLine
 10
96.147057
 20
265.950012
 30
0.0
 11
96.147057
 21
265.820709
 31
0.0
210
0.0
220
0.0
230
1.0
  0
LINE
  5
21D
100
AcDbEntity
  8
0
370
    35
390
0
 62
     7
 48
0.0175
100
AcDbLine
 10
96.147057
 20
265.950012
 30
0.0
 11
96.147057
 21
266.650024
 31
0.0
210
0.0
220
0.0
230
1.0
  0
LINE
  5
21E
100
AcDbEntity
  8
0
370
    35
390
0
 62
     7
 48
0.003232
100
AcDbLine
 10
96.147057
 20
266.779297
 30
0.0
 11
96.147057
 21
266.650024
 31
0.0
210
0.0
220
0.0
230
1.0
  0
LINE
  5
21F
100
AcDbEntity
  8
0
370
    35
390
0
 62
     7
 48
0.003535
100
AcDbLine
 10
96.147057
 20
266.920715
 30
0.0
 11
96.147057
 21
266.779297
 31
0.0
210
0.0
220
0.0
230
1.0
  0
LINE
  5
220
100
AcDbEntity
  8
0
370
    35
390
0
 62
     7
 48
0.003232
100
AcDbLine
 10
96.147057
 20
267.049988
 30
0.0
 11
96.147057
 21
266.920715
 31
0.0
210
0.0
220
0.0
230
1.0
  0
LINE
  5
221
100
AcDbEntity
  8
0
370
    35
390
0
 62
     7
 48
0.0175
100
AcDbLine
 10
96.147057
 20
267.049988
 30
0.0
 11
96.147057
 21
267.75
 31
0.0
210
0.0
220
0.0
230
1.0
  0
LINE
  5
222
100
AcDbEntity
  8
0
370
    35
390
0
 62
     7
 48
0.003232
100
AcDbLine
 10
96.147057
 20
267.879272
 30
0.0
 11
96.147057
 21
267.75
 31
0.0
210
0.0
220
0.0
230
1.0
  0
LINE
  5
223
100
AcDbEntity
  8
0
370
    35
390
0
 62
     7
 48
0.003536
100
AcDbLine
 10
96.147057
 20
268.020721
 30
0.0
 11
96.147057
 21
267.879272
 31
0.0
210
0.0
220
0.0
230
1.0
  0
LINE
  5
224
100
AcDbEntity
  8
0
370
    35
390
0
 62
     7
 48
0.003233
100
AcDbLine
 10
96.147057
 20
268.150024
 30
0.0
 11
96.147057
 21
268.020721
 31
0.0
210
0.0
220
0.0
230
1.0
  0
LINE
  5
225
100
AcDbEntity
  8
0
370
    35
390
0
 62
     7
 48
0.120606
100
AcDbLine
 10
96.147057
 20
268.150024
 30
0.0
 11
96.147057
 21
272.974274
 31
0.0
210
0.0
220
0.0
230
1.0
  0
LINE
  5
226
100
AcDbEntity
  8
0
370
    35
390
0
 62
     7
 48
0.012197
100
AcDbLine
 10
96.147057
 20
273.462158
 30
0.0
 11
96.147057
 21
272.974274
 31
0.0
210
0.0
220
0.0
230
1.0
  0
LINE
  5
227
100
AcDbEntity
  8
0
370
    35
390
0
 62
     7
 48
0.002196
100
AcDbLine
 10
96.147057
 20
273.549988
 30
0.0
 11
96.147057
 21
273.462158
 31
0.0
210
0.0
220
0.0
230
1.0
  0
ARC
  5
228
100
AcDbEntity
  8
0
370
    35
390
0
 62
     7
100
AcDbCircle
 10
473.647034
 20
250.550003
 30
0.0
 40
0.5
210
0.0
220
0.0
230
1.0
100
AcDbArc
 50
0.0
 51
90.000003
  0
LINE
  5
229
100
AcDbEntity
  8
0
370
    35
390
0
 62
     7
 48
0.175
100
AcDbLine
 10
473.647034
 20
251.050003
 30
0.0
 11
466.647034
 21
251.050003
 31
0.0
210
0.0
220
0.0
230
1.0
  0
ARC
  5
22A
100
AcDbEntity
  8
0
370
    35
390
0
 62
     7
100
AcDbCircle
 10
466.647034
 20
250.550003
 30
0.0
 40
0.5
210
0.0
220
0.0
230
1.0
100
AcDbArc
 50
90.000003
 51
180.000009
  0
LINE
  5
22B
100
AcDbEntity
  8
0
370
    35
390
0
 62
     7
 48
0.1
100
AcDbLine
 10
466.147034
 20
250.550003
 30
0.0
 11
466.147034
 21
246.550003
 31
0.0
210
0.0
220
0.0
230
1.0
  0
ARC
  5
22C
100
AcDbEntity
  8
0
370
    35
390
0
 62
     7
100
AcDbCircle
 10
466.647034
 20
246.550003
 30
0.0
 40
0.5
210
0.0
220
0.0
230
1.0
100
AcDbArc
 50
180.000009
 51
269.999997
  0
LINE
  5
22D
100
AcDbEntity
  8
0
370
    35
390
0
 62
     7
 48
0.175
100
AcDbLine
 10
466.647034
 20
246.050003
 30
0.0
 11
473.647034
 21
246.050003
 31
0.0
210
0.0
220
0.0
230
1.0
  0
ARC
  5
22E
100
AcDbEntity
  8
0
370
    35
390
0
 62
     7
100
AcDbCircle
 10
473.647034
 20
246.550003
 30
0.0
 40
0.5
210
0.0
220
0.0
230
1.0
100
AcDbArc
 50
269.999997
 51
360.0
  0
LINE
  5
22F
100
AcDbEntity
  8
0
370
    35
390
0
 62
     7
 48
0.1
100
AcDbLine
 10
474.147034
 20
246.550003
 30
0.0
 11
474.147034
 21
250.550003
 31
0.0
210
0.0
220
0.0
230
1.0
  0
ARC
  5
230
100
AcDbEntity
  8
0
370
    35
390
0
 62
     7
100
AcDbCircle
 10
153.647064
 20
250.550003
 30
0.0
 40
0.5
210
0.0
220
0.0
230
1.0
100
AcDbArc
 50
0.0
 51
90.000003
  0
LINE
  5
231
100
AcDbEntity
  8
0
370
    35
390
0
 62
     7
 48
0.175
100
AcDbLine
 10
153.647064
 20
251.050003
 30
0.0
 11
146.647064
 21
251.050003
 31
0.0
210
0.0
220
0.0
230
1.0
  0
ARC
  5
232
100
AcDbEntity
  8
0
370
    35
390
0
 62
     7
100
AcDbCircle
 10
146.647064
 20
250.550003
 30
0.0
 40
0.5
210
0.0
220
0.0
230
1.0
100
AcDbArc
 50
90.000003
 51
180.000009
  0
LINE
  5
233
100
AcDbEntity
  8
0
370
    35
390
0
 62
     7
 48
0.1
100
AcDbLine
 10
146.147064
 20
250.550003
 30
0.0
 11
146.147064
 21
246.550003
 31
0.0
210
0.0
220
0.0
230
1.0
  0
ARC
  5
234
100
AcDbEntity
  8
0
370
    35
390
0
 62
     7
100
AcDbCircle
 10
146.647064
 20
246.550003
 30
0.0
 40
0.5
210
0.0
220
0.0
230
1.0
100
AcDbArc
 50
180.000009
 51
269.999997
  0
LINE
  5
235
100
AcDbEntity
  8
0
370
    35
390
0
 62
     7
 48
0.175
100
AcDbLine
 10
146.647064
 20
246.050003
 30
0.0
 11
153.647064
 21
246.050003
 31
0.0
210
0.0
220
0.0
230
1.0
  0
ARC
  5
236
100
AcDbEntity
  8
0
370
    35
390
0
 62
     7
100
AcDbCircle
 10
153.647064
 20
246.550003
 30
0.0
 40
0.5
210
0.0
220
0.0
230
1.0
100
AcDbArc
 50
269.999997
 51
360.0
  0
LINE
  5
237
100
AcDbEntity
  8
0
370
    35
390
0
 62
     7
 48
0.1
100
AcDbLine
 10
154.147064
 20
246.550003
 30
0.0
 11
154.147064
 21
250.550003
 31
0.0
210
0.0
220
0.0
230
1.0
  0
LINE
  5
238
100
AcDbEntity
  8
0
370
    35
390
0
 62
     7
 48
0.0125
100
AcDbLine
 10
549.647034
 20
251.350006
 30
0.0
 11
549.147034
 21
251.350006
 31
0.0
210
0.0
220
0.0
230
1.0
  0
LINE
  5
239
100
AcDbEntity
  8
0
370
    35
390
0
 62
     7
 48
0.0125
100
AcDbLine
 10
549.147034
 20
253.649994
 30
0.0
 11
549.647034
 21
253.649994
 31
0.0
210
0.0
220
0.0
230
1.0
  0
LINE
  5
23A
100
AcDbEntity
  8
0
370
    35
390
0
 62
     7
 48
0.0125
100
AcDbLine
 10
95.647057
 20
253.650009
 30
0.0
 11
96.147057
 21
253.649994
 31
0.0
210
0.0
220
0.0
230
1.0
  0
LINE
  5
23B
100
AcDbEntity
  8
0
370
    35
390
0
 62
     7
 48
0.002196
100
AcDbLine
 10
476.647034
 20
273.462158
 30
0.0
 11
476.647034
 21
273.549988
 31
0.0
210
0.0
220
0.0
230
1.0
  0
LINE
  5
23C
100
AcDbEntity
  8
0
370
    35
390
0
 62
     7
 48
0.012197
100
AcDbLine
 10
476.647034
 20
273.462158
 30
0.0
 11
476.647034
 21
272.974274
 31
0.0
210
0.0
220
0.0
230
1.0
  0
LINE
  5
23D
100
AcDbEntity
  8
0
370
    35
390
0
 62
     7
100
AcDbLine
 10
549.147034
 20
272.974274
 30
0.0
 11
476.647034
 21
272.974274
 31
0.0
210
0.0
220
0.0
230
1.0
  0
ARC
  5
23E
100
AcDbEntity
  8
0
370
    35
390
0
 62
     7
100
AcDbCircle
 10
540.147034
 20
263.350006
 30
0.0
 40
8.0
210
0.0
220
0.0
230
1.0
100
AcDbArc
 50
36.869897
 51
143.130097
  0
LINE
  5
23F
100
AcDbEntity
  8
0
370
    35
390
0
 62
     7
 48
0.064999
100
AcDbLine
 10
549.147034
 20
268.150024
 30
0.0
 11
546.547058
 21
268.150024
 31
0.0
210
0.0
220
0.0
230
1.0
  0
LINE
  5
240
100
AcDbEntity
  8
0
370
    35
390
0
 62
     7
 48
0.120606
100
AcDbLine
 10
476.647034
 20
268.150024
 30
0.0
 11
476.647034
 21
272.974274
 31
0.0
210
0.0
220
0.0
230
1.0
  0
LINE
  5
241
100
AcDbEntity
  8
0
370
    35
390
0
 62
     7
100
AcDbLine
 10
533.74707
 20
268.150024
 30
0.0
 11
476.647034
 21
268.150024
 31
0.0
210
0.0
220
0.0
230
1.0
  0
LINE
  5
242
100
AcDbEntity
  8
0
370
    35
390
0
 62
     7
 48
0.004011
100
AcDbLine
 10
546.547058
 20
268.150024
 30
0.0
 11
546.642029
 21
268.020721
 31
0.0
210
0.0
220
0.0
230
1.0
  0
LINE
  5
243
100
AcDbEntity
  8
0
370
    35
390
0
 62
     7
 48
0.004322
100
AcDbLine
 10
546.642029
 20
268.020721
 30
0.0
 11
546.741394
 21
267.879272
 31
0.0
210
0.0
220
0.0
230
1.0
  0
LINE
  5
244
100
AcDbEntity
  8
0
370
    35
390
0
 62
     7
 48
0.003895
100
AcDbLine
 10
546.741394
 20
267.879272
 30
0.0
 11
546.828369
 21
267.75
 31
0.0
210
0.0
220
0.0
230
1.0
  0
LINE
  5
245
100
AcDbEntity
  8
0
370
    35
390
0
 62
     7
 48
0.057967
100
AcDbLine
 10
549.147034
 20
267.75
 30
0.0
 11
546.828369
 21
267.75
 31
0.0
210
0.0
220
0.0
230
1.0
  0
ARC
  5
246
100
AcDbEntity
  8
0
370
    35
390
0
 62
     7
100
AcDbCircle
 10
540.147034
 20
263.350006
 30
0.0
 40
8.0
210
0.0
220
0.0
230
1.0
100
AcDbArc
 50
27.548547
 51
33.367014
  0
LINE
  5
247
100
AcDbEntity
  8
0
370
    35
390
0
 62
     7
 48
0.047676
100
AcDbLine
 10
549.147034
 20
267.049988
 30
0.0
 11
547.23999
 21
267.049988
 31
0.0
210
0.0
220
0.0
230
1.0
  0
LINE
  5
248
100
AcDbEntity
  8
0
370
    35
390
0
 62
     7
 48
0.003628
100
AcDbLine
 10
547.23999
 20
267.049988
 30
0.0
 11
547.305969
 21
266.920715
 31
0.0
210
0.0
220
0.0
230
1.0
  0
LINE
  5
249
100
AcDbEntity
  8
0
370
    35
390
0
 62
     7
 48
0.003932
100
AcDbLine
 10
547.305969
 20
266.920715
 30
0.0
 11
547.374756
 21
266.779297
 31
0.0
210
0.0
220
0.0
230
1.0
  0
LINE
  5
24A
100
AcDbEntity
  8
0
370
    35
390
0
 62
     7
 48
0.003562
100
AcDbLine
 10
547.374756
 20
266.779297
 30
0.0
 11
547.434692
 21
266.650024
 31
0.0
210
0.0
220
0.0
230
1.0
  0
LINE
  5
24B
100
AcDbEntity
  8
0
370
    35
390
0
 62
     7
 48
0.042809
100
AcDbLine
 10
549.147034
 20
266.650024
 30
0.0
 11
547.434692
 21
266.650024
 31
0.0
210
0.0
220
0.0
230
1.0
  0
ARC
  5
24C
100
AcDbEntity
  8
0
370
    35
390
0
 62
     7
100
AcDbCircle
 10
540.147034
 20
263.350006
 30
0.0
 40
8.0
210
0.0
220
0.0
230
1.0
100
AcDbArc
 50
18.965574
 51
24.361978
  0
LINE
  5
24D
100
AcDbEntity
  8
0
370
    35
390
0
 62
     7
 48
0.035857
100
AcDbLine
 10
549.147034
 20
265.950012
 30
0.0
 11
547.712769
 21
265.950012
 31
0.0
210
0.0
220
0.0
230
1.0
  0
LINE
  5
24E
100
AcDbEntity
  8
0
370
    35
390
0
 62
     7
 48
0.003408
100
AcDbLine
 10
547.712769
 20
265.950012
 30
0.0
 11
547.755981
 21
265.820709
 31
0.0
210
0.0
220
0.0
230
1.0
  0
LINE
  5
24F
100
AcDbEntity
  8
0
370
    35
390
0
 62
     7
 48
0.003706
100
AcDbLine
 10
547.755981
 20
265.820709
 30
0.0
 11
547.800415
 21
265.679291
 31
0.0
210
0.0
220
0.0
230
1.0
  0
LINE
  5
250
100
AcDbEntity
  8
0
370
    35
390
0
 62
     7
 48
0.003371
100
AcDbLine
 10
547.800415
 20
265.679291
 30
0.0
 11
547.838623
 21
265.549988
 31
0.0
210
0.0
220
0.0
230
1.0
  0
LINE
  5
251
100
AcDbEntity
  8
0
370
    35
390
0
 62
     7
 48
0.03271
100
AcDbLine
 10
549.147034
 20
265.549988
 30
0.0
 11
547.838623
 21
265.549988
 31
0.0
210
0.0
220
0.0
230
1.0
  0
ARC
  5
252
100
AcDbEntity
  8
0
370
    35
390
0
 62
     7
100
AcDbCircle
 10
540.147034
 20
263.350006
 30
0.0
 40
8.0
210
0.0
220
0.0
230
1.0
100
AcDbArc
 50
10.806924
 51
15.962017
  0
LINE
  5
253
100
AcDbEntity
  8
0
370
    35
390
0
 62
     7
 48
0.028546
100
AcDbLine
 10
549.147034
 20
264.850006
 30
0.0
 11
548.005188
 21
264.850006
 31
0.0
210
0.0
220
0.0
230
1.0
  0
LINE
  5
254
100
AcDbEntity
  8
0
370
    35
390
0
 62
     7
 48
0.003286
100
AcDbLine
 10
548.005188
 20
264.850006
 30
0.0
 11
548.028748
 21
264.720703
 31
0.0
210
0.0
220
0.0
230
1.0
  0
LINE
  5
255
100
AcDbEntity
  8
0
370
    35
390
0
 62
     7
 48
0.003583
100
AcDbLine
 10
548.028748
 20
264.720703
 30
0.0
 11
548.052063
 21
264.579285
 31
0.0
210
0.0
220
0.0
230
1.0
  0
LINE
  5
256
100
AcDbEntity
  8
0
370
    35
390
0
 62
     7
 48
0.003266
100
AcDbLine
 10
548.052063
 20
264.579285
 30
0.0
 11
548.071045
 21
264.450012
 31
0.0
210
0.0
220
0.0
230
1.0
  0
LINE
  5
257
100
AcDbEntity
  8
0
370
    35
390
0
 62
     7
 48
0.0269
100
AcDbLine
 10
549.147034
 20
264.450012
 30
0.0
 11
548.071045
 21
264.450012
 31
0.0
210
0.0
220
0.0
230
1.0
  0
ARC
  5
258
100
AcDbEntity
  8
0
370
    35
390
0
 62
     7
100
AcDbCircle
 10
540.147034
 20
263.350006
 30
0.0
 40
8.0
210
0.0
220
0.0
230
1.0
100
AcDbArc
 50
2.865984
 51
7.903208
  0
LINE
  5
259
100
AcDbEntity
  8
0
370
    35
390
0
 62
     7
 48
0.02525
100
AcDbLine
 10
549.147034
 20
263.75
 30
0.0
 11
548.137024
 21
263.75
 31
0.0
210
0.0
220
0.0
230
1.0
  0
LINE
  5
25A
100
AcDbEntity
  8
0
370
    35
390
0
 62
     7
 48
0.003235
100
AcDbLine
 10
548.137024
 20
263.75
 30
0.0
 11
548.142456
 21
263.620728
 31
0.0
210
0.0
220
0.0
230
1.0
  0
LINE
  5
25B
100
AcDbEntity
  8
0
370
    35
390
0
 62
     7
 48
0.003537
100
AcDbLine
 10
548.142456
 20
263.620728
 30
0.0
 11
548.145996
 21
263.479309
 31
0.0
210
0.0
220
0.0
230
1.0
  0
LINE
  5
25C
100
AcDbEntity
  8
0
370
    35
390
0
 62
     7
 48
0.003233
100
AcDbLine
 10
548.145996
 20
263.479309
 30
0.0
 11
548.147034
 21
263.350006
 31
0.0
210
0.0
220
0.0
230
1.0
  0
LINE
  5
25D
100
AcDbEntity
  8
0
370
    35
390
0
 62
     7
 48
0.025
100
AcDbLine
 10
549.147034
 20
263.350006
 30
0.0
 11
548.147034
 21
263.350006
 31
0.0
210
0.0
220
0.0
230
1.0
  0
LINE
  5
25E
100
AcDbEntity
  8
0
370
    35
390
0
 62
     7
 48
0.025766
100
AcDbLine
 10
549.147034
 20
262.650024
 30
0.0
 11
548.116394
 21
262.650024
 31
0.0
210
0.0
220
0.0
230
1.0
  0
LINE
  5
25F
100
AcDbEntity
  8
0
370
    35
390
0
 62
     7
 48
0.0269
100
AcDbLine
 10
549.147034
 20
262.25
 30
0.0
 11
548.071045
 21
262.25
 31
0.0
210
0.0
220
0.0
230
1.0
  0
LINE
  5
260
100
AcDbEntity
  8
0
370
    35
390
0
 62
     7
 48
0.030128
100
AcDbLine
 10
549.147034
 20
261.549988
 30
0.0
 11
547.941895
 21
261.549988
 31
0.0
210
0.0
220
0.0
230
1.0
  0
LINE
  5
261
100
AcDbEntity
  8
0
370
    35
390
0
 62
     7
 48
0.03271
100
AcDbLine
 10
549.147034
 20
261.150024
 30
0.0
 11
547.838623
 21
261.150024
 31
0.0
210
0.0
220
0.0
230
1.0
  0
LINE
  5
262
100
AcDbEntity
  8
0
370
    35
390
0
 62
     7
 48
0.038603
100
AcDbLine
 10
549.147034
 20
260.450012
 30
0.0
 11
547.602905
 21
260.450012
 31
0.0
210
0.0
220
0.0
230
1.0
  0
LINE
  5
263
100
AcDbEntity
  8
0
370
    35
390
0
 62
     7
 48
0.042809
100
AcDbLine
 10
549.147034
 20
260.049988
 30
0.0
 11
547.434692
 21
260.049988
 31
0.0
210
0.0
220
0.0
230
1.0
  0
LINE
  5
264
100
AcDbEntity
  8
0
370
    35
390
0
 62
     7
 48
0.051794
100
AcDbLine
 10
549.147034
 20
259.350006
 30
0.0
 11
547.075256
 21
259.350006
 31
0.0
210
0.0
220
0.0
230
1.0
  0
LINE
  5
265
100
AcDbEntity
  8
0
370
    35
390
0
 62
     7
100
AcDbLine
 10
533.218872
 20
259.350006
 30
0.0
 11
474.797028
 21
259.350006
 31
0.0
210
0.0
220
0.0
230
1.0
  0
LINE
  5
266
100
AcDbEntity
  8
0
370
    35
390
0
 62
     7
100
AcDbLine
 10
532.859375
 20
260.049988
 30
0.0
 11
474.797028
 21
260.049988
 31
0.0
210
0.0
220
0.0
230
1.0
  0
LINE
  5
267
100
AcDbEntity
  8
0
370
    35
390
0
 62
     7
100
AcDbLine
 10
532.691162
 20
260.450012
 30
0.0
 11
474.797028
 21
260.450012
 31
0.0
210
0.0
220
0.0
230
1.0
  0
LINE
  5
268
100
AcDbEntity
  8
0
370
    35
390
0
 62
     7
100
AcDbLine
 10
532.455505
 20
261.150024
 30
0.0
 11
474.797028
 21
261.150024
 31
0.0
210
0.0
220
0.0
230
1.0
  0
LINE
  5
269
100
AcDbEntity
  8
0
370
    35
390
0
 62
     7
100
AcDbLine
 10
532.352173
 20
261.549988
 30
0.0
 11
474.797028
 21
261.549988
 31
0.0
210
0.0
220
0.0
230
1.0
  0
LINE
  5
26A
100
AcDbEntity
  8
0
370
    35
390
0
 62
     7
100
AcDbLine
 10
532.223022
 20
262.25
 30
0.0
 11
474.797028
 21
262.25
 31
0.0
210
0.0
220
0.0
230
1.0
  0
LINE
  5
26B
100
AcDbEntity
  8
0
370
    35
390
0
 62
     7
100
AcDbLine
 10
532.177734
 20
262.650024
 30
0.0
 11
474.797028
 21
262.650024
 31
0.0
210
0.0
220
0.0
230
1.0
  0
LINE
  5
26C
100
AcDbEntity
  8
0
370
    35
390
0
 62
     7
100
AcDbLine
 10
532.147034
 20
263.350006
 30
0.0
 11
474.797028
 21
263.350006
 31
0.0
210
0.0
220
0.0
230
1.0
  0
LINE
  5
26D
100
AcDbEntity
  8
0
370
    35
390
0
 62
     7
 48
0.003233
100
AcDbLine
 10
532.148071
 20
263.479309
 30
0.0
 11
532.147034
 21
263.350006
 31
0.0
210
0.0
220
0.0
230
1.0
  0
LINE
  5
26E
100
AcDbEntity
  8
0
370
    35
390
0
 62
     7
 48
0.003537
100
AcDbLine
 10
532.151611
 20
263.620728
 30
0.0
 11
532.148071
 21
263.479309
 31
0.0
210
0.0
220
0.0
230
1.0
  0
LINE
  5
26F
100
AcDbEntity
  8
0
370
    35
390
0
 62
     7
 48
0.003235
100
AcDbLine
 10
532.157043
 20
263.75
 30
0.0
 11
532.151611
 21
263.620728
 31
0.0
210
0.0
220
0.0
230
1.0
  0
ARC
  5
270
100
AcDbEntity
  8
0
370
    35
390
0
 62
     7
100
AcDbCircle
 10
540.147034
 20
263.350006
 30
0.0
 40
8.0
210
0.0
220
0.0
230
1.0
100
AcDbArc
 50
172.096793
 51
177.134017
  0
LINE
  5
271
100
AcDbEntity
  8
0
370
    35
390
0
 62
     7
 48
0.003267
100
AcDbLine
 10
532.242065
 20
264.579285
 30
0.0
 11
532.223022
 21
264.450012
 31
0.0
210
0.0
220
0.0
230
1.0
  0
LINE
  5
272
100
AcDbEntity
  8
0
370
    35
390
0
 62
     7
 48
0.003583
100
AcDbLine
 10
532.265381
 20
264.720703
 30
0.0
 11
532.242065
 21
264.579285
 31
0.0
210
0.0
220
0.0
230
1.0
  0
LINE
  5
273
100
AcDbEntity
  8
0
370
    35
390
0
 62
     7
 48
0.003286
100
AcDbLine
 10
532.28894
 20
264.850006
 30
0.0
 11
532.265381
 21
264.720703
 31
0.0
210
0.0
220
0.0
230
1.0
  0
ARC
  5
274
100
AcDbEntity
  8
0
370
    35
390
0
 62
     7
100
AcDbCircle
 10
540.147034
 20
263.350006
 30
0.0
 40
8.0
210
0.0
220
0.0
230
1.0
100
AcDbArc
 50
164.03799
 51
169.193075
  0
LINE
  5
275
100
AcDbEntity
  8
0
370
    35
390
0
 62
     7
 48
0.00337
100
AcDbLine
 10
532.493652
 20
265.679291
 30
0.0
 11
532.455505
 21
265.549988
 31
0.0
210
0.0
220
0.0
230
1.0
  0
LINE
  5
276
100
AcDbEntity
  8
0
370
    35
390
0
 62
     7
 48
0.003706
100
AcDbLine
 10
532.538147
 20
265.820709
 30
0.0
 11
532.493652
 21
265.679291
 31
0.0
210
0.0
220
0.0
230
1.0
  0
LINE
  5
277
100
AcDbEntity
  8
0
370
    35
390
0
 62
     7
 48
0.003408
100
AcDbLine
 10
532.58136
 20
265.950012
 30
0.0
 11
532.538147
 21
265.820709
 31
0.0
210
0.0
220
0.0
230
1.0
  0
ARC
  5
278
100
AcDbEntity
  8
0
370
    35
390
0
 62
     7
100
AcDbCircle
 10
540.147034
 20
263.350006
 30
0.0
 40
8.0
210
0.0
220
0.0
230
1.0
100
AcDbArc
 50
155.638018
 51
161.034427
  0
LINE
  5
279
100
AcDbEntity
  8
0
370
    35
390
0
 62
     7
 48
0.003562
100
AcDbLine
 10
532.919312
 20
266.779297
 30
0.0
 11
532.859375
 21
266.650024
 31
0.0
210
0.0
220
0.0
230
1.0
  0
LINE
  5
27A
100
AcDbEntity
  8
0
370
    35
390
0
 62
     7
 48
0.003932
100
AcDbLine
 10
532.988159
 20
266.920715
 30
0.0
 11
532.919312
 21
266.779297
 31
0.0
210
0.0
220
0.0
230
1.0
  0
LINE
  5
27B
100
AcDbEntity
  8
0
370
    35
390
0
 62
     7
 48
0.003628
100
AcDbLine
 10
533.054077
 20
267.049988
 30
0.0
 11
532.988159
 21
266.920715
 31
0.0
210
0.0
220
0.0
230
1.0
  0
ARC
  5
27C
100
AcDbEntity
  8
0
370
    35
390
0
 62
     7
100
AcDbCircle
 10
540.147034
 20
263.350006
 30
0.0
 40
8.0
210
0.0
220
0.0
230
1.0
100
AcDbArc
 50
146.632987
 51
152.451448
  0
LINE
  5
27D
100
AcDbEntity
  8
0
370
    35
390
0
 62
     7
 48
0.003894
100
AcDbLine
 10
533.552673
 20
267.879272
 30
0.0
 11
533.465759
 21
267.75
 31
0.0
210
0.0
220
0.0
230
1.0
  0
LINE
  5
27E
100
AcDbEntity
  8
0
370
    35
390
0
 62
     7
 48
0.004322
100
AcDbLine
 10
533.6521
 20
268.020721
 30
0.0
 11
533.552673
 21
267.879272
 31
0.0
210
0.0
220
0.0
230
1.0
  0
LINE
  5
27F
100
AcDbEntity
  8
0
370
    35
390
0
 62
     7
 48
0.004011
100
AcDbLine
 10
533.74707
 20
268.150024
 30
0.0
 11
533.6521
 21
268.020721
 31
0.0
210
0.0
220
0.0
230
1.0
  0
CIRCLE
  5
280
100
AcDbEntity
  8
0
370
    35
390
0
 62
     7
100
AcDbCircle
 10
540.147034
 20
263.350006
 30
0.0
 40
7.5
210
0.0
220
0.0
230
1.0
  0
LINE
  5
281
100
AcDbEntity
  8
0
370
    35
390
0
 62
     7
 48
0.00875
100
AcDbLine
 10
475.147034
 20
266.350006
 30
0.0
 11
474.797028
 21
266.350006
 31
0.0
210
0.0
220
0.0
230
1.0
  0
LINE
  5
282
100
AcDbEntity
  8
0
370
    35
390
0
 62
     7
100
AcDbLine
 10
532.859375
 20
266.650024
 30
0.0
 11
476.047028
 21
266.650024
 31
0.0
210
0.0
220
0.0
230
1.0
  0
ARC
  5
283
100
AcDbEntity
  8
0
370
    35
390
0
 62
     7
100
AcDbCircle
 10
475.147034
 20
267.850006
 30
0.0
 40
1.5
210
0.0
220
0.0
230
1.0
100
AcDbArc
 50
269.999997
 51
314.454478
  0
LINE
  5
284
100
AcDbEntity
  8
0
370
    35
390
0
 62
     7
100
AcDbLine
 10
532.58136
 20
265.950012
 30
0.0
 11
474.797028
 21
265.950012
 31
0.0
210
0.0
220
0.0
230
1.0
  0
LINE
  5
285
100
AcDbEntity
  8
0
370
    35
390
0
 62
     7
100
AcDbLine
 10
532.455505
 20
265.549988
 30
0.0
 11
474.797028
 21
265.549988
 31
0.0
210
0.0
220
0.0
230
1.0
  0
LINE
  5
286
100
AcDbEntity
  8
0
370
    35
390
0
 62
     7
100
AcDbLine
 10
532.28894
 20
264.850006
 30
0.0
 11
474.797028
 21
264.850006
 31
0.0
210
0.0
220
0.0
230
1.0
  0
LINE
  5
287
100
AcDbEntity
  8
0
370
    35
390
0
 62
     7
100
AcDbLine
 10
532.223022
 20
264.450012
 30
0.0
 11
474.797028
 21
264.450012
 31
0.0
210
0.0
220
0.0
230
1.0
  0
LINE
  5
288
100
AcDbEntity
  8
0
370
    35
390
0
 62
     7
100
AcDbLine
 10
532.157043
 20
263.75
 30
0.0
 11
474.797028
 21
263.75
 31
0.0
210
0.0
220
0.0
230
1.0
  0
LINE
  5
289
100
AcDbEntity
  8
0
370
    35
390
0
 62
     7
 48
0.0575
100
AcDbLine
 10
473.797028
 20
266.650024
 30
0.0
 11
471.49704
 21
266.650024
 31
0.0
210
0.0
220
0.0
230
1.0
  0
LINE
  5
28A
100
AcDbEntity
  8
0
370
    35
390
0
 62
     7
 48
0.0575
100
AcDbLine
 10
473.797028
 20
265.950012
 30
0.0
 11
471.49704
 21
265.950012
 31
0.0
210
0.0
220
0.0
230
1.0
  0
ARC
  5
28B
100
AcDbEntity
  8
0
370
    35
390
0
 62
     7
100
AcDbCircle
 10
470.99704
 20
266.850006
 30
0.0
 40
0.5
210
0.0
220
0.0
230
1.0
100
AcDbArc
 50
0.0
 51
8.130103
  0
ARC
  5
28C
100
AcDbEntity
  8
0
370
    35
390
0
 62
     7
100
AcDbCircle
 10
474.297028
 20
266.850006
 30
0.0
 40
0.5
210
0.0
220
0.0
230
1.0
100
AcDbArc
 50
171.869894
 51
180.000009
  0
ARC
  5
28D
100
AcDbEntity
  8
0
370
    35
390
0
 62
     7
100
AcDbCircle
 10
474.297028
 20
266.850006
 30
0.0
 40
0.5
210
0.0
220
0.0
230
1.0
100
AcDbArc
 50
90.000003
 51
171.869894
  0
LINE
  5
28E
100
AcDbEntity
  8
0
370
    35
390
0
 62
     7
 48
0.0575
100
AcDbLine
 10
473.797028
 20
259.350006
 30
0.0
 11
471.49704
 21
259.350006
 31
0.0
210
0.0
220
0.0
230
1.0
  0
LINE
  5
28F
100
AcDbEntity
  8
0
370
    35
390
0
 62
     7
 48
0.0575
100
AcDbLine
 10
473.797028
 20
260.049988
 30
0.0
 11
471.49704
 21
260.049988
 31
0.0
210
0.0
220
0.0
230
1.0
  0
LINE
  5
290
100
AcDbEntity
  8
0
370
    35
390
0
 62
     7
 48
0.0575
100
AcDbLine
 10
473.797028
 20
260.450012
 30
0.0
 11
471.49704
 21
260.450012
 31
0.0
210
0.0
220
0.0
230
1.0
  0
LINE
  5
291
100
AcDbEntity
  8
0
370
    35
390
0
 62
     7
 48
0.0575
100
AcDbLine
 10
473.797028
 20
261.150024
 30
0.0
 11
471.49704
 21
261.150024
 31
0.0
210
0.0
220
0.0
230
1.0
  0
LINE
  5
292
100
AcDbEntity
  8
0
370
    35
390
0
 62
     7
 48
0.0575
100
AcDbLine
 10
473.797028
 20
261.549988
 30
0.0
 11
471.49704
 21
261.549988
 31
0.0
210
0.0
220
0.0
230
1.0
  0
LINE
  5
293
100
AcDbEntity
  8
0
370
    35
390
0
 62
     7
 48
0.0575
100
AcDbLine
 10
473.797028
 20
262.25
 30
0.0
 11
471.49704
 21
262.25
 31
0.0
210
0.0
220
0.0
230
1.0
  0
LINE
  5
294
100
AcDbEntity
  8
0
370
    35
390
0
 62
     7
 48
0.0575
100
AcDbLine
 10
473.797028
 20
262.650024
 30
0.0
 11
471.49704
 21
262.650024
 31
0.0
210
0.0
220
0.0
230
1.0
  0
LINE
  5
295
100
AcDbEntity
  8
0
370
    35
390
0
 62
     7
 48
0.0575
100
AcDbLine
 10
473.797028
 20
263.350006
 30
0.0
 11
471.49704
 21
263.350006
 31
0.0
210
0.0
220
0.0
230
1.0
  0
LINE
  5
296
100
AcDbEntity
  8
0
370
    35
390
0
 62
     7
 48
0.0575
100
AcDbLine
 10
473.797028
 20
263.75
 30
0.0
 11
471.49704
 21
263.75
 31
0.0
210
0.0
220
0.0
230
1.0
  0
LINE
  5
297
100
AcDbEntity
  8
0
370
    35
390
0
 62
     7
 48
0.0575
100
AcDbLine
 10
473.797028
 20
264.450012
 30
0.0
 11
471.49704
 21
264.450012
 31
0.0
210
0.0
220
0.0
230
1.0
  0
LINE
  5
298
100
AcDbEntity
  8
0
370
    35
390
0
 62
     7
 48
0.0575
100
AcDbLine
 10
473.797028
 20
264.850006
 30
0.0
 11
471.49704
 21
264.850006
 31
0.0
210
0.0
220
0.0
230
1.0
  0
LINE
  5
299
100
AcDbEntity
  8
0
370
    35
390
0
 62
     7
 48
0.0575
100
AcDbLine
 10
473.797028
 20
265.549988
 30
0.0
 11
471.49704
 21
265.549988
 31
0.0
210
0.0
220
0.0
230
1.0
  0
ARC
  5
29A
100
AcDbEntity
  8
0
370
    35
390
0
 62
     7
100
AcDbCircle
 10
470.99704
 20
266.850006
 30
0.0
 40
0.5
210
0.0
220
0.0
230
1.0
100
AcDbArc
 50
8.130103
 51
90.000003
  0
LINE
  5
29B
100
AcDbEntity
  8
0
370
    35
390
0
 62
     7
100
AcDbLine
 10
470.49704
 20
265.549988
 30
0.0
 11
174.797058
 21
265.549988
 31
0.0
210
0.0
220
0.0
230
1.0
  0
LINE
  5
29C
100
AcDbEntity
  8
0
370
    35
390
0
 62
     7
100
AcDbLine
 10
470.49704
 20
265.950012
 30
0.0
 11
174.797058
 21
265.950012
 31
0.0
210
0.0
220
0.0
230
1.0
  0
LINE
  5
29D
100
AcDbEntity
  8
0
370
    35
390
0
 62
     7
 48
0.00875
100
AcDbLine
 10
470.49704
 20
266.350006
 30
0.0
 11
470.147034
 21
266.350006
 31
0.0
210
0.0
220
0.0
230
1.0
  0
ARC
  5
29E
100
AcDbEntity
  8
0
370
    35
390
0
 62
     7
100
AcDbCircle
 10
470.147034
 20
267.850006
 30
0.0
 40
1.5
210
0.0
220
0.0
230
1.0
100
AcDbArc
 50
212.230947
 51
269.999997
  0
LINE
  5
29F
100
AcDbEntity
  8
0
370
    35
390
0
 62
     7
100
AcDbLine
 10
469.24704
 20
266.650024
 30
0.0
 11
176.047058
 21
266.650024
 31
0.0
210
0.0
220
0.0
230
1.0
  0
ARC
  5
2A0
100
AcDbEntity
  8
0
370
    35
390
0
 62
     7
100
AcDbCircle
 10
175.147064
 20
267.850006
 30
0.0
 40
1.5
210
0.0
220
0.0
230
1.0
100
AcDbArc
 50
269.999997
 51
314.454478
  0
LINE
  5
2A1
100
AcDbEntity
  8
0
370
    35
390
0
 62
     7
 48
0.00875
100
AcDbLine
 10
175.147064
 20
266.350006
 30
0.0
 11
174.797058
 21
266.350006
 31
0.0
210
0.0
220
0.0
230
1.0
  0
LINE
  5
2A2
100
AcDbEntity
  8
0
370
    35
390
0
 62
     7
100
AcDbLine
 10
470.49704
 20
259.350006
 30
0.0
 11
174.797058
 21
259.350006
 31
0.0
210
0.0
220
0.0
230
1.0
  0
LINE
  5
2A3
100
AcDbEntity
  8
0
370
    35
390
0
 62
     7
100
AcDbLine
 10
470.49704
 20
260.049988
 30
0.0
 11
174.797058
 21
260.049988
 31
0.0
210
0.0
220
0.0
230
1.0
  0
LINE
  5
2A4
100
AcDbEntity
  8
0
370
    35
390
0
 62
     7
100
AcDbLine
 10
470.49704
 20
260.450012
 30
0.0
 11
174.797058
 21
260.450012
 31
0.0
210
0.0
220
0.0
230
1.0
  0
LINE
  5
2A5
100
AcDbEntity
  8
0
370
    35
390
0
 62
     7
100
AcDbLine
 10
470.49704
 20
261.150024
 30
0.0
 11
174.797058
 21
261.150024
 31
0.0
210
0.0
220
0.0
230
1.0
  0
LINE
  5
2A6
100
AcDbEntity
  8
0
370
    35
390
0
 62
     7
100
AcDbLine
 10
470.49704
 20
261.549988
 30
0.0
 11
174.797058
 21
261.549988
 31
0.0
210
0.0
220
0.0
230
1.0
  0
LINE
  5
2A7
100
AcDbEntity
  8
0
370
    35
390
0
 62
     7
100
AcDbLine
 10
470.49704
 20
262.25
 30
0.0
 11
174.797058
 21
262.25
 31
0.0
210
0.0
220
0.0
230
1.0
  0
LINE
  5
2A8
100
AcDbEntity
  8
0
370
    35
390
0
 62
     7
100
AcDbLine
 10
470.49704
 20
262.650024
 30
0.0
 11
174.797058
 21
262.650024
 31
0.0
210
0.0
220
0.0
230
1.0
  0
LINE
  5
2A9
100
AcDbEntity
  8
0
370
    35
390
0
 62
     7
100
AcDbLine
 10
470.49704
 20
263.350006
 30
0.0
 11
174.797058
 21
263.350006
 31
0.0
210
0.0
220
0.0
230
1.0
  0
LINE
  5
2AA
100
AcDbEntity
  8
0
370
    35
390
0
 62
     7
100
AcDbLine
 10
470.49704
 20
263.75
 30
0.0
 11
174.797058
 21
263.75
 31
0.0
210
0.0
220
0.0
230
1.0
  0
LINE
  5
2AB
100
AcDbEntity
  8
0
370
    35
390
0
 62
     7
100
AcDbLine
 10
470.49704
 20
264.450012
 30
0.0
 11
174.797058
 21
264.450012
 31
0.0
210
0.0
220
0.0
230
1.0
  0
LINE
  5
2AC
100
AcDbEntity
  8
0
370
    35
390
0
 62
     7
100
AcDbLine
 10
470.49704
 20
264.850006
 30
0.0
 11
174.797058
 21
264.850006
 31
0.0
210
0.0
220
0.0
230
1.0
  0
LINE
  5
2AD
100
AcDbEntity
  8
0
370
    35
390
0
 62
     7
 48
0.0575
100
AcDbLine
 10
173.797058
 20
265.950012
 30
0.0
 11
171.49704
 21
265.950012
 31
0.0
210
0.0
220
0.0
230
1.0
  0
LINE
  5
2AE
100
AcDbEntity
  8
0
370
    35
390
0
 62
     7
 48
0.0575
100
AcDbLine
 10
173.797058
 20
266.650024
 30
0.0
 11
171.49704
 21
266.650024
 31
0.0
210
0.0
220
0.0
230
1.0
  0
ARC
  5
2AF
100
AcDbEntity
  8
0
370
    35
390
0
 62
     7
100
AcDbCircle
 10
174.297058
 20
266.850006
 30
0.0
 40
0.5
210
0.0
220
0.0
230
1.0
100
AcDbArc
 50
171.869894
 51
180.000009
  0
ARC
  5
2B0
100
AcDbEntity
  8
0
370
    35
390
0
 62
     7
100
AcDbCircle
 10
170.99704
 20
266.850006
 30
0.0
 40
0.5
210
0.0
220
0.0
230
1.0
100
AcDbArc
 50
0.0
 51
8.130103
  0
ARC
  5
2B1
100
AcDbEntity
  8
0
370
    35
390
0
 62
     7
100
AcDbCircle
 10
174.297058
 20
266.850006
 30
0.0
 40
0.5
210
0.0
220
0.0
230
1.0
100
AcDbArc
 50
90.000003
 51
171.869894
  0
LINE
  5
2B2
100
AcDbEntity
  8
0
370
    35
390
0
 62
     7
 48
0.0575
100
AcDbLine
 10
173.797058
 20
259.350006
 30
0.0
 11
171.49704
 21
259.350006
 31
0.0
210
0.0
220
0.0
230
1.0
  0
LINE
  5
2B3
100
AcDbEntity
  8
0
370
    35
390
0
 62
     7
 48
0.0575
100
AcDbLine
 10
173.797058
 20
260.049988
 30
0.0
 11
171.49704
 21
260.049988
 31
0.0
210
0.0
220
0.0
230
1.0
  0
LINE
  5
2B4
100
AcDbEntity
  8
0
370
    35
390
0
 62
     7
 48
0.0575
100
AcDbLine
 10
173.797058
 20
260.450012
 30
0.0
 11
171.49704
 21
260.450012
 31
0.0
210
0.0
220
0.0
230
1.0
  0
LINE
  5
2B5
100
AcDbEntity
  8
0
370
    35
390
0
 62
     7
 48
0.0575
100
AcDbLine
 10
173.797058
 20
261.150024
 30
0.0
 11
171.49704
 21
261.150024
 31
0.0
210
0.0
220
0.0
230
1.0
  0
LINE
  5
2B6
100
AcDbEntity
  8
0
370
    35
390
0
 62
     7
 48
0.0575
100
AcDbLine
 10
173.797058
 20
261.549988
 30
0.0
 11
171.49704
 21
261.549988
 31
0.0
210
0.0
220
0.0
230
1.0
  0
LINE
  5
2B7
100
AcDbEntity
  8
0
370
    35
390
0
 62
     7
 48
0.0575
100
AcDbLine
 10
173.797058
 20
262.25
 30
0.0
 11
171.49704
 21
262.25
 31
0.0
210
0.0
220
0.0
230
1.0
  0
LINE
  5
2B8
100
AcDbEntity
  8
0
370
    35
390
0
 62
     7
 48
0.0575
100
AcDbLine
 10
173.797058
 20
262.650024
 30
0.0
 11
171.49704
 21
262.650024
 31
0.0
210
0.0
220
0.0
230
1.0
  0
LINE
  5
2B9
100
AcDbEntity
  8
0
370
    35
390
0
 62
     7
 48
0.0575
100
AcDbLine
 10
173.797058
 20
263.350006
 30
0.0
 11
171.49704
 21
263.350006
 31
0.0
210
0.0
220
0.0
230
1.0
  0
LINE
  5
2BA
100
AcDbEntity
  8
0
370
    35
390
0
 62
     7
 48
0.0575
100
AcDbLine
 10
173.797058
 20
263.75
 30
0.0
 11
171.49704
 21
263.75
 31
0.0
210
0.0
220
0.0
230
1.0
  0
LINE
  5
2BB
100
AcDbEntity
  8
0
370
    35
390
0
 62
     7
 48
0.0575
100
AcDbLine
 10
173.797058
 20
264.450012
 30
0.0
 11
171.49704
 21
264.450012
 31
0.0
210
0.0
220
0.0
230
1.0
  0
LINE
  5
2BC
100
AcDbEntity
  8
0
370
    35
390
0
 62
     7
 48
0.0575
100
AcDbLine
 10
173.797058
 20
264.850006
 30
0.0
 11
171.49704
 21
264.850006
 31
0.0
210
0.0
220
0.0
230
1.0
  0
LINE
  5
2BD
100
AcDbEntity
  8
0
370
    35
390
0
 62
     7
 48
0.0575
100
AcDbLine
 10
173.797058
 20
265.549988
 30
0.0
 11
171.49704
 21
265.549988
 31
0.0
210
0.0
220
0.0
230
1.0
  0
ARC
  5
2BE
100
AcDbEntity
  8
0
370
    35
390
0
 62
     7
100
AcDbCircle
 10
170.99704
 20
266.850006
 30
0.0
 40
0.5
210
0.0
220
0.0
230
1.0
100
AcDbArc
 50
8.130103
 51
90.000003
  0
LINE
  5
2BF
100
AcDbEntity
  8
0
370
    35
390
0
 62
     7
 48
0.00337
100
AcDbLine
 10
112.800446
 20
265.679291
 30
0.0
 11
112.838608
 21
265.549988
 31
0.0
210
0.0
220
0.0
230
1.0
  0
LINE
  5
2C0
100
AcDbEntity
  8
0
370
    35
390
0
 62
     7
100
AcDbLine
 10
170.49704
 20
265.549988
 30
0.0
 11
112.838608
 21
265.549988
 31
0.0
210
0.0
220
0.0
230
1.0
  0
LINE
  5
2C1
100
AcDbEntity
  8
0
370
    35
390
0
 62
     7
 48
0.003706
100
AcDbLine
 10
112.755974
 20
265.820709
 30
0.0
 11
112.800446
 21
265.679291
 31
0.0
210
0.0
220
0.0
230
1.0
  0
LINE
  5
2C2
100
AcDbEntity
  8
0
370
    35
390
0
 62
     7
 48
0.003408
100
AcDbLine
 10
112.712769
 20
265.950012
 30
0.0
 11
112.755974
 21
265.820709
 31
0.0
210
0.0
220
0.0
230
1.0
  0
LINE
  5
2C3
100
AcDbEntity
  8
0
370
    35
390
0
 62
     7
100
AcDbLine
 10
170.49704
 20
265.950012
 30
0.0
 11
112.712769
 21
265.950012
 31
0.0
210
0.0
220
0.0
230
1.0
  0
ARC
  5
2C4
100
AcDbEntity
  8
0
370
    35
390
0
 62
     7
100
AcDbCircle
 10
105.147057
 20
263.350006
 30
0.0
 40
8.0
210
0.0
220
0.0
230
1.0
100
AcDbArc
 50
18.965574
 51
24.361978
  0
LINE
  5
2C5
100
AcDbEntity
  8
0
370
    35
390
0
 62
     7
 48
0.008749
100
AcDbLine
 10
170.49704
 20
266.350006
 30
0.0
 11
170.147064
 21
266.350006
 31
0.0
210
0.0
220
0.0
230
1.0
  0
ARC
  5
2C6
100
AcDbEntity
  8
0
370
    35
390
0
 62
     7
100
AcDbCircle
 10
170.147064
 20
267.850006
 30
0.0
 40
1.5
210
0.0
220
0.0
230
1.0
100
AcDbArc
 50
212.230947
 51
269.999997
  0
LINE
  5
2C7
100
AcDbEntity
  8
0
370
    35
390
0
 62
     7
100
AcDbLine
 10
169.24704
 20
266.650024
 30
0.0
 11
112.434715
 21
266.650024
 31
0.0
210
0.0
220
0.0
230
1.0
  0
LINE
  5
2C8
100
AcDbEntity
  8
0
370
    35
390
0
 62
     7
100
AcDbLine
 10
170.49704
 20
259.350006
 30
0.0
 11
112.075256
 21
259.350006
 31
0.0
210
0.0
220
0.0
230
1.0
  0
LINE
  5
2C9
100
AcDbEntity
  8
0
370
    35
390
0
 62
     7
100
AcDbLine
 10
170.49704
 20
260.049988
 30
0.0
 11
112.434715
 21
260.049988
 31
0.0
210
0.0
220
0.0
230
1.0
  0
LINE
  5
2CA
100
AcDbEntity
  8
0
370
    35
390
0
 62
     7
100
AcDbLine
 10
170.49704
 20
260.450012
 30
0.0
 11
112.602928
 21
260.450012
 31
0.0
210
0.0
220
0.0
230
1.0
  0
LINE
  5
2CB
100
AcDbEntity
  8
0
370
    35
390
0
 62
     7
100
AcDbLine
 10
170.49704
 20
261.150024
 30
0.0
 11
112.838608
 21
261.150024
 31
0.0
210
0.0
220
0.0
230
1.0
  0
LINE
  5
2CC
100
AcDbEntity
  8
0
370
    35
390
0
 62
     7
100
AcDbLine
 10
170.49704
 20
261.549988
 30
0.0
 11
112.941925
 21
261.549988
 31
0.0
210
0.0
220
0.0
230
1.0
  0
LINE
  5
2CD
100
AcDbEntity
  8
0
370
    35
390
0
 62
     7
100
AcDbLine
 10
170.49704
 20
262.25
 30
0.0
 11
113.071068
 21
262.25
 31
0.0
210
0.0
220
0.0
230
1.0
  0
LINE
  5
2CE
100
AcDbEntity
  8
0
370
    35
390
0
 62
     7
100
AcDbLine
 10
170.49704
 20
262.650024
 30
0.0
 11
113.116371
 21
262.650024
 31
0.0
210
0.0
220
0.0
230
1.0
  0
LINE
  5
2CF
100
AcDbEntity
  8
0
370
    35
390
0
 62
     7
100
AcDbLine
 10
170.49704
 20
263.350006
 30
0.0
 11
113.147057
 21
263.350006
 31
0.0
210
0.0
220
0.0
230
1.0
  0
LINE
  5
2D0
100
AcDbEntity
  8
0
370
    35
390
0
 62
     7
 48
0.003233
100
AcDbLine
 10
113.146011
 20
263.479309
 30
0.0
 11
113.147057
 21
263.350006
 31
0.0
210
0.0
220
0.0
230
1.0
  0
LINE
  5
2D1
100
AcDbEntity
  8
0
370
    35
390
0
 62
     7
 48
0.003537
100
AcDbLine
 10
113.142471
 20
263.620728
 30
0.0
 11
113.146011
 21
263.479309
 31
0.0
210
0.0
220
0.0
230
1.0
  0
LINE
  5
2D2
100
AcDbEntity
  8
0
370
    35
390
0
 62
     7
 48
0.003235
100
AcDbLine
 10
113.137047
 20
263.75
 30
0.0
 11
113.142471
 21
263.620728
 31
0.0
210
0.0
220
0.0
230
1.0
  0
LINE
  5
2D3
100
AcDbEntity
  8
0
370
    35
390
0
 62
     7
100
AcDbLine
 10
170.49704
 20
263.75
 30
0.0
 11
113.137047
 21
263.75
 31
0.0
210
0.0
220
0.0
230
1.0
  0
ARC
  5
2D4
100
AcDbEntity
  8
0
370
    35
390
0
 62
     7
100
AcDbCircle
 10
105.147057
 20
263.350006
 30
0.0
 40
8.0
210
0.0
220
0.0
230
1.0
100
AcDbArc
 50
2.865984
 51
7.903208
  0
LINE
  5
2D5
100
AcDbEntity
  8
0
370
    35
390
0
 62
     7
100
AcDbLine
 10
170.49704
 20
264.450012
 30
0.0
 11
113.071068
 21
264.450012
 31
0.0
210
0.0
220
0.0
230
1.0
  0
LINE
  5
2D6
100
AcDbEntity
  8
0
370
    35
390
0
 62
     7
 48
0.003267
100
AcDbLine
 10
113.052048
 20
264.579285
 30
0.0
 11
113.071068
 21
264.450012
 31
0.0
210
0.0
220
0.0
230
1.0
  0
LINE
  5
2D7
100
AcDbEntity
  8
0
370
    35
390
0
 62
     7
 48
0.003583
100
AcDbLine
 10
113.028755
 20
264.720703
 30
0.0
 11
113.052048
 21
264.579285
 31
0.0
210
0.0
220
0.0
230
1.0
  0
LINE
  5
2D8
100
AcDbEntity
  8
0
370
    35
390
0
 62
     7
 48
0.003286
100
AcDbLine
 10
113.005173
 20
264.850006
 30
0.0
 11
113.028755
 21
264.720703
 31
0.0
210
0.0
220
0.0
230
1.0
  0
LINE
  5
2D9
100
AcDbEntity
  8
0
370
    35
390
0
 62
     7
100
AcDbLine
 10
170.49704
 20
264.850006
 30
0.0
 11
113.005173
 21
264.850006
 31
0.0
210
0.0
220
0.0
230
1.0
  0
ARC
  5
2DA
100
AcDbEntity
  8
0
370
    35
390
0
 62
     7
100
AcDbCircle
 10
105.147057
 20
263.350006
 30
0.0
 40
8.0
210
0.0
220
0.0
230
1.0
100
AcDbArc
 50
10.806924
 51
15.962017
  0
LINE
  5
2DB
100
AcDbEntity
  8
0
370
    35
390
0
 62
     7
 48
0.051795
100
AcDbLine
 10
98.218857
 20
259.350006
 30
0.0
 11
96.147057
 21
259.350006
 31
0.0
210
0.0
220
0.0
230
1.0
  0
LINE
  5
2DC
100
AcDbEntity
  8
0
370
    35
390
0
 62
     7
 48
0.042809
100
AcDbLine
 10
97.859398
 20
260.049988
 30
0.0
 11
96.147057
 21
260.049988
 31
0.0
210
0.0
220
0.0
230
1.0
  0
LINE
  5
2DD
100
AcDbEntity
  8
0
370
    35
390
0
 62
     7
 48
0.038603
100
AcDbLine
 10
97.691185
 20
260.450012
 30
0.0
 11
96.147057
 21
260.450012
 31
0.0
210
0.0
220
0.0
230
1.0
  0
LINE
  5
2DE
100
AcDbEntity
  8
0
370
    35
390
0
 62
     7
 48
0.032711
100
AcDbLine
 10
97.455505
 20
261.150024
 30
0.0
 11
96.147057
 21
261.150024
 31
0.0
210
0.0
220
0.0
230
1.0
  0
LINE
  5
2DF
100
AcDbEntity
  8
0
370
    35
390
0
 62
     7
 48
0.030128
100
AcDbLine
 10
97.352188
 20
261.549988
 30
0.0
 11
96.147057
 21
261.549988
 31
0.0
210
0.0
220
0.0
230
1.0
  0
LINE
  5
2E0
100
AcDbEntity
  8
0
370
    35
390
0
 62
     7
 48
0.0269
100
AcDbLine
 10
97.223045
 20
262.25
 30
0.0
 11
96.147057
 21
262.25
 31
0.0
210
0.0
220
0.0
230
1.0
  0
LINE
  5
2E1
100
AcDbEntity
  8
0
370
    35
390
0
 62
     7
 48
0.025767
100
AcDbLine
 10
97.177742
 20
262.650024
 30
0.0
 11
96.147057
 21
262.650024
 31
0.0
210
0.0
220
0.0
230
1.0
  0
LINE
  5
2E2
100
AcDbEntity
  8
0
370
    35
390
0
 62
     7
 48
0.025
100
AcDbLine
 10
97.147057
 20
263.350006
 30
0.0
 11
96.147057
 21
263.350006
 31
0.0
210
0.0
220
0.0
230
1.0
  0
LINE
  5
2E3
100
AcDbEntity
  8
0
370
    35
390
0
 62
     7
 48
0.003233
100
AcDbLine
 10
97.148102
 20
263.479309
 30
0.0
 11
97.147057
 21
263.350006
 31
0.0
210
0.0
220
0.0
230
1.0
  0
LINE
  5
2E4
100
AcDbEntity
  8
0
370
    35
390
0
 62
     7
 48
0.003537
100
AcDbLine
 10
97.151642
 20
263.620728
 30
0.0
 11
97.148102
 21
263.479309
 31
0.0
210
0.0
220
0.0
230
1.0
  0
LINE
  5
2E5
100
AcDbEntity
  8
0
370
    35
390
0
 62
     7
 48
0.003235
100
AcDbLine
 10
97.157066
 20
263.75
 30
0.0
 11
97.151642
 21
263.620728
 31
0.0
210
0.0
220
0.0
230
1.0
  0
ARC
  5
2E6
100
AcDbEntity
  8
0
370
    35
390
0
 62
     7
100
AcDbCircle
 10
105.147057
 20
263.350006
 30
0.0
 40
8.0
210
0.0
220
0.0
230
1.0
100
AcDbArc
 50
172.096793
 51
177.134017
  0
LINE
  5
2E7
100
AcDbEntity
  8
0
370
    35
390
0
 62
     7
 48
0.003267
100
AcDbLine
 10
97.242065
 20
264.579285
 30
0.0
 11
97.223045
 21
264.450012
 31
0.0
210
0.0
220
0.0
230
1.0
  0
LINE
  5
2E8
100
AcDbEntity
  8
0
370
    35
390
0
 62
     7
 48
0.003583
100
AcDbLine
 10
97.265358
 20
264.720703
 30
0.0
 11
97.242065
 21
264.579285
 31
0.0
210
0.0
220
0.0
230
1.0
  0
LINE
  5
2E9
100
AcDbEntity
  8
0
370
    35
390
0
 62
     7
 48
0.003286
100
AcDbLine
 10
97.28894
 20
264.850006
 30
0.0
 11
97.265358
 21
264.720703
 31
0.0
210
0.0
220
0.0
230
1.0
  0
ARC
  5
2EA
100
AcDbEntity
  8
0
370
    35
390
0
 62
     7
100
AcDbCircle
 10
105.147057
 20
263.350006
 30
0.0
 40
8.0
210
0.0
220
0.0
230
1.0
100
AcDbArc
 50
164.03799
 51
169.193075
  0
LINE
  5
2EB
100
AcDbEntity
  8
0
370
    35
390
0
 62
     7
 48
0.00337
100
AcDbLine
 10
97.493668
 20
265.679291
 30
0.0
 11
97.455505
 21
265.549988
 31
0.0
210
0.0
220
0.0
230
1.0
  0
LINE
  5
2EC
100
AcDbEntity
  8
0
370
    35
390
0
 62
     7
 48
0.003706
100
AcDbLine
 10
97.538139
 20
265.820709
 30
0.0
 11
97.493668
 21
265.679291
 31
0.0
210
0.0
220
0.0
230
1.0
  0
LINE
  5
2ED
100
AcDbEntity
  8
0
370
    35
390
0
 62
     7
 48
0.003408
100
AcDbLine
 10
97.581345
 20
265.950012
 30
0.0
 11
97.538139
 21
265.820709
 31
0.0
210
0.0
220
0.0
230
1.0
  0
ARC
  5
2EE
100
AcDbEntity
  8
0
370
    35
390
0
 62
     7
100
AcDbCircle
 10
105.147057
 20
263.350006
 30
0.0
 40
8.0
210
0.0
220
0.0
230
1.0
100
AcDbArc
 50
155.638018
 51
161.034427
  0
LINE
  5
2EF
100
AcDbEntity
  8
0
370
    35
390
0
 62
     7
 48
0.003562
100
AcDbLine
 10
97.919334
 20
266.779297
 30
0.0
 11
97.859398
 21
266.650024
 31
0.0
210
0.0
220
0.0
230
1.0
  0
LINE
  5
2F0
100
AcDbEntity
  8
0
370
    35
390
0
 62
     7
 48
0.003932
100
AcDbLine
 10
97.988144
 20
266.920715
 30
0.0
 11
97.919334
 21
266.779297
 31
0.0
210
0.0
220
0.0
230
1.0
  0
LINE
  5
2F1
100
AcDbEntity
  8
0
370
    35
390
0
 62
     7
 48
0.003628
100
AcDbLine
 10
98.0541
 20
267.049988
 30
0.0
 11
97.988144
 21
266.920715
 31
0.0
210
0.0
220
0.0
230
1.0
  0
ARC
  5
2F2
100
AcDbEntity
  8
0
370
    35
390
0
 62
     7
100
AcDbCircle
 10
105.147057
 20
263.350006
 30
0.0
 40
8.0
210
0.0
220
0.0
230
1.0
100
AcDbArc
 50
146.632987
 51
152.451448
  0
LINE
  5
2F3
100
AcDbEntity
  8
0
370
    35
390
0
 62
     7
 48
0.003895
100
AcDbLine
 10
98.552696
 20
267.879272
 30
0.0
 11
98.465736
 21
267.75
 31
0.0
210
0.0
220
0.0
230
1.0
  0
LINE
  5
2F4
100
AcDbEntity
  8
0
370
    35
390
0
 62
     7
 48
0.004322
100
AcDbLine
 10
98.6521
 20
268.020721
 30
0.0
 11
98.552696
 21
267.879272
 31
0.0
210
0.0
220
0.0
230
1.0
  0
LINE
  5
2F5
100
AcDbEntity
  8
0
370
    35
390
0
 62
     7
 48
0.004011
100
AcDbLine
 10
98.747055
 20
268.150024
 30
0.0
 11
98.6521
 21
268.020721
 31
0.0
210
0.0
220
0.0
230
1.0
  0
ARC
  5
2F6
100
AcDbEntity
  8
0
370
    35
390
0
 62
     7
100
AcDbCircle
 10
105.147057
 20
263.350006
 30
0.0
 40
8.0
210
0.0
220
0.0
230
1.0
100
AcDbArc
 50
36.869897
 51
143.130097
  0
LINE
  5
2F7
100
AcDbEntity
  8
0
370
    35
390
0
 62
     7
 48
0.004011
100
AcDbLine
 10
111.547058
 20
268.150024
 30
0.0
 11
111.642014
 21
268.020721
 31
0.0
210
0.0
220
0.0
230
1.0
  0
LINE
  5
2F8
100
AcDbEntity
  8
0
370
    35
390
0
 62
     7
 48
0.004322
100
AcDbLine
 10
111.642014
 20
268.020721
 30
0.0
 11
111.741409
 21
267.879272
 31
0.0
210
0.0
220
0.0
230
1.0
  0
LINE
  5
2F9
100
AcDbEntity
  8
0
370
    35
390
0
 62
     7
 48
0.003895
100
AcDbLine
 10
111.741409
 20
267.879272
 30
0.0
 11
111.828369
 21
267.75
 31
0.0
210
0.0
220
0.0
230
1.0
  0
ARC
  5
2FA
100
AcDbEntity
  8
0
370
    35
390
0
 62
     7
100
AcDbCircle
 10
105.147057
 20
263.350006
 30
0.0
 40
8.0
210
0.0
220
0.0
230
1.0
100
AcDbArc
 50
27.548547
 51
33.367014
  0
LINE
  5
2FB
100
AcDbEntity
  8
0
370
    35
390
0
 62
     7
 48
0.003628
100
AcDbLine
 10
112.240013
 20
267.049988
 30
0.0
 11
112.305969
 21
266.920715
 31
0.0
210
0.0
220
0.0
230
1.0
  0
LINE
  5
2FC
100
AcDbEntity
  8
0
370
    35
390
0
 62
     7
 48
0.003932
100
AcDbLine
 10
112.305969
 20
266.920715
 30
0.0
 11
112.374779
 21
266.779297
 31
0.0
210
0.0
220
0.0
230
1.0
  0
LINE
  5
2FD
100
AcDbEntity
  8
0
370
    35
390
0
 62
     7
 48
0.003562
100
AcDbLine
 10
112.374779
 20
266.779297
 30
0.0
 11
112.434715
 21
266.650024
 31
0.0
210
0.0
220
0.0
230
1.0
  0
CIRCLE
  5
2FE
100
AcDbEntity
  8
0
370
    35
390
0
 62
     7
100
AcDbCircle
 10
105.147057
 20
263.350006
 30
0.0
 40
7.5
210
0.0
220
0.0
230
1.0
  0
LINE
  5
2FF
100
AcDbEntity
  8
0
370
    35
390
0
 62
     7
 48
0.0125
100
AcDbLine
 10
95.647057
 20
251.350006
 30
0.0
 11
96.147057
 21
251.350006
 31
0.0
210
0.0
220
0.0
230
1.0
  0
LINE
  5
300
100
AcDbEntity
  8
0
370
    35
390
0
 62
     7
 48
0.02525
100
AcDbLine
 10
97.157066
 20
263.75
 30
0.0
 11
96.147057
 21
263.75
 31
0.0
210
0.0
220
0.0
230
1.0
  0
LINE
  5
301
100
AcDbEntity
  8
0
370
    35
390
0
 62
     7
 48
0.0269
100
AcDbLine
 10
97.223045
 20
264.450012
 30
0.0
 11
96.147057
 21
264.450012
 31
0.0
210
0.0
220
0.0
230
1.0
  0
LINE
  5
302
100
AcDbEntity
  8
0
370
    35
390
0
 62
     7
 48
0.028547
100
AcDbLine
 10
97.28894
 20
264.850006
 30
0.0
 11
96.147057
 21
264.850006
 31
0.0
210
0.0
220
0.0
230
1.0
  0
LINE
  5
303
100
AcDbEntity
  8
0
370
    35
390
0
 62
     7
 48
0.032711
100
AcDbLine
 10
97.455505
 20
265.549988
 30
0.0
 11
96.147057
 21
265.549988
 31
0.0
210
0.0
220
0.0
230
1.0
  0
LINE
  5
304
100
AcDbEntity
  8
0
370
    35
390
0
 62
     7
 48
0.035857
100
AcDbLine
 10
97.581345
 20
265.950012
 30
0.0
 11
96.147057
 21
265.950012
 31
0.0
210
0.0
220
0.0
230
1.0
  0
LINE
  5
305
100
AcDbEntity
  8
0
370
    35
390
0
 62
     7
 48
0.042809
100
AcDbLine
 10
97.859398
 20
266.650024
 30
0.0
 11
96.147057
 21
266.650024
 31
0.0
210
0.0
220
0.0
230
1.0
  0
LINE
  5
306
100
AcDbEntity
  8
0
370
    35
390
0
 62
     7
 48
0.047676
100
AcDbLine
 10
98.0541
 20
267.049988
 30
0.0
 11
96.147057
 21
267.049988
 31
0.0
210
0.0
220
0.0
230
1.0
  0
LINE
  5
307
100
AcDbEntity
  8
0
370
    35
390
0
 62
     7
 48
0.057967
100
AcDbLine
 10
98.465736
 20
267.75
 30
0.0
 11
96.147057
 21
267.75
 31
0.0
210
0.0
220
0.0
230
1.0
  0
LINE
  5
308
100
AcDbEntity
  8
0
370
    35
390
0
 62
     7
 48
0.065
100
AcDbLine
 10
98.747055
 20
268.150024
 30
0.0
 11
96.147057
 21
268.150024
 31
0.0
210
0.0
220
0.0
230
1.0
  0
LINE
  5
309
100
AcDbEntity
  8
0
370
    35
390
0
 62
     7
100
AcDbLine
 10
168.647064
 20
268.150024
 30
0.0
 11
111.547058
 21
268.150024
 31
0.0
210
0.0
220
0.0
230
1.0
  0
LINE
  5
30A
100
AcDbEntity
  8
0
370
    35
390
0
 62
     7
 48
0.120606
100
AcDbLine
 10
168.647064
 20
268.150024
 30
0.0
 11
168.647064
 21
272.974274
 31
0.0
210
0.0
220
0.0
230
1.0
  0
LINE
  5
30B
100
AcDbEntity
  8
0
370
    35
390
0
 62
     7
100
AcDbLine
 10
168.647064
 20
272.974274
 30
0.0
 11
96.147057
 21
272.974274
 31
0.0
210
0.0
220
0.0
230
1.0
  0
LINE
  5
30C
100
AcDbEntity
  8
0
370
    35
390
0
 62
     7
 48
0.012197
100
AcDbLine
 10
168.647064
 20
273.462158
 30
0.0
 11
168.647064
 21
272.974274
 31
0.0
210
0.0
220
0.0
230
1.0
  0
LINE
  5
30D
100
AcDbEntity
  8
0
370
    35
390
0
 62
     7
 48
0.002196
100
AcDbLine
 10
168.647064
 20
273.549988
 30
0.0
 11
168.647064
 21
273.462158
 31
0.0
210
0.0
220
0.0
230
1.0
  0
LINE
  5
30E
100
AcDbEntity
  8
0
370
    35
390
0
 62
     7
 48
0.0125
100
AcDbLine
 10
549.647034
 20
245.649994
 30
0.0
 11
549.647034
 21
245.149994
 31
0.0
210
0.0
220
0.0
230
1.0
  0
LINE
  5
30F
100
AcDbEntity
  8
0
370
    35
390
0
 62
     7
100
AcDbLine
 10
549.647034
 20
272.74292
 30
0.0
 11
549.647034
 21
245.649994
 31
0.0
210
0.0
220
0.0
230
1.0
  0
LINE
  5
310
100
AcDbEntity
  8
0
370
    35
390
0
 62
     7
 48
0.008838
100
AcDbLine
 10
549.647034
 20
273.096436
 30
0.0
 11
549.647034
 21
272.74292
 31
0.0
210
0.0
220
0.0
230
1.0
  0
LINE
  5
311
100
AcDbEntity
  8
0
370
    35
390
0
 62
     7
 48
0.017117
100
AcDbLine
 10
549.647034
 20
273.781128
 30
0.0
 11
549.647034
 21
273.096436
 31
0.0
210
0.0
220
0.0
230
1.0
  0
LINE
  5
312
100
AcDbEntity
  8
0
370
    35
390
0
 62
     7
 48
0.003233
100
AcDbLine
 10
476.647034
 20
268.020721
 30
0.0
 11
476.647034
 21
268.150024
 31
0.0
210
0.0
220
0.0
230
1.0
  0
LINE
  5
313
100
AcDbEntity
  8
0
370
    35
390
0
 62
     7
 48
0.003536
100
AcDbLine
 10
476.647034
 20
267.879272
 30
0.0
 11
476.647034
 21
268.020721
 31
0.0
210
0.0
220
0.0
230
1.0
  0
LINE
  5
314
100
AcDbEntity
  8
0
370
    35
390
0
 62
     7
 48
0.000732
100
AcDbLine
 10
476.647034
 20
267.879272
 30
0.0
 11
476.647034
 21
267.850006
 31
0.0
210
0.0
220
0.0
230
1.0
  0
ARC
  5
315
100
AcDbEntity
  8
0
370
    35
390
0
 62
     7
100
AcDbCircle
 10
475.147034
 20
267.850006
 30
0.0
 40
1.5
210
0.0
220
0.0
230
1.0
100
AcDbArc
 50
314.454478
 51
356.177454
  0
LINE
  5
316
100
AcDbEntity
  8
0
370
    35
390
0
 62
     7
 48
0.002502
100
AcDbLine
 10
476.643707
 20
267.75
 30
0.0
 11
476.647034
 21
267.850006
 31
0.0
210
0.0
220
0.0
230
1.0
  0
LINE
  5
317
100
AcDbEntity
  8
0
370
    35
390
0
 62
     7
 48
0.02125
100
AcDbLine
 10
474.297028
 20
267.350006
 30
0.0
 11
475.147034
 21
267.350006
 31
0.0
210
0.0
220
0.0
230
1.0
  0
ARC
  5
318
100
AcDbEntity
  8
0
370
    35
390
0
 62
     7
100
AcDbCircle
 10
475.147034
 20
267.850006
 30
0.0
 40
0.5
210
0.0
220
0.0
230
1.0
100
AcDbArc
 50
269.999997
 51
360.0
  0
LINE
  5
319
100
AcDbEntity
  8
0
370
    35
390
0
 62
     7
 48
0.120606
100
AcDbLine
 10
475.647034
 20
268.150024
 30
0.0
 11
475.647034
 21
272.974274
 31
0.0
210
0.0
220
0.0
230
1.0
  0
LINE
  5
31A
100
AcDbEntity
  8
0
370
    35
390
0
 62
     7
 48
0.012197
100
AcDbLine
 10
475.647034
 20
273.462158
 30
0.0
 11
475.647034
 21
272.974274
 31
0.0
210
0.0
220
0.0
230
1.0
  0
LINE
  5
31B
100
AcDbEntity
  8
0
370
    35
390
0
 62
     7
 48
0.002196
100
AcDbLine
 10
475.647034
 20
273.549988
 30
0.0
 11
475.647034
 21
273.462158
 31
0.0
210
0.0
220
0.0
230
1.0
  0
LINE
  5
31C
100
AcDbEntity
  8
0
370
    35
390
0
 62
     7
 48
0.000732
100
AcDbLine
 10
475.647034
 20
267.879272
 30
0.0
 11
475.647034
 21
267.850006
 31
0.0
210
0.0
220
0.0
230
1.0
  0
LINE
  5
31D
100
AcDbEntity
  8
0
370
    35
390
0
 62
     7
 48
0.003536
100
AcDbLine
 10
475.647034
 20
268.020721
 30
0.0
 11
475.647034
 21
267.879272
 31
0.0
210
0.0
220
0.0
230
1.0
  0
LINE
  5
31E
100
AcDbEntity
  8
0
370
    35
390
0
 62
     7
 48
0.003233
100
AcDbLine
 10
475.647034
 20
268.020721
 30
0.0
 11
475.647034
 21
268.150024
 31
0.0
210
0.0
220
0.0
230
1.0
  0
LINE
  5
31F
100
AcDbEntity
  8
0
370
    35
390
0
 62
     7
 48
0.002196
100
AcDbLine
 10
469.647034
 20
273.462158
 30
0.0
 11
469.647034
 21
273.549988
 31
0.0
210
0.0
220
0.0
230
1.0
  0
LINE
  5
320
100
AcDbEntity
  8
0
370
    35
390
0
 62
     7
 48
0.012197
100
AcDbLine
 10
469.647034
 20
273.462158
 30
0.0
 11
469.647034
 21
272.974274
 31
0.0
210
0.0
220
0.0
230
1.0
  0
LINE
  5
321
100
AcDbEntity
  8
0
370
    35
390
0
 62
     7
 48
0.120606
100
AcDbLine
 10
469.647034
 20
268.150024
 30
0.0
 11
469.647034
 21
272.974274
 31
0.0
210
0.0
220
0.0
230
1.0
  0
LINE
  5
322
100
AcDbEntity
  8
0
370
    35
390
0
 62
     7
 48
0.003233
100
AcDbLine
 10
469.647034
 20
268.020721
 30
0.0
 11
469.647034
 21
268.150024
 31
0.0
210
0.0
220
0.0
230
1.0
  0
LINE
  5
323
100
AcDbEntity
  8
0
370
    35
390
0
 62
     7
 48
0.003536
100
AcDbLine
 10
469.647034
 20
267.879272
 30
0.0
 11
469.647034
 21
268.020721
 31
0.0
210
0.0
220
0.0
230
1.0
  0
LINE
  5
324
100
AcDbEntity
  8
0
370
    35
390
0
 62
     7
 48
0.000732
100
AcDbLine
 10
469.647034
 20
267.879272
 30
0.0
 11
469.647034
 21
267.850006
 31
0.0
210
0.0
220
0.0
230
1.0
  0
ARC
  5
325
100
AcDbEntity
  8
0
370
    35
390
0
 62
     7
100
AcDbCircle
 10
470.147034
 20
267.850006
 30
0.0
 40
0.5
210
0.0
220
0.0
230
1.0
100
AcDbArc
 50
180.000009
 51
269.999997
  0
LINE
  5
326
100
AcDbEntity
  8
0
370
    35
390
0
 62
     7
 48
0.02125
100
AcDbLine
 10
470.147034
 20
267.350006
 30
0.0
 11
470.99704
 21
267.350006
 31
0.0
210
0.0
220
0.0
230
1.0
  0
ARC
  5
327
100
AcDbEntity
  8
0
370
    35
390
0
 62
     7
100
AcDbCircle
 10
470.147034
 20
267.850006
 30
0.0
 40
1.5
210
0.0
220
0.0
230
1.0
100
AcDbArc
 50
183.822551
 51
212.230947
  0
LINE
  5
328
100
AcDbEntity
  8
0
370
    35
390
0
 62
     7
 48
0.002502
100
AcDbLine
 10
468.65036
 20
267.75
 30
0.0
 11
468.647034
 21
267.850006
 31
0.0
210
0.0
220
0.0
230
1.0
  0
LINE
  5
329
100
AcDbEntity
  8
0
370
    35
390
0
 62
     7
 48
0.120606
100
AcDbLine
 10
468.647034
 20
268.150024
 30
0.0
 11
468.647034
 21
272.974274
 31
0.0
210
0.0
220
0.0
230
1.0
  0
LINE
  5
32A
100
AcDbEntity
  8
0
370
    35
390
0
 62
     7
 48
0.012197
100
AcDbLine
 10
468.647034
 20
273.462158
 30
0.0
 11
468.647034
 21
272.974274
 31
0.0
210
0.0
220
0.0
230
1.0
  0
LINE
  5
32B
100
AcDbEntity
  8
0
370
    35
390
0
 62
     7
 48
0.002196
100
AcDbLine
 10
468.647034
 20
273.549988
 30
0.0
 11
468.647034
 21
273.462158
 31
0.0
210
0.0
220
0.0
230
1.0
  0
LINE
  5
32C
100
AcDbEntity
  8
0
370
    35
390
0
 62
     7
 48
0.000732
100
AcDbLine
 10
468.647034
 20
267.879272
 30
0.0
 11
468.647034
 21
267.850006
 31
0.0
210
0.0
220
0.0
230
1.0
  0
LINE
  5
32D
100
AcDbEntity
  8
0
370
    35
390
0
 62
     7
 48
0.003536
100
AcDbLine
 10
468.647034
 20
268.020721
 30
0.0
 11
468.647034
 21
267.879272
 31
0.0
210
0.0
220
0.0
230
1.0
  0
LINE
  5
32E
100
AcDbEntity
  8
0
370
    35
390
0
 62
     7
 48
0.003233
100
AcDbLine
 10
468.647034
 20
268.020721
 30
0.0
 11
468.647034
 21
268.150024
 31
0.0
210
0.0
220
0.0
230
1.0
  0
LINE
  5
32F
100
AcDbEntity
  8
0
370
    35
390
0
 62
     7
 48
0.002196
100
AcDbLine
 10
176.647064
 20
273.462158
 30
0.0
 11
176.647064
 21
273.549988
 31
0.0
210
0.0
220
0.0
230
1.0
  0
LINE
  5
330
100
AcDbEntity
  8
0
370
    35
390
0
 62
     7
 48
0.012197
100
AcDbLine
 10
176.647064
 20
273.462158
 30
0.0
 11
176.647064
 21
272.974274
 31
0.0
210
0.0
220
0.0
230
1.0
  0
LINE
  5
331
100
AcDbEntity
  8
0
370
    35
390
0
 62
     7
 48
0.120606
100
AcDbLine
 10
176.647064
 20
268.150024
 30
0.0
 11
176.647064
 21
272.974274
 31
0.0
210
0.0
220
0.0
230
1.0
  0
LINE
  5
332
100
AcDbEntity
  8
0
370
    35
390
0
 62
     7
 48
0.003233
100
AcDbLine
 10
176.647064
 20
268.020721
 30
0.0
 11
176.647064
 21
268.150024
 31
0.0
210
0.0
220
0.0
230
1.0
  0
LINE
  5
333
100
AcDbEntity
  8
0
370
    35
390
0
 62
     7
 48
0.003536
100
AcDbLine
 10
176.647064
 20
267.879272
 30
0.0
 11
176.647064
 21
268.020721
 31
0.0
210
0.0
220
0.0
230
1.0
  0
LINE
  5
334
100
AcDbEntity
  8
0
370
    35
390
0
 62
     7
 48
0.000732
100
AcDbLine
 10
176.647064
 20
267.879272
 30
0.0
 11
176.647064
 21
267.850006
 31
0.0
210
0.0
220
0.0
230
1.0
  0
ARC
  5
335
100
AcDbEntity
  8
0
370
    35
390
0
 62
     7
100
AcDbCircle
 10
175.147064
 20
267.850006
 30
0.0
 40
1.5
210
0.0
220
0.0
230
1.0
100
AcDbArc
 50
314.454478
 51
356.177454
  0
LINE
  5
336
100
AcDbEntity
  8
0
370
    35
390
0
 62
     7
 48
0.002502
100
AcDbLine
 10
176.643707
 20
267.75
 30
0.0
 11
176.647064
 21
267.850006
 31
0.0
210
0.0
220
0.0
230
1.0
  0
LINE
  5
337
100
AcDbEntity
  8
0
370
    35
390
0
 62
     7
 48
0.02125
100
AcDbLine
 10
174.297058
 20
267.350006
 30
0.0
 11
175.147064
 21
267.350006
 31
0.0
210
0.0
220
0.0
230
1.0
  0
ARC
  5
338
100
AcDbEntity
  8
0
370
    35
390
0
 62
     7
100
AcDbCircle
 10
175.147064
 20
267.850006
 30
0.0
 40
0.5
210
0.0
220
0.0
230
1.0
100
AcDbArc
 50
269.999997
 51
360.0
  0
LINE
  5
339
100
AcDbEntity
  8
0
370
    35
390
0
 62
     7
 48
0.120606
100
AcDbLine
 10
175.647064
 20
268.150024
 30
0.0
 11
175.647064
 21
272.974274
 31
0.0
210
0.0
220
0.0
230
1.0
  0
LINE
  5
33A
100
AcDbEntity
  8
0
370
    35
390
0
 62
     7
 48
0.012197
100
AcDbLine
 10
175.647064
 20
273.462158
 30
0.0
 11
175.647064
 21
272.974274
 31
0.0
210
0.0
220
0.0
230
1.0
  0
LINE
  5
33B
100
AcDbEntity
  8
0
370
    35
390
0
 62
     7
 48
0.002196
100
AcDbLine
 10
175.647064
 20
273.549988
 30
0.0
 11
175.647064
 21
273.462158
 31
0.0
210
0.0
220
0.0
230
1.0
  0
LINE
  5
33C
100
AcDbEntity
  8
0
370
    35
390
0
 62
     7
 48
0.000732
100
AcDbLine
 10
175.647064
 20
267.879272
 30
0.0
 11
175.647064
 21
267.850006
 31
0.0
210
0.0
220
0.0
230
1.0
  0
LINE
  5
33D
100
AcDbEntity
  8
0
370
    35
390
0
 62
     7
 48
0.003536
100
AcDbLine
 10
175.647064
 20
268.020721
 30
0.0
 11
175.647064
 21
267.879272
 31
0.0
210
0.0
220
0.0
230
1.0
  0
LINE
  5
33E
100
AcDbEntity
  8
0
370
    35
390
0
 62
     7
 48
0.003233
100
AcDbLine
 10
175.647064
 20
268.020721
 30
0.0
 11
175.647064
 21
268.150024
 31
0.0
210
0.0
220
0.0
230
1.0
  0
LINE
  5
33F
100
AcDbEntity
  8
0
370
    35
390
0
 62
     7
 48
0.002196
100
AcDbLine
 10
169.647064
 20
273.462158
 30
0.0
 11
169.647064
 21
273.549988
 31
0.0
210
0.0
220
0.0
230
1.0
  0
LINE
  5
340
100
AcDbEntity
  8
0
370
    35
390
0
 62
     7
 48
0.012197
100
AcDbLine
 10
169.647064
 20
273.462158
 30
0.0
 11
169.647064
 21
272.974274
 31
0.0
210
0.0
220
0.0
230
1.0
  0
LINE
  5
341
100
AcDbEntity
  8
0
370
    35
390
0
 62
     7
 48
0.120606
100
AcDbLine
 10
169.647064
 20
268.150024
 30
0.0
 11
169.647064
 21
272.974274
 31
0.0
210
0.0
220
0.0
230
1.0
  0
LINE
  5
342
100
AcDbEntity
  8
0
370
    35
390
0
 62
     7
 48
0.003233
100
AcDbLine
 10
169.647064
 20
268.020721
 30
0.0
 11
169.647064
 21
268.150024
 31
0.0
210
0.0
220
0.0
230
1.0
  0
LINE
  5
343
100
AcDbEntity
  8
0
370
    35
390
0
 62
     7
 48
0.003536
100
AcDbLine
 10
169.647064
 20
267.879272
 30
0.0
 11
169.647064
 21
268.020721
 31
0.0
210
0.0
220
0.0
230
1.0
  0
LINE
  5
344
100
AcDbEntity
  8
0
370
    35
390
0
 62
     7
 48
0.000732
100
AcDbLine
 10
169.647064
 20
267.879272
 30
0.0
 11
169.647064
 21
267.850006
 31
0.0
210
0.0
220
0.0
230
1.0
  0
ARC
  5
345
100
AcDbEntity
  8
0
370
    35
390
0
 62
     7
100
AcDbCircle
 10
170.147064
 20
267.850006
 30
0.0
 40
0.5
210
0.0
220
0.0
230
1.0
100
AcDbArc
 50
180.000009
 51
269.999997
  0
LINE
  5
346
100
AcDbEntity
  8
0
370
    35
390
0
 62
     7
 48
0.021249
100
AcDbLine
 10
170.147064
 20
267.350006
 30
0.0
 11
170.99704
 21
267.350006
 31
0.0
210
0.0
220
0.0
230
1.0
  0
ARC
  5
347
100
AcDbEntity
  8
0
370
    35
390
0
 62
     7
100
AcDbCircle
 10
170.147064
 20
267.850006
 30
0.0
 40
1.5
210
0.0
220
0.0
230
1.0
100
AcDbArc
 50
183.822551
 51
212.230947
  0
LINE
  5
348
100
AcDbEntity
  8
0
370
    35
390
0
 62
     7
 48
0.002502
100
AcDbLine
 10
168.650391
 20
267.75
 30
0.0
 11
168.647064
 21
267.850006
 31
0.0
210
0.0
220
0.0
230
1.0
  0
LINE
  5
349
100
AcDbEntity
  8
0
370
    35
390
0
 62
     7
 48
0.000732
100
AcDbLine
 10
168.647064
 20
267.879272
 30
0.0
 11
168.647064
 21
267.850006
 31
0.0
210
0.0
220
0.0
230
1.0
  0
LINE
  5
34A
100
AcDbEntity
  8
0
370
    35
390
0
 62
     7
 48
0.003536
100
AcDbLine
 10
168.647064
 20
268.020721
 30
0.0
 11
168.647064
 21
267.879272
 31
0.0
210
0.0
220
0.0
230
1.0
  0
LINE
  5
34B
100
AcDbEntity
  8
0
370
    35
390
0
 62
     7
 48
0.003233
100
AcDbLine
 10
168.647064
 20
268.020721
 30
0.0
 11
168.647064
 21
268.150024
 31
0.0
210
0.0
220
0.0
230
1.0
  0
LINE
  5
34C
100
AcDbEntity
  8
0
370
    35
390
0
 62
     7
 48
0.017117
100
AcDbLine
 10
95.647057
 20
273.096436
 30
0.0
 11
95.647057
 21
273.781128
 31
0.0
210
0.0
220
0.0
230
1.0
  0
LINE
  5
34D
100
AcDbEntity
  8
0
370
    35
390
0
 62
     7
 48
0.008838
100
AcDbLine
 10
95.647057
 20
272.74292
 30
0.0
 11
95.647057
 21
273.096436
 31
0.0
210
0.0
220
0.0
230
1.0
  0
LINE
  5
34E
100
AcDbEntity
  8
0
370
    35
390
0
 62
     7
100
AcDbLine
 10
95.647057
 20
245.650009
 30
0.0
 11
95.647057
 21
272.74292
 31
0.0
210
0.0
220
0.0
230
1.0
  0
LINE
  5
34F
100
AcDbEntity
  8
0
370
    35
390
0
 62
     7
 48
0.0125
100
AcDbLine
 10
95.647057
 20
245.150009
 30
0.0
 11
95.647057
 21
245.650009
 31
0.0
210
0.0
220
0.0
230
1.0
  0
LINE
  5
350
100
AcDbEntity
  8
0
370
    35
390
0
 62
     7
 48
0.064222
100
AcDbLine
 10
549.647034
 20
276.350006
 30
0.0
 11
549.647034
 21
273.781128
 31
0.0
210
0.0
220
0.0
230
1.0
  0
LINE
  5
351
100
AcDbEntity
  8
0
370
    35
390
0
 62
     7
100
AcDbLine
 10
95.647057
 20
276.350006
 30
0.0
 11
549.647034
 21
276.350006
 31
0.0
210
0.0
220
0.0
230
1.0
  0
LINE
  5
352
100
AcDbEntity
  8
0
370
    35
390
0
 62
     7
 48
0.064222
100
AcDbLine
 10
95.647057
 20
276.350006
 30
0.0
 11
95.647057
 21
273.781128
 31
0.0
210
0.0
220
0.0
230
1.0
  0
LINE
  5
353
100
AcDbEntity
  8
0
370
    35
390
0
 62
     7
 48
0.0125
100
AcDbLine
 10
549.647034
 20
246.850006
 30
0.0
 11
549.147034
 21
246.850006
 31
0.0
210
0.0
220
0.0
230
1.0
  0
LINE
  5
354
100
AcDbEntity
  8
0
370
    35
390
0
 62
     7
100
AcDbLine
 10
533.054077
 20
267.049988
 30
0.0
 11
476.415894
 21
267.049988
 31
0.0
210
0.0
220
0.0
230
1.0
  0
LINE
  5
355
100
AcDbEntity
  8
0
370
    35
390
0
 62
     7
100
AcDbLine
 10
533.465759
 20
267.75
 30
0.0
 11
476.643707
 21
267.75
 31
0.0
210
0.0
220
0.0
230
1.0
  0
LINE
  5
356
100
AcDbEntity
  8
0
370
    35
390
0
 62
     7
 48
0.059587
100
AcDbLine
 10
473.838776
 20
267.049988
 30
0.0
 11
471.455292
 21
267.049988
 31
0.0
210
0.0
220
0.0
230
1.0
  0
LINE
  5
357
100
AcDbEntity
  8
0
370
    35
390
0
 62
     7
 48
0.052386
100
AcDbLine
 10
475.636932
 20
267.75
 30
0.0
 11
473.541473
 21
267.75
 31
0.0
210
0.0
220
0.0
230
1.0
  0
ARC
  5
358
100
AcDbEntity
  8
0
370
    35
390
0
 62
     7
100
AcDbCircle
 10
472.647034
 20
269.650024
 30
0.0
 40
2.1
210
0.0
220
0.0
230
1.0
100
AcDbArc
 50
237.479124
 51
295.208757
  0
LINE
  5
359
100
AcDbEntity
  8
0
370
    35
390
0
 62
     7
 48
0.052386
100
AcDbLine
 10
471.752594
 20
267.75
 30
0.0
 11
469.657135
 21
267.75
 31
0.0
210
0.0
220
0.0
230
1.0
  0
LINE
  5
35A
100
AcDbEntity
  8
0
370
    35
390
0
 62
     7
 48
0.059587
100
AcDbLine
 10
173.838806
 20
267.049988
 30
0.0
 11
171.455322
 21
267.049988
 31
0.0
210
0.0
220
0.0
230
1.0
  0
LINE
  5
35B
100
AcDbEntity
  8
0
370
    35
390
0
 62
     7
 48
0.052387
100
AcDbLine
 10
175.636963
 20
267.75
 30
0.0
 11
173.541473
 21
267.75
 31
0.0
210
0.0
220
0.0
230
1.0
  0
ARC
  5
35C
100
AcDbEntity
  8
0
370
    35
390
0
 62
     7
100
AcDbCircle
 10
172.647064
 20
269.650024
 30
0.0
 40
2.1
210
0.0
220
0.0
230
1.0
100
AcDbArc
 50
237.479124
 51
295.208757
  0
LINE
  5
35D
100
AcDbEntity
  8
0
370
    35
390
0
 62
     7
 48
0.052386
100
AcDbLine
 10
171.752625
 20
267.75
 30
0.0
 11
169.657166
 21
267.75
 31
0.0
210
0.0
220
0.0
230
1.0
  0
LINE
  5
35E
100
AcDbEntity
  8
0
370
    35
390
0
 62
     7
100
AcDbLine
 10
168.650391
 20
267.75
 30
0.0
 11
111.828369
 21
267.75
 31
0.0
210
0.0
220
0.0
230
1.0
  0
LINE
  5
35F
100
AcDbEntity
  8
0
370
    35
390
0
 62
     7
100
AcDbLine
 10
168.878204
 20
267.049988
 30
0.0
 11
112.240013
 21
267.049988
 31
0.0
210
0.0
220
0.0
230
1.0
  0
LINE
  5
360
100
AcDbEntity
  8
0
370
    35
390
0
 62
     7
 48
0.0125
100
AcDbLine
 10
95.647057
 20
246.850006
 30
0.0
 11
96.147057
 21
246.850006
 31
0.0
210
0.0
220
0.0
230
1.0
  0
LINE
  5
361
100
AcDbEntity
  8
0
370
    35
390
0
 62
     7
 48
0.093341
100
AcDbLine
 10
470.334534
 20
246.680359
 30
0.0
 11
471.634521
 21
250.180359
 31
0.0
210
0.0
220
0.0
230
1.0
  0
ARC
  5
362
100
AcDbEntity
  8
0
370
    35
390
0
 62
     7
100
AcDbCircle
 10
470.147034
 20
246.75
 30
0.0
 40
0.2
210
0.0
220
0.0
230
1.0
100
AcDbArc
 50
200.37643
 51
339.623562
  0
LINE
  5
363
100
AcDbEntity
  8
0
370
    35
390
0
 62
     7
 48
0.093341
100
AcDbLine
 10
468.659546
 20
250.180359
 30
0.0
 11
469.959534
 21
246.680359
 31
0.0
210
0.0
220
0.0
230
1.0
  0
ARC
  5
364
100
AcDbEntity
  8
0
370
    35
390
0
 62
     7
100
AcDbCircle
 10
468.847046
 20
250.25
 30
0.0
 40
0.2
210
0.0
220
0.0
230
1.0
100
AcDbArc
 50
90.000003
 51
200.37643
  0
LINE
  5
365
100
AcDbEntity
  8
0
370
    35
390
0
 62
     7
 48
0.064999
100
AcDbLine
 10
471.447021
 20
250.450012
 30
0.0
 11
468.847046
 21
250.450012
 31
0.0
210
0.0
220
0.0
230
1.0
  0
ARC
  5
366
100
AcDbEntity
  8
0
370
    35
390
0
 62
     7
100
AcDbCircle
 10
471.447021
 20
250.25
 30
0.0
 40
0.2
210
0.0
220
0.0
230
1.0
100
AcDbArc
 50
339.623562
 51
90.000003
  0
LINE
  5
367
100
AcDbEntity
  8
0
370
    35
390
0
 62
     7
 48
0.093341
100
AcDbLine
 10
150.334534
 20
246.680359
 30
0.0
 11
151.634552
 21
250.180359
 31
0.0
210
0.0
220
0.0
230
1.0
  0
ARC
  5
368
100
AcDbEntity
  8
0
370
    35
390
0
 62
     7
100
AcDbCircle
 10
150.147064
 20
246.75
 30
0.0
 40
0.2
210
0.0
220
0.0
230
1.0
100
AcDbArc
 50
200.37643
 51
339.623562
  0
LINE
  5
369
100
AcDbEntity
  8
0
370
    35
390
0
 62
     7
 48
0.093341
100
AcDbLine
 10
148.659576
 20
250.180359
 30
0.0
 11
149.959564
 21
246.680359
 31
0.0
210
0.0
220
0.0
230
1.0
  0
ARC
  5
36A
100
AcDbEntity
  8
0
370
    35
390
0
 62
     7
100
AcDbCircle
 10
148.847046
 20
250.25
 30
0.0
 40
0.2
210
0.0
220
0.0
230
1.0
100
AcDbArc
 50
90.000003
 51
200.37643
  0
LINE
  5
36B
100
AcDbEntity
  8
0
370
    35
390
0
 62
     7
 48
0.065
100
AcDbLine
 10
151.447052
 20
250.450012
 30
0.0
 11
148.847046
 21
250.450012
 31
0.0
210
0.0
220
0.0
230
1.0
  0
ARC
  5
36C
100
AcDbEntity
  8
0
370
    35
390
0
 62
     7
100
AcDbCircle
 10
151.447052
 20
250.25
 30
0.0
 40
0.2
210
0.0
220
0.0
230
1.0
100
AcDbArc
 50
339.623562
 51
90.000003
  0
LINE
  5
36D
100
AcDbEntity
  8
0
370
    35
390
0
 62
     7
 48
0.025
100
AcDbLine
 10
550.647034
 20
245.149994
 30
0.0
 11
549.647034
 21
245.149994
 31
0.0
210
0.0
220
0.0
230
1.0
  0
LINE
  5
36E
100
AcDbEntity
  8
0
370
    35
390
0
 62
     7
 48
0.0125
100
AcDbLine
 10
549.147034
 20
245.350006
 30
0.0
 11
549.647034
 21
245.350006
 31
0.0
210
0.0
220
0.0
230
1.0
  0
LINE
  5
36F
100
AcDbEntity
  8
0
370
    35
390
0
 62
     7
 48
0.003151
100
AcDbLine
 10
473.541473
 20
267.75
 30
0.0
 11
473.653839
 21
267.807068
 31
0.0
210
0.0
220
0.0
230
1.0
  0
ARC
  5
370
100
AcDbEntity
  8
0
370
    35
390
0
 62
     7
100
AcDbCircle
 10
472.647034
 20
269.650024
 30
0.0
 40
2.1
210
0.0
220
0.0
230
1.0
100
AcDbArc
 50
298.647887
 51
314.415304
  0
LINE
  5
371
100
AcDbEntity
  8
0
370
    35
390
0
 62
     7
 48
0.038258
100
AcDbLine
 10
471.177338
 20
268.150024
 30
0.0
 11
469.647034
 21
268.150024
 31
0.0
210
0.0
220
0.0
230
1.0
  0
ARC
  5
372
100
AcDbEntity
  8
0
370
    35
390
0
 62
     7
100
AcDbCircle
 10
472.647034
 20
269.650024
 30
0.0
 40
2.1
210
0.0
220
0.0
230
1.0
100
AcDbArc
 50
314.415304
 51
237.479124
  0
LINE
  5
373
100
AcDbEntity
  8
0
370
    35
390
0
 62
     7
 48
0.038258
100
AcDbLine
 10
475.647034
 20
268.150024
 30
0.0
 11
474.11673
 21
268.150024
 31
0.0
210
0.0
220
0.0
230
1.0
  0
LINE
  5
374
100
AcDbEntity
  8
0
370
    35
390
0
 62
     7
 48
0.15
100
AcDbLine
 10
475.647034
 20
272.974274
 30
0.0
 11
469.647034
 21
272.974274
 31
0.0
210
0.0
220
0.0
230
1.0
  0
LINE
  5
375
100
AcDbEntity
  8
0
370
    35
390
0
 62
     7
100
AcDbLine
 10
468.878174
 20
267.049988
 30
0.0
 11
176.415924
 21
267.049988
 31
0.0
210
0.0
220
0.0
230
1.0
  0
LINE
  5
376
100
AcDbEntity
  8
0
370
    35
390
0
 62
     7
100
AcDbLine
 10
468.65036
 20
267.75
 30
0.0
 11
176.643707
 21
267.75
 31
0.0
210
0.0
220
0.0
230
1.0
  0
LINE
  5
377
100
AcDbEntity
  8
0
370
    35
390
0
 62
     7
100
AcDbLine
 10
468.647034
 20
268.150024
 30
0.0
 11
176.647064
 21
268.150024
 31
0.0
210
0.0
220
0.0
230
1.0
  0
LINE
  5
378
100
AcDbEntity
  8
0
370
    35
390
0
 62
     7
100
AcDbLine
 10
468.647034
 20
272.974274
 30
0.0
 11
176.647064
 21
272.974274
 31
0.0
210
0.0
220
0.0
230
1.0
  0
LINE
  5
379
100
AcDbEntity
  8
0
370
    35
390
0
 62
     7
 48
0.003151
100
AcDbLine
 10
173.541473
 20
267.75
 30
0.0
 11
173.653839
 21
267.807068
 31
0.0
210
0.0
220
0.0
230
1.0
  0
ARC
  5
37A
100
AcDbEntity
  8
0
370
    35
390
0
 62
     7
100
AcDbCircle
 10
172.647064
 20
269.650024
 30
0.0
 40
2.1
210
0.0
220
0.0
230
1.0
100
AcDbArc
 50
298.647887
 51
314.415304
  0
ARC
  5
37B
100
AcDbEntity
  8
0
370
    35
390
0
 62
     7
100
AcDbCircle
 10
172.647064
 20
269.650024
 30
0.0
 40
2.1
210
0.0
220
0.0
230
1.0
100
AcDbArc
 50
314.415304
 51
237.479124
  0
LINE
  5
37C
100
AcDbEntity
  8
0
370
    35
390
0
 62
     7
 48
0.038258
100
AcDbLine
 10
175.647064
 20
268.150024
 30
0.0
 11
174.11676
 21
268.150024
 31
0.0
210
0.0
220
0.0
230
1.0
  0
LINE
  5
37D
100
AcDbEntity
  8
0
370
    35
390
0
 62
     7
 48
0.15
100
AcDbLine
 10
175.647064
 20
272.974274
 30
0.0
 11
169.647064
 21
272.974274
 31
0.0
210
0.0
220
0.0
230
1.0
  0
LINE
  5
37E
100
AcDbEntity
  8
0
370
    35
390
0
 62
     7
 48
0.038258
100
AcDbLine
 10
171.177368
 20
268.150024
 30
0.0
 11
169.647064
 21
268.150024
 31
0.0
210
0.0
220
0.0
230
1.0
  0
LINE
  5
37F
100
AcDbEntity
  8
0
370
    35
390
0
 62
     7
 48
0.025
100
AcDbLine
 10
94.647057
 20
245.150009
 30
0.0
 11
95.647057
 21
245.150009
 31
0.0
210
0.0
220
0.0
230
1.0
  0
LINE
  5
380
100
AcDbEntity
  8
0
370
    35
390
0
 62
     7
 48
0.0125
100
AcDbLine
 10
95.647057
 20
245.350006
 30
0.0
 11
96.147057
 21
245.350006
 31
0.0
210
0.0
220
0.0
230
1.0
  0
CIRCLE
  5
381
100
AcDbEntity
  8
0
370
    35
390
0
 62
     7
100
AcDbCircle
 10
540.147034
 20
263.350006
 30
0.0
 40
4.5
210
0.0
220
0.0
230
1.0
  0
CIRCLE
  5
382
100
AcDbEntity
  8
0
370
    35
390
0
 62
     7
100
AcDbCircle
 10
105.147057
 20
263.350006
 30
0.0
 40
4.5
210
0.0
220
0.0
230
1.0
  0
ARC
  5
383
100
AcDbEntity
  8
0
370
    35
390
0
 62
     7
100
AcDbCircle
 10
550.647034
 20
246.149994
 30
0.0
 40
1.0
210
0.0
220
0.0
230
1.0
100
AcDbArc
 50
269.999997
 51
360.0
  0
LINE
  5
384
100
AcDbEntity
  8
0
370
    35
390
0
 62
     7
100
AcDbLine
 10
551.647034
 20
272.535797
 30
0.0
 11
551.647034
 21
246.149994
 31
0.0
210
0.0
220
0.0
230
1.0
  0
LINE
  5
385
100
AcDbEntity
  8
0
370
    35
390
0
 62
     7
 48
0.01739
100
AcDbLine
 10
551.647034
 20
273.231415
 30
0.0
 11
551.647034
 21
272.535797
 31
0.0
210
0.0
220
0.0
230
1.0
  0
LINE
  5
386
100
AcDbEntity
  8
0
370
    35
390
0
 62
     7
 48
0.01739
100
AcDbLine
 10
93.647057
 20
272.535797
 30
0.0
 11
93.647057
 21
273.231415
 31
0.0
210
0.0
220
0.0
230
1.0
  0
LINE
  5
387
100
AcDbEntity
  8
0
370
    35
390
0
 62
     7
100
AcDbLine
 10
93.647057
 20
246.150009
 30
0.0
 11
93.647057
 21
272.535797
 31
0.0
210
0.0
220
0.0
230
1.0
  0
ARC
  5
388
100
AcDbEntity
  8
0
370
    35
390
0
 62
     7
100
AcDbCircle
 10
94.647057
 20
246.150009
 30
0.0
 40
1.0
210
0.0
220
0.0
230
1.0
100
AcDbArc
 50
180.000009
 51
269.999997
  0
LINE
  5
389
100
AcDbEntity
  8
0
370
    35
390
0
 62
     7
 48
0.025
100
AcDbLine
 10
550.647034
 20
276.150024
 30
0.0
 11
549.647034
 21
276.150024
 31
0.0
210
0.0
220
0.0
230
1.0
  0
LINE
  5
38A
100
AcDbEntity
  8
0
370
    35
390
0
 62
     7
 48
0.025
100
AcDbLine
 10
94.647057
 20
276.150024
 30
0.0
 11
95.647057
 21
276.150024
 31
0.0
210
0.0
220
0.0
230
1.0
  0
LINE
  5
38B
100
AcDbEntity
  8
0
370
    35
390
0
 62
     7
 48
0.014363
100
AcDbLine
 10
551.647034
 20
273.805939
 30
0.0
 11
551.647034
 21
273.231415
 31
0.0
210
0.0
220
0.0
230
1.0
  0
LINE
  5
38C
100
AcDbEntity
  8
0
370
    35
390
0
 62
     7
 48
0.033602
100
AcDbLine
 10
551.647034
 20
275.150024
 30
0.0
 11
551.647034
 21
273.805939
 31
0.0
210
0.0
220
0.0
230
1.0
  0
LINE
  5
38D
100
AcDbEntity
  8
0
370
    35
390
0
 62
     7
 48
0.014363
100
AcDbLine
 10
93.647057
 20
273.231415
 30
0.0
 11
93.647057
 21
273.805939
 31
0.0
210
0.0
220
0.0
230
1.0
  0
LINE
  5
38E
100
AcDbEntity
  8
0
370
    35
390
0
 62
     7
 48
0.033602
100
AcDbLine
 10
93.647057
 20
273.805939
 30
0.0
 11
93.647057
 21
275.150024
 31
0.0
210
0.0
220
0.0
230
1.0
  0
ARC
  5
38F
100
AcDbEntity
  8
0
370
    35
390
0
 62
     7
100
AcDbCircle
 10
540.147034
 20
264.049988
 30
0.0
 40
12.8
210
0.0
220
0.0
230
1.0
100
AcDbArc
 50
73.932611
 51
106.067387
  0
ARC
  5
390
100
AcDbEntity
  8
0
370
    35
390
0
 62
     7
100
AcDbCircle
 10
105.147057
 20
264.049988
 30
0.0
 40
12.8
210
0.0
220
0.0
230
1.0
100
AcDbArc
 50
73.932611
 51
106.067387
  0
ARC
  5
391
100
AcDbEntity
  8
0
370
    35
390
0
 62
     7
100
AcDbCircle
 10
550.647034
 20
275.150024
 30
0.0
 40
1.0
210
0.0
220
0.0
230
1.0
100
AcDbArc
 50
0.0
 51
90.000003
  0
ARC
  5
392
100
AcDbEntity
  8
0
370
    35
390
0
 62
     7
100
AcDbCircle
 10
94.647057
 20
275.150024
 30
0.0
 40
1.0
210
0.0
220
0.0
230
1.0
100
AcDbArc
 50
90.000003
 51
180.000009
  0
CIRCLE
  5
393
100
AcDbEntity
  8
0
370
    35
390
0
 62
     7
100
AcDbCircle
 10
472.647034
 20
269.650024
 30
0.0
 40
2.0
210
0.0
220
0.0
230
1.0
  0
CIRCLE
  5
394
100
AcDbEntity
  8
0
370
    35
390
0
 62
     7
100
AcDbCircle
 10
172.647064
 20
269.650024
 30
0.0
 40
2.0
210
0.0
220
0.0
230
1.0
  0
LINE
  5
395
100
AcDbEntity
  8
0
370
    35
390
0
 62
     7
 48
0.0125
100
AcDbLine
 10
472.847046
 20
270.350006
 30
0.0
 11
472.847046
 21
270.850006
 31
0.0
210
0.0
220
0.0
230
1.0
  0
LINE
  5
396
100
AcDbEntity
  8
0
370
    35
390
0
 62
     7
 48
0.010001
100
AcDbLine
 10
472.847046
 20
270.850006
 30
0.0
 11
472.447021
 21
270.850006
 31
0.0
210
0.0
220
0.0
230
1.0
  0
LINE
  5
397
100
AcDbEntity
  8
0
370
    35
390
0
 62
     7
 48
0.0125
100
AcDbLine
 10
472.447021
 20
270.850006
 30
0.0
 11
472.447021
 21
270.350006
 31
0.0
210
0.0
220
0.0
230
1.0
  0
ARC
  5
398
100
AcDbEntity
  8
0
370
    35
390
0
 62
     7
100
AcDbCircle
 10
471.947021
 20
270.350006
 30
0.0
 40
0.5
210
0.0
220
0.0
230
1.0
100
AcDbArc
 50
269.999997
 51
360.0
  0
LINE
  5
399
100
AcDbEntity
  8
0
370
    35
390
0
 62
     7
 48
0.0125
100
AcDbLine
 10
471.947021
 20
269.850006
 30
0.0
 11
471.447021
 21
269.850006
 31
0.0
210
0.0
220
0.0
230
1.0
  0
LINE
  5
39A
100
AcDbEntity
  8
0
370
    35
390
0
 62
     7
 48
0.01
100
AcDbLine
 10
471.447021
 20
269.850006
 30
0.0
 11
471.447021
 21
269.450012
 31
0.0
210
0.0
220
0.0
230
1.0
  0
LINE
  5
39B
100
AcDbEntity
  8
0
370
    35
390
0
 62
     7
 48
0.0125
100
AcDbLine
 10
471.447021
 20
269.450012
 30
0.0
 11
471.947021
 21
269.450012
 31
0.0
210
0.0
220
0.0
230
1.0
  0
ARC
  5
39C
100
AcDbEntity
  8
0
370
    35
390
0
 62
     7
100
AcDbCircle
 10
471.947021
 20
268.950012
 30
0.0
 40
0.5
210
0.0
220
0.0
230
1.0
100
AcDbArc
 50
0.0
 51
90.000003
  0
LINE
  5
39D
100
AcDbEntity
  8
0
370
    35
390
0
 62
     7
 48
0.0125
100
AcDbLine
 10
472.447021
 20
268.950012
 30
0.0
 11
472.447021
 21
268.450012
 31
0.0
210
0.0
220
0.0
230
1.0
  0
LINE
  5
39E
100
AcDbEntity
  8
0
370
    35
390
0
 62
     7
 48
0.010001
100
AcDbLine
 10
472.447021
 20
268.450012
 30
0.0
 11
472.847046
 21
268.450012
 31
0.0
210
0.0
220
0.0
230
1.0
  0
LINE
  5
39F
100
AcDbEntity
  8
0
370
    35
390
0
 62
     7
 48
0.0125
100
AcDbLine
 10
472.847046
 20
268.450012
 30
0.0
 11
472.847046
 21
268.950012
 31
0.0
210
0.0
220
0.0
230
1.0
  0
ARC
  5
3A0
100
AcDbEntity
  8
0
370
    35
390
0
 62
     7
100
AcDbCircle
 10
473.347046
 20
268.950012
 30
0.0
 40
0.5
210
0.0
220
0.0
230
1.0
100
AcDbArc
 50
90.000003
 51
180.000009
  0
LINE
  5
3A1
100
AcDbEntity
  8
0
370
    35
390
0
 62
     7
 48
0.0125
100
AcDbLine
 10
473.347046
 20
269.450012
 30
0.0
 11
473.847046
 21
269.450012
 31
0.0
210
0.0
220
0.0
230
1.0
  0
LINE
  5
3A2
100
AcDbEntity
  8
0
370
    35
390
0
 62
     7
 48
0.01
100
AcDbLine
 10
473.847046
 20
269.450012
 30
0.0
 11
473.847046
 21
269.850006
 31
0.0
210
0.0
220
0.0
230
1.0
  0
LINE
  5
3A3
100
AcDbEntity
  8
0
370
    35
390
0
 62
     7
 48
0.0125
100
AcDbLine
 10
473.847046
 20
269.850006
 30
0.0
 11
473.347046
 21
269.850006
 31
0.0
210
0.0
220
0.0
230
1.0
  0
ARC
  5
3A4
100
AcDbEntity
  8
0
370
    35
390
0
 62
     7
100
AcDbCircle
 10
473.347046
 20
270.350006
 30
0.0
 40
0.5
210
0.0
220
0.0
230
1.0
100
AcDbArc
 50
180.000009
 51
269.999997
  0
LINE
  5
3A5
100
AcDbEntity
  8
0
370
    35
390
0
 62
     7
 48
0.0125
100
AcDbLine
 10
172.847046
 20
270.350006
 30
0.0
 11
172.847046
 21
270.850006
 31
0.0
210
0.0
220
0.0
230
1.0
  0
LINE
  5
3A6
100
AcDbEntity
  8
0
370
    35
390
0
 62
     7
 48
0.01
100
AcDbLine
 10
172.847046
 20
270.850006
 30
0.0
 11
172.447052
 21
270.850006
 31
0.0
210
0.0
220
0.0
230
1.0
  0
LINE
  5
3A7
100
AcDbEntity
  8
0
370
    35
390
0
 62
     7
 48
0.0125
100
AcDbLine
 10
172.447052
 20
270.850006
 30
0.0
 11
172.447052
 21
270.350006
 31
0.0
210
0.0
220
0.0
230
1.0
  0
ARC
  5
3A8
100
AcDbEntity
  8
0
370
    35
390
0
 62
     7
100
AcDbCircle
 10
171.947052
 20
270.350006
 30
0.0
 40
0.5
210
0.0
220
0.0
230
1.0
100
AcDbArc
 50
269.999997
 51
360.0
  0
LINE
  5
3A9
100
AcDbEntity
  8
0
370
    35
390
0
 62
     7
 48
0.0125
100
AcDbLine
 10
171.947052
 20
269.850006
 30
0.0
 11
171.447052
 21
269.850006
 31
0.0
210
0.0
220
0.0
230
1.0
  0
LINE
  5
3AA
100
AcDbEntity
  8
0
370
    35
390
0
 62
     7
 48
0.01
100
AcDbLine
 10
171.447052
 20
269.850006
 30
0.0
 11
171.447052
 21
269.450012
 31
0.0
210
0.0
220
0.0
230
1.0
  0
LINE
  5
3AB
100
AcDbEntity
  8
0
370
    35
390
0
 62
     7
 48
0.0125
100
AcDbLine
 10
171.447052
 20
269.450012
 30
0.0
 11
171.947052
 21
269.450012
 31
0.0
210
0.0
220
0.0
230
1.0
  0
ARC
  5
3AC
100
AcDbEntity
  8
0
370
    35
390
0
 62
     7
100
AcDbCircle
 10
171.947052
 20
268.950012
 30
0.0
 40
0.5
210
0.0
220
0.0
230
1.0
100
AcDbArc
 50
0.0
 51
90.000003
  0
LINE
  5
3AD
100
AcDbEntity
  8
0
370
    35
390
0
 62
     7
 48
0.0125
100
AcDbLine
 10
172.447052
 20
268.950012
 30
0.0
 11
172.447052
 21
268.450012
 31
0.0
210
0.0
220
0.0
230
1.0
  0
LINE
  5
3AE
100
AcDbEntity
  8
0
370
    35
390
0
 62
     7
 48
0.01
100
AcDbLine
 10
172.447052
 20
268.450012
 30
0.0
 11
172.847046
 21
268.450012
 31
0.0
210
0.0
220
0.0
230
1.0
  0
LINE
  5
3AF
100
AcDbEntity
  8
0
370
    35
390
0
 62
     7
 48
0.0125
100
AcDbLine
 10
172.847046
 20
268.450012
 30
0.0
 11
172.847046
 21
268.950012
 31
0.0
210
0.0
220
0.0
230
1.0
  0
ARC
  5
3B0
100
AcDbEntity
  8
0
370
    35
390
0
 62
     7
100
AcDbCircle
 10
173.347046
 20
268.950012
 30
0.0
 40
0.5
210
0.0
220
0.0
230
1.0
100
AcDbArc
 50
90.000003
 51
180.000009
  0
LINE
  5
3B1
100
AcDbEntity
  8
0
370
    35
390
0
 62
     7
 48
0.0125
100
AcDbLine
 10
173.347046
 20
269.450012
 30
0.0
 11
173.847046
 21
269.450012
 31
0.0
210
0.0
220
0.0
230
1.0
  0
LINE
  5
3B2
100
AcDbEntity
  8
0
370
    35
390
0
 62
     7
 48
0.01
100
AcDbLine
 10
173.847046
 20
269.450012
 30
0.0
 11
173.847046
 21
269.850006
 31
0.0
210
0.0
220
0.0
230
1.0
  0
LINE
  5
3B3
100
AcDbEntity
  8
0
370
    35
390
0
 62
     7
 48
0.0125
100
AcDbLine
 10
173.847046
 20
269.850006
 30
0.0
 11
173.347046
 21
269.850006
 31
0.0
210
0.0
220
0.0
230
1.0
  0
ARC
  5
3B4
100
AcDbEntity
  8
0
370
    35
390
0
 62
     7
100
AcDbCircle
 10
173.347046
 20
270.350006
 30
0.0
 40
0.5
210
0.0
220
0.0
230
1.0
100
AcDbArc
 50
180.000009
 51
269.999997
  0
LINE
  5
3B5
100
AcDbEntity
  8
0
370
    35
390
0
 62
     7
 48
0.0725
100
AcDbLine
 10
551.647034
 20
249.800003
 30
0.0
 11
551.647034
 21
252.700012
 31
0.0
210
0.0
220
0.0
230
1.0
  0
LINE
  5
3B6
100
AcDbEntity
  8
0
370
    35
390
0
 62
     7
 48
0.072501
100
AcDbLine
 10
551.647034
 20
254.0
 30
0.0
 11
551.647034
 21
256.900024
 31
0.0
210
0.0
220
0.0
230
1.0
  0
LINE
  5
3B7
100
AcDbEntity
  8
0
370
    35
390
0
 62
     7
100
AcDbLine
 10
476.647034
 20
273.549988
 30
0.0
 11
549.147034
 21
273.549988
 31
0.0
210
0.0
220
0.0
230
1.0
  0
LINE
  5
3B8
100
AcDbEntity
  8
0
370
    35
390
0
 62
     7
100
AcDbLine
 10
96.147057
 20
273.549988
 30
0.0
 11
168.647064
 21
273.549988
 31
0.0
210
0.0
220
0.0
230
1.0
  0
LINE
  5
3B9
100
AcDbEntity
  8
0
370
    35
390
0
 62
     7
 48
0.15
100
AcDbLine
 10
469.647034
 20
273.549988
 30
0.0
 11
475.647034
 21
273.549988
 31
0.0
210
0.0
220
0.0
230
1.0
  0
LINE
  5
3BA
100
AcDbEntity
  8
0
370
    35
390
0
 62
     7
100
AcDbLine
 10
176.647064
 20
273.549988
 30
0.0
 11
468.647034
 21
273.549988
 31
0.0
210
0.0
220
0.0
230
1.0
  0
LINE
  5
3BB
100
AcDbEntity
  8
0
370
    35
390
0
 62
     7
 48
0.15
100
AcDbLine
 10
169.647064
 20
273.549988
 30
0.0
 11
175.647064
 21
273.549988
 31
0.0
210
0.0
220
0.0
230
1.0
  0
LINE
  5
3BC
100
AcDbEntity
  8
0
370
    35
390
0
 62
     7
 48
0.007253
100
AcDbLine
 10
229.047058
 20
242.849884
 30
0.0
 11
229.047058
 21
243.139984
 31
0.0
210
0.0
220
0.0
230
1.0
  0
LINE
  5
3BD
100
AcDbEntity
  8
0
370
    35
390
0
 62
     7
 48
0.007129
100
AcDbLine
 10
229.047058
 20
243.139984
 30
0.0
 11
228.847046
 21
243.343231
 31
0.0
210
0.0
220
0.0
230
1.0
  0
LINE
  5
3BE
100
AcDbEntity
  8
0
370
    35
390
0
 62
     7
 48
0.00835
100
AcDbLine
 10
228.847046
 20
243.009216
 30
0.0
 11
228.847046
 21
243.343231
 31
0.0
210
0.0
220
0.0
230
1.0
  0
LINE
  5
3BF
100
AcDbEntity
  8
0
370
    35
390
0
 62
     7
 48
0.025
100
AcDbLine
 10
228.847046
 20
243.343231
 30
0.0
 11
227.847046
 21
243.343231
 31
0.0
210
0.0
220
0.0
230
1.0
  0
LINE
  5
3C0
100
AcDbEntity
  8
0
370
    35
390
0
 62
     7
 48
0.001419
100
AcDbLine
 10
227.847046
 20
243.343231
 30
0.0
 11
227.847046
 21
243.399994
 31
0.0
210
0.0
220
0.0
230
1.0
  0
LINE
  5
3C1
100
AcDbEntity
  8
0
370
    35
390
0
 62
     7
 48
0.014999
100
AcDbLine
 10
227.24707
 20
243.399994
 30
0.0
 11
227.847046
 21
243.399994
 31
0.0
210
0.0
220
0.0
230
1.0
  0
LINE
  5
3C2
100
AcDbEntity
  8
0
370
    35
390
0
 62
     7
 48
0.008752
100
AcDbLine
 10
227.24707
 20
243.049927
 30
0.0
 11
227.24707
 21
243.399994
 31
0.0
210
0.0
220
0.0
230
1.0
  0
LINE
  5
3C3
100
AcDbEntity
  8
0
370
    35
390
0
 62
     7
 48
0.025
100
AcDbLine
 10
228.847046
 20
243.343231
 30
0.0
 11
227.847046
 21
243.343231
 31
0.0
210
0.0
220
0.0
230
1.0
  0
LINE
  5
3C4
100
AcDbEntity
  8
0
370
    35
390
0
 62
     7
 48
0.007129
100
AcDbLine
 10
229.047058
 20
243.139984
 30
0.0
 11
228.847046
 21
243.343231
 31
0.0
210
0.0
220
0.0
230
1.0
  0
LINE
  5
3C5
100
AcDbEntity
  8
0
370
    35
390
0
 62
     7
 48
0.0025
100
AcDbLine
 10
226.947052
 20
243.050003
 30
0.0
 11
226.947052
 21
243.149994
 31
0.0
210
0.0
220
0.0
230
1.0
  0
LINE
  5
3C6
100
AcDbEntity
  8
0
370
    35
390
0
 62
     7
 48
0.05
100
AcDbLine
 10
228.647064
 20
243.050003
 30
0.0
 11
226.647064
 21
243.050003
 31
0.0
210
0.0
220
0.0
230
1.0
  0
ARC
  5
3C7
100
AcDbEntity
  8
0
370
    35
390
0
 62
     7
100
AcDbCircle
 10
226.647064
 20
243.550003
 30
0.0
 40
0.5
210
0.0
220
0.0
230
1.0
100
AcDbArc
 50
180.000009
 51
269.999997
  0
LINE
  5
3C8
100
AcDbEntity
  8
0
370
    35
390
0
 62
     7
 48
0.0125
100
AcDbLine
 10
228.647064
 20
242.550003
 30
0.0
 11
229.00061
 21
242.903564
 31
0.0
210
0.0
220
0.0
230
1.0
  0
ARC
  5
3C9
100
AcDbEntity
  8
0
370
    35
390
0
 62
     7
100
AcDbCircle
 10
228.647064
 20
242.550003
 30
0.0
 40
0.5
210
0.0
220
0.0
230
1.0
100
AcDbArc
 50
0.0
 51
89.999559
  0
LINE
  5
3CA
100
AcDbEntity
  8
0
370
    35
390
0
 62
     7
100
AcDbLine
 10
229.147064
 20
219.450012
 30
0.0
 11
229.147064
 21
242.550003
 31
0.0
210
0.0
220
0.0
230
1.0
  0
ARC
  5
3CB
100
AcDbEntity
  8
0
370
    35
390
0
 62
     7
100
AcDbCircle
 10
225.647064
 20
243.550003
 30
0.0
 40
0.5
210
0.0
220
0.0
230
1.0
100
AcDbArc
 50
0.0
 51
90.000003
  0
LINE
  5
3CC
100
AcDbEntity
  8
0
370
    35
390
0
 62
     7
100
AcDbLine
 10
221.647064
 20
222.25
 30
0.0
 11
103.647057
 21
222.25
 31
0.0
210
0.0
220
0.0
230
1.0
  0
LINE
  5
3CD
100
AcDbEntity
  8
0
370
    35
390
0
 62
     7
 48
0.105001
100
AcDbLine
 10
151.796906
 20
237.108002
 30
0.0
 11
150.334534
 21
241.045227
 31
0.0
210
0.0
220
0.0
230
1.0
  0
ARC
  5
3CE
100
AcDbEntity
  8
0
370
    35
390
0
 62
     7
100
AcDbCircle
 10
151.609436
 20
237.038361
 30
0.0
 40
0.2
210
0.0
220
0.0
230
1.0
100
AcDbArc
 50
269.999997
 51
20.376
  0
LINE
  5
3CF
100
AcDbEntity
  8
0
370
    35
390
0
 62
     7
 48
0.073119
100
AcDbLine
 10
148.684692
 20
236.838348
 30
0.0
 11
151.609436
 21
236.838348
 31
0.0
210
0.0
220
0.0
230
1.0
  0
ARC
  5
3D0
100
AcDbEntity
  8
0
370
    35
390
0
 62
     7
100
AcDbCircle
 10
148.684692
 20
237.038361
 30
0.0
 40
0.2
210
0.0
220
0.0
230
1.0
100
AcDbArc
 50
159.624007
 51
269.999997
  0
LINE
  5
3D1
100
AcDbEntity
  8
0
370
    35
390
0
 62
     7
 48
0.105001
100
AcDbLine
 10
149.959564
 20
241.045227
 30
0.0
 11
148.497192
 21
237.108002
 31
0.0
210
0.0
220
0.0
230
1.0
  0
ARC
  5
3D2
100
AcDbEntity
  8
0
370
    35
390
0
 62
     7
100
AcDbCircle
 10
150.147064
 20
240.975586
 30
0.0
 40
0.2
210
0.0
220
0.0
230
1.0
100
AcDbArc
 50
20.376
 51
159.624007
  0
LINE
  5
3D3
100
AcDbEntity
  8
0
370
    35
390
0
 62
     7
 48
0.008839
100
AcDbLine
 10
228.647064
 20
219.450012
 30
0.0
 11
228.897064
 21
219.200012
 31
0.0
210
0.0
220
0.0
230
1.0
  0
LINE
  5
3D4
100
AcDbEntity
  8
0
370
    35
390
0
 62
     7
 48
0.008839
100
AcDbLine
 10
228.897064
 20
219.200012
 30
0.0
 11
229.147064
 21
219.450012
 31
0.0
210
0.0
220
0.0
230
1.0
  0
LINE
  5
3D5
100
AcDbEntity
  8
0
370
    35
390
0
 62
     7
 48
0.008839
100
AcDbLine
 10
228.647064
 20
218.950012
 30
0.0
 11
228.897064
 21
219.200012
 31
0.0
210
0.0
220
0.0
230
1.0
  0
LINE
  5
3D6
100
AcDbEntity
  8
0
370
    35
390
0
 62
     7
 48
0.025
100
AcDbLine
 10
206.647064
 20
244.050003
 30
0.0
 11
207.647064
 21
244.050003
 31
0.0
210
0.0
220
0.0
230
1.0
  0
LINE
  5
3D7
100
AcDbEntity
  8
0
370
    35
390
0
 62
     7
 48
0.025
100
AcDbLine
 10
208.647064
 20
244.050003
 30
0.0
 11
207.647064
 21
244.050003
 31
0.0
210
0.0
220
0.0
230
1.0
  0
LINE
  5
3D8
100
AcDbEntity
  8
0
370
    35
390
0
 62
     7
 48
0.425
100
AcDbLine
 10
225.647064
 20
244.050003
 30
0.0
 11
208.647064
 21
244.050003
 31
0.0
210
0.0
220
0.0
230
1.0
  0
LINE
  5
3D9
100
AcDbEntity
  8
0
370
    35
390
0
 62
     7
 48
0.008839
100
AcDbLine
 10
96.647057
 20
219.450012
 30
0.0
 11
96.397057
 21
219.200012
 31
0.0
210
0.0
220
0.0
230
1.0
  0
LINE
  5
3DA
100
AcDbEntity
  8
0
370
    35
390
0
 62
     7
 48
0.0125
100
AcDbLine
 10
96.647057
 20
242.550003
 30
0.0
 11
96.293503
 21
242.903564
 31
0.0
210
0.0
220
0.0
230
1.0
  0
ARC
  5
3DB
100
AcDbEntity
  8
0
370
    35
390
0
 62
     7
100
AcDbCircle
 10
96.647057
 20
242.550003
 30
0.0
 40
0.5
210
0.0
220
0.0
230
1.0
100
AcDbArc
 50
90.000003
 51
179.999554
  0
LINE
  5
3DC
100
AcDbEntity
  8
0
370
    35
390
0
 62
     7
100
AcDbLine
 10
96.147057
 20
242.550003
 30
0.0
 11
96.147057
 21
219.450012
 31
0.0
210
0.0
220
0.0
230
1.0
  0
LINE
  5
3DD
100
AcDbEntity
  8
0
370
    35
390
0
 62
     7
 48
0.008839
100
AcDbLine
 10
96.147057
 20
219.450012
 30
0.0
 11
96.397057
 21
219.200012
 31
0.0
210
0.0
220
0.0
230
1.0
  0
LINE
  5
3DE
100
AcDbEntity
  8
0
370
    35
390
0
 62
     7
 48
0.175
100
AcDbLine
 10
103.647057
 20
218.950012
 30
0.0
 11
96.647057
 21
218.950012
 31
0.0
210
0.0
220
0.0
230
1.0
  0
LINE
  5
3DF
100
AcDbEntity
  8
0
370
    35
390
0
 62
     7
 48
0.008839
100
AcDbLine
 10
96.397057
 20
219.200012
 30
0.0
 11
96.647057
 21
218.950012
 31
0.0
210
0.0
220
0.0
230
1.0
  0
LINE
  5
3E0
100
AcDbEntity
  8
0
370
    35
390
0
 62
     7
 48
0.07
100
AcDbLine
 10
104.147057
 20
219.450012
 30
0.0
 11
104.147057
 21
222.25
 31
0.0
210
0.0
220
0.0
230
1.0
  0
LINE
  5
3E1
100
AcDbEntity
  8
0
370
    35
390
0
 62
     7
 48
0.07
100
AcDbLine
 10
221.147064
 20
219.450012
 30
0.0
 11
221.147064
 21
222.25
 31
0.0
210
0.0
220
0.0
230
1.0
  0
LINE
  5
3E2
100
AcDbEntity
  8
0
370
    35
390
0
 62
     7
 48
0.175
100
AcDbLine
 10
228.647064
 20
218.950012
 30
0.0
 11
221.647064
 21
218.950012
 31
0.0
210
0.0
220
0.0
230
1.0
  0
LINE
  5
3E3
100
AcDbEntity
  8
0
370
    35
390
0
 62
     7
 48
0.35
100
AcDbLine
 10
207.647064
 20
243.050003
 30
0.0
 11
193.647064
 21
243.050003
 31
0.0
210
0.0
220
0.0
230
1.0
  0
LINE
  5
3E4
100
AcDbEntity
  8
0
370
    35
390
0
 62
     7
 48
0.03
100
AcDbLine
 10
193.347046
 20
241.550003
 30
0.0
 11
193.347046
 21
242.75
 31
0.0
210
0.0
220
0.0
230
1.0
  0
ARC
  5
3E5
100
AcDbEntity
  8
0
370
    35
390
0
 62
     7
100
AcDbCircle
 10
191.147064
 20
241.550003
 30
0.0
 40
2.2
210
0.0
220
0.0
230
1.0
100
AcDbArc
 50
180.000009
 51
360.0
  0
LINE
  5
3E6
100
AcDbEntity
  8
0
370
    35
390
0
 62
     7
 48
0.03
100
AcDbLine
 10
188.947052
 20
242.75
 30
0.0
 11
188.947052
 21
241.550003
 31
0.0
210
0.0
220
0.0
230
1.0
  0
LINE
  5
3E7
100
AcDbEntity
  8
0
370
    35
390
0
 62
     7
100
AcDbLine
 10
188.647064
 20
243.050003
 30
0.0
 11
114.647057
 21
243.050003
 31
0.0
210
0.0
220
0.0
230
1.0
  0
LINE
  5
3E8
100
AcDbEntity
  8
0
370
    35
390
0
 62
     7
 48
0.03
100
AcDbLine
 10
114.347054
 20
241.550003
 30
0.0
 11
114.347054
 21
242.75
 31
0.0
210
0.0
220
0.0
230
1.0
  0
ARC
  5
3E9
100
AcDbEntity
  8
0
370
    35
390
0
 62
     7
100
AcDbCircle
 10
112.147057
 20
241.550003
 30
0.0
 40
2.2
210
0.0
220
0.0
230
1.0
100
AcDbArc
 50
180.000009
 51
360.0
  0
ARC
  5
3EA
100
AcDbEntity
  8
0
370
    35
390
0
 62
     7
100
AcDbCircle
 10
115.813118
 20
241.050003
 30
0.0
 40
1.0
210
0.0
220
0.0
230
1.0
100
AcDbArc
 50
90.000003
 51
172.233561
  0
LINE
  5
3EB
100
AcDbEntity
  8
0
370
    35
390
0
 62
     7
 48
0.333349
100
AcDbLine
 10
115.813118
 20
242.050003
 30
0.0
 11
129.147064
 21
242.050003
 31
0.0
210
0.0
220
0.0
230
1.0
  0
ARC
  5
3EC
100
AcDbEntity
  8
0
370
    35
390
0
 62
     7
100
AcDbCircle
 10
129.147064
 20
239.050003
 30
0.0
 40
3.0
210
0.0
220
0.0
230
1.0
100
AcDbArc
 50
0.0
 51
90.000003
  0
LINE
  5
3ED
100
AcDbEntity
  8
0
370
    35
390
0
 62
     7
 48
0.32
100
AcDbLine
 10
132.147064
 20
226.25
 30
0.0
 11
132.147064
 21
239.050003
 31
0.0
210
0.0
220
0.0
230
1.0
  0
ARC
  5
3EE
100
AcDbEntity
  8
0
370
    35
390
0
 62
     7
100
AcDbCircle
 10
129.147064
 20
226.25
 30
0.0
 40
3.0
210
0.0
220
0.0
230
1.0
100
AcDbArc
 50
269.999997
 51
360.0
  0
LINE
  5
3EF
100
AcDbEntity
  8
0
370
    35
390
0
 62
     7
 48
0.35
100
AcDbLine
 10
129.147064
 20
223.25
 30
0.0
 11
115.147057
 21
223.25
 31
0.0
210
0.0
220
0.0
230
1.0
  0
ARC
  5
3F0
100
AcDbEntity
  8
0
370
    35
390
0
 62
     7
100
AcDbCircle
 10
115.147057
 20
226.25
 30
0.0
 40
3.0
210
0.0
220
0.0
230
1.0
100
AcDbArc
 50
180.000009
 51
269.999997
  0
LINE
  5
3F1
100
AcDbEntity
  8
0
370
    35
390
0
 62
     7
 48
0.293443
100
AcDbLine
 10
112.147057
 20
237.987701
 30
0.0
 11
112.147057
 21
226.25
 31
0.0
210
0.0
220
0.0
230
1.0
  0
ARC
  5
3F2
100
AcDbEntity
  8
0
370
    35
390
0
 62
     7
100
AcDbCircle
 10
113.147057
 20
237.987701
 30
0.0
 40
1.0
210
0.0
220
0.0
230
1.0
100
AcDbArc
 50
105.680348
 51
180.000009
  0
LINE
  5
3F3
100
AcDbEntity
  8
0
370
    35
390
0
 62
     7
 48
0.03
100
AcDbLine
 10
109.94706
 20
242.75
 30
0.0
 11
109.94706
 21
241.550003
 31
0.0
210
0.0
220
0.0
230
1.0
  0
LINE
  5
3F4
100
AcDbEntity
  8
0
370
    35
390
0
 62
     7
 48
0.0125
100
AcDbLine
 10
109.647057
 20
243.050003
 30
0.0
 11
109.147057
 21
243.050003
 31
0.0
210
0.0
220
0.0
230
1.0
  0
LINE
  5
3F5
100
AcDbEntity
  8
0
370
    35
390
0
 62
     7
 48
0.2125
100
AcDbLine
 10
108.147057
 20
244.050003
 30
0.0
 11
99.647057
 21
244.050003
 31
0.0
210
0.0
220
0.0
230
1.0
  0
LINE
  5
3F6
100
AcDbEntity
  8
0
370
    35
390
0
 62
     7
 48
0.05
100
AcDbLine
 10
98.647057
 20
243.050003
 30
0.0
 11
96.647057
 21
243.050003
 31
0.0
210
0.0
220
0.0
230
1.0
  0
LINE
  5
3F7
100
AcDbEntity
  8
0
370
    35
390
0
 62
     7
 48
0.35
100
AcDbLine
 10
171.147064
 20
242.050003
 30
0.0
 11
185.147064
 21
242.050003
 31
0.0
210
0.0
220
0.0
230
1.0
  0
ARC
  5
3F8
100
AcDbEntity
  8
0
370
    35
390
0
 62
     7
100
AcDbCircle
 10
185.147064
 20
239.050003
 30
0.0
 40
3.0
210
0.0
220
0.0
230
1.0
100
AcDbArc
 50
0.0
 51
90.000003
  0
LINE
  5
3F9
100
AcDbEntity
  8
0
370
    35
390
0
 62
     7
 48
0.32
100
AcDbLine
 10
188.147064
 20
226.25
 30
0.0
 11
188.147064
 21
239.050003
 31
0.0
210
0.0
220
0.0
230
1.0
  0
ARC
  5
3FA
100
AcDbEntity
  8
0
370
    35
390
0
 62
     7
100
AcDbCircle
 10
185.147064
 20
226.25
 30
0.0
 40
3.0
210
0.0
220
0.0
230
1.0
100
AcDbArc
 50
269.999997
 51
360.0
  0
LINE
  5
3FB
100
AcDbEntity
  8
0
370
    35
390
0
 62
     7
 48
0.35
100
AcDbLine
 10
185.147064
 20
223.25
 30
0.0
 11
171.147064
 21
223.25
 31
0.0
210
0.0
220
0.0
230
1.0
  0
ARC
  5
3FC
100
AcDbEntity
  8
0
370
    35
390
0
 62
     7
100
AcDbCircle
 10
171.147064
 20
226.25
 30
0.0
 40
3.0
210
0.0
220
0.0
230
1.0
100
AcDbArc
 50
180.000009
 51
269.999997
  0
LINE
  5
3FD
100
AcDbEntity
  8
0
370
    35
390
0
 62
     7
 48
0.32
100
AcDbLine
 10
168.147064
 20
239.050003
 30
0.0
 11
168.147064
 21
226.25
 31
0.0
210
0.0
220
0.0
230
1.0
  0
ARC
  5
3FE
100
AcDbEntity
  8
0
370
    35
390
0
 62
     7
100
AcDbCircle
 10
171.147064
 20
239.050003
 30
0.0
 40
3.0
210
0.0
220
0.0
230
1.0
100
AcDbArc
 50
90.000003
 51
180.000009
  0
LINE
  5
3FF
100
AcDbEntity
  8
0
370
    35
390
0
 62
     7
 48
0.025
100
AcDbLine
 10
109.147057
 20
244.050003
 30
0.0
 11
108.147057
 21
244.050003
 31
0.0
210
0.0
220
0.0
230
1.0
  0
LINE
  5
400
100
AcDbEntity
  8
0
370
    35
390
0
 62
     7
 48
0.025
100
AcDbLine
 10
110.147057
 20
244.050003
 30
0.0
 11
109.147057
 21
244.050003
 31
0.0
210
0.0
220
0.0
230
1.0
  0
LINE
  5
401
100
AcDbEntity
  8
0
370
    35
390
0
 62
     7
 48
0.01
100
AcDbLine
 10
105.397057
 20
221.850006
 30
0.0
 11
105.397057
 21
222.25
 31
0.0
210
0.0
220
0.0
230
1.0
  0
LINE
  5
402
100
AcDbEntity
  8
0
370
    35
390
0
 62
     7
 48
0.01
100
AcDbLine
 10
219.897064
 20
221.850006
 30
0.0
 11
219.897064
 21
222.25
 31
0.0
210
0.0
220
0.0
230
1.0
  0
LINE
  5
403
100
AcDbEntity
  8
0
370
    35
390
0
 62
     7
 48
0.005
100
AcDbLine
 10
119.870262
 20
222.100006
 30
0.0
 11
119.670258
 21
222.100006
 31
0.0
210
0.0
220
0.0
230
1.0
  0
LINE
  5
404
100
AcDbEntity
  8
0
370
    35
390
0
 62
     7
 48
0.07616
100
AcDbLine
 10
116.623848
 20
222.100006
 30
0.0
 11
119.670258
 21
222.100006
 31
0.0
210
0.0
220
0.0
230
1.0
  0
LINE
  5
405
100
AcDbEntity
  8
0
370
    35
390
0
 62
     7
 48
0.005
100
AcDbLine
 10
116.623848
 20
222.100006
 30
0.0
 11
116.423851
 21
222.100006
 31
0.0
210
0.0
220
0.0
230
1.0
  0
LINE
  5
406
100
AcDbEntity
  8
0
370
    35
390
0
 62
     7
 48
0.005
100
AcDbLine
 10
205.62384
 20
222.100006
 30
0.0
 11
205.423859
 21
222.100006
 31
0.0
210
0.0
220
0.0
230
1.0
  0
LINE
  5
407
100
AcDbEntity
  8
0
370
    35
390
0
 62
     7
 48
0.005
100
AcDbLine
 10
208.87027
 20
222.100006
 30
0.0
 11
208.670258
 21
222.100006
 31
0.0
210
0.0
220
0.0
230
1.0
  0
LINE
  5
408
100
AcDbEntity
  8
0
370
    35
390
0
 62
     7
 48
0.07616
100
AcDbLine
 10
205.62384
 20
222.100006
 30
0.0
 11
208.670258
 21
222.100006
 31
0.0
210
0.0
220
0.0
230
1.0
  0
ARC
  5
409
100
AcDbEntity
  8
0
370
    35
390
0
 62
     7
100
AcDbCircle
 10
208.647064
 20
243.550003
 30
0.0
 40
0.5
210
0.0
220
0.0
230
1.0
100
AcDbArc
 50
90.000003
 51
180.000009
  0
ARC
  5
40A
100
AcDbEntity
  8
0
370
    35
390
0
 62
     7
100
AcDbCircle
 10
103.647057
 20
219.450012
 30
0.0
 40
0.5
210
0.0
220
0.0
230
1.0
100
AcDbArc
 50
269.999997
 51
360.0
  0
ARC
  5
40B
100
AcDbEntity
  8
0
370
    35
390
0
 62
     7
100
AcDbCircle
 10
221.647064
 20
219.450012
 30
0.0
 40
0.5
210
0.0
220
0.0
230
1.0
100
AcDbArc
 50
180.000009
 51
269.999997
  0
ARC
  5
40C
100
AcDbEntity
  8
0
370
    35
390
0
 62
     7
100
AcDbCircle
 10
207.647064
 20
243.550003
 30
0.0
 40
0.5
210
0.0
220
0.0
230
1.0
100
AcDbArc
 50
269.999997
 51
360.0
  0
LINE
  5
40D
100
AcDbEntity
  8
0
370
    35
390
0
 62
     7
 48
0.01
100
AcDbLine
 10
110.047058
 20
243.050003
 30
0.0
 11
109.647057
 21
243.050003
 31
0.0
210
0.0
220
0.0
230
1.0
  0
LINE
  5
40E
100
AcDbEntity
  8
0
370
    35
390
0
 62
     7
 48
0.0025
100
AcDbLine
 10
110.047058
 20
243.050003
 30
0.0
 11
110.147057
 21
243.050003
 31
0.0
210
0.0
220
0.0
230
1.0
  0
ARC
  5
40F
100
AcDbEntity
  8
0
370
    35
390
0
 62
     7
100
AcDbCircle
 10
193.647064
 20
242.75
 30
0.0
 40
0.3
210
0.0
220
0.0
230
1.0
100
AcDbArc
 50
90.000003
 51
180.000009
  0
ARC
  5
410
100
AcDbEntity
  8
0
370
    35
390
0
 62
     7
100
AcDbCircle
 10
188.647064
 20
242.75
 30
0.0
 40
0.3
210
0.0
220
0.0
230
1.0
100
AcDbArc
 50
0.0
 51
90.000003
  0
ARC
  5
411
100
AcDbEntity
  8
0
370
    35
390
0
 62
     7
100
AcDbCircle
 10
114.647057
 20
242.75
 30
0.0
 40
0.3
210
0.0
220
0.0
230
1.0
100
AcDbArc
 50
90.000003
 51
180.000009
  0
ARC
  5
412
100
AcDbEntity
  8
0
370
    35
390
0
 62
     7
100
AcDbCircle
 10
112.147057
 20
241.550003
 30
0.0
 40
2.7
210
0.0
220
0.0
230
1.0
100
AcDbArc
 50
285.680336
 51
352.233566
  0
CIRCLE
  5
413
100
AcDbEntity
  8
0
370
    35
390
0
 62
     7
100
AcDbCircle
 10
122.147057
 20
234.649994
 30
0.0
 40
4.5
210
0.0
220
0.0
230
1.0
  0
ARC
  5
414
100
AcDbEntity
  8
0
370
    35
390
0
 62
     7
100
AcDbCircle
 10
109.647057
 20
242.75
 30
0.0
 40
0.3
210
0.0
220
0.0
230
1.0
100
AcDbArc
 50
0.0
 51
90.000003
  0
ARC
  5
415
100
AcDbEntity
  8
0
370
    35
390
0
 62
     7
100
AcDbCircle
 10
109.147057
 20
243.550003
 30
0.0
 40
0.5
210
0.0
220
0.0
230
1.0
100
AcDbArc
 50
180.000009
 51
269.999997
  0
ARC
  5
416
100
AcDbEntity
  8
0
370
    35
390
0
 62
     7
100
AcDbCircle
 10
108.147057
 20
243.550003
 30
0.0
 40
0.5
210
0.0
220
0.0
230
1.0
100
AcDbArc
 50
0.0
 51
90.000003
  0
ARC
  5
417
100
AcDbEntity
  8
0
370
    35
390
0
 62
     7
100
AcDbCircle
 10
99.647057
 20
243.550003
 30
0.0
 40
0.5
210
0.0
220
0.0
230
1.0
100
AcDbArc
 50
90.000003
 51
180.000009
  0
ARC
  5
418
100
AcDbEntity
  8
0
370
    35
390
0
 62
     7
100
AcDbCircle
 10
98.647057
 20
243.550003
 30
0.0
 40
0.5
210
0.0
220
0.0
230
1.0
100
AcDbArc
 50
269.999997
 51
360.0
  0
CIRCLE
  5
419
100
AcDbEntity
  8
0
370
    35
390
0
 62
     7
100
AcDbCircle
 10
178.147064
 20
234.649994
 30
0.0
 40
4.5
210
0.0
220
0.0
230
1.0
  0
LINE
  5
41A
100
AcDbEntity
  8
0
370
    35
390
0
 62
     7
 48
0.0025
100
AcDbLine
 10
98.347054
 20
243.050003
 30
0.0
 11
98.347054
 21
243.149994
 31
0.0
210
0.0
220
0.0
230
1.0
  0
LINE
  5
41B
100
AcDbEntity
  8
0
370
    35
390
0
 62
     7
 48
0.025
100
AcDbLine
 10
220.097046
 20
221.850006
 30
0.0
 11
221.097046
 21
221.850006
 31
0.0
210
0.0
220
0.0
230
1.0
  0
LINE
  5
41C
100
AcDbEntity
  8
0
370
    35
390
0
 62
     7
 48
0.28567
100
AcDbLine
 10
220.097046
 20
221.850006
 30
0.0
 11
208.670258
 21
221.850006
 31
0.0
210
0.0
220
0.0
230
1.0
  0
LINE
  5
41D
100
AcDbEntity
  8
0
370
    35
390
0
 62
     7
100
AcDbLine
 10
205.62384
 20
221.850006
 30
0.0
 11
119.670258
 21
221.850006
 31
0.0
210
0.0
220
0.0
230
1.0
  0
LINE
  5
41E
100
AcDbEntity
  8
0
370
    35
390
0
 62
     7
 48
0.28567
100
AcDbLine
 10
116.623848
 20
221.850006
 30
0.0
 11
105.19706
 21
221.850006
 31
0.0
210
0.0
220
0.0
230
1.0
  0
LINE
  5
41F
100
AcDbEntity
  8
0
370
    35
390
0
 62
     7
 48
0.025
100
AcDbLine
 10
104.19706
 20
221.850006
 30
0.0
 11
105.19706
 21
221.850006
 31
0.0
210
0.0
220
0.0
230
1.0
  0
LINE
  5
420
100
AcDbEntity
  8
0
370
    35
390
0
 62
     7
100
AcDbLine
 10
220.097046
 20
219.350006
 30
0.0
 11
105.19706
 21
219.350006
 31
0.0
210
0.0
220
0.0
230
1.0
  0
LINE
  5
421
100
AcDbEntity
  8
0
370
    35
390
0
 62
     7
 48
0.05
100
AcDbLine
 10
110.147057
 20
241.550003
 30
0.0
 11
110.147057
 21
243.550003
 31
0.0
210
0.0
220
0.0
230
1.0
  0
LINE
  5
422
100
AcDbEntity
  8
0
370
    35
390
0
 62
     7
 48
0.0125
100
AcDbLine
 10
110.147057
 20
244.050003
 30
0.0
 11
110.147057
 21
243.550003
 31
0.0
210
0.0
220
0.0
230
1.0
  0
LINE
  5
423
100
AcDbEntity
  8
0
370
    35
390
0
 62
     7
 48
0.025
100
AcDbLine
 10
110.147057
 20
245.050003
 30
0.0
 11
110.147057
 21
244.050003
 31
0.0
210
0.0
220
0.0
230
1.0
  0
LINE
  5
424
100
AcDbEntity
  8
0
370
    35
390
0
 62
     7
 48
0.0125
100
AcDbLine
 10
206.647064
 20
243.050003
 30
0.0
 11
206.647064
 21
243.550003
 31
0.0
210
0.0
220
0.0
230
1.0
  0
LINE
  5
425
100
AcDbEntity
  8
0
370
    35
390
0
 62
     7
 48
0.0125
100
AcDbLine
 10
206.647064
 20
244.050003
 30
0.0
 11
206.647064
 21
243.550003
 31
0.0
210
0.0
220
0.0
230
1.0
  0
LINE
  5
426
100
AcDbEntity
  8
0
370
    35
390
0
 62
     7
 48
0.025
100
AcDbLine
 10
206.647064
 20
245.050003
 30
0.0
 11
206.647064
 21
244.050003
 31
0.0
210
0.0
220
0.0
230
1.0
  0
ARC
  5
427
100
AcDbEntity
  8
0
370
    35
390
0
 62
     7
100
AcDbCircle
 10
112.147057
 20
241.550003
 30
0.0
 40
2.0
210
0.0
220
0.0
230
1.0
100
AcDbArc
 50
180.000009
 51
360.0
  0
LINE
  5
428
100
AcDbEntity
  8
0
370
    35
390
0
 62
     7
 48
0.0375
100
AcDbLine
 10
114.147057
 20
241.550003
 30
0.0
 11
114.147057
 21
243.050003
 31
0.0
210
0.0
220
0.0
230
1.0
  0
LINE
  5
429
100
AcDbEntity
  8
0
370
    35
390
0
 62
     7
 48
0.0125
100
AcDbLine
 10
114.647057
 20
243.050003
 30
0.0
 11
114.147057
 21
243.050003
 31
0.0
210
0.0
220
0.0
230
1.0
  0
LINE
  5
42A
100
AcDbEntity
  8
0
370
    35
390
0
 62
     7
 48
0.0125
100
AcDbLine
 10
189.147064
 20
243.050003
 30
0.0
 11
188.647064
 21
243.050003
 31
0.0
210
0.0
220
0.0
230
1.0
  0
LINE
  5
42B
100
AcDbEntity
  8
0
370
    35
390
0
 62
     7
 48
0.0375
100
AcDbLine
 10
189.147064
 20
241.550003
 30
0.0
 11
189.147064
 21
243.050003
 31
0.0
210
0.0
220
0.0
230
1.0
  0
ARC
  5
42C
100
AcDbEntity
  8
0
370
    35
390
0
 62
     7
100
AcDbCircle
 10
191.147064
 20
241.550003
 30
0.0
 40
2.0
210
0.0
220
0.0
230
1.0
100
AcDbArc
 50
180.000009
 51
360.0
  0
LINE
  5
42D
100
AcDbEntity
  8
0
370
    35
390
0
 62
     7
 48
0.0375
100
AcDbLine
 10
193.147064
 20
241.550003
 30
0.0
 11
193.147064
 21
243.050003
 31
0.0
210
0.0
220
0.0
230
1.0
  0
LINE
  5
42E
100
AcDbEntity
  8
0
370
    35
390
0
 62
     7
 48
0.0125
100
AcDbLine
 10
193.647064
 20
243.050003
 30
0.0
 11
193.147064
 21
243.050003
 31
0.0
210
0.0
220
0.0
230
1.0
  0
LINE
  5
42F
100
AcDbEntity
  8
0
370
    35
390
0
 62
     7
 48
0.0625
100
AcDbLine
 10
104.19706
 20
219.350006
 30
0.0
 11
104.19706
 21
221.850006
 31
0.0
210
0.0
220
0.0
230
1.0
  0
LINE
  5
430
100
AcDbEntity
  8
0
370
    35
390
0
 62
     7
 48
0.0625
100
AcDbLine
 10
221.097046
 20
219.350006
 30
0.0
 11
221.097046
 21
221.850006
 31
0.0
210
0.0
220
0.0
230
1.0
  0
LINE
  5
431
100
AcDbEntity
  8
0
370
    35
390
0
 62
     7
 48
0.025
100
AcDbLine
 10
220.097046
 20
219.350006
 30
0.0
 11
221.097046
 21
219.350006
 31
0.0
210
0.0
220
0.0
230
1.0
  0
LINE
  5
432
100
AcDbEntity
  8
0
370
    35
390
0
 62
     7
 48
0.025
100
AcDbLine
 10
104.19706
 20
219.350006
 30
0.0
 11
105.19706
 21
219.350006
 31
0.0
210
0.0
220
0.0
230
1.0
  0
LINE
  5
433
100
AcDbEntity
  8
0
370
    35
390
0
 62
     7
100
AcDbLine
 10
206.647064
 20
244.050003
 30
0.0
 11
110.147057
 21
244.050003
 31
0.0
210
0.0
220
0.0
230
1.0
  0
CIRCLE
  5
434
100
AcDbEntity
  8
0
370
    35
390
0
 62
     7
100
AcDbCircle
 10
122.147057
 20
234.649994
 30
0.0
 40
4.0
210
0.0
220
0.0
230
1.0
  0
CIRCLE
  5
435
100
AcDbEntity
  8
0
370
    35
390
0
 62
     7
100
AcDbCircle
 10
178.147064
 20
234.649994
 30
0.0
 40
4.0
210
0.0
220
0.0
230
1.0
  0
LINE
  5
436
100
AcDbEntity
  8
0
370
    35
390
0
 62
     7
 48
0.008752
100
AcDbLine
 10
98.047058
 20
243.399994
 30
0.0
 11
98.047058
 21
243.049927
 31
0.0
210
0.0
220
0.0
230
1.0
  0
CIRCLE
  5
437
100
AcDbEntity
  8
0
370
    35
390
0
 62
     7
100
AcDbCircle
 10
191.147064
 20
241.550003
 30
0.0
 40
1.475
210
0.0
220
0.0
230
1.0
  0
CIRCLE
  5
438
100
AcDbEntity
  8
0
370
    35
390
0
 62
     7
100
AcDbCircle
 10
112.147057
 20
241.550003
 30
0.0
 40
1.475
210
0.0
220
0.0
230
1.0
  0
LINE
  5
439
100
AcDbEntity
  8
0
370
    35
390
0
 62
     7
 48
0.001419
100
AcDbLine
 10
97.44706
 20
243.399994
 30
0.0
 11
97.44706
 21
243.343231
 31
0.0
210
0.0
220
0.0
230
1.0
  0
LINE
  5
43A
100
AcDbEntity
  8
0
370
    35
390
0
 62
     7
 48
0.025
100
AcDbLine
 10
96.44706
 20
243.343231
 30
0.0
 11
97.44706
 21
243.343231
 31
0.0
210
0.0
220
0.0
230
1.0
  0
LINE
  5
43B
100
AcDbEntity
  8
0
370
    35
390
0
 62
     7
 48
0.00835
100
AcDbLine
 10
96.44706
 20
243.343231
 30
0.0
 11
96.44706
 21
243.009216
 31
0.0
210
0.0
220
0.0
230
1.0
  0
LINE
  5
43C
100
AcDbEntity
  8
0
370
    35
390
0
 62
     7
 48
0.015
100
AcDbLine
 10
98.047058
 20
243.399994
 30
0.0
 11
97.44706
 21
243.399994
 31
0.0
210
0.0
220
0.0
230
1.0
  0
LINE
  5
43D
100
AcDbEntity
  8
0
370
    35
390
0
 62
     7
 48
0.025
100
AcDbLine
 10
96.44706
 20
243.343231
 30
0.0
 11
97.44706
 21
243.343231
 31
0.0
210
0.0
220
0.0
230
1.0
  0
CIRCLE
  5
43E
100
AcDbEntity
  8
0
370
    35
390
0
 62
     7
100
AcDbCircle
 10
122.147057
 20
234.649994
 30
0.0
 40
2.55
210
0.0
220
0.0
230
1.0
  0
CIRCLE
  5
43F
100
AcDbEntity
  8
0
370
    35
390
0
 62
     7
100
AcDbCircle
 10
178.147064
 20
234.649994
 30
0.0
 40
2.55
210
0.0
220
0.0
230
1.0
  0
LINE
  5
440
100
AcDbEntity
  8
0
370
    35
390
0
 62
     7
 48
0.007129
100
AcDbLine
 10
96.247055
 20
243.139984
 30
0.0
 11
96.44706
 21
243.343231
 31
0.0
210
0.0
220
0.0
230
1.0
  0
LINE
  5
441
100
AcDbEntity
  8
0
370
    35
390
0
 62
     7
 48
0.007253
100
AcDbLine
 10
96.247055
 20
243.139984
 30
0.0
 11
96.247055
 21
242.849884
 31
0.0
210
0.0
220
0.0
230
1.0
  0
LINE
  5
442
100
AcDbEntity
  8
0
370
    35
390
0
 62
     7
 48
0.01
100
AcDbLine
 10
190.947052
 20
242.649994
 30
0.0
 11
191.347046
 21
242.649994
 31
0.0
210
0.0
220
0.0
230
1.0
  0
LINE
  5
443
100
AcDbEntity
  8
0
370
    35
390
0
 62
     7
 48
0.01625
100
AcDbLine
 10
190.947052
 20
242.649994
 30
0.0
 11
190.947052
 21
242.0
 31
0.0
210
0.0
220
0.0
230
1.0
  0
ARC
  5
444
100
AcDbEntity
  8
0
370
    35
390
0
 62
     7
100
AcDbCircle
 10
190.697052
 20
242.0
 30
0.0
 40
0.25
210
0.0
220
0.0
230
1.0
100
AcDbArc
 50
269.999997
 51
360.0
  0
LINE
  5
445
100
AcDbEntity
  8
0
370
    35
390
0
 62
     7
 48
0.01625
100
AcDbLine
 10
190.697052
 20
241.75
 30
0.0
 11
190.047058
 21
241.75
 31
0.0
210
0.0
220
0.0
230
1.0
  0
LINE
  5
446
100
AcDbEntity
  8
0
370
    35
390
0
 62
     7
 48
0.01
100
AcDbLine
 10
190.047058
 20
241.75
 30
0.0
 11
190.047058
 21
241.350006
 31
0.0
210
0.0
220
0.0
230
1.0
  0
LINE
  5
447
100
AcDbEntity
  8
0
370
    35
390
0
 62
     7
 48
0.01625
100
AcDbLine
 10
190.697052
 20
241.350006
 30
0.0
 11
190.047058
 21
241.350006
 31
0.0
210
0.0
220
0.0
230
1.0
  0
ARC
  5
448
100
AcDbEntity
  8
0
370
    35
390
0
 62
     7
100
AcDbCircle
 10
190.697052
 20
241.100006
 30
0.0
 40
0.25
210
0.0
220
0.0
230
1.0
100
AcDbArc
 50
0.0
 51
90.000003
  0
LINE
  5
449
100
AcDbEntity
  8
0
370
    35
390
0
 62
     7
 48
0.01625
100
AcDbLine
 10
190.947052
 20
240.450012
 30
0.0
 11
190.947052
 21
241.100006
 31
0.0
210
0.0
220
0.0
230
1.0
  0
LINE
  5
44A
100
AcDbEntity
  8
0
370
    35
390
0
 62
     7
 48
0.01
100
AcDbLine
 10
190.947052
 20
240.450012
 30
0.0
 11
191.347046
 21
240.450012
 31
0.0
210
0.0
220
0.0
230
1.0
  0
LINE
  5
44B
100
AcDbEntity
  8
0
370
    35
390
0
 62
     7
 48
0.01625
100
AcDbLine
 10
191.347046
 20
240.450012
 30
0.0
 11
191.347046
 21
241.100006
 31
0.0
210
0.0
220
0.0
230
1.0
  0
ARC
  5
44C
100
AcDbEntity
  8
0
370
    35
390
0
 62
     7
100
AcDbCircle
 10
191.597046
 20
241.100006
 30
0.0
 40
0.25
210
0.0
220
0.0
230
1.0
100
AcDbArc
 50
90.000003
 51
180.000009
  0
LINE
  5
44D
100
AcDbEntity
  8
0
370
    35
390
0
 62
     7
 48
0.01625
100
AcDbLine
 10
191.597046
 20
241.350006
 30
0.0
 11
192.24704
 21
241.350006
 31
0.0
210
0.0
220
0.0
230
1.0
  0
LINE
  5
44E
100
AcDbEntity
  8
0
370
    35
390
0
 62
     7
 48
0.01
100
AcDbLine
 10
192.24704
 20
241.75
 30
0.0
 11
192.24704
 21
241.350006
 31
0.0
210
0.0
220
0.0
230
1.0
  0
LINE
  5
44F
100
AcDbEntity
  8
0
370
    35
390
0
 62
     7
 48
0.01625
100
AcDbLine
 10
191.597046
 20
241.75
 30
0.0
 11
192.24704
 21
241.75
 31
0.0
210
0.0
220
0.0
230
1.0
  0
ARC
  5
450
100
AcDbEntity
  8
0
370
    35
390
0
 62
     7
100
AcDbCircle
 10
191.597046
 20
242.0
 30
0.0
 40
0.25
210
0.0
220
0.0
230
1.0
100
AcDbArc
 50
180.000009
 51
269.999997
  0
LINE
  5
451
100
AcDbEntity
  8
0
370
    35
390
0
 62
     7
 48
0.01625
100
AcDbLine
 10
191.347046
 20
242.649994
 30
0.0
 11
191.347046
 21
242.0
 31
0.0
210
0.0
220
0.0
230
1.0
  0
LINE
  5
452
100
AcDbEntity
  8
0
370
    35
390
0
 62
     7
 48
0.01
100
AcDbLine
 10
111.947052
 20
242.649994
 30
0.0
 11
112.347054
 21
242.649994
 31
0.0
210
0.0
220
0.0
230
1.0
  0
LINE
  5
453
100
AcDbEntity
  8
0
370
    35
390
0
 62
     7
 48
0.01625
100
AcDbLine
 10
111.947052
 20
242.649994
 30
0.0
 11
111.947052
 21
242.0
 31
0.0
210
0.0
220
0.0
230
1.0
  0
ARC
  5
454
100
AcDbEntity
  8
0
370
    35
390
0
 62
     7
100
AcDbCircle
 10
111.697052
 20
242.0
 30
0.0
 40
0.25
210
0.0
220
0.0
230
1.0
100
AcDbArc
 50
269.999997
 51
360.0
  0
LINE
  5
455
100
AcDbEntity
  8
0
370
    35
390
0
 62
     7
 48
0.01625
100
AcDbLine
 10
111.697052
 20
241.75
 30
0.0
 11
111.047058
 21
241.75
 31
0.0
210
0.0
220
0.0
230
1.0
  0
LINE
  5
456
100
AcDbEntity
  8
0
370
    35
390
0
 62
     7
 48
0.01
100
AcDbLine
 10
111.047058
 20
241.75
 30
0.0
 11
111.047058
 21
241.350006
 31
0.0
210
0.0
220
0.0
230
1.0
  0
LINE
  5
457
100
AcDbEntity
  8
0
370
    35
390
0
 62
     7
 48
0.01625
100
AcDbLine
 10
111.697052
 20
241.350006
 30
0.0
 11
111.047058
 21
241.350006
 31
0.0
210
0.0
220
0.0
230
1.0
  0
ARC
  5
458
100
AcDbEntity
  8
0
370
    35
390
0
 62
     7
100
AcDbCircle
 10
111.697052
 20
241.100006
 30
0.0
 40
0.25
210
0.0
220
0.0
230
1.0
100
AcDbArc
 50
0.0
 51
90.000003
  0
LINE
  5
459
100
AcDbEntity
  8
0
370
    35
390
0
 62
     7
 48
0.01625
100
AcDbLine
 10
111.947052
 20
240.450012
 30
0.0
 11
111.947052
 21
241.100006
 31
0.0
210
0.0
220
0.0
230
1.0
  0
LINE
  5
45A
100
AcDbEntity
  8
0
370
    35
390
0
 62
     7
 48
0.01
100
AcDbLine
 10
111.947052
 20
240.450012
 30
0.0
 11
112.347054
 21
240.450012
 31
0.0
210
0.0
220
0.0
230
1.0
  0
LINE
  5
45B
100
AcDbEntity
  8
0
370
    35
390
0
 62
     7
 48
0.01625
100
AcDbLine
 10
112.347054
 20
240.450012
 30
0.0
 11
112.347054
 21
241.100006
 31
0.0
210
0.0
220
0.0
230
1.0
  0
ARC
  5
45C
100
AcDbEntity
  8
0
370
    35
390
0
 62
     7
100
AcDbCircle
 10
112.597054
 20
241.100006
 30
0.0
 40
0.25
210
0.0
220
0.0
230
1.0
100
AcDbArc
 50
90.000003
 51
180.000009
  0
LINE
  5
45D
100
AcDbEntity
  8
0
370
    35
390
0
 62
     7
 48
0.01625
100
AcDbLine
 10
112.597054
 20
241.350006
 30
0.0
 11
113.247055
 21
241.350006
 31
0.0
210
0.0
220
0.0
230
1.0
  0
LINE
  5
45E
100
AcDbEntity
  8
0
370
    35
390
0
 62
     7
 48
0.01
100
AcDbLine
 10
113.247055
 20
241.75
 30
0.0
 11
113.247055
 21
241.350006
 31
0.0
210
0.0
220
0.0
230
1.0
  0
LINE
  5
45F
100
AcDbEntity
  8
0
370
    35
390
0
 62
     7
 48
0.01625
100
AcDbLine
 10
112.597054
 20
241.75
 30
0.0
 11
113.247055
 21
241.75
 31
0.0
210
0.0
220
0.0
230
1.0
  0
ARC
  5
460
100
AcDbEntity
  8
0
370
    35
390
0
 62
     7
100
AcDbCircle
 10
112.597054
 20
242.0
 30
0.0
 40
0.25
210
0.0
220
0.0
230
1.0
100
AcDbArc
 50
180.000009
 51
269.999997
  0
LINE
  5
461
100
AcDbEntity
  8
0
370
    35
390
0
 62
     7
 48
0.01625
100
AcDbLine
 10
112.347054
 20
242.649994
 30
0.0
 11
112.347054
 21
242.0
 31
0.0
210
0.0
220
0.0
230
1.0
  0
LINE
  5
462
100
AcDbEntity
  8
0
370
    35
390
0
 62
     7
 48
0.085
100
AcDbLine
 10
340.547028
 20
143.150009
 30
0.0
 11
337.147034
 21
143.150009
 31
0.0
210
0.0
220
0.0
230
1.0
  0
LINE
  5
463
100
AcDbEntity
  8
0
370
    35
390
0
 62
     7
 48
0.085
100
AcDbLine
 10
337.147034
 20
143.150009
 30
0.0
 11
333.74704
 21
143.150009
 31
0.0
210
0.0
220
0.0
230
1.0
  0
LINE
  5
464
100
AcDbEntity
  8
0
370
    35
390
0
 62
     7
 48
0.003751
100
AcDbLine
 10
257.74707
 20
231.700012
 30
0.0
 11
257.74707
 21
231.549988
 31
0.0
210
0.0
220
0.0
230
1.0
  0
LINE
  5
465
100
AcDbEntity
  8
0
370
    35
390
0
 62
     7
 48
0.003751
100
AcDbLine
 10
259.947052
 20
231.700012
 30
0.0
 11
259.947052
 21
231.549988
 31
0.0
210
0.0
220
0.0
230
1.0
  0
LINE
  5
466
100
AcDbEntity
  8
0
370
    35
390
0
 62
     7
 48
0.003751
100
AcDbLine
 10
262.147064
 20
231.700012
 30
0.0
 11
262.147064
 21
231.549988
 31
0.0
210
0.0
220
0.0
230
1.0
  0
LINE
  5
467
100
AcDbEntity
  8
0
370
    35
390
0
 62
     7
 48
0.07839
100
AcDbLine
 10
257.74707
 20
227.149994
 30
0.0
 11
257.74707
 21
224.014404
 31
0.0
210
0.0
220
0.0
230
1.0
  0
LINE
  5
468
100
AcDbEntity
  8
0
370
    35
390
0
 62
     7
 48
0.014423
100
AcDbLine
 10
257.74707
 20
224.014404
 30
0.0
 11
257.74707
 21
223.4375
 31
0.0
210
0.0
220
0.0
230
1.0
  0
LINE
  5
469
100
AcDbEntity
  8
0
370
    35
390
0
 62
     7
 48
0.014231
100
AcDbLine
 10
258.74707
 20
223.5
 30
0.0
 11
258.74707
 21
224.069244
 31
0.0
210
0.0
220
0.0
230
1.0
  0
LINE
  5
46A
100
AcDbEntity
  8
0
370
    35
390
0
 62
     7
 48
0.077019
100
AcDbLine
 10
258.74707
 20
224.069244
 30
0.0
 11
258.74707
 21
227.149994
 31
0.0
210
0.0
220
0.0
230
1.0
  0
LINE
  5
46B
100
AcDbEntity
  8
0
370
    35
390
0
 62
     7
 48
0.075373
100
AcDbLine
 10
259.947052
 20
227.149994
 30
0.0
 11
259.947052
 21
224.135071
 31
0.0
210
0.0
220
0.0
230
1.0
  0
LINE
  5
46C
100
AcDbEntity
  8
0
370
    35
390
0
 62
     7
 48
0.014001
100
AcDbLine
 10
259.947052
 20
224.135071
 30
0.0
 11
259.947052
 21
223.575012
 31
0.0
210
0.0
220
0.0
230
1.0
  0
LINE
  5
46D
100
AcDbEntity
  8
0
370
    35
390
0
 62
     7
 48
0.01381
100
AcDbLine
 10
260.947052
 20
223.637512
 30
0.0
 11
260.947052
 21
224.189911
 31
0.0
210
0.0
220
0.0
230
1.0
  0
LINE
  5
46E
100
AcDbEntity
  8
0
370
    35
390
0
 62
     7
 48
0.074002
100
AcDbLine
 10
260.947052
 20
224.189911
 30
0.0
 11
260.947052
 21
227.149994
 31
0.0
210
0.0
220
0.0
230
1.0
  0
LINE
  5
46F
100
AcDbEntity
  8
0
370
    35
390
0
 62
     7
 48
0.072356
100
AcDbLine
 10
262.147064
 20
227.149994
 30
0.0
 11
262.147064
 21
224.255737
 31
0.0
210
0.0
220
0.0
230
1.0
  0
LINE
  5
470
100
AcDbEntity
  8
0
370
    35
390
0
 62
     7
 48
0.013581
100
AcDbLine
 10
262.147064
 20
224.255737
 30
0.0
 11
262.147064
 21
223.712494
 31
0.0
210
0.0
220
0.0
230
1.0
  0
LINE
  5
471
100
AcDbEntity
  8
0
370
    35
390
0
 62
     7
 48
0.01339
100
AcDbLine
 10
263.147064
 20
223.774994
 30
0.0
 11
263.147064
 21
224.310577
 31
0.0
210
0.0
220
0.0
230
1.0
  0
LINE
  5
472
100
AcDbEntity
  8
0
370
    35
390
0
 62
     7
 48
0.070985
100
AcDbLine
 10
263.147064
 20
224.310577
 30
0.0
 11
263.147064
 21
227.149994
 31
0.0
210
0.0
220
0.0
230
1.0
  0
LINE
  5
473
100
AcDbEntity
  8
0
370
    35
390
0
 62
     7
 48
0.013007
100
AcDbLine
 10
265.147064
 20
224.420288
 30
0.0
 11
265.147064
 21
223.899994
 31
0.0
210
0.0
220
0.0
230
1.0
  0
LINE
  5
474
100
AcDbEntity
  8
0
370
    35
390
0
 62
     7
 48
0.199493
100
AcDbLine
 10
265.147064
 20
232.399994
 30
0.0
 11
265.147064
 21
224.420288
 31
0.0
210
0.0
220
0.0
230
1.0
  0
LINE
  5
475
100
AcDbEntity
  8
0
370
    35
390
0
 62
     7
 48
0.084375
100
AcDbLine
 10
263.147064
 20
229.149994
 30
0.0
 11
263.147064
 21
232.524994
 31
0.0
210
0.0
220
0.0
230
1.0
  0
LINE
  5
476
100
AcDbEntity
  8
0
370
    35
390
0
 62
     7
 48
0.085938
100
AcDbLine
 10
262.147064
 20
232.587494
 30
0.0
 11
262.147064
 21
229.149994
 31
0.0
210
0.0
220
0.0
230
1.0
  0
LINE
  5
477
100
AcDbEntity
  8
0
370
    35
390
0
 62
     7
 48
0.087813
100
AcDbLine
 10
260.947052
 20
229.149994
 30
0.0
 11
260.947052
 21
232.662506
 31
0.0
210
0.0
220
0.0
230
1.0
  0
LINE
  5
478
100
AcDbEntity
  8
0
370
    35
390
0
 62
     7
 48
0.089375
100
AcDbLine
 10
259.947052
 20
232.725006
 30
0.0
 11
259.947052
 21
229.149994
 31
0.0
210
0.0
220
0.0
230
1.0
  0
LINE
  5
479
100
AcDbEntity
  8
0
370
    35
390
0
 62
     7
 48
0.09125
100
AcDbLine
 10
258.74707
 20
229.149994
 30
0.0
 11
258.74707
 21
232.800003
 31
0.0
210
0.0
220
0.0
230
1.0
  0
LINE
  5
47A
100
AcDbEntity
  8
0
370
    35
390
0
 62
     7
 48
0.092813
100
AcDbLine
 10
257.74707
 20
232.862503
 30
0.0
 11
257.74707
 21
229.149994
 31
0.0
210
0.0
220
0.0
230
1.0
  0
LINE
  5
47B
100
AcDbEntity
  8
0
370
    35
390
0
 62
     7
 48
0.025
100
AcDbLine
 10
258.74707
 20
227.149994
 30
0.0
 11
257.74707
 21
227.149994
 31
0.0
210
0.0
220
0.0
230
1.0
  0
LINE
  5
47C
100
AcDbEntity
  8
0
370
    35
390
0
 62
     7
 48
0.025
100
AcDbLine
 10
258.74707
 20
229.149994
 30
0.0
 11
257.74707
 21
229.149994
 31
0.0
210
0.0
220
0.0
230
1.0
  0
LINE
  5
47D
100
AcDbEntity
  8
0
370
    35
390
0
 62
     7
 48
0.025
100
AcDbLine
 10
260.947052
 20
229.149994
 30
0.0
 11
259.947052
 21
229.149994
 31
0.0
210
0.0
220
0.0
230
1.0
  0
LINE
  5
47E
100
AcDbEntity
  8
0
370
    35
390
0
 62
     7
 48
0.025
100
AcDbLine
 10
263.147064
 20
229.149994
 30
0.0
 11
262.147064
 21
229.149994
 31
0.0
210
0.0
220
0.0
230
1.0
  0
LINE
  5
47F
100
AcDbEntity
  8
0
370
    35
390
0
 62
     7
 48
0.025
100
AcDbLine
 10
263.147064
 20
227.149994
 30
0.0
 11
262.147064
 21
227.149994
 31
0.0
210
0.0
220
0.0
230
1.0
  0
LINE
  5
480
100
AcDbEntity
  8
0
370
    35
390
0
 62
     7
 48
0.025
100
AcDbLine
 10
260.947052
 20
227.149994
 30
0.0
 11
259.947052
 21
227.149994
 31
0.0
210
0.0
220
0.0
230
1.0
  0
LINE
  5
481
100
AcDbEntity
  8
0
370
    35
390
0
 62
     7
 48
0.234698
100
AcDbLine
 10
253.147064
 20
233.149994
 30
0.0
 11
253.147064
 21
223.762085
 31
0.0
210
0.0
220
0.0
230
1.0
  0
LINE
  5
482
100
AcDbEntity
  8
0
370
    35
390
0
 62
     7
 48
0.015302
100
AcDbLine
 10
253.147064
 20
223.762085
 30
0.0
 11
253.147064
 21
223.149994
 31
0.0
210
0.0
220
0.0
230
1.0
  0
LINE
  5
483
100
AcDbEntity
  8
0
370
    35
390
0
 62
     7
 48
0.24878
100
AcDbLine
 10
252.147064
 20
233.450012
 30
0.0
 11
252.147064
 21
223.49881
 31
0.0
210
0.0
220
0.0
230
1.0
  0
LINE
  5
484
100
AcDbEntity
  8
0
370
    35
390
0
 62
     7
 48
0.01622
100
AcDbLine
 10
252.147064
 20
223.49881
 30
0.0
 11
252.147064
 21
222.850006
 31
0.0
210
0.0
220
0.0
230
1.0
  0
LINE
  5
485
100
AcDbEntity
  8
0
370
    35
390
0
 62
     7
 48
0.218215
100
AcDbLine
 10
247.147064
 20
230.978607
 30
0.0
 11
247.147064
 21
222.25
 31
0.0
210
0.0
220
0.0
230
1.0
  0
LINE
  5
486
100
AcDbEntity
  8
0
370
    35
390
0
 62
     7
 48
0.076785
100
AcDbLine
 10
247.147064
 20
234.050003
 30
0.0
 11
247.147064
 21
230.978607
 31
0.0
210
0.0
220
0.0
230
1.0
  0
LINE
  5
487
100
AcDbEntity
  8
0
370
    35
390
0
 62
     7
 48
0.027486
100
AcDbLine
 10
246.915894
 20
231.17038
 30
0.0
 11
246.915894
 21
230.070938
 31
0.0
210
0.0
220
0.0
230
1.0
  0
ARC
  5
488
100
AcDbEntity
  8
0
370
    35
390
0
 62
     7
100
AcDbCircle
 10
236.589569
 20
228.150009
 30
0.0
 40
10.504192
210
0.0
220
0.0
230
1.0
100
AcDbArc
 50
349.462094
 51
10.537886
  0
LINE
  5
489
100
AcDbEntity
  8
0
370
    35
390
0
 62
     7
 48
0.057869
100
AcDbLine
 10
246.915894
 20
226.229065
 30
0.0
 11
246.915894
 21
223.914322
 31
0.0
210
0.0
220
0.0
230
1.0
  0
ARC
  5
48A
100
AcDbEntity
  8
0
370
    35
390
0
 62
     7
100
AcDbCircle
 10
244.401459
 20
222.953857
 30
0.0
 40
2.691781
210
0.0
220
0.0
230
1.0
100
AcDbArc
 50
339.093949
 51
20.906017
  0
LINE
  5
48B
100
AcDbEntity
  8
0
370
    35
390
0
 62
     7
 48
0.003584
100
AcDbLine
 10
246.915894
 20
221.993378
 30
0.0
 11
246.915894
 21
221.850006
 31
0.0
210
0.0
220
0.0
230
1.0
  0
LINE
  5
48C
100
AcDbEntity
  8
0
370
    35
390
0
 62
     7
 48
0.003585
100
AcDbLine
 10
246.915894
 20
234.450012
 30
0.0
 11
246.915894
 21
234.306625
 31
0.0
210
0.0
220
0.0
230
1.0
  0
ARC
  5
48D
100
AcDbEntity
  8
0
370
    35
390
0
 62
     7
100
AcDbCircle
 10
244.401459
 20
233.346161
 30
0.0
 40
2.691781
210
0.0
220
0.0
230
1.0
100
AcDbArc
 50
339.093949
 51
20.906017
  0
LINE
  5
48E
100
AcDbEntity
  8
0
370
    35
390
0
 62
     7
 48
0.030383
100
AcDbLine
 10
246.915894
 20
231.17038
 30
0.0
 11
246.915894
 21
232.385681
 31
0.0
210
0.0
220
0.0
230
1.0
  0
LINE
  5
48F
100
AcDbEntity
  8
0
370
    35
390
0
 62
     7
 48
0.169221
100
AcDbLine
 10
246.915894
 20
232.385681
 30
0.0
 11
240.147064
 21
232.385681
 31
0.0
210
0.0
220
0.0
230
1.0
  0
LINE
  5
490
100
AcDbEntity
  8
0
370
    35
390
0
 62
     7
 48
0.057869
100
AcDbLine
 10
240.147064
 20
232.385681
 30
0.0
 11
240.147064
 21
230.070938
 31
0.0
210
0.0
220
0.0
230
1.0
  0
LINE
  5
491
100
AcDbEntity
  8
0
370
    35
390
0
 62
     7
 48
0.169221
100
AcDbLine
 10
246.915894
 20
230.070938
 30
0.0
 11
240.147064
 21
230.070938
 31
0.0
210
0.0
220
0.0
230
1.0
  0
LINE
  5
492
100
AcDbEntity
  8
0
370
    35
390
0
 62
     7
 48
0.169221
100
AcDbLine
 10
240.147064
 20
226.229065
 30
0.0
 11
246.915894
 21
226.229065
 31
0.0
210
0.0
220
0.0
230
1.0
  0
LINE
  5
493
100
AcDbEntity
  8
0
370
    35
390
0
 62
     7
 48
0.057869
100
AcDbLine
 10
240.147064
 20
226.229065
 30
0.0
 11
240.147064
 21
223.914322
 31
0.0
210
0.0
220
0.0
230
1.0
  0
LINE
  5
494
100
AcDbEntity
  8
0
370
    35
390
0
 62
     7
 48
0.169221
100
AcDbLine
 10
246.915894
 20
223.914322
 30
0.0
 11
240.147064
 21
223.914322
 31
0.0
210
0.0
220
0.0
230
1.0
  0
LINE
  5
495
100
AcDbEntity
  8
0
370
    35
390
0
 62
     7
 48
0.169221
100
AcDbLine
 10
240.147064
 20
221.993378
 30
0.0
 11
246.915894
 21
221.993378
 31
0.0
210
0.0
220
0.0
230
1.0
  0
LINE
  5
496
100
AcDbEntity
  8
0
370
    35
390
0
 62
     7
 48
0.003584
100
AcDbLine
 10
240.147064
 20
221.993378
 30
0.0
 11
240.147064
 21
221.850006
 31
0.0
210
0.0
220
0.0
230
1.0
  0
LINE
  5
497
100
AcDbEntity
  8
0
370
    35
390
0
 62
     7
 48
0.003585
100
AcDbLine
 10
240.147064
 20
234.450012
 30
0.0
 11
240.147064
 21
234.306625
 31
0.0
210
0.0
220
0.0
230
1.0
  0
LINE
  5
498
100
AcDbEntity
  8
0
370
    35
390
0
 62
     7
 48
0.169221
100
AcDbLine
 10
246.915894
 20
234.306625
 30
0.0
 11
240.147064
 21
234.306625
 31
0.0
210
0.0
220
0.0
230
1.0
  0
LINE
  5
499
100
AcDbEntity
  8
0
370
    35
390
0
 62
     7
 48
0.064212
100
AcDbLine
 10
239.647064
 20
232.752411
 30
0.0
 11
239.647064
 21
230.183929
 31
0.0
210
0.0
220
0.0
230
1.0
  0
LINE
  5
49A
100
AcDbEntity
  8
0
370
    35
390
0
 62
     7
 48
0.016061
100
AcDbLine
 10
240.147064
 20
229.780563
 30
0.0
 11
239.647064
 21
230.183929
 31
0.0
210
0.0
220
0.0
230
1.0
  0
LINE
  5
49B
100
AcDbEntity
  8
0
370
    35
390
0
 62
     7
 48
0.007259
100
AcDbLine
 10
240.147064
 20
229.780563
 30
0.0
 11
240.147064
 21
230.070938
 31
0.0
210
0.0
220
0.0
230
1.0
  0
LINE
  5
49C
100
AcDbEntity
  8
0
370
    35
390
0
 62
     7
 48
0.005477
100
AcDbLine
 10
240.147064
 20
232.385681
 30
0.0
 11
240.147064
 21
232.604767
 31
0.0
210
0.0
220
0.0
230
1.0
  0
LINE
  5
49D
100
AcDbEntity
  8
0
370
    35
390
0
 62
     7
 48
0.013034
100
AcDbLine
 10
240.147064
 20
232.604767
 30
0.0
 11
239.647064
 21
232.752411
 31
0.0
210
0.0
220
0.0
230
1.0
  0
LINE
  5
49E
100
AcDbEntity
  8
0
370
    35
390
0
 62
     7
 48
0.081528
100
AcDbLine
 10
240.147064
 20
226.51944
 30
0.0
 11
240.147064
 21
229.780563
 31
0.0
210
0.0
220
0.0
230
1.0
  0
LINE
  5
49F
100
AcDbEntity
  8
0
370
    35
390
0
 62
     7
 48
0.007259
100
AcDbLine
 10
240.147064
 20
226.229065
 30
0.0
 11
240.147064
 21
226.51944
 31
0.0
210
0.0
220
0.0
230
1.0
  0
LINE
  5
4A0
100
AcDbEntity
  8
0
370
    35
390
0
 62
     7
 48
0.01606
100
AcDbLine
 10
240.147064
 20
226.51944
 30
0.0
 11
239.647064
 21
226.116089
 31
0.0
210
0.0
220
0.0
230
1.0
  0
LINE
  5
4A1
100
AcDbEntity
  8
0
370
    35
390
0
 62
     7
 48
0.064212
100
AcDbLine
 10
239.647064
 20
226.116089
 30
0.0
 11
239.647064
 21
223.547592
 31
0.0
210
0.0
220
0.0
230
1.0
  0
LINE
  5
4A2
100
AcDbEntity
  8
0
370
    35
390
0
 62
     7
 48
0.013033
100
AcDbLine
 10
240.147064
 20
223.695221
 30
0.0
 11
239.647064
 21
223.547592
 31
0.0
210
0.0
220
0.0
230
1.0
  0
LINE
  5
4A3
100
AcDbEntity
  8
0
370
    35
390
0
 62
     7
 48
0.005478
100
AcDbLine
 10
240.147064
 20
223.695221
 30
0.0
 11
240.147064
 21
223.914322
 31
0.0
210
0.0
220
0.0
230
1.0
  0
LINE
  5
4A4
100
AcDbEntity
  8
0
370
    35
390
0
 62
     7
 48
0.040764
100
AcDbLine
 10
240.147064
 20
222.064667
 30
0.0
 11
240.147064
 21
223.695221
 31
0.0
210
0.0
220
0.0
230
1.0
  0
LINE
  5
4A5
100
AcDbEntity
  8
0
370
    35
390
0
 62
     7
 48
0.001782
100
AcDbLine
 10
240.147064
 20
221.993378
 30
0.0
 11
240.147064
 21
222.064667
 31
0.0
210
0.0
220
0.0
230
1.0
  0
ARC
  5
4A6
100
AcDbEntity
  8
0
370
    35
390
0
 62
     7
100
AcDbCircle
 10
191.836304
 20
265.4039
 30
0.0
 40
64.901611
210
0.0
220
0.0
230
1.0
100
AcDbArc
 50
317.448096
 51
318.104941
  0
LINE
  5
4A7
100
AcDbEntity
  8
0
370
    35
390
0
 62
     7
 48
0.004092
100
AcDbLine
 10
239.647064
 20
221.513672
 30
0.0
 11
239.647064
 21
221.350006
 31
0.0
210
0.0
220
0.0
230
1.0
  0
LINE
  5
4A8
100
AcDbEntity
  8
0
370
    35
390
0
 62
     7
 48
0.001782
100
AcDbLine
 10
240.147064
 20
234.235336
 30
0.0
 11
240.147064
 21
234.306625
 31
0.0
210
0.0
220
0.0
230
1.0
  0
LINE
  5
4A9
100
AcDbEntity
  8
0
370
    35
390
0
 62
     7
 48
0.004092
100
AcDbLine
 10
239.647064
 20
234.950012
 30
0.0
 11
239.647064
 21
234.786346
 31
0.0
210
0.0
220
0.0
230
1.0
  0
ARC
  5
4AA
100
AcDbEntity
  8
0
370
    35
390
0
 62
     7
100
AcDbCircle
 10
191.836304
 20
190.896103
 30
0.0
 40
64.901611
210
0.0
220
0.0
230
1.0
100
AcDbArc
 50
41.895052
 51
42.551911
  0
LINE
  5
4AB
100
AcDbEntity
  8
0
370
    35
390
0
 62
     7
 48
0.040764
100
AcDbLine
 10
240.147064
 20
232.604767
 30
0.0
 11
240.147064
 21
234.235336
 31
0.0
210
0.0
220
0.0
230
1.0
  0
LINE
  5
4AC
100
AcDbEntity
  8
0
370
    35
390
0
 62
     7
 48
0.064212
100
AcDbLine
 10
230.647064
 20
232.752411
 30
0.0
 11
230.647064
 21
230.183929
 31
0.0
210
0.0
220
0.0
230
1.0
  0
LINE
  5
4AD
100
AcDbEntity
  8
0
370
    35
390
0
 62
     7
 48
0.225
100
AcDbLine
 10
239.647064
 20
230.183929
 30
0.0
 11
230.647064
 21
230.183929
 31
0.0
210
0.0
220
0.0
230
1.0
  0
LINE
  5
4AE
100
AcDbEntity
  8
0
370
    35
390
0
 62
     7
 48
0.225
100
AcDbLine
 10
239.647064
 20
232.752411
 30
0.0
 11
230.647064
 21
232.752411
 31
0.0
210
0.0
220
0.0
230
1.0
  0
LINE
  5
4AF
100
AcDbEntity
  8
0
370
    35
390
0
 62
     7
 48
0.016061
100
AcDbLine
 10
230.147064
 20
229.780563
 30
0.0
 11
230.647064
 21
230.183929
 31
0.0
210
0.0
220
0.0
230
1.0
  0
LINE
  5
4B0
100
AcDbEntity
  8
0
370
    35
390
0
 62
     7
 48
0.25
100
AcDbLine
 10
240.147064
 20
229.780563
 30
0.0
 11
230.147064
 21
229.780563
 31
0.0
210
0.0
220
0.0
230
1.0
  0
LINE
  5
4B1
100
AcDbEntity
  8
0
370
    35
390
0
 62
     7
 48
0.013034
100
AcDbLine
 10
230.147064
 20
232.604767
 30
0.0
 11
230.647064
 21
232.752411
 31
0.0
210
0.0
220
0.0
230
1.0
  0
LINE
  5
4B2
100
AcDbEntity
  8
0
370
    35
390
0
 62
     7
 48
0.25
100
AcDbLine
 10
240.147064
 20
234.235336
 30
0.0
 11
230.147064
 21
234.235336
 31
0.0
210
0.0
220
0.0
230
1.0
  0
LINE
  5
4B3
100
AcDbEntity
  8
0
370
    35
390
0
 62
     7
 48
0.005367
100
AcDbLine
 10
230.147064
 20
234.450012
 30
0.0
 11
230.147064
 21
234.235336
 31
0.0
210
0.0
220
0.0
230
1.0
  0
LINE
  5
4B4
100
AcDbEntity
  8
0
370
    35
390
0
 62
     7
 48
0.005367
100
AcDbLine
 10
230.147064
 20
222.064667
 30
0.0
 11
230.147064
 21
221.850006
 31
0.0
210
0.0
220
0.0
230
1.0
  0
LINE
  5
4B5
100
AcDbEntity
  8
0
370
    35
390
0
 62
     7
 48
0.25
100
AcDbLine
 10
240.147064
 20
222.064667
 30
0.0
 11
230.147064
 21
222.064667
 31
0.0
210
0.0
220
0.0
230
1.0
  0
LINE
  5
4B6
100
AcDbEntity
  8
0
370
    35
390
0
 62
     7
 48
0.070605
100
AcDbLine
 10
230.147064
 20
226.51944
 30
0.0
 11
230.147064
 21
223.695221
 31
0.0
210
0.0
220
0.0
230
1.0
  0
LINE
  5
4B7
100
AcDbEntity
  8
0
370
    35
390
0
 62
     7
 48
0.25
100
AcDbLine
 10
240.147064
 20
226.51944
 30
0.0
 11
230.147064
 21
226.51944
 31
0.0
210
0.0
220
0.0
230
1.0
  0
LINE
  5
4B8
100
AcDbEntity
  8
0
370
    35
390
0
 62
     7
 48
0.070605
100
AcDbLine
 10
230.147064
 20
232.604767
 30
0.0
 11
230.147064
 21
229.780563
 31
0.0
210
0.0
220
0.0
230
1.0
  0
LINE
  5
4B9
100
AcDbEntity
  8
0
370
    35
390
0
 62
     7
 48
0.01606
100
AcDbLine
 10
230.147064
 20
226.51944
 30
0.0
 11
230.647064
 21
226.116089
 31
0.0
210
0.0
220
0.0
230
1.0
  0
LINE
  5
4BA
100
AcDbEntity
  8
0
370
    35
390
0
 62
     7
 48
0.225
100
AcDbLine
 10
239.647064
 20
226.116089
 30
0.0
 11
230.647064
 21
226.116089
 31
0.0
210
0.0
220
0.0
230
1.0
  0
LINE
  5
4BB
100
AcDbEntity
  8
0
370
    35
390
0
 62
     7
 48
0.064212
100
AcDbLine
 10
230.647064
 20
226.116089
 30
0.0
 11
230.647064
 21
223.547592
 31
0.0
210
0.0
220
0.0
230
1.0
  0
LINE
  5
4BC
100
AcDbEntity
  8
0
370
    35
390
0
 62
     7
 48
0.225
100
AcDbLine
 10
239.647064
 20
223.547592
 30
0.0
 11
230.647064
 21
223.547592
 31
0.0
210
0.0
220
0.0
230
1.0
  0
LINE
  5
4BD
100
AcDbEntity
  8
0
370
    35
390
0
 62
     7
 48
0.013033
100
AcDbLine
 10
230.147064
 20
223.695221
 30
0.0
 11
230.647064
 21
223.547592
 31
0.0
210
0.0
220
0.0
230
1.0
  0
ARC
  5
4BE
100
AcDbEntity
  8
0
370
    35
390
0
 62
     7
100
AcDbCircle
 10
278.457794
 20
265.4039
 30
0.0
 40
64.901611
210
0.0
220
0.0
230
1.0
100
AcDbArc
 50
221.89505
 51
222.55191
  0
LINE
  5
4BF
100
AcDbEntity
  8
0
370
    35
390
0
 62
     7
 48
0.225
100
AcDbLine
 10
239.647064
 20
221.513672
 30
0.0
 11
230.647064
 21
221.513672
 31
0.0
210
0.0
220
0.0
230
1.0
  0
LINE
  5
4C0
100
AcDbEntity
  8
0
370
    35
390
0
 62
     7
 48
0.004092
100
AcDbLine
 10
230.647064
 20
221.513672
 30
0.0
 11
230.647064
 21
221.350006
 31
0.0
210
0.0
220
0.0
230
1.0
  0
LINE
  5
4C1
100
AcDbEntity
  8
0
370
    35
390
0
 62
     7
 48
0.004092
100
AcDbLine
 10
230.647064
 20
234.950012
 30
0.0
 11
230.647064
 21
234.786346
 31
0.0
210
0.0
220
0.0
230
1.0
  0
LINE
  5
4C2
100
AcDbEntity
  8
0
370
    35
390
0
 62
     7
 48
0.225
100
AcDbLine
 10
239.647064
 20
234.786346
 30
0.0
 11
230.647064
 21
234.786346
 31
0.0
210
0.0
220
0.0
230
1.0
  0
ARC
  5
4C3
100
AcDbEntity
  8
0
370
    35
390
0
 62
     7
100
AcDbCircle
 10
278.457794
 20
190.896103
 30
0.0
 40
64.901611
210
0.0
220
0.0
230
1.0
100
AcDbArc
 50
137.44809
 51
138.10495
  0
LINE
  5
4C4
100
AcDbEntity
  8
0
370
    35
390
0
 62
     7
 48
0.0075
100
AcDbLine
 10
226.947052
 20
243.149994
 30
0.0
 11
227.24707
 21
243.149994
 31
0.0
210
0.0
220
0.0
230
1.0
  0
LINE
  5
4C5
100
AcDbEntity
  8
0
370
    35
390
0
 62
     7
 48
0.00433
100
AcDbLine
 10
119.783661
 20
222.25
 30
0.0
 11
119.870262
 21
222.100006
 31
0.0
210
0.0
220
0.0
230
1.0
  0
LINE
  5
4C6
100
AcDbEntity
  8
0
370
    35
390
0
 62
     7
 48
0.00433
100
AcDbLine
 10
116.510452
 20
222.25
 30
0.0
 11
116.423851
 21
222.100006
 31
0.0
210
0.0
220
0.0
230
1.0
  0
LINE
  5
4C7
100
AcDbEntity
  8
0
370
    35
390
0
 62
     7
 48
0.00433
100
AcDbLine
 10
205.510437
 20
222.25
 30
0.0
 11
205.423859
 21
222.100006
 31
0.0
210
0.0
220
0.0
230
1.0
  0
LINE
  5
4C8
100
AcDbEntity
  8
0
370
    35
390
0
 62
     7
 48
0.00433
100
AcDbLine
 10
208.783661
 20
222.25
 30
0.0
 11
208.87027
 21
222.100006
 31
0.0
210
0.0
220
0.0
230
1.0
  0
LINE
  5
4C9
100
AcDbEntity
  8
0
370
    35
390
0
 62
     7
 48
0.000906
100
AcDbLine
 10
208.595825
 20
242.575623
 30
0.0
 11
208.621429
 21
242.601242
 31
0.0
210
0.0
220
0.0
230
1.0
  0
POLYLINE
  5
4CA
100
AcDbEntity
  8
0
370
    35
390
0
 62
     7
100
AcDb2dPolyline
 66
     1
 10
0.0
 20
0.0
 30
0.0
 71
    23
  0
VERTEX
  5
4CB
100
AcDbEntity
  8
0
370
     0
390
0
100
AcDbVertex
100
AcDb2dVertex
 10
193.833893
 20
242.582916
 30
0.0
  0
VERTEX
  5
4CC
100
AcDbEntity
  8
0
370
     0
390
0
100
AcDbVertex
100
AcDb2dVertex
 10
193.837097
 20
242.573151
 30
0.0
  0
VERTEX
  5
4CD
100
AcDbEntity
  8
0
370
     0
390
0
100
AcDbVertex
100
AcDb2dVertex
 10
193.844208
 20
242.557007
 30
0.0
  0
VERTEX
  5
4CE
100
AcDbEntity
  8
0
370
     0
390
0
100
AcDbVertex
100
AcDb2dVertex
 10
193.847473
 20
242.550522
 30
0.0
  0
VERTEX
  5
4CF
100
AcDbEntity
  8
0
370
     0
390
0
100
AcDbVertex
100
AcDb2dVertex
 10
193.848145
 20
242.549042
 30
0.0
  0
VERTEX
  5
4D0
100
AcDbEntity
  8
0
370
     0
390
0
100
AcDbVertex
100
AcDb2dVertex
 10
193.830994
 20
242.570557
 30
0.0
  0
VERTEX
  5
4D1
100
AcDbEntity
  8
0
370
     0
390
0
100
AcDbVertex
100
AcDb2dVertex
 10
193.827484
 20
242.575714
 30
0.0
  0
VERTEX
  5
4D2
100
AcDbEntity
  8
0
370
     0
390
0
100
AcDbVertex
100
AcDb2dVertex
 10
193.829285
 20
242.574432
 30
0.0
  0
VERTEX
  5
4D3
100
AcDbEntity
  8
0
370
     0
390
0
100
AcDbVertex
100
AcDb2dVertex
 10
193.838043
 20
242.564194
 30
0.0
  0
VERTEX
  5
4D4
100
AcDbEntity
  8
0
370
     0
390
0
100
AcDbVertex
100
AcDb2dVertex
 10
193.846619
 20
242.552368
 30
0.0
  0
VERTEX
  5
4D5
100
AcDbEntity
  8
0
370
     0
390
0
100
AcDbVertex
100
AcDb2dVertex
 10
193.847382
 20
242.550751
 30
0.0
  0
VERTEX
  5
4D6
100
AcDbEntity
  8
0
370
     0
390
0
100
AcDbVertex
100
AcDb2dVertex
 10
193.84729
 20
242.54953
 30
0.0
  0
VERTEX
  5
4D7
100
AcDbEntity
  8
0
370
     0
390
0
100
AcDbVertex
100
AcDb2dVertex
 10
193.844696
 20
242.550446
 30
0.0
  0
VERTEX
  5
4D8
100
AcDbEntity
  8
0
370
     0
390
0
100
AcDbVertex
100
AcDb2dVertex
 10
193.832855
 20
242.559021
 30
0.0
  0
VERTEX
  5
4D9
100
AcDbEntity
  8
0
370
     0
390
0
100
AcDbVertex
100
AcDb2dVertex
 10
193.822601
 20
242.567749
 30
0.0
  0
VERTEX
  5
4DA
100
AcDbEntity
  8
0
370
     0
390
0
100
AcDbVertex
100
AcDb2dVertex
 10
193.820984
 20
242.569366
 30
0.0
  0
VERTEX
  5
4DB
100
AcDbEntity
  8
0
370
     0
390
0
100
AcDbVertex
100
AcDb2dVertex
 10
193.826508
 20
242.566055
 30
0.0
  0
VERTEX
  5
4DC
100
AcDbEntity
  8
0
370
     0
390
0
100
AcDbVertex
100
AcDb2dVertex
 10
193.847534
 20
242.549744
 30
0.0
  0
VERTEX
  5
4DD
100
AcDbEntity
  8
0
370
     0
390
0
100
AcDbVertex
100
AcDb2dVertex
 10
193.848236
 20
242.548935
 30
0.0
  0
VERTEX
  5
4DE
100
AcDbEntity
  8
0
370
     0
390
0
100
AcDbVertex
100
AcDb2dVertex
 10
193.846527
 20
242.549561
 30
0.0
  0
VERTEX
  5
4DF
100
AcDbEntity
  8
0
370
     0
390
0
100
AcDbVertex
100
AcDb2dVertex
 10
193.840057
 20
242.552856
 30
0.0
  0
VERTEX
  5
4E0
100
AcDbEntity
  8
0
370
     0
390
0
100
AcDbVertex
100
AcDb2dVertex
 10
193.823914
 20
242.559967
 30
0.0
  0
VERTEX
  5
4E1
100
AcDbEntity
  8
0
370
     0
390
0
100
AcDbVertex
100
AcDb2dVertex
 10
193.814148
 20
242.563171
 30
0.0
  0
SEQEND
  5
4E2
100
AcDbEntity
  8
0
370
     0
390
0
  0
POLYLINE
  5
4E3
100
AcDbEntity
  8
0
370
    35
390
0
 62
     7
100
AcDb2dPolyline
 66
     1
 10
0.0
 20
0.0
 30
0.0
 71
    23
  0
VERTEX
  5
4E4
100
AcDbEntity
  8
0
370
     0
390
0
100
AcDbVertex
100
AcDb2dVertex
 10
114.833885
 20
242.582916
 30
0.0
  0
VERTEX
  5
4E5
100
AcDbEntity
  8
0
370
     0
390
0
100
AcDbVertex
100
AcDb2dVertex
 10
114.83709
 20
242.573151
 30
0.0
  0
VERTEX
  5
4E6
100
AcDbEntity
  8
0
370
     0
390
0
100
AcDbVertex
100
AcDb2dVertex
 10
114.844208
 20
242.557007
 30
0.0
  0
VERTEX
  5
4E7
100
AcDbEntity
  8
0
370
     0
390
0
100
AcDbVertex
100
AcDb2dVertex
 10
114.847488
 20
242.550522
 30
0.0
  0
VERTEX
  5
4E8
100
AcDbEntity
  8
0
370
     0
390
0
100
AcDbVertex
100
AcDb2dVertex
 10
114.848129
 20
242.549042
 30
0.0
  0
VERTEX
  5
4E9
100
AcDbEntity
  8
0
370
     0
390
0
100
AcDbVertex
100
AcDb2dVertex
 10
114.831001
 20
242.570557
 30
0.0
  0
VERTEX
  5
4EA
100
AcDbEntity
  8
0
370
     0
390
0
100
AcDbVertex
100
AcDb2dVertex
 10
114.827477
 20
242.575714
 30
0.0
  0
VERTEX
  5
4EB
100
AcDbEntity
  8
0
370
     0
390
0
100
AcDbVertex
100
AcDb2dVertex
 10
114.8293
 20
242.574432
 30
0.0
  0
VERTEX
  5
4EC
100
AcDbEntity
  8
0
370
     0
390
0
100
AcDbVertex
100
AcDb2dVertex
 10
114.838043
 20
242.564194
 30
0.0
  0
VERTEX
  5
4ED
100
AcDbEntity
  8
0
370
     0
390
0
100
AcDbVertex
100
AcDb2dVertex
 10
114.846611
 20
242.552368
 30
0.0
  0
VERTEX
  5
4EE
100
AcDbEntity
  8
0
370
     0
390
0
100
AcDbVertex
100
AcDb2dVertex
 10
114.847389
 20
242.550751
 30
0.0
  0
VERTEX
  5
4EF
100
AcDbEntity
  8
0
370
     0
390
0
100
AcDbVertex
100
AcDb2dVertex
 10
114.847305
 20
242.54953
 30
0.0
  0
VERTEX
  5
4F0
100
AcDbEntity
  8
0
370
     0
390
0
100
AcDbVertex
100
AcDb2dVertex
 10
114.844696
 20
242.550446
 30
0.0
  0
VERTEX
  5
4F1
100
AcDbEntity
  8
0
370
     0
390
0
100
AcDbVertex
100
AcDb2dVertex
 10
114.83287
 20
242.559021
 30
0.0
  0
VERTEX
  5
4F2
100
AcDbEntity
  8
0
370
     0
390
0
100
AcDbVertex
100
AcDb2dVertex
 10
114.822617
 20
242.567749
 30
0.0
  0
VERTEX
  5
4F3
100
AcDbEntity
  8
0
370
     0
390
0
100
AcDbVertex
100
AcDb2dVertex
 10
114.820992
 20
242.569366
 30
0.0
  0
VERTEX
  5
4F4
100
AcDbEntity
  8
0
370
     0
390
0
100
AcDbVertex
100
AcDb2dVertex
 10
114.826508
 20
242.566055
 30
0.0
  0
VERTEX
  5
4F5
100
AcDbEntity
  8
0
370
     0
390
0
100
AcDbVertex
100
AcDb2dVertex
 10
114.847542
 20
242.549744
 30
0.0
  0
VERTEX
  5
4F6
100
AcDbEntity
  8
0
370
     0
390
0
100
AcDbVertex
100
AcDb2dVertex
 10
114.848228
 20
242.548935
 30
0.0
  0
VERTEX
  5
4F7
100
AcDbEntity
  8
0
370
     0
390
0
100
AcDbVertex
100
AcDb2dVertex
 10
114.846535
 20
242.549561
 30
0.0
  0
VERTEX
  5
4F8
100
AcDbEntity
  8
0
370
     0
390
0
100
AcDbVertex
100
AcDb2dVertex
 10
114.840057
 20
242.552856
 30
0.0
  0
VERTEX
  5
4F9
100
AcDbEntity
  8
0
370
     0
390
0
100
AcDbVertex
100
AcDb2dVertex
 10
114.823914
 20
242.559967
 30
0.0
  0
VERTEX
  5
4FA
100
AcDbEntity
  8
0
370
     0
390
0
100
AcDbVertex
100
AcDb2dVertex
 10
114.81414
 20
242.563171
 30
0.0
  0
SEQEND
  5
4FB
100
AcDbEntity
  8
0
370
     0
390
0
  0
LINE
  5
4FC
100
AcDbEntity
  8
0
370
    35
390
0
 62
     7
 48
0.000906
100
AcDbLine
 10
99.595818
 20
242.575623
 30
0.0
 11
99.621437
 21
242.601242
 31
0.0
210
0.0
220
0.0
230
1.0
  0
LINE
  5
4FD
100
AcDbEntity
  8
0
370
    35
390
0
 62
     7
 48
0.00625
100
AcDbLine
 10
119.870262
 20
221.850006
 30
0.0
 11
119.870262
 21
222.100006
 31
0.0
210
0.0
220
0.0
230
1.0
  0
LINE
  5
4FE
100
AcDbEntity
  8
0
370
    35
390
0
 62
     7
 48
0.00625
100
AcDbLine
 10
116.423851
 20
221.850006
 30
0.0
 11
116.423851
 21
222.100006
 31
0.0
210
0.0
220
0.0
230
1.0
  0
LINE
  5
4FF
100
AcDbEntity
  8
0
370
    35
390
0
 62
     7
 48
0.00625
100
AcDbLine
 10
205.423859
 20
222.100006
 30
0.0
 11
205.423859
 21
221.850006
 31
0.0
210
0.0
220
0.0
230
1.0
  0
LINE
  5
500
100
AcDbEntity
  8
0
370
    35
390
0
 62
     7
 48
0.00625
100
AcDbLine
 10
208.87027
 20
222.100006
 30
0.0
 11
208.87027
 21
221.850006
 31
0.0
210
0.0
220
0.0
230
1.0
  0
LINE
  5
501
100
AcDbEntity
  8
0
370
    35
390
0
 62
     7
 48
0.0075
100
AcDbLine
 10
98.047058
 20
243.149994
 30
0.0
 11
98.347054
 21
243.149994
 31
0.0
210
0.0
220
0.0
230
1.0
  0
ARC
  5
502
100
AcDbEntity
  8
0
370
    35
390
0
 62
     7
100
AcDbCircle
 10
262.147064
 20
153.149994
 30
0.0
 40
78.400002
210
0.0
220
0.0
230
1.0
100
AcDbArc
 50
0.000002
 51
87.807034
  0
ARC
  5
503
100
AcDbEntity
  8
0
370
    35
390
0
 62
     7
100
AcDbCircle
 10
262.147003
 20
153.153839
 30
0.0
 40
78.396164
210
0.0
220
0.0
230
1.0
100
AcDbArc
 50
89.269111
 51
89.999968
  0
ARC
  5
504
100
AcDbEntity
  8
0
370
    35
390
0
 62
     7
100
AcDbCircle
 10
262.147064
 20
153.149994
 30
0.0
 40
71.599998
210
0.0
220
0.0
230
1.0
100
AcDbArc
 50
0.000002
 51
87.598651
  0
ARC
  5
505
100
AcDbEntity
  8
0
370
    35
390
0
 62
     7
100
AcDbCircle
 10
262.147003
 20
153.152206
 30
0.0
 40
71.597794
210
0.0
220
0.0
230
1.0
100
AcDbArc
 50
89.199702
 51
89.999962
  0
LINE
  5
506
100
AcDbEntity
  8
0
370
    35
390
0
 62
     7
 48
0.025
100
AcDbLine
 10
260.947052
 20
231.550003
 30
0.0
 11
259.947052
 21
231.550003
 31
0.0
210
0.0
220
0.0
230
1.0
  0
LINE
  5
507
100
AcDbEntity
  8
0
370
    35
390
0
 62
     7
 48
0.025
100
AcDbLine
 10
258.74704
 20
231.550003
 30
0.0
 11
257.74704
 21
231.550003
 31
0.0
210
0.0
220
0.0
230
1.0
  0
LINE
  5
508
100
AcDbEntity
  8
0
370
    35
390
0
 62
     7
 48
0.25
100
AcDbLine
 10
340.547028
 20
143.150009
 30
0.0
 11
340.547028
 21
153.150009
 31
0.0
210
0.0
220
0.0
230
1.0
  0
LINE
  5
509
100
AcDbEntity
  8
0
370
    35
390
0
 62
     7
 48
0.025
100
AcDbLine
 10
260.947052
 20
224.75
 30
0.0
 11
259.947052
 21
224.75
 31
0.0
210
0.0
220
0.0
230
1.0
  0
LINE
  5
50A
100
AcDbEntity
  8
0
370
    35
390
0
 62
     7
 48
0.025
100
AcDbLine
 10
258.74704
 20
224.75
 30
0.0
 11
257.74704
 21
224.75
 31
0.0
210
0.0
220
0.0
230
1.0
  0
LINE
  5
50B
100
AcDbEntity
  8
0
370
    35
390
0
 62
     7
 48
0.25
100
AcDbLine
 10
333.74704
 20
143.150009
 30
0.0
 11
333.74704
 21
153.150009
 31
0.0
210
0.0
220
0.0
230
1.0
  0
LINE
  5
50C
100
AcDbEntity
  8
0
370
    35
390
0
 62
     7
 48
0.050098
100
AcDbLine
 10
265.147064
 20
232.399994
 30
0.0
 11
263.147064
 21
232.524994
 31
0.0
210
0.0
220
0.0
230
1.0
  0
LINE
  5
50D
100
AcDbEntity
  8
0
370
    35
390
0
 62
     7
 48
0.030059
100
AcDbLine
 10
262.147064
 20
232.587494
 30
0.0
 11
260.947052
 21
232.662506
 31
0.0
210
0.0
220
0.0
230
1.0
  0
LINE
  5
50E
100
AcDbEntity
  8
0
370
    35
390
0
 62
     7
 48
0.030058
100
AcDbLine
 10
259.947052
 20
232.725006
 30
0.0
 11
258.74707
 21
232.800003
 31
0.0
210
0.0
220
0.0
230
1.0
  0
LINE
  5
50F
100
AcDbEntity
  8
0
370
    35
390
0
 62
     7
 48
0.115225
100
AcDbLine
 10
257.74707
 20
232.862503
 30
0.0
 11
253.147064
 21
233.149994
 31
0.0
210
0.0
220
0.0
230
1.0
  0
LINE
  5
510
100
AcDbEntity
  8
0
370
    35
390
0
 62
     7
 48
0.050098
100
AcDbLine
 10
265.147064
 20
223.899994
 30
0.0
 11
263.147064
 21
223.774994
 31
0.0
210
0.0
220
0.0
230
1.0
  0
LINE
  5
511
100
AcDbEntity
  8
0
370
    35
390
0
 62
     7
 48
0.030059
100
AcDbLine
 10
262.147064
 20
223.712494
 30
0.0
 11
260.947052
 21
223.637512
 31
0.0
210
0.0
220
0.0
230
1.0
  0
LINE
  5
512
100
AcDbEntity
  8
0
370
    35
390
0
 62
     7
 48
0.030058
100
AcDbLine
 10
259.947052
 20
223.575012
 30
0.0
 11
258.74707
 21
223.5
 31
0.0
210
0.0
220
0.0
230
1.0
  0
LINE
  5
513
100
AcDbEntity
  8
0
370
    35
390
0
 62
     7
 48
0.115225
100
AcDbLine
 10
257.74707
 20
223.4375
 30
0.0
 11
253.147064
 21
223.149994
 31
0.0
210
0.0
220
0.0
230
1.0
  0
LINE
  5
514
100
AcDbEntity
  8
0
370
    35
390
0
 62
     7
 48
0.026101
100
AcDbLine
 10
253.147064
 20
233.149994
 30
0.0
 11
252.147064
 21
233.450012
 31
0.0
210
0.0
220
0.0
230
1.0
  0
LINE
  5
515
100
AcDbEntity
  8
0
370
    35
390
0
 62
     7
 48
0.026101
100
AcDbLine
 10
253.147064
 20
223.149994
 30
0.0
 11
252.147064
 21
222.850006
 31
0.0
210
0.0
220
0.0
230
1.0
  0
LINE
  5
516
100
AcDbEntity
  8
0
370
    35
390
0
 62
     7
 48
0.125
100
AcDbLine
 10
252.147064
 20
223.149994
 30
0.0
 11
247.147064
 21
223.149994
 31
0.0
210
0.0
220
0.0
230
1.0
  0
LINE
  5
517
100
AcDbEntity
  8
0
370
    35
390
0
 62
     7
 48
0.125
100
AcDbLine
 10
252.147064
 20
233.149994
 30
0.0
 11
247.147064
 21
233.149994
 31
0.0
210
0.0
220
0.0
230
1.0
  0
ARC
  5
518
100
AcDbEntity
  8
0
370
    35
390
0
 62
     7
100
AcDbCircle
 10
241.840454
 20
225.050003
 30
0.0
 40
6.000002
210
0.0
220
0.0
230
1.0
100
AcDbArc
 50
327.769058
 51
332.181852
  0
ARC
  5
519
100
AcDbEntity
  8
0
370
    35
390
0
 62
     7
100
AcDbCircle
 10
241.840454
 20
231.25
 30
0.0
 40
6.000002
210
0.0
220
0.0
230
1.0
100
AcDbArc
 50
27.81814
 51
32.230949
  0
LINE
  5
51A
100
AcDbEntity
  8
0
370
    35
390
0
 62
     7
 48
0.169221
100
AcDbLine
 10
246.915894
 20
221.850006
 30
0.0
 11
240.147064
 21
221.850006
 31
0.0
210
0.0
220
0.0
230
1.0
  0
LINE
  5
51B
100
AcDbEntity
  8
0
370
    35
390
0
 62
     7
 48
0.169221
100
AcDbLine
 10
246.915894
 20
234.450012
 30
0.0
 11
240.147064
 21
234.450012
 31
0.0
210
0.0
220
0.0
230
1.0
  0
LINE
  5
51C
100
AcDbEntity
  8
0
370
    35
390
0
 62
     7
 48
0.017678
100
AcDbLine
 10
240.147064
 20
221.850006
 30
0.0
 11
239.647064
 21
221.350006
 31
0.0
210
0.0
220
0.0
230
1.0
  0
LINE
  5
51D
100
AcDbEntity
  8
0
370
    35
390
0
 62
     7
 48
0.017678
100
AcDbLine
 10
240.147064
 20
234.450012
 30
0.0
 11
239.647064
 21
234.950012
 31
0.0
210
0.0
220
0.0
230
1.0
  0
LINE
  5
51E
100
AcDbEntity
  8
0
370
    35
390
0
 62
     7
 48
0.025
100
AcDbLine
 10
230.147064
 20
221.850006
 30
0.0
 11
229.147064
 21
221.850006
 31
0.0
210
0.0
220
0.0
230
1.0
  0
LINE
  5
51F
100
AcDbEntity
  8
0
370
    35
390
0
 62
     7
 48
0.025
100
AcDbLine
 10
230.147064
 20
234.450012
 30
0.0
 11
229.147064
 21
234.450012
 31
0.0
210
0.0
220
0.0
230
1.0
  0
LINE
  5
520
100
AcDbEntity
  8
0
370
    35
390
0
 62
     7
 48
0.225
100
AcDbLine
 10
239.647064
 20
221.350006
 30
0.0
 11
230.647064
 21
221.350006
 31
0.0
210
0.0
220
0.0
230
1.0
  0
LINE
  5
521
100
AcDbEntity
  8
0
370
    35
390
0
 62
     7
 48
0.225
100
AcDbLine
 10
239.647064
 20
234.950012
 30
0.0
 11
230.647064
 21
234.950012
 31
0.0
210
0.0
220
0.0
230
1.0
  0
LINE
  5
522
100
AcDbEntity
  8
0
370
    35
390
0
 62
     7
 48
0.017678
100
AcDbLine
 10
230.147064
 20
234.450012
 30
0.0
 11
230.647064
 21
234.950012
 31
0.0
210
0.0
220
0.0
230
1.0
  0
LINE
  5
523
100
AcDbEntity
  8
0
370
    35
390
0
 62
     7
 48
0.017678
100
AcDbLine
 10
230.147064
 20
221.850006
 30
0.0
 11
230.647064
 21
221.350006
 31
0.0
210
0.0
220
0.0
230
1.0
  0
LINE
  5
524
100
AcDbEntity
  8
0
370
    35
390
0
 62
     7
 48
0.3275
100
AcDbLine
 10
59.952957
 20
245.850006
 30
0.0
 11
59.952957
 21
258.950012
 31
0.0
210
0.0
220
0.0
230
1.0
  0
ARC
  5
525
100
AcDbEntity
  8
0
370
    35
390
0
 62
     7
100
AcDbCircle
 10
59.152958
 20
245.850006
 30
0.0
 40
0.8
210
0.0
220
0.0
230
1.0
100
AcDbArc
 50
269.999997
 51
360.0
  0
LINE
  5
526
100
AcDbEntity
  8
0
370
    35
390
0
 62
     7
 48
0.004571
100
AcDbLine
 10
59.823669
 20
259.079285
 30
0.0
 11
59.952957
 21
258.950012
 31
0.0
210
0.0
220
0.0
230
1.0
  0
ARC
  5
527
100
AcDbEntity
  8
0
370
    35
390
0
 62
     7
100
AcDbCircle
 10
57.952957
 20
245.850006
 30
0.0
 40
0.8
210
0.0
220
0.0
230
1.0
100
AcDbArc
 50
241.044838
 51
269.999997
  0
LINE
  5
528
100
AcDbEntity
  8
0
370
    35
390
0
 62
     7
 48
0.03
100
AcDbLine
 10
59.152958
 20
245.050003
 30
0.0
 11
57.952957
 21
245.050003
 31
0.0
210
0.0
220
0.0
230
1.0
  0
ARC
  5
529
100
AcDbEntity
  8
0
370
    35
390
0
 62
     7
100
AcDbCircle
 10
59.894379
 20
259.150024
 30
0.0
 40
0.1
210
0.0
220
0.0
230
1.0
100
AcDbArc
 50
135.0
 51
225.0
  0
LINE
  5
52A
100
AcDbEntity
  8
0
370
    35
390
0
 62
     7
 48
0.004571
100
AcDbLine
 10
59.952957
 20
259.350006
 30
0.0
 11
59.823669
 21
259.220703
 31
0.0
210
0.0
220
0.0
230
1.0
  0
LINE
  5
52B
100
AcDbEntity
  8
0
370
    35
390
0
 62
     7
 48
0.0175
100
AcDbLine
 10
59.952957
 20
259.350006
 30
0.0
 11
59.952957
 21
260.049988
 31
0.0
210
0.0
220
0.0
230
1.0
  0
LINE
  5
52C
100
AcDbEntity
  8
0
370
    35
390
0
 62
     7
 48
0.004571
100
AcDbLine
 10
59.823669
 20
260.179291
 30
0.0
 11
59.952957
 21
260.049988
 31
0.0
210
0.0
220
0.0
230
1.0
  0
ARC
  5
52D
100
AcDbEntity
  8
0
370
    35
390
0
 62
     7
100
AcDbCircle
 10
59.894379
 20
260.25
 30
0.0
 40
0.1
210
0.0
220
0.0
230
1.0
100
AcDbArc
 50
135.0
 51
225.0
  0
LINE
  5
52E
100
AcDbEntity
  8
0
370
    35
390
0
 62
     7
 48
0.004571
100
AcDbLine
 10
59.952957
 20
260.450012
 30
0.0
 11
59.823669
 21
260.320709
 31
0.0
210
0.0
220
0.0
230
1.0
  0
LINE
  5
52F
100
AcDbEntity
  8
0
370
    35
390
0
 62
     7
 48
0.0175
100
AcDbLine
 10
59.952957
 20
260.450012
 30
0.0
 11
59.952957
 21
261.150024
 31
0.0
210
0.0
220
0.0
230
1.0
  0
LINE
  5
530
100
AcDbEntity
  8
0
370
    35
390
0
 62
     7
 48
0.004571
100
AcDbLine
 10
59.823669
 20
261.279297
 30
0.0
 11
59.952957
 21
261.150024
 31
0.0
210
0.0
220
0.0
230
1.0
  0
ARC
  5
531
100
AcDbEntity
  8
0
370
    35
390
0
 62
     7
100
AcDbCircle
 10
59.894379
 20
261.350006
 30
0.0
 40
0.1
210
0.0
220
0.0
230
1.0
100
AcDbArc
 50
135.0
 51
225.0
  0
LINE
  5
532
100
AcDbEntity
  8
0
370
    35
390
0
 62
     7
 48
0.004571
100
AcDbLine
 10
59.952957
 20
261.549988
 30
0.0
 11
59.823669
 21
261.420715
 31
0.0
210
0.0
220
0.0
230
1.0
  0
LINE
  5
533
100
AcDbEntity
  8
0
370
    35
390
0
 62
     7
 48
0.0175
100
AcDbLine
 10
59.952957
 20
261.549988
 30
0.0
 11
59.952957
 21
262.25
 31
0.0
210
0.0
220
0.0
230
1.0
  0
LINE
  5
534
100
AcDbEntity
  8
0
370
    35
390
0
 62
     7
 48
0.004571
100
AcDbLine
 10
59.823669
 20
262.379303
 30
0.0
 11
59.952957
 21
262.25
 31
0.0
210
0.0
220
0.0
230
1.0
  0
ARC
  5
535
100
AcDbEntity
  8
0
370
    35
390
0
 62
     7
100
AcDbCircle
 10
59.894379
 20
262.450012
 30
0.0
 40
0.1
210
0.0
220
0.0
230
1.0
100
AcDbArc
 50
135.0
 51
225.0
  0
LINE
  5
536
100
AcDbEntity
  8
0
370
    35
390
0
 62
     7
 48
0.004571
100
AcDbLine
 10
59.952957
 20
262.650024
 30
0.0
 11
59.823669
 21
262.520721
 31
0.0
210
0.0
220
0.0
230
1.0
  0
LINE
  5
537
100
AcDbEntity
  8
0
370
    35
390
0
 62
     7
 48
0.0175
100
AcDbLine
 10
59.952957
 20
262.650024
 30
0.0
 11
59.952957
 21
263.350006
 31
0.0
210
0.0
220
0.0
230
1.0
  0
LINE
  5
538
100
AcDbEntity
  8
0
370
    35
390
0
 62
     7
 48
0.004571
100
AcDbLine
 10
59.823669
 20
263.479309
 30
0.0
 11
59.952957
 21
263.350006
 31
0.0
210
0.0
220
0.0
230
1.0
  0
ARC
  5
539
100
AcDbEntity
  8
0
370
    35
390
0
 62
     7
100
AcDbCircle
 10
59.894379
 20
263.549988
 30
0.0
 40
0.1
210
0.0
220
0.0
230
1.0
100
AcDbArc
 50
135.0
 51
225.0
  0
LINE
  5
53A
100
AcDbEntity
  8
0
370
    35
390
0
 62
     7
 48
0.004571
100
AcDbLine
 10
59.952957
 20
263.75
 30
0.0
 11
59.823669
 21
263.620728
 31
0.0
210
0.0
220
0.0
230
1.0
  0
LINE
  5
53B
100
AcDbEntity
  8
0
370
    35
390
0
 62
     7
 48
0.0175
100
AcDbLine
 10
59.952957
 20
263.75
 30
0.0
 11
59.952957
 21
264.450012
 31
0.0
210
0.0
220
0.0
230
1.0
  0
LINE
  5
53C
100
AcDbEntity
  8
0
370
    35
390
0
 62
     7
 48
0.004571
100
AcDbLine
 10
59.823669
 20
264.579285
 30
0.0
 11
59.952957
 21
264.450012
 31
0.0
210
0.0
220
0.0
230
1.0
  0
ARC
  5
53D
100
AcDbEntity
  8
0
370
    35
390
0
 62
     7
100
AcDbCircle
 10
59.894379
 20
264.650024
 30
0.0
 40
0.1
210
0.0
220
0.0
230
1.0
100
AcDbArc
 50
135.0
 51
225.0
  0
LINE
  5
53E
100
AcDbEntity
  8
0
370
    35
390
0
 62
     7
 48
0.004571
100
AcDbLine
 10
59.952957
 20
264.850006
 30
0.0
 11
59.823669
 21
264.720703
 31
0.0
210
0.0
220
0.0
230
1.0
  0
LINE
  5
53F
100
AcDbEntity
  8
0
370
    35
390
0
 62
     7
 48
0.0175
100
AcDbLine
 10
59.952957
 20
264.850006
 30
0.0
 11
59.952957
 21
265.549988
 31
0.0
210
0.0
220
0.0
230
1.0
  0
LINE
  5
540
100
AcDbEntity
  8
0
370
    35
390
0
 62
     7
 48
0.004571
100
AcDbLine
 10
59.823669
 20
265.679291
 30
0.0
 11
59.952957
 21
265.549988
 31
0.0
210
0.0
220
0.0
230
1.0
  0
ARC
  5
541
100
AcDbEntity
  8
0
370
    35
390
0
 62
     7
100
AcDbCircle
 10
59.894379
 20
265.75
 30
0.0
 40
0.1
210
0.0
220
0.0
230
1.0
100
AcDbArc
 50
135.0
 51
225.0
  0
LINE
  5
542
100
AcDbEntity
  8
0
370
    35
390
0
 62
     7
 48
0.004571
100
AcDbLine
 10
59.952957
 20
265.950012
 30
0.0
 11
59.823669
 21
265.820709
 31
0.0
210
0.0
220
0.0
230
1.0
  0
LINE
  5
543
100
AcDbEntity
  8
0
370
    35
390
0
 62
     7
 48
0.0175
100
AcDbLine
 10
59.952957
 20
265.950012
 30
0.0
 11
59.952957
 21
266.650024
 31
0.0
210
0.0
220
0.0
230
1.0
  0
LINE
  5
544
100
AcDbEntity
  8
0
370
    35
390
0
 62
     7
 48
0.004571
100
AcDbLine
 10
59.823669
 20
266.779297
 30
0.0
 11
59.952957
 21
266.650024
 31
0.0
210
0.0
220
0.0
230
1.0
  0
ARC
  5
545
100
AcDbEntity
  8
0
370
    35
390
0
 62
     7
100
AcDbCircle
 10
59.894379
 20
266.850006
 30
0.0
 40
0.1
210
0.0
220
0.0
230
1.0
100
AcDbArc
 50
135.0
 51
225.0
  0
LINE
  5
546
100
AcDbEntity
  8
0
370
    35
390
0
 62
     7
 48
0.004571
100
AcDbLine
 10
59.952957
 20
267.049988
 30
0.0
 11
59.823669
 21
266.920715
 31
0.0
210
0.0
220
0.0
230
1.0
  0
LINE
  5
547
100
AcDbEntity
  8
0
370
    35
390
0
 62
     7
 48
0.0175
100
AcDbLine
 10
59.952957
 20
267.049988
 30
0.0
 11
59.952957
 21
267.75
 31
0.0
210
0.0
220
0.0
230
1.0
  0
LINE
  5
548
100
AcDbEntity
  8
0
370
    35
390
0
 62
     7
 48
0.004571
100
AcDbLine
 10
59.823669
 20
267.879303
 30
0.0
 11
59.952957
 21
267.75
 31
0.0
210
0.0
220
0.0
230
1.0
  0
ARC
  5
549
100
AcDbEntity
  8
0
370
    35
390
0
 62
     7
100
AcDbCircle
 10
59.894379
 20
267.950012
 30
0.0
 40
0.1
210
0.0
220
0.0
230
1.0
100
AcDbArc
 50
135.0
 51
225.0
  0
LINE
  5
54A
100
AcDbEntity
  8
0
370
    35
390
0
 62
     7
 48
0.004571
100
AcDbLine
 10
59.952957
 20
268.150024
 30
0.0
 11
59.823669
 21
268.020721
 31
0.0
210
0.0
220
0.0
230
1.0
  0
LINE
  5
54B
100
AcDbEntity
  8
0
370
    35
390
0
 62
     7
 48
0.120606
100
AcDbLine
 10
59.952957
 20
268.150024
 30
0.0
 11
59.952957
 21
272.974274
 31
0.0
210
0.0
220
0.0
230
1.0
  0
LINE
  5
54C
100
AcDbEntity
  8
0
370
    35
390
0
 62
     7
 48
0.017249
100
AcDbLine
 10
59.465092
 20
273.462158
 30
0.0
 11
59.952957
 21
272.974274
 31
0.0
210
0.0
220
0.0
230
1.0
  0
ARC
  5
54D
100
AcDbEntity
  8
0
370
    35
390
0
 62
     7
100
AcDbCircle
 10
59.25296
 20
273.25
 30
0.0
 40
0.3
210
0.0
220
0.0
230
1.0
100
AcDbArc
 50
45.000001
 51
106.874504
  0
LINE
  5
54E
100
AcDbEntity
  8
0
370
    35
390
0
 62
     7
 48
0.005
100
AcDbLine
 10
59.952957
 20
251.050003
 30
0.0
 11
60.152962
 21
251.050003
 31
0.0
210
0.0
220
0.0
230
1.0
  0
LINE
  5
54F
100
AcDbEntity
  8
0
370
    35
390
0
 62
     7
 48
0.0125
100
AcDbLine
 10
60.152962
 20
250.550003
 30
0.0
 11
60.152962
 21
251.050003
 31
0.0
210
0.0
220
0.0
230
1.0
  0
LINE
  5
550
100
AcDbEntity
  8
0
370
    35
390
0
 62
     7
 48
0.1
100
AcDbLine
 10
60.152962
 20
250.550003
 30
0.0
 11
60.152962
 21
246.550003
 31
0.0
210
0.0
220
0.0
230
1.0
  0
LINE
  5
551
100
AcDbEntity
  8
0
370
    35
390
0
 62
     7
 48
0.0125
100
AcDbLine
 10
60.152962
 20
246.050003
 30
0.0
 11
60.152962
 21
246.550003
 31
0.0
210
0.0
220
0.0
230
1.0
  0
LINE
  5
552
100
AcDbEntity
  8
0
370
    35
390
0
 62
     7
 48
0.005
100
AcDbLine
 10
59.952957
 20
246.050003
 30
0.0
 11
60.152962
 21
246.050003
 31
0.0
210
0.0
220
0.0
230
1.0
  0
ARC
  5
553
100
AcDbEntity
  8
0
370
    35
390
0
 62
     7
100
AcDbCircle
 10
55.952957
 20
273.350006
 30
0.0
 40
3.0
210
0.0
220
0.0
230
1.0
100
AcDbArc
 50
8.262821
 51
90.000003
  0
LINE
  5
554
100
AcDbEntity
  8
0
370
    35
390
0
 62
     7
 48
0.003259
100
AcDbLine
 10
60.202957
 20
246.550003
 30
0.0
 11
60.202957
 21
246.680359
 31
0.0
210
0.0
220
0.0
230
1.0
  0
LINE
  5
555
100
AcDbEntity
  8
0
370
    35
390
0
 62
     7
 48
0.0875
100
AcDbLine
 10
60.202957
 20
250.180359
 30
0.0
 11
60.202957
 21
246.680359
 31
0.0
210
0.0
220
0.0
230
1.0
  0
LINE
  5
556
100
AcDbEntity
  8
0
370
    35
390
0
 62
     7
 48
0.00125
100
AcDbLine
 10
60.152962
 20
250.450012
 30
0.0
 11
60.202957
 21
250.450012
 31
0.0
210
0.0
220
0.0
230
1.0
  0
LINE
  5
557
100
AcDbEntity
  8
0
370
    35
390
0
 62
     7
 48
0.006741
100
AcDbLine
 10
60.202957
 20
250.180359
 30
0.0
 11
60.202957
 21
250.450012
 31
0.0
210
0.0
220
0.0
230
1.0
  0
LINE
  5
558
100
AcDbEntity
  8
0
370
    35
390
0
 62
     7
 48
0.029772
100
AcDbLine
 10
59.606514
 20
273.096436
 30
0.0
 11
58.764435
 21
273.938538
 31
0.0
210
0.0
220
0.0
230
1.0
  0
ARC
  5
559
100
AcDbEntity
  8
0
370
    35
390
0
 62
     7
100
AcDbCircle
 10
59.25296
 20
272.74292
 30
0.0
 40
0.5
210
0.0
220
0.0
230
1.0
100
AcDbArc
 50
0.0
 51
45.000001
  0
LINE
  5
55A
100
AcDbEntity
  8
0
370
    35
390
0
 62
     7
100
AcDbLine
 10
59.75296
 20
245.650009
 30
0.0
 11
59.75296
 21
272.74292
 31
0.0
210
0.0
220
0.0
230
1.0
  0
ARC
  5
55B
100
AcDbEntity
  8
0
370
    35
390
0
 62
     7
100
AcDbCircle
 10
59.25296
 20
245.650009
 30
0.0
 40
0.5
210
0.0
220
0.0
230
1.0
100
AcDbArc
 50
269.999997
 51
360.0
  0
LINE
  5
55C
100
AcDbEntity
  8
0
370
    35
390
0
 62
     7
 48
0.39
100
AcDbLine
 10
43.652962
 20
245.150009
 30
0.0
 11
59.25296
 21
245.150009
 31
0.0
210
0.0
220
0.0
230
1.0
  0
ARC
  5
55D
100
AcDbEntity
  8
0
370
    35
390
0
 62
     7
100
AcDbCircle
 10
43.652962
 20
245.650009
 30
0.0
 40
0.5
210
0.0
220
0.0
230
1.0
100
AcDbArc
 50
180.000009
 51
269.999997
  0
LINE
  5
55E
100
AcDbEntity
  8
0
370
    35
390
0
 62
     7
100
AcDbLine
 10
43.152962
 20
272.74292
 30
0.0
 11
43.152962
 21
245.650009
 31
0.0
210
0.0
220
0.0
230
1.0
  0
LINE
  5
55F
100
AcDbEntity
  8
0
370
    35
390
0
 62
     7
 48
0.05
100
AcDbLine
 10
42.352959
 20
255.050003
 30
0.0
 11
42.352959
 21
257.049988
 31
0.0
210
0.0
220
0.0
230
1.0
  0
LINE
  5
560
100
AcDbEntity
  8
0
370
    35
390
0
 62
     7
 48
0.02
100
AcDbLine
 10
42.352959
 20
255.050003
 30
0.0
 11
43.152954
 21
255.050003
 31
0.0
210
0.0
220
0.0
230
1.0
  0
LINE
  5
561
100
AcDbEntity
  8
0
370
    35
390
0
 62
     7
 48
0.225
100
AcDbLine
 10
55.952957
 20
276.350006
 30
0.0
 11
46.952957
 21
276.350006
 31
0.0
210
0.0
220
0.0
230
1.0
  0
ARC
  5
562
100
AcDbEntity
  8
0
370
    35
390
0
 62
     7
100
AcDbCircle
 10
46.952957
 20
273.350006
 30
0.0
 40
3.0
210
0.0
220
0.0
230
1.0
100
AcDbArc
 50
90.000003
 51
171.737184
  0
ARC
  5
563
100
AcDbEntity
  8
0
370
    35
390
0
 62
     7
100
AcDbCircle
 10
58.799793
 20
273.973877
 30
0.0
 40
0.05
210
0.0
220
0.0
230
1.0
100
AcDbArc
 50
189.204208
 51
225.0
  0
ARC
  5
564
100
AcDbEntity
  8
0
370
    35
390
0
 62
     7
100
AcDbCircle
 10
43.652962
 20
272.74292
 30
0.0
 40
0.5
210
0.0
220
0.0
230
1.0
100
AcDbArc
 50
135.0
 51
180.000009
  0
LINE
  5
565
100
AcDbEntity
  8
0
370
    35
390
0
 62
     7
 48
0.369278
100
AcDbLine
 10
42.352959
 20
271.821106
 30
0.0
 11
42.352959
 21
257.049988
 31
0.0
210
0.0
220
0.0
230
1.0
  0
LINE
  5
566
100
AcDbEntity
  8
0
370
    35
390
0
 62
     7
 48
0.001056
100
AcDbLine
 10
42.352959
 20
271.821106
 30
0.0
 11
42.352959
 21
271.863342
 31
0.0
210
0.0
220
0.0
230
1.0
  0
LINE
  5
567
100
AcDbEntity
  8
0
370
    35
390
0
 62
     7
 48
0.112167
100
AcDbLine
 10
42.352959
 20
271.863342
 30
0.0
 11
42.352959
 21
276.350006
 31
0.0
210
0.0
220
0.0
230
1.0
  0
LINE
  5
568
100
AcDbEntity
  8
0
370
    35
390
0
 62
     7
 48
0.0125
100
AcDbLine
 10
42.552959
 20
255.050003
 30
0.0
 11
42.552959
 21
254.550003
 31
0.0
210
0.0
220
0.0
230
1.0
  0
LINE
  5
569
100
AcDbEntity
  8
0
370
    35
390
0
 62
     7
 48
0.015
100
AcDbLine
 10
43.152958
 20
254.550003
 30
0.0
 11
42.552959
 21
254.550003
 31
0.0
210
0.0
220
0.0
230
1.0
  0
LINE
  5
56A
100
AcDbEntity
  8
0
370
    35
390
0
 62
     7
 48
0.2175
100
AcDbLine
 10
42.552959
 20
245.850006
 30
0.0
 11
42.552959
 21
254.550003
 31
0.0
210
0.0
220
0.0
230
1.0
  0
ARC
  5
56B
100
AcDbEntity
  8
0
370
    35
390
0
 62
     7
100
AcDbCircle
 10
43.352959
 20
245.850006
 30
0.0
 40
0.8
210
0.0
220
0.0
230
1.0
100
AcDbArc
 50
180.000009
 51
269.999997
  0
LINE
  5
56C
100
AcDbEntity
  8
0
370
    35
390
0
 62
     7
 48
0.03
100
AcDbLine
 10
43.352959
 20
245.050003
 30
0.0
 11
44.552959
 21
245.050003
 31
0.0
210
0.0
220
0.0
230
1.0
  0
ARC
  5
56D
100
AcDbEntity
  8
0
370
    35
390
0
 62
     7
100
AcDbCircle
 10
44.552959
 20
245.850006
 30
0.0
 40
0.8
210
0.0
220
0.0
230
1.0
100
AcDbArc
 50
269.999997
 51
298.955164
  0
LINE
  5
56E
100
AcDbEntity
  8
0
370
    35
390
0
 62
     7
 48
0.029772
100
AcDbLine
 10
44.141479
 20
273.938538
 30
0.0
 11
43.299408
 21
273.096436
 31
0.0
210
0.0
220
0.0
230
1.0
  0
ARC
  5
56F
100
AcDbEntity
  8
0
370
    35
390
0
 62
     7
100
AcDbCircle
 10
44.106125
 20
273.973877
 30
0.0
 40
0.05
210
0.0
220
0.0
230
1.0
100
AcDbArc
 50
314.999992
 51
350.795784
  0
ARC
  5
570
100
AcDbEntity
  8
0
370
    35
390
0
 62
     7
100
AcDbCircle
 10
46.722004
 20
273.549988
 30
0.0
 40
2.6
210
0.0
220
0.0
230
1.0
100
AcDbArc
 50
90.000003
 51
170.795792
  0
LINE
  5
571
100
AcDbEntity
  8
0
370
    35
390
0
 62
     7
 48
0.236548
100
AcDbLine
 10
56.183914
 20
276.150024
 30
0.0
 11
46.722004
 21
276.150024
 31
0.0
210
0.0
220
0.0
230
1.0
  0
ARC
  5
572
100
AcDbEntity
  8
0
370
    35
390
0
 62
     7
100
AcDbCircle
 10
56.183914
 20
273.549988
 30
0.0
 40
2.6
210
0.0
220
0.0
230
1.0
100
AcDbArc
 50
9.204209
 51
90.000003
  0
CIRCLE
  5
573
100
AcDbEntity
  8
0
370
    35
390
0
 62
     7
100
AcDbCircle
 10
51.452957
 20
253.350006
 30
0.0
 40
5.15
210
0.0
220
0.0
230
1.0
  0
POLYLINE
  5
574
100
AcDbEntity
  8
0
370
    35
390
0
 62
     7
100
AcDb2dPolyline
 66
     1
 10
0.0
 20
0.0
 30
0.0
 71
    12
  0
VERTEX
  5
575
100
AcDbEntity
  8
0
370
     0
390
0
100
AcDbVertex
100
AcDb2dVertex
 10
42.852959
 20
273.260193
 30
0.0
  0
VERTEX
  5
576
100
AcDbEntity
  8
0
370
     0
390
0
100
AcDbVertex
100
AcDb2dVertex
 10
42.849091
 20
273.162903
 30
0.0
  0
VERTEX
  5
577
100
AcDbEntity
  8
0
370
     0
390
0
100
AcDbVertex
100
AcDb2dVertex
 10
42.837494
 20
273.059448
 30
0.0
  0
VERTEX
  5
578
100
AcDbEntity
  8
0
370
     0
390
0
100
AcDbVertex
100
AcDb2dVertex
 10
42.818142
 20
272.950073
 30
0.0
  0
VERTEX
  5
579
100
AcDbEntity
  8
0
370
     0
390
0
100
AcDbVertex
100
AcDb2dVertex
 10
42.790947
 20
272.8349
 30
0.0
  0
VERTEX
  5
57A
100
AcDbEntity
  8
0
370
     0
390
0
100
AcDbVertex
100
AcDb2dVertex
 10
42.755756
 20
272.713989
 30
0.0
  0
VERTEX
  5
57B
100
AcDbEntity
  8
0
370
     0
390
0
100
AcDbVertex
100
AcDb2dVertex
 10
42.712303
 20
272.587341
 30
0.0
  0
VERTEX
  5
57C
100
AcDbEntity
  8
0
370
     0
390
0
100
AcDbVertex
100
AcDb2dVertex
 10
42.660217
 20
272.454895
 30
0.0
  0
VERTEX
  5
57D
100
AcDbEntity
  8
0
370
     0
390
0
100
AcDbVertex
100
AcDb2dVertex
 10
42.598991
 20
272.316437
 30
0.0
  0
VERTEX
  5
57E
100
AcDbEntity
  8
0
370
     0
390
0
100
AcDbVertex
100
AcDb2dVertex
 10
42.527962
 20
272.171814
 30
0.0
  0
VERTEX
  5
57F
100
AcDbEntity
  8
0
370
     0
390
0
100
AcDbVertex
100
AcDb2dVertex
 10
42.446293
 20
272.020874
 30
0.0
  0
VERTEX
  5
580
100
AcDbEntity
  8
0
370
     0
390
0
100
AcDbVertex
100
AcDb2dVertex
 10
42.352959
 20
271.863342
 30
0.0
  0
SEQEND
  5
581
100
AcDbEntity
  8
0
370
     0
390
0
  0
LINE
  5
582
100
AcDbEntity
  8
0
370
    35
390
0
 62
     7
 48
0.089745
100
AcDbLine
 10
42.852959
 20
273.260193
 30
0.0
 11
42.852959
 21
276.850006
 31
0.0
210
0.0
220
0.0
230
1.0
  0
LINE
  5
583
100
AcDbEntity
  8
0
370
    35
390
0
 62
     7
 48
0.0775
100
AcDbLine
 10
43.952957
 20
273.75
 30
0.0
 11
43.952957
 21
276.850006
 31
0.0
210
0.0
220
0.0
230
1.0
  0
CIRCLE
  5
584
100
AcDbEntity
  8
0
370
    35
390
0
 62
     7
100
AcDbCircle
 10
51.452957
 20
253.350006
 30
0.0
 40
4.15
210
0.0
220
0.0
230
1.0
  0
ARC
  5
585
100
AcDbEntity
  8
0
370
    35
390
0
 62
     7
100
AcDbCircle
 10
51.452957
 20
253.350006
 30
0.0
 40
3.75
210
0.0
220
0.0
230
1.0
100
AcDbArc
 50
350.018317
 51
9.981683
  0
ARC
  5
586
100
AcDbEntity
  8
0
370
    35
390
0
 62
     7
100
AcDbCircle
 10
51.452957
 20
253.350006
 30
0.0
 40
3.75
210
0.0
220
0.0
230
1.0
100
AcDbArc
 50
189.981688
 51
350.018317
  0
ARC
  5
587
100
AcDbEntity
  8
0
370
    35
390
0
 62
     7
100
AcDbCircle
 10
51.452957
 20
253.350006
 30
0.0
 40
3.75
210
0.0
220
0.0
230
1.0
100
AcDbArc
 50
170.018312
 51
189.981688
  0
ARC
  5
588
100
AcDbEntity
  8
0
370
    35
390
0
 62
     7
100
AcDbCircle
 10
51.452957
 20
253.350006
 30
0.0
 40
3.75
210
0.0
220
0.0
230
1.0
100
AcDbArc
 50
9.981683
 51
170.018312
  0
LINE
  5
589
100
AcDbEntity
  8
0
370
    35
390
0
 62
     7
 48
0.005081
100
AcDbLine
 10
54.942944
 20
252.700012
 30
0.0
 11
55.146194
 21
252.700012
 31
0.0
210
0.0
220
0.0
230
1.0
  0
LINE
  5
58A
100
AcDbEntity
  8
0
370
    35
390
0
 62
     7
 48
0.005081
100
AcDbLine
 10
47.962975
 20
252.700012
 30
0.0
 11
47.759724
 21
252.700012
 31
0.0
210
0.0
220
0.0
230
1.0
  0
LINE
  5
58B
100
AcDbEntity
  8
0
370
    35
390
0
 62
     7
 48
0.174499
100
AcDbLine
 10
54.942944
 20
252.700012
 30
0.0
 11
47.962975
 21
252.700012
 31
0.0
210
0.0
220
0.0
230
1.0
  0
ARC
  5
58C
100
AcDbEntity
  8
0
370
    35
390
0
 62
     7
100
AcDbCircle
 10
51.452957
 20
253.350006
 30
0.0
 40
3.55
210
0.0
220
0.0
230
1.0
100
AcDbArc
 50
190.550301
 51
349.44969
  0
LINE
  5
58D
100
AcDbEntity
  8
0
370
    35
390
0
 62
     7
 48
0.005081
100
AcDbLine
 10
47.962975
 20
254.0
 30
0.0
 11
47.759724
 21
254.0
 31
0.0
210
0.0
220
0.0
230
1.0
  0
LINE
  5
58E
100
AcDbEntity
  8
0
370
    35
390
0
 62
     7
 48
0.005081
100
AcDbLine
 10
54.942944
 20
254.0
 30
0.0
 11
55.146194
 21
254.0
 31
0.0
210
0.0
220
0.0
230
1.0
  0
LINE
  5
58F
100
AcDbEntity
  8
0
370
    35
390
0
 62
     7
 48
0.174499
100
AcDbLine
 10
47.962975
 20
254.0
 30
0.0
 11
54.942944
 21
254.0
 31
0.0
210
0.0
220
0.0
230
1.0
  0
ARC
  5
590
100
AcDbEntity
  8
0
370
    35
390
0
 62
     7
100
AcDbCircle
 10
51.452957
 20
253.350006
 30
0.0
 40
3.55
210
0.0
220
0.0
230
1.0
100
AcDbArc
 50
10.550303
 51
169.449699
  0
LINE
  5
591
100
AcDbEntity
  8
0
370
    35
390
0
 62
     7
 48
0.00125
100
AcDbLine
 10
60.152962
 20
246.550003
 30
0.0
 11
60.202957
 21
246.550003
 31
0.0
210
0.0
220
0.0
230
1.0
  0
LINE
  5
592
100
AcDbEntity
  8
0
370
    35
390
0
 62
     7
 48
0.00125
100
AcDbLine
 10
60.152962
 20
246.550003
 30
0.0
 11
60.202957
 21
246.550003
 31
0.0
210
0.0
220
0.0
230
1.0
  0
LINE
  5
593
100
AcDbEntity
  8
0
370
    35
390
0
 62
     7
 48
0.017678
100
AcDbLine
 10
42.352959
 20
276.350006
 30
0.0
 11
42.852959
 21
276.850006
 31
0.0
210
0.0
220
0.0
230
1.0
  0
LINE
  5
594
100
AcDbEntity
  8
0
370
    35
390
0
 62
     7
 48
0.0275
100
AcDbLine
 10
42.852959
 20
276.850006
 30
0.0
 11
43.952957
 21
276.850006
 31
0.0
210
0.0
220
0.0
230
1.0
  0
LINE
  5
595
100
AcDbEntity
  8
0
370
    35
390
0
 62
     7
100
AcDbLine
 10
42.552959
 20
219.450012
 30
0.0
 11
42.552959
 21
242.550003
 31
0.0
210
0.0
220
0.0
230
1.0
  0
LINE
  5
596
100
AcDbEntity
  8
0
370
    35
390
0
 62
     7
 48
0.025
100
AcDbLine
 10
42.552959
 20
242.550003
 30
0.0
 11
42.552959
 21
243.550003
 31
0.0
210
0.0
220
0.0
230
1.0
  0
LINE
  5
597
100
AcDbEntity
  8
0
370
    35
390
0
 62
     7
100
AcDbLine
 10
59.75296
 20
242.550003
 30
0.0
 11
59.75296
 21
219.450012
 31
0.0
210
0.0
220
0.0
230
1.0
  0
LINE
  5
598
100
AcDbEntity
  8
0
370
    35
390
0
 62
     7
 48
0.025
100
AcDbLine
 10
59.75296
 20
242.550003
 30
0.0
 11
59.75296
 21
243.550003
 31
0.0
210
0.0
220
0.0
230
1.0
  0
LINE
  5
599
100
AcDbEntity
  8
0
370
    35
390
0
 62
     7
 48
0.0125
100
AcDbLine
 10
43.052959
 20
242.550003
 30
0.0
 11
42.699406
 21
242.903564
 31
0.0
210
0.0
220
0.0
230
1.0
  0
ARC
  5
59A
100
AcDbEntity
  8
0
370
    35
390
0
 62
     7
100
AcDbCircle
 10
43.052959
 20
242.550003
 30
0.0
 40
0.5
210
0.0
220
0.0
230
1.0
100
AcDbArc
 50
90.000003
 51
180.000009
  0
ARC
  5
59B
100
AcDbEntity
  8
0
370
    35
390
0
 62
     7
100
AcDbCircle
 10
43.052959
 20
219.450012
 30
0.0
 40
0.5
210
0.0
220
0.0
230
1.0
100
AcDbArc
 50
180.000009
 51
270.000353
  0
ARC
  5
59C
100
AcDbEntity
  8
0
370
    35
390
0
 62
     7
100
AcDbCircle
 10
43.052963
 20
218.949997
 30
0.0
 40
0.500008
210
0.0
220
0.0
230
1.0
100
AcDbArc
 50
90.000289
 51
149.999055
  0
ARC
  5
59D
100
AcDbEntity
  8
0
370
    35
390
0
 62
     7
100
AcDbCircle
 10
43.052959
 20
243.550003
 30
0.0
 40
0.5
210
0.0
220
0.0
230
1.0
100
AcDbArc
 50
90.000003
 51
180.000009
  0
LINE
  5
59E
100
AcDbEntity
  8
0
370
    35
390
0
 62
     7
 48
0.02407
100
AcDbLine
 10
42.352959
 20
237.987701
 30
0.0
 11
42.352959
 21
238.950485
 31
0.0
210
0.0
220
0.0
230
1.0
  0
LINE
  5
59F
100
AcDbEntity
  8
0
370
    35
390
0
 62
     7
 48
0.293443
100
AcDbLine
 10
42.352959
 20
237.987701
 30
0.0
 11
42.352959
 21
226.25
 31
0.0
210
0.0
220
0.0
230
1.0
  0
LINE
  5
5A0
100
AcDbEntity
  8
0
370
    35
390
0
 62
     7
 48
0.075
100
AcDbLine
 10
42.352959
 20
223.25
 30
0.0
 11
42.352959
 21
226.25
 31
0.0
210
0.0
220
0.0
230
1.0
  0
LINE
  5
5A1
100
AcDbEntity
  8
0
370
    35
390
0
 62
     7
 48
0.005
100
AcDbLine
 10
42.352959
 20
223.25
 30
0.0
 11
42.552959
 21
223.25
 31
0.0
210
0.0
220
0.0
230
1.0
  0
LINE
  5
5A2
100
AcDbEntity
  8
0
370
    35
390
0
 62
     7
 48
0.005
100
AcDbLine
 10
42.352959
 20
242.050003
 30
0.0
 11
42.552959
 21
242.050003
 31
0.0
210
0.0
220
0.0
230
1.0
  0
LINE
  5
5A3
100
AcDbEntity
  8
0
370
    35
390
0
 62
     7
 48
0.021621
100
AcDbLine
 10
42.352959
 20
241.18515
 30
0.0
 11
42.352959
 21
242.050003
 31
0.0
210
0.0
220
0.0
230
1.0
  0
LINE
  5
5A4
100
AcDbEntity
  8
0
370
    35
390
0
 62
     7
 48
0.004568
100
AcDbLine
 10
47.203274
 20
222.25
 30
0.0
 11
47.386002
 21
222.25
 31
0.0
210
0.0
220
0.0
230
1.0
  0
LINE
  5
5A5
100
AcDbEntity
  8
0
370
    35
390
0
 62
     7
 48
0.004568
100
AcDbLine
 10
54.919907
 20
222.25
 30
0.0
 11
55.102642
 21
222.25
 31
0.0
210
0.0
220
0.0
230
1.0
  0
ARC
  5
5A6
100
AcDbEntity
  8
0
370
    35
390
0
 62
     7
100
AcDbCircle
 10
59.25296
 20
219.450012
 30
0.0
 40
0.5
210
0.0
220
0.0
230
1.0
100
AcDbArc
 50
269.999997
 51
359.999901
  0
ARC
  5
5A7
100
AcDbEntity
  8
0
370
    35
390
0
 62
     7
100
AcDbCircle
 10
59.25296
 20
242.550003
 30
0.0
 40
0.5
210
0.0
220
0.0
230
1.0
100
AcDbArc
 50
0.0
 51
90.000003
  0
LINE
  5
5A8
100
AcDbEntity
  8
0
370
    35
390
0
 62
     7
 48
0.0125
100
AcDbLine
 10
59.25296
 20
242.550003
 30
0.0
 11
59.606514
 21
242.903564
 31
0.0
210
0.0
220
0.0
230
1.0
  0
ARC
  5
5A9
100
AcDbEntity
  8
0
370
    35
390
0
 62
     7
100
AcDbCircle
 10
59.25296
 20
218.950012
 30
0.0
 40
0.499997
210
0.0
220
0.0
230
1.0
100
AcDbArc
 50
29.999605
 51
90.000201
  0
LINE
  5
5AA
100
AcDbEntity
  8
0
370
    35
390
0
 62
     7
 48
0.055867
100
AcDbLine
 10
59.75296
 20
241.18515
 30
0.0
 11
59.75296
 21
238.950485
 31
0.0
210
0.0
220
0.0
230
1.0
  0
LINE
  5
5AB
100
AcDbEntity
  8
0
370
    35
390
0
 62
     7
 48
0.021621
100
AcDbLine
 10
59.952957
 20
241.18515
 30
0.0
 11
59.952957
 21
242.050003
 31
0.0
210
0.0
220
0.0
230
1.0
  0
LINE
  5
5AC
100
AcDbEntity
  8
0
370
    35
390
0
 62
     7
 48
0.005
100
AcDbLine
 10
59.75296
 20
242.050003
 30
0.0
 11
59.952957
 21
242.050003
 31
0.0
210
0.0
220
0.0
230
1.0
  0
LINE
  5
5AD
100
AcDbEntity
  8
0
370
    35
390
0
 62
     7
 48
0.005
100
AcDbLine
 10
59.75296
 20
223.25
 30
0.0
 11
59.952957
 21
223.25
 31
0.0
210
0.0
220
0.0
230
1.0
  0
LINE
  5
5AE
100
AcDbEntity
  8
0
370
    35
390
0
 62
     7
 48
0.075
100
AcDbLine
 10
59.952957
 20
223.25
 30
0.0
 11
59.952957
 21
226.25
 31
0.0
210
0.0
220
0.0
230
1.0
  0
LINE
  5
5AF
100
AcDbEntity
  8
0
370
    35
390
0
 62
     7
 48
0.293443
100
AcDbLine
 10
59.952957
 20
237.987701
 30
0.0
 11
59.952957
 21
226.25
 31
0.0
210
0.0
220
0.0
230
1.0
  0
LINE
  5
5B0
100
AcDbEntity
  8
0
370
    35
390
0
 62
     7
 48
0.02407
100
AcDbLine
 10
59.952957
 20
237.987701
 30
0.0
 11
59.952957
 21
238.950485
 31
0.0
210
0.0
220
0.0
230
1.0
  0
ARC
  5
5B1
100
AcDbEntity
  8
0
370
    35
390
0
 62
     7
100
AcDbCircle
 10
59.25296
 20
243.550003
 30
0.0
 40
0.5
210
0.0
220
0.0
230
1.0
100
AcDbArc
 50
0.0
 51
90.000003
  0
LINE
  5
5B2
100
AcDbEntity
  8
0
370
    35
390
0
 62
     7
 48
0.1875
100
AcDbLine
 10
43.052959
 20
219.450012
 30
0.0
 11
50.552959
 21
219.450012
 31
0.0
210
0.0
220
0.0
230
1.0
  0
LINE
  5
5B3
100
AcDbEntity
  8
0
370
    35
390
0
 62
     7
 48
0.0175
100
AcDbLine
 10
50.552959
 20
220.150009
 30
0.0
 11
50.552959
 21
219.450012
 31
0.0
210
0.0
220
0.0
230
1.0
  0
LINE
  5
5B4
100
AcDbEntity
  8
0
370
    35
390
0
 62
     7
 48
0.03
100
AcDbLine
 10
50.552959
 20
220.150009
 30
0.0
 11
51.75296
 21
220.150009
 31
0.0
210
0.0
220
0.0
230
1.0
  0
LINE
  5
5B5
100
AcDbEntity
  8
0
370
    35
390
0
 62
     7
 48
0.0175
100
AcDbLine
 10
51.75296
 20
220.150009
 30
0.0
 11
51.75296
 21
219.450012
 31
0.0
210
0.0
220
0.0
230
1.0
  0
LINE
  5
5B6
100
AcDbEntity
  8
0
370
    35
390
0
 62
     7
 48
0.1875
100
AcDbLine
 10
51.75296
 20
219.450012
 30
0.0
 11
59.25296
 21
219.450012
 31
0.0
210
0.0
220
0.0
230
1.0
  0
ARC
  5
5B7
100
AcDbEntity
  8
0
370
    35
390
0
 62
     7
100
AcDbCircle
 10
54.787857
 20
242.550003
 30
0.0
 40
0.5
210
0.0
220
0.0
230
1.0
100
AcDbArc
 50
90.000003
 51
218.583597
  0
ARC
  5
5B8
100
AcDbEntity
  8
0
370
    35
390
0
 62
     7
100
AcDbCircle
 10
51.152958
 20
239.650009
 30
0.0
 40
4.15
210
0.0
220
0.0
230
1.0
100
AcDbArc
 50
0.0
 51
38.583602
  0
LINE
  5
5B9
100
AcDbEntity
  8
0
370
    35
390
0
 62
     7
 48
0.025
100
AcDbLine
 10
55.302959
 20
239.650009
 30
0.0
 11
55.302959
 21
238.650009
 31
0.0
210
0.0
220
0.0
230
1.0
  0
ARC
  5
5BA
100
AcDbEntity
  8
0
370
    35
390
0
 62
     7
100
AcDbCircle
 10
51.152958
 20
238.650009
 30
0.0
 40
4.15
210
0.0
220
0.0
230
1.0
100
AcDbArc
 50
327.912246
 51
360.0
  0
POLYLINE
  5
5BB
100
AcDbEntity
  8
0
370
    35
390
0
 62
     7
100
AcDb2dPolyline
 66
     1
 10
0.0
 20
0.0
 30
0.0
 71
    25
  0
VERTEX
  5
5BC
100
AcDbEntity
  8
0
370
     0
390
0
100
AcDbVertex
100
AcDb2dVertex
 10
55.079803
 20
234.303833
 30
0.0
  0
VERTEX
  5
5BD
100
AcDbEntity
  8
0
370
     0
390
0
100
AcDbVertex
100
AcDb2dVertex
 10
55.005508
 20
234.354675
 30
0.0
  0
VERTEX
  5
5BE
100
AcDbEntity
  8
0
370
     0
390
0
100
AcDbVertex
100
AcDb2dVertex
 10
54.946121
 20
234.40062
 30
0.0
  0
VERTEX
  5
5BF
100
AcDbEntity
  8
0
370
     0
390
0
100
AcDbVertex
100
AcDb2dVertex
 10
54.889362
 20
234.44957
 30
0.0
  0
VERTEX
  5
5C0
100
AcDbEntity
  8
0
370
     0
390
0
100
AcDbVertex
100
AcDb2dVertex
 10
54.81472
 20
234.522675
 30
0.0
  0
VERTEX
  5
5C1
100
AcDbEntity
  8
0
370
     0
390
0
100
AcDbVertex
100
AcDb2dVertex
 10
54.745804
 20
234.600891
 30
0.0
  0
VERTEX
  5
5C2
100
AcDbEntity
  8
0
370
     0
390
0
100
AcDbVertex
100
AcDb2dVertex
 10
54.682945
 20
234.68364
 30
0.0
  0
VERTEX
  5
5C3
100
AcDbEntity
  8
0
370
     0
390
0
100
AcDbVertex
100
AcDb2dVertex
 10
54.626404
 20
234.770386
 30
0.0
  0
VERTEX
  5
5C4
100
AcDbEntity
  8
0
370
     0
390
0
100
AcDbVertex
100
AcDb2dVertex
 10
54.576355
 20
234.860565
 30
0.0
  0
VERTEX
  5
5C5
100
AcDbEntity
  8
0
370
     0
390
0
100
AcDbVertex
100
AcDb2dVertex
 10
54.532932
 20
234.953613
 30
0.0
  0
VERTEX
  5
5C6
100
AcDbEntity
  8
0
370
     0
390
0
100
AcDbVertex
100
AcDb2dVertex
 10
54.496185
 20
235.04895
 30
0.0
  0
VERTEX
  5
5C7
100
AcDbEntity
  8
0
370
     0
390
0
100
AcDbVertex
100
AcDb2dVertex
 10
54.46505
 20
235.150024
 30
0.0
  0
VERTEX
  5
5C8
100
AcDbEntity
  8
0
370
     0
390
0
100
AcDbVertex
100
AcDb2dVertex
 10
54.44109
 20
235.252487
 30
0.0
  0
VERTEX
  5
5C9
100
AcDbEntity
  8
0
370
     0
390
0
100
AcDbVertex
100
AcDb2dVertex
 10
54.424221
 20
235.355804
 30
0.0
  0
VERTEX
  5
5CA
100
AcDbEntity
  8
0
370
     0
390
0
100
AcDbVertex
100
AcDb2dVertex
 10
54.414322
 20
235.459503
 30
0.0
  0
VERTEX
  5
5CB
100
AcDbEntity
  8
0
370
     0
390
0
100
AcDbVertex
100
AcDb2dVertex
 10
54.41124
 20
235.563126
 30
0.0
  0
VERTEX
  5
5CC
100
AcDbEntity
  8
0
370
     0
390
0
100
AcDbVertex
100
AcDb2dVertex
 10
54.414814
 20
235.666229
 30
0.0
  0
VERTEX
  5
5CD
100
AcDbEntity
  8
0
370
     0
390
0
100
AcDbVertex
100
AcDb2dVertex
 10
54.424866
 20
235.768463
 30
0.0
  0
VERTEX
  5
5CE
100
AcDbEntity
  8
0
370
     0
390
0
100
AcDbVertex
100
AcDb2dVertex
 10
54.441616
 20
235.871552
 30
0.0
  0
VERTEX
  5
5CF
100
AcDbEntity
  8
0
370
     0
390
0
100
AcDbVertex
100
AcDb2dVertex
 10
54.464729
 20
235.973038
 30
0.0
  0
VERTEX
  5
5D0
100
AcDbEntity
  8
0
370
     0
390
0
100
AcDbVertex
100
AcDb2dVertex
 10
54.494011
 20
236.072586
 30
0.0
  0
VERTEX
  5
5D1
100
AcDbEntity
  8
0
370
     0
390
0
100
AcDbVertex
100
AcDb2dVertex
 10
54.52927
 20
236.169891
 30
0.0
  0
VERTEX
  5
5D2
100
AcDbEntity
  8
0
370
     0
390
0
100
AcDbVertex
100
AcDb2dVertex
 10
54.570313
 20
236.264648
 30
0.0
  0
VERTEX
  5
5D3
100
AcDbEntity
  8
0
370
     0
390
0
100
AcDbVertex
100
AcDb2dVertex
 10
54.616943
 20
236.356598
 30
0.0
  0
VERTEX
  5
5D4
100
AcDbEntity
  8
0
370
     0
390
0
100
AcDbVertex
100
AcDb2dVertex
 10
54.668987
 20
236.44545
 30
0.0
  0
SEQEND
  5
5D5
100
AcDbEntity
  8
0
370
     0
390
0
  0
ARC
  5
5D6
100
AcDbEntity
  8
0
370
    35
390
0
 62
     7
100
AcDbCircle
 10
51.152958
 20
228.150009
 30
0.0
 40
7.3
210
0.0
220
0.0
230
1.0
100
AcDbArc
 50
122.542528
 51
57.457471
  0
POLYLINE
  5
5D7
100
AcDbEntity
  8
0
370
    35
390
0
 62
     7
100
AcDb2dPolyline
 66
     1
 10
0.0
 20
0.0
 30
0.0
 71
    25
  0
VERTEX
  5
5D8
100
AcDbEntity
  8
0
370
     0
390
0
100
AcDbVertex
100
AcDb2dVertex
 10
47.226105
 20
234.303848
 30
0.0
  0
VERTEX
  5
5D9
100
AcDbEntity
  8
0
370
     0
390
0
100
AcDbVertex
100
AcDb2dVertex
 10
47.305599
 20
234.35849
 30
0.0
  0
VERTEX
  5
5DA
100
AcDbEntity
  8
0
370
     0
390
0
100
AcDbVertex
100
AcDb2dVertex
 10
47.381142
 20
234.418411
 30
0.0
  0
VERTEX
  5
5DB
100
AcDbEntity
  8
0
370
     0
390
0
100
AcDbVertex
100
AcDb2dVertex
 10
47.452343
 20
234.483276
 30
0.0
  0
VERTEX
  5
5DC
100
AcDbEntity
  8
0
370
     0
390
0
100
AcDbVertex
100
AcDb2dVertex
 10
47.518864
 20
234.552704
 30
0.0
  0
VERTEX
  5
5DD
100
AcDbEntity
  8
0
370
     0
390
0
100
AcDbVertex
100
AcDb2dVertex
 10
47.58041
 20
234.626266
 30
0.0
  0
VERTEX
  5
5DE
100
AcDbEntity
  8
0
370
     0
390
0
100
AcDbVertex
100
AcDb2dVertex
 10
47.641979
 20
234.711304
 30
0.0
  0
VERTEX
  5
5DF
100
AcDbEntity
  8
0
370
     0
390
0
100
AcDbVertex
100
AcDb2dVertex
 10
47.697018
 20
234.800262
 30
0.0
  0
VERTEX
  5
5E0
100
AcDbEntity
  8
0
370
     0
390
0
100
AcDbVertex
100
AcDb2dVertex
 10
47.745361
 20
234.892517
 30
0.0
  0
VERTEX
  5
5E1
100
AcDbEntity
  8
0
370
     0
390
0
100
AcDbVertex
100
AcDb2dVertex
 10
47.786907
 20
234.987488
 30
0.0
  0
VERTEX
  5
5E2
100
AcDbEntity
  8
0
370
     0
390
0
100
AcDbVertex
100
AcDb2dVertex
 10
47.821613
 20
235.084656
 30
0.0
  0
VERTEX
  5
5E3
100
AcDbEntity
  8
0
370
     0
390
0
100
AcDbVertex
100
AcDb2dVertex
 10
47.849499
 20
235.183441
 30
0.0
  0
VERTEX
  5
5E4
100
AcDbEntity
  8
0
370
     0
390
0
100
AcDbVertex
100
AcDb2dVertex
 10
47.870617
 20
235.28334
 30
0.0
  0
VERTEX
  5
5E5
100
AcDbEntity
  8
0
370
     0
390
0
100
AcDbVertex
100
AcDb2dVertex
 10
47.885532
 20
235.388184
 30
0.0
  0
VERTEX
  5
5E6
100
AcDbEntity
  8
0
370
     0
390
0
100
AcDbVertex
100
AcDb2dVertex
 10
47.893341
 20
235.493286
 30
0.0
  0
VERTEX
  5
5E7
100
AcDbEntity
  8
0
370
     0
390
0
100
AcDbVertex
100
AcDb2dVertex
 10
47.894203
 20
235.59816
 30
0.0
  0
VERTEX
  5
5E8
100
AcDbEntity
  8
0
370
     0
390
0
100
AcDbVertex
100
AcDb2dVertex
 10
47.888287
 20
235.702408
 30
0.0
  0
VERTEX
  5
5E9
100
AcDbEntity
  8
0
370
     0
390
0
100
AcDbVertex
100
AcDb2dVertex
 10
47.875786
 20
235.805618
 30
0.0
  0
VERTEX
  5
5EA
100
AcDbEntity
  8
0
370
     0
390
0
100
AcDbVertex
100
AcDb2dVertex
 10
47.856888
 20
235.90744
 30
0.0
  0
VERTEX
  5
5EB
100
AcDbEntity
  8
0
370
     0
390
0
100
AcDbVertex
100
AcDb2dVertex
 10
47.831791
 20
236.007568
 30
0.0
  0
VERTEX
  5
5EC
100
AcDbEntity
  8
0
370
     0
390
0
100
AcDbVertex
100
AcDb2dVertex
 10
47.80278
 20
236.099625
 30
0.0
  0
VERTEX
  5
5ED
100
AcDbEntity
  8
0
370
     0
390
0
100
AcDbVertex
100
AcDb2dVertex
 10
47.768639
 20
236.189682
 30
0.0
  0
VERTEX
  5
5EE
100
AcDbEntity
  8
0
370
     0
390
0
100
AcDbVertex
100
AcDb2dVertex
 10
47.729515
 20
236.277481
 30
0.0
  0
VERTEX
  5
5EF
100
AcDbEntity
  8
0
370
     0
390
0
100
AcDbVertex
100
AcDb2dVertex
 10
47.685562
 20
236.362823
 30
0.0
  0
VERTEX
  5
5F0
100
AcDbEntity
  8
0
370
     0
390
0
100
AcDbVertex
100
AcDb2dVertex
 10
47.636932
 20
236.44545
 30
0.0
  0
SEQEND
  5
5F1
100
AcDbEntity
  8
0
370
     0
390
0
  0
ARC
  5
5F2
100
AcDbEntity
  8
0
370
    35
390
0
 62
     7
100
AcDbCircle
 10
51.152958
 20
238.650009
 30
0.0
 40
4.15
210
0.0
220
0.0
230
1.0
100
AcDbArc
 50
180.000009
 51
212.087746
  0
LINE
  5
5F3
100
AcDbEntity
  8
0
370
    35
390
0
 62
     7
 48
0.025
100
AcDbLine
 10
47.00296
 20
239.650009
 30
0.0
 11
47.00296
 21
238.650009
 31
0.0
210
0.0
220
0.0
230
1.0
  0
ARC
  5
5F4
100
AcDbEntity
  8
0
370
    35
390
0
 62
     7
100
AcDbCircle
 10
51.152958
 20
239.650009
 30
0.0
 40
4.15
210
0.0
220
0.0
230
1.0
100
AcDbArc
 50
141.416403
 51
180.000009
  0
ARC
  5
5F5
100
AcDbEntity
  8
0
370
    35
390
0
 62
     7
100
AcDbCircle
 10
47.518059
 20
242.550003
 30
0.0
 40
0.5
210
0.0
220
0.0
230
1.0
100
AcDbArc
 50
321.416408
 51
90.000003
  0
LINE
  5
5F6
100
AcDbEntity
  8
0
370
    35
390
0
 62
     7
 48
0.01
100
AcDbLine
 10
45.302959
 20
235.350006
 30
0.0
 11
44.902958
 21
235.350006
 31
0.0
210
0.0
220
0.0
230
1.0
  0
ARC
  5
5F7
100
AcDbEntity
  8
0
370
    35
390
0
 62
     7
100
AcDbCircle
 10
44.902958
 20
236.700012
 30
0.0
 40
1.35
210
0.0
220
0.0
230
1.0
100
AcDbArc
 50
90.000003
 51
269.99997
  0
LINE
  5
5F8
100
AcDbEntity
  8
0
370
    35
390
0
 62
     7
 48
0.01
100
AcDbLine
 10
44.902958
 20
238.050003
 30
0.0
 11
45.302959
 21
238.050003
 31
0.0
210
0.0
220
0.0
230
1.0
  0
ARC
  5
5F9
100
AcDbEntity
  8
0
370
    35
390
0
 62
     7
100
AcDbCircle
 10
45.302959
 20
236.700012
 30
0.0
 40
1.35
210
0.0
220
0.0
230
1.0
100
AcDbArc
 50
269.999997
 51
89.999989
  0
CIRCLE
  5
5FA
100
AcDbEntity
  8
0
370
    35
390
0
 62
     7
100
AcDbCircle
 10
57.202957
 20
236.700012
 30
0.0
 40
1.35
210
0.0
220
0.0
230
1.0
  0
LINE
  5
5FB
100
AcDbEntity
  8
0
370
    35
390
0
 62
     7
 48
0.111627
100
AcDbLine
 10
43.052959
 20
243.050003
 30
0.0
 11
47.518059
 21
243.050003
 31
0.0
210
0.0
220
0.0
230
1.0
  0
LINE
  5
5FC
100
AcDbEntity
  8
0
370
    35
390
0
 62
     7
 48
0.0075
100
AcDbLine
 10
51.75296
 20
219.450012
 30
0.0
 11
51.75296
 21
219.150009
 31
0.0
210
0.0
220
0.0
230
1.0
  0
LINE
  5
5FD
100
AcDbEntity
  8
0
370
    35
390
0
 62
     7
 48
0.03
100
AcDbLine
 10
50.552959
 20
219.150009
 30
0.0
 11
51.75296
 21
219.150009
 31
0.0
210
0.0
220
0.0
230
1.0
  0
LINE
  5
5FE
100
AcDbEntity
  8
0
370
    35
390
0
 62
     7
 48
0.0075
100
AcDbLine
 10
50.552959
 20
219.450012
 30
0.0
 11
50.552959
 21
219.150009
 31
0.0
210
0.0
220
0.0
230
1.0
  0
LINE
  5
5FF
100
AcDbEntity
  8
0
370
    35
390
0
 62
     7
 48
0.405
100
AcDbLine
 10
43.052959
 20
218.950012
 30
0.0
 11
59.25296
 21
218.950012
 31
0.0
210
0.0
220
0.0
230
1.0
  0
LINE
  5
600
100
AcDbEntity
  8
0
370
    35
390
0
 62
     7
 48
0.043179
100
AcDbLine
 10
49.571026
 20
243.050003
 30
0.0
 11
47.84388
 21
243.050003
 31
0.0
210
0.0
220
0.0
230
1.0
  0
LINE
  5
601
100
AcDbEntity
  8
0
370
    35
390
0
 62
     7
 48
0.043179
100
AcDbLine
 10
54.462036
 20
243.050003
 30
0.0
 11
52.73489
 21
243.050003
 31
0.0
210
0.0
220
0.0
230
1.0
  0
LINE
  5
602
100
AcDbEntity
  8
0
370
    35
390
0
 62
     7
 48
0.008146
100
AcDbLine
 10
54.462036
 20
243.050003
 30
0.0
 11
54.787857
 21
243.050003
 31
0.0
210
0.0
220
0.0
230
1.0
  0
LINE
  5
603
100
AcDbEntity
  8
0
370
    35
390
0
 62
     7
 48
0.111628
100
AcDbLine
 10
54.787857
 20
243.050003
 30
0.0
 11
59.25296
 21
243.050003
 31
0.0
210
0.0
220
0.0
230
1.0
  0
LINE
  5
604
100
AcDbEntity
  8
0
370
    35
390
0
 62
     7
 48
0.008146
100
AcDbLine
 10
47.518059
 20
243.050003
 30
0.0
 11
47.84388
 21
243.050003
 31
0.0
210
0.0
220
0.0
230
1.0
  0
LINE
  5
605
100
AcDbEntity
  8
0
370
    35
390
0
 62
     7
 48
0.405
100
AcDbLine
 10
43.052959
 20
244.050003
 30
0.0
 11
59.25296
 21
244.050003
 31
0.0
210
0.0
220
0.0
230
1.0
  0
LINE
  5
606
100
AcDbEntity
  8
0
370
    35
390
0
 62
     7
 48
0.055867
100
AcDbLine
 10
42.352959
 20
238.950485
 30
0.0
 11
42.352959
 21
241.18515
 31
0.0
210
0.0
220
0.0
230
1.0
  0
LINE
  5
607
100
AcDbEntity
  8
0
370
    35
390
0
 62
     7
 48
0.055867
100
AcDbLine
 10
59.952957
 20
238.950485
 30
0.0
 11
59.952957
 21
241.18515
 31
0.0
210
0.0
220
0.0
230
1.0
  0
LINE
  5
608
100
AcDbEntity
  8
0
370
    35
390
0
 62
     7
 48
0.002673
100
AcDbLine
 10
54.611015
 20
236.355591
 30
0.0
 11
54.668987
 21
236.44545
 31
0.0
210
0.0
220
0.0
230
1.0
  0
POLYLINE
  5
609
100
AcDbEntity
  8
0
370
    35
390
0
 62
     7
100
AcDb2dPolyline
 66
     1
 10
0.0
 20
0.0
 30
0.0
 71
    27
  0
VERTEX
  5
60A
100
AcDbEntity
  8
0
370
     0
390
0
100
AcDbVertex
100
AcDb2dVertex
 10
54.611015
 20
236.355591
 30
0.0
  0
VERTEX
  5
60B
100
AcDbEntity
  8
0
370
     0
390
0
100
AcDbVertex
100
AcDb2dVertex
 10
54.555294
 20
236.265686
 30
0.0
  0
VERTEX
  5
60C
100
AcDbEntity
  8
0
370
     0
390
0
100
AcDbVertex
100
AcDb2dVertex
 10
54.505203
 20
236.172363
 30
0.0
  0
VERTEX
  5
60D
100
AcDbEntity
  8
0
370
     0
390
0
100
AcDbVertex
100
AcDb2dVertex
 10
54.460941
 20
236.075943
 30
0.0
  0
VERTEX
  5
60E
100
AcDbEntity
  8
0
370
     0
390
0
100
AcDbVertex
100
AcDb2dVertex
 10
54.422729
 20
235.9767
 30
0.0
  0
VERTEX
  5
60F
100
AcDbEntity
  8
0
370
     0
390
0
100
AcDbVertex
100
AcDb2dVertex
 10
54.390781
 20
235.874969
 30
0.0
  0
VERTEX
  5
610
100
AcDbEntity
  8
0
370
     0
390
0
100
AcDbVertex
100
AcDb2dVertex
 10
54.365318
 20
235.771088
 30
0.0
  0
VERTEX
  5
611
100
AcDbEntity
  8
0
370
     0
390
0
100
AcDbVertex
100
AcDb2dVertex
 10
54.346554
 20
235.665375
 30
0.0
  0
VERTEX
  5
612
100
AcDbEntity
  8
0
370
     0
390
0
100
AcDbVertex
100
AcDb2dVertex
 10
54.334885
 20
235.560333
 30
0.0
  0
VERTEX
  5
613
100
AcDbEntity
  8
0
370
     0
390
0
100
AcDbVertex
100
AcDb2dVertex
 10
54.33007
 20
235.454285
 30
0.0
  0
VERTEX
  5
614
100
AcDbEntity
  8
0
370
     0
390
0
100
AcDbVertex
100
AcDb2dVertex
 10
54.332321
 20
235.34761
 30
0.0
  0
VERTEX
  5
615
100
AcDbEntity
  8
0
370
     0
390
0
100
AcDbVertex
100
AcDb2dVertex
 10
54.341824
 20
235.240784
 30
0.0
  0
VERTEX
  5
616
100
AcDbEntity
  8
0
370
     0
390
0
100
AcDbVertex
100
AcDb2dVertex
 10
54.358746
 20
235.134308
 30
0.0
  0
VERTEX
  5
617
100
AcDbEntity
  8
0
370
     0
390
0
100
AcDbVertex
100
AcDb2dVertex
 10
54.383224
 20
235.028732
 30
0.0
  0
VERTEX
  5
618
100
AcDbEntity
  8
0
370
     0
390
0
100
AcDbVertex
100
AcDb2dVertex
 10
54.415359
 20
234.924622
 30
0.0
  0
VERTEX
  5
619
100
AcDbEntity
  8
0
370
     0
390
0
100
AcDbVertex
100
AcDb2dVertex
 10
54.453377
 20
234.826813
 30
0.0
  0
VERTEX
  5
61A
100
AcDbEntity
  8
0
370
     0
390
0
100
AcDbVertex
100
AcDb2dVertex
 10
54.498466
 20
234.731476
 30
0.0
  0
VERTEX
  5
61B
100
AcDbEntity
  8
0
370
     0
390
0
100
AcDbVertex
100
AcDb2dVertex
 10
54.550545
 20
234.639236
 30
0.0
  0
VERTEX
  5
61C
100
AcDbEntity
  8
0
370
     0
390
0
100
AcDbVertex
100
AcDb2dVertex
 10
54.609467
 20
234.550705
 30
0.0
  0
VERTEX
  5
61D
100
AcDbEntity
  8
0
370
     0
390
0
100
AcDbVertex
100
AcDb2dVertex
 10
54.64143
 20
234.508026
 30
0.0
  0
VERTEX
  5
61E
100
AcDbEntity
  8
0
370
     0
390
0
100
AcDbVertex
100
AcDb2dVertex
 10
54.675018
 20
234.466492
 30
0.0
  0
VERTEX
  5
61F
100
AcDbEntity
  8
0
370
     0
390
0
100
AcDbVertex
100
AcDb2dVertex
 10
54.722252
 20
234.413055
 30
0.0
  0
VERTEX
  5
620
100
AcDbEntity
  8
0
370
     0
390
0
100
AcDbVertex
100
AcDb2dVertex
 10
54.77219
 20
234.361984
 30
0.0
  0
VERTEX
  5
621
100
AcDbEntity
  8
0
370
     0
390
0
100
AcDbVertex
100
AcDb2dVertex
 10
54.824703
 20
234.313446
 30
0.0
  0
VERTEX
  5
622
100
AcDbEntity
  8
0
370
     0
390
0
100
AcDbVertex
100
AcDb2dVertex
 10
54.880066
 20
234.267258
 30
0.0
  0
VERTEX
  5
623
100
AcDbEntity
  8
0
370
     0
390
0
100
AcDbVertex
100
AcDb2dVertex
 10
54.93779
 20
234.223907
 30
0.0
  0
VERTEX
  5
624
100
AcDbEntity
  8
0
370
     0
390
0
100
AcDbVertex
100
AcDb2dVertex
 10
54.997601
 20
234.183609
 30
0.0
  0
SEQEND
  5
625
100
AcDbEntity
  8
0
370
     0
390
0
  0
CIRCLE
  5
626
100
AcDbEntity
  8
0
370
    35
390
0
 62
     7
100
AcDbCircle
 10
51.152958
 20
228.150009
 30
0.0
 40
7.1
210
0.0
220
0.0
230
1.0
  0
ARC
  5
627
100
AcDbEntity
  8
0
370
    35
390
0
 62
     7
100
AcDbCircle
 10
51.152725
 20
228.149612
 30
0.0
 40
7.154873
210
0.0
220
0.0
230
1.0
100
AcDbArc
 50
57.494627
 51
61.351983
  0
ARC
  5
628
100
AcDbEntity
  8
0
370
    35
390
0
 62
     7
100
AcDbCircle
 10
51.152966
 20
228.149994
 30
0.0
 40
7.154425
210
0.0
220
0.0
230
1.0
100
AcDbArc
 50
61.352113
 51
122.505467
  0
POLYLINE
  5
629
100
AcDbEntity
  8
0
370
    35
390
0
 62
     7
100
AcDb2dPolyline
 66
     1
 10
0.0
 20
0.0
 30
0.0
 71
    27
  0
VERTEX
  5
62A
100
AcDbEntity
  8
0
370
     0
390
0
100
AcDbVertex
100
AcDb2dVertex
 10
47.694901
 20
236.355591
 30
0.0
  0
VERTEX
  5
62B
100
AcDbEntity
  8
0
370
     0
390
0
100
AcDbVertex
100
AcDb2dVertex
 10
47.750622
 20
236.265686
 30
0.0
  0
VERTEX
  5
62C
100
AcDbEntity
  8
0
370
     0
390
0
100
AcDbVertex
100
AcDb2dVertex
 10
47.800716
 20
236.172363
 30
0.0
  0
VERTEX
  5
62D
100
AcDbEntity
  8
0
370
     0
390
0
100
AcDbVertex
100
AcDb2dVertex
 10
47.844978
 20
236.075943
 30
0.0
  0
VERTEX
  5
62E
100
AcDbEntity
  8
0
370
     0
390
0
100
AcDbVertex
100
AcDb2dVertex
 10
47.88319
 20
235.9767
 30
0.0
  0
VERTEX
  5
62F
100
AcDbEntity
  8
0
370
     0
390
0
100
AcDbVertex
100
AcDb2dVertex
 10
47.915138
 20
235.874969
 30
0.0
  0
VERTEX
  5
630
100
AcDbEntity
  8
0
370
     0
390
0
100
AcDbVertex
100
AcDb2dVertex
 10
47.940601
 20
235.771088
 30
0.0
  0
VERTEX
  5
631
100
AcDbEntity
  8
0
370
     0
390
0
100
AcDbVertex
100
AcDb2dVertex
 10
47.959362
 20
235.665375
 30
0.0
  0
VERTEX
  5
632
100
AcDbEntity
  8
0
370
     0
390
0
100
AcDbVertex
100
AcDb2dVertex
 10
47.971035
 20
235.560333
 30
0.0
  0
VERTEX
  5
633
100
AcDbEntity
  8
0
370
     0
390
0
100
AcDbVertex
100
AcDb2dVertex
 10
47.975845
 20
235.454285
 30
0.0
  0
VERTEX
  5
634
100
AcDbEntity
  8
0
370
     0
390
0
100
AcDbVertex
100
AcDb2dVertex
 10
47.973595
 20
235.34761
 30
0.0
  0
VERTEX
  5
635
100
AcDbEntity
  8
0
370
     0
390
0
100
AcDbVertex
100
AcDb2dVertex
 10
47.964096
 20
235.240784
 30
0.0
  0
VERTEX
  5
636
100
AcDbEntity
  8
0
370
     0
390
0
100
AcDbVertex
100
AcDb2dVertex
 10
47.947174
 20
235.134308
 30
0.0
  0
VERTEX
  5
637
100
AcDbEntity
  8
0
370
     0
390
0
100
AcDbVertex
100
AcDb2dVertex
 10
47.922695
 20
235.028732
 30
0.0
  0
VERTEX
  5
638
100
AcDbEntity
  8
0
370
     0
390
0
100
AcDbVertex
100
AcDb2dVertex
 10
47.89056
 20
234.924622
 30
0.0
  0
VERTEX
  5
639
100
AcDbEntity
  8
0
370
     0
390
0
100
AcDbVertex
100
AcDb2dVertex
 10
47.852539
 20
234.826813
 30
0.0
  0
VERTEX
  5
63A
100
AcDbEntity
  8
0
370
     0
390
0
100
AcDbVertex
100
AcDb2dVertex
 10
47.807453
 20
234.731476
 30
0.0
  0
VERTEX
  5
63B
100
AcDbEntity
  8
0
370
     0
390
0
100
AcDbVertex
100
AcDb2dVertex
 10
47.755375
 20
234.639236
 30
0.0
  0
VERTEX
  5
63C
100
AcDbEntity
  8
0
370
     0
390
0
100
AcDbVertex
100
AcDb2dVertex
 10
47.696449
 20
234.550705
 30
0.0
  0
VERTEX
  5
63D
100
AcDbEntity
  8
0
370
     0
390
0
100
AcDbVertex
100
AcDb2dVertex
 10
47.664486
 20
234.508026
 30
0.0
  0
VERTEX
  5
63E
100
AcDbEntity
  8
0
370
     0
390
0
100
AcDbVertex
100
AcDb2dVertex
 10
47.630901
 20
234.466492
 30
0.0
  0
VERTEX
  5
63F
100
AcDbEntity
  8
0
370
     0
390
0
100
AcDbVertex
100
AcDb2dVertex
 10
47.583668
 20
234.413055
 30
0.0
  0
VERTEX
  5
640
100
AcDbEntity
  8
0
370
     0
390
0
100
AcDbVertex
100
AcDb2dVertex
 10
47.53373
 20
234.361984
 30
0.0
  0
VERTEX
  5
641
100
AcDbEntity
  8
0
370
     0
390
0
100
AcDbVertex
100
AcDb2dVertex
 10
47.481213
 20
234.313446
 30
0.0
  0
VERTEX
  5
642
100
AcDbEntity
  8
0
370
     0
390
0
100
AcDbVertex
100
AcDb2dVertex
 10
47.425854
 20
234.267258
 30
0.0
  0
VERTEX
  5
643
100
AcDbEntity
  8
0
370
     0
390
0
100
AcDbVertex
100
AcDb2dVertex
 10
47.368126
 20
234.223907
 30
0.0
  0
VERTEX
  5
644
100
AcDbEntity
  8
0
370
     0
390
0
100
AcDbVertex
100
AcDb2dVertex
 10
47.308319
 20
234.183609
 30
0.0
  0
SEQEND
  5
645
100
AcDbEntity
  8
0
370
     0
390
0
  0
LINE
  5
646
100
AcDbEntity
  8
0
370
    35
390
0
 62
     7
 48
0.002673
100
AcDbLine
 10
47.636932
 20
236.44545
 30
0.0
 11
47.694901
 21
236.355591
 31
0.0
210
0.0
220
0.0
230
1.0
  0
LINE
  5
647
100
AcDbEntity
  8
0
370
    35
390
0
 62
     7
 48
0.01
100
AcDbLine
 10
45.302959
 20
235.450012
 30
0.0
 11
44.902958
 21
235.450012
 31
0.0
210
0.0
220
0.0
230
1.0
  0
ARC
  5
648
100
AcDbEntity
  8
0
370
    35
390
0
 62
     7
100
AcDbCircle
 10
44.902958
 20
236.700012
 30
0.0
 40
1.25
210
0.0
220
0.0
230
1.0
100
AcDbArc
 50
90.000003
 51
269.999997
  0
LINE
  5
649
100
AcDbEntity
  8
0
370
    35
390
0
 62
     7
 48
0.01
100
AcDbLine
 10
44.902958
 20
237.950012
 30
0.0
 11
45.302959
 21
237.950012
 31
0.0
210
0.0
220
0.0
230
1.0
  0
ARC
  5
64A
100
AcDbEntity
  8
0
370
    35
390
0
 62
     7
100
AcDbCircle
 10
45.302959
 20
236.700012
 30
0.0
 40
1.25
210
0.0
220
0.0
230
1.0
100
AcDbArc
 50
269.999997
 51
90.000003
  0
CIRCLE
  5
64B
100
AcDbEntity
  8
0
370
    35
390
0
 62
     7
100
AcDbCircle
 10
57.202957
 20
236.700012
 30
0.0
 40
1.25
210
0.0
220
0.0
230
1.0
  0
ARC
  5
64C
100
AcDbEntity
  8
0
370
    35
390
0
 62
     7
100
AcDbCircle
 10
54.462036
 20
242.550003
 30
0.0
 40
0.5
210
0.0
220
0.0
230
1.0
100
AcDbArc
 50
90.000003
 51
221.230582
  0
ARC
  5
64D
100
AcDbEntity
  8
0
370
    35
390
0
 62
     7
100
AcDbCircle
 10
47.84388
 20
242.550003
 30
0.0
 40
0.5
210
0.0
220
0.0
230
1.0
100
AcDbArc
 50
318.769437
 51
90.000003
  0
LINE
  5
64E
100
AcDbEntity
  8
0
370
    35
390
0
 62
     7
 48
0.025
100
AcDbLine
 10
47.052959
 20
245.050003
 30
0.0
 11
47.052959
 21
244.050018
 31
0.0
210
0.0
220
0.0
230
1.0
  0
ARC
  5
64F
100
AcDbEntity
  8
0
370
    35
390
0
 62
     7
100
AcDbCircle
 10
45.352959
 20
244.550003
 30
0.0
 40
1.5
210
0.0
220
0.0
230
1.0
100
AcDbArc
 50
340.529081
 51
360.0
  0
LINE
  5
650
100
AcDbEntity
  8
0
370
    35
390
0
 62
     7
 48
0.002501
100
AcDbLine
 10
46.352959
 20
245.050003
 30
0.0
 11
46.352959
 21
245.150024
 31
0.0
210
0.0
220
0.0
230
1.0
  0
ARC
  5
651
100
AcDbEntity
  8
0
370
    35
390
0
 62
     7
100
AcDbCircle
 10
45.352959
 20
245.050003
 30
0.0
 40
1.0
210
0.0
220
0.0
230
1.0
100
AcDbArc
 50
269.999997
 51
360.0
  0
LINE
  5
652
100
AcDbEntity
  8
0
370
    35
390
0
 62
     7
 48
0.015001
100
AcDbLine
 10
46.852959
 20
245.150024
 30
0.0
 11
46.852959
 21
244.550003
 31
0.0
210
0.0
220
0.0
230
1.0
  0
LINE
  5
653
100
AcDbEntity
  8
0
370
    35
390
0
 62
     7
 48
0.005573
100
AcDbLine
 10
47.878819
 20
221.850006
 30
0.0
 11
48.101734
 21
221.850006
 31
0.0
210
0.0
220
0.0
230
1.0
  0
LINE
  5
654
100
AcDbEntity
  8
0
370
    35
390
0
 62
     7
 48
0.005573
100
AcDbLine
 10
54.204174
 20
221.850006
 30
0.0
 11
54.427101
 21
221.850006
 31
0.0
210
0.0
220
0.0
230
1.0
  0
LINE
  5
655
100
AcDbEntity
  8
0
370
    35
390
0
 62
     7
 48
0.002501
100
AcDbLine
 10
55.25296
 20
245.150009
 30
0.0
 11
55.25296
 21
245.049957
 31
0.0
210
0.0
220
0.0
230
1.0
  0
LINE
  5
656
100
AcDbEntity
  8
0
370
    35
390
0
 62
     7
 48
0.015001
100
AcDbLine
 10
55.452957
 20
245.150024
 30
0.0
 11
55.452957
 21
244.550003
 31
0.0
210
0.0
220
0.0
230
1.0
  0
ARC
  5
657
100
AcDbEntity
  8
0
370
    35
390
0
 62
     7
100
AcDbCircle
 10
56.952957
 20
244.550003
 30
0.0
 40
1.5
210
0.0
220
0.0
230
1.0
100
AcDbArc
 50
180.000009
 51
199.470938
  0
ARC
  5
658
100
AcDbEntity
  8
0
370
    35
390
0
 62
     7
100
AcDbCircle
 10
56.952957
 20
245.050003
 30
0.0
 40
1.0
210
0.0
220
0.0
230
1.0
100
AcDbArc
 50
180.000009
 51
269.999997
  0
LINE
  5
659
100
AcDbEntity
  8
0
370
    35
390
0
 62
     7
 48
0.002501
100
AcDbLine
 10
55.952957
 20
245.050003
 30
0.0
 11
55.952957
 21
245.150024
 31
0.0
210
0.0
220
0.0
230
1.0
  0
ARC
  5
65A
100
AcDbEntity
  8
0
370
    35
390
0
 62
     7
100
AcDbCircle
 10
51.152958
 20
239.650009
 30
0.0
 40
3.9
210
0.0
220
0.0
230
1.0
100
AcDbArc
 50
138.769418
 51
41.230577
  0
LINE
  5
65B
100
AcDbEntity
  8
0
370
    35
390
0
 62
     7
 48
0.025
100
AcDbLine
 10
55.25296
 20
244.050018
 30
0.0
 11
55.25296
 21
245.050003
 31
0.0
210
0.0
220
0.0
230
1.0
  0
LINE
  5
65C
100
AcDbEntity
  8
0
370
    35
390
0
 62
     7
 48
0.002502
100
AcDbLine
 10
47.052959
 20
245.050003
 30
0.0
 11
47.052959
 21
245.150085
 31
0.0
210
0.0
220
0.0
230
1.0
  0
ARC
  5
65D
100
AcDbEntity
  8
0
370
    35
390
0
 62
     7
100
AcDbCircle
 10
54.75296
 20
245.050003
 30
0.0
 40
0.5
210
0.0
220
0.0
230
1.0
100
AcDbArc
 50
0.0
 51
11.538233
  0
ARC
  5
65E
100
AcDbEntity
  8
0
370
    35
390
0
 62
     7
100
AcDbCircle
 10
51.152958
 20
239.650009
 30
0.0
 40
3.75
210
0.0
220
0.0
230
1.0
100
AcDbArc
 50
80.018316
 51
99.981682
  0
ARC
  5
65F
100
AcDbEntity
  8
0
370
    35
390
0
 62
     7
100
AcDbCircle
 10
51.152958
 20
239.650009
 30
0.0
 40
3.75
210
0.0
220
0.0
230
1.0
100
AcDbArc
 50
279.981697
 51
80.018316
  0
ARC
  5
660
100
AcDbEntity
  8
0
370
    35
390
0
 62
     7
100
AcDbCircle
 10
51.152958
 20
239.650009
 30
0.0
 40
3.75
210
0.0
220
0.0
230
1.0
100
AcDbArc
 50
260.018304
 51
279.981697
  0
ARC
  5
661
100
AcDbEntity
  8
0
370
    35
390
0
 62
     7
100
AcDbCircle
 10
51.152958
 20
239.650009
 30
0.0
 40
3.75
210
0.0
220
0.0
230
1.0
100
AcDbArc
 50
99.981682
 51
260.018304
  0
LINE
  5
662
100
AcDbEntity
  8
0
370
    35
390
0
 62
     7
 48
0.005082
100
AcDbLine
 10
51.802959
 20
243.139984
 30
0.0
 11
51.802959
 21
243.343246
 31
0.0
210
0.0
220
0.0
230
1.0
  0
LINE
  5
663
100
AcDbEntity
  8
0
370
    35
390
0
 62
     7
 48
0.005081
100
AcDbLine
 10
51.802959
 20
236.160019
 30
0.0
 11
51.802959
 21
235.956772
 31
0.0
210
0.0
220
0.0
230
1.0
  0
LINE
  5
664
100
AcDbEntity
  8
0
370
    35
390
0
 62
     7
 48
0.174499
100
AcDbLine
 10
51.802959
 20
243.139984
 30
0.0
 11
51.802959
 21
236.160019
 31
0.0
210
0.0
220
0.0
230
1.0
  0
ARC
  5
665
100
AcDbEntity
  8
0
370
    35
390
0
 62
     7
100
AcDbCircle
 10
51.152958
 20
239.650009
 30
0.0
 40
3.55
210
0.0
220
0.0
230
1.0
100
AcDbArc
 50
280.55029
 51
79.449696
  0
LINE
  5
666
100
AcDbEntity
  8
0
370
    35
390
0
 62
     7
 48
0.005081
100
AcDbLine
 10
50.50296
 20
236.160019
 30
0.0
 11
50.50296
 21
235.956772
 31
0.0
210
0.0
220
0.0
230
1.0
  0
LINE
  5
667
100
AcDbEntity
  8
0
370
    35
390
0
 62
     7
 48
0.005082
100
AcDbLine
 10
50.50296
 20
243.139984
 30
0.0
 11
50.50296
 21
243.343246
 31
0.0
210
0.0
220
0.0
230
1.0
  0
LINE
  5
668
100
AcDbEntity
  8
0
370
    35
390
0
 62
     7
 48
0.174499
100
AcDbLine
 10
50.50296
 20
236.160019
 30
0.0
 11
50.50296
 21
243.139984
 31
0.0
210
0.0
220
0.0
230
1.0
  0
ARC
  5
669
100
AcDbEntity
  8
0
370
    35
390
0
 62
     7
100
AcDbCircle
 10
51.152958
 20
239.650009
 30
0.0
 40
3.55
210
0.0
220
0.0
230
1.0
100
AcDbArc
 50
100.550302
 51
259.449705
  0
CIRCLE
  5
66A
100
AcDbEntity
  8
0
370
    35
390
0
 62
     7
100
AcDbCircle
 10
51.152958
 20
228.150009
 30
0.0
 40
7.0
210
0.0
220
0.0
230
1.0
  0
CIRCLE
  5
66B
100
AcDbEntity
  8
0
370
    35
390
0
 62
     7
100
AcDbCircle
 10
51.152958
 20
228.150009
 30
0.0
 40
6.9
210
0.0
220
0.0
230
1.0
  0
LINE
  5
66C
100
AcDbEntity
  8
0
370
    35
390
0
 62
     7
 48
0.109697
100
AcDbLine
 10
53.520096
 20
224.25
 30
0.0
 11
55.714027
 21
228.050003
 31
0.0
210
0.0
220
0.0
230
1.0
  0
ARC
  5
66D
100
AcDbEntity
  8
0
370
    35
390
0
 62
     7
100
AcDbCircle
 10
53.346889
 20
224.350006
 30
0.0
 40
0.2
210
0.0
220
0.0
230
1.0
100
AcDbArc
 50
269.999997
 51
329.999989
  0
LINE
  5
66E
100
AcDbEntity
  8
0
370
    35
390
0
 62
     7
 48
0.109696
100
AcDbLine
 10
48.95903
 20
224.150009
 30
0.0
 11
53.346889
 21
224.150009
 31
0.0
210
0.0
220
0.0
230
1.0
  0
ARC
  5
66F
100
AcDbEntity
  8
0
370
    35
390
0
 62
     7
100
AcDbCircle
 10
48.95903
 20
224.350006
 30
0.0
 40
0.2
210
0.0
220
0.0
230
1.0
100
AcDbArc
 50
210.000003
 51
269.999997
  0
LINE
  5
670
100
AcDbEntity
  8
0
370
    35
390
0
 62
     7
 48
0.109697
100
AcDbLine
 10
46.591892
 20
228.050003
 30
0.0
 11
48.785824
 21
224.25
 31
0.0
210
0.0
220
0.0
230
1.0
  0
ARC
  5
671
100
AcDbEntity
  8
0
370
    35
390
0
 62
     7
100
AcDbCircle
 10
46.765099
 20
228.150009
 30
0.0
 40
0.2
210
0.0
220
0.0
230
1.0
100
AcDbArc
 50
149.999997
 51
210.000003
  0
LINE
  5
672
100
AcDbEntity
  8
0
370
    35
390
0
 62
     7
 48
0.109697
100
AcDbLine
 10
48.785824
 20
232.050003
 30
0.0
 11
46.591892
 21
228.25
 31
0.0
210
0.0
220
0.0
230
1.0
  0
ARC
  5
673
100
AcDbEntity
  8
0
370
    35
390
0
 62
     7
100
AcDbCircle
 10
48.95903
 20
231.950012
 30
0.0
 40
0.2
210
0.0
220
0.0
230
1.0
100
AcDbArc
 50
90.000003
 51
149.999997
  0
LINE
  5
674
100
AcDbEntity
  8
0
370
    35
390
0
 62
     7
 48
0.109696
100
AcDbLine
 10
53.346889
 20
232.150009
 30
0.0
 11
48.95903
 21
232.150009
 31
0.0
210
0.0
220
0.0
230
1.0
  0
ARC
  5
675
100
AcDbEntity
  8
0
370
    35
390
0
 62
     7
100
AcDbCircle
 10
53.346889
 20
231.950012
 30
0.0
 40
0.2
210
0.0
220
0.0
230
1.0
100
AcDbArc
 50
30.000001
 51
90.000003
  0
LINE
  5
676
100
AcDbEntity
  8
0
370
    35
390
0
 62
     7
 48
0.109697
100
AcDbLine
 10
55.714027
 20
228.25
 30
0.0
 11
53.520096
 21
232.050003
 31
0.0
210
0.0
220
0.0
230
1.0
  0
ARC
  5
677
100
AcDbEntity
  8
0
370
    35
390
0
 62
     7
100
AcDbCircle
 10
55.540821
 20
228.150009
 30
0.0
 40
0.2
210
0.0
220
0.0
230
1.0
100
AcDbArc
 50
329.999989
 51
30.000001
  0
ARC
  5
678
100
AcDbEntity
  8
0
370
    35
390
0
 62
     7
100
AcDbCircle
 10
51.152958
 20
225.494202
 30
0.0
 40
0.2
210
0.0
220
0.0
230
1.0
100
AcDbArc
 50
240.00001
 51
299.999992
  0
LINE
  5
679
100
AcDbEntity
  8
0
370
    35
390
0
 62
     7
 48
0.066395
100
AcDbLine
 10
48.75296
 20
226.648895
 30
0.0
 11
51.052959
 21
225.320984
 31
0.0
210
0.0
220
0.0
230
1.0
  0
ARC
  5
67A
100
AcDbEntity
  8
0
370
    35
390
0
 62
     7
100
AcDbCircle
 10
48.852959
 20
226.822098
 30
0.0
 40
0.2
210
0.0
220
0.0
230
1.0
100
AcDbArc
 50
179.999991
 51
240.00001
  0
LINE
  5
67B
100
AcDbEntity
  8
0
370
    35
390
0
 62
     7
 48
0.066395
100
AcDbLine
 10
48.652958
 20
229.477905
 30
0.0
 11
48.652958
 21
226.822098
 31
0.0
210
0.0
220
0.0
230
1.0
  0
ARC
  5
67C
100
AcDbEntity
  8
0
370
    35
390
0
 62
     7
100
AcDbCircle
 10
48.852959
 20
229.477905
 30
0.0
 40
0.2
210
0.0
220
0.0
230
1.0
100
AcDbArc
 50
120.000003
 51
179.999991
  0
LINE
  5
67D
100
AcDbEntity
  8
0
370
    35
390
0
 62
     7
 48
0.066395
100
AcDbLine
 10
51.052959
 20
230.979019
 30
0.0
 11
48.75296
 21
229.651123
 31
0.0
210
0.0
220
0.0
230
1.0
  0
ARC
  5
67E
100
AcDbEntity
  8
0
370
    35
390
0
 62
     7
100
AcDbCircle
 10
51.152958
 20
230.805817
 30
0.0
 40
0.2
210
0.0
220
0.0
230
1.0
100
AcDbArc
 50
60.000002
 51
120.000003
  0
LINE
  5
67F
100
AcDbEntity
  8
0
370
    35
390
0
 62
     7
 48
0.066395
100
AcDbLine
 10
53.552959
 20
229.651123
 30
0.0
 11
51.25296
 21
230.979019
 31
0.0
210
0.0
220
0.0
230
1.0
  0
ARC
  5
680
100
AcDbEntity
  8
0
370
    35
390
0
 62
     7
100
AcDbCircle
 10
53.452957
 20
229.477905
 30
0.0
 40
0.2
210
0.0
220
0.0
230
1.0
100
AcDbArc
 50
0.0
 51
60.000002
  0
LINE
  5
681
100
AcDbEntity
  8
0
370
    35
390
0
 62
     7
 48
0.066395
100
AcDbLine
 10
53.652958
 20
226.822098
 30
0.0
 11
53.652958
 21
229.477905
 31
0.0
210
0.0
220
0.0
230
1.0
  0
ARC
  5
682
100
AcDbEntity
  8
0
370
    35
390
0
 62
     7
100
AcDbCircle
 10
53.452957
 20
226.822098
 30
0.0
 40
0.2
210
0.0
220
0.0
230
1.0
100
AcDbArc
 50
299.999992
 51
360.0
  0
LINE
  5
683
100
AcDbEntity
  8
0
370
    35
390
0
 62
     7
 48
0.066395
100
AcDbLine
 10
51.25296
 20
225.320984
 30
0.0
 11
53.552959
 21
226.648895
 31
0.0
210
0.0
220
0.0
230
1.0
  0
LINE
  5
684
100
AcDbEntity
  8
0
370
    35
390
0
 62
     7
100
AcDbLine
 10
54.552959
 20
218.949982
 30
0.0
 11
54.552959
 21
153.150009
 31
0.0
210
0.0
220
0.0
230
1.0
  0
LINE
  5
685
100
AcDbEntity
  8
0
370
    35
390
0
 62
     7
100
AcDbLine
 10
47.75296
 20
218.949982
 30
0.0
 11
47.75296
 21
153.150009
 31
0.0
210
0.0
220
0.0
230
1.0
  0
LINE
  5
686
100
AcDbEntity
  8
0
370
    35
390
0
 62
     7
 48
0.25
100
AcDbLine
 10
54.552959
 20
153.150009
 30
0.0
 11
54.552959
 21
143.150009
 31
0.0
210
0.0
220
0.0
230
1.0
  0
LINE
  5
687
100
AcDbEntity
  8
0
370
    35
390
0
 62
     7
 48
0.25
100
AcDbLine
 10
47.75296
 20
153.150009
 30
0.0
 11
47.75296
 21
143.150009
 31
0.0
210
0.0
220
0.0
230
1.0
  0
LINE
  5
688
100
AcDbEntity
  8
0
370
    35
390
0
 62
     7
 48
0.17
100
AcDbLine
 10
54.552959
 20
143.150009
 30
0.0
 11
47.75296
 21
143.150009
 31
0.0
210
0.0
220
0.0
230
1.0
  0
LINE
  5
689
100
AcDbEntity
  8
0
370
    35
390
0
 62
     7
 48
0.000122
100
AcDbLine
 10
59.752937
 20
242.554886
 30
0.0
 11
59.75296
 21
242.550003
 31
0.0
210
0.0
220
0.0
230
1.0
  0
LINE
  5
68A
100
AcDbEntity
  8
0
370
    35
390
0
 62
     7
 48
0.000823
100
AcDbLine
 10
59.751873
 20
242.582916
 30
0.0
 11
59.75296
 21
242.550003
 31
0.0
210
0.0
220
0.0
230
1.0
  0
LINE
  5
68B
100
AcDbEntity
  8
0
370
    35
390
0
 62
     7
 48
0.000641
100
AcDbLine
 10
59.752304
 20
242.575623
 30
0.0
 11
59.75296
 21
242.550003
 31
0.0
210
0.0
220
0.0
230
1.0
  0
ENDSEC
  0
SECTION
  2
OBJECTS
  0
DICTIONARY
  5
19
100
AcDbDictionary
280
     0
281
     1
  3
ACAD_GROUP
350
1A
  3
ACAD_MLINESTYLE
350
1B
  3
ACAD_LAYOUT
350
1E
  3
ACAD_PLOTSETTINGS
350
22
  3
ACAD_PLOTSTYLENAME
350
1F
  3
ACAD_WIPEOUT_VARS
350
23
  0
DICTIONARY
  5
1A
102
{ACAD_REACTORS
330
19
102
}
100
AcDbDictionary
280
     0
281
     1
  0
DICTIONARY
  5
1B
102
{ACAD_REACTORS
330
19
102
}
100
AcDbDictionary
280
     0
281
     1
  3
Standard
350
1C
  0
MLINESTYLE
  5
1C
102
{ACAD_REACTORS
330
1B
102
}
100
AcDbMlineStyle
  2
Standard
 70
     0
  3

 62
     0
 51
90.0
 52
90.0
 71
     2
 49
0.5
 62
   256
  6
ByLayer
 49
-0.5
 62
   256
  6
ByLayer
  0
ACDBDICTIONARYWDFLT
  5
1F
102
{ACAD_REACTORS
330
19
102
}
100
AcDbDictionary
281
     1
  3
Normal
350
1D
100
AcDbDictionaryWithDefault
340
1D
  0
ACDBPLACEHOLDER
  5
1D
102
{ACAD_REACTORS
330
1F
102
}
  0
LAYOUT
  5
20
102
{ACAD_REACTORS
330
1E
102
}
100
AcDbPlotSettings
  1

  2

  4

  6

 40
0.0
 41
0.0
 42
0.0
 43
0.0
 44
0.0
 45
0.0
 46
0.0
 47
0.0
 48
0.0
 49
0.0
140
0.0
141
0.0
142
1.0
143
1.0
 70
  1024
 72
     0
 73
     0
 74
     0
  7

 75
     0
147
1.0
148
0.0
149
0.0
100
AcDbLayout
  1
Model
 70
     0
 71
     0
 10
0.0
 20
0.0
 11
0.0
 21
0.0
 12
0.0
 22
0.0
 32
0.0
 14
0.0
 24
0.0
 34
0.0
 15
0.0
 25
0.0
 35
0.0
146
0.0
 13
0.0
 23
0.0
 33
0.0
 16
0.0
 26
0.0
 36
0.0
 17
0.0
 27
0.0
 37
0.0
 76
     0
330
A
331
0
345
0
346
0
  0
LAYOUT
  5
21
102
{ACAD_REACTORS
330
1E
102
}
100
AcDbPlotSettings
  1

  2

  4

  6

 40
0.0
 41
0.0
 42
0.0
 43
0.0
 44
0.0
 45
0.0
 46
0.0
 47
0.0
 48
0.0
 49
0.0
140
0.0
141
0.0
142
1.0
143
1.0
 70
     0
 72
     0
 73
     0
 74
     0
  7

 75
     0
147
1.0
148
0.0
149
0.0
100
AcDbLayout
  1
Layout1
 70
     0
 71
     0
 10
0.0
 20
0.0
 11
0.0
 21
0.0
 12
0.0
 22
0.0
 32
0.0
 14
0.0
 24
0.0
 34
0.0
 15
0.0
 25
0.0
 35
0.0
146
0.0
 13
0.0
 23
0.0
 33
0.0
 16
0.0
 26
0.0
 36
0.0
 17
0.0
 27
0.0
 37
0.0
 76
     0
330
B
331
0
345
0
346
0
  0
DICTIONARY
  5
1E
102
{ACAD_REACTORS
330
19
102
}
100
AcDbDictionary
280
     0
281
     1
  3
Layout1
350
21
  3
Model
350
20
  0
DICTIONARY
  5
22
102
{ACAD_REACTORS
330
19
102
}
100
AcDbDictionary
280
     0
281
     1
  0
WIPEOUTVARIABLES
  5
23
100
AcDbWipeoutVariables
 70
     1
  0
ENDSEC
  0
EOF
