  0
SECTION
  2
HEADER
  9
$EXTMAX
 10
210
 20
148.5
 30
0
  9
$EXTMIN
 10
-210
 20
-148.5
 30
0
  9
$LIMMAX
 10
210
 20
148.5
  9
$LIMMIN
 10
-210
 20
-148.5
  9
$PLIMMAX
 10
210
 20
148.5
  9
$PLIMMIN
 10
-210
 20
-148.5
  9
$TEXTSIZE
 40
3.2
  9
$DIMSHO
 70
     0
  9
$DIMASZ
 40
1.0
  9
$DIMTAD
 70
     1
  9
$DIMTIH
 70
     0
  9
$DIMTOH
 70
     0
  9
$DIMEXE
 40
2.54
  9
$DIMEXO
 40
2.54
  9
$DIMTVP
 40
1.0
  9
$DIMSAH
 70
     1
  9
$DIMDLE
 40
0.0
  9
$DIMTXT
 40
3.200000047683716
  9
$DIMGAP
 40
1.600000023841858
  0
ENDSEC
  0
SECTION
  2
TABLES
  0
TABLE
  2
LTYPE
 70
     6
  0
LTYPE
  2
CONTINUOUS
 70
    64
  3
Solid line
 72
    65
 73
     0
 40
0.0
  0
LTYPE
  2
DASHED
 70
    64
  3
__ __ __ __ __ __ __ __ __ __ __ __ __ __ __
 72
    65
 73
     2
 40
3.5
 49
2.0
 49
-1.5
  0
LTYPE
  2
CENTER
 70
    64
  3
____ _ ____ _ ____ _ ____ _ ____ _ ____ _ ____
 72
    65
 73
     4
 40
17.5
 49
13.0
 49
-1.5
 49
1.5
 49
-1.5
  0
LTYPE
  2
PHANTOM
 70
    64
  3
_____ _ _ _____ _ _ _____ _ _ _____ _ _ ____  
 72
    65
 73
     6
 40
15.5
 49
8.0
 49
-1.5
 49
1.5
 49
-1.5
 49
1.5
 49
-1.5
  0
LTYPE
  2
DOT
 70
    64
  3
. . . . . . . . . . . . . . . . . . . . . . . .
 72
    65
 73
     2
 40
0.25
 49
0.0
 49
-0.25
  0
LTYPE
  2
HIDDEN
 70
    64
  3
__ __ __ __ __ __ __ __ __ __ __ __ __ __ __
 72
    65
 73
     2
 40
3.5
 49
2.0
 49
-1.5
  0
ENDTAB
  0
TABLE
  2
LAYER
 70
     1
  0
LAYER
  2
0
 70
     0
 62
     7
  6
CONTINUOUS
  0
ENDTAB
  0
TABLE
  2
STYLE
 70
     1
  0
STYLE
  2
STANDARD
 70
     0
 40
0.0
 41
1.0
 50
0.0
 71
     0
 42
0.2
  3
txt
  4
BIGFONT
  0
ENDTAB
  0
TABLE
  2
DIMSTYLE
 70
     0
  0
ENDTAB
  0
ENDSEC
  0
SECTION
  2
BLOCKS
  0
BLOCK
  8
0
  2
KOZU0001
 70
    64
 10
0
 20
0
  0
LINE
  8
0
  6
CONTINUOUS
 62
     7
 10
0
 20
0
 11
-6.789573669433594
 21
-9.724254608154297
  0
LINE
  8
0
  6
CONTINUOUS
 62
     7
 10
-6.789573669433594
 20
-9.724254608154297
 11
-36.63414001464844
 21
-9.724254608154297
  0
LINE
  8
0
  6
CONTINUOUS
 62
     7
 10
0
 20
0
 11
-1.329912662525897
 21
-2.886444180418681
  0
LINE
  8
0
  6
CONTINUOUS
 62
     7
 10
0
 20
0
 11
-2.251503581417166
 21
-2.242980008712798
  0
TEXT
  8
0
  6
CONTINUOUS
 62
     7
 10
-34.57414484024048
 20
-8.924254596233368
 40
3.200000047683716
 41
0.9520745404757286
  1
４．１×６長穴
  0
ENDBLK
  8
0
  0
BLOCK
  8
0
  2
KOZU0002
 70
    64
 10
0
 20
0
  0
LINE
  8
0
  6
CONTINUOUS
 62
     7
 10
0
 20
0
 11
9.143218994140625
 21
17.13771057128906
  0
LINE
  8
0
  6
CONTINUOUS
 62
     7
 10
9.143218994140625
 20
17.13771057128906
 11
54.67119598388672
 21
17.13771057128906
  0
LINE
  8
0
  6
CONTINUOUS
 62
     7
 10
0
 20
0
 11
0.976544444270132
 21
3.024332760293538
  0
LINE
  8
0
  6
CONTINUOUS
 62
     7
 10
0
 20
0
 11
1.968234479751178
 21
2.49525163647641
  0
TEXT
  8
0
  6
CONTINUOUS
 62
     7
 10
14.04119992256165
 20
17.93771058320999
 40
3.200000047683716
 41
0.9495633798458195
  1
Ｍ－クランプ（付属品）
  0
ENDBLK
  8
0
  0
BLOCK
  8
0
  2
KOZU0003
 70
    64
 10
0
 20
0
  0
LINE
  8
0
  6
CONTINUOUS
 62
     7
 10
0
 20
0
 11
151.5000076293945
 21
0
  0
LINE
  8
0
  6
CONTINUOUS
 62
     7
 10
0
 20
0
 11
3.127999953022153
 21
0.5619999915596069
  0
LINE
  8
0
  6
CONTINUOUS
 62
     7
 10
0
 20
0
 11
3.127999953022153
 21
-0.5619999915596069
  0
ENDBLK
  8
0
  0
BLOCK
  8
0
  2
KOZU0004
 70
    64
 10
0
 20
0
  0
LINE
  8
0
  6
CONTINUOUS
 62
     7
 10
0
 20
0
 11
-151.5000839233398
 21
-4.57763671875e-005
  0
LINE
  8
0
  6
CONTINUOUS
 62
     7
 10
0
 20
0
 11
-3.127999783211418
 21
-0.5620009366975419
  0
LINE
  8
0
  6
CONTINUOUS
 62
     7
 10
0
 20
0
 11
-3.128000122832603
 21
0.5619990464216217
  0
ENDBLK
  8
0
  0
ENDSEC
  0
SECTION
  2
ENTITIES
  0
POINT
  8
0
  6
CONTINUOUS
 62
     7
 10
210
 20
-148.5
  0
POINT
  8
0
  6
CONTINUOUS
 62
     7
 10
210
 20
-148.5
  0
POINT
  8
0
  6
CONTINUOUS
 62
     7
 10
210
 20
-148.5
  0
POINT
  8
0
  6
CONTINUOUS
 62
     7
 10
210
 20
-148.5
  0
POINT
  8
0
  6
CONTINUOUS
 62
     7
 10
210
 20
-148.5
  0
POINT
  8
0
  6
CONTINUOUS
 62
     7
 10
210
 20
-148.5
  0
POINT
  8
0
  6
CONTINUOUS
 62
     7
 10
130.6309051513672
 20
22.86026000976563
  0
LINE
  8
0
  6
CENTER
 62
     7
 10
-179.9490966796875
 20
86.5284423828125
 11
187.6485595703125
 21
86.5284423828125
  0
LINE
  8
0
  6
CONTINUOUS
 62
     7
 10
-170.7691955566406
 20
98.72842407226563
 11
-170.7691955566406
 21
74.32843017578125
  0
LINE
  8
0
  6
CONTINUOUS
 62
     7
 10
169.1309204101563
 20
98.72842407226563
 11
169.1309204101563
 21
94.02841186523438
  0
LINE
  8
0
  6
CONTINUOUS
 62
     7
 10
179.6309204101563
 20
109.0284423828125
 11
179.6309204101563
 21
64.0284423828125
  0
LINE
  8
0
  6
CONTINUOUS
 62
     7
 10
169.1309204101563
 20
98.72842407226563
 11
179.6309204101563
 21
98.72842407226563
  0
LINE
  8
0
  6
CONTINUOUS
 62
     7
 10
169.1309204101563
 20
94.02841186523438
 11
170.6309204101563
 21
94.02841186523438
  0
LINE
  8
0
  6
CONTINUOUS
 62
     7
 10
169.1309204101563
 20
79.0284423828125
 11
170.6309204101563
 21
79.0284423828125
  0
LINE
  8
0
  6
CONTINUOUS
 62
     7
 10
169.1309204101563
 20
74.32843017578125
 11
179.6309204101563
 21
74.32843017578125
  0
LINE
  8
0
  6
CONTINUOUS
 62
     7
 10
-172.3692016601563
 20
98.72842407226563
 11
-172.3692016601563
 21
74.32843017578125
  0
LINE
  8
0
  6
CENTER
 62
     7
 10
-125.9091644287109
 20
104.0284423828125
 11
-115.8291625976563
 21
104.0284423828125
  0
LINE
  8
0
  6
CENTER
 62
     7
 10
-120.8691635131836
 20
109.0684432983398
 11
-120.8691635131836
 21
98.98844146728516
  0
LINE
  8
0
  6
CONTINUOUS
 62
     7
 10
177.6309204101563
 20
109.0284423828125
 11
179.6309204101563
 21
109.0284423828125
  0
LINE
  8
0
  6
CONTINUOUS
 62
     7
 10
177.6309204101563
 20
64.0284423828125
 11
179.6309204101563
 21
64.0284423828125
  0
LINE
  8
0
  6
CONTINUOUS
 62
     7
 10
177.6309204101563
 20
109.0284423828125
 11
177.6309204101563
 21
98.72842407226563
  0
LINE
  8
0
  6
CONTINUOUS
 62
     7
 10
177.6309204101563
 20
74.32843017578125
 11
177.6309204101563
 21
64.0284423828125
  0
LINE
  8
0
  6
CONTINUOUS
 62
     7
 10
169.1309204101563
 20
79.0284423828125
 11
169.1309204101563
 21
74.32843017578125
  0
LINE
  8
0
  6
CENTER
 62
     7
 10
175.6309204101563
 20
96.4056396484375
 11
175.6309204101563
 21
75.55899047851563
  0
LINE
  8
0
  6
CENTER
 62
     7
 10
170.9199829101563
 20
92.5284423828125
 11
180.3960571289063
 21
92.5284423828125
  0
LINE
  8
0
  6
CENTER
 62
     7
 10
171.2163696289063
 20
80.5284423828125
 11
180.5142211914063
 21
80.5284423828125
  0
LINE
  8
0
  6
CONTINUOUS
 62
     7
 10
174.1309204101563
 20
107.5284423828125
 11
177.6309204101563
 21
107.5284423828125
  0
LINE
  8
0
  6
CONTINUOUS
 62
     7
 10
174.1309204101563
 20
100.5284423828125
 11
177.6309204101563
 21
100.5284423828125
  0
LINE
  8
0
  6
CONTINUOUS
 62
     7
 10
173.6309204101563
 20
107.0284423828125
 11
173.6309204101563
 21
101.0284423828125
  0
LINE
  8
0
  6
CONTINUOUS
 62
     7
 10
174.1309204101563
 20
107.5284423828125
 11
174.1309204101563
 21
100.5284423828125
  0
LINE
  8
0
  6
CONTINUOUS
 62
     7
 10
173.6309509277344
 20
107.0284118652344
 11
174.1309661865234
 21
107.5284194946289
  0
LINE
  8
0
  6
CONTINUOUS
 62
     7
 10
173.6309356689453
 20
101.0284576416016
 11
174.1309204101563
 21
100.5284652709961
  0
LINE
  8
0
  6
CONTINUOUS
 62
     7
 10
174.1309204101563
 20
72.5284423828125
 11
177.6309204101563
 21
72.5284423828125
  0
LINE
  8
0
  6
CONTINUOUS
 62
     7
 10
174.1309204101563
 20
65.5284423828125
 11
177.6309204101563
 21
65.5284423828125
  0
LINE
  8
0
  6
CONTINUOUS
 62
     7
 10
173.6309204101563
 20
72.0284423828125
 11
173.6309204101563
 21
66.0284423828125
  0
LINE
  8
0
  6
CONTINUOUS
 62
     7
 10
174.1309204101563
 20
72.5284423828125
 11
174.1309204101563
 21
65.5284423828125
  0
LINE
  8
0
  6
CONTINUOUS
 62
     7
 10
173.6309356689453
 20
72.02841949462891
 11
174.1309509277344
 21
72.52841949462891
  0
LINE
  8
0
  6
CONTINUOUS
 62
     7
 10
173.6309356689453
 20
66.02846527099609
 11
174.1309204101563
 21
65.52847290039063
  0
LINE
  8
0
  6
CONTINUOUS
 62
     7
 10
174.2167053222656
 20
91.11421203613281
 11
177.0451354980469
 21
93.94264221191406
  0
LINE
  8
0
  6
CONTINUOUS
 62
     7
 10
174.2166748046875
 20
93.94265747070313
 11
177.0451049804688
 21
91.11423492431641
  0
LINE
  8
0
  6
CONTINUOUS
 62
     7
 10
178.1685180664063
 20
94.12844848632813
 11
179.6309204101563
 21
94.12844848632813
  0
LINE
  8
0
  6
CONTINUOUS
 62
     7
 10
178.1685180664063
 20
90.92843627929688
 11
179.6309204101563
 21
90.92843627929688
  0
LINE
  8
0
  6
CONTINUOUS
 62
     7
 10
174.2167053222656
 20
79.11419677734375
 11
177.0451354980469
 21
81.942626953125
  0
LINE
  8
0
  6
CONTINUOUS
 62
     7
 10
174.2166748046875
 20
81.94264984130859
 11
177.0451049804688
 21
79.11421966552734
  0
LINE
  8
0
  6
CONTINUOUS
 62
     7
 10
178.1685180664063
 20
82.12844848632813
 11
179.6309204101563
 21
82.12844848632813
  0
LINE
  8
0
  6
CONTINUOUS
 62
     7
 10
178.1685180664063
 20
78.92843627929688
 11
179.6309204101563
 21
78.92843627929688
  0
LINE
  8
0
  6
CENTER
 62
     7
 10
-176.3138122558594
 20
92.5284423828125
 11
-167.7510375976563
 21
92.5284423828125
  0
LINE
  8
0
  6
CONTINUOUS
 62
     7
 10
-173.4441528320313
 20
95.5284423828125
 11
-172.3692016601563
 21
95.5284423828125
  0
LINE
  8
0
  6
CONTINUOUS
 62
     7
 10
-173.4441528320313
 20
89.5284423828125
 11
-172.3692016601563
 21
89.5284423828125
  0
LINE
  8
0
  6
CENTER
 62
     7
 10
-176.3138122558594
 20
80.5284423828125
 11
-167.7510375976563
 21
80.5284423828125
  0
LINE
  8
0
  6
CONTINUOUS
 62
     7
 10
-173.4441528320313
 20
77.5284423828125
 11
-172.3692016601563
 21
77.5284423828125
  0
LINE
  8
0
  6
CONTINUOUS
 62
     7
 10
-173.4441528320313
 20
83.5284423828125
 11
-172.3692016601563
 21
83.5284423828125
  0
LINE
  8
0
  6
CONTINUOUS
 62
     7
 10
129.0308990478516
 20
94.02841186523438
 11
43.79632186889648
 21
94.02841186523438
  0
LINE
  8
0
  6
CONTINUOUS
 62
     7
 10
129.0308990478516
 20
79.0284423828125
 11
45.33691787719727
 21
79.0284423828125
  0
LINE
  8
0
  6
CONTINUOUS
 62
     7
 10
129.0308990478516
 20
98.72842407226563
 11
129.0308990478516
 21
74.32843017578125
  0
LINE
  8
0
  6
CONTINUOUS
 62
     7
 10
130.6309051513672
 20
98.72842407226563
 11
130.6309051513672
 21
74.32843017578125
  0
LINE
  8
0
  6
CONTINUOUS
 62
     7
 10
130.6309051513672
 20
98.72842407226563
 11
44.98826599121094
 21
98.72842407226563
  0
LINE
  8
0
  6
CONTINUOUS
 62
     7
 10
130.6309051513672
 20
74.32843017578125
 11
44.7073974609375
 21
74.32843017578125
  0
LINE
  8
0
  6
CENTER
 62
     7
 10
134.5755157470703
 20
92.5284423828125
 11
126.0127410888672
 21
92.5284423828125
  0
LINE
  8
0
  6
CONTINUOUS
 62
     7
 10
131.7058563232422
 20
95.5284423828125
 11
130.6309051513672
 21
95.5284423828125
  0
LINE
  8
0
  6
CONTINUOUS
 62
     7
 10
131.7058563232422
 20
89.5284423828125
 11
130.6309051513672
 21
89.5284423828125
  0
LINE
  8
0
  6
CENTER
 62
     7
 10
134.5755157470703
 20
80.5284423828125
 11
126.0127410888672
 21
80.5284423828125
  0
LINE
  8
0
  6
CONTINUOUS
 62
     7
 10
131.7058563232422
 20
77.5284423828125
 11
130.6309051513672
 21
77.5284423828125
  0
LINE
  8
0
  6
CONTINUOUS
 62
     7
 10
131.7058563232422
 20
83.5284423828125
 11
130.6309051513672
 21
83.5284423828125
  0
LINE
  8
0
  6
CENTER
 62
     7
 10
168.4492797851563
 20
104.0284423828125
 11
188.4502563476563
 21
104.0284423828125
  0
LINE
  8
0
  6
CENTER
 62
     7
 10
170.5371704101563
 20
69.0284423828125
 11
187.3252563476563
 21
69.0284423828125
  0
LINE
  8
0
  6
CENTER
 62
     7
 10
-120.8691635131836
 20
113.0835571289063
 11
-120.8691635131836
 21
96.69345092773438
  0
LINE
  8
0
  6
CONTINUOUS
 62
     7
 10
-110.8691635131836
 20
108.0284423828125
 11
-110.8691635131836
 21
98.72842407226563
  0
LINE
  8
0
  6
CONTINUOUS
 62
     7
 10
-130.8691558837891
 20
108.0284423828125
 11
-130.8691558837891
 21
98.72842407226563
  0
LINE
  8
0
  6
CONTINUOUS
 62
     7
 10
-111.8691635131836
 20
109.0284423828125
 11
-129.8691558837891
 21
109.0284423828125
  0
LINE
  8
0
  6
CONTINUOUS
 62
     7
 10
-119.3691635131836
 20
104.8944396972656
 11
-119.3691635131836
 21
103.1624145507813
  0
LINE
  8
0
  6
CONTINUOUS
 62
     7
 10
-122.3691635131836
 20
104.8944702148438
 11
-122.3691635131836
 21
103.1624145507813
  0
LINE
  8
0
  6
CONTINUOUS
 62
     7
 10
-119.3691482543945
 20
104.8944396972656
 11
-120.8691787719727
 21
105.7604827880859
  0
LINE
  8
0
  6
CONTINUOUS
 62
     7
 10
-120.8691711425781
 20
102.2963790893555
 11
-122.3691482543945
 21
103.1623916625977
  0
LINE
  8
0
  6
CONTINUOUS
 62
     7
 10
-120.8691558837891
 20
105.7604827880859
 11
-122.3691635131836
 21
104.8944549560547
  0
LINE
  8
0
  6
CONTINUOUS
 62
     7
 10
-119.3691558837891
 20
103.1624069213867
 11
-120.8691635131836
 21
102.2963790893555
  0
LINE
  8
0
  6
CENTER
 62
     7
 10
-120.8691635131836
 20
-20.18765068054199
 11
-120.8691635131836
 21
-1.347689747810364
  0
LINE
  8
0
  6
CONTINUOUS
 62
     7
 10
-110.8691635131836
 20
-15.67156887054443
 11
-110.8691635131836
 21
-13.67156887054443
  0
LINE
  8
0
  6
CONTINUOUS
 62
     7
 10
-130.8691558837891
 20
-15.67156887054443
 11
-130.8691558837891
 21
-13.67156887054443
  0
LINE
  8
0
  6
CONTINUOUS
 62
     7
 10
-111.8691635131836
 20
64.0284423828125
 11
-129.8691558837891
 21
64.0284423828125
  0
LINE
  8
0
  6
CONTINUOUS
 62
     7
 10
-119.3691635131836
 20
68.16244506835938
 11
-119.3691635131836
 21
69.89447021484375
  0
LINE
  8
0
  6
CONTINUOUS
 62
     7
 10
-122.3691635131836
 20
68.16241455078125
 11
-122.3691635131836
 21
69.89447021484375
  0
LINE
  8
0
  6
CONTINUOUS
 62
     7
 10
-119.3691482543945
 20
68.16245269775391
 11
-120.8691787719727
 21
67.29640960693359
  0
LINE
  8
0
  6
CONTINUOUS
 62
     7
 10
-120.8691787719727
 20
70.76051330566406
 11
-122.3691558837891
 21
69.89450073242188
  0
LINE
  8
0
  6
CONTINUOUS
 62
     7
 10
-120.8691711425781
 20
67.29638671875
 11
-122.3691711425781
 21
68.16241455078125
  0
LINE
  8
0
  6
CONTINUOUS
 62
     7
 10
-119.3691711425781
 20
69.89446258544922
 11
-120.8691711425781
 21
70.76049041748047
  0
LINE
  8
0
  6
CENTER
 62
     7
 10
79.130859375
 20
113.0835571289063
 11
79.130859375
 21
96.69345092773438
  0
LINE
  8
0
  6
CONTINUOUS
 62
     7
 10
89.130859375
 20
108.0284423828125
 11
89.130859375
 21
98.72842407226563
  0
LINE
  8
0
  6
CONTINUOUS
 62
     7
 10
69.130859375
 20
108.0284423828125
 11
69.130859375
 21
98.72842407226563
  0
LINE
  8
0
  6
CONTINUOUS
 62
     7
 10
88.130859375
 20
109.0284423828125
 11
70.130859375
 21
109.0284423828125
  0
LINE
  8
0
  6
CONTINUOUS
 62
     7
 10
80.630859375
 20
104.8944396972656
 11
80.630859375
 21
103.1624145507813
  0
LINE
  8
0
  6
CONTINUOUS
 62
     7
 10
77.630859375
 20
104.8944702148438
 11
77.630859375
 21
103.1624145507813
  0
LINE
  8
0
  6
CONTINUOUS
 62
     7
 10
80.63088226318359
 20
104.8944396972656
 11
79.13085174560547
 21
105.7604827880859
  0
LINE
  8
0
  6
CONTINUOUS
 62
     7
 10
79.13085174560547
 20
102.2963790893555
 11
77.63087463378906
 21
103.1623916625977
  0
LINE
  8
0
  6
CONTINUOUS
 62
     7
 10
79.13086700439453
 20
105.7604827880859
 11
77.63086700439453
 21
104.8944549560547
  0
LINE
  8
0
  6
CONTINUOUS
 62
     7
 10
80.63086700439453
 20
103.1624069213867
 11
79.13086700439453
 21
102.2963790893555
  0
LINE
  8
0
  6
CENTER
 62
     7
 10
79.130859375
 20
59.97332763671875
 11
79.130859375
 21
76.36343383789063
  0
LINE
  8
0
  6
CONTINUOUS
 62
     7
 10
89.130859375
 20
-15.67156887054443
 11
89.130859375
 21
-13.67156887054443
  0
LINE
  8
0
  6
CONTINUOUS
 62
     7
 10
69.130859375
 20
-15.67156887054443
 11
69.130859375
 21
-13.67156887054443
  0
LINE
  8
0
  6
CONTINUOUS
 62
     7
 10
88.130859375
 20
64.0284423828125
 11
70.130859375
 21
64.0284423828125
  0
LINE
  8
0
  6
PHANTOM
 62
     7
 10
80.630859375
 20
68.16244506835938
 11
80.630859375
 21
69.89447021484375
  0
LINE
  8
0
  6
PHANTOM
 62
     7
 10
77.630859375
 20
68.16241455078125
 11
77.630859375
 21
69.89447021484375
  0
LINE
  8
0
  6
PHANTOM
 62
     7
 10
80.63087463378906
 20
68.16246032714844
 11
79.13084411621094
 21
67.29641723632813
  0
LINE
  8
0
  6
PHANTOM
 62
     7
 10
79.13085174560547
 20
70.76052093505859
 11
77.63087463378906
 21
69.89450836181641
  0
LINE
  8
0
  6
PHANTOM
 62
     7
 10
79.130859375
 20
67.29638671875
 11
77.63085174560547
 21
68.16241455078125
  0
LINE
  8
0
  6
PHANTOM
 62
     7
 10
80.630859375
 20
69.89446258544922
 11
79.13085174560547
 21
70.76049041748047
  0
LINE
  8
0
  6
CONTINUOUS
 62
     7
 10
-24.34154891967773
 20
74.32843017578125
 11
-89.2926025390625
 21
74.32843017578125
  0
LINE
  8
0
  6
CONTINUOUS
 62
     7
 10
41.77705383300781
 20
94.02841186523438
 11
-23.20368003845215
 21
94.02841186523438
  0
LINE
  8
0
  6
CONTINUOUS
 62
     7
 10
-92.22294616699219
 20
94.02841186523438
 11
-170.7691955566406
 21
94.02841186523438
  0
LINE
  8
0
  6
CONTINUOUS
 62
     7
 10
-91.341552734375
 20
74.32843017578125
 11
-172.3692016601563
 21
74.32843017578125
  0
LINE
  8
0
  6
CONTINUOUS
 62
     7
 10
-23.66485977172852
 20
79.0284423828125
 11
-88.66307830810547
 21
79.0284423828125
  0
LINE
  8
0
  6
CONTINUOUS
 62
     7
 10
-91.12070465087891
 20
98.72842407226563
 11
-172.3692016601563
 21
98.72842407226563
  0
LINE
  8
0
  6
CONTINUOUS
 62
     7
 10
-90.66486358642578
 20
79.0284423828125
 11
-170.7691955566406
 21
79.0284423828125
  0
LINE
  8
0
  6
CONTINUOUS
 62
     7
 10
-43.86916351318359
 20
108.0284423828125
 11
-43.86916351318359
 21
98.72842407226563
  0
LINE
  8
0
  6
CENTER
 62
     7
 10
-126.4091644287109
 20
69.0284423828125
 11
-115.3291625976563
 21
69.0284423828125
  0
LINE
  8
0
  6
CENTER
 62
     7
 10
-59.40916061401367
 20
104.0284423828125
 11
-48.32916259765625
 21
104.0284423828125
  0
LINE
  8
0
  6
CENTER
 62
     7
 10
-58.90916061401367
 20
69.0284423828125
 11
-48.82916259765625
 21
69.0284423828125
  0
LINE
  8
0
  6
CENTER
 62
     7
 10
-53.86916351318359
 20
109.5684432983398
 11
-53.86916351318359
 21
98.48844146728516
  0
LINE
  8
0
  6
CENTER
 62
     7
 10
-53.86916351318359
 20
74.06844329833984
 11
-53.86916351318359
 21
63.98844146728516
  0
LINE
  8
0
  6
CENTER
 62
     7
 10
-120.8691635131836
 20
74.56844329833984
 11
-120.8691635131836
 21
63.48844146728516
  0
LINE
  8
0
  6
CONTINUOUS
 62
     7
 10
-172.3691558837891
 20
20.72121429443359
 11
-172.3691558837891
 21
72.32843017578125
  0
LINE
  8
0
  6
CONTINUOUS
 62
     7
 10
12.13083839416504
 20
44.2186164855957
 11
9.030838012695313
 21
43.67200088500977
  0
LINE
  8
0
  6
CONTINUOUS
 62
     7
 10
130.6309051513672
 20
-15.67156887054443
 11
44.82587432861328
 21
-15.67156887054443
  0
LINE
  8
0
  6
CONTINUOUS
 62
     7
 10
130.6309051513672
 20
-5.171568870544434
 11
44.3715705871582
 21
-5.171568870544434
  0
LINE
  8
0
  6
CENTER
 62
     7
 10
-53.86916351318359
 20
113.0835571289063
 11
-53.86916351318359
 21
96.69345092773438
  0
LINE
  8
0
  6
CONTINUOUS
 62
     7
 10
-63.86916351318359
 20
108.0284423828125
 11
-63.86916351318359
 21
98.72842407226563
  0
LINE
  8
0
  6
CONTINUOUS
 62
     7
 10
-44.86916351318359
 20
109.0284423828125
 11
-62.86916351318359
 21
109.0284423828125
  0
LINE
  8
0
  6
CONTINUOUS
 62
     7
 10
-52.36916351318359
 20
104.8944396972656
 11
-52.36916351318359
 21
103.1624145507813
  0
LINE
  8
0
  6
CONTINUOUS
 62
     7
 10
-55.36916351318359
 20
104.8944702148438
 11
-55.36916351318359
 21
103.1624145507813
  0
LINE
  8
0
  6
CONTINUOUS
 62
     7
 10
-52.36914443969727
 20
104.8944396972656
 11
-53.86917495727539
 21
105.7604827880859
  0
LINE
  8
0
  6
CONTINUOUS
 62
     7
 10
-53.86917114257813
 20
102.2963790893555
 11
-55.36914825439453
 21
103.1623916625977
  0
LINE
  8
0
  6
CONTINUOUS
 62
     7
 10
-53.86915969848633
 20
105.7604827880859
 11
-55.36916351318359
 21
104.8944549560547
  0
LINE
  8
0
  6
CONTINUOUS
 62
     7
 10
-52.36915969848633
 20
103.1624069213867
 11
-53.86916351318359
 21
102.2963790893555
  0
LINE
  8
0
  6
CENTER
 62
     7
 10
-53.86916351318359
 20
59.97332763671875
 11
-53.86916351318359
 21
76.36343383789063
  0
LINE
  8
0
  6
CONTINUOUS
 62
     7
 10
-43.86916351318359
 20
-15.67156887054443
 11
-43.86916351318359
 21
-13.67156887054443
  0
LINE
  8
0
  6
CONTINUOUS
 62
     7
 10
-63.86916351318359
 20
-15.67156887054443
 11
-63.86916351318359
 21
-13.67156887054443
  0
LINE
  8
0
  6
CONTINUOUS
 62
     7
 10
-44.86916351318359
 20
64.0284423828125
 11
-62.86916351318359
 21
64.0284423828125
  0
LINE
  8
0
  6
CONTINUOUS
 62
     7
 10
-52.36916351318359
 20
68.16244506835938
 11
-52.36916351318359
 21
69.89447021484375
  0
LINE
  8
0
  6
CONTINUOUS
 62
     7
 10
-55.36916351318359
 20
68.16241455078125
 11
-55.36916351318359
 21
69.89447021484375
  0
LINE
  8
0
  6
CONTINUOUS
 62
     7
 10
-52.36914825439453
 20
68.16245269775391
 11
-53.86917877197266
 21
67.29640960693359
  0
LINE
  8
0
  6
CONTINUOUS
 62
     7
 10
-53.86917495727539
 20
70.76051330566406
 11
-55.3691520690918
 21
69.89450073242188
  0
LINE
  8
0
  6
CONTINUOUS
 62
     7
 10
-53.86916732788086
 20
67.29638671875
 11
-55.36917495727539
 21
68.16241455078125
  0
LINE
  8
0
  6
CONTINUOUS
 62
     7
 10
-52.36916732788086
 20
69.89446258544922
 11
-53.86917495727539
 21
70.76049041748047
  0
LINE
  8
0
  6
CONTINUOUS
 62
     7
 10
22.13086318969727
 20
108.0284423828125
 11
22.13086318969727
 21
98.72842407226563
  0
LINE
  8
0
  6
CENTER
 62
     7
 10
12.13086223602295
 20
113.0835571289063
 11
12.13086223602295
 21
96.69345092773438
  0
LINE
  8
0
  6
CONTINUOUS
 62
     7
 10
2.130862712860107
 20
108.0284423828125
 11
2.130862712860107
 21
98.72842407226563
  0
LINE
  8
0
  6
CONTINUOUS
 62
     7
 10
21.13086318969727
 20
109.0284423828125
 11
3.130862712860107
 21
109.0284423828125
  0
LINE
  8
0
  6
CONTINUOUS
 62
     7
 10
13.63086223602295
 20
104.8944396972656
 11
13.63086223602295
 21
103.1624145507813
  0
LINE
  8
0
  6
CONTINUOUS
 62
     7
 10
10.63086223602295
 20
104.8944702148438
 11
10.63086223602295
 21
103.1624145507813
  0
LINE
  8
0
  6
CONTINUOUS
 62
     7
 10
13.63087844848633
 20
104.8944396972656
 11
12.1308479309082
 21
105.7604827880859
  0
LINE
  8
0
  6
CONTINUOUS
 62
     7
 10
12.13085269927979
 20
102.2963790893555
 11
10.63087463378906
 21
103.1623916625977
  0
LINE
  8
0
  6
CONTINUOUS
 62
     7
 10
12.13086700439453
 20
105.7604827880859
 11
10.63086223602295
 21
104.8944549560547
  0
LINE
  8
0
  6
CONTINUOUS
 62
     7
 10
13.63086700439453
 20
103.1624069213867
 11
12.13086223602295
 21
102.2963790893555
  0
LINE
  8
0
  6
CENTER
 62
     7
 10
12.13086223602295
 20
59.97332763671875
 11
12.13086223602295
 21
76.36343383789063
  0
LINE
  8
0
  6
CONTINUOUS
 62
     7
 10
22.13086318969727
 20
-15.67156887054443
 11
22.13086318969727
 21
-13.67156887054443
  0
LINE
  8
0
  6
CONTINUOUS
 62
     7
 10
2.130862712860107
 20
-15.67156887054443
 11
2.130862712860107
 21
-13.67156887054443
  0
LINE
  8
0
  6
CONTINUOUS
 62
     7
 10
21.13086318969727
 20
64.0284423828125
 11
3.130862712860107
 21
64.0284423828125
  0
LINE
  8
0
  6
CONTINUOUS
 62
     7
 10
13.63086223602295
 20
68.16244506835938
 11
13.63086223602295
 21
69.89447021484375
  0
LINE
  8
0
  6
CONTINUOUS
 62
     7
 10
10.63086223602295
 20
68.16241455078125
 11
10.63086223602295
 21
69.89447021484375
  0
LINE
  8
0
  6
CONTINUOUS
 62
     7
 10
13.63087463378906
 20
68.16245269775391
 11
12.13084411621094
 21
67.29640960693359
  0
LINE
  8
0
  6
CONTINUOUS
 62
     7
 10
12.1308479309082
 20
70.76051330566406
 11
10.6308708190918
 21
69.89450073242188
  0
LINE
  8
0
  6
CONTINUOUS
 62
     7
 10
12.13085556030273
 20
67.29638671875
 11
10.63085079193115
 21
68.16241455078125
  0
LINE
  8
0
  6
CONTINUOUS
 62
     7
 10
13.63085556030273
 20
69.89446258544922
 11
12.13085079193115
 21
70.76049041748047
  0
LINE
  8
0
  6
CENTER
 62
     7
 10
74.28388977050781
 20
69.97844696044922
 11
83.73360443115234
 21
69.97844696044922
  0
LINE
  8
0
  6
CONTINUOUS
 62
     7
 10
77.08086395263672
 20
69.97844696044922
 11
77.08086395263672
 21
68.07844543457031
  0
LINE
  8
0
  6
CONTINUOUS
 62
     7
 10
81.18086242675781
 20
69.97844696044922
 11
81.18086242675781
 21
68.07844543457031
  0
LINE
  8
0
  6
CONTINUOUS
 62
     7
 10
79.13083648681641
 20
44.2186164855957
 11
76.03083801269531
 21
44.76522827148438
  0
LINE
  8
0
  6
CONTINUOUS
 62
     7
 10
12.13083839416504
 20
44.2186164855957
 11
9.030838012695313
 21
44.76522827148438
  0
LINE
  8
0
  6
CONTINUOUS
 62
     7
 10
79.13083648681641
 20
44.2186164855957
 11
76.03083801269531
 21
43.67200088500977
  0
LINE
  8
0
  6
CONTINUOUS
 62
     7
 10
130.6309356689453
 20
19.61295318603516
 11
130.6309356689453
 21
72.32843017578125
  0
LINE
  8
0
  6
CENTER
 62
     7
 10
74.98009490966797
 20
68.07844543457031
 11
83.13861846923828
 21
68.07844543457031
  0
LINE
  8
0
  6
CONTINUOUS
 62
     7
 10
12.13083839416504
 20
44.2186164855957
 11
15.23083782196045
 21
43.67200088500977
  0
LINE
  8
0
  6
CONTINUOUS
 62
     7
 10
-120.8691635131836
 20
44.2186164855957
 11
-117.7691650390625
 21
43.67200088500977
  0
LINE
  8
0
  6
CONTINUOUS
 62
     7
 10
-120.8691635131836
 20
44.2186164855957
 11
-117.7691650390625
 21
44.76522827148438
  0
LINE
  8
0
  6
CONTINUOUS
 62
     7
 10
12.13083839416504
 20
44.2186164855957
 11
15.23083782196045
 21
44.76522827148438
  0
LINE
  8
0
  6
CONTINUOUS
 62
     7
 10
-120.8691635131836
 20
44.2186164855957
 11
79.13083648681641
 21
44.2186164855957
  0
LINE
  8
0
  6
CONTINUOUS
 62
     7
 10
79.13083648681641
 20
31.82915687561035
 11
79.13083648681641
 21
59.67445373535156
  0
LINE
  8
0
  6
CONTINUOUS
 62
     7
 10
12.13083839416504
 20
41.90902328491211
 11
12.13083839416504
 21
59.67445373535156
  0
LINE
  8
0
  6
CENTER
 62
     7
 10
-120.8691635131836
 20
60.62872314453125
 11
-120.8691635131836
 21
76.36343383789063
  0
LINE
  8
0
  6
CONTINUOUS
 62
     7
 10
-172.3692016601563
 20
-5.171568870544434
 11
-172.3692016601563
 21
-15.67156887054443
  0
LINE
  8
0
  6
CONTINUOUS
 62
     7
 10
130.6309051513672
 20
-5.171568870544434
 11
130.6309051513672
 21
-15.67156887054443
  0
LINE
  8
0
  6
CONTINUOUS
 62
     7
 10
-24.12070465087891
 20
98.72842407226563
 11
-89.01173400878906
 21
98.72842407226563
  0
LINE
  8
0
  6
CONTINUOUS
 62
     7
 10
-25.22294425964356
 20
94.02841186523438
 11
-90.20368194580078
 21
94.02841186523438
  0
LINE
  8
0
  6
CONTINUOUS
 62
     7
 10
42.87929534912109
 20
98.72842407226563
 11
-22.0117359161377
 21
98.72842407226563
  0
LINE
  8
0
  6
CONTINUOUS
 62
     7
 10
43.33514022827148
 20
79.0284423828125
 11
-21.66308212280273
 21
79.0284423828125
  0
LINE
  8
0
  6
CONTINUOUS
 62
     7
 10
42.65845108032227
 20
74.32843017578125
 11
-22.2926025390625
 21
74.32843017578125
  0
LINE
  8
0
  6
CONTINUOUS
 62
     7
 10
-43.86916351318359
 20
65.0284423828125
 11
-43.86916351318359
 21
74.32846069335938
  0
LINE
  8
0
  6
CONTINUOUS
 62
     7
 10
-110.8691635131836
 20
65.0284423828125
 11
-110.8691635131836
 21
74.32846069335938
  0
LINE
  8
0
  6
CONTINUOUS
 62
     7
 10
-130.8691558837891
 20
65.0284423828125
 11
-130.8691558837891
 21
74.32846069335938
  0
LINE
  8
0
  6
CONTINUOUS
 62
     7
 10
-63.86916351318359
 20
65.0284423828125
 11
-63.86916351318359
 21
74.32846069335938
  0
LINE
  8
0
  6
CONTINUOUS
 62
     7
 10
22.13086318969727
 20
65.0284423828125
 11
22.13086318969727
 21
74.32846069335938
  0
LINE
  8
0
  6
CONTINUOUS
 62
     7
 10
2.130862712860107
 20
65.0284423828125
 11
2.130862712860107
 21
74.32846069335938
  0
LINE
  8
0
  6
CONTINUOUS
 62
     7
 10
69.130859375
 20
65.0284423828125
 11
69.130859375
 21
74.32846069335938
  0
LINE
  8
0
  6
CONTINUOUS
 62
     7
 10
89.130859375
 20
65.0284423828125
 11
89.130859375
 21
74.32846069335938
  0
LINE
  8
0
  6
CONTINUOUS
 62
     7
 10
89.130859375
 20
-13.67156887054443
 11
69.130859375
 21
-13.67156887054443
  0
LINE
  8
0
  6
CONTINUOUS
 62
     7
 10
22.13086318969727
 20
-13.67156887054443
 11
2.130862712860107
 21
-13.67156887054443
  0
LINE
  8
0
  6
CONTINUOUS
 62
     7
 10
-43.86916351318359
 20
-13.67156887054443
 11
-63.86916351318359
 21
-13.67156887054443
  0
LINE
  8
0
  6
CONTINUOUS
 62
     7
 10
-110.8691635131836
 20
-13.67156887054443
 11
-130.8691558837891
 21
-13.67156887054443
  0
LINE
  8
0
  6
CONTINUOUS
 62
     7
 10
-117.8691635131836
 20
-9.671568870544434
 11
-123.8691635131836
 21
-9.671568870544434
  0
LINE
  8
0
  6
CONTINUOUS
 62
     7
 10
-50.86916351318359
 20
-9.671568870544434
 11
-56.86916351318359
 21
-9.671568870544434
  0
LINE
  8
0
  6
CONTINUOUS
 62
     7
 10
15.13083839416504
 20
-9.671568870544434
 11
9.130838394165039
 21
-9.671568870544434
  0
LINE
  8
0
  6
CONTINUOUS
 62
     7
 10
82.13083648681641
 20
-9.671568870544434
 11
76.13083648681641
 21
-9.671568870544434
  0
LINE
  8
0
  6
CENTER
 62
     7
 10
12.13083839416504
 20
-20.18765068054199
 11
12.13083839416504
 21
-1.347689747810364
  0
LINE
  8
0
  6
CONTINUOUS
 62
     7
 10
-120.8691635131836
 20
31.82915687561035
 11
-120.8691635131836
 21
59.67445373535156
  0
LINE
  8
0
  6
CENTER
 62
     7
 10
-53.86916351318359
 20
-20.18765068054199
 11
-53.86916351318359
 21
-1.347689747810364
  0
LINE
  8
0
  6
CENTER
 62
     7
 10
79.13083648681641
 20
-20.18765068054199
 11
79.13083648681641
 21
-1.347689747810364
  0
LINE
  8
0
  6
CONTINUOUS
 62
     7
 10
-124.3691635131836
 20
-13.67156887054443
 11
-124.3691635131836
 21
-10.17156887054443
  0
LINE
  8
0
  6
CONTINUOUS
 62
     7
 10
-117.3691635131836
 20
-13.67156887054443
 11
-117.3691635131836
 21
-10.17156887054443
  0
LINE
  8
0
  6
CONTINUOUS
 62
     7
 10
-57.36916351318359
 20
-13.67156887054443
 11
-57.36916351318359
 21
-10.17156887054443
  0
LINE
  8
0
  6
CONTINUOUS
 62
     7
 10
-50.36916351318359
 20
-13.67156887054443
 11
-50.36916351318359
 21
-10.17156887054443
  0
LINE
  8
0
  6
CONTINUOUS
 62
     7
 10
8.630838394165039
 20
-13.67156887054443
 11
8.630838394165039
 21
-10.17156887054443
  0
LINE
  8
0
  6
CONTINUOUS
 62
     7
 10
15.63083839416504
 20
-13.67156887054443
 11
15.63083839416504
 21
-10.17156887054443
  0
LINE
  8
0
  6
CONTINUOUS
 62
     7
 10
75.63083648681641
 20
-13.67156887054443
 11
75.63083648681641
 21
-10.17156887054443
  0
LINE
  8
0
  6
CONTINUOUS
 62
     7
 10
82.63083648681641
 20
-13.67156887054443
 11
82.63083648681641
 21
-10.17156887054443
  0
LINE
  8
0
  6
CONTINUOUS
 62
     7
 10
129.0309143066406
 20
-5.171568870544434
 11
129.0309143066406
 21
-15.67156887054443
  0
LINE
  8
0
  6
CONTINUOUS
 62
     7
 10
-170.7692108154297
 20
-5.171568870544434
 11
-170.7692108154297
 21
-15.67156887054443
  0
LINE
  8
0
  6
CONTINUOUS
 62
     7
 10
-91.82997894287109
 20
-5.171568870544434
 11
-172.3692016601563
 21
-5.171568870544434
  0
LINE
  8
0
  6
CONTINUOUS
 62
     7
 10
-24.82997894287109
 20
-5.171568870544434
 11
-89.62842559814453
 21
-5.171568870544434
  0
LINE
  8
0
  6
CONTINUOUS
 62
     7
 10
-24.54145622253418
 20
-15.67156887054443
 11
-89.17412567138672
 21
-15.67156887054443
  0
LINE
  8
0
  6
CONTINUOUS
 62
     7
 10
42.45854187011719
 20
-15.67156887054443
 11
-22.17412567138672
 21
-15.67156887054443
  0
LINE
  8
0
  6
CONTINUOUS
 62
     7
 10
42.17002105712891
 20
-5.171568870544434
 11
-22.6284294128418
 21
-5.171568870544434
  0
LINE
  8
0
  6
CONTINUOUS
 62
     7
 10
-91.54145812988281
 20
-15.67156887054443
 11
-172.3692016601563
 21
-15.67156887054443
  0
LINE
  8
0
  6
CENTER
 62
     7
 10
134.5755157470703
 20
-11.67155647277832
 11
126.0127410888672
 21
-11.67155647277832
  0
LINE
  8
0
  6
CONTINUOUS
 62
     7
 10
131.7058563232422
 20
-14.67155647277832
 11
130.6309051513672
 21
-14.67155647277832
  0
LINE
  8
0
  6
CONTINUOUS
 62
     7
 10
131.7058563232422
 20
-8.67155647277832
 11
130.6309051513672
 21
-8.67155647277832
  0
LINE
  8
0
  6
CENTER
 62
     7
 10
-176.3137969970703
 20
-11.67155647277832
 11
-167.7510223388672
 21
-11.67155647277832
  0
LINE
  8
0
  6
CONTINUOUS
 62
     7
 10
-173.4441375732422
 20
-8.67155647277832
 11
-172.3691864013672
 21
-8.67155647277832
  0
LINE
  8
0
  6
CONTINUOUS
 62
     7
 10
-173.4441375732422
 20
-14.67155647277832
 11
-172.3691864013672
 21
-14.67155647277832
  0
LINE
  8
0
  6
CONTINUOUS
 62
     7
 10
-117.3691635131836
 20
-10.17156887054443
 11
-124.3691635131836
 21
-10.17156887054443
  0
LINE
  8
0
  6
CONTINUOUS
 62
     7
 10
-50.36916351318359
 20
-10.17156887054443
 11
-57.36916351318359
 21
-10.17156887054443
  0
LINE
  8
0
  6
CONTINUOUS
 62
     7
 10
15.63083839416504
 20
-10.17156887054443
 11
8.630838394165039
 21
-10.17156887054443
  0
LINE
  8
0
  6
CONTINUOUS
 62
     7
 10
82.63083648681641
 20
-10.17156887054443
 11
75.63083648681641
 21
-10.17156887054443
  0
LINE
  8
0
  6
CONTINUOUS
 62
     7
 10
-124.3691635131836
 20
-10.17156887054443
 11
-123.8691635131836
 21
-9.671568870544434
  0
LINE
  8
0
  6
CONTINUOUS
 62
     7
 10
-117.8691635131836
 20
-9.671568870544434
 11
-117.3691635131836
 21
-10.17156887054443
  0
LINE
  8
0
  6
CONTINUOUS
 62
     7
 10
-57.36916351318359
 20
-10.17156887054443
 11
-56.86916351318359
 21
-9.671568870544434
  0
LINE
  8
0
  6
CONTINUOUS
 62
     7
 10
-50.86916351318359
 20
-9.671568870544434
 11
-50.36916351318359
 21
-10.17156887054443
  0
LINE
  8
0
  6
CONTINUOUS
 62
     7
 10
8.630838394165039
 20
-10.17156887054443
 11
9.130838394165039
 21
-9.671568870544434
  0
LINE
  8
0
  6
CONTINUOUS
 62
     7
 10
15.13083839416504
 20
-9.671568870544434
 11
15.63083839416504
 21
-10.17156887054443
  0
LINE
  8
0
  6
CONTINUOUS
 62
     7
 10
75.63083648681641
 20
-10.17156887054443
 11
76.13083648681641
 21
-9.671568870544434
  0
LINE
  8
0
  6
CONTINUOUS
 62
     7
 10
82.13083648681641
 20
-9.671568870544434
 11
82.63083648681641
 21
-10.17156887054443
  0
LINE
  8
0
  6
CONTINUOUS
 62
     7
 10
129.0309143066406
 20
-12.67156887054443
 11
82.63083648681641
 21
-12.67156887054443
  0
LINE
  8
0
  6
CONTINUOUS
 62
     7
 10
129.0309143066406
 20
-10.27156925201416
 11
82.63083648681641
 21
-10.27156925201416
  0
LINE
  8
0
  6
CONTINUOUS
 62
     7
 10
75.63083648681641
 20
-10.27156925201416
 11
45.12136077880859
 21
-10.27156925201416
  0
LINE
  8
0
  6
CONTINUOUS
 62
     7
 10
75.63083648681641
 20
-12.67156887054443
 11
45.57537078857422
 21
-12.67156887054443
  0
LINE
  8
0
  6
CONTINUOUS
 62
     7
 10
43.57535171508789
 20
-12.67156887054443
 11
15.63083839416504
 21
-12.67156887054443
  0
LINE
  8
0
  6
CONTINUOUS
 62
     7
 10
42.83585739135742
 20
-10.27156925201416
 11
15.63083839416504
 21
-10.27156925201416
  0
LINE
  8
0
  6
CONTINUOUS
 62
     7
 10
8.630838394165039
 20
-10.27156925201416
 11
-21.87863922119141
 21
-10.27156925201416
  0
LINE
  8
0
  6
CONTINUOUS
 62
     7
 10
8.630838394165039
 20
-12.67156887054443
 11
-21.42462921142578
 21
-12.67156887054443
  0
LINE
  8
0
  6
CONTINUOUS
 62
     7
 10
-24.16414260864258
 20
-10.27156925201416
 11
-50.36916351318359
 21
-10.27156925201416
  0
LINE
  8
0
  6
CONTINUOUS
 62
     7
 10
-23.42464828491211
 20
-12.67156887054443
 11
-50.36916351318359
 21
-12.67156887054443
  0
LINE
  8
0
  6
CONTINUOUS
 62
     7
 10
-57.36916351318359
 20
-10.27156925201416
 11
-88.87863922119141
 21
-10.27156925201416
  0
LINE
  8
0
  6
CONTINUOUS
 62
     7
 10
-57.36916351318359
 20
-12.67156887054443
 11
-88.42462921142578
 21
-12.67156887054443
  0
LINE
  8
0
  6
CONTINUOUS
 62
     7
 10
-90.42465209960938
 20
-12.67156887054443
 11
-117.3691635131836
 21
-12.67156887054443
  0
LINE
  8
0
  6
CONTINUOUS
 62
     7
 10
-91.16413879394531
 20
-10.27156925201416
 11
-117.3691635131836
 21
-10.27156925201416
  0
LINE
  8
0
  6
CONTINUOUS
 62
     7
 10
-124.3691635131836
 20
-10.27156925201416
 11
-170.7692108154297
 21
-10.27156925201416
  0
LINE
  8
0
  6
CONTINUOUS
 62
     7
 10
-124.3691635131836
 20
-12.67156887054443
 11
-170.7692108154297
 21
-12.67156887054443
  0
LINE
  8
0
  6
CENTER
 62
     7
 10
12.13086223602295
 20
109.5684432983398
 11
12.13086223602295
 21
98.48844146728516
  0
LINE
  8
0
  6
CENTER
 62
     7
 10
6.59086275100708
 20
104.0284423828125
 11
17.67086219787598
 21
104.0284423828125
  0
LINE
  8
0
  6
CENTER
 62
     7
 10
12.13086223602295
 20
74.56844329833984
 11
12.13086223602295
 21
63.48844146728516
  0
LINE
  8
0
  6
CENTER
 62
     7
 10
6.59086275100708
 20
69.0284423828125
 11
17.67086219787598
 21
69.0284423828125
  0
LINE
  8
0
  6
CENTER
 62
     7
 10
79.130859375
 20
109.5684432983398
 11
79.130859375
 21
98.48844146728516
  0
LINE
  8
0
  6
CENTER
 62
     7
 10
73.59086608886719
 20
104.0284423828125
 11
84.67086029052734
 21
104.0284423828125
  0
LINE
  8
0
  6
CENTER
 62
     7
 10
79.130859375
 20
72.66844177246094
 11
79.130859375
 21
63.48844146728516
  0
LINE
  8
0
  6
CENTER
 62
     7
 10
74.54086303710938
 20
68.07844543457031
 11
83.72086334228516
 21
68.07844543457031
  0
LINE
  8
0
  6
CENTER
 62
     7
 10
79.130859375
 20
72.66844177246094
 11
79.130859375
 21
63.48844146728516
  0
LINE
  8
0
  6
CENTER
 62
     7
 10
74.15172576904297
 20
68.07844543457031
 11
83.72086334228516
 21
68.07844543457031
  0
LINE
  8
0
  6
CONTINUOUS
 62
     7
 10
170.6309204101563
 20
94.02841186523438
 11
170.6309204101563
 21
79.0284423828125
  0
LINE
  8
0
  6
CONTINUOUS
 62
     7
 10
-120.8691635131836
 20
33.53945922851563
 11
79.13083648681641
 21
33.53945922851563
  0
LINE
  8
0
  6
CONTINUOUS
 62
     7
 10
-120.8691635131836
 20
33.53941345214844
 11
-117.7691650390625
 21
32.99280166625977
  0
LINE
  8
0
  6
CONTINUOUS
 62
     7
 10
-120.8691635131836
 20
33.53941345214844
 11
-117.7691650390625
 21
34.08602905273438
  0
LINE
  8
0
  6
CONTINUOUS
 62
     7
 10
79.13083648681641
 20
33.53941345214844
 11
76.03083801269531
 21
32.99280166625977
  0
LINE
  8
0
  6
CONTINUOUS
 62
     7
 10
79.13083648681641
 20
33.53941345214844
 11
76.03083801269531
 21
34.08602905273438
  0
LINE
  8
0
  6
HIDDEN
 62
     7
 10
-210
 20
-148.5
 11
210
 21
-148.5
  0
LINE
  8
0
  6
HIDDEN
 62
     7
 10
210
 20
148.5
 11
210
 21
-148.5
  0
LINE
  8
0
  6
CENTER
 62
     7
 10
74.130859375
 20
69.0284423828125
 11
84.130859375
 21
69.0284423828125
  0
LINE
  8
0
  6
CONTINUOUS
 62
     7
 10
-170.6144256591797
 20
-40.49729156494141
 11
-12.61442756652832
 21
-40.49729156494141
  0
LINE
  8
0
  6
CONTINUOUS
 62
     7
 10
-170.6144256591797
 20
-46.49729156494141
 11
-12.61442756652832
 21
-46.49729156494141
  0
LINE
  8
0
  6
CONTINUOUS
 62
     7
 10
-170.6144256591797
 20
-40.49729156494141
 11
-170.6144256591797
 21
-130.4972991943359
  0
LINE
  8
0
  6
CONTINUOUS
 62
     7
 10
-170.6144256591797
 20
-52.49729156494141
 11
-105.6144256591797
 21
-52.49729156494141
  0
LINE
  8
0
  6
CONTINUOUS
 62
     7
 10
-170.6144256591797
 20
-58.49729156494141
 11
-105.6144256591797
 21
-58.49729156494141
  0
LINE
  8
0
  6
CONTINUOUS
 62
     7
 10
-170.6144256591797
 20
-64.49729156494141
 11
-105.6144256591797
 21
-64.49729156494141
  0
LINE
  8
0
  6
CONTINUOUS
 62
     7
 10
-170.6144256591797
 20
-70.49729156494141
 11
-105.6144256591797
 21
-70.49729156494141
  0
LINE
  8
0
  6
CONTINUOUS
 62
     7
 10
-170.6144256591797
 20
-76.49729156494141
 11
-105.6144256591797
 21
-76.49729156494141
  0
LINE
  8
0
  6
CONTINUOUS
 62
     7
 10
-170.6144256591797
 20
-82.49729156494141
 11
-105.6144256591797
 21
-82.49729156494141
  0
LINE
  8
0
  6
CONTINUOUS
 62
     7
 10
-170.6144256591797
 20
-88.49729156494141
 11
-105.6144256591797
 21
-88.49729156494141
  0
LINE
  8
0
  6
CONTINUOUS
 62
     7
 10
-170.6144256591797
 20
-94.49729156494141
 11
-105.6144256591797
 21
-94.49729156494141
  0
LINE
  8
0
  6
CONTINUOUS
 62
     7
 10
-170.6144256591797
 20
-100.4972915649414
 11
-105.6144256591797
 21
-100.4972915649414
  0
LINE
  8
0
  6
CONTINUOUS
 62
     7
 10
-130.6144256591797
 20
-40.49729156494141
 11
-130.6144256591797
 21
-130.4972991943359
  0
LINE
  8
0
  6
CONTINUOUS
 62
     7
 10
-170.6144256591797
 20
-106.4972915649414
 11
-105.6144256591797
 21
-106.4972915649414
  0
LINE
  8
0
  6
CONTINUOUS
 62
     7
 10
-170.6144256591797
 20
-112.4972915649414
 11
-105.6144256591797
 21
-112.4972915649414
  0
LINE
  8
0
  6
CONTINUOUS
 62
     7
 10
-170.6144256591797
 20
-118.4972915649414
 11
-105.6144256591797
 21
-118.4972915649414
  0
LINE
  8
0
  6
CONTINUOUS
 62
     7
 10
-170.6144256591797
 20
-124.4972915649414
 11
-105.6144256591797
 21
-124.4972915649414
  0
LINE
  8
0
  6
CONTINUOUS
 62
     7
 10
-170.6144256591797
 20
-130.4972991943359
 11
-12.61442756652832
 21
-130.4972991943359
  0
LINE
  8
0
  6
CONTINUOUS
 62
     7
 10
-130.6144256591797
 20
-40.49729156494141
 11
-130.6144256591797
 21
-130.4972991943359
  0
LINE
  8
0
  6
CONTINUOUS
 62
     7
 10
-105.6144256591797
 20
-40.49729156494141
 11
-105.6144256591797
 21
-130.4972991943359
  0
LINE
  8
0
  6
CONTINUOUS
 62
     7
 10
-75.61442565917969
 20
-76.49729156494141
 11
-12.61442756652832
 21
-76.49729156494141
  0
LINE
  8
0
  6
CONTINUOUS
 62
     7
 10
-75.61442565917969
 20
-82.49729156494141
 11
-12.61442756652832
 21
-82.49729156494141
  0
LINE
  8
0
  6
CONTINUOUS
 62
     7
 10
-75.61442565917969
 20
-88.49729156494141
 11
-12.61442756652832
 21
-88.49729156494141
  0
LINE
  8
0
  6
CONTINUOUS
 62
     7
 10
-75.61442565917969
 20
-94.49729156494141
 11
-12.61442756652832
 21
-94.49729156494141
  0
LINE
  8
0
  6
CONTINUOUS
 62
     7
 10
-75.61442565917969
 20
-100.4972915649414
 11
-12.61442756652832
 21
-100.4972915649414
  0
LINE
  8
0
  6
CONTINUOUS
 62
     7
 10
-75.61442565917969
 20
-106.4972915649414
 11
-12.61442756652832
 21
-106.4972915649414
  0
LINE
  8
0
  6
CONTINUOUS
 62
     7
 10
-75.61442565917969
 20
-112.4972915649414
 11
-12.61442756652832
 21
-112.4972915649414
  0
LINE
  8
0
  6
CONTINUOUS
 62
     7
 10
-75.61442565917969
 20
-118.4972915649414
 11
-12.61442756652832
 21
-118.4972915649414
  0
LINE
  8
0
  6
CONTINUOUS
 62
     7
 10
-75.61442565917969
 20
-124.4972915649414
 11
-12.61442756652832
 21
-124.4972915649414
  0
LINE
  8
0
  6
CONTINUOUS
 62
     7
 10
-55.61442565917969
 20
-40.49729156494141
 11
-55.61442565917969
 21
-130.4972991943359
  0
LINE
  8
0
  6
CONTINUOUS
 62
     7
 10
-35.61442565917969
 20
-40.49729156494141
 11
-35.61442565917969
 21
-130.4972991943359
  0
LINE
  8
0
  6
CONTINUOUS
 62
     7
 10
-75.61442565917969
 20
-52.49729156494141
 11
-12.61442756652832
 21
-52.49729156494141
  0
LINE
  8
0
  6
CONTINUOUS
 62
     7
 10
-75.61442565917969
 20
-58.49729156494141
 11
-12.61442756652832
 21
-58.49729156494141
  0
LINE
  8
0
  6
CONTINUOUS
 62
     7
 10
-75.61442565917969
 20
-64.49729156494141
 11
-12.61442756652832
 21
-64.49729156494141
  0
LINE
  8
0
  6
CONTINUOUS
 62
     7
 10
-75.61442565917969
 20
-70.49729156494141
 11
-12.61442756652832
 21
-70.49729156494141
  0
LINE
  8
0
  6
CONTINUOUS
 62
     7
 10
-75.61442565917969
 20
-40.49729156494141
 11
-75.61442565917969
 21
-130.4972991943359
  0
LINE
  8
0
  6
CONTINUOUS
 62
     7
 10
-12.61442756652832
 20
-40.49729156494141
 11
-12.61442756652832
 21
-130.4972991943359
  0
CIRCLE
  8
0
  6
CONTINUOUS
 62
     7
 10
175.6309204101563
 20
92.5284423828125
 40
3
  0
CIRCLE
  8
0
  6
CONTINUOUS
 62
     7
 10
175.6309204101563
 20
80.5284423828125
 40
3
  0
ARC
  8
0
  6
CONTINUOUS
 62
     7
 10
-164.669189453125
 20
92.5284423828125
 40
10
 50
167.1604278540072
 51
192.8395721459935
  0
ARC
  8
0
  6
CONTINUOUS
 62
     7
 10
-173.4441528320313
 20
94.5284423828125
 40
1
 50
90.00000000000019
 51
167.1605870411026
  0
ARC
  8
0
  6
CONTINUOUS
 62
     7
 10
-173.4441528320313
 20
90.5284423828125
 40
1
 50
192.8394129588981
 51
270.0000000000005
  0
ARC
  8
0
  6
CONTINUOUS
 62
     7
 10
-164.669189453125
 20
80.5284423828125
 40
10
 50
167.1604278540072
 51
192.8395721459935
  0
ARC
  8
0
  6
CONTINUOUS
 62
     7
 10
-173.4441528320313
 20
78.5284423828125
 40
1
 50
192.8394129588981
 51
270.0000000000005
  0
ARC
  8
0
  6
CONTINUOUS
 62
     7
 10
-173.4441528320313
 20
82.5284423828125
 40
1
 50
90.00000000000019
 51
167.1605870411026
  0
ARC
  8
0
  6
CONTINUOUS
 62
     7
 10
122.9308929443359
 20
92.5284423828125
 40
10
 50
347.1604278540079
 51
12.83957214599282
  0
ARC
  8
0
  6
CONTINUOUS
 62
     7
 10
131.7058563232422
 20
94.5284423828125
 40
1
 50
12.8394129588974
 51
90.00000000000019
  0
ARC
  8
0
  6
CONTINUOUS
 62
     7
 10
131.7058563232422
 20
90.5284423828125
 40
1
 50
270.0000000000005
 51
347.1605870411033
  0
ARC
  8
0
  6
CONTINUOUS
 62
     7
 10
122.9308929443359
 20
80.5284423828125
 40
10
 50
347.1604278540079
 51
12.83957214599282
  0
ARC
  8
0
  6
CONTINUOUS
 62
     7
 10
131.7058563232422
 20
78.5284423828125
 40
1
 50
270.0000000000005
 51
347.1605870411033
  0
ARC
  8
0
  6
CONTINUOUS
 62
     7
 10
131.7058563232422
 20
82.5284423828125
 40
1
 50
12.8394129588974
 51
90.00000000000019
  0
ARC
  8
0
  6
CONTINUOUS
 62
     7
 10
-111.8691635131836
 20
108.0284423828125
 40
1
 50
0
 51
90.00000000000019
  0
ARC
  8
0
  6
CONTINUOUS
 62
     7
 10
-129.8691558837891
 20
108.0284423828125
 40
1
 50
90.00000000000019
 51
180.0000000000004
  0
CIRCLE
  8
0
  6
CONTINUOUS
 62
     7
 10
-120.8691635131836
 20
104.0284423828125
 40
3
  0
CIRCLE
  8
0
  6
CONTINUOUS
 62
     7
 10
-120.8691635131836
 20
104.0284423828125
 40
2.5
  0
ARC
  8
0
  6
CONTINUOUS
 62
     7
 10
-111.8691635131836
 20
65.0284423828125
 40
1
 50
270.0000000000005
 51
360
  0
ARC
  8
0
  6
CONTINUOUS
 62
     7
 10
-129.8691558837891
 20
65.0284423828125
 40
1
 50
180.0000000000004
 51
270.0000000000005
  0
CIRCLE
  8
0
  6
CONTINUOUS
 62
     7
 10
-120.8691635131836
 20
69.0284423828125
 40
3
  0
CIRCLE
  8
0
  6
CONTINUOUS
 62
     7
 10
-120.8691635131836
 20
69.0284423828125
 40
2.5
  0
ARC
  8
0
  6
CONTINUOUS
 62
     7
 10
88.130859375
 20
108.0284423828125
 40
1
 50
0
 51
90.00000000000019
  0
ARC
  8
0
  6
CONTINUOUS
 62
     7
 10
70.130859375
 20
108.0284423828125
 40
1
 50
90.00000000000019
 51
180.0000000000004
  0
CIRCLE
  8
0
  6
CONTINUOUS
 62
     7
 10
79.130859375
 20
104.0284423828125
 40
3
  0
CIRCLE
  8
0
  6
CONTINUOUS
 62
     7
 10
79.130859375
 20
104.0284423828125
 40
2.5
  0
ARC
  8
0
  6
CONTINUOUS
 62
     7
 10
88.130859375
 20
65.0284423828125
 40
1
 50
270.0000000000005
 51
360
  0
ARC
  8
0
  6
CONTINUOUS
 62
     7
 10
70.130859375
 20
65.0284423828125
 40
1
 50
180.0000000000004
 51
270.0000000000005
  0
CIRCLE
  8
0
  6
PHANTOM
 62
     7
 10
79.130859375
 20
69.0284423828125
 40
3
  0
CIRCLE
  8
0
  6
PHANTOM
 62
     7
 10
79.130859375
 20
69.0284423828125
 40
2.5
  0
ARC
  8
0
  6
CONTINUOUS
 62
     7
 10
-44.86916351318359
 20
108.0284423828125
 40
1
 50
0
 51
90.00000000000019
  0
ARC
  8
0
  6
CONTINUOUS
 62
     7
 10
-62.86916351318359
 20
108.0284423828125
 40
1
 50
90.00000000000019
 51
180.0000000000004
  0
CIRCLE
  8
0
  6
CONTINUOUS
 62
     7
 10
-53.86916351318359
 20
104.0284423828125
 40
3
  0
CIRCLE
  8
0
  6
CONTINUOUS
 62
     7
 10
-53.86916351318359
 20
104.0284423828125
 40
2.5
  0
ARC
  8
0
  6
CONTINUOUS
 62
     7
 10
-44.86916351318359
 20
65.0284423828125
 40
1
 50
270.0002185660542
 51
360
  0
ARC
  8
0
  6
CONTINUOUS
 62
     7
 10
-62.86916351318359
 20
65.0284423828125
 40
1
 50
180.0000000000004
 51
270.0000000000005
  0
CIRCLE
  8
0
  6
CONTINUOUS
 62
     7
 10
-53.86916351318359
 20
69.0284423828125
 40
3
  0
CIRCLE
  8
0
  6
CONTINUOUS
 62
     7
 10
-53.86916351318359
 20
69.0284423828125
 40
2.5
  0
ARC
  8
0
  6
CONTINUOUS
 62
     7
 10
21.13086318969727
 20
108.0284423828125
 40
1
 50
0
 51
90.00010928302672
  0
ARC
  8
0
  6
CONTINUOUS
 62
     7
 10
3.130862712860107
 20
108.0284423828125
 40
1
 50
90.00004098113502
 51
180.0000000000004
  0
CIRCLE
  8
0
  6
CONTINUOUS
 62
     7
 10
12.13086223602295
 20
104.0284423828125
 40
3
  0
CIRCLE
  8
0
  6
CONTINUOUS
 62
     7
 10
12.13086223602295
 20
104.0284423828125
 40
2.5
  0
ARC
  8
0
  6
CONTINUOUS
 62
     7
 10
21.13086318969727
 20
65.0284423828125
 40
1
 50
270.0000000000005
 51
360
  0
ARC
  8
0
  6
CONTINUOUS
 62
     7
 10
3.130862712860107
 20
65.0284423828125
 40
1
 50
180.0000000000004
 51
270.0000000000005
  0
CIRCLE
  8
0
  6
CONTINUOUS
 62
     7
 10
12.13086223602295
 20
69.0284423828125
 40
2.5
  0
CIRCLE
  8
0
  6
CONTINUOUS
 62
     7
 10
12.13086223602295
 20
69.0284423828125
 40
3
  0
ARC
  8
0
  6
CONTINUOUS
 62
     7
 10
79.130859375
 20
69.97844696044922
 40
2.049999952316284
 50
0
 51
180.0000000000004
  0
ARC
  8
0
  6
CONTINUOUS
 62
     7
 10
79.130859375
 20
68.07844543457031
 40
2.049999952316284
 50
180.0000000000004
 51
360
  0
ARC
  8
0
  6
CONTINUOUS
 62
     7
 10
122.9308929443359
 20
-11.67155647277832
 40
10
 50
347.1604385090517
 51
12.83957747351438
  0
ARC
  8
0
  6
CONTINUOUS
 62
     7
 10
131.7058563232422
 20
-13.67155647277832
 40
1
 50
270.0000000000005
 51
347.1605337663307
  0
ARC
  8
0
  6
CONTINUOUS
 62
     7
 10
131.7058563232422
 20
-9.67155647277832
 40
1
 50
12.83946623367007
 51
90.00000000000019
  0
ARC
  8
0
  6
CONTINUOUS
 62
     7
 10
-164.6691741943359
 20
-11.67155647277832
 40
10
 50
167.1604438365732
 51
192.8395828010364
  0
ARC
  8
0
  6
CONTINUOUS
 62
     7
 10
-173.4441375732422
 20
-9.67155647277832
 40
1
 50
90.00000000000019
 51
167.16053376633
  0
ARC
  8
0
  6
CONTINUOUS
 62
     7
 10
-173.4441375732422
 20
-13.67155647277832
 40
1
 50
192.8394662336708
 51
270.0000000000005
  0
POLYLINE
  8
0
  6
CONTINUOUS
 62
     7
 66
     1
 10
0
 20
0
  0
VERTEX
  8
0
  6
CONTINUOUS
 62
     7
 10
42.8792952790051
 20
98.72842696712807
 42
0.04673673775252132
  0
VERTEX
  8
0
  6
CONTINUOUS
 62
     7
 10
41.7620551968603
 20
93.9124334358031
 42
0.07408706421084541
  0
VERTEX
  8
0
  6
CONTINUOUS
 62
     7
 10
41.82936236679866
 20
88.97959670059348
 42
0.0124466225835688
  0
VERTEX
  8
0
  6
CONTINUOUS
 62
     7
 10
42.86168024523888
 20
84.13826461490619
 42
-0.06530208807530606
  0
VERTEX
  8
0
  6
CONTINUOUS
 62
     7
 10
43.34284145217433
 20
79.22403736560199
 42
-0.0475826448454155
  0
VERTEX
  8
0
  6
CONTINUOUS
 62
     7
 10
42.65837362891029
 20
74.32809680050532
 42
0
  0
SEQEND
  8
0
  6
CONTINUOUS
 62
     7
  0
POLYLINE
  8
0
  6
CONTINUOUS
 62
     7
 66
     1
 10
0
 20
0
  0
VERTEX
  8
0
  6
CONTINUOUS
 62
     7
 10
44.98826902935335
 20
98.72843828560413
 42
0.04770119167145997
  0
VERTEX
  8
0
  6
CONTINUOUS
 62
     7
 10
43.78220298677663
 20
93.93018649039608
 42
0.0830800366165862
  0
VERTEX
  8
0
  6
CONTINUOUS
 62
     7
 10
43.85334048039707
 20
88.99832008908557
 42
0.005740661838527693
  0
VERTEX
  8
0
  6
CONTINUOUS
 62
     7
 10
44.89936576045863
 20
84.15684406624332
 42
-0.06074753449589579
  0
VERTEX
  8
0
  6
CONTINUOUS
 62
     7
 10
45.3442096298763
 20
79.2332104370617
 42
-0.04543772503885796
  0
VERTEX
  8
0
  6
CONTINUOUS
 62
     7
 10
44.70695586418834
 20
74.32639065102653
 42
0
  0
SEQEND
  8
0
  6
CONTINUOUS
 62
     7
  0
POLYLINE
  8
0
  6
CONTINUOUS
 62
     7
 66
     1
 10
0
 20
0
  0
VERTEX
  8
0
  6
CONTINUOUS
 62
     7
 10
-24.12070472099491
 20
98.72842696712806
 42
0.0467367377525169
  0
VERTEX
  8
0
  6
CONTINUOUS
 62
     7
 10
-25.23794480313972
 20
93.91243343580308
 42
0.07408706421085612
  0
VERTEX
  8
0
  6
CONTINUOUS
 62
     7
 10
-25.17063763320137
 20
88.97959670059348
 42
0.01244662258356924
  0
VERTEX
  8
0
  6
CONTINUOUS
 62
     7
 10
-24.13831975476113
 20
84.13826461490618
 42
-0.06530208807531199
  0
VERTEX
  8
0
  6
CONTINUOUS
 62
     7
 10
-23.65715854782567
 20
79.22403736560199
 42
-0.04758264484542351
  0
VERTEX
  8
0
  6
CONTINUOUS
 62
     7
 10
-24.34162637108974
 20
74.32809680050532
 42
0
  0
SEQEND
  8
0
  6
CONTINUOUS
 62
     7
  0
POLYLINE
  8
0
  6
CONTINUOUS
 62
     7
 66
     1
 10
0
 20
0
  0
VERTEX
  8
0
  6
CONTINUOUS
 62
     7
 10
-22.01173097064665
 20
98.72843828560413
 42
0.04770119167146408
  0
VERTEX
  8
0
  6
CONTINUOUS
 62
     7
 10
-23.21779701322339
 20
93.93018649039607
 42
0.08308003661658903
  0
VERTEX
  8
0
  6
CONTINUOUS
 62
     7
 10
-23.14665951960295
 20
88.99832008908558
 42
0.005740661838528026
  0
VERTEX
  8
0
  6
CONTINUOUS
 62
     7
 10
-22.10063423954138
 20
84.15684406624332
 42
-0.06074753449589181
  0
VERTEX
  8
0
  6
CONTINUOUS
 62
     7
 10
-21.65579037012371
 20
79.2332104370617
 42
-0.04543772503885774
  0
VERTEX
  8
0
  6
CONTINUOUS
 62
     7
 10
-22.29304413581168
 20
74.32639065102653
 42
0
  0
SEQEND
  8
0
  6
CONTINUOUS
 62
     7
  0
POLYLINE
  8
0
  6
CONTINUOUS
 62
     7
 66
     1
 10
0
 20
0
  0
VERTEX
  8
0
  6
CONTINUOUS
 62
     7
 10
-91.12070472099494
 20
98.72842696712806
 42
0.04673673775250789
  0
VERTEX
  8
0
  6
CONTINUOUS
 62
     7
 10
-92.23794480313977
 20
93.91243343580308
 42
0.07408706421083265
  0
VERTEX
  8
0
  6
CONTINUOUS
 62
     7
 10
-92.17063763320142
 20
88.97959670059348
 42
0.0124466225835718
  0
VERTEX
  8
0
  6
CONTINUOUS
 62
     7
 10
-91.13831975476116
 20
84.13826461490618
 42
-0.06530208807530218
  0
VERTEX
  8
0
  6
CONTINUOUS
 62
     7
 10
-90.6571585478257
 20
79.22403736560199
 42
-0.04758264484541528
  0
VERTEX
  8
0
  6
CONTINUOUS
 62
     7
 10
-91.34162637108979
 20
74.32809680050532
 42
0
  0
SEQEND
  8
0
  6
CONTINUOUS
 62
     7
  0
POLYLINE
  8
0
  6
CONTINUOUS
 62
     7
 66
     1
 10
0
 20
0
  0
VERTEX
  8
0
  6
CONTINUOUS
 62
     7
 10
-89.01173097064668
 20
98.72843828560413
 42
0.04770119167146537
  0
VERTEX
  8
0
  6
CONTINUOUS
 62
     7
 10
-90.21779701322345
 20
93.93018649039607
 42
0.08308003661660315
  0
VERTEX
  8
0
  6
CONTINUOUS
 62
     7
 10
-90.14665951960301
 20
88.99832008908555
 42
0.005740661838525916
  0
VERTEX
  8
0
  6
CONTINUOUS
 62
     7
 10
-89.10063423954141
 20
84.1568440662433
 42
-0.06074753449590137
  0
VERTEX
  8
0
  6
CONTINUOUS
 62
     7
 10
-88.65579037012374
 20
79.23321043706169
 42
-0.04543772503887131
  0
VERTEX
  8
0
  6
CONTINUOUS
 62
     7
 10
-89.29304413581174
 20
74.32639065102651
 42
0
  0
SEQEND
  8
0
  6
CONTINUOUS
 62
     7
  0
POLYLINE
  8
0
  6
CONTINUOUS
 62
     7
 66
     1
 10
0
 20
0
  0
VERTEX
  8
0
  6
CONTINUOUS
 62
     7
 10
-24.82997894731035
 20
-5.172180395692164
 42
0.02892357464579064
  0
VERTEX
  8
0
  6
CONTINUOUS
 62
     7
 10
-25.15051214350139
 20
-6.059508082937392
 42
0.04439380439039227
  0
VERTEX
  8
0
  6
CONTINUOUS
 62
     7
 10
-25.33740666197875
 20
-6.983138231256185
 42
0.0531498616204267
  0
VERTEX
  8
0
  6
CONTINUOUS
 62
     7
 10
-25.33906547409593
 20
-7.925313041179133
 42
0.0644184037592451
  0
VERTEX
  8
0
  6
CONTINUOUS
 62
     7
 10
-25.12410905229656
 20
-8.841831213907023
 42
0.0779757273596942
  0
VERTEX
  8
0
  6
CONTINUOUS
 62
     7
 10
-24.65711926860282
 20
-9.657590024545909
 42
-0.01072084561704232
  0
VERTEX
  8
0
  6
CONTINUOUS
 62
     7
 10
-24.07126308333256
 20
-10.39844235648417
 42
-0.07511262510638761
  0
VERTEX
  8
0
  6
CONTINUOUS
 62
     7
 10
-23.65233542263769
 20
-11.24035676113821
 42
-0.05123136818929761
  0
VERTEX
  8
0
  6
CONTINUOUS
 62
     7
 10
-23.4548305495037
 20
-12.16132689949766
 42
-0.04974889875776374
  0
VERTEX
  8
0
  6
CONTINUOUS
 62
     7
 10
-23.44214162375029
 20
-13.10365638031041
 42
-0.05651284459278254
  0
VERTEX
  8
0
  6
CONTINUOUS
 62
     7
 10
-23.62696733156387
 20
-14.02732197154701
 42
-0.06235756351088335
  0
VERTEX
  8
0
  6
CONTINUOUS
 62
     7
 10
-24.02743003253278
 20
-14.87894744854318
 42
-0.004339215683693017
  0
VERTEX
  8
0
  6
CONTINUOUS
 62
     7
 10
-24.54104332324575
 20
-15.67093666882997
 42
0
  0
SEQEND
  8
0
  6
CONTINUOUS
 62
     7
  0
POLYLINE
  8
0
  6
CONTINUOUS
 62
     7
 66
     1
 10
0
 20
0
  0
VERTEX
  8
0
  6
CONTINUOUS
 62
     7
 10
-22.62816160046257
 20
-5.171020513937329
 42
0.0155441241785379
  0
VERTEX
  8
0
  6
CONTINUOUS
 62
     7
 10
-23.01807758742684
 20
-6.023585573269974
 42
0.04614389980707671
  0
VERTEX
  8
0
  6
CONTINUOUS
 62
     7
 10
-23.30442418444219
 20
-6.915014887186445
 42
0.09412351014930082
  0
VERTEX
  8
0
  6
CONTINUOUS
 62
     7
 10
-23.33140109793829
 20
-7.847241784061232
 42
0.1616373521304497
  0
VERTEX
  8
0
  6
CONTINUOUS
 62
     7
 10
-22.89519951179633
 20
-8.65752015912941
 42
-0.02902045427842621
  0
VERTEX
  8
0
  6
CONTINUOUS
 62
     7
 10
-22.33003080816877
 20
-9.40325719978927
 42
-0.04657848188601019
  0
VERTEX
  8
0
  6
CONTINUOUS
 62
     7
 10
-21.89454603432749
 20
-10.23270839914173
 42
-0.03988496288103463
  0
VERTEX
  8
0
  6
CONTINUOUS
 62
     7
 10
-21.6085536817688
 20
-11.12470417586007
 42
-0.03413105256476403
  0
VERTEX
  8
0
  6
CONTINUOUS
 62
     7
 10
-21.45587356904144
 20
-12.04807074948939
 42
-0.0345551886692491
  0
VERTEX
  8
0
  6
CONTINUOUS
 62
     7
 10
-21.43060392247557
 20
-12.98343181628466
 42
-0.03641742846362922
  0
VERTEX
  8
0
  6
CONTINUOUS
 62
     7
 10
-21.53760916485805
 20
-13.91321517750004
 42
-0.03924284100490255
  0
VERTEX
  8
0
  6
CONTINUOUS
 62
     7
 10
-21.78339428533452
 20
-14.8165588188253
 42
-0.04184659153170054
  0
VERTEX
  8
0
  6
CONTINUOUS
 62
     7
 10
-22.17231986767637
 20
-15.66833973075298
 42
0
  0
SEQEND
  8
0
  6
CONTINUOUS
 62
     7
  0
POLYLINE
  8
0
  6
CONTINUOUS
 62
     7
 66
     1
 10
0
 20
0
  0
VERTEX
  8
0
  6
CONTINUOUS
 62
     7
 10
-91.82997894731038
 20
-5.172180395692161
 42
0.02892357464595344
  0
VERTEX
  8
0
  6
CONTINUOUS
 62
     7
 10
-92.15051214350142
 20
-6.05950808293739
 42
0.04439380439049424
  0
VERTEX
  8
0
  6
CONTINUOUS
 62
     7
 10
-92.33740666197878
 20
-6.983138231256183
 42
0.0531498616207156
  0
VERTEX
  8
0
  6
CONTINUOUS
 62
     7
 10
-92.33906547409596
 20
-7.92531304117913
 42
0.06441840375922982
  0
VERTEX
  8
0
  6
CONTINUOUS
 62
     7
 10
-92.12410905229659
 20
-8.841831213907019
 42
0.0779757273594478
  0
VERTEX
  8
0
  6
CONTINUOUS
 62
     7
 10
-91.65711926860286
 20
-9.657590024545907
 42
-0.01072084561707233
  0
VERTEX
  8
0
  6
CONTINUOUS
 62
     7
 10
-91.0712630833326
 20
-10.39844235648416
 42
-0.07511262510633929
  0
VERTEX
  8
0
  6
CONTINUOUS
 62
     7
 10
-90.65233542263772
 20
-11.2403567611382
 42
-0.05123136818914611
  0
VERTEX
  8
0
  6
CONTINUOUS
 62
     7
 10
-90.45483054950373
 20
-12.16132689949765
 42
-0.04974889875774852
  0
VERTEX
  8
0
  6
CONTINUOUS
 62
     7
 10
-90.44214162375032
 20
-13.1036563803104
 42
-0.05651284459284134
  0
VERTEX
  8
0
  6
CONTINUOUS
 62
     7
 10
-90.6269673315639
 20
-14.027321971547
 42
-0.06235756351085683
  0
VERTEX
  8
0
  6
CONTINUOUS
 62
     7
 10
-91.02743003253281
 20
-14.87894744854318
 42
-0.004339215683666371
  0
VERTEX
  8
0
  6
CONTINUOUS
 62
     7
 10
-91.54104332324577
 20
-15.67093666882997
 42
0
  0
SEQEND
  8
0
  6
CONTINUOUS
 62
     7
  0
POLYLINE
  8
0
  6
CONTINUOUS
 62
     7
 66
     1
 10
0
 20
0
  0
VERTEX
  8
0
  6
CONTINUOUS
 62
     7
 10
-89.62816160046259
 20
-5.171020513937337
 42
0.01554412417852734
  0
VERTEX
  8
0
  6
CONTINUOUS
 62
     7
 10
-90.01807758742689
 20
-6.023585573269983
 42
0.04614389980692811
  0
VERTEX
  8
0
  6
CONTINUOUS
 62
     7
 10
-90.30442418444223
 20
-6.915014887186453
 42
0.09412351014921191
  0
VERTEX
  8
0
  6
CONTINUOUS
 62
     7
 10
-90.33140109793833
 20
-7.847241784061239
 42
0.161637352130094
  0
VERTEX
  8
0
  6
CONTINUOUS
 62
     7
 10
-89.89519951179635
 20
-8.65752015912941
 42
-0.02902045427840842
  0
VERTEX
  8
0
  6
CONTINUOUS
 62
     7
 10
-89.3300308081688
 20
-9.40325719978927
 42
-0.04657848188605757
  0
VERTEX
  8
0
  6
CONTINUOUS
 62
     7
 10
-88.89454603432752
 20
-10.23270839914173
 42
-0.03988496288109208
  0
VERTEX
  8
0
  6
CONTINUOUS
 62
     7
 10
-88.60855368176883
 20
-11.12470417586007
 42
-0.03413105256478442
  0
VERTEX
  8
0
  6
CONTINUOUS
 62
     7
 10
-88.45587356904147
 20
-12.04807074948939
 42
-0.03455518866931487
  0
VERTEX
  8
0
  6
CONTINUOUS
 62
     7
 10
-88.43060392247561
 20
-12.98343181628466
 42
-0.03641742846361565
  0
VERTEX
  8
0
  6
CONTINUOUS
 62
     7
 10
-88.53760916485807
 20
-13.91321517750004
 42
-0.03924284100504666
  0
VERTEX
  8
0
  6
CONTINUOUS
 62
     7
 10
-88.78339428533455
 20
-14.8165588188253
 42
-0.04184659153153127
  0
VERTEX
  8
0
  6
CONTINUOUS
 62
     7
 10
-89.17231986767639
 20
-15.66833973075298
 42
0
  0
SEQEND
  8
0
  6
CONTINUOUS
 62
     7
  0
POLYLINE
  8
0
  6
CONTINUOUS
 62
     7
 66
     1
 10
0
 20
0
  0
VERTEX
  8
0
  6
CONTINUOUS
 62
     7
 10
42.17002105268965
 20
-5.172180395692164
 42
0.02892357464577804
  0
VERTEX
  8
0
  6
CONTINUOUS
 62
     7
 10
41.84948785649861
 20
-6.059508082937392
 42
0.04439380439037952
  0
VERTEX
  8
0
  6
CONTINUOUS
 62
     7
 10
41.66259333802125
 20
-6.983138231256185
 42
0.05314986162042127
  0
VERTEX
  8
0
  6
CONTINUOUS
 62
     7
 10
41.66093452590408
 20
-7.925313041179133
 42
0.06441840375923907
  0
VERTEX
  8
0
  6
CONTINUOUS
 62
     7
 10
41.87589094770344
 20
-8.841831213907023
 42
0.07797572735966851
  0
VERTEX
  8
0
  6
CONTINUOUS
 62
     7
 10
42.34288073139718
 20
-9.657590024545909
 42
-0.01072084561704268
  0
VERTEX
  8
0
  6
CONTINUOUS
 62
     7
 10
42.92873691666744
 20
-10.39844235648417
 42
-0.07511262510636771
  0
VERTEX
  8
0
  6
CONTINUOUS
 62
     7
 10
43.34766457736231
 20
-11.24035676113821
 42
-0.05123136818927319
  0
VERTEX
  8
0
  6
CONTINUOUS
 62
     7
 10
43.5451694504963
 20
-12.16132689949766
 42
-0.04974889875782706
  0
VERTEX
  8
0
  6
CONTINUOUS
 62
     7
 10
43.55785837624971
 20
-13.10365638031041
 42
-0.05651284459279077
  0
VERTEX
  8
0
  6
CONTINUOUS
 62
     7
 10
43.37303266843613
 20
-14.02732197154701
 42
-0.06235756351091434
  0
VERTEX
  8
0
  6
CONTINUOUS
 62
     7
 10
42.97256996746722
 20
-14.87894744854318
 42
-0.004339215683685689
  0
VERTEX
  8
0
  6
CONTINUOUS
 62
     7
 10
42.45895667675425
 20
-15.67093666882997
 42
0
  0
SEQEND
  8
0
  6
CONTINUOUS
 62
     7
  0
POLYLINE
  8
0
  6
CONTINUOUS
 62
     7
 66
     1
 10
0
 20
0
  0
VERTEX
  8
0
  6
CONTINUOUS
 62
     7
 10
44.37183839953744
 20
-5.171020513937327
 42
0.01554412417853263
  0
VERTEX
  8
0
  6
CONTINUOUS
 62
     7
 10
43.98192241257316
 20
-6.023585573269973
 42
0.0461438998070557
  0
VERTEX
  8
0
  6
CONTINUOUS
 62
     7
 10
43.69557581555781
 20
-6.915014887186441
 42
0.09412351014930513
  0
VERTEX
  8
0
  6
CONTINUOUS
 62
     7
 10
43.6685989020617
 20
-7.847241784061229
 42
0.161637352130526
  0
VERTEX
  8
0
  6
CONTINUOUS
 62
     7
 10
44.10480048820367
 20
-8.65752015912941
 42
-0.02902045427846359
  0
VERTEX
  8
0
  6
CONTINUOUS
 62
     7
 10
44.66996919183124
 20
-9.40325719978927
 42
-0.04657848188599236
  0
VERTEX
  8
0
  6
CONTINUOUS
 62
     7
 10
45.1054539656725
 20
-10.23270839914173
 42
-0.0398849628810676
  0
VERTEX
  8
0
  6
CONTINUOUS
 62
     7
 10
45.3914463182312
 20
-11.12470417586007
 42
-0.03413105256472714
  0
VERTEX
  8
0
  6
CONTINUOUS
 62
     7
 10
45.54412643095856
 20
-12.04807074948939
 42
-0.0345551886692717
  0
VERTEX
  8
0
  6
CONTINUOUS
 62
     7
 10
45.56939607752442
 20
-12.98343181628466
 42
-0.03641742846364589
  0
VERTEX
  8
0
  6
CONTINUOUS
 62
     7
 10
45.46239083514195
 20
-13.91321517750004
 42
-0.03924284100482293
  0
VERTEX
  8
0
  6
CONTINUOUS
 62
     7
 10
45.21660571466548
 20
-14.8165588188253
 42
-0.04184659153166206
  0
VERTEX
  8
0
  6
CONTINUOUS
 62
     7
 10
44.82768013232364
 20
-15.66833973075298
 42
0
  0
SEQEND
  8
0
  6
CONTINUOUS
 62
     7
  0
TEXT
  8
0
  6
CONTINUOUS
 62
     7
 10
-189.8199768066406
 20
125.5652160644531
 40
10
 41
1.363660714285714
  1
SL110
  0
TEXT
  8
0
  6
CONTINUOUS
 62
     7
 10
41.5353125333786
 20
45.78781354427338
 40
3.200000047683716
 41
1.334855714264828
  1
P1
  0
TEXT
  8
0
  6
CONTINUOUS
 62
     7
 10
-60.77981197834015
 20
45.76895368099213
 40
3.200000047683716
 41
0.9549444383384816
  1
Ｎ×３００
  0
TEXT
  8
0
  6
CONTINUOUS
 62
     7
 10
-26.0799161195755
 20
35.40513455867767
 40
3.200000047683716
 41
1.446217045597243
  1
(L)
  0
TEXT
  8
0
  6
CONTINUOUS
 62
     7
 10
-25.71434414386749
 20
24.42766034603119
 40
3.200000047683716
 41
1.446217045597243
  1
(A)
  0
TEXT
  8
0
  6
CONTINUOUS
 62
     7
 10
-166.2994252443314
 20
-51.09729158878326
 40
3.200000047683716
 41
1.389419233886247
  1
SL110- 20
  0
TEXT
  8
0
  6
CONTINUOUS
 62
     7
 10
-157.2994254827499
 20
-45.09729158878326
 40
3.200000047683716
 41
0.9575534363955299
  1
型　　名
  0
TEXT
  8
0
  6
CONTINUOUS
 62
     7
 10
-166.2994252443314
 20
-57.09729158878326
 40
3.200000047683716
 41
1.389419233886247
  1
SL110- 30
  0
TEXT
  8
0
  6
CONTINUOUS
 62
     7
 10
-166.2994252443314
 20
-63.09729158878326
 40
3.200000047683716
 41
1.389419233886247
  1
SL110- 40
  0
TEXT
  8
0
  6
CONTINUOUS
 62
     7
 10
-166.2994252443314
 20
-69.09729158878326
 40
3.200000047683716
 41
1.389419233886247
  1
SL110- 50
  0
TEXT
  8
0
  6
CONTINUOUS
 62
     7
 10
-166.2994252443314
 20
-75.09729158878326
 40
3.200000047683716
 41
1.389419233886247
  1
SL110- 60
  0
TEXT
  8
0
  6
CONTINUOUS
 62
     7
 10
-166.2994252443314
 20
-81.09729158878326
 40
3.200000047683716
 41
1.389419233886247
  1
SL110- 70
  0
TEXT
  8
0
  6
CONTINUOUS
 62
     7
 10
-166.2994252443314
 20
-87.09729158878326
 40
3.200000047683716
 41
1.389419233886247
  1
SL110- 80
  0
TEXT
  8
0
  6
CONTINUOUS
 62
     7
 10
-166.2994252443314
 20
-93.09729158878326
 40
3.200000047683716
 41
1.357355713104257
  1
SL110-100
  0
TEXT
  8
0
  6
CONTINUOUS
 62
     7
 10
-166.2994252443314
 20
-99.09729158878326
 40
3.200000047683716
 41
1.326738666944011
  1
SL110-120
  0
TEXT
  8
0
  6
CONTINUOUS
 62
     7
 10
-166.2994252443314
 20
-105.0972915887833
 40
3.200000047683716
 41
1.326738666944011
  1
SL110-150
  0
TEXT
  8
0
  6
CONTINUOUS
 62
     7
 10
-166.2994252443314
 20
-111.0972915887833
 40
3.200000047683716
 41
1.326738666944011
  1
SL110-160
  0
TEXT
  8
0
  6
CONTINUOUS
 62
     7
 10
-166.2994252443314
 20
-117.0972915887833
 40
3.200000047683716
 41
1.326738666944011
  1
SL110-170
  0
TEXT
  8
0
  6
CONTINUOUS
 62
     7
 10
-166.2994252443314
 20
-123.0972915887833
 40
3.200000047683716
 41
1.326738666944011
  1
SL110-180
  0
TEXT
  8
0
  6
CONTINUOUS
 62
     7
 10
-166.2994252443314
 20
-129.0972915887833
 40
3.200000047683716
 41
1.297472372820246
  1
SL110-200
  0
TEXT
  8
0
  6
CONTINUOUS
 62
     7
 10
-128.3994253873825
 20
-45.09729158878326
 40
3.200000047683716
 41
0.9532562631250975
  1
（Ｌ）有効長
  0
TEXT
  8
0
  6
CONTINUOUS
 62
     7
 10
-121.3994270563126
 20
-51.09729158878326
 40
3.200000047683716
 41
1.278052272853377
  1
200
  0
TEXT
  8
0
  6
CONTINUOUS
 62
     7
 10
-101.5994254350662
 20
-45.09729158878326
 40
3.200000047683716
 41
0.9549444383384816
  1
（Ａ）全長
  0
TEXT
  8
0
  6
CONTINUOUS
 62
     7
 10
-104.0042196512222
 20
-87.24062502384186
 40
3.200000047683716
 41
0.9520745404757286
  1
（Ｌ）＋１０３
  0
TEXT
  8
0
  6
CONTINUOUS
 62
     7
 10
-121.3994270563126
 20
-57.09729158878326
 40
3.200000047683716
 41
1.278052272853377
  1
300
  0
TEXT
  8
0
  6
CONTINUOUS
 62
     7
 10
-121.3994270563126
 20
-63.09729158878326
 40
3.200000047683716
 41
1.278052272853377
  1
400
  0
TEXT
  8
0
  6
CONTINUOUS
 62
     7
 10
-121.3994270563126
 20
-69.09729158878326
 40
3.200000047683716
 41
1.278052272853377
  1
500
  0
TEXT
  8
0
  6
CONTINUOUS
 62
     7
 10
-121.3994270563126
 20
-75.09729158878326
 40
3.200000047683716
 41
1.278052272853377
  1
600
  0
TEXT
  8
0
  6
CONTINUOUS
 62
     7
 10
-121.3994270563126
 20
-81.09729158878326
 40
3.200000047683716
 41
1.278052272853377
  1
700
  0
TEXT
  8
0
  6
CONTINUOUS
 62
     7
 10
-121.3994270563126
 20
-87.09729158878326
 40
3.200000047683716
 41
1.278052272853377
  1
800
  0
TEXT
  8
0
  6
CONTINUOUS
 62
     7
 10
-124.7994254827499
 20
-93.09729158878326
 40
3.200000047683716
 41
1.44627397874048
  1
1000
  0
TEXT
  8
0
  6
CONTINUOUS
 62
     7
 10
-124.7994254827499
 20
-99.09729158878326
 40
3.200000047683716
 41
1.367386307172817
  1
1200
  0
TEXT
  8
0
  6
CONTINUOUS
 62
     7
 10
-124.7994254827499
 20
-105.0972915887833
 40
3.200000047683716
 41
1.367386307172817
  1
1500
  0
TEXT
  8
0
  6
CONTINUOUS
 62
     7
 10
-124.7994254827499
 20
-111.0972915887833
 40
3.200000047683716
 41
1.367386307172817
  1
1600
  0
TEXT
  8
0
  6
CONTINUOUS
 62
     7
 10
-124.7994254827499
 20
-117.0972915887833
 40
3.200000047683716
 41
1.367386307172817
  1
1700
  0
TEXT
  8
0
  6
CONTINUOUS
 62
     7
 10
-124.7994254827499
 20
-123.0972915887833
 40
3.200000047683716
 41
1.367386307172817
  1
1800
  0
TEXT
  8
0
  6
CONTINUOUS
 62
     7
 10
-124.7994254827499
 20
-129.0972915887833
 40
3.200000047683716
 41
1.296659429215602
  1
2000
  0
TEXT
  8
0
  6
CONTINUOUS
 62
     7
 10
-48.69942557811737
 20
-45.09729158878326
 40
3.200000047683716
 41
1.334855714264828
  1
P1
  0
TEXT
  8
0
  6
CONTINUOUS
 62
     7
 10
-50.49942553043366
 20
-51.09729158878326
 40
3.200000047683716
 41
1.278052272853377
  1
200
  0
TEXT
  8
0
  6
CONTINUOUS
 62
     7
 10
-50.49942553043366
 20
-57.09729158878326
 40
3.200000047683716
 41
2.498011260577056
  1
  0
  0
TEXT
  8
0
  6
CONTINUOUS
 62
     7
 10
-50.49942553043366
 20
-63.09729158878326
 40
3.200000047683716
 41
1.485303992775547
  1
100
  0
TEXT
  8
0
  6
CONTINUOUS
 62
     7
 10
-50.49942553043366
 20
-69.09729158878326
 40
3.200000047683716
 41
1.278052272853377
  1
200
  0
TEXT
  8
0
  6
CONTINUOUS
 62
     7
 10
-50.49942553043366
 20
-75.09729158878326
 40
3.200000047683716
 41
2.498011260577056
  1
  0
  0
TEXT
  8
0
  6
CONTINUOUS
 62
     7
 10
-50.49942553043366
 20
-81.09729158878326
 40
3.200000047683716
 41
1.485303992775547
  1
100
  0
TEXT
  8
0
  6
CONTINUOUS
 62
     7
 10
-50.49942553043366
 20
-87.09729158878326
 40
3.200000047683716
 41
1.278052272853377
  1
200
  0
TEXT
  8
0
  6
CONTINUOUS
 62
     7
 10
-50.49942553043366
 20
-93.09729158878326
 40
3.200000047683716
 41
1.485303992775547
  1
100
  0
TEXT
  8
0
  6
CONTINUOUS
 62
     7
 10
-50.49942553043366
 20
-99.09729158878326
 40
3.200000047683716
 41
2.498011260577056
  1
  0
  0
TEXT
  8
0
  6
CONTINUOUS
 62
     7
 10
-50.49942553043366
 20
-105.0972915887833
 40
3.200000047683716
 41
2.498011260577056
  1
  0
  0
TEXT
  8
0
  6
CONTINUOUS
 62
     7
 10
-50.49942553043366
 20
-111.0972915887833
 40
3.200000047683716
 41
1.485303992775547
  1
100
  0
TEXT
  8
0
  6
CONTINUOUS
 62
     7
 10
-50.49942553043366
 20
-117.0972915887833
 40
3.200000047683716
 41
1.278052272853377
  1
200
  0
TEXT
  8
0
  6
CONTINUOUS
 62
     7
 10
-50.49942553043366
 20
-123.0972915887833
 40
3.200000047683716
 41
2.498011260577056
  1
  0
  0
TEXT
  8
0
  6
CONTINUOUS
 62
     7
 10
-50.49942553043366
 20
-129.0972915887833
 40
3.200000047683716
 41
1.278052272853377
  1
200
  0
TEXT
  8
0
  6
CONTINUOUS
 62
     7
 10
-34.39942729473114
 20
-45.09729158878326
 40
3.200000047683716
 41
0.9532562631250975
  1
Ｍ　クランプ
  0
TEXT
  8
0
  6
CONTINUOUS
 62
     7
 10
-23.79942715167999
 20
-51.09729158878326
 40
3.200000047683716
 41
1
  1
4
  0
TEXT
  8
0
  6
CONTINUOUS
 62
     7
 10
-23.79942715167999
 20
-57.09729158878326
 40
3.200000047683716
 41
1
  1
4
  0
TEXT
  8
0
  6
CONTINUOUS
 62
     7
 10
-23.79942715167999
 20
-63.09729158878326
 40
3.200000047683716
 41
1
  1
6
  0
TEXT
  8
0
  6
CONTINUOUS
 62
     7
 10
-23.79942715167999
 20
-69.09729158878326
 40
3.200000047683716
 41
1
  1
6
  0
TEXT
  8
0
  6
CONTINUOUS
 62
     7
 10
-23.79942715167999
 20
-75.09729158878326
 40
3.200000047683716
 41
1
  1
6
  0
TEXT
  8
0
  6
CONTINUOUS
 62
     7
 10
-23.79942715167999
 20
-81.09729158878326
 40
3.200000047683716
 41
1
  1
8
  0
TEXT
  8
0
  6
CONTINUOUS
 62
     7
 10
-23.79942715167999
 20
-87.09729158878326
 40
3.200000047683716
 41
1
  1
8
  0
TEXT
  8
0
  6
CONTINUOUS
 62
     7
 10
-27.199427485466
 20
-93.09729158878326
 40
3.200000047683716
 41
1.577556753222069
  1
10
  0
TEXT
  8
0
  6
CONTINUOUS
 62
     7
 10
-27.199427485466
 20
-99.09729158878326
 40
3.200000047683716
 41
1.577556753222069
  1
10
  0
TEXT
  8
0
  6
CONTINUOUS
 62
     7
 10
-27.199427485466
 20
-105.0972915887833
 40
3.200000047683716
 41
1.446093690453564
  1
12
  0
TEXT
  8
0
  6
CONTINUOUS
 62
     7
 10
-27.199427485466
 20
-111.0972915887833
 40
3.200000047683716
 41
1.446093690453564
  1
14
  0
TEXT
  8
0
  6
CONTINUOUS
 62
     7
 10
-27.199427485466
 20
-117.0972915887833
 40
3.200000047683716
 41
1.446093690453564
  1
14
  0
TEXT
  8
0
  6
CONTINUOUS
 62
     7
 10
-27.199427485466
 20
-123.0972915887833
 40
3.200000047683716
 41
1.446093690453564
  1
14
  0
TEXT
  8
0
  6
CONTINUOUS
 62
     7
 10
-27.199427485466
 20
-129.0972915887833
 40
3.200000047683716
 41
1.446093690453564
  1
16
  0
TEXT
  8
0
  6
CONTINUOUS
 62
     7
 10
-66.89942562580109
 20
-45.09729158878326
 40
3.200000047683716
 41
1
  1
N
  0
TEXT
  8
0
  6
CONTINUOUS
 62
     7
 10
-66.89942562580109
 20
-51.09729158878326
 40
3.200000047683716
 41
0.8333333333333333
  1
0
  0
TEXT
  8
0
  6
CONTINUOUS
 62
     7
 10
-66.89942562580109
 20
-57.09729158878326
 40
3.200000047683716
 41
0.6666666666666666
  1
1
  0
TEXT
  8
0
  6
CONTINUOUS
 62
     7
 10
-66.89942562580109
 20
-63.09729158878326
 40
3.200000047683716
 41
0.6666666666666666
  1
1
  0
TEXT
  8
0
  6
CONTINUOUS
 62
     7
 10
-66.89942562580109
 20
-69.09729158878326
 40
3.200000047683716
 41
0.6666666666666666
  1
1
  0
TEXT
  8
0
  6
CONTINUOUS
 62
     7
 10
-66.89942562580109
 20
-75.09729158878326
 40
3.200000047683716
 41
1
  1
2
  0
TEXT
  8
0
  6
CONTINUOUS
 62
     7
 10
-66.89942562580109
 20
-81.09729158878326
 40
3.200000047683716
 41
1
  1
2
  0
TEXT
  8
0
  6
CONTINUOUS
 62
     7
 10
-66.89942562580109
 20
-87.09729158878326
 40
3.200000047683716
 41
1
  1
2
  0
TEXT
  8
0
  6
CONTINUOUS
 62
     7
 10
-66.89942562580109
 20
-93.09729158878326
 40
3.200000047683716
 41
1
  1
3
  0
TEXT
  8
0
  6
CONTINUOUS
 62
     7
 10
-66.89942562580109
 20
-99.09729158878326
 40
3.200000047683716
 41
1
  1
4
  0
TEXT
  8
0
  6
CONTINUOUS
 62
     7
 10
-66.89942562580109
 20
-105.0972915887833
 40
3.200000047683716
 41
1
  1
5
  0
TEXT
  8
0
  6
CONTINUOUS
 62
     7
 10
-66.89942562580109
 20
-111.0972915887833
 40
3.200000047683716
 41
1
  1
5
  0
TEXT
  8
0
  6
CONTINUOUS
 62
     7
 10
-66.89942562580109
 20
-117.0972915887833
 40
3.200000047683716
 41
1
  1
5
  0
TEXT
  8
0
  6
CONTINUOUS
 62
     7
 10
-66.89942562580109
 20
-123.0972915887833
 40
3.200000047683716
 41
1
  1
6
  0
TEXT
  8
0
  6
CONTINUOUS
 62
     7
 10
-66.89942562580109
 20
-129.0972915887833
 40
3.200000047683716
 41
1
  1
6
  0
INSERT
  8
0
  6
CONTINUOUS
 62
     7
  2
KOZU0001
 10
78.12924957275391
 20
66.289794921875
  0
INSERT
  8
0
  6
CONTINUOUS
 62
     7
  2
KOZU0002
 10
82.54479217529297
 20
109.1015319824219
  0
INSERT
  8
0
  6
CONTINUOUS
 62
     7
  2
KOZU0003
 10
-172.3691558837891
 20
22.86021423339844
  0
INSERT
  8
0
  6
CONTINUOUS
 62
     7
  2
KOZU0004
 10
130.6309356689453
 20
22.86026000976563
  0
ENDSEC
  0
EOF
