  0
SECTION
  2
HEADER
  9
$ACADVER
  1
AC1009
  9
$INSBASE
 10
0
 20
0
 30
0
  9
$EXTMIN
 10
0
 20
0
  9
$EXTMAX
 10
105.125
 20
74.25
  9
$LIMMIN
 10
0
 20
0
  9
$LIMMAX
 10
105.125
 20
74.25
  9
$LTSCALE
 40
0.125
  0
ENDSEC
  0
SECTION
  2
TABLES
  0
TABLE
  2
LTYPE
 70
     9
  0
LTYPE
  2
CONTINUOUS
 70
    64
  3
実線
 72
    65
 73
     0
 40
0.0
  0
LTYPE
  2
DASHED1
 70
    64
  3
--  --  --  --  --  --  --  --  
 72
    65
 73
     2
 40
2.5
 49
1.25
 49
-1.25
  0
LTYPE
  2
DASHED2
 70
    64
  3
----    ----    ----    ----    
 72
    65
 73
     2
 40
5.0
 49
2.5
 49
-2.5
  0
LTYPE
  2
DASHED3
 70
    64
  3
------  ------  ------  ------  
 72
    65
 73
     2
 40
5.0
 49
3.75
 49
-1.25
  0
LTYPE
  2
CENTER1
 70
    64
  3
----- - ----- - ----- - ----- - 
 72
    65
 73
     4
 40
10.0
 49
6.25
 49
-1.25
 49
1.25
 49
-1.25
  0
LTYPE
  2
CENTER2
 70
    64
  3
----------  --  ----------  --  
 72
    65
 73
     4
 40
20.0
 49
12.5
 49
-2.5
 49
2.5
 49
-2.5
  0
LTYPE
  2
PHANTOM1
 70
    64
  3
--- - - --- - - --- - - --- - - 
 72
    65
 73
     6
 40
10.0
 49
3.25
 49
-1.25
 49
1.25
 49
-1.25
 49
1.25
 49
-1.25
  0
LTYPE
  2
PHANTOM2
 70
    64
  3
--------  -  -  --------  -  -  
 72
    65
 73
     6
 40
20.0
 49
10.0
 49
-2.5
 49
1.25
 49
-2.5
 49
1.25
 49
-2.5
  0
LTYPE
  2
DOT
 70
    64
  3
-   -   -   -   -   -   -   -   
 72
    65
 73
     2
 40
2.5
 49
0.625
 49
-1.875
  0
LTYPE
  2
DUMMY
 70
    64
  3
ダミー
 72
    65
 73
     0
 40
0.0
  0
LTYPE
  2
RAND1
 70
    64
  3
ランダム線1
 72
    65
 73
     4
 40
10.0
 49
1.0
 49
-2.0
 49
3.0
 49
-4.0
  0
LTYPE
  2
RAND2
 70
    64
  3
ランダム線2
 72
    65
 73
     4
 40
14.0
 49
2.0
 49
-3.0
 49
4.0
 49
-5.0
  0
LTYPE
  2
RAND3
 70
    64
  3
ランダム線3
 72
    65
 73
     4
 40
18.0
 49
3.0
 49
-4.0
 49
5.0
 49
-6.0
  0
LTYPE
  2
RAND4
 70
    64
  3
ランダム線4
 72
    65
 73
     4
 40
22.0
 49
4.0
 49
-5.0
 49
6.0
 49
-7.0
  0
LTYPE
  2
RAND5
 70
    64
  3
ランダム線5
 72
    65
 73
     4
 40
26.0
 49
5.0
 49
-6.0
 49
7.0
 49
-8.0
  0
LTYPE
  2
LONG1
 70
    64
  3
----------  --  ----------  --  
 72
    65
 73
     4
 40
40.0
 49
32.5
 49
-2.5
 49
2.5
 49
-2.5
  0
LTYPE
  2
LONG2
 70
    64
  3
--------  -  -  --------  -  -  
 72
    65
 73
     6
 40
40.0
 49
30.0
 49
-2.5
 49
1.25
 49
-2.5
 49
1.25
 49
-2.5
  0
LTYPE
  2
LONG3
 70
    64
  3
+++++++++++++++..+++++++++++++++
 72
    65
 73
     2
 40
40.0
 49
37.5
 49
-2.5
  0
LTYPE
  2
LONG4
 70
    64
  3
+++++++++++++++..+++++++++++++++
 72
    65
 73
     2
 40
80.0
 49
75.0
 49
-5.0
  0
LTYPE
  2
LONG5
 70
    64
  3
----------  --  ----------  --  
 72
    65
 73
     4
 40
60.0
 49
37.5
 49
-7.5
 49
7.5
 49
-7.5
  0
LTYPE
  2
dashed
 70
   64
  3
-------   -------------   ------
 72
   65
 73
    2
 40
7.5
 49
6
 49
-1.5
  0
LTYPE
  2
dashed_spaced
 70
   64
  3
----        --------        ----
 72
   65
 73
    2
 40
12
 49
6
 49
-6
  0
LTYPE
  2
long_dashed_dotted
 70
   64
  3
------------- --- --------------
 72
   65
 73
    4
 40
15.25
 49
12
 49
-1.5
 49
0.25
 49
-1.5
  0
LTYPE
  2
long_dashed_double-dotted
 70
   64
  3
----------- --- --- ------------
 72
   65
 73
    6
 40
17
 49
12
 49
-1.5
 49
0.25
 49
-1.5
 49
0.25
 49
-1.5
  0
LTYPE
  2
long_dashed_triplicate-dotted
 70
   64
  3
--------- --- --- --- ----------
 72
   65
 73
    8
 40
18.75
 49
12
 49
-1.5
 49
0.25
 49
-1.5
 49
0.25
 49
-1.5
 49
0.25
 49
-1.5
  0
LTYPE
  2
dotted
 70
   64
  3
   -       -       -       -    
 72
   65
 73
    2
 40
1.75
 49
0.25
 49
-1.5
  0
LTYPE
  2
chain
 70
   64
  3
-------------- -- --------------
 72
   65
 73
    4
 40
18.5
 49
12
 49
-1.5
 49
3.5
 49
-1.5
  0
LTYPE
  2
chain_double_dash
 70
   64
  3
------------ -- -- -------------
 72
   65
 73
    6
 40
23.5
 49
12
 49
-1.5
 49
3.5
 49
-1.5
 49
3.5
 49
-1.5
  0
LTYPE
  2
dashed_dotted
 70
   64
  3
-----------     -     ----------
 72
   65
 73
    4
 40
9.25
 49
6
 49
-1.5
 49
0.25
 49
-1.5
  0
LTYPE
  2
double-dashed_dotted
 70
   64
  3
------   -----------   -   -----
 72
   65
 73
    6
 40
16.75
 49
6
 49
-1.5
 49
6
 49
-1.5
 49
0.25
 49
-1.5
  0
LTYPE
  2
dashed_double-dotted
 70
   64
  3
---------    -    -    ---------
 72
   65
 73
    6
 40
11
 49
6
 49
-1.5
 49
0.25
 49
-1.5
 49
0.25
 49
-1.5
  0
LTYPE
  2
double-dashed_double-dotted
 70
   64
  3
-----   ---------   -   -   ----
 72
   65
 73
    8
 40
18.5
 49
6
 49
-1.5
 49
6
 49
-1.5
 49
0.25
 49
-1.5
 49
0.25
 49
-1.5
  0
LTYPE
  2
dashed_triplicate-dotted
 70
   64
  3
-------    -    -    -    ------
 72
   65
 73
    8
 40
12.75
 49
6
 49
-1.5
 49
0.25
 49
-1.5
 49
0.25
 49
-1.5
 49
0.25
 49
-1.5
  0
LTYPE
  2
double-dashed_triplicate-dotted
 70
   64
  3
-----  ---------  -  -  -  -----
 72
   65
 73
   10
 40
20.25
 49
6
 49
-1.5
 49
6
 49
-1.5
 49
0.25
 49
-1.5
 49
0.25
 49
-1.5
 49
0.25
 49
-1.5
  0
LTYPE
  2
undefined
 70
   64
  3
--------------------------------
 72
   65
 73
    0
 40
0
  0
LTYPE
  2
DASHED
 70
   64
  3
-----       ---------       ----
 72
   65
 73
    2
 40
3.5
 49
2
 49
-1.5
  0
LTYPE
  2
CENTER
 70
   64
  3
------------   ---   -----------
 72
   65
 73
    4
 40
17.5
 49
13
 49
-1.5
 49
1.5
 49
-1.5
  0
LTYPE
  2
PHANTOM
 70
   64
  3
---------   ---   ---   --------
 72
   65
 73
    6
 40
15.5
 49
8
 49
-1.5
 49
1.5
 49
-1.5
 49
1.5
 49
-1.5
  0
LTYPE
  2
DOT_20
 70
   64
  3
-               -               
 72
   65
 73
    2
 40
0.26
 49
0.01
 49
-0.25
  0
ENDTAB
  0
TABLE
  2
STYLE
  5
3
100
AcDbSymbolTable
 70
     1
  0
STYLE
  5
10
100
AcDbSymbolTableRecord
100
AcDbTextStyleTableRecord
  2
STANDARD
 70
     0
 40
0.0
 41
1.0
 50
0.0
 71
     0
 42
0.2
  3
txt
  4
bigfont.shx
  0
STYLE
  5
26
100
AcDbSymbolTableRecord
100
AcDbTextStyleTableRecord
  2
TATEGAKI
 70
    68
 40
0.0
 41
1.0
 50
0.0
 71
     0
 42
1.0
  3
txt
  4
bigfont.shx
  0
ENDTAB
  0
TABLE
  2
LAYER
 70
    2
  0
LAYER
  2
_0-0_0
 70
   64
 62
    7
  6
CONTINUOUS
  0
LAYER
  2
ADD_LINE
 70
   64
 62
    7
  6
CONTINUOUS
  0
ENDTAB
  0
ENDSEC
  0
SECTION
  2
BLOCKS
  0
BLOCK
  2
-000-KOZU0002
 70
   64
 10
0
 20
0
 30
0
  0
LINE
  8
_0-0_0
  6
CONTINUOUS
 62
    7
 10
0
 20
0
 11
21.395950317382809
 21
28.023269653320309
  0
LINE
  8
_0-0_0
  6
CONTINUOUS
 62
    7
 10
21.395950317382809
 20
28.023269653320309
 11
66.65704345703125
 21
28.023269653320309
  0
LINE
  8
_0-0_0
  6
CONTINUOUS
 62
    7
 10
0
 20
0
 11
1.451534406374436
 21
2.8272381512229918
  0
LINE
  8
_0-0_0
  6
CONTINUOUS
 62
    7
 10
0
 20
0
 11
2.3449093467344779
 21
2.1451405203894849
  0
TEXT
  8
_0-0_0
 62
    7
 10
23.364213228225712
 20
28.823269665241241
 40
3.2000000476837158
 41
0.9492046426129753
 50
0
  1
２－C５×７．５　取付穴
  0
ENDBLK
  0
BLOCK
  2
-001-KOZU0003
 70
   64
 10
0
 20
0
 30
0
  0
LINE
  8
_0-0_0
  6
CONTINUOUS
 62
    7
 10
0
 20
0
 11
49.625701904296882
 21
0
  0
LINE
  8
_0-0_0
  6
CONTINUOUS
 62
    7
 10
0
 20
0
 11
3.1279999530221532
 21
0.5619999915596068
  0
LINE
  8
_0-0_0
  6
CONTINUOUS
 62
    7
 10
0
 20
0
 11
3.1279999530221532
 21
-0.5619999915596068
  0
ENDBLK
  0
BLOCK
  2
-002-KOZU0004
 70
   64
 10
0
 20
0
 30
0
  0
LINE
  8
_0-0_0
  6
CONTINUOUS
 62
    7
 10
0
 20
0
 11
-49.625701904296882
 21
0
  0
LINE
  8
_0-0_0
  6
CONTINUOUS
 62
    7
 10
0
 20
0
 11
-3.1279999530221501
 21
-0.5619999915596265
  0
LINE
  8
_0-0_0
  6
CONTINUOUS
 62
    7
 10
0
 20
0
 11
-3.1279999530221572
 21
0.5619999915595883
  0
ENDBLK
  0
ENDSEC
  0
SECTION
  2
ENTITIES
  0
POINT
  8
_0-0_0
 62
    7
 10
52.5625
 20
37.125
  0
POINT
  8
_0-0_0
 62
    7
 10
-244.4375
 20
247.125
  0
LINE
  8
_0-0_0
  6
CONTINUOUS
 62
    7
 10
14.236404418945312
 20
150.20487213134771
 11
14.236404418945312
 21
160.20487213134771
  0
LINE
  8
_0-0_0
  6
CONTINUOUS
 62
    7
 10
3.2364044189453125
 20
148.70487213134771
 11
-16.263595581054688
 21
148.70487213134771
  0
LINE
  8
_0-0_0
  6
CONTINUOUS
 62
    7
 10
3.2364044189453125
 20
161.70487213134771
 11
-16.263595581054688
 21
161.70487213134771
  0
LINE
  8
_0-0_0
  6
CONTINUOUS
 62
    7
 10
8.0364532470703125
 20
149.30496978759771
 11
8.0364532470703125
 21
161.10477447509771
  0
LINE
  8
_0-0_0
  6
CONTINUOUS
 62
    7
 10
3.2364044189453125
 20
148.70487213134771
 11
3.2364044189453125
 21
161.70487213134771
  0
LINE
  8
_0-0_0
  6
CONTINUOUS
 62
    7
 10
14.236404418945312
 20
150.20487213134771
 11
8.0364532470703125
 21
150.20487213134771
  0
LINE
  8
_0-0_0
  6
CONTINUOUS
 62
    7
 10
14.236404418945312
 20
160.20487213134771
 11
8.0364532470703125
 21
160.20487213134771
  0
LINE
  8
_0-0_0
  6
CONTINUOUS
 62
    7
 10
8.0364532470703125
 20
149.30496978759771
 11
3.2364044189453125
 21
149.30496978759771
  0
LINE
  8
_0-0_0
  6
CONTINUOUS
 62
    7
 10
8.0364532470703125
 20
161.10477447509771
 11
3.2364044189453125
 21
161.10477447509771
  0
LINE
  8
_0-0_0
  6
CONTINUOUS
 62
    7
 10
-21.263595581054688
 20
150.70487213134771
 11
-21.263595581054688
 21
159.70487213134771
  0
LINE
  8
_0-0_0
  6
CONTINUOUS
 62
    7
 10
-35.263595581054687
 20
151.70487213134771
 11
-35.263595581054687
 21
158.70487213134771
  0
LINE
  8
_0-0_0
  6
CONTINUOUS
 62
    7
 10
-16.263832092285156
 20
149.5046691894531
 11
-21.263931274414063
 21
150.70468902587891
  0
LINE
  8
_0-0_0
  6
CONTINUOUS
 62
    7
 10
-21.264091491699219
 20
159.70464324951172
 11
-16.26422119140625
 21
160.90460205078131
  0
LINE
  8
_0-0_0
  6
CONTINUOUS
 62
    7
 10
-21.263938903808594
 20
151.20481872558588
 11
-35.264045715332031
 21
151.7048263549805
  0
LINE
  8
_0-0_0
  6
CONTINUOUS
 62
    7
 10
-21.263923645019531
 20
159.20464324951172
 11
-35.263786315917969
 21
158.70465087890631
  0
LINE
  8
_0-0_0
  6
CONTINUOUS
 62
    7
 10
-19.563644409179688
 20
152.10477447509771
 11
-19.563644409179688
 21
158.30496978759771
  0
LINE
  8
_0-0_0
  6
CONTINUOUS
 62
    7
 10
-17.963546752929688
 20
152.10477447509771
 11
-17.963546752929688
 21
158.30496978759771
  0
LINE
  8
_0-0_0
  6
CONTINUOUS
 62
    7
 10
-17.963546752929688
 20
152.10477447509771
 11
-19.563644409179688
 21
152.10477447509771
  0
LINE
  8
_0-0_0
  6
CONTINUOUS
 62
    7
 10
-17.963546752929688
 20
158.30496978759771
 11
-19.563644409179688
 21
158.30496978759771
  0
LINE
  8
_0-0_0
  6
CONTINUOUS
 62
    7
 10
-16.263595581054688
 20
154.00492095947271
 11
-17.963546752929688
 21
154.00492095947271
  0
LINE
  8
_0-0_0
  6
CONTINUOUS
 62
    7
 10
-16.263595581054688
 20
156.40482330322271
 11
-17.963546752929688
 21
156.40482330322271
  0
LINE
  8
_0-0_0
  6
CONTINUOUS
 62
    7
 10
-13.163497924804687
 20
151.70487213134771
 11
-13.163497924804687
 21
158.70487213134771
  0
LINE
  8
_0-0_0
  6
CONTINUOUS
 62
    7
 10
-12.663497924804688
 20
151.70487213134771
 11
-12.663497924804688
 21
158.70487213134771
  0
LINE
  8
_0-0_0
  6
CONTINUOUS
 62
    7
 10
-10.963546752929688
 20
151.70487213134771
 11
-10.963546752929688
 21
158.70487213134771
  0
LINE
  8
_0-0_0
  6
CONTINUOUS
 62
    7
 10
-10.463546752929687
 20
151.70487213134771
 11
-10.463546752929687
 21
158.70487213134771
  0
LINE
  8
_0-0_0
  6
CONTINUOUS
 62
    7
 10
-8.7635955810546875
 20
151.70487213134771
 11
-8.7635955810546875
 21
158.70487213134771
  0
LINE
  8
_0-0_0
  6
CONTINUOUS
 62
    7
 10
-8.2635955810546875
 20
151.70487213134771
 11
-8.2635955810546875
 21
158.70487213134771
  0
LINE
  8
_0-0_0
  6
CONTINUOUS
 62
    7
 10
-6.5636444091796875
 20
151.70487213134771
 11
-6.5636444091796875
 21
158.70487213134771
  0
LINE
  8
_0-0_0
  6
CONTINUOUS
 62
    7
 10
0.4363555908203125
 20
151.70487213134771
 11
0.4363555908203125
 21
158.70487213134771
  0
LINE
  8
_0-0_0
  6
CONTINUOUS
 62
    7
 10
0.4363555908203125
 20
151.70487213134771
 11
-6.5636444091796875
 21
151.70487213134771
  0
LINE
  8
_0-0_0
  6
CONTINUOUS
 62
    7
 10
0.4363555908203125
 20
158.70487213134771
 11
-6.5636444091796875
 21
158.70487213134771
  0
LINE
  8
_0-0_0
  6
CONTINUOUS
 62
    7
 10
-8.2635955810546875
 20
151.70487213134771
 11
-8.7635955810546875
 21
151.70487213134771
  0
LINE
  8
_0-0_0
  6
CONTINUOUS
 62
    7
 10
-10.463546752929687
 20
151.70487213134771
 11
-10.963546752929688
 21
151.70487213134771
  0
LINE
  8
_0-0_0
  6
CONTINUOUS
 62
    7
 10
-12.663497924804688
 20
151.70487213134771
 11
-13.138595581054688
 21
151.70487213134771
  0
LINE
  8
_0-0_0
  6
CONTINUOUS
 62
    7
 10
-8.2635955810546875
 20
158.70487213134771
 11
-8.7635955810546875
 21
158.70487213134771
  0
LINE
  8
_0-0_0
  6
CONTINUOUS
 62
    7
 10
-10.463546752929687
 20
158.70487213134771
 11
-10.963546752929688
 21
158.70487213134771
  0
LINE
  8
_0-0_0
  6
CONTINUOUS
 62
    7
 10
-12.663497924804688
 20
158.70487213134771
 11
-13.163497924804687
 21
158.70487213134771
  0
LINE
  8
_0-0_0
  6
CONTINUOUS
 62
    7
 10
-5.5636444091796875
 20
154.20487213134771
 11
-5.5636444091796875
 21
156.20487213134771
  0
LINE
  8
_0-0_0
  6
CONTINUOUS
 62
    7
 10
-2.5638923645019531
 20
153.205078125
 11
-0.5639343261718821
 21
155.20503997802729
  0
LINE
  8
_0-0_0
  6
CONTINUOUS
 62
    7
 10
-2.5638923645019531
 20
157.20499420166021
 11
-0.5639343261718821
 21
155.20503997802729
  0
LINE
  8
_0-0_0
  6
CONTINUOUS
 62
    7
 10
-2.5636444091796875
 20
153.20487213134771
 11
-2.5636444091796875
 21
154.20487213134771
  0
LINE
  8
_0-0_0
  6
CONTINUOUS
 62
    7
 10
-2.5636444091796875
 20
156.20487213134771
 11
-5.5636444091796875
 21
156.20487213134771
  0
LINE
  8
_0-0_0
  6
CONTINUOUS
 62
    7
 10
-2.5636444091796875
 20
154.20487213134771
 11
-5.5636444091796875
 21
154.20487213134771
  0
LINE
  8
_0-0_0
  6
CONTINUOUS
 62
    7
 10
-2.5636444091796875
 20
156.20487213134771
 11
-2.5636444091796875
 21
157.20487213134771
  0
LINE
  8
_0-0_0
  6
CONTINUOUS
 62
    7
 10
-16.263595581054688
 20
148.70487213134771
 11
-16.263595581054688
 21
161.70487213134771
  0
LINE
  8
_0-0_0
  6
CONTINUOUS
 62
    7
 10
-32.764183044433594
 20
158.04010772705078
 11
-33.264183044433594
 21
155.20445251464838
  0
LINE
  8
_0-0_0
  6
CONTINUOUS
 62
    7
 10
-31.624259948730469
 20
158.83470153808588
 11
-31.748863220214844
 21
158.12807464599609
  0
LINE
  8
_0-0_0
  6
CONTINUOUS
 62
    7
 10
-30.764251708984375
 20
158.04048156738281
 11
-31.264251708984375
 21
155.204833984375
  0
LINE
  8
_0-0_0
  6
CONTINUOUS
 62
    7
 10
-29.611457824707031
 20
158.90668487548828
 11
-29.764205932617188
 21
158.040412902832
  0
LINE
  8
_0-0_0
  6
CONTINUOUS
 62
    7
 10
-29.764205932617188
 20
152.36879730224609
 11
-29.915000915527344
 21
151.5135803222656
  0
LINE
  8
_0-0_0
  6
CONTINUOUS
 62
    7
 10
-27.598930358886719
 20
158.97846984863281
 11
-27.764274597167969
 21
158.04078674316412
  0
LINE
  8
_0-0_0
  6
CONTINUOUS
 62
    7
 10
-27.764274597167969
 20
152.3691711425781
 11
-27.927619934082031
 21
151.44278717041021
  0
LINE
  8
_0-0_0
  6
CONTINUOUS
 62
    7
 10
-25.586128234863281
 20
159.05045318603521
 11
-25.764228820800781
 21
158.040397644043
  0
LINE
  8
_0-0_0
  6
CONTINUOUS
 62
    7
 10
-25.764190673828125
 20
152.369026184082
 11
-25.940040588378906
 21
151.37171936035162
  0
LINE
  8
_0-0_0
  6
CONTINUOUS
 62
    7
 10
-23.5733642578125
 20
159.122200012207
 11
-23.764183044433594
 21
158.04001617431641
  0
LINE
  8
_0-0_0
  6
CONTINUOUS
 62
    7
 10
-23.764259338378906
 20
152.36940765380859
 11
-23.95269775390625
 21
151.3006896972656
  0
LINE
  8
_0-0_0
  6
CONTINUOUS
 62
    7
 10
-21.560798645019531
 20
159.194221496582
 11
-21.750770568847656
 21
158.1168518066406
  0
LINE
  8
_0-0_0
  6
CONTINUOUS
 62
    7
 10
-23.759666442871094
 20
158.01630401611328
 11
-23.24847412109375
 21
155.1171798706055
  0
LINE
  8
_0-0_0
  6
CONTINUOUS
 62
    7
 10
-24.946075439453125
 20
159.07317352294922
 11
-24.763954162597656
 21
158.0402755737305
  0
LINE
  8
_0-0_0
  6
CONTINUOUS
 62
    7
 10
-26.933464050292969
 20
159.00238037109381
 11
-26.748367309570313
 21
157.95265960693359
  0
LINE
  8
_0-0_0
  6
CONTINUOUS
 62
    7
 10
-28.921043395996094
 20
158.93131256103521
 11
-28.763931274414063
 21
158.04026794433588
  0
LINE
  8
_0-0_0
  6
CONTINUOUS
 62
    7
 10
-30.908378601074219
 20
158.86027526855469
 11
-30.763816833496094
 21
158.0404052734375
  0
LINE
  8
_0-0_0
  6
CONTINUOUS
 62
    7
 10
-30.76385498046875
 20
152.36903381347662
 11
-30.617469787597656
 21
151.5388259887695
  0
LINE
  8
_0-0_0
  6
CONTINUOUS
 62
    7
 10
-32.895965576171875
 20
158.78920745849609
 11
-32.761611938476563
 21
158.02727508544922
  0
LINE
  8
_0-0_0
  6
CONTINUOUS
 62
    7
 10
-34.764076232910156
 20
152.36898040771479
 11
-34.643035888671875
 21
151.68254852294922
  0
LINE
  8
_0-0_0
  6
CONTINUOUS
 62
    7
 10
-21.75048828125
 20
158.11672210693359
 11
-21.237007141113281
 21
155.20461273193359
  0
LINE
  8
_0-0_0
  6
CONTINUOUS
 62
    7
 10
-34.76422119140625
 20
158.04048919677729
 11
-35.264228820800781
 21
155.2048416137695
  0
LINE
  8
_0-0_0
  6
CONTINUOUS
 62
    7
 10
-34.883583068847656
 20
158.718376159668
 11
-34.761871337890625
 21
158.02809143066412
  0
LINE
  8
_0-0_0
  6
CONTINUOUS
 62
    7
 10
-34.237113952636719
 20
155.0520324707031
 11
-33.763984680175781
 21
152.36881256103521
  0
LINE
  8
_0-0_0
  6
CONTINUOUS
 62
    7
 10
-21.767562866210938
 20
152.38795471191412
 11
-21.97174072265625
 21
151.23003387451172
  0
LINE
  8
_0-0_0
  6
CONTINUOUS
 62
    7
 10
-34.276092529296875
 20
155.13720703125
 11
-34.764228820800781
 21
152.36888122558588
  0
LINE
  8
_0-0_0
  6
CONTINUOUS
 62
    7
 10
-32.263984680175781
 20
155.20509338378912
 11
-31.763946533203125
 21
152.36920166015631
  0
LINE
  8
_0-0_0
  6
CONTINUOUS
 62
    7
 10
-33.764183044433594
 20
152.3688049316406
 11
-33.889923095703125
 21
151.65568542480469
  0
LINE
  8
_0-0_0
  6
CONTINUOUS
 62
    7
 10
-32.764030456542969
 20
152.36936950683588
 11
-32.630233764648438
 21
151.6105651855469
  0
LINE
  8
_0-0_0
  6
CONTINUOUS
 62
    7
 10
-31.764251708984375
 20
152.36917877197271
 11
-31.902587890625
 21
151.58465576171881
  0
LINE
  8
_0-0_0
  6
CONTINUOUS
 62
    7
 10
-28.764053344726563
 20
152.3693771362305
 11
-28.604904174804687
 21
151.466796875
  0
LINE
  8
_0-0_0
  6
CONTINUOUS
 62
    7
 10
-26.763877868652344
 20
152.36904144287109
 11
-26.592140197753906
 21
151.3950500488281
  0
LINE
  8
_0-0_0
  6
CONTINUOUS
 62
    7
 10
-24.763710021972656
 20
152.36870574951172
 11
-24.579376220703125
 21
151.32331085205078
  0
LINE
  8
_0-0_0
  6
CONTINUOUS
 62
    7
 10
-22.763946533203125
 20
152.3692932128906
 11
-22.566810607910156
 21
151.25128173828131
  0
LINE
  8
_0-0_0
  6
CONTINUOUS
 62
    7
 10
-33.667984008789063
 20
158.7617263793945
 11
-33.775581359863281
 21
158.15150451660162
  0
LINE
  8
_0-0_0
  6
CONTINUOUS
 62
    7
 10
-31.745704650878906
 20
158.11170959472662
 11
-31.233116149902344
 21
155.20465087890631
  0
LINE
  8
_0-0_0
  6
CONTINUOUS
 62
    7
 10
-24.764183044433594
 20
158.04032897949219
 11
-25.264183044433594
 21
155.2046813964844
  0
LINE
  8
_0-0_0
  6
CONTINUOUS
 62
    7
 10
-28.764205932617187
 20
158.04010009765631
 11
-29.264205932617188
 21
155.20444488525391
  0
LINE
  8
_0-0_0
  6
CONTINUOUS
 62
    7
 10
-26.748756408691406
 20
157.95270538330078
 11
-27.248764038085938
 21
155.117057800293
  0
LINE
  8
_0-0_0
  6
CONTINUOUS
 62
    7
 10
-22.748779296875
 20
157.95269775390631
 11
-23.248786926269531
 21
155.11705017089838
  0
LINE
  8
_0-0_0
  6
CONTINUOUS
 62
    7
 10
-27.763969421386719
 20
158.04082489013672
 11
-27.263885498046875
 21
155.20468902587891
  0
LINE
  8
_0-0_0
  6
CONTINUOUS
 62
    7
 10
-25.7637939453125
 20
158.04048919677729
 11
-25.263755798339844
 21
155.2045974731445
  0
LINE
  8
_0-0_0
  6
CONTINUOUS
 62
    7
 10
-33.749649047851563
 20
158.13344573974609
 11
-33.248634338378906
 21
155.2920227050781
  0
LINE
  8
_0-0_0
  6
CONTINUOUS
 62
    7
 10
-29.7484130859375
 20
158.12772369384771
 11
-29.293312072753906
 21
155.54669189453131
  0
LINE
  8
_0-0_0
  6
CONTINUOUS
 62
    7
 10
-22.958740234375
 20
159.14420318603521
 11
-22.748634338378906
 21
157.95262145996088
  0
LINE
  8
_0-0_0
  6
CONTINUOUS
 62
    7
 10
-22.264251708984375
 20
155.2047424316406
 11
-22.764251708984375
 21
152.36909484863281
  0
LINE
  8
_0-0_0
  6
CONTINUOUS
 62
    7
 10
-24.263908386230469
 20
155.20438385009771
 11
-23.763992309570312
 21
152.36921691894531
  0
LINE
  8
_0-0_0
  6
CONTINUOUS
 62
    7
 10
-24.264183044433594
 20
155.20436859130859
 11
-24.764183044433594
 21
152.36871337890631
  0
LINE
  8
_0-0_0
  6
CONTINUOUS
 62
    7
 10
-26.263839721679688
 20
155.20476531982422
 11
-25.7637939453125
 21
152.36887359619141
  0
LINE
  8
_0-0_0
  6
CONTINUOUS
 62
    7
 10
-26.264228820800781
 20
155.20475006103521
 11
-26.764228820800781
 21
152.36910247802729
  0
LINE
  8
_0-0_0
  6
CONTINUOUS
 62
    7
 10
-28.264007568359375
 20
155.20510101318359
 11
-27.763969421386719
 21
152.36920928955078
  0
LINE
  8
_0-0_0
  6
CONTINUOUS
 62
    7
 10
-28.264274597167969
 20
155.20513916015631
 11
-28.764274597167969
 21
152.36948394775391
  0
LINE
  8
_0-0_0
  6
CONTINUOUS
 62
    7
 10
-30.263816833496094
 20
155.20475769042969
 11
-29.763771057128906
 21
152.3688659667969
  0
LINE
  8
_0-0_0
  6
CONTINUOUS
 62
    7
 10
-30.264205932617188
 20
155.20475769042969
 11
-30.764205932617187
 21
152.3691101074219
  0
LINE
  8
_0-0_0
  6
CONTINUOUS
 62
    7
 10
-22.264106750488281
 20
155.20473480224609
 11
-21.767448425292969
 21
152.38807678222662
  0
LINE
  8
_0-0_0
  6
CONTINUOUS
 62
    7
 10
-32.264289855957031
 20
155.20490264892578
 11
-32.764297485351562
 21
152.369255065918
  0
LINE
  8
_0-0_0
  6
CONTINUOUS
 62
    7
 10
-35.263595581054687
 20
152.95487213134771
 11
-78.789321899414091
 21
152.95487213134771
  0
LINE
  8
_0-0_0
  6
CONTINUOUS
 62
    7
 10
-35.263595581054687
 20
157.45487213134771
 11
-78.789321899414091
 21
157.45487213134771
  0
LINE
  8
_0-0_0
  6
CENTER
 62
    7
 10
34.919265747070312
 20
145.36454010009771
 11
34.919265747070312
 21
165.78251647949219
  0
LINE
  8
_0-0_0
  6
CENTER
 62
    7
 10
16.331619262695313
 20
155.20487213134771
 11
-137.78924560546881
 21
155.20487213134771
  0
LINE
  8
_0-0_0
  6
CONTINUOUS
 62
    7
 10
13.236404418945312
 20
154.70487213134771
 11
13.236404418945312
 21
155.70487213134771
  0
LINE
  8
_0-0_0
  6
CONTINUOUS
 62
    7
 10
13.236404418945312
 20
154.70487213134771
 11
9.8365020751953125
 21
154.70487213134771
  0
LINE
  8
_0-0_0
  6
CONTINUOUS
 62
    7
 10
13.236404418945312
 20
155.70487213134771
 11
9.8365020751953125
 21
155.70487213134771
  0
LINE
  8
_0-0_0
  6
CONTINUOUS
 62
    7
 10
9.8365020751953125
 20
154.70487213134771
 11
9.8365020751953125
 21
155.70487213134771
  0
LINE
  8
_0-0_0
  6
CENTER
 62
    7
 10
44.936600685119629
 20
155.20487213134771
 11
25.708816528320309
 21
155.20487213134771
  0
LINE
  8
_0-0_0
  6
CONTINUOUS
 62
    7
 10
35.919265747070313
 20
159.20487213134771
 11
33.919265747070313
 21
159.20487213134771
  0
LINE
  8
_0-0_0
  6
CONTINUOUS
 62
    7
 10
35.919265747070313
 20
151.20487213134771
 11
33.919265747070313
 21
151.20487213134771
  0
LINE
  8
_0-0_0
  6
CONTINUOUS
 62
    7
 10
33.919265747070313
 20
150.81742095947271
 11
33.919265747070313
 21
151.18680572509771
  0
LINE
  8
_0-0_0
  6
CONTINUOUS
 62
    7
 10
35.919265747070313
 20
150.81742095947271
 11
35.919265747070313
 21
151.20487213134771
  0
LINE
  8
_0-0_0
  6
CONTINUOUS
 62
    7
 10
35.919265747070313
 20
159.20487213134771
 11
35.919265747070313
 21
159.59232330322271
  0
LINE
  8
_0-0_0
  6
CONTINUOUS
 62
    7
 10
33.919265747070313
 20
159.20487213134771
 11
33.919265747070313
 21
159.59232330322271
  0
LINE
  8
_0-0_0
  6
CONTINUOUS
 62
    7
 10
38.119217872619629
 20
152.04105377197271
 11
38.119217872619629
 21
154.70487213134771
  0
LINE
  8
_0-0_0
  6
CONTINUOUS
 62
    7
 10
39.894364356994629
 20
154.70487213134771
 11
38.119217872619629
 21
154.70487213134771
  0
LINE
  8
_0-0_0
  6
CONTINUOUS
 62
    7
 10
39.894364356994629
 20
155.70487213134771
 11
38.119217872619629
 21
155.70487213134771
  0
LINE
  8
_0-0_0
  6
CONTINUOUS
 62
    7
 10
38.119217872619629
 20
155.70487213134771
 11
38.119217872619629
 21
158.36869049072271
  0
LINE
  8
_0-0_0
  6
CONTINUOUS
 62
    7
 10
28.419265747070309
 20
148.70487213134771
 11
28.419265747070309
 21
161.70487213134771
  0
LINE
  8
_0-0_0
  6
CONTINUOUS
 62
    7
 10
34.919265747070312
 20
148.70487213134771
 11
28.419265747070309
 21
148.70487213134771
  0
LINE
  8
_0-0_0
  6
CONTINUOUS
 62
    7
 10
34.919265747070312
 20
161.70487213134771
 11
28.419265747070309
 21
161.70487213134771
  0
LINE
  8
_0-0_0
  6
CONTINUOUS
 62
    7
 10
36.669266700744629
 20
149.70487213134771
 11
33.169265747070313
 21
149.70487213134771
  0
LINE
  8
_0-0_0
  6
CONTINUOUS
 62
    7
 10
33.169265747070313
 20
149.70487213134771
 11
33.169265747070313
 21
150.52103424072271
  0
LINE
  8
_0-0_0
  6
CONTINUOUS
 62
    7
 10
36.669266700744629
 20
149.70487213134771
 11
36.669266700744629
 21
150.52127838134771
  0
LINE
  8
_0-0_0
  6
CONTINUOUS
 62
    7
 10
34.419265747070313
 20
149.70487213134771
 11
34.419265747070313
 21
150.23001861572271
  0
LINE
  8
_0-0_0
  6
CONTINUOUS
 62
    7
 10
35.419265747070313
 20
149.70487213134771
 11
35.419265747070313
 21
150.23001861572271
  0
LINE
  8
_0-0_0
  6
CONTINUOUS
 62
    7
 10
36.669266700744629
 20
160.70487213134771
 11
33.169265747070313
 21
160.70487213134771
  0
LINE
  8
_0-0_0
  6
CONTINUOUS
 62
    7
 10
36.669266700744629
 20
159.88871002197271
 11
36.669266700744629
 21
160.70487213134771
  0
LINE
  8
_0-0_0
  6
CONTINUOUS
 62
    7
 10
33.169265747070313
 20
159.88871002197271
 11
33.169265747070313
 21
160.70487213134771
  0
LINE
  8
_0-0_0
  6
CONTINUOUS
 62
    7
 10
34.419265747070313
 20
160.17972564697271
 11
34.419265747070313
 21
160.70487213134771
  0
LINE
  8
_0-0_0
  6
CONTINUOUS
 62
    7
 10
35.419265747070313
 20
160.17972564697271
 11
35.419265747070313
 21
160.70487213134771
  0
LINE
  8
_0-0_0
  6
CONTINUOUS
 62
    7
 10
-190.51499938964841
 20
147.20487213134771
 11
-190.51499938964841
 21
139.2548751831055
  0
LINE
  8
_0-0_0
  6
CONTINUOUS
 62
    7
 10
-134.51499938964841
 20
162.20487213134771
 11
-134.51499938964841
 21
160.35488128662109
  0
LINE
  8
_0-0_0
  6
CONTINUOUS
 62
    7
 10
-180.51499938964841
 20
147.20487213134771
 11
-180.51499938964841
 21
141.70487213134771
  0
LINE
  8
_0-0_0
  6
CONTINUOUS
 62
    7
 10
-155.51499938964841
 20
147.20487213134771
 11
-155.51499938964841
 21
137.20487213134771
  0
LINE
  8
_0-0_0
  6
CONTINUOUS
 62
    7
 10
-154.01499938964841
 20
148.70487213134771
 11
-136.21495056152341
 21
148.70487213134771
  0
LINE
  8
_0-0_0
  6
CONTINUOUS
 62
    7
 10
-195.31504821777341
 20
148.70487213134771
 11
-182.01499938964841
 21
148.70487213134771
  0
LINE
  8
_0-0_0
  6
CONTINUOUS
 62
    7
 10
-194.01499938964841
 20
149.20487213134771
 11
-181.51499938964841
 21
149.20487213134771
  0
LINE
  8
_0-0_0
  6
CONTINUOUS
 62
    7
 10
-138.0150146484375
 20
147.70487213134771
 11
-135.01499938964841
 21
147.70487213134771
  0
LINE
  8
_0-0_0
  6
CONTINUOUS
 62
    7
 10
-155.26499938964841
 20
149.20487213134771
 11
-140.21495056152341
 21
149.20487213134771
  0
LINE
  8
_0-0_0
  6
CONTINUOUS
 62
    7
 10
-134.51499938964841
 20
150.05487823486328
 11
-134.51499938964841
 21
148.20487213134771
  0
LINE
  8
_0-0_0
  6
CONTINUOUS
 62
    7
 10
-134.51499938964841
 20
150.05487823486328
 11
-134.51499938964841
 21
150.40486907958979
  0
LINE
  8
_0-0_0
  6
CONTINUOUS
 62
    7
 10
-134.51499938964841
 20
160.35488128662109
 11
-134.51499938964841
 21
160.0048751831055
  0
LINE
  8
_0-0_0
  6
CONTINUOUS
 62
    7
 10
-134.51499938964841
 20
160.0048751831055
 11
-134.51499938964841
 21
150.40486907958979
  0
LINE
  8
_0-0_0
  6
CONTINUOUS
 62
    7
 10
-193.76499938964841
 20
142.68930816650391
 11
-193.76499938964841
 21
141.5048751831055
  0
LINE
  8
_0-0_0
  6
CONTINUOUS
 62
    7
 10
-192.26499938964841
 20
142.68930816650391
 11
-192.26499938964841
 21
141.21198272705078
  0
LINE
  8
_0-0_0
  6
CENTER
 62
    7
 10
-196.01499938964841
 20
144.70487213134771
 11
-190.01499938964841
 21
144.70487213134771
  0
LINE
  8
_0-0_0
  6
CENTER
 62
    7
 10
-193.01499938964841
 20
147.70487213134771
 11
-193.01499938964841
 21
141.70487213134771
  0
LINE
  8
_0-0_0
  6
CONTINUOUS
 62
    7
 10
-197.51499938964841
 20
162.20487213134771
 11
-197.51499938964841
 21
141.5048751831055
  0
LINE
  8
_0-0_0
  6
CONTINUOUS
 62
    7
 10
-196.01499938964841
 20
160.5048751831055
 11
-196.01499938964841
 21
149.40486907958979
  0
LINE
  8
_0-0_0
  6
CONTINUOUS
 62
    7
 10
-169.26509094238281
 20
139.70487213134771
 11
-166.76509094238281
 21
139.70487213134771
  0
LINE
  8
_0-0_0
  6
CONTINUOUS
 62
    7
 10
-169.26533508300781
 20
139.70491790771479
 11
-168.01531982421881
 21
137.70489501953131
  0
LINE
  8
_0-0_0
  6
CONTINUOUS
 62
    7
 10
-166.76493835449219
 20
139.70468902587891
 11
-168.01495361328131
 21
137.70466613769531
  0
LINE
  8
_0-0_0
  6
CONTINUOUS
 62
    7
 10
-197.81480407714841
 20
144.70487213134771
 11
-197.51499938964841
 21
144.70487213134771
  0
LINE
  8
_0-0_0
  6
CONTINUOUS
 62
    7
 10
-197.81480407714841
 20
142.70487213134771
 11
-197.51499938964841
 21
142.70487213134771
  0
LINE
  8
_0-0_0
  6
CONTINUOUS
 62
    7
 10
-197.81480407714841
 20
144.70487213134771
 11
-197.81480407714841
 21
142.70487213134771
  0
LINE
  8
_0-0_0
  6
CONTINUOUS
 62
    7
 10
-188.25767517089841
 20
137.20487213134771
 11
-147.77207946777341
 21
137.20487213134771
  0
LINE
  8
_0-0_0
  6
CONTINUOUS
 62
    7
 10
-192.11846923828131
 20
140.8586120605469
 11
-188.6114196777344
 21
137.3515625
  0
LINE
  8
_0-0_0
  6
CONTINUOUS
 62
    7
 10
-194.26499938964841
 20
141.0048751831055
 11
-197.01499938964841
 21
141.0048751831055
  0
LINE
  8
_0-0_0
  6
CONTINUOUS
 62
    7
 10
-145.51499938964841
 20
147.20487213134771
 11
-145.51499938964841
 21
139.2548751831055
  0
LINE
  8
_0-0_0
  6
CONTINUOUS
 62
    7
 10
-142.26499938964841
 20
142.68930816650391
 11
-142.26499938964841
 21
141.5048751831055
  0
LINE
  8
_0-0_0
  6
CONTINUOUS
 62
    7
 10
-143.76499938964841
 20
142.68930816650391
 11
-143.76499938964841
 21
141.21198272705078
  0
LINE
  8
_0-0_0
  6
CENTER
 62
    7
 10
-185.51499938964841
 20
147.71585845947271
 11
-185.51499938964841
 21
137.20487213134771
  0
LINE
  8
_0-0_0
  6
CENTER
 62
    7
 10
-140.01499938964841
 20
144.70487213134771
 11
-146.01499938964841
 21
144.70487213134771
  0
LINE
  8
_0-0_0
  6
CENTER
 62
    7
 10
-143.01499938964841
 20
147.70487213134771
 11
-143.01499938964841
 21
141.70487213134771
  0
LINE
  8
_0-0_0
  6
CONTINUOUS
 62
    7
 10
-138.21484375
 20
144.70487213134771
 11
-138.514892578125
 21
144.70487213134771
  0
LINE
  8
_0-0_0
  6
CONTINUOUS
 62
    7
 10
-138.21484375
 20
142.70487213134771
 11
-138.514892578125
 21
142.70487213134771
  0
LINE
  8
_0-0_0
  6
CONTINUOUS
 62
    7
 10
-138.21484375
 20
144.70487213134771
 11
-138.21484375
 21
142.70487213134771
  0
LINE
  8
_0-0_0
  6
CENTER
 62
    7
 10
-182.48130798339841
 20
143.20487213134771
 11
-188.62046813964841
 21
143.20487213134771
  0
LINE
  8
_0-0_0
  6
CONTINUOUS
 62
    7
 10
-143.9114685058594
 20
140.8586730957031
 11
-147.41851806640631
 21
137.35163116455078
  0
LINE
  8
_0-0_0
  6
CONTINUOUS
 62
    7
 10
-141.76499938964841
 20
141.0048751831055
 11
-139.0150146484375
 21
141.0048751831055
  0
LINE
  8
_0-0_0
  6
CONTINUOUS
 62
    7
 10
-197.01499938964841
 20
162.70487213134771
 11
-135.01499938964841
 21
162.70487213134771
  0
LINE
  8
_0-0_0
  6
CONTINUOUS
 62
    7
 10
-195.31504821777341
 20
161.20487213134771
 11
-174.51487731933591
 21
161.20487213134771
  0
LINE
  8
_0-0_0
  6
CONTINUOUS
 62
    7
 10
-194.01499938964841
 20
160.70487213134771
 11
-173.60069274902341
 21
160.70487213134771
  0
LINE
  8
_0-0_0
  6
CONTINUOUS
 62
    7
 10
-162.42906188964841
 20
160.70487213134771
 11
-140.21495056152341
 21
160.70487213134771
  0
LINE
  8
_0-0_0
  6
CONTINUOUS
 62
    7
 10
-174.01487731933591
 20
161.70487213134771
 11
-162.01487731933591
 21
161.70487213134771
  0
LINE
  8
_0-0_0
  6
CONTINUOUS
 62
    7
 10
-174.514892578125
 20
161.20489501953131
 11
-174.01495361328131
 21
161.7048416137695
  0
LINE
  8
_0-0_0
  6
CONTINUOUS
 62
    7
 10
-162.01484680175781
 20
161.70487213134771
 11
-161.51481628417969
 21
161.2048416137695
  0
LINE
  8
_0-0_0
  6
CENTER
 62
    7
 10
-182.48130798339841
 20
141.95487213134771
 11
-188.62046813964841
 21
141.95487213134771
  0
LINE
  8
_0-0_0
  6
CENTER
 62
    7
 10
-182.48130798339841
 20
144.45487213134771
 11
-188.62046813964841
 21
144.45487213134771
  0
LINE
  8
_0-0_0
  6
CONTINUOUS
 62
    7
 10
-188.01499938964841
 20
144.45487213134771
 11
-188.01499938964841
 21
141.95487213134771
  0
LINE
  8
_0-0_0
  6
CONTINUOUS
 62
    7
 10
-183.01499938964841
 20
144.45487213134771
 11
-183.01499938964841
 21
141.95487213134771
  0
LINE
  8
_0-0_0
  6
CONTINUOUS
 62
    7
 10
-153.01499938964841
 20
144.45487213134771
 11
-153.01499938964841
 21
141.95487213134771
  0
LINE
  8
_0-0_0
  6
CENTER
 62
    7
 10
-147.48130798339841
 20
144.45487213134771
 11
-153.62046813964841
 21
144.45487213134771
  0
LINE
  8
_0-0_0
  6
CONTINUOUS
 62
    7
 10
-148.01499938964841
 20
144.45487213134771
 11
-148.01499938964841
 21
141.95487213134771
  0
LINE
  8
_0-0_0
  6
CENTER
 62
    7
 10
-147.48130798339841
 20
143.20487213134771
 11
-153.62046813964841
 21
143.20487213134771
  0
LINE
  8
_0-0_0
  6
CENTER
 62
    7
 10
-147.48130798339841
 20
141.95487213134771
 11
-153.62046813964841
 21
141.95487213134771
  0
LINE
  8
_0-0_0
  6
CENTER
 62
    7
 10
-150.51499938964841
 20
147.71585845947271
 11
-150.51499938964841
 21
137.20487213134771
  0
LINE
  8
_0-0_0
  6
CONTINUOUS
 62
    7
 10
-179.81504821777341
 20
141.0048751831055
 11
-156.21495056152341
 21
141.0048751831055
  0
LINE
  8
_0-0_0
  6
CONTINUOUS
 62
    7
 10
-161.51487731933591
 20
161.20487213134771
 11
-136.21495056152341
 21
161.20487213134771
  0
LINE
  8
_0-0_0
  6
CONTINUOUS
 62
    7
 10
-138.5150146484375
 20
147.20487213134771
 11
-138.5150146484375
 21
141.5048751831055
  0
LINE
  8
_0-0_0
  6
CONTINUOUS
 62
    7
 10
-140.21495056152341
 20
160.70487213134771
 11
-136.81504821777341
 21
160.70487213134771
  0
LINE
  8
_0-0_0
  6
CONTINUOUS
 62
    7
 10
-140.21495056152341
 20
149.20487213134771
 11
-136.81504821777341
 21
149.20487213134771
  0
LINE
  8
_0-0_0
  6
CONTINUOUS
 62
    7
 10
-135.51499938964841
 20
160.49662780761719
 11
-135.51499938964841
 21
149.40486907958979
  0
LINE
  8
_0-0_0
  6
CONTINUOUS
 62
    7
 10
-235.57015991210937
 20
162.70487213134771
 11
-224.67025756835937
 21
162.70487213134771
  0
LINE
  8
_0-0_0
  6
CONTINUOUS
 62
    7
 10
-236.12020874023437
 20
148.70487213134771
 11
-235.82015991210937
 21
148.70487213134771
  0
LINE
  8
_0-0_0
  6
CONTINUOUS
 62
    7
 10
-224.42025756835937
 20
148.70487213134771
 11
-224.12020874023437
 21
148.70487213134771
  0
LINE
  8
_0-0_0
  6
CONTINUOUS
 62
    7
 10
-236.12020874023437
 20
148.70487213134771
 11
-236.12020874023437
 21
139.2548904418945
  0
LINE
  8
_0-0_0
  6
CONTINUOUS
 62
    7
 10
-235.82015991210937
 20
162.45487213134771
 11
-235.82015991210937
 21
137.45487213134771
  0
LINE
  8
_0-0_0
  6
CONTINUOUS
 62
    7
 10
-224.12020874023437
 20
148.70487213134771
 11
-224.12020874023437
 21
139.2548904418945
  0
LINE
  8
_0-0_0
  6
CONTINUOUS
 62
    7
 10
-235.57015991210937
 20
137.20487213134771
 11
-224.67025756835937
 21
137.20487213134771
  0
LINE
  8
_0-0_0
  6
CONTINUOUS
 62
    7
 10
-228.87020874023437
 20
144.70488739013672
 11
-231.37020874023437
 21
144.70488739013672
  0
LINE
  8
_0-0_0
  6
CONTINUOUS
 62
    7
 10
-228.87002563476562
 20
144.70521545410162
 11
-230.12008666992187
 21
142.70509338378912
  0
LINE
  8
_0-0_0
  6
CONTINUOUS
 62
    7
 10
-231.37008666992187
 20
144.70469665527338
 11
-230.12008666992187
 21
142.70467376708979
  0
LINE
  8
_0-0_0
  6
CONTINUOUS
 62
    7
 10
-224.12020874023437
 20
139.2548904418945
 11
-224.42025756835937
 21
139.2548904418945
  0
LINE
  8
_0-0_0
  6
CONTINUOUS
 62
    7
 10
-235.82015991210937
 20
139.2548904418945
 11
-236.12020874023437
 21
139.2548904418945
  0
LINE
  8
_0-0_0
  6
CONTINUOUS
 62
    7
 10
-224.42025756835937
 20
141.0048751831055
 11
-235.82015991210937
 21
141.0048751831055
  0
LINE
  8
_0-0_0
  6
CONTINUOUS
 62
    7
 10
-224.42025756835937
 20
162.45487213134771
 11
-224.42025756835937
 21
137.45487213134771
  0
LINE
  8
_0-0_0
  6
CENTER
 62
    7
 10
-168.01496887207031
 20
168.32810974121091
 11
-168.01496887207031
 21
131.71453094482422
  0
LINE
  8
_0-0_0
  6
CONTINUOUS
 62
    7
 10
-134.51499938964841
 20
160.35488128662109
 11
-134.51499938964841
 21
150.05487823486328
  0
LINE
  8
_0-0_0
  6
CONTINUOUS
 62
    7
 10
-133.51499938964841
 20
160.35488128662109
 11
-133.51499938964841
 21
150.05487823486328
  0
LINE
  8
_0-0_0
  6
CONTINUOUS
 62
    7
 10
-127.81504821777341
 20
159.05487823486328
 11
-127.81504821777341
 21
151.35488128662109
  0
LINE
  8
_0-0_0
  6
CONTINUOUS
 62
    7
 10
-126.31504821777341
 20
159.05487823486328
 11
-126.31504821777341
 21
151.35488128662109
  0
LINE
  8
_0-0_0
  6
CONTINUOUS
 62
    7
 10
-134.51499938964841
 20
160.35488128662109
 11
-133.51499938964841
 21
160.35488128662109
  0
LINE
  8
_0-0_0
  6
CONTINUOUS
 62
    7
 10
-134.51499938964841
 20
150.05487823486328
 11
-133.51499938964841
 21
150.05487823486328
  0
LINE
  8
_0-0_0
  6
CONTINUOUS
 62
    7
 10
-133.51515197753909
 20
160.35491180419922
 11
-127.81507873535159
 21
159.05488586425781
  0
LINE
  8
_0-0_0
  6
CONTINUOUS
 62
    7
 10
-133.5148010253906
 20
150.05503845214838
 11
-127.8149719238281
 21
151.35501861572271
  0
LINE
  8
_0-0_0
  6
CENTER
 62
    7
 10
-203.03892517089841
 20
79.204879760742187
 11
-90.044342041015597
 21
79.204879760742187
  0
LINE
  8
_0-0_0
  6
CONTINUOUS
 62
    7
 10
-180.51487731933591
 20
73.504806518554688
 11
-180.51487731933591
 21
73.204879760742188
  0
LINE
  8
_0-0_0
  6
CONTINUOUS
 62
    7
 10
-155.51487731933591
 20
73.504806518554688
 11
-155.51487731933591
 21
73.204879760742188
  0
LINE
  8
_0-0_0
  6
CONTINUOUS
 62
    7
 10
-180.51487731933591
 20
85.204879760742188
 11
-180.51487731933591
 21
84.904830932617188
  0
LINE
  8
_0-0_0
  6
CONTINUOUS
 62
    7
 10
-155.51487731933591
 20
85.204879760742188
 11
-155.51487731933591
 21
84.904830932617188
  0
LINE
  8
_0-0_0
  6
CONTINUOUS
 62
    7
 10
-190.51487731933591
 20
85.204879760742188
 11
-190.51487731933591
 21
84.904830932617188
  0
LINE
  8
_0-0_0
  6
CONTINUOUS
 62
    7
 10
-190.51487731933591
 20
85.204879760742188
 11
-180.51487731933591
 21
85.204879760742188
  0
LINE
  8
_0-0_0
  6
CONTINUOUS
 62
    7
 10
-180.51487731933591
 20
84.904830932617188
 11
-155.51487731933591
 21
84.904830932617188
  0
LINE
  8
_0-0_0
  6
CONTINUOUS
 62
    7
 10
-155.51487731933591
 20
85.204879760742188
 11
-145.51487731933591
 21
85.204879760742188
  0
LINE
  8
_0-0_0
  6
CONTINUOUS
 62
    7
 10
-155.51487731933591
 20
73.204879760742188
 11
-145.51487731933591
 21
73.204879760742188
  0
LINE
  8
_0-0_0
  6
CONTINUOUS
 62
    7
 10
-180.51487731933591
 20
73.504806518554688
 11
-155.51487731933591
 21
73.504806518554688
  0
LINE
  8
_0-0_0
  6
CONTINUOUS
 62
    7
 10
-190.51487731933591
 20
73.204879760742188
 11
-180.51487731933591
 21
73.204879760742188
  0
LINE
  8
_0-0_0
  6
CONTINUOUS
 62
    7
 10
-145.51487731933591
 20
73.504806518554688
 11
-134.76487731933591
 21
73.504806518554688
  0
LINE
  8
_0-0_0
  6
CONTINUOUS
 62
    7
 10
-145.51487731933591
 20
84.904830932617188
 11
-134.76487731933591
 21
84.904830932617188
  0
LINE
  8
_0-0_0
  6
CONTINUOUS
 62
    7
 10
-197.26487731933591
 20
84.904830932617188
 11
-190.51487731933591
 21
84.904830932617188
  0
LINE
  8
_0-0_0
  6
CONTINUOUS
 62
    7
 10
-197.26487731933591
 20
73.504806518554688
 11
-190.51487731933591
 21
73.504806518554688
  0
LINE
  8
_0-0_0
  6
CONTINUOUS
 62
    7
 10
-192.26487731933591
 20
84.904830932617188
 11
-192.26487731933591
 21
73.504806518554688
  0
LINE
  8
_0-0_0
  6
CONTINUOUS
 62
    7
 10
-193.76487731933591
 20
84.904830932617188
 11
-193.76487731933591
 21
73.504806518554688
  0
LINE
  8
_0-0_0
  6
CONTINUOUS
 62
    7
 10
-190.51487731933591
 20
73.504806518554688
 11
-190.51487731933591
 21
73.204879760742188
  0
LINE
  8
_0-0_0
  6
CONTINUOUS
 62
    7
 10
-193.76487731933591
 20
83.904830932617188
 11
-192.26487731933591
 21
83.904830932617188
  0
LINE
  8
_0-0_0
  6
CONTINUOUS
 62
    7
 10
-193.76487731933591
 20
74.504806518554688
 11
-192.26487731933591
 21
74.504806518554688
  0
LINE
  8
_0-0_0
  6
CONTINUOUS
 62
    7
 10
-197.51487731933591
 20
84.654830932617188
 11
-197.51487731933591
 21
73.754806518554687
  0
LINE
  8
_0-0_0
  6
CONTINUOUS
 62
    7
 10
-138.51487731933591
 20
84.904830932617188
 11
-138.51487731933591
 21
73.504806518554688
  0
LINE
  8
_0-0_0
  6
CONTINUOUS
 62
    7
 10
-134.51487731933591
 20
84.654830932617188
 11
-134.51487731933591
 21
73.754806518554687
  0
LINE
  8
_0-0_0
  6
CONTINUOUS
 62
    7
 10
-197.81468200683591
 20
80.454879760742188
 11
-197.81468200683591
 21
77.954879760742187
  0
LINE
  8
_0-0_0
  6
CONTINUOUS
 62
    7
 10
-197.81468200683591
 20
77.954879760742187
 11
-197.51487731933591
 21
77.954879760742187
  0
LINE
  8
_0-0_0
  6
CONTINUOUS
 62
    7
 10
-197.81468200683591
 20
80.454879760742188
 11
-197.51487731933591
 21
80.454879760742188
  0
LINE
  8
_0-0_0
  6
CONTINUOUS
 62
    7
 10
-197.81468200683591
 20
79.204879760742187
 11
-197.51487731933591
 21
79.204879760742187
  0
LINE
  8
_0-0_0
  6
CONTINUOUS
 62
    7
 10
-138.51487731933591
 20
80.454879760742188
 11
-138.21482849121091
 21
80.454879760742188
  0
LINE
  8
_0-0_0
  6
CONTINUOUS
 62
    7
 10
-138.51487731933591
 20
77.954879760742187
 11
-138.21482849121091
 21
77.954879760742187
  0
LINE
  8
_0-0_0
  6
CONTINUOUS
 62
    7
 10
-138.21482849121091
 20
80.454879760742188
 11
-138.21482849121091
 21
77.954879760742187
  0
LINE
  8
_0-0_0
  6
CONTINUOUS
 62
    7
 10
-138.51487731933591
 20
79.204879760742187
 11
-138.21482849121091
 21
79.204879760742187
  0
LINE
  8
_0-0_0
  6
CONTINUOUS
 62
    7
 10
-188.46482849121091
 20
85.204879760742188
 11
-188.46482849121091
 21
73.204879760742188
  0
LINE
  8
_0-0_0
  6
CONTINUOUS
 62
    7
 10
-147.56468200683591
 20
85.204879760742188
 11
-147.56468200683591
 21
73.204879760742188
  0
LINE
  8
_0-0_0
  6
CENTER
 62
    7
 10
-168.01487731933591
 20
88.583599090576172
 11
-168.01487731933591
 21
68.906784057617188
  0
LINE
  8
_0-0_0
  6
CONTINUOUS
 62
    7
 10
-181.7148742675781
 20
82.704879760742188
 11
-154.31488037109381
 21
82.704879760742188
  0
LINE
  8
_0-0_0
  6
CONTINUOUS
 62
    7
 10
-181.7148742675781
 20
75.704879760742187
 11
-154.31488037109381
 21
75.704879760742187
  0
LINE
  8
_0-0_0
  6
CONTINUOUS
 62
    7
 10
-182.2148742675781
 20
82.204879760742188
 11
-182.2148742675781
 21
76.204879760742187
  0
LINE
  8
_0-0_0
  6
CONTINUOUS
 62
    7
 10
-153.81488037109381
 20
82.204879760742188
 11
-153.81488037109381
 21
76.204879760742187
  0
LINE
  8
_0-0_0
  6
CONTINUOUS
 62
    7
 10
-181.7148742675781
 20
136.30487823486328
 11
-154.31488037109381
 21
136.30487823486328
  0
LINE
  8
_0-0_0
  6
CONTINUOUS
 62
    7
 10
-182.2148742675781
 20
137.20487213134771
 11
-182.2148742675781
 21
136.80487823486328
  0
LINE
  8
_0-0_0
  6
CONTINUOUS
 62
    7
 10
-153.81488037109381
 20
137.20487213134771
 11
-153.81488037109381
 21
136.80487823486328
  0
LINE
  8
_0-0_0
  6
CONTINUOUS
 62
    7
 10
-181.7148742675781
 20
82.504878997802734
 11
-154.31488037109381
 21
82.504878997802734
  0
LINE
  8
_0-0_0
  6
CONTINUOUS
 62
    7
 10
-154.01487731933591
 20
82.204879760742188
 11
-154.01487731933591
 21
76.204879760742187
  0
LINE
  8
_0-0_0
  6
CONTINUOUS
 62
    7
 10
-181.7148742675781
 20
75.904880523681641
 11
-154.31488037109381
 21
75.904880523681641
  0
LINE
  8
_0-0_0
  6
CONTINUOUS
 62
    7
 10
-182.01487731933591
 20
82.204879760742188
 11
-182.01487731933591
 21
76.204879760742187
  0
LINE
  8
_0-0_0
  6
CONTINUOUS
 62
    7
 10
-145.51487731933591
 20
85.204833984375
 11
-145.51487731933591
 21
84.904830932617188
  0
LINE
  8
_0-0_0
  6
CONTINUOUS
 62
    7
 10
-140.51487731933591
 20
73.504806518554688
 11
-139.61131286621091
 21
73.504806518554688
  0
LINE
  8
_0-0_0
  6
CONTINUOUS
 62
    7
 10
-140.51487731933591
 20
84.904830932617188
 11
-139.52317810058591
 21
84.904830932617188
  0
LINE
  8
_0-0_0
  6
CONTINUOUS
 62
    7
 10
-145.51487731933591
 20
73.504806518554688
 11
-145.51487731933591
 21
73.204803466796875
  0
LINE
  8
_0-0_0
  6
CONTINUOUS
 62
    7
 10
-146.63084411621091
 20
73.204803466796875
 11
-145.51487731933591
 21
73.204803466796875
  0
LINE
  8
_0-0_0
  6
CONTINUOUS
 62
    7
 10
-146.30882263183591
 20
85.204833984375
 11
-145.51487731933591
 21
85.204833984375
  0
LINE
  8
_0-0_0
  6
CONTINUOUS
 62
    7
 10
-143.76487731933591
 20
84.904830932617188
 11
-143.76487731933591
 21
73.504806518554688
  0
LINE
  8
_0-0_0
  6
CONTINUOUS
 62
    7
 10
-142.26487731933591
 20
84.904830932617188
 11
-142.26487731933591
 21
73.504806518554688
  0
LINE
  8
_0-0_0
  6
CONTINUOUS
 62
    7
 10
-142.26487731933591
 20
83.904830932617188
 11
-143.76487731933591
 21
83.904830932617188
  0
LINE
  8
_0-0_0
  6
CONTINUOUS
 62
    7
 10
-142.26487731933591
 20
74.504806518554688
 11
-143.76487731933591
 21
74.504806518554688
  0
LINE
  8
_0-0_0
  6
CONTINUOUS
 62
    7
 10
-226.62020874023437
 20
137.20487213134771
 11
-226.62020874023437
 21
136.70487213134766
  0
LINE
  8
_0-0_0
  6
CONTINUOUS
 62
    7
 10
-233.12020874023437
 20
136.20487213134766
 11
-227.12020874023437
 21
136.20487213134766
  0
LINE
  8
_0-0_0
  6
CONTINUOUS
 62
    7
 10
-233.62020874023437
 20
137.20487213134771
 11
-233.62020874023437
 21
136.70487213134766
  0
LINE
  8
_0-0_0
  6
PHANTOM
 62
    7
 10
-198.7149963378906
 20
134.10487365722656
 11
-193.91499328613281
 21
141.0048751831055
  0
LINE
  8
_0-0_0
  6
PHANTOM
 62
    7
 10
-198.7149963378906
 20
134.10487365722656
 11
-197.91499328613281
 21
133.50487518310547
  0
LINE
  8
_0-0_0
  6
PHANTOM
 62
    7
 10
-197.91499328613281
 20
133.50487518310547
 11
-190.02484130859381
 21
138.7649841308594
  0
LINE
  8
_0-0_0
  6
PHANTOM
 62
    7
 10
-137.31475830078131
 20
134.10487365722656
 11
-138.11476135253909
 21
133.50487518310547
  0
LINE
  8
_0-0_0
  6
PHANTOM
 62
    7
 10
-138.11476135253909
 20
133.50487518310547
 11
-146.0049133300781
 21
138.7649841308594
  0
LINE
  8
_0-0_0
  6
PHANTOM
 62
    7
 10
-137.31475830078131
 20
134.10487365722656
 11
-142.11476135253909
 21
141.0048751831055
  0
LINE
  8
_0-0_0
  6
CONTINUOUS
 62
    7
 10
-179.01499938964841
 20
141.5048751831055
 11
-157.01499938964841
 21
141.5048751831055
  0
LINE
  8
_0-0_0
  6
CONTINUOUS
 62
    7
 10
-194.51499938964841
 20
160.70487213134771
 11
-137.01499938964841
 21
160.70487213134771
  0
LINE
  8
_0-0_0
  6
CONTINUOUS
 62
    7
 10
-195.51499938964841
 20
159.70487213134771
 11
-195.51499938964841
 21
150.20487213134771
  0
LINE
  8
_0-0_0
  6
CONTINUOUS
 62
    7
 10
-178.01499938964841
 20
146.0048751831055
 11
-178.01499938964841
 21
142.5048751831055
  0
LINE
  8
_0-0_0
  6
CONTINUOUS
 62
    7
 10
-136.01499938964841
 20
159.70487213134771
 11
-136.01499938964841
 21
150.20487213134771
  0
LINE
  8
_0-0_0
  6
CONTINUOUS
 62
    7
 10
-158.01499938964841
 20
146.0048751831055
 11
-158.01499938964841
 21
142.5048751831055
  0
LINE
  8
_0-0_0
  6
CONTINUOUS
 62
    7
 10
-180.01499938964841
 20
148.20487213134771
 11
-180.01499938964841
 21
142.5048751831055
  0
LINE
  8
_0-0_0
  6
CONTINUOUS
 62
    7
 10
-194.51499938964841
 20
149.20487213134771
 11
-181.01499938964841
 21
149.20487213134771
  0
LINE
  8
_0-0_0
  6
CONTINUOUS
 62
    7
 10
-156.01499938964841
 20
148.20487213134771
 11
-156.01499938964841
 21
142.5048751831055
  0
LINE
  8
_0-0_0
  6
CONTINUOUS
 62
    7
 10
-178.01499938964841
 20
146.0048751831055
 11
-158.01499938964841
 21
146.0048751831055
  0
LINE
  8
_0-0_0
  6
CONTINUOUS
 62
    7
 10
-178.01499938964841
 20
142.5048751831055
 11
-158.01499938964841
 21
142.5048751831055
  0
LINE
  8
_0-0_0
  6
CONTINUOUS
 62
    7
 10
-165.01499938964841
 20
157.0048751831055
 11
-138.51499938964841
 21
157.0048751831055
  0
LINE
  8
_0-0_0
  6
CONTINUOUS
 62
    7
 10
-165.01499938964841
 20
153.0048751831055
 11
-138.51499938964841
 21
153.0048751831055
  0
LINE
  8
_0-0_0
  6
CONTINUOUS
 62
    7
 10
-138.51499938964841
 20
157.0048751831055
 11
-138.51499938964841
 21
153.0048751831055
  0
LINE
  8
_0-0_0
  6
CONTINUOUS
 62
    7
 10
-165.01499938964841
 20
157.0048751831055
 11
-165.01499938964841
 21
153.0048751831055
  0
LINE
  8
_0-0_0
  6
CONTINUOUS
 62
    7
 10
-135.51499938964841
 20
150.9048767089844
 11
-134.51499938964841
 21
150.9048767089844
  0
LINE
  8
_0-0_0
  6
CONTINUOUS
 62
    7
 10
-135.51499938964841
 20
159.5048751831055
 11
-134.51499938964841
 21
159.5048751831055
  0
LINE
  8
_0-0_0
  6
PHANTOM
 62
    7
 10
-198.7149963378906
 20
84.904880523681641
 11
-198.7149963378906
 21
73.504878997802734
  0
LINE
  8
_0-0_0
  6
PHANTOM
 62
    7
 10
-197.91499328613281
 20
84.904880523681641
 11
-197.91499328613281
 21
73.504878997802734
  0
LINE
  8
_0-0_0
  6
PHANTOM
 62
    7
 10
-138.11476135253909
 20
84.904880523681641
 11
-138.11476135253909
 21
73.504878997802734
  0
LINE
  8
_0-0_0
  6
PHANTOM
 62
    7
 10
-137.31475830078131
 20
84.904880523681641
 11
-137.31475830078131
 21
73.504878997802734
  0
LINE
  8
_0-0_0
  6
PHANTOM
 62
    7
 10
-198.7149963378906
 20
73.504878997802734
 11
-197.27093505859381
 21
73.504878997802734
  0
LINE
  8
_0-0_0
  6
PHANTOM
 62
    7
 10
-198.7149963378906
 20
84.904880523681641
 11
-197.26487731933591
 21
84.904880523681641
  0
LINE
  8
_0-0_0
  6
PHANTOM
 62
    7
 10
-138.11476135253909
 20
84.904880523681641
 11
-137.31475830078131
 21
84.904880523681641
  0
LINE
  8
_0-0_0
  6
PHANTOM
 62
    7
 10
-138.11476135253909
 20
73.504878997802734
 11
-137.31475830078131
 21
73.504878997802734
  0
LINE
  8
_0-0_0
  6
PHANTOM
 62
    7
 10
-235.82022094726562
 20
134.10487365722656
 11
-224.42022705078131
 21
134.10487365722656
  0
LINE
  8
_0-0_0
  6
PHANTOM
 62
    7
 10
-235.82022094726562
 20
133.50487518310547
 11
-224.42022705078131
 21
133.50487518310547
  0
LINE
  8
_0-0_0
  6
PHANTOM
 62
    7
 10
-224.42022705078131
 20
137.45487213134771
 11
-224.42022705078131
 21
133.50487518310547
  0
LINE
  8
_0-0_0
  6
PHANTOM
 62
    7
 10
-235.82022094726562
 20
137.45487213134771
 11
-235.82022094726562
 21
133.50487518310547
  0
LINE
  8
_0-0_0
  6
CONTINUOUS
 62
    7
 10
-100.0082702636719
 20
76.954875946044922
 11
-126.31504821777341
 21
76.954875946044922
  0
LINE
  8
_0-0_0
  6
CONTINUOUS
 62
    7
 10
-100.0082702636719
 20
81.454875946044922
 11
-126.31504821777341
 21
81.454875946044922
  0
LINE
  8
_0-0_0
  6
CONTINUOUS
 62
    7
 10
-133.51515197753909
 20
84.354911804199219
 11
-127.81507873535159
 21
83.054885864257813
  0
LINE
  8
_0-0_0
  6
CONTINUOUS
 62
    7
 10
-133.5148010253906
 20
74.055042266845703
 11
-127.8149719238281
 21
75.355014801025391
  0
LINE
  8
_0-0_0
  6
CONTINUOUS
 62
    7
 10
-134.51499938964841
 20
74.054882049560547
 11
-133.51499938964841
 21
74.054882049560547
  0
LINE
  8
_0-0_0
  6
CONTINUOUS
 62
    7
 10
-134.51499938964841
 20
84.354885101318359
 11
-133.51499938964841
 21
84.354885101318359
  0
LINE
  8
_0-0_0
  6
CONTINUOUS
 62
    7
 10
-126.31504821777341
 20
83.054882049560547
 11
-126.31504821777341
 21
75.354885101318359
  0
LINE
  8
_0-0_0
  6
CONTINUOUS
 62
    7
 10
-127.81504821777341
 20
83.054882049560547
 11
-127.81504821777341
 21
75.354885101318359
  0
LINE
  8
_0-0_0
  6
CONTINUOUS
 62
    7
 10
-133.51499938964841
 20
84.354885101318359
 11
-133.51499938964841
 21
74.054882049560547
  0
LINE
  8
_0-0_0
  6
CONTINUOUS
 62
    7
 10
-80.789321899414091
 20
157.45487213134771
 11
-126.31504821777341
 21
157.45487213134771
  0
LINE
  8
_0-0_0
  6
CONTINUOUS
 62
    7
 10
-80.789321899414091
 20
152.95487213134771
 11
-126.31504821777341
 21
152.95487213134771
  0
LINE
  8
_0-0_0
  6
CONTINUOUS
 62
    7
 10
-134.51499938964841
 20
146.53375244140631
 11
-134.51499938964841
 21
108.88707733154297
  0
LINE
  8
_0-0_0
  6
CONTINUOUS
 62
    7
 10
-35.263595581054687
 20
150.63808441162109
 11
-35.263595581054687
 21
108.88707733154297
  0
ARC
  8
_0-0_0
  6
CONTINUOUS
 62
    7
 10
10.536453247070312
 20
150.65482330322271
 40
1.100000381469727
 50
204.1472488050542
 51
335.85541462095551
  0
ARC
  8
_0-0_0
  6
CONTINUOUS
 62
    7
 10
10.536453247070312
 20
159.75492095947271
 40
1.100000381469727
 50
24.147530141137089
 51
155.85202595608362
  0
ARC
  8
_0-0_0
  6
CONTINUOUS
 62
    7
 10
10.536453247070312
 20
150.65482330322271
 40
1.100000381469727
 50
227.25082972093631
 51
282.40397984295288
  0
ARC
  8
_0-0_0
  6
CONTINUOUS
 62
    7
 10
10.536453247070312
 20
159.75492095947271
 40
1.100000381469727
 50
24.147530141137089
 51
155.85202595608362
  0
CIRCLE
  8
_0-0_0
  6
CONTINUOUS
 62
    7
 10
34.919265747070312
 20
155.20487213134771
 40
5.9000005722045898
  0
ARC
  8
_0-0_0
  6
CONTINUOUS
 62
    7
 10
34.919265747070312
 20
155.20487213134771
 40
5
 50
178.18104998965649
 51
179.99991257357863
  0
CIRCLE
  8
_0-0_0
  6
CONTINUOUS
 62
    7
 10
33.269363403320312
 20
152.44608306884771
 40
0.300000011920929
  0
CIRCLE
  8
_0-0_0
  6
CONTINUOUS
 62
    7
 10
33.269363403320312
 20
155.54447174072271
 40
0.300000011920929
  0
CIRCLE
  8
_0-0_0
  6
CONTINUOUS
 62
    7
 10
33.269363403320312
 20
158.30057525634771
 40
0.300000011920929
  0
ARC
  8
_0-0_0
  6
CONTINUOUS
 62
    7
 10
35.479324340820312
 20
157.86014556884771
 40
0.300000011920929
 50
6.7767449451767598
 51
1.5928193401263684
  0
CIRCLE
  8
_0-0_0
  6
CONTINUOUS
 62
    7
 10
35.479324340820312
 20
154.64749908447271
 40
0.300000011920929
  0
CIRCLE
  8
_0-0_0
  6
CONTINUOUS
 62
    7
 10
35.479324340820312
 20
152.25028228759771
 40
0.300000011920929
  0
ARC
  8
_0-0_0
  6
CONTINUOUS
 62
    7
 10
34.919265747070312
 20
155.20487213134771
 40
4.5
 50
180.40760489426432
 51
353.62063055903548
  0
ARC
  8
_0-0_0
  6
CONTINUOUS
 62
    7
 10
34.919265747070312
 20
155.20487213134771
 40
4.5
 50
6.3794659799090905
 51
179.9999028595318
  0
ARC
  8
_0-0_0
  6
CONTINUOUS
 62
    7
 10
29.919265747070309
 20
155.20487213134771
 40
1.5
 50
297.81825451901466
 51
62.181881477918374
  0
CIRCLE
  8
_0-0_0
  6
CONTINUOUS
 62
    7
 10
37.379227638244629
 20
154.16654205322271
 40
0.300000011920929
  0
CIRCLE
  8
_0-0_0
  6
CONTINUOUS
 62
    7
 10
37.379227638244629
 20
156.35868072509771
 40
0.300000011920929
  0
ARC
  8
_0-0_0
  6
CONTINUOUS
 62
    7
 10
34.919265747070312
 20
155.20487213134771
 40
6.5
 50
269.99996637445417
 51
89.999966374453365
  0
CIRCLE
  8
_0-0_0
  6
CONTINUOUS
 62
    7
 10
34.919265747070312
 20
155.20487213134771
 40
5
  0
ARC
  8
_0-0_0
  6
CONTINUOUS
 62
    7
 10
-193.01499938964841
 20
144.70487213134771
 40
2
 50
179.99978143394662
 51
243.61226012658364
  0
ARC
  8
_0-0_0
  6
CONTINUOUS
 62
    7
 10
-193.01499938964841
 20
144.70487213134771
 40
2
 50
296.38773987341779
 51
179.99978143394662
  0
ARC
  8
_0-0_0
  6
CONTINUOUS
 62
    7
 10
-193.01499938964841
 20
144.70487213134771
 40
2.5
 50
291.32364915440718
 51
179.99982514715728
  0
ARC
  8
_0-0_0
  6
CONTINUOUS
 62
    7
 10
-193.01499938964841
 20
144.70487213134771
 40
2.5
 50
179.99982514715731
 51
248.67635084559419
  0
ARC
  8
_0-0_0
  6
CONTINUOUS
 62
    7
 10
-194.26499938964841
 20
141.5048751831055
 40
0.5
 50
270.00000000000051
 51
0
  0
ARC
  8
_0-0_0
  6
CONTINUOUS
 62
    7
 10
-191.76499938964841
 20
141.21198272705078
 40
0.5
 50
179.99912573578629
 51
225.00061820415809
  0
ARC
  8
_0-0_0
  6
CONTINUOUS
 62
    7
 10
-188.25767517089841
 20
137.70487213134771
 40
0.5
 50
224.9987636050264
 51
270.00000000000051
  0
ARC
  8
_0-0_0
  6
CONTINUOUS
 62
    7
 10
-141.76499938964841
 20
141.5048751831055
 40
0.5
 50
179.99912573578629
 51
270.00000000000051
  0
ARC
  8
_0-0_0
  6
CONTINUOUS
 62
    7
 10
-144.26499938964841
 20
141.21198272705078
 40
0.5
 50
314.99938179584331
 51
0
  0
ARC
  8
_0-0_0
  6
CONTINUOUS
 62
    7
 10
-147.77207946777341
 20
137.70487213134771
 40
0.5
 50
270.00000000000051
 51
315.00123639497502
  0
ARC
  8
_0-0_0
  6
CONTINUOUS
 62
    7
 10
-143.01499938964841
 20
144.70487213134771
 40
2.5
 50
291.32364915440718
 51
0
  0
ARC
  8
_0-0_0
  6
CONTINUOUS
 62
    7
 10
-143.01499938964841
 20
144.70487213134771
 40
2
 50
296.38773987341779
 51
0.0000000000000127
  0
ARC
  8
_0-0_0
  6
CONTINUOUS
 62
    7
 10
-143.01499938964841
 20
144.70487213134771
 40
2
 50
0
 51
243.61226012658364
  0
ARC
  8
_0-0_0
  6
CONTINUOUS
 62
    7
 10
-143.01499938964841
 20
144.70487213134771
 40
2.5
 50
0
 51
248.67635084559416
  0
ARC
  8
_0-0_0
  6
CONTINUOUS
 62
    7
 10
-189.01499938964841
 20
147.20487213134771
 40
1.5
 50
90.000000000000185
 51
179.9997085785954
  0
ARC
  8
_0-0_0
  6
CONTINUOUS
 62
    7
 10
-182.01499938964841
 20
147.20487213134771
 40
1.5
 50
0
 51
90.000000000000185
  0
ARC
  8
_0-0_0
  6
CONTINUOUS
 62
    7
 10
-135.01499938964841
 20
162.20487213134771
 40
0.5
 50
0
 51
90.000000000000185
  0
ARC
  8
_0-0_0
  6
CONTINUOUS
 62
    7
 10
-135.01499938964841
 20
148.20487213134771
 40
0.5
 50
270.00000000000051
 51
0
  0
ARC
  8
_0-0_0
  6
CONTINUOUS
 62
    7
 10
-154.01499938964841
 20
147.20487213134771
 40
1.5
 50
90.000000000000185
 51
179.9997085785954
  0
ARC
  8
_0-0_0
  6
CONTINUOUS
 62
    7
 10
-147.01499938964841
 20
147.20487213134771
 40
1.5
 50
0
 51
90.000000000000185
  0
ARC
  8
_0-0_0
  6
CONTINUOUS
 62
    7
 10
-185.51499938964841
 20
144.45487213134771
 40
2.5
 50
0
 51
179.99982514715731
  0
ARC
  8
_0-0_0
  6
CONTINUOUS
 62
    7
 10
-185.51499938964841
 20
141.95487213134771
 40
2.5
 50
179.99982514715731
 51
0
  0
ARC
  8
_0-0_0
  6
CONTINUOUS
 62
    7
 10
-150.51499938964841
 20
144.45487213134771
 40
2.5
 50
0
 51
179.99982514715731
  0
ARC
  8
_0-0_0
  6
CONTINUOUS
 62
    7
 10
-150.51499938964841
 20
141.95487213134771
 40
2.5
 50
179.99982514715731
 51
0
  0
ARC
  8
_0-0_0
  6
CONTINUOUS
 62
    7
 10
-142.01499938964841
 20
142.14313507080078
 40
0.25
 50
111.3241099313516
 51
180.0000000000004
  0
ARC
  8
_0-0_0
  6
CONTINUOUS
 62
    7
 10
-142.01499938964841
 20
142.68930816650391
 40
0.25
 50
116.3883287577746
 51
180.0000000000004
  0
ARC
  8
_0-0_0
  6
CONTINUOUS
 62
    7
 10
-144.01499938964841
 20
142.14313507080078
 40
0.25
 50
0
 51
68.675890068648386
  0
ARC
  8
_0-0_0
  6
CONTINUOUS
 62
    7
 10
-144.01499938964841
 20
142.68930816650391
 40
0.25
 50
0
 51
63.611671242225398
  0
ARC
  8
_0-0_0
  6
CONTINUOUS
 62
    7
 10
-197.01499938964841
 20
141.5048751831055
 40
0.5
 50
179.99912573578629
 51
270.00000000000051
  0
ARC
  8
_0-0_0
  6
CONTINUOUS
 62
    7
 10
-194.01499938964841
 20
142.14313507080078
 40
0.25
 50
0
 51
68.675890068648386
  0
ARC
  8
_0-0_0
  6
CONTINUOUS
 62
    7
 10
-194.01499938964841
 20
142.68930816650391
 40
0.25
 50
0
 51
63.611671242225398
  0
ARC
  8
_0-0_0
  6
CONTINUOUS
 62
    7
 10
-192.01499938964841
 20
142.14313507080078
 40
0.25
 50
111.3241099313516
 51
180.0000000000004
  0
ARC
  8
_0-0_0
  6
CONTINUOUS
 62
    7
 10
-192.01499938964841
 20
142.68930816650391
 40
0.25
 50
116.3883287577746
 51
180.0000000000004
  0
ARC
  8
_0-0_0
  6
CONTINUOUS
 62
    7
 10
-197.01499938964841
 20
162.20487213134771
 40
0.5
 50
90.000000000000185
 51
180.0000000000004
  0
ARC
  8
_0-0_0
  6
CONTINUOUS
 62
    7
 10
-138.0150146484375
 20
147.20487213134771
 40
0.5
 50
90.000000000000185
 51
180.0000000000004
  0
ARC
  8
_0-0_0
  6
CONTINUOUS
 62
    7
 10
-139.0150146484375
 20
141.5048751831055
 40
0.5
 50
270.00000000000051
 51
0
  0
ARC
  8
_0-0_0
  6
CONTINUOUS
 62
    7
 10
-195.31504821777341
 20
160.5048751831055
 40
0.6999998092651367
 50
90.000000000000185
 51
180.0000000000004
  0
ARC
  8
_0-0_0
  6
CONTINUOUS
 62
    7
 10
-195.31504821777341
 20
149.40486907958979
 40
0.6999998092651367
 50
180.0000000000004
 51
270.00000000000051
  0
ARC
  8
_0-0_0
  6
CONTINUOUS
 62
    7
 10
-179.81504821777341
 20
141.70487213134771
 40
0.6999998092651367
 50
180.0000000000004
 51
270.00000000000051
  0
ARC
  8
_0-0_0
  6
CONTINUOUS
 62
    7
 10
-156.21495056152341
 20
141.70487213134771
 40
0.6999998092651367
 50
270.00000000000051
 51
0
  0
ARC
  8
_0-0_0
  6
CONTINUOUS
 62
    7
 10
-136.21495056152341
 20
149.40486907958979
 40
0.6999998092651367
 50
270.00000000000051
 51
0
  0
ARC
  8
_0-0_0
  6
CONTINUOUS
 62
    7
 10
-136.21495056152341
 20
160.5048751831055
 40
0.6999998092651367
 50
0
 51
90.000000000000185
  0
ARC
  8
_0-0_0
  6
CONTINUOUS
 62
    7
 10
-235.57015991210937
 20
137.45487213134771
 40
0.25
 50
180.0000000000004
 51
270.00000000000051
  0
ARC
  8
_0-0_0
  6
CONTINUOUS
 62
    7
 10
-224.67025756835937
 20
137.45487213134771
 40
0.25
 50
270.00000000000051
 51
0
  0
ARC
  8
_0-0_0
  6
CONTINUOUS
 62
    7
 10
-235.57015991210937
 20
162.45487213134771
 40
0.25
 50
90.000000000000185
 51
180.0000000000004
  0
ARC
  8
_0-0_0
  6
CONTINUOUS
 62
    7
 10
-224.67025756835937
 20
162.45487213134771
 40
0.25
 50
0
 51
90.000000000000185
  0
ARC
  8
_0-0_0
  6
CONTINUOUS
 62
    7
 10
-127.06504821777341
 20
159.05487823486328
 40
0.75
 50
0
 51
180.0000000000004
  0
ARC
  8
_0-0_0
  6
CONTINUOUS
 62
    7
 10
-127.06504821777341
 20
151.35488128662109
 40
0.75
 50
180.0000000000004
 51
0
  0
ARC
  8
_0-0_0
  6
CONTINUOUS
 62
    7
 10
-197.26487731933591
 20
84.654830932617188
 40
0.25
 50
90.000000000000185
 51
180.0000000000004
  0
ARC
  8
_0-0_0
  6
CONTINUOUS
 62
    7
 10
-197.26487731933591
 20
73.754806518554687
 40
0.25
 50
180.0000000000004
 51
270.00000000000051
  0
ARC
  8
_0-0_0
  6
CONTINUOUS
 62
    7
 10
-134.76487731933591
 20
73.754806518554687
 40
0.25
 50
270.00000000000051
 51
0
  0
ARC
  8
_0-0_0
  6
CONTINUOUS
 62
    7
 10
-134.76487731933591
 20
84.654830932617188
 40
0.25
 50
0
 51
90.000000000000185
  0
ARC
  8
_0-0_0
  6
CONTINUOUS
 62
    7
 10
-181.7148742675781
 20
82.204879760742188
 40
0.5
 50
90.000000000000185
 51
180.0000000000004
  0
ARC
  8
_0-0_0
  6
CONTINUOUS
 62
    7
 10
-154.31488037109381
 20
82.204879760742188
 40
0.5
 50
0
 51
90.000000000000185
  0
ARC
  8
_0-0_0
  6
CONTINUOUS
 62
    7
 10
-154.31488037109381
 20
76.204879760742187
 40
0.5
 50
270.00000000000051
 51
0
  0
ARC
  8
_0-0_0
  6
CONTINUOUS
 62
    7
 10
-181.7148742675781
 20
76.204879760742187
 40
0.5
 50
180.0000000000004
 51
270.00000000000051
  0
ARC
  8
_0-0_0
  6
CONTINUOUS
 62
    7
 10
-181.7148742675781
 20
136.80487823486328
 40
0.5
 50
180.0000000000004
 51
270.00000000000051
  0
ARC
  8
_0-0_0
  6
CONTINUOUS
 62
    7
 10
-154.31488037109381
 20
136.80487823486328
 40
0.5
 50
270.00000000000051
 51
0
  0
ARC
  8
_0-0_0
  6
CONTINUOUS
 62
    7
 10
-154.31488037109381
 20
82.204879760742188
 40
0.300000011920929
 50
0
 51
90.000000000000185
  0
ARC
  8
_0-0_0
  6
CONTINUOUS
 62
    7
 10
-154.31488037109381
 20
76.204879760742187
 40
0.300000011920929
 50
270.00000000000051
 51
0
  0
ARC
  8
_0-0_0
  6
CONTINUOUS
 62
    7
 10
-181.7148742675781
 20
76.204879760742187
 40
0.300000011920929
 50
180.0000000000004
 51
270.00000000000051
  0
ARC
  8
_0-0_0
  6
CONTINUOUS
 62
    7
 10
-181.7148742675781
 20
82.204879760742188
 40
0.300000011920929
 50
90.000000000000185
 51
180.0000000000004
  0
ARC
  8
_0-0_0
  6
CONTINUOUS
 62
    7
 10
-233.12020874023437
 20
136.70487213134766
 40
0.5
 50
180.0000000000004
 51
270.00000000000051
  0
ARC
  8
_0-0_0
  6
CONTINUOUS
 62
    7
 10
-227.12020874023437
 20
136.70487213134766
 40
0.5
 50
270.00000000000051
 51
0
  0
ARC
  8
_0-0_0
  6
CONTINUOUS
 62
    7
 10
-137.01499938964841
 20
159.70487213134771
 40
1
 50
0
 51
90.000000000000185
  0
ARC
  8
_0-0_0
  6
CONTINUOUS
 62
    7
 10
-194.51499938964841
 20
159.70487213134771
 40
1
 50
90.000000000000185
 51
180.0000000000004
  0
ARC
  8
_0-0_0
  6
CONTINUOUS
 62
    7
 10
-194.51499938964841
 20
150.20487213134771
 40
1
 50
180.0000000000004
 51
270.00000000000051
  0
ARC
  8
_0-0_0
  6
CONTINUOUS
 62
    7
 10
-181.01499938964841
 20
148.20487213134771
 40
1
 50
0
 51
90.000000000000185
  0
ARC
  8
_0-0_0
  6
CONTINUOUS
 62
    7
 10
-179.01499938964841
 20
142.5048751831055
 40
1
 50
180.0000000000004
 51
270.00000000000051
  0
ARC
  8
_0-0_0
  6
CONTINUOUS
 62
    7
 10
-155.01499938964841
 20
148.20487213134771
 40
1
 50
90.000000000000185
 51
180.0000000000004
  0
ARC
  8
_0-0_0
  6
CONTINUOUS
 62
    7
 10
-157.01499938964841
 20
142.5048751831055
 40
1
 50
270.00000000000051
 51
0
  0
ARC
  8
_0-0_0
  6
CONTINUOUS
 62
    7
 10
-137.01499938964841
 20
150.20487213134771
 40
1
 50
270.00000000000051
 51
0
  0
ARC
  8
_0-0_0
  6
CONTINUOUS
 62
    7
 10
-127.06504821777341
 20
75.354885101318359
 40
0.75
 50
180.0000000000004
 51
0
  0
ARC
  8
_0-0_0
  6
CONTINUOUS
 62
    7
 10
-127.06504821777341
 20
83.054882049560547
 40
0.75
 50
0
 51
180.0000000000004
  0
ARC
  8
_0-0_0
  6
CONTINUOUS
 62
    7
 10
-101.59121701430101
 20
80.014555588137057
 40
2.1401494793691329
 50
19.601881278881699
 51
42.299013123676367
  0
ARC
  8
_0-0_0
  6
CONTINUOUS
 62
    7
 10
-100.65038172199135
 20
80.347233957160142
 40
1.142233359353146
 50
337.20478243948162
 51
19.714006895511513
  0
ARC
  8
_0-0_0
  6
CONTINUOUS
 62
    7
 10
-102.65794290460335
 20
81.226437553289713
 40
3.3337930520764143
 50
322.06787010372466
 51
336.64231418949385
  0
ARC
  8
_0-0_0
  6
CONTINUOUS
 62
    7
 10
-98.069513015114978
 20
77.546129529172077
 40
2.548994465124077
 50
140.22055474278605
 51
159.24573491077945
  0
ARC
  8
_0-0_0
  6
CONTINUOUS
 62
    7
 10
-98.998726948432335
 20
78.047853267876008
 40
1.5087861888990119
 50
164.56564246617242
 51
196.72682172684227
  0
ARC
  8
_0-0_0
  6
CONTINUOUS
 62
    7
 10
-99.610580043766873
 20
77.703758469693284
 40
0.8379562619718541
 50
186.17582618845265
 51
243.1739795320488
  0
ARC
  8
_0-0_0
  6
CONTINUOUS
 62
    7
 10
-100.5387829507504
 20
77.768192591513923
 40
0.9809373116426345
 50
304.10676509217797
 51
353.10137370517896
  0
ARC
  8
_0-0_0
  6
CONTINUOUS
 62
    7
 10
-101.09218543596336
 20
78.069714596127909
 40
1.5837634071987452
 50
344.6462509413152
 51
15.338632399062899
  0
ARC
  8
_0-0_0
  6
CONTINUOUS
 62
    7
 10
-101.38955662572059
 20
77.854295291787082
 40
1.9318429400143904
 50
19.169947820099136
 51
44.356044829771889
  0
ARC
  8
_0-0_0
  6
CONTINUOUS
 62
    7
 10
-82.372266953964157
 20
156.01455558815189
 40
2.1401494793409483
 50
19.601881278728943
 51
42.299013123827152
  0
ARC
  8
_0-0_0
  6
CONTINUOUS
 62
    7
 10
-81.431431661708274
 20
156.34723395716094
 40
1.1422333593803022
 50
337.2047824400118
 51
19.714006894981253
  0
ARC
  8
_0-0_0
  6
CONTINUOUS
 62
    7
 10
-83.438992844280477
 20
157.22643755328335
 40
3.3337930520640886
 50
322.06787010369857
 51
336.64231418952244
  0
ARC
  8
_0-0_0
  6
CONTINUOUS
 62
    7
 10
-78.850562954811551
 20
153.54612952917716
 40
2.5489944651140766
 50
140.22055474274791
 51
159.2457349108162
  0
ARC
  8
_0-0_0
  6
CONTINUOUS
 62
    7
 10
-79.779776888140276
 20
154.04785326787581
 40
1.5087861888796505
 50
164.56564246596088
 51
196.72682172705382
  0
ARC
  8
_0-0_0
  6
CONTINUOUS
 62
    7
 10
-80.391629983447558
 20
153.70375846969822
 40
0.8379562619794443
 50
186.17582618873286
 51
243.17397953176464
  0
ARC
  8
_0-0_0
  6
CONTINUOUS
 62
    7
 10
-81.319832890438647
 20
153.76819259151421
 40
0.9809373116430868
 50
304.10676509218996
 51
353.10137370516691
  0
ARC
  8
_0-0_0
  6
CONTINUOUS
 62
    7
 10
-81.873235375693355
 20
154.06971459612797
 40
1.5837634072393958
 50
344.64625094171879
 51
15.338632398659305
  0
ARC
  8
_0-0_0
  6
CONTINUOUS
 62
    7
 10
-82.170606565413976
 20
153.85429529178379
 40
1.9318429400207366
 50
19.169947820139079
 51
44.356044829727644
  0
ARC
  8
_0-0_0
  6
CONTINUOUS
 62
    7
 10
-77.206375131000215
 20
154.39519581926771
 40
2.1401494793572522
 50
199.6018812788212
 51
222.29901312374187
  0
ARC
  8
_0-0_0
  6
CONTINUOUS
 62
    7
 10
-78.147210423270877
 20
154.06251745025017
 40
1.1422333593798364
 50
157.20478244000782
 51
199.7140068950014
  0
ARC
  8
_0-0_0
  6
CONTINUOUS
 62
    7
 10
-76.139649240639613
 20
153.18331385409226
 40
3.3337930521319459
 50
142.06787010383786
 51
156.64231418936302
  0
ARC
  8
_0-0_0
  6
CONTINUOUS
 62
    7
 10
-80.728079130179509
 20
156.86362187824091
 40
2.5489944651282483
 50
320.22055474280307
 51
339.24573491076433
  0
ARC
  8
_0-0_0
  6
CONTINUOUS
 62
    7
 10
-79.798865196861414
 20
156.36189813953473
 40
1.5087861889017822
 50
344.56564246620695
 51
16.726821726819281
  0
ARC
  8
_0-0_0
  6
CONTINUOUS
 62
    7
 10
-79.187012101521248
 20
156.70599293771949
 40
0.837956261968898
 50
6.1758261883496015
 51
63.173979532157176
  0
ARC
  8
_0-0_0
  6
CONTINUOUS
 62
    7
 10
-78.258809194531864
 20
156.64155881589181
 40
0.9809373116517052
 50
124.10676509242577
 51
173.10137370494027
  0
ARC
  8
_0-0_0
  6
CONTINUOUS
 62
    7
 10
-77.705406709316065
 20
156.3400368112828
 40
1.5837634072097402
 50
164.64625094141829
 51
195.33863239894816
  0
ARC
  8
_0-0_0
  6
CONTINUOUS
 62
    7
 10
-77.408035519589305
 20
156.55545611561232
 40
1.9318429399926609
 50
199.16994781996357
 51
224.35604482992343
  0
TEXT
  8
_0-0_0
 62
    7
 10
-108.82786190509799
 20
111.89963376522064
 40
3.2000000476837158
 41
0.9499963385751142
 50
0
  1
ケーブル長　３０００
  0
TEXT
  8
_0-0_0
 62
    7
 10
-72.827862858772306
 20
114.59963381290436
 40
1.6000000238418579
 41
0.9575534363955299
 50
0
  1
＋１００
  0
TEXT
  8
_0-0_0
 62
    7
 10
-72.827862858772306
 20
111.89963376522064
 40
1.6000000238418579
 41
0.9575534363955299
 50
0
  1
　　　０
  0
TEXT
  8
_0-0_0
 62
    7
 10
-234.89443969726562
 20
209.0345153808594
 40
10
 41
1.145819805194805
 50
0
  1
PL25/PL60
  0
INSERT
  2
-000-KOZU0002
  8
_0-0_0
 10
-148.98930358886719
 20
146.43534851074219
 41
1
 42
1
 50
0
  0
INSERT
  2
-001-KOZU0003
  8
_0-0_0
 10
-134.51499938964841
 20
110.20487213134766
 41
1
 42
1
 50
0
  0
INSERT
  2
-002-KOZU0004
  8
_0-0_0
 10
-35.263595581054687
 20
110.20487213134766
 41
1
 42
1
 50
0
  0
ENDSEC
  0
EOF
