  0
SECTION
  2
HEADER
  9
$ACADVER
  1
AC1015
  9
$ACADMAINTVER
 70
     6
  9
$DWGCODEPAGE
  3
ANSI_1252
  9
$INSBASE
 10
0.0
 20
0.0
 30
0.0
  9
$EXTMIN
 10
0.0
 20
0.0
 30
0.0
  9
$EXTMAX
 10
1607.383301
 20
323.290009
 30
2.0
  9
$LIMMIN
 10
0.0
 20
0.0
  9
$LIMMAX
 10
420.0
 20
297.0
  9
$ORTHOMODE
 70
     0
  9
$REGENMODE
 70
     1
  9
$FILLMODE
 70
     1
  9
$QTEXTMODE
 70
     0
  9
$MIRRTEXT
 70
     1
  9
$LTSCALE
 40
1.0
  9
$ATTMODE
 70
     1
  9
$TEXTSIZE
 40
2.5
  9
$TRACEWID
 40
1.0
  9
$TEXTSTYLE
  7
Standard
  9
$CLAYER
  8
0
  9
$CELTYPE
  6
ByLayer
  9
$CECOLOR
 62
   256
  9
$CELTSCALE
 40
1.0
  9
$DISPSILH
 70
     0
  9
$DIMSCALE
 40
1.0
  9
$DIMASZ
 40
2.5
  9
$DIMEXO
 40
0.625
  9
$DIMDLI
 40
3.75
  9
$DIMRND
 40
0.0
  9
$DIMDLE
 40
0.0
  9
$DIMEXE
 40
1.25
  9
$DIMTP
 40
0.0
  9
$DIMTM
 40
0.0
  9
$DIMTXT
 40
2.5
  9
$DIMCEN
 40
2.5
  9
$DIMTSZ
 40
0.0
  9
$DIMTOL
 70
     0
  9
$DIMLIM
 70
     0
  9
$DIMTIH
 70
     0
  9
$DIMTOH
 70
     0
  9
$DIMSE1
 70
     0
  9
$DIMSE2
 70
     0
  9
$DIMTAD
 70
     1
  9
$DIMZIN
 70
     8
  9
$DIMBLK
  1

  9
$DIMASO
 70
     1
  9
$DIMSHO
 70
     1
  9
$DIMPOST
  1

  9
$DIMAPOST
  1

  9
$DIMALT
 70
     0
  9
$DIMALTD
 70
     3
  9
$DIMALTF
 40
0.03937
  9
$DIMLFAC
 40
1.0
  9
$DIMTOFL
 70
     1
  9
$DIMTVP
 40
0.0
  9
$DIMTIX
 70
     0
  9
$DIMSOXD
 70
     0
  9
$DIMSAH
 70
     0
  9
$DIMBLK1
  1

  9
$DIMBLK2
  1

  9
$DIMSTYLE
  2
Standard
  9
$DIMCLRD
 70
     0
  9
$DIMCLRE
 70
     0
  9
$DIMCLRT
 70
     0
  9
$DIMTFAC
 40
1.0
  9
$DIMGAP
 40
0.625
  9
$DIMJUST
 70
     0
  9
$DIMSD1
 70
     0
  9
$DIMSD2
 70
     0
  9
$DIMTOLJ
 70
     0
  9
$DIMTZIN
 70
     8
  9
$DIMALTZ
 70
     0
  9
$DIMALTTZ
 70
     0
  9
$DIMUPT
 70
     0
  9
$DIMDEC
 70
     2
  9
$DIMTDEC
 70
     2
  9
$DIMALTU
 70
     2
  9
$DIMALTTD
 70
     3
  9
$DIMTXSTY
  7
Standard
  9
$DIMAUNIT
 70
     0
  9
$DIMADEC
 70
     0
  9
$DIMALTRND
 40
0.0
  9
$DIMAZIN
 70
     0
  9
$DIMDSEP
 70
    44
  9
$DIMATFIT
 70
     0
  9
$DIMFRAC
 70
     0
  9
$DIMLDRBLK
  1

  9
$DIMLUNIT
 70
     2
  9
$DIMLWD
 70
    -2
  9
$DIMLWE
 70
    -2
  9
$DIMTMOVE
 70
     0
  9
$LUNITS
 70
     2
  9
$LUPREC
 70
     4
  9
$SKETCHINC
 40
1.0
  9
$FILLETRAD
 40
2.5
  9
$AUNITS
 70
     0
  9
$AUPREC
 70
     0
  9
$MENU
  1
.
  9
$ELEVATION
 40
0.0
  9
$PELEVATION
 40
0.0
  9
$THICKNESS
 40
0.0
  9
$LIMCHECK
 70
     0
  9
$CHAMFERA
 40
2.5
  9
$CHAMFERB
 40
2.5
  9
$CHAMFERC
 40
0.0
  9
$CHAMFERD
 40
0.0
  9
$SKPOLY
 70
     0
  9
$TDCREATE
 40
2447893.375
  9
$TDUCREATE
 40
0.0
  9
$TDUPDATE
 40
2458794.71363169
  9
$TDUUPDATE
 40
2458794.33863169
  9
$TDINDWG
 40
0.0
  9
$TDUSRTIMER
 40
0.0
  9
$USRTIMER
 70
     1
  9
$ANGBASE
 50
0.0
  9
$ANGDIR
 70
     0
  9
$PDMODE
 70
     0
  9
$PDSIZE
 40
0.0
  9
$PLINEWID
 40
0.0
  9
$SPLFRAME
 70
     0
  9
$SPLINETYPE
 70
     6
  9
$SPLINESEGS
 70
     8
  9
$HANDSEED
  5
24D
  9
$SURFTAB1
 70
     6
  9
$SURFTAB2
 70
     6
  9
$SURFTYPE
 70
     6
  9
$SURFU
 70
     6
  9
$SURFV
 70
     6
  9
$UCSBASE
  2

  9
$UCSNAME
  2

  9
$UCSORG
 10
0.0
 20
0.0
 30
0.0
  9
$UCSXDIR
 10
1.0
 20
0.0
 30
0.0
  9
$UCSYDIR
 10
0.0
 20
1.0
 30
0.0
  9
$UCSORTHOREF
  2

  9
$UCSORTHOVIEW
 70
     1
  9
$UCSORGTOP
 10
0.0
 20
0.0
 30
0.0
  9
$UCSORGBOTTOM
 10
0.0
 20
0.0
 30
0.0
  9
$UCSORGLEFT
 10
0.0
 20
0.0
 30
0.0
  9
$UCSORGRIGHT
 10
0.0
 20
0.0
 30
0.0
  9
$UCSORGFRONT
 10
0.0
 20
0.0
 30
0.0
  9
$UCSORGBACK
 10
0.0
 20
0.0
 30
0.0
  9
$PUCSBASE
  2

  9
$PUCSNAME
  2

  9
$PUCSORG
 10
0.0
 20
0.0
 30
0.0
  9
$PUCSXDIR
 10
1.0
 20
0.0
 30
0.0
  9
$PUCSYDIR
 10
0.0
 20
1.0
 30
0.0
  9
$PUCSORTHOREF
  2

  9
$PUCSORTHOVIEW
 70
     0
  9
$PUCSORGTOP
 10
0.0
 20
0.0
 30
0.0
  9
$PUCSORGBOTTOM
 10
0.0
 20
0.0
 30
0.0
  9
$PUCSORGLEFT
 10
0.0
 20
0.0
 30
0.0
  9
$PUCSORGRIGHT
 10
0.0
 20
0.0
 30
0.0
  9
$PUCSORGFRONT
 10
0.0
 20
0.0
 30
0.0
  9
$PUCSORGBACK
 10
0.0
 20
0.0
 30
0.0
  9
$USERI1
 70
     0
  9
$USERI2
 70
     0
  9
$USERI3
 70
     0
  9
$USERI4
 70
     0
  9
$USERI5
 70
     0
  9
$USERR1
 40
0.0
  9
$USERR2
 40
0.0
  9
$USERR3
 40
0.0
  9
$USERR4
 40
0.0
  9
$USERR5
 40
0.0
  9
$WORLDVIEW
 70
     1
  9
$SHADEDGE
 70
     3
  9
$SHADEDIF
 70
    70
  9
$TILEMODE
 70
     1
  9
$MAXACTVP
 70
    64
  9
$PINSBASE
 10
0.0
 20
0.0
 30
0.0
  9
$PLIMCHECK
 70
     0
  9
$PEXTMIN
 10
0.0
 20
0.0
 30
0.0
  9
$PEXTMAX
 10
1607.383301
 20
323.290009
 30
2.0
  9
$PLIMMIN
 10
0.0
 20
0.0
  9
$PLIMMAX
 10
420.0
 20
297.0
  9
$UNITMODE
 70
     0
  9
$VISRETAIN
 70
     0
  9
$PLINEGEN
 70
     0
  9
$PSLTSCALE
 70
     1
  9
$TREEDEPTH
 70
  3020
  9
$CMLSTYLE
  2
Standard
  9
$CMLJUST
 70
     0
  9
$CMLSCALE
 40
20.0
  9
$PROXYGRAPHICS
 70
     1
  9
$MEASUREMENT
 70
     1
  9
$CELWEIGHT
370
    -1
  9
$ENDCAPS
280
     0
  9
$JOINSTYLE
280
     0
  9
$LWDISPLAY
290
     0
  9
$INSUNITS
 70
     0
  9
$HYPERLINKBASE
  1

  9
$STYLESHEET
  1

  9
$XEDIT
290
     1
  9
$CEPSNTYPE
380
     0
  9
$PSTYLEMODE
290
     0
  9
$FINGERPRINTGUID
  2
{09F13DFC-BC13-4DEF-9446-CAE2514FD7EB}
  9
$VERSIONGUID
  2
{FAEB1C32-E019-11D5-929B-00C0DF256EC4}
  9
$EXTNAMES
290
     1
  9
$PSVPSCALE
 40
0.0
  9
$OLESTARTUP
290
     0
  0
ENDSEC
  0
SECTION
  2
CLASSES
  0
CLASS
  1
ACDBDICTIONARYWDFLT
  2
AcDbDictionaryWithDefault
  3
ObjectDBX Classes
 90
        0
280
     0
281
     0
  0
CLASS
  1
VISUALSTYLE
  2
AcDbVisualStyle
  3
ObjectDBX Classes
 90
     4095
280
     0
281
     0
  0
CLASS
  1
MATERIAL
  2
AcDbMaterial
  3
ObjectDBX Classes
 90
     1153
280
     0
281
     0
  0
CLASS
  1
SCALE
  2
AcDbScale
  3
ObjectDBX Classes
 90
     1153
280
     0
281
     0
  0
CLASS
  1
SUN
  2
AcDbSun
  3
SCENEOE
 90
     1153
280
     0
281
     0
  0
CLASS
  1
ACDBPLACEHOLDER
  2
AcDbPlaceHolder
  3
ObjectDBX Classes
 90
        0
280
     0
281
     0
  0
CLASS
  1
LAYOUT
  2
AcDbLayout
  3
ObjectDBX Classes
 90
        0
280
     0
281
     0
  0
ENDSEC
  0
SECTION
  2
TABLES
  0
TABLE
  2
VPORT
  5
8
330
0
100
AcDbSymbolTable
 70
     1
  0
VPORT
  5
29
330
8
100
AcDbSymbolTableRecord
100
AcDbViewportTableRecord
  2
*Active
 70
     0
 10
0.0
 20
0.0
 11
1.0
 21
1.0
 12
10.429907
 22
4.5
 13
0.0
 23
0.0
 14
0.5
 24
0.5
 15
0.5
 25
0.5
 16
0.0
 26
0.0
 36
1.0
 17
0.0
 27
0.0
 37
0.0
 40
9.0
 41
1.972973
 42
50.0
 43
0.0
 44
0.0
 50
0.0
 51
0.0
 71
     0
 72
   100
 73
     1
 74
     3
 75
     0
 76
     0
 77
     0
 78
     0
281
     0
 65
     1
110
0.0
120
0.0
130
0.0
111
1.0
121
0.0
131
0.0
112
0.0
122
1.0
132
0.0
 79
     0
146
0.0
  0
ENDTAB
  0
TABLE
  2
LTYPE
  5
5
330
0
100
AcDbSymbolTable
 70
     2
  0
LTYPE
  5
14
330
5
100
AcDbSymbolTableRecord
100
AcDbLinetypeTableRecord
  2
ByBlock
 70
     0
  3

 72
    65
 73
     0
 40
0.0
  0
LTYPE
  5
15
330
5
100
AcDbSymbolTableRecord
100
AcDbLinetypeTableRecord
  2
ByLayer
 70
     0
  3

 72
    65
 73
     0
 40
0.0
  0
LTYPE
  5
16
330
5
100
AcDbSymbolTableRecord
100
AcDbLinetypeTableRecord
  2
Continuous
 70
     0
  3
Solid line
 72
    65
 73
     0
 40
0.0
  0
LTYPE
  5
6A
330
5
100
AcDbSymbolTableRecord
100
AcDbLinetypeTableRecord
  2
DASHDOT
 70
     0
  3
 __ . __ . __ . __ . __ . __ . __ . 
 72
    65
 73
     4
 40
18.5
 49
12.0
 74
     0
 49
-3.0
 74
     0
 49
0.5
 74
     0
 49
-3.0
 74
     0
  0
ENDTAB
  0
TABLE
  2
LAYER
  5
2
330
0
100
AcDbSymbolTable
 70
     1
  0
LAYER
  5
10
330
2
100
AcDbSymbolTableRecord
100
AcDbLayerTableRecord
  2
0
 70
     0
 62
     7
  6
Continuous
370
    -3
390
F
  0
ENDTAB
  0
TABLE
  2
STYLE
  5
3
330
0
100
AcDbSymbolTable
 70
     1
  0
STYLE
  5
11
330
3
100
AcDbSymbolTableRecord
100
AcDbTextStyleTableRecord
  2
Standard
 70
     0
 40
0.0
 41
1.0
 50
0.0
 71
     0
 42
2.5
  3
txt
  4

  0
ENDTAB
  0
TABLE
  2
VIEW
  5
6
330
0
100
AcDbSymbolTable
 70
     0
  0
ENDTAB
  0
TABLE
  2
UCS
  5
7
330
0
100
AcDbSymbolTable
 70
     0
  0
ENDTAB
  0
TABLE
  2
APPID
  5
9
330
0
100
AcDbSymbolTable
 70
     1
  0
APPID
  5
12
330
9
100
AcDbSymbolTableRecord
100
AcDbRegAppTableRecord
  2
ACAD
 70
     0
  0
ENDTAB
  0
TABLE
  2
DIMSTYLE
  5
A
330
0
100
AcDbSymbolTable
 70
     1
100
AcDbDimStyleTable
  0
DIMSTYLE
105
27
330
A
100
AcDbSymbolTableRecord
100
AcDbDimStyleTableRecord
  2
Standard
 70
     0
178
     0
340
11
  0
ENDTAB
  0
TABLE
  2
BLOCK_RECORD
  5
1
330
0
100
AcDbSymbolTable
 70
     1
  0
BLOCK_RECORD
  5
1F
330
1
100
AcDbSymbolTableRecord
100
AcDbBlockTableRecord
  2
*Model_Space
340
22
  0
BLOCK_RECORD
  5
1B
330
1
100
AcDbSymbolTableRecord
100
AcDbBlockTableRecord
  2
*Paper_Space
340
1E
  0
BLOCK_RECORD
  5
23
330
1
100
AcDbSymbolTableRecord
100
AcDbBlockTableRecord
  2
*Paper_Space0
340
26
  0
ENDTAB
  0
ENDSEC
  0
SECTION
  2
BLOCKS
  0
BLOCK
  5
20
330
1F
100
AcDbEntity
  8
0
100
AcDbBlockBegin
  2
*Model_Space
 70
     0
 10
0.0
 20
0.0
 30
0.0
  3
*Model_Space
  1
*Model_Space
  0
ENDBLK
  5
21
330
1F
100
AcDbEntity
  8
0
100
AcDbBlockEnd
  0
BLOCK
  5
1C
330
1B
100
AcDbEntity
 67
     1
  8
0
100
AcDbBlockBegin
  2
*Paper_Space
 70
     0
 10
0.0
 20
0.0
 30
0.0
  3
*Paper_Space
  1
*Paper_Space
  0
ENDBLK
  5
1D
330
1B
100
AcDbEntity
 67
     1
  8
0
100
AcDbBlockEnd
  0
BLOCK
  5
24
330
23
100
AcDbEntity
  8
0
100
AcDbBlockBegin
  2
*Paper_Space0
 70
     0
 10
0.0
 20
0.0
 30
0.0
  3
*Paper_Space0
  1
*Paper_Space0
  0
ENDBLK
  5
25
330
23
100
AcDbEntity
  8
0
100
AcDbBlockEnd
  0
ENDSEC
  0
SECTION
  2
ENTITIES
  0
LINE
  5
6B
330
1F
100
AcDbEntity
  8
0
  6
DASHDOT
 62
     7
 48
0.452002
370
    13
100
AcDbLine
 10
1508.040039
 20
303.25
 30
0.0
 11
1489.959961
 21
303.25
 31
0.0
  0
LINE
  5
6C
330
1F
100
AcDbEntity
  8
0
  6
DASHDOT
 62
     7
 48
0.452
370
    13
100
AcDbLine
 10
1499.0
 20
312.290009
 30
0.0
 11
1499.0
 21
294.209991
 31
0.0
  0
LINE
  5
6D
330
1F
100
AcDbEntity
  8
0
  6
DASHDOT
 62
     7
 48
0.451999
370
    13
100
AcDbLine
 10
-648.960022
 20
303.25
 30
0.0
 11
-667.039978
 21
303.25
 31
0.0
  0
LINE
  5
6E
330
1F
100
AcDbEntity
  8
0
  6
DASHDOT
 62
     7
 48
0.452
370
    13
100
AcDbLine
 10
-658.0
 20
312.290009
 30
0.0
 11
-658.0
 21
294.209991
 31
0.0
  0
LINE
  5
6F
330
1F
100
AcDbEntity
  8
0
  6
DASHDOT
 62
     7
 48
0.247
370
    13
100
AcDbLine
 10
-638.059998
 20
303.25
 30
0.0
 11
-647.940002
 21
303.25
 31
0.0
  0
LINE
  5
70
330
1F
100
AcDbEntity
  8
0
  6
DASHDOT
 62
     7
 48
0.247
370
    13
100
AcDbLine
 10
-643.0
 20
308.190002
 30
0.0
 11
-643.0
 21
298.309998
 31
0.0
  0
LINE
  5
71
330
1F
100
AcDbEntity
  8
0
  6
DASHDOT
 62
     7
 48
0.246997
370
    13
100
AcDbLine
 10
1488.939941
 20
303.25
 30
0.0
 11
1479.060059
 21
303.25
 31
0.0
  0
LINE
  5
72
330
1F
100
AcDbEntity
  8
0
  6
DASHDOT
 62
     7
 48
0.247
370
    13
100
AcDbLine
 10
1484.0
 20
308.190002
 30
0.0
 11
1484.0
 21
298.309998
 31
0.0
  0
LINE
  5
73
330
1F
100
AcDbEntity
  8
0
  6
DASHDOT
 62
     7
 48
0.227002
370
    13
100
AcDbLine
 10
1488.540039
 20
298.549988
 30
0.0
 11
1479.459961
 21
298.549988
 31
0.0
  0
LINE
  5
74
330
1F
100
AcDbEntity
  8
0
  6
DASHDOT
 62
     7
 48
0.227
370
    13
100
AcDbLine
 10
1484.0
 20
303.089996
 30
0.0
 11
1484.0
 21
294.01001
 31
0.0
  0
LINE
  5
75
330
1F
100
AcDbEntity
  8
0
  6
DASHDOT
 62
     7
 48
0.226999
370
    13
100
AcDbLine
 10
-638.460022
 20
307.950012
 30
0.0
 11
-647.539978
 21
307.950012
 31
0.0
  0
LINE
  5
76
330
1F
100
AcDbEntity
  8
0
  6
DASHDOT
 62
     7
 48
0.227
370
    13
100
AcDbLine
 10
-643.0
 20
312.48999
 30
0.0
 11
-643.0
 21
303.410004
 31
0.0
  0
LINE
  5
77
330
1F
100
AcDbEntity
  8
0
  6
DASHDOT
 62
     7
 48
0.227002
370
    13
100
AcDbLine
 10
1488.540039
 20
307.950012
 30
0.0
 11
1479.459961
 21
307.950012
 31
0.0
  0
LINE
  5
78
330
1F
100
AcDbEntity
  8
0
  6
DASHDOT
 62
     7
 48
0.227
370
    13
100
AcDbLine
 10
1484.0
 20
312.48999
 30
0.0
 11
1484.0
 21
303.410004
 31
0.0
  0
LINE
  5
79
330
1F
100
AcDbEntity
  8
0
  6
DASHDOT
 62
     7
 48
0.226999
370
    13
100
AcDbLine
 10
-638.460022
 20
298.549988
 30
0.0
 11
-647.539978
 21
298.549988
 31
0.0
  0
LINE
  5
7A
330
1F
100
AcDbEntity
  8
0
  6
DASHDOT
 62
     7
 48
0.227
370
    13
100
AcDbLine
 10
-643.0
 20
303.089996
 30
0.0
 11
-643.0
 21
294.01001
 31
0.0
  0
LINE
  5
7B
330
1F
100
AcDbEntity
  8
0
  6
DASHDOT
 62
     7
 48
0.252002
370
    13
100
AcDbLine
 10
426.540039
 20
318.25
 30
0.0
 11
416.459961
 21
318.25
 31
0.0
  0
LINE
  5
7C
330
1F
100
AcDbEntity
  8
0
  6
DASHDOT
 62
     7
 48
0.252
370
    13
100
AcDbLine
 10
421.5
 20
323.290009
 30
0.0
 11
421.5
 21
313.209991
 31
0.0
  0
LINE
  5
7D
330
1F
100
AcDbEntity
  8
0
  6
DASHDOT
 62
     7
 48
0.252002
370
    13
100
AcDbLine
 10
424.540039
 20
318.25
 30
0.0
 11
414.459961
 21
318.25
 31
0.0
  0
LINE
  5
7E
330
1F
100
AcDbEntity
  8
0
  6
DASHDOT
 62
     7
 48
0.252
370
    13
100
AcDbLine
 10
419.5
 20
323.290009
 30
0.0
 11
419.5
 21
313.209991
 31
0.0
  0
LINE
  5
7F
330
1F
100
AcDbEntity
  8
0
  6
DASHDOT
 62
     7
 48
0.351999
370
    13
100
AcDbLine
 10
-572.460022
 20
276.25
 30
0.0
 11
-586.539978
 21
276.25
 31
0.0
  0
LINE
  5
80
330
1F
100
AcDbEntity
  8
0
  6
DASHDOT
 62
     7
 48
0.352
370
    13
100
AcDbLine
 10
-579.5
 20
283.290009
 30
0.0
 11
-579.5
 21
269.209991
 31
0.0
  0
LINE
  5
81
330
1F
100
AcDbEntity
  8
0
  6
DASHDOT
 62
     7
 48
0.351999
370
    13
100
AcDbLine
 10
-522.460022
 20
276.25
 30
0.0
 11
-536.539978
 21
276.25
 31
0.0
  0
LINE
  5
82
330
1F
100
AcDbEntity
  8
0
  6
DASHDOT
 62
     7
 48
0.352
370
    13
100
AcDbLine
 10
-529.5
 20
283.290009
 30
0.0
 11
-529.5
 21
269.209991
 31
0.0
  0
LINE
  5
83
330
1F
100
AcDbEntity
  8
0
  6
DASHDOT
 62
     7
 48
0.327002
370
    13
100
AcDbLine
 10
1302.040039
 20
303.25
 30
0.0
 11
1288.959961
 21
303.25
 31
0.0
  0
LINE
  5
84
330
1F
100
AcDbEntity
  8
0
  6
DASHDOT
 62
     7
 48
0.327
370
    13
100
AcDbLine
 10
1295.5
 20
309.790009
 30
0.0
 11
1295.5
 21
296.709991
 31
0.0
  0
LINE
  5
85
330
1F
100
AcDbEntity
  8
0
  6
DASHDOT
 62
     7
 48
0.326999
370
    13
100
AcDbLine
 10
-447.960022
 20
303.25
 30
0.0
 11
-461.039978
 21
303.25
 31
0.0
  0
LINE
  5
86
330
1F
100
AcDbEntity
  8
0
  6
DASHDOT
 62
     7
 48
0.327
370
    13
100
AcDbLine
 10
-454.5
 20
309.790009
 30
0.0
 11
-454.5
 21
296.709991
 31
0.0
  0
LINE
  5
87
330
1F
100
AcDbEntity
  8
0
  6
DASHDOT
 62
     7
 48
0.327002
370
    13
100
AcDbLine
 10
427.040039
 20
303.25
 30
0.0
 11
413.959961
 21
303.25
 31
0.0
  0
LINE
  5
88
330
1F
100
AcDbEntity
  8
0
  6
DASHDOT
 62
     7
 48
0.327
370
    13
100
AcDbLine
 10
420.5
 20
309.790009
 30
0.0
 11
420.5
 21
296.709991
 31
0.0
  0
LINE
  5
89
330
1F
100
AcDbEntity
  8
0
  6
DASHDOT
 62
     7
 48
0.239499
370
    13
100
AcDbLine
 10
-653.710022
 20
303.25
 30
0.0
 11
-663.289978
 21
303.25
 31
0.0
  0
LINE
  5
8A
330
1F
100
AcDbEntity
  8
0
  6
DASHDOT
 62
     7
 48
0.2395
370
    13
100
AcDbLine
 10
-658.5
 20
308.040009
 30
0.0
 11
-658.5
 21
298.459991
 31
0.0
  0
LINE
  5
8B
330
1F
100
AcDbEntity
  8
0
  6
DASHDOT
 62
     7
 48
0.239499
370
    13
100
AcDbLine
 10
-652.710022
 20
303.25
 30
0.0
 11
-662.289978
 21
303.25
 31
0.0
  0
LINE
  5
8C
330
1F
100
AcDbEntity
  8
0
  6
DASHDOT
 62
     7
 48
0.2395
370
    13
100
AcDbLine
 10
-657.5
 20
308.040009
 30
0.0
 11
-657.5
 21
298.459991
 31
0.0
  0
LINE
  5
8D
330
1F
100
AcDbEntity
  8
0
  6
DASHDOT
 62
     7
 48
0.239502
370
    13
100
AcDbLine
 10
1503.790039
 20
303.75
 30
0.0
 11
1494.209961
 21
303.75
 31
0.0
  0
LINE
  5
8E
330
1F
100
AcDbEntity
  8
0
  6
DASHDOT
 62
     7
 48
0.2395
370
    13
100
AcDbLine
 10
1499.0
 20
308.540009
 30
0.0
 11
1499.0
 21
298.959991
 31
0.0
  0
LINE
  5
8F
330
1F
100
AcDbEntity
  8
0
  6
DASHDOT
 62
     7
 48
0.239502
370
    13
100
AcDbLine
 10
1503.790039
 20
302.75
 30
0.0
 11
1494.209961
 21
302.75
 31
0.0
  0
LINE
  5
90
330
1F
100
AcDbEntity
  8
0
  6
DASHDOT
 62
     7
 48
0.2395
370
    13
100
AcDbLine
 10
1499.0
 20
307.540009
 30
0.0
 11
1499.0
 21
297.959991
 31
0.0
  0
LINE
  5
91
330
1F
100
AcDbEntity
  8
0
  6
DASHDOT
 62
     7
 48
0.177325
370
    13
100
AcDbLine
 10
-538.453491
 20
278.75
 30
0.0
 11
-545.546509
 21
278.75
 31
0.0
  0
LINE
  5
92
330
1F
100
AcDbEntity
  8
0
  6
DASHDOT
 62
     7
 48
0.177325
370
    13
100
AcDbLine
 10
-542.0
 20
282.296509
 30
0.0
 11
-542.0
 21
275.203491
 31
0.0
  0
LINE
  5
93
330
1F
100
AcDbEntity
  8
0
  6
DASHDOT
 62
     7
 48
0.177325
370
    13
100
AcDbLine
 10
-563.453491
 20
278.75
 30
0.0
 11
-570.546509
 21
278.75
 31
0.0
  0
LINE
  5
94
330
1F
100
AcDbEntity
  8
0
  6
DASHDOT
 62
     7
 48
0.177325
370
    13
100
AcDbLine
 10
-567.0
 20
282.296509
 30
0.0
 11
-567.0
 21
275.203491
 31
0.0
  0
LINE
  5
95
330
1F
100
AcDbEntity
  8
0
 62
     7
370
    35
100
AcDbLine
 10
-663.5
 20
312.75
 30
0.0
 11
1504.5
 21
312.75
 31
0.0
  0
CIRCLE
  5
96
330
1F
100
AcDbEntity
  8
0
 62
     7
370
    35
100
AcDbCircle
 10
-658.0
 20
303.25
 30
0.0
 40
3.5
  0
CIRCLE
  5
97
330
1F
100
AcDbEntity
  8
0
 62
     7
370
    35
100
AcDbCircle
 10
1499.0
 20
303.25
 30
0.0
 40
3.5
  0
CIRCLE
  5
98
330
1F
100
AcDbEntity
  8
0
 62
     7
370
    35
100
AcDbCircle
 10
-643.0
 20
303.25
 30
0.0
 40
2.4
  0
CIRCLE
  5
99
330
1F
100
AcDbEntity
  8
0
 62
     7
370
    35
100
AcDbCircle
 10
1484.0
 20
303.25
 30
0.0
 40
2.4
  0
LINE
  5
9A
330
1F
100
AcDbEntity
  8
0
 62
     7
370
    35
100
AcDbLine
 10
1499.0
 20
289.850006
 30
0.0
 11
-658.0
 21
289.850006
 31
0.0
  0
LINE
  5
9B
330
1F
100
AcDbEntity
  8
0
 62
     7
370
    35
100
AcDbLine
 10
1499.0
 20
295.649994
 30
0.0
 11
-658.0
 21
295.649994
 31
0.0
  0
CIRCLE
  5
9C
330
1F
100
AcDbEntity
  8
0
 62
     7
370
    35
100
AcDbCircle
 10
-643.0
 20
307.950012
 30
0.0
 40
2.000000000000004
  0
CIRCLE
  5
9D
330
1F
100
AcDbEntity
  8
0
 62
     7
370
    35
100
AcDbCircle
 10
-643.0
 20
298.549988
 30
0.0
 40
2.0
  0
CIRCLE
  5
9E
330
1F
100
AcDbEntity
  8
0
 62
     7
370
    35
100
AcDbCircle
 10
1484.0
 20
307.950012
 30
0.0
 40
2.0
  0
CIRCLE
  5
9F
330
1F
100
AcDbEntity
  8
0
 62
     7
370
    35
100
AcDbCircle
 10
1484.0
 20
298.549988
 30
0.0
 40
2.0
  0
CIRCLE
  5
A0
330
1F
100
AcDbEntity
  8
0
 62
     7
370
    35
100
AcDbCircle
 10
-658.0
 20
303.25
 30
0.0
 40
3.199999999999998
  0
LINE
  5
A1
330
1F
100
AcDbEntity
  8
0
 62
     7
370
    35
100
AcDbLine
 10
-657.5
 20
301.0
 30
0.0
 11
-658.5
 21
301.0
 31
0.0
  0
ARC
  5
A2
330
1F
100
AcDbEntity
  8
0
 62
     7
370
    35
100
AcDbCircle
 10
-657.5
 20
303.25
 30
0.0
 40
2.249999999999999
100
AcDbArc
 50
269.999997
 51
90.000003
  0
LINE
  5
A3
330
1F
100
AcDbEntity
  8
0
 62
     7
370
    35
100
AcDbLine
 10
-658.5
 20
305.5
 30
0.0
 11
-657.5
 21
305.5
 31
0.0
  0
ARC
  5
A4
330
1F
100
AcDbEntity
  8
0
 62
     7
370
    35
100
AcDbCircle
 10
-658.5
 20
303.25
 30
0.0
 40
2.249999999999999
100
AcDbArc
 50
90.000003
 51
269.999997
  0
CIRCLE
  5
A5
330
1F
100
AcDbEntity
  8
0
 62
     7
370
    35
100
AcDbCircle
 10
-658.0
 20
303.25
 30
0.0
 40
3.399999999999996
  0
CIRCLE
  5
A6
330
1F
100
AcDbEntity
  8
0
 62
     7
370
    35
100
AcDbCircle
 10
1499.0
 20
303.25
 30
0.0
 40
3.199999999999998
  0
LINE
  5
A7
330
1F
100
AcDbEntity
  8
0
 62
     7
370
    35
100
AcDbLine
 10
1496.75
 20
302.75
 30
0.0
 11
1496.75
 21
303.75
 31
0.0
  0
ARC
  5
A8
330
1F
100
AcDbEntity
  8
0
 62
     7
370
    35
100
AcDbCircle
 10
1499.0
 20
302.75
 30
0.0
 40
2.249999999999999
100
AcDbArc
 50
180.000005
 51
360.0
  0
LINE
  5
A9
330
1F
100
AcDbEntity
  8
0
 62
     7
370
    35
100
AcDbLine
 10
1501.25
 20
303.75
 30
0.0
 11
1501.25
 21
302.75
 31
0.0
  0
ARC
  5
AA
330
1F
100
AcDbEntity
  8
0
 62
     7
370
    35
100
AcDbCircle
 10
1499.0
 20
303.75
 30
0.0
 40
2.249999999999999
100
AcDbArc
 50
0.0
 51
180.000005
  0
CIRCLE
  5
AB
330
1F
100
AcDbEntity
  8
0
 62
     7
370
    35
100
AcDbCircle
 10
1499.0
 20
303.25
 30
0.0
 40
3.399999999999996
  0
ARC
  5
AC
330
1F
100
AcDbEntity
  8
0
 62
     7
370
    35
100
AcDbCircle
 10
416.5
 20
300.149994
 30
0.0
 40
0.5000000000000029
100
AcDbArc
 50
90.000003
 51
180.000005
  0
LINE
  5
AD
330
1F
100
AcDbEntity
  8
0
 62
     7
370
    35
100
AcDbLine
 10
416.0
 20
300.149994
 30
0.0
 11
416.0
 21
296.149994
 31
0.0
  0
ARC
  5
AE
330
1F
100
AcDbEntity
  8
0
 62
     7
370
    35
100
AcDbCircle
 10
416.5
 20
296.149994
 30
0.0
 40
0.5000000000000029
100
AcDbArc
 50
180.000005
 51
269.999997
  0
LINE
  5
AF
330
1F
100
AcDbEntity
  8
0
 62
     7
370
    35
100
AcDbLine
 10
424.5
 20
295.649994
 30
0.0
 11
416.5
 21
295.649994
 31
0.0
  0
ARC
  5
B0
330
1F
100
AcDbEntity
  8
0
 62
     7
370
    35
100
AcDbCircle
 10
424.5
 20
296.149994
 30
0.0
 40
0.5000000000000029
100
AcDbArc
 50
269.999997
 51
360.0
  0
LINE
  5
B1
330
1F
100
AcDbEntity
  8
0
 62
     7
370
    35
100
AcDbLine
 10
425.0
 20
296.149994
 30
0.0
 11
425.0
 21
300.149994
 31
0.0
  0
ARC
  5
B2
330
1F
100
AcDbEntity
  8
0
 62
     7
370
    35
100
AcDbCircle
 10
424.5
 20
300.149994
 30
0.0
 40
0.5000000000000029
100
AcDbArc
 50
0.0
 51
90.000003
  0
LINE
  5
B3
330
1F
100
AcDbEntity
  8
0
 62
     7
370
    35
100
AcDbLine
 10
416.5
 20
300.649994
 30
0.0
 11
419.5
 21
300.649994
 31
0.0
  0
LINE
  5
B4
330
1F
100
AcDbEntity
  8
0
 62
     7
370
    35
100
AcDbLine
 10
421.5
 20
300.649994
 30
0.0
 11
424.5
 21
300.649994
 31
0.0
  0
LINE
  5
B5
330
1F
100
AcDbEntity
  8
0
 62
     7
370
    35
100
AcDbLine
 10
421.5
 20
300.649994
 30
0.0
 11
421.5
 21
298.649994
 31
0.0
  0
LINE
  5
B6
330
1F
100
AcDbEntity
  8
0
 62
     7
370
    35
100
AcDbLine
 10
421.5
 20
298.649994
 30
0.0
 11
423.0
 21
298.649994
 31
0.0
  0
LINE
  5
B7
330
1F
100
AcDbEntity
  8
0
 62
     7
370
    35
100
AcDbLine
 10
423.0
 20
298.649994
 30
0.0
 11
420.5
 21
296.149994
 31
0.0
  0
LINE
  5
B8
330
1F
100
AcDbEntity
  8
0
 62
     7
370
    35
100
AcDbLine
 10
420.5
 20
296.149994
 30
0.0
 11
418.0
 21
298.649994
 31
0.0
  0
LINE
  5
B9
330
1F
100
AcDbEntity
  8
0
 62
     7
370
    35
100
AcDbLine
 10
418.0
 20
298.649994
 30
0.0
 11
419.5
 21
298.649994
 31
0.0
  0
LINE
  5
BA
330
1F
100
AcDbEntity
  8
0
 62
     7
370
    35
100
AcDbLine
 10
419.5
 20
298.649994
 30
0.0
 11
419.5
 21
300.649994
 31
0.0
  0
LINE
  5
BB
330
1F
100
AcDbEntity
  8
0
 62
     7
370
    35
100
AcDbLine
 10
419.5
 20
300.649994
 30
0.0
 11
421.5
 21
300.649994
 31
0.0
  0
ARC
  5
BC
330
1F
100
AcDbEntity
  8
0
 62
     7
370
    35
100
AcDbCircle
 10
415.5
 20
318.25
 30
0.0
 40
5.000000000000044
100
AcDbArc
 50
90.000003
 51
180.000005
  0
LINE
  5
BD
330
1F
100
AcDbEntity
  8
0
 62
     7
370
    35
100
AcDbLine
 10
410.5
 20
318.25
 30
0.0
 11
410.5
 21
312.75
 31
0.0
  0
LINE
  5
BE
330
1F
100
AcDbEntity
  8
0
 62
     7
370
    35
100
AcDbLine
 10
430.5
 20
312.75
 30
0.0
 11
430.5
 21
318.25
 31
0.0
  0
ARC
  5
BF
330
1F
100
AcDbEntity
  8
0
 62
     7
370
    35
100
AcDbCircle
 10
425.5
 20
318.25
 30
0.0
 40
5.000000000000044
100
AcDbArc
 50
0.0
 51
90.000003
  0
LINE
  5
C0
330
1F
100
AcDbEntity
  8
0
 62
     7
370
    35
100
AcDbLine
 10
415.5
 20
323.25
 30
0.0
 11
425.5
 21
323.25
 31
0.0
  0
ARC
  5
C1
330
1F
100
AcDbEntity
  8
0
 62
     7
370
    35
100
AcDbCircle
 10
421.5
 20
318.25
 30
0.0
 40
2.500000000000022
100
AcDbArc
 50
269.999997
 51
90.000003
  0
LINE
  5
C2
330
1F
100
AcDbEntity
  8
0
 62
     7
370
    35
100
AcDbLine
 10
421.5
 20
320.75
 30
0.0
 11
419.5
 21
320.75
 31
0.0
  0
ARC
  5
C3
330
1F
100
AcDbEntity
  8
0
 62
     7
370
    35
100
AcDbCircle
 10
419.5
 20
318.25
 30
0.0
 40
2.500000000000022
100
AcDbArc
 50
90.000003
 51
269.999997
  0
LINE
  5
C4
330
1F
100
AcDbEntity
  8
0
 62
     7
370
    35
100
AcDbLine
 10
419.5
 20
315.75
 30
0.0
 11
421.5
 21
315.75
 31
0.0
  0
LINE
  5
C5
330
1F
100
AcDbEntity
  8
0
 62
     7
370
    35
100
AcDbLine
 10
-567.559265
 20
289.75
 30
0.0
 11
-573.590332
 21
288.25
 31
0.0
  0
LINE
  5
C6
330
1F
100
AcDbEntity
  8
0
 62
     7
370
    35
100
AcDbLine
 10
-567.559021
 20
288.25
 30
0.0
 11
-567.559265
 21
289.75
 31
0.0
  0
LINE
  5
C7
330
1F
100
AcDbEntity
  8
0
 62
     7
370
    35
100
AcDbLine
 10
-567.559265
 20
289.75
 30
0.0
 11
-567.559265
 21
289.850006
 31
0.0
  0
LINE
  5
C8
330
1F
100
AcDbEntity
  8
0
 62
     7
370
    35
100
AcDbLine
 10
-541.440979
 20
289.75
 30
0.0
 11
-567.559021
 21
289.75
 31
0.0
  0
LINE
  5
C9
330
1F
100
AcDbEntity
  8
0
 62
     7
370
    35
100
AcDbLine
 10
-541.440735
 20
289.75
 30
0.0
 11
-541.440735
 21
289.850006
 31
0.0
  0
LINE
  5
CA
330
1F
100
AcDbEntity
  8
0
 62
     7
370
    35
100
AcDbLine
 10
-535.409668
 20
288.25
 30
0.0
 11
-541.440735
 21
289.75
 31
0.0
  0
LINE
  5
CB
330
1F
100
AcDbEntity
  8
0
 62
     7
370
    35
100
AcDbLine
 10
-524.5
 20
285.75
 30
0.0
 11
-524.5
 21
288.25
 31
0.0
  0
LINE
  5
CC
330
1F
100
AcDbEntity
  8
0
 62
     7
370
    35
100
AcDbLine
 10
-524.5
 20
285.75
 30
0.0
 11
-524.5
 21
280.75
 31
0.0
  0
LINE
  5
CD
330
1F
100
AcDbEntity
  8
0
 62
     7
370
    35
100
AcDbLine
 10
-524.5
 20
271.75
 30
0.0
 11
-524.5
 21
280.75
 31
0.0
  0
LINE
  5
CE
330
1F
100
AcDbEntity
  8
0
 62
     7
370
    35
100
AcDbLine
 10
-524.5
 20
271.75
 30
0.0
 11
-524.5
 21
270.75
 31
0.0
  0
LINE
  5
CF
330
1F
100
AcDbEntity
  8
0
 62
     7
370
    35
100
AcDbLine
 10
-524.5
 20
280.75
 30
0.0
 11
-529.5
 21
280.75
 31
0.0
  0
ARC
  5
D0
330
1F
100
AcDbEntity
  8
0
 62
     7
370
    35
100
AcDbCircle
 10
-529.5
 20
276.25
 30
0.0
 40
4.500000000000001
100
AcDbArc
 50
90.000003
 51
269.999997
  0
LINE
  5
D1
330
1F
100
AcDbEntity
  8
0
 62
     7
370
    35
100
AcDbLine
 10
-529.5
 20
271.75
 30
0.0
 11
-524.5
 21
271.75
 31
0.0
  0
LINE
  5
D2
330
1F
100
AcDbEntity
  8
0
 62
     7
370
    35
100
AcDbLine
 10
-547.0
 20
270.75
 30
0.0
 11
-524.5
 21
270.75
 31
0.0
  0
LINE
  5
D3
330
1F
100
AcDbEntity
  8
0
 62
     7
370
    35
100
AcDbLine
 10
-547.0
 20
270.75
 30
0.0
 11
-547.0
 21
282.25
 31
0.0
  0
ARC
  5
D4
330
1F
100
AcDbEntity
  8
0
 62
     7
370
    35
100
AcDbCircle
 10
-543.5
 20
282.25
 30
0.0
 40
3.5
100
AcDbArc
 50
90.000003
 51
180.000005
  0
LINE
  5
D5
330
1F
100
AcDbEntity
  8
0
 62
     7
370
    35
100
AcDbLine
 10
-543.5
 20
285.75
 30
0.0
 11
-524.5
 21
285.75
 31
0.0
  0
CIRCLE
  5
D6
330
1F
100
AcDbEntity
  8
0
 62
     7
370
    35
100
AcDbCircle
 10
-542.0
 20
278.75
 30
0.0
 40
1.006499999999999
  0
LINE
  5
D7
330
1F
100
AcDbEntity
  8
0
 62
     7
370
    35
100
AcDbLine
 10
-584.5
 20
285.75
 30
0.0
 11
-565.5
 21
285.75
 31
0.0
  0
ARC
  5
D8
330
1F
100
AcDbEntity
  8
0
 62
     7
370
    35
100
AcDbCircle
 10
-565.5
 20
282.25
 30
0.0
 40
3.5
100
AcDbArc
 50
0.0
 51
90.000003
  0
LINE
  5
D9
330
1F
100
AcDbEntity
  8
0
 62
     7
370
    35
100
AcDbLine
 10
-562.0
 20
282.25
 30
0.0
 11
-562.0
 21
270.75
 31
0.0
  0
LINE
  5
DA
330
1F
100
AcDbEntity
  8
0
 62
     7
370
    35
100
AcDbLine
 10
-584.5
 20
270.75
 30
0.0
 11
-562.0
 21
270.75
 31
0.0
  0
LINE
  5
DB
330
1F
100
AcDbEntity
  8
0
 62
     7
370
    35
100
AcDbLine
 10
-584.5
 20
270.75
 30
0.0
 11
-584.5
 21
271.75
 31
0.0
  0
LINE
  5
DC
330
1F
100
AcDbEntity
  8
0
 62
     7
370
    35
100
AcDbLine
 10
-579.5
 20
271.75
 30
0.0
 11
-584.5
 21
271.75
 31
0.0
  0
ARC
  5
DD
330
1F
100
AcDbEntity
  8
0
 62
     7
370
    35
100
AcDbCircle
 10
-579.5
 20
276.25
 30
0.0
 40
4.500000000000001
100
AcDbArc
 50
269.999997
 51
90.000003
  0
LINE
  5
DE
330
1F
100
AcDbEntity
  8
0
 62
     7
370
    35
100
AcDbLine
 10
-584.5
 20
280.75
 30
0.0
 11
-579.5
 21
280.75
 31
0.0
  0
LINE
  5
DF
330
1F
100
AcDbEntity
  8
0
 62
     7
370
    35
100
AcDbLine
 10
-584.5
 20
280.75
 30
0.0
 11
-584.5
 21
285.75
 31
0.0
  0
CIRCLE
  5
E0
330
1F
100
AcDbEntity
  8
0
 62
     7
370
    35
100
AcDbCircle
 10
-567.0
 20
278.75
 30
0.0
 40
1.006500000000003
  0
LINE
  5
E1
330
1F
100
AcDbEntity
  8
0
 62
     7
370
    35
100
AcDbLine
 10
-584.5
 20
271.75
 30
0.0
 11
-584.5
 21
280.75
 31
0.0
  0
CIRCLE
  5
E2
330
1F
100
AcDbEntity
  8
0
 62
     7
370
    35
100
AcDbCircle
 10
-579.5
 20
276.25
 30
0.0
 40
2.5
  0
LINE
  5
E3
330
1F
100
AcDbEntity
  8
0
 62
     7
370
    35
100
AcDbLine
 10
-549.5
 20
281.25
 30
0.0
 11
-554.5
 21
286.25
 31
0.0
  0
LINE
  5
E4
330
1F
100
AcDbEntity
  8
0
 62
     7
370
    35
100
AcDbLine
 10
-559.5
 20
281.25
 30
0.0
 11
-554.5
 21
286.25
 31
0.0
  0
LINE
  5
E5
330
1F
100
AcDbEntity
  8
0
 62
     7
370
    35
100
AcDbLine
 10
-559.5
 20
281.25
 30
0.0
 11
-556.5
 21
281.25
 31
0.0
  0
LINE
  5
E6
330
1F
100
AcDbEntity
  8
0
 62
     7
370
    35
100
AcDbLine
 10
-556.5
 20
273.25
 30
0.0
 11
-556.5
 21
281.25
 31
0.0
  0
LINE
  5
E7
330
1F
100
AcDbEntity
  8
0
 62
     7
370
    35
100
AcDbLine
 10
-556.5
 20
273.25
 30
0.0
 11
-552.5
 21
273.25
 31
0.0
  0
LINE
  5
E8
330
1F
100
AcDbEntity
  8
0
 62
     7
370
    35
100
AcDbLine
 10
-552.5
 20
281.25
 30
0.0
 11
-552.5
 21
273.25
 31
0.0
  0
LINE
  5
E9
330
1F
100
AcDbEntity
  8
0
 62
     7
370
    35
100
AcDbLine
 10
-552.5
 20
281.25
 30
0.0
 11
-549.5
 21
281.25
 31
0.0
  0
CIRCLE
  5
EA
330
1F
100
AcDbEntity
  8
0
 62
     7
370
    35
100
AcDbCircle
 10
-529.5
 20
276.25
 30
0.0
 40
2.5
  0
LINE
  5
EB
330
1F
100
AcDbEntity
  8
0
 62
     7
370
    35
100
AcDbLine
 10
-562.0
 20
271.25
 30
0.0
 11
-547.0
 21
271.25
 31
0.0
  0
LINE
  5
EC
330
1F
100
AcDbEntity
  8
0
 62
     7
370
    35
100
AcDbLine
 10
-584.5
 20
288.25
 30
0.0
 11
-584.5
 21
285.75
 31
0.0
  0
LINE
  5
ED
330
1F
100
AcDbEntity
  8
0
 62
     7
370
    35
100
AcDbLine
 10
-524.5
 20
288.25
 30
0.0
 11
-584.5
 21
288.25
 31
0.0
  0
LINE
  5
EE
330
1F
100
AcDbEntity
  8
0
 62
     7
370
    35
100
AcDbLine
 10
-541.440979
 20
289.75
 30
0.0
 11
-541.440979
 21
288.25
 31
0.0
  0
LINE
  5
EF
330
1F
100
AcDbEntity
  8
0
 62
     7
370
    35
100
AcDbLine
 10
-535.0
 20
288.25
 30
0.0
 11
-535.0
 21
289.850006
 31
0.0
  0
LINE
  5
F0
330
1F
100
AcDbEntity
  8
0
 62
     7
370
    35
100
AcDbLine
 10
-574.0
 20
288.25
 30
0.0
 11
-574.0
 21
289.850006
 31
0.0
  0
LINE
  5
F1
330
1F
100
AcDbEntity
  8
0
 62
     7
370
    35
100
AcDbLine
 10
-524.5
 20
281.149994
 30
0.0
 11
-524.5
 21
281.651917
 31
0.0
  0
LINE
  5
F2
330
1F
100
AcDbEntity
  8
0
 62
     7
370
    35
100
AcDbLine
 10
-524.5
 20
286.848083
 30
0.0
 11
-524.5
 21
281.651917
 31
0.0
  0
LINE
  5
F3
330
1F
100
AcDbEntity
  8
0
 62
     7
370
    35
100
AcDbLine
 10
-524.5
 20
287.350006
 30
0.0
 11
-524.5
 21
286.848083
 31
0.0
  0
LINE
  5
F4
330
1F
100
AcDbEntity
  8
0
 62
     7
370
    35
100
AcDbLine
 10
-623.5
 20
284.25
 30
0.0
 11
-623.5
 21
287.0
 31
0.0
  0
LINE
  5
F5
330
1F
100
AcDbEntity
  8
0
 62
     7
370
    35
100
AcDbLine
 10
-623.5
 20
281.5
 30
0.0
 11
-623.5
 21
284.25
 31
0.0
  0
LINE
  5
F6
330
1F
100
AcDbEntity
  8
0
 62
     7
370
    35
100
AcDbLine
 10
-623.5
 20
287.0
 30
0.0
 11
-584.5
 21
287.0
 31
0.0
  0
LINE
  5
F7
330
1F
100
AcDbEntity
  8
0
 62
     7
370
    35
100
AcDbLine
 10
-623.5
 20
281.5
 30
0.0
 11
-584.5
 21
281.5
 31
0.0
  0
LINE
  5
F8
330
1F
100
AcDbEntity
  8
0
 62
     7
370
    35
100
AcDbLine
 10
-630.5
 20
295.649994
 30
0.0
 11
-600.5
 21
295.649994
 31
0.0
  0
ARC
  5
F9
330
1F
100
AcDbEntity
  8
0
 62
     7
370
    35
100
AcDbCircle
 10
-600.5
 20
296.649994
 30
0.0
 40
1.0
100
AcDbArc
 50
269.999997
 51
360.0
  0
LINE
  5
FA
330
1F
100
AcDbEntity
  8
0
 62
     7
370
    35
100
AcDbLine
 10
-599.5
 20
296.649994
 30
0.0
 11
-599.5
 21
308.149994
 31
0.0
  0
ARC
  5
FB
330
1F
100
AcDbEntity
  8
0
 62
     7
370
    35
100
AcDbCircle
 10
-600.5
 20
308.149994
 30
0.0
 40
1.0
100
AcDbArc
 50
0.0
 51
90.000003
  0
LINE
  5
FC
330
1F
100
AcDbEntity
  8
0
 62
     7
370
    35
100
AcDbLine
 10
-600.5
 20
309.149994
 30
0.0
 11
-630.5
 21
309.149994
 31
0.0
  0
ARC
  5
FD
330
1F
100
AcDbEntity
  8
0
 62
     7
370
    35
100
AcDbCircle
 10
-630.5
 20
308.149994
 30
0.0
 40
1.0
100
AcDbArc
 50
90.000003
 51
180.000005
  0
LINE
  5
FE
330
1F
100
AcDbEntity
  8
0
 62
     7
370
    35
100
AcDbLine
 10
-631.5
 20
308.149994
 30
0.0
 11
-631.5
 21
296.649994
 31
0.0
  0
ARC
  5
FF
330
1F
100
AcDbEntity
  8
0
 62
     7
370
    35
100
AcDbCircle
 10
-630.5
 20
296.649994
 30
0.0
 40
1.0
100
AcDbArc
 50
180.000005
 51
269.999997
  0
LINE
  5
100
330
1F
100
AcDbEntity
  8
0
 62
     7
370
    35
100
AcDbLine
 10
-608.5
 20
296.649994
 30
0.0
 11
-600.5
 21
296.649994
 31
0.0
  0
LINE
  5
101
330
1F
100
AcDbEntity
  8
0
 62
     7
370
    35
100
AcDbLine
 10
-600.5
 20
296.649994
 30
0.0
 11
-600.5
 21
304.649994
 31
0.0
  0
LINE
  5
102
330
1F
100
AcDbEntity
  8
0
 62
     7
370
    35
100
AcDbLine
 10
-600.5
 20
304.649994
 30
0.0
 11
-608.5
 21
304.649994
 31
0.0
  0
LINE
  5
103
330
1F
100
AcDbEntity
  8
0
 62
     7
370
    35
100
AcDbLine
 10
-608.5
 20
304.649994
 30
0.0
 11
-608.5
 21
296.649994
 31
0.0
  0
LINE
  5
104
330
1F
100
AcDbEntity
  8
0
 62
     7
370
    35
100
AcDbLine
 10
-607.5
 20
300.649994
 30
0.0
 11
-604.5
 21
297.649994
 31
0.0
  0
LINE
  5
105
330
1F
100
AcDbEntity
  8
0
 62
     7
370
    35
100
AcDbLine
 10
-605.5
 20
300.649994
 30
0.0
 11
-607.5
 21
300.649994
 31
0.0
  0
LINE
  5
106
330
1F
100
AcDbEntity
  8
0
 62
     7
370
    35
100
AcDbLine
 10
-605.5
 20
303.649994
 30
0.0
 11
-605.5
 21
300.649994
 31
0.0
  0
LINE
  5
107
330
1F
100
AcDbEntity
  8
0
 62
     7
370
    35
100
AcDbLine
 10
-603.5
 20
303.649994
 30
0.0
 11
-605.5
 21
303.649994
 31
0.0
  0
LINE
  5
108
330
1F
100
AcDbEntity
  8
0
 62
     7
370
    35
100
AcDbLine
 10
-603.5
 20
300.649994
 30
0.0
 11
-603.5
 21
303.649994
 31
0.0
  0
LINE
  5
109
330
1F
100
AcDbEntity
  8
0
 62
     7
370
    35
100
AcDbLine
 10
-601.5
 20
300.649994
 30
0.0
 11
-603.5
 21
300.649994
 31
0.0
  0
LINE
  5
10A
330
1F
100
AcDbEntity
  8
0
 62
     7
370
    35
100
AcDbLine
 10
-604.5
 20
297.649994
 30
0.0
 11
-601.5
 21
300.649994
 31
0.0
  0
LINE
  5
10B
330
1F
100
AcDbEntity
  8
0
 62
     7
370
    35
100
AcDbLine
 10
-630.5
 20
296.649994
 30
0.0
 11
-609.5
 21
296.649994
 31
0.0
  0
LINE
  5
10C
330
1F
100
AcDbEntity
  8
0
 62
     7
370
    35
100
AcDbLine
 10
-609.5
 20
296.649994
 30
0.0
 11
-609.5
 21
299.649994
 31
0.0
  0
LINE
  5
10D
330
1F
100
AcDbEntity
  8
0
 62
     7
370
    35
100
AcDbLine
 10
-609.5
 20
299.649994
 30
0.0
 11
-630.5
 21
299.649994
 31
0.0
  0
LINE
  5
10E
330
1F
100
AcDbEntity
  8
0
 62
     7
370
    35
100
AcDbLine
 10
-630.5
 20
299.649994
 30
0.0
 11
-630.5
 21
296.649994
 31
0.0
  0
ARC
  5
10F
330
1F
100
AcDbEntity
  8
0
 62
     7
370
    35
100
AcDbCircle
 10
1441.5
 20
296.649994
 30
0.0
 40
1.0
100
AcDbArc
 50
180.000005
 51
269.999997
  0
LINE
  5
110
330
1F
100
AcDbEntity
  8
0
 62
     7
370
    35
100
AcDbLine
 10
1471.5
 20
295.649994
 30
0.0
 11
1441.5
 21
295.649994
 31
0.0
  0
ARC
  5
111
330
1F
100
AcDbEntity
  8
0
 62
     7
370
    35
100
AcDbCircle
 10
1471.5
 20
296.649994
 30
0.0
 40
1.0
100
AcDbArc
 50
269.999997
 51
360.0
  0
LINE
  5
112
330
1F
100
AcDbEntity
  8
0
 62
     7
370
    35
100
AcDbLine
 10
1472.5
 20
296.649994
 30
0.0
 11
1472.5
 21
308.149994
 31
0.0
  0
ARC
  5
113
330
1F
100
AcDbEntity
  8
0
 62
     7
370
    35
100
AcDbCircle
 10
1471.5
 20
308.149994
 30
0.0
 40
1.0
100
AcDbArc
 50
0.0
 51
90.000003
  0
LINE
  5
114
330
1F
100
AcDbEntity
  8
0
 62
     7
370
    35
100
AcDbLine
 10
1440.5
 20
308.149994
 30
0.0
 11
1440.5
 21
296.649994
 31
0.0
  0
LINE
  5
115
330
1F
100
AcDbEntity
  8
0
 62
     7
370
    35
100
AcDbLine
 10
1441.5
 20
309.149994
 30
0.0
 11
1471.5
 21
309.149994
 31
0.0
  0
ARC
  5
116
330
1F
100
AcDbEntity
  8
0
 62
     7
370
    35
100
AcDbCircle
 10
1441.5
 20
308.149994
 30
0.0
 40
0.9999999999999996
100
AcDbArc
 50
90.000003
 51
180.000005
  0
LINE
  5
117
330
1F
100
AcDbEntity
  8
0
 62
     7
370
    35
100
AcDbLine
 10
1441.5
 20
296.649994
 30
0.0
 11
1449.5
 21
296.649994
 31
0.0
  0
LINE
  5
118
330
1F
100
AcDbEntity
  8
0
 62
     7
370
    35
100
AcDbLine
 10
1449.5
 20
296.649994
 30
0.0
 11
1449.5
 21
304.649994
 31
0.0
  0
LINE
  5
119
330
1F
100
AcDbEntity
  8
0
 62
     7
370
    35
100
AcDbLine
 10
1449.5
 20
304.649994
 30
0.0
 11
1441.5
 21
304.649994
 31
0.0
  0
LINE
  5
11A
330
1F
100
AcDbEntity
  8
0
 62
     7
370
    35
100
AcDbLine
 10
1441.5
 20
304.649994
 30
0.0
 11
1441.5
 21
296.649994
 31
0.0
  0
LINE
  5
11B
330
1F
100
AcDbEntity
  8
0
 62
     7
370
    35
100
AcDbLine
 10
1442.5
 20
300.649994
 30
0.0
 11
1445.5
 21
297.649994
 31
0.0
  0
LINE
  5
11C
330
1F
100
AcDbEntity
  8
0
 62
     7
370
    35
100
AcDbLine
 10
1444.5
 20
300.649994
 30
0.0
 11
1442.5
 21
300.649994
 31
0.0
  0
LINE
  5
11D
330
1F
100
AcDbEntity
  8
0
 62
     7
370
    35
100
AcDbLine
 10
1444.5
 20
303.649994
 30
0.0
 11
1444.5
 21
300.649994
 31
0.0
  0
LINE
  5
11E
330
1F
100
AcDbEntity
  8
0
 62
     7
370
    35
100
AcDbLine
 10
1446.5
 20
303.649994
 30
0.0
 11
1444.5
 21
303.649994
 31
0.0
  0
LINE
  5
11F
330
1F
100
AcDbEntity
  8
0
 62
     7
370
    35
100
AcDbLine
 10
1446.5
 20
300.649994
 30
0.0
 11
1446.5
 21
303.649994
 31
0.0
  0
LINE
  5
120
330
1F
100
AcDbEntity
  8
0
 62
     7
370
    35
100
AcDbLine
 10
1448.5
 20
300.649994
 30
0.0
 11
1446.5
 21
300.649994
 31
0.0
  0
LINE
  5
121
330
1F
100
AcDbEntity
  8
0
 62
     7
370
    35
100
AcDbLine
 10
1445.5
 20
297.649994
 30
0.0
 11
1448.5
 21
300.649994
 31
0.0
  0
LINE
  5
122
330
1F
100
AcDbEntity
  8
0
 62
     7
370
    35
100
AcDbLine
 10
1460.800049
 20
300.25
 30
0.0
 11
1471.5
 21
300.25
 31
0.0
  0
LINE
  5
123
330
1F
100
AcDbEntity
  8
0
 62
     7
370
    35
100
AcDbLine
 10
1471.5
 20
300.25
 30
0.0
 11
1471.5
 21
303.049988
 31
0.0
  0
LINE
  5
124
330
1F
100
AcDbEntity
  8
0
 62
     7
370
    35
100
AcDbLine
 10
1471.5
 20
303.049988
 30
0.0
 11
1460.800049
 21
303.049988
 31
0.0
  0
LINE
  5
125
330
1F
100
AcDbEntity
  8
0
 62
     7
370
    35
100
AcDbLine
 10
1460.800049
 20
303.049988
 30
0.0
 11
1460.800049
 21
300.25
 31
0.0
  0
CIRCLE
  5
126
330
1F
100
AcDbEntity
  8
0
 62
     7
370
    35
100
AcDbCircle
 10
1295.5
 20
303.25
 30
0.0
 40
4.0
  0
LINE
  5
127
330
1F
100
AcDbEntity
  8
0
 62
     7
370
    35
100
AcDbLine
 10
1297.327271
 20
312.75
 30
0.0
 11
1291.5
 21
312.75
 31
0.0
  0
LINE
  5
128
330
1F
100
AcDbEntity
  8
0
 62
     7
370
    35
100
AcDbLine
 10
1299.5
 20
312.75
 30
0.0
 11
1297.327271
 21
312.75
 31
0.0
  0
LINE
  5
129
330
1F
100
AcDbEntity
  8
0
 62
     7
370
    35
100
AcDbLine
 10
1299.5
 20
312.950012
 30
0.0
 11
1297.327271
 21
312.950012
 31
0.0
  0
LINE
  5
12A
330
1F
100
AcDbEntity
  8
0
 62
     7
370
    35
100
AcDbLine
 10
1297.327271
 20
312.950012
 30
0.0
 11
1291.5
 21
312.950012
 31
0.0
  0
LINE
  5
12B
330
1F
100
AcDbEntity
  8
0
 62
     7
370
    35
100
AcDbLine
 10
1299.5
 20
312.75
 30
0.0
 11
1299.5
 21
312.950012
 31
0.0
  0
LINE
  5
12C
330
1F
100
AcDbEntity
  8
0
 62
     7
370
    35
100
AcDbLine
 10
1291.5
 20
312.75
 30
0.0
 11
1291.5
 21
312.950012
 31
0.0
  0
CIRCLE
  5
12D
330
1F
100
AcDbEntity
  8
0
 62
     7
370
    35
100
AcDbCircle
 10
-454.5
 20
303.25
 30
0.0
 40
4.0
  0
LINE
  5
12E
330
1F
100
AcDbEntity
  8
0
 62
     7
370
    35
100
AcDbLine
 10
-452.672729
 20
312.75
 30
0.0
 11
-458.5
 21
312.75
 31
0.0
  0
LINE
  5
12F
330
1F
100
AcDbEntity
  8
0
 62
     7
370
    35
100
AcDbLine
 10
-450.5
 20
312.75
 30
0.0
 11
-452.672729
 21
312.75
 31
0.0
  0
LINE
  5
130
330
1F
100
AcDbEntity
  8
0
 62
     7
370
    35
100
AcDbLine
 10
-450.5
 20
312.950012
 30
0.0
 11
-452.672729
 21
312.950012
 31
0.0
  0
LINE
  5
131
330
1F
100
AcDbEntity
  8
0
 62
     7
370
    35
100
AcDbLine
 10
-452.672729
 20
312.950012
 30
0.0
 11
-458.5
 21
312.950012
 31
0.0
  0
LINE
  5
132
330
1F
100
AcDbEntity
  8
0
 62
     7
370
    35
100
AcDbLine
 10
-450.5
 20
312.75
 30
0.0
 11
-450.5
 21
312.950012
 31
0.0
  0
LINE
  5
133
330
1F
100
AcDbEntity
  8
0
 62
     7
370
    35
100
AcDbLine
 10
-458.5
 20
312.75
 30
0.0
 11
-458.5
 21
312.950012
 31
0.0
  0
ARC
  5
134
330
1F
100
AcDbEntity
  8
0
 62
     7
370
    35
100
AcDbCircle
 10
420.5
 20
303.25
 30
0.0
 40
4.0
100
AcDbArc
 50
319.458398
 51
220.541607
  0
LINE
  5
135
330
1F
100
AcDbEntity
  8
0
 62
     7
370
    35
100
AcDbLine
 10
422.327271
 20
312.75
 30
0.0
 11
416.5
 21
312.75
 31
0.0
  0
LINE
  5
136
330
1F
100
AcDbEntity
  8
0
 62
     7
370
    35
100
AcDbLine
 10
424.5
 20
312.75
 30
0.0
 11
422.327271
 21
312.75
 31
0.0
  0
LINE
  5
137
330
1F
100
AcDbEntity
  8
0
 62
     7
370
    35
100
AcDbLine
 10
424.5
 20
312.950012
 30
0.0
 11
422.327271
 21
312.950012
 31
0.0
  0
LINE
  5
138
330
1F
100
AcDbEntity
  8
0
 62
     7
370
    35
100
AcDbLine
 10
422.327271
 20
312.950012
 30
0.0
 11
416.5
 21
312.950012
 31
0.0
  0
LINE
  5
139
330
1F
100
AcDbEntity
  8
0
 62
     7
370
    35
100
AcDbLine
 10
424.5
 20
312.75
 30
0.0
 11
424.5
 21
312.950012
 31
0.0
  0
LINE
  5
13A
330
1F
100
AcDbEntity
  8
0
 62
     7
370
    35
100
AcDbLine
 10
416.5
 20
312.75
 30
0.0
 11
416.5
 21
312.950012
 31
0.0
  0
LINE
  5
13B
330
1F
100
AcDbEntity
  8
0
 62
     7
370
    35
100
AcDbLine
 10
-658.0
 20
310.595947
 30
0.0
 11
-658.0
 21
312.75
 31
0.0
  0
LINE
  5
13C
330
1F
100
AcDbEntity
  8
0
 62
     7
370
    35
100
AcDbLine
 10
-664.5
 20
310.595947
 30
0.0
 11
-664.5
 21
312.75
 31
0.0
  0
LINE
  5
13D
330
1F
100
AcDbEntity
  8
0
 62
     7
370
    35
100
AcDbLine
 10
-664.5
 20
312.75
 30
0.0
 11
-658.0
 21
312.75
 31
0.0
  0
LINE
  5
13E
330
1F
100
AcDbEntity
  8
0
 62
     7
370
    35
100
AcDbLine
 10
-664.5
 20
310.595947
 30
0.0
 11
-664.5
 21
291.049988
 31
0.0
  0
LINE
  5
13F
330
1F
100
AcDbEntity
  8
0
 62
     7
370
    35
100
AcDbLine
 10
-658.0
 20
296.75
 30
0.0
 11
-658.0
 21
291.049988
 31
0.0
  0
ARC
  5
140
330
1F
100
AcDbEntity
  8
0
 62
     7
370
    35
100
AcDbCircle
 10
-658.0
 20
303.25
 30
0.0
 40
6.5
100
AcDbArc
 50
269.999997
 51
90.000003
  0
LINE
  5
141
330
1F
100
AcDbEntity
  8
0
 62
     7
370
    35
100
AcDbLine
 10
-658.0
 20
310.595947
 30
0.0
 11
-658.0
 21
309.75
 31
0.0
  0
CIRCLE
  5
142
330
1F
100
AcDbEntity
  8
0
 62
     7
370
    35
100
AcDbCircle
 10
-658.0
 20
303.25
 30
0.0
 40
5.0
  0
LINE
  5
143
330
1F
100
AcDbEntity
  8
0
 62
     7
370
    35
100
AcDbLine
 10
-664.5
 20
288.75
 30
0.0
 11
-664.5
 21
291.049988
 31
0.0
  0
LINE
  5
144
330
1F
100
AcDbEntity
  8
0
 62
     7
370
    35
100
AcDbLine
 10
-658.0
 20
288.75
 30
0.0
 11
-664.5
 21
288.75
 31
0.0
  0
LINE
  5
145
330
1F
100
AcDbEntity
  8
0
 62
     7
370
    35
100
AcDbLine
 10
-658.0
 20
288.75
 30
0.0
 11
-658.0
 21
291.049988
 31
0.0
  0
LINE
  5
146
330
1F
100
AcDbEntity
  8
0
 62
     7
370
    35
100
AcDbLine
 10
-664.5
 20
288.75
 30
0.0
 11
-664.5
 21
288.049988
 31
0.0
  0
LINE
  5
147
330
1F
100
AcDbEntity
  8
0
 62
     7
370
    35
100
AcDbLine
 10
-658.0
 20
288.049988
 30
0.0
 11
-664.5
 21
288.049988
 31
0.0
  0
LINE
  5
148
330
1F
100
AcDbEntity
  8
0
 62
     7
370
    35
100
AcDbLine
 10
-658.0
 20
288.75
 30
0.0
 11
-658.0
 21
288.049988
 31
0.0
  0
LINE
  5
149
330
1F
100
AcDbEntity
  8
0
 62
     7
370
    35
100
AcDbLine
 10
1505.5
 20
312.75
 30
0.0
 11
1499.0
 21
312.75
 31
0.0
  0
LINE
  5
14A
330
1F
100
AcDbEntity
  8
0
 62
     7
370
    35
100
AcDbLine
 10
1505.5
 20
310.595947
 30
0.0
 11
1505.5
 21
312.75
 31
0.0
  0
LINE
  5
14B
330
1F
100
AcDbEntity
  8
0
 62
     7
370
    35
100
AcDbLine
 10
1499.0
 20
310.595947
 30
0.0
 11
1499.0
 21
312.75
 31
0.0
  0
LINE
  5
14C
330
1F
100
AcDbEntity
  8
0
 62
     7
370
    35
100
AcDbLine
 10
1499.0
 20
310.595947
 30
0.0
 11
1499.0
 21
309.75
 31
0.0
  0
ARC
  5
14D
330
1F
100
AcDbEntity
  8
0
 62
     7
370
    35
100
AcDbCircle
 10
1499.0
 20
303.25
 30
0.0
 40
6.5
100
AcDbArc
 50
90.000003
 51
269.999997
  0
LINE
  5
14E
330
1F
100
AcDbEntity
  8
0
 62
     7
370
    35
100
AcDbLine
 10
1499.0
 20
296.75
 30
0.0
 11
1499.0
 21
291.049988
 31
0.0
  0
LINE
  5
14F
330
1F
100
AcDbEntity
  8
0
 62
     7
370
    35
100
AcDbLine
 10
1505.5
 20
310.595947
 30
0.0
 11
1505.5
 21
291.049988
 31
0.0
  0
CIRCLE
  5
150
330
1F
100
AcDbEntity
  8
0
 62
     7
370
    35
100
AcDbCircle
 10
1499.0
 20
303.25
 30
0.0
 40
5.0
  0
LINE
  5
151
330
1F
100
AcDbEntity
  8
0
 62
     7
370
    35
100
AcDbLine
 10
1499.0
 20
288.75
 30
0.0
 11
1499.0
 21
291.049988
 31
0.0
  0
LINE
  5
152
330
1F
100
AcDbEntity
  8
0
 62
     7
370
    35
100
AcDbLine
 10
1499.0
 20
288.75
 30
0.0
 11
1505.5
 21
288.75
 31
0.0
  0
LINE
  5
153
330
1F
100
AcDbEntity
  8
0
 62
     7
370
    35
100
AcDbLine
 10
1505.5
 20
288.75
 30
0.0
 11
1505.5
 21
291.049988
 31
0.0
  0
LINE
  5
154
330
1F
100
AcDbEntity
  8
0
 62
     7
370
    35
100
AcDbLine
 10
1499.0
 20
288.75
 30
0.0
 11
1499.0
 21
288.049988
 31
0.0
  0
LINE
  5
155
330
1F
100
AcDbEntity
  8
0
 62
     7
370
    35
100
AcDbLine
 10
1499.0
 20
288.049988
 30
0.0
 11
1505.5
 21
288.049988
 31
0.0
  0
LINE
  5
156
330
1F
100
AcDbEntity
  8
0
 62
     7
370
    35
100
AcDbLine
 10
1505.5
 20
288.75
 30
0.0
 11
1505.5
 21
288.049988
 31
0.0
  0
LINE
  5
157
330
1F
100
AcDbEntity
  8
0
  6
DASHDOT
 62
     7
 48
0.208051
370
    13
100
AcDbLine
 10
-532.338989
 20
125.042496
 30
0.0
 11
-540.661011
 21
125.042496
 31
0.0
  0
LINE
  5
158
330
1F
100
AcDbEntity
  8
0
  6
DASHDOT
 62
     7
 48
0.20805
370
    13
100
AcDbLine
 10
-536.5
 20
129.203491
 30
0.0
 11
-536.5
 21
120.881493
 31
0.0
  0
LINE
  5
159
330
1F
100
AcDbEntity
  8
0
  6
DASHDOT
 62
     7
 48
0.208051
370
    13
100
AcDbLine
 10
-568.338989
 20
125.042496
 30
0.0
 11
-576.661011
 21
125.042496
 31
0.0
  0
LINE
  5
15A
330
1F
100
AcDbEntity
  8
0
  6
DASHDOT
 62
     7
 48
0.20805
370
    13
100
AcDbLine
 10
-572.5
 20
129.203491
 30
0.0
 11
-572.5
 21
120.881493
 31
0.0
  0
LINE
  5
15B
330
1F
100
AcDbEntity
  8
0
 62
     7
370
    35
100
AcDbLine
 10
1499.0
 20
130.342499
 30
0.0
 11
-524.5
 21
130.342499
 31
0.0
  0
LINE
  5
15C
330
1F
100
AcDbEntity
  8
0
 62
     7
370
    35
100
AcDbLine
 10
-547.0
 20
130.342499
 30
0.0
 11
-549.5
 21
130.342499
 31
0.0
  0
LINE
  5
15D
330
1F
100
AcDbEntity
  8
0
 62
     7
370
    35
100
AcDbLine
 10
-559.5
 20
130.342499
 30
0.0
 11
-562.0
 21
130.342499
 31
0.0
  0
LINE
  5
15E
330
1F
100
AcDbEntity
  8
0
 62
     7
370
    35
100
AcDbLine
 10
-584.5
 20
130.342499
 30
0.0
 11
-658.0
 21
130.342499
 31
0.0
  0
LINE
  5
15F
330
1F
100
AcDbEntity
  8
0
 62
     7
370
    35
100
AcDbLine
 10
1499.0
 20
124.642494
 30
0.0
 11
-524.5
 21
124.642494
 31
0.0
  0
LINE
  5
160
330
1F
100
AcDbEntity
  8
0
 62
     7
370
    35
100
AcDbLine
 10
-623.5
 20
124.642494
 30
0.0
 11
-658.0
 21
124.642494
 31
0.0
  0
LINE
  5
161
330
1F
100
AcDbEntity
  8
0
 62
     7
370
    35
100
AcDbLine
 10
-658.0
 20
120.742493
 30
0.0
 11
-584.5
 21
120.742493
 31
0.0
  0
LINE
  5
162
330
1F
100
AcDbEntity
  8
0
 62
     7
370
    35
100
AcDbLine
 10
-524.5
 20
120.742493
 30
0.0
 11
1499.0
 21
120.742493
 31
0.0
  0
LINE
  5
163
330
1F
100
AcDbEntity
  8
0
 62
     7
370
    35
100
AcDbLine
 10
1499.0
 20
111.142494
 30
0.0
 11
-658.0
 21
111.142494
 31
0.0
  0
LINE
  5
164
330
1F
100
AcDbEntity
  8
0
 62
     7
370
    35
100
AcDbLine
 10
1499.0
 20
116.842491
 30
0.0
 11
-658.0
 21
116.842491
 31
0.0
  0
LINE
  5
165
330
1F
100
AcDbEntity
  8
0
 62
     7
370
    35
100
AcDbLine
 10
-658.0
 20
122.57415
 30
0.0
 11
-623.5
 21
122.57415
 31
0.0
  0
LINE
  5
166
330
1F
100
AcDbEntity
  8
0
 62
     7
370
    35
100
AcDbLine
 10
-524.5
 20
122.57415
 30
0.0
 11
1499.0
 21
122.57415
 31
0.0
  0
LINE
  5
167
330
1F
100
AcDbEntity
  8
0
 62
     7
370
    35
100
AcDbLine
 10
1499.0
 20
118.910835
 30
0.0
 11
-658.0
 21
118.910835
 31
0.0
  0
LINE
  5
168
330
1F
100
AcDbEntity
  8
0
 62
     7
370
    35
100
AcDbLine
 10
-641.0
 20
130.542496
 30
0.0
 11
-641.0
 21
130.342484
 31
0.0
  0
LINE
  5
169
330
1F
100
AcDbEntity
  8
0
 62
     7
370
    35
100
AcDbLine
 10
-645.0
 20
130.542496
 30
0.0
 11
-645.0
 21
130.342484
 31
0.0
  0
LINE
  5
16A
330
1F
100
AcDbEntity
  8
0
 62
     7
370
    35
100
AcDbLine
 10
-644.700012
 20
130.842499
 30
0.0
 11
-641.299988
 21
130.842499
 31
0.0
  0
ARC
  5
16B
330
1F
100
AcDbEntity
  8
0
 62
     7
370
    35
100
AcDbCircle
 10
-641.299988
 20
130.542496
 30
0.0
 40
0.3
100
AcDbArc
 50
0.0
 51
90.000003
  0
ARC
  5
16C
330
1F
100
AcDbEntity
  8
0
 62
     7
370
    35
100
AcDbCircle
 10
-644.700012
 20
130.542496
 30
0.0
 40
0.3
100
AcDbArc
 50
90.000003
 51
180.000005
  0
LINE
  5
16D
330
1F
100
AcDbEntity
  8
0
 62
     7
370
    35
100
AcDbLine
 10
-641.0
 20
110.94249
 30
0.0
 11
-641.0
 21
111.142487
 31
0.0
  0
LINE
  5
16E
330
1F
100
AcDbEntity
  8
0
 62
     7
370
    35
100
AcDbLine
 10
-645.0
 20
110.94249
 30
0.0
 11
-645.0
 21
111.142487
 31
0.0
  0
LINE
  5
16F
330
1F
100
AcDbEntity
  8
0
 62
     7
370
    35
100
AcDbLine
 10
-641.299988
 20
110.642494
 30
0.0
 11
-644.700012
 21
110.642494
 31
0.0
  0
ARC
  5
170
330
1F
100
AcDbEntity
  8
0
 62
     7
370
    35
100
AcDbCircle
 10
-641.299988
 20
110.94249
 30
0.0
 40
0.3
100
AcDbArc
 50
269.999997
 51
360.0
  0
ARC
  5
171
330
1F
100
AcDbEntity
  8
0
 62
     7
370
    35
100
AcDbCircle
 10
-644.700012
 20
110.94249
 30
0.0
 40
0.3
100
AcDbArc
 50
180.000005
 51
269.999997
  0
LINE
  5
172
330
1F
100
AcDbEntity
  8
0
 62
     7
370
    35
100
AcDbLine
 10
1486.0
 20
130.542496
 30
0.0
 11
1486.0
 21
130.342484
 31
0.0
  0
LINE
  5
173
330
1F
100
AcDbEntity
  8
0
 62
     7
370
    35
100
AcDbLine
 10
1482.0
 20
130.542496
 30
0.0
 11
1482.0
 21
130.342484
 31
0.0
  0
LINE
  5
174
330
1F
100
AcDbEntity
  8
0
 62
     7
370
    35
100
AcDbLine
 10
1482.300049
 20
130.842499
 30
0.0
 11
1485.699951
 21
130.842499
 31
0.0
  0
ARC
  5
175
330
1F
100
AcDbEntity
  8
0
 62
     7
370
    35
100
AcDbCircle
 10
1485.699951
 20
130.542496
 30
0.0
 40
0.3
100
AcDbArc
 50
0.0
 51
90.000003
  0
ARC
  5
176
330
1F
100
AcDbEntity
  8
0
 62
     7
370
    35
100
AcDbCircle
 10
1482.300049
 20
130.542496
 30
0.0
 40
0.3
100
AcDbArc
 50
90.000003
 51
180.000005
  0
LINE
  5
177
330
1F
100
AcDbEntity
  8
0
 62
     7
370
    35
100
AcDbLine
 10
1486.0
 20
110.94249
 30
0.0
 11
1486.0
 21
111.142487
 31
0.0
  0
LINE
  5
178
330
1F
100
AcDbEntity
  8
0
 62
     7
370
    35
100
AcDbLine
 10
1482.0
 20
110.94249
 30
0.0
 11
1482.0
 21
111.142487
 31
0.0
  0
LINE
  5
179
330
1F
100
AcDbEntity
  8
0
 62
     7
370
    35
100
AcDbLine
 10
1485.699951
 20
110.642494
 30
0.0
 11
1482.300049
 21
110.642494
 31
0.0
  0
ARC
  5
17A
330
1F
100
AcDbEntity
  8
0
 62
     7
370
    35
100
AcDbCircle
 10
1485.699951
 20
110.94249
 30
0.0
 40
0.3
100
AcDbArc
 50
269.999997
 51
360.0
  0
ARC
  5
17B
330
1F
100
AcDbEntity
  8
0
 62
     7
370
    35
100
AcDbCircle
 10
1482.300049
 20
110.94249
 30
0.0
 40
0.3
100
AcDbArc
 50
180.000005
 51
269.999997
  0
LINE
  5
17C
330
1F
100
AcDbEntity
  8
0
 62
     7
370
    35
100
AcDbLine
 10
-655.650818
 20
110.19249
 30
0.0
 11
-662.900024
 21
110.19249
 31
0.0
  0
LINE
  5
17D
330
1F
100
AcDbEntity
  8
0
 62
     7
370
    35
100
AcDbLine
 10
-653.099976
 20
110.19249
 30
0.0
 11
-655.650818
 21
110.19249
 31
0.0
  0
LINE
  5
17E
330
1F
100
AcDbEntity
  8
0
 62
     7
370
    35
100
AcDbLine
 10
-653.509827
 20
110.042496
 30
0.0
 11
-655.84729
 21
110.042496
 31
0.0
  0
LINE
  5
17F
330
1F
100
AcDbEntity
  8
0
 62
     7
370
    35
100
AcDbLine
 10
-655.84729
 20
110.042496
 30
0.0
 11
-662.490173
 21
110.042496
 31
0.0
  0
LINE
  5
180
330
1F
100
AcDbEntity
  8
0
 62
     7
370
    35
100
AcDbLine
 10
-662.900024
 20
110.19249
 30
0.0
 11
-662.900024
 21
110.642487
 31
0.0
  0
LINE
  5
181
330
1F
100
AcDbEntity
  8
0
 62
     7
370
    35
100
AcDbLine
 10
-653.099976
 20
110.19249
 30
0.0
 11
-653.099976
 21
111.142487
 31
0.0
  0
LINE
  5
182
330
1F
100
AcDbEntity
  8
0
 62
     7
370
    35
100
AcDbLine
 10
-653.509827
 20
110.042496
 30
0.0
 11
-653.25
 21
110.19249
 31
0.0
  0
LINE
  5
183
330
1F
100
AcDbEntity
  8
0
 62
     7
370
    35
100
AcDbLine
 10
-662.490173
 20
110.042496
 30
0.0
 11
-662.75
 21
110.19249
 31
0.0
  0
LINE
  5
184
330
1F
100
AcDbEntity
  8
0
 62
     7
370
    35
100
AcDbLine
 10
1494.699951
 20
110.19249
 30
0.0
 11
1494.100098
 21
110.19249
 31
0.0
  0
LINE
  5
185
330
1F
100
AcDbEntity
  8
0
 62
     7
370
    35
100
AcDbLine
 10
1503.899902
 20
110.19249
 30
0.0
 11
1494.699951
 21
110.19249
 31
0.0
  0
LINE
  5
186
330
1F
100
AcDbEntity
  8
0
 62
     7
370
    35
100
AcDbLine
 10
1503.490234
 20
110.042496
 30
0.0
 11
1495.05957
 21
110.042496
 31
0.0
  0
LINE
  5
187
330
1F
100
AcDbEntity
  8
0
 62
     7
370
    35
100
AcDbLine
 10
1495.05957
 20
110.042496
 30
0.0
 11
1494.509766
 21
110.042496
 31
0.0
  0
LINE
  5
188
330
1F
100
AcDbEntity
  8
0
 62
     7
370
    35
100
AcDbLine
 10
1494.100098
 20
110.19249
 30
0.0
 11
1494.100098
 21
111.142487
 31
0.0
  0
LINE
  5
189
330
1F
100
AcDbEntity
  8
0
 62
     7
370
    35
100
AcDbLine
 10
1503.899902
 20
110.19249
 30
0.0
 11
1503.899902
 21
110.642487
 31
0.0
  0
LINE
  5
18A
330
1F
100
AcDbEntity
  8
0
 62
     7
370
    35
100
AcDbLine
 10
1503.490234
 20
110.042496
 30
0.0
 11
1503.75
 21
110.19249
 31
0.0
  0
LINE
  5
18B
330
1F
100
AcDbEntity
  8
0
 62
     7
370
    35
100
AcDbLine
 10
1494.509766
 20
110.042496
 30
0.0
 11
1494.25
 21
110.19249
 31
0.0
  0
LINE
  5
18C
330
1F
100
AcDbEntity
  8
0
 62
     7
370
    35
100
AcDbLine
 10
410.5
 20
110.042496
 30
0.0
 11
410.5
 21
111.142487
 31
0.0
  0
LINE
  5
18D
330
1F
100
AcDbEntity
  8
0
 62
     7
370
    35
100
AcDbLine
 10
413.5
 20
110.042496
 30
0.0
 11
410.5
 21
110.042496
 31
0.0
  0
LINE
  5
18E
330
1F
100
AcDbEntity
  8
0
 62
     7
370
    35
100
AcDbLine
 10
427.5
 20
110.042496
 30
0.0
 11
413.5
 21
110.042496
 31
0.0
  0
LINE
  5
18F
330
1F
100
AcDbEntity
  8
0
 62
     7
370
    35
100
AcDbLine
 10
430.5
 20
110.042496
 30
0.0
 11
427.5
 21
110.042496
 31
0.0
  0
LINE
  5
190
330
1F
100
AcDbEntity
  8
0
 62
     7
370
    35
100
AcDbLine
 10
430.5
 20
110.042496
 30
0.0
 11
430.5
 21
111.142487
 31
0.0
  0
LINE
  5
191
330
1F
100
AcDbEntity
  8
0
 62
     7
370
    35
100
AcDbLine
 10
-548.5
 20
119.142494
 30
0.0
 11
-534.0
 21
119.142494
 31
0.0
  0
LINE
  5
192
330
1F
100
AcDbEntity
  8
0
 62
     7
370
    35
100
AcDbLine
 10
-548.5
 20
119.142494
 30
0.0
 11
-548.5
 21
119.242477
 31
0.0
  0
LINE
  5
193
330
1F
100
AcDbEntity
  8
0
 62
     7
370
    35
100
AcDbLine
 10
-524.5
 20
131.042496
 30
0.0
 11
-524.5
 21
119.042496
 31
0.0
  0
LINE
  5
194
330
1F
100
AcDbEntity
  8
0
 62
     7
370
    35
100
AcDbLine
 10
-547.0
 20
131.042496
 30
0.0
 11
-524.5
 21
131.042496
 31
0.0
  0
LINE
  5
195
330
1F
100
AcDbEntity
  8
0
 62
     7
370
    35
100
AcDbLine
 10
-547.0
 20
121.642494
 30
0.0
 11
-534.0
 21
121.642494
 31
0.0
  0
LINE
  5
196
330
1F
100
AcDbEntity
  8
0
 62
     7
370
    35
100
AcDbLine
 10
-534.0
 20
119.042496
 30
0.0
 11
-534.0
 21
121.642494
 31
0.0
  0
LINE
  5
197
330
1F
100
AcDbEntity
  8
0
 62
     7
370
    35
100
AcDbLine
 10
-534.0
 20
119.042496
 30
0.0
 11
-524.5
 21
119.042496
 31
0.0
  0
LINE
  5
198
330
1F
100
AcDbEntity
  8
0
 62
     7
370
    35
100
AcDbLine
 10
-547.0
 20
131.042496
 30
0.0
 11
-547.0
 21
130.242493
 31
0.0
  0
LINE
  5
199
330
1F
100
AcDbEntity
  8
0
 62
     7
370
    35
100
AcDbLine
 10
-547.0
 20
130.242493
 30
0.0
 11
-547.0
 21
121.642494
 31
0.0
  0
CIRCLE
  5
19A
330
1F
100
AcDbEntity
  8
0
 62
     7
370
    35
100
AcDbCircle
 10
-536.5
 20
125.042496
 30
0.0
 40
1.621
  0
LINE
  5
19B
330
1F
100
AcDbEntity
  8
0
 62
     7
370
    35
100
AcDbLine
 10
-562.0
 20
131.042496
 30
0.0
 11
-562.0
 21
130.242493
 31
0.0
  0
LINE
  5
19C
330
1F
100
AcDbEntity
  8
0
 62
     7
370
    35
100
AcDbLine
 10
-562.0
 20
130.242493
 30
0.0
 11
-562.0
 21
121.642494
 31
0.0
  0
LINE
  5
19D
330
1F
100
AcDbEntity
  8
0
 62
     7
370
    35
100
AcDbLine
 10
-584.5
 20
131.042496
 30
0.0
 11
-562.0
 21
131.042496
 31
0.0
  0
LINE
  5
19E
330
1F
100
AcDbEntity
  8
0
 62
     7
370
    35
100
AcDbLine
 10
-575.0
 20
119.042496
 30
0.0
 11
-575.0
 21
121.642494
 31
0.0
  0
LINE
  5
19F
330
1F
100
AcDbEntity
  8
0
 62
     7
370
    35
100
AcDbLine
 10
-575.0
 20
121.642494
 30
0.0
 11
-562.0
 21
121.642494
 31
0.0
  0
LINE
  5
1A0
330
1F
100
AcDbEntity
  8
0
 62
     7
370
    35
100
AcDbLine
 10
-584.5
 20
131.042496
 30
0.0
 11
-584.5
 21
119.042496
 31
0.0
  0
LINE
  5
1A1
330
1F
100
AcDbEntity
  8
0
 62
     7
370
    35
100
AcDbLine
 10
-584.5
 20
119.042496
 30
0.0
 11
-575.0
 21
119.042496
 31
0.0
  0
CIRCLE
  5
1A2
330
1F
100
AcDbEntity
  8
0
 62
     7
370
    35
100
AcDbCircle
 10
-572.5
 20
125.042496
 30
0.0
 40
1.621000000000002
  0
LINE
  5
1A3
330
1F
100
AcDbEntity
  8
0
 62
     7
370
    35
100
AcDbLine
 10
-559.5
 20
130.742493
 30
0.0
 11
-556.5
 21
130.742493
 31
0.0
  0
LINE
  5
1A4
330
1F
100
AcDbEntity
  8
0
 62
     7
370
    35
100
AcDbLine
 10
-556.5
 20
130.742493
 30
0.0
 11
-552.5
 21
130.742493
 31
0.0
  0
LINE
  5
1A5
330
1F
100
AcDbEntity
  8
0
 62
     7
370
    35
100
AcDbLine
 10
-552.5
 20
130.742493
 30
0.0
 11
-549.5
 21
130.742493
 31
0.0
  0
LINE
  5
1A6
330
1F
100
AcDbEntity
  8
0
 62
     7
370
    35
100
AcDbLine
 10
-549.5
 20
130.242493
 30
0.0
 11
-549.5
 21
130.742493
 31
0.0
  0
LINE
  5
1A7
330
1F
100
AcDbEntity
  8
0
 62
     7
370
    35
100
AcDbLine
 10
-559.5
 20
130.242493
 30
0.0
 11
-559.5
 21
130.742493
 31
0.0
  0
LINE
  5
1A8
330
1F
100
AcDbEntity
  8
0
 62
     7
370
    35
100
AcDbLine
 10
-556.5
 20
130.242493
 30
0.0
 11
-556.5
 21
130.742493
 31
0.0
  0
LINE
  5
1A9
330
1F
100
AcDbEntity
  8
0
 62
     7
370
    35
100
AcDbLine
 10
-552.5
 20
130.242493
 30
0.0
 11
-552.5
 21
130.742493
 31
0.0
  0
LINE
  5
1AA
330
1F
100
AcDbEntity
  8
0
 62
     7
370
    35
100
AcDbLine
 10
-562.0
 20
121.642494
 30
0.0
 11
-547.0
 21
121.642494
 31
0.0
  0
LINE
  5
1AB
330
1F
100
AcDbEntity
  8
0
 62
     7
370
    35
100
AcDbLine
 10
-562.0
 20
130.242493
 30
0.0
 11
-547.0
 21
130.242493
 31
0.0
  0
LINE
  5
1AC
330
1F
100
AcDbEntity
  8
0
 62
     7
370
    35
100
AcDbLine
 10
-575.0
 20
119.142494
 30
0.0
 11
-560.5
 21
119.142494
 31
0.0
  0
LINE
  5
1AD
330
1F
100
AcDbEntity
  8
0
 62
     7
370
    35
100
AcDbLine
 10
-560.5
 20
119.142494
 30
0.0
 11
-560.5
 21
119.242493
 31
0.0
  0
LINE
  5
1AE
330
1F
100
AcDbEntity
  8
0
 62
     7
370
    35
100
AcDbLine
 10
-534.099976
 20
119.242493
 30
0.0
 11
-534.099976
 21
121.042496
 31
0.0
  0
LINE
  5
1AF
330
1F
100
AcDbEntity
  8
0
 62
     7
370
    35
100
AcDbLine
 10
-534.099976
 20
119.242493
 30
0.0
 11
-534.0
 21
119.242493
 31
0.0
  0
LINE
  5
1B0
330
1F
100
AcDbEntity
  8
0
 62
     7
370
    35
100
AcDbLine
 10
-524.5
 20
119.242493
 30
0.0
 11
-524.5
 21
122.94249
 31
0.0
  0
LINE
  5
1B1
330
1F
100
AcDbEntity
  8
0
 62
     7
370
    35
100
AcDbLine
 10
-558.5
 20
118.94249
 30
0.0
 11
-550.5
 21
118.94249
 31
0.0
  0
LINE
  5
1B2
330
1F
100
AcDbEntity
  8
0
 62
     7
370
    35
100
AcDbLine
 10
-574.900024
 20
119.242493
 30
0.0
 11
-534.099976
 21
119.242493
 31
0.0
  0
LINE
  5
1B3
330
1F
100
AcDbEntity
  8
0
 62
     7
370
    35
100
AcDbLine
 10
-574.900024
 20
119.242493
 30
0.0
 11
-574.900024
 21
121.042496
 31
0.0
  0
LINE
  5
1B4
330
1F
100
AcDbEntity
  8
0
 62
     7
370
    35
100
AcDbLine
 10
-574.900024
 20
121.042496
 30
0.0
 11
-534.099976
 21
121.042496
 31
0.0
  0
LINE
  5
1B5
330
1F
100
AcDbEntity
  8
0
 62
     7
370
    35
100
AcDbLine
 10
-574.900024
 20
119.242493
 30
0.0
 11
-575.0
 21
119.242493
 31
0.0
  0
LINE
  5
1B6
330
1F
100
AcDbEntity
  8
0
 62
     7
370
    35
100
AcDbLine
 10
-550.5
 20
118.94249
 30
0.0
 11
-548.5
 21
119.242493
 31
0.0
  0
LINE
  5
1B7
330
1F
100
AcDbEntity
  8
0
 62
     7
370
    35
100
AcDbLine
 10
-558.5
 20
118.94249
 30
0.0
 11
-560.5
 21
119.242493
 31
0.0
  0
LINE
  5
1B8
330
1F
100
AcDbEntity
  8
0
 62
     7
370
    35
100
AcDbLine
 10
-562.0
 20
121.642494
 30
0.0
 11
-547.0
 21
121.642494
 31
0.0
  0
LINE
  5
1B9
330
1F
100
AcDbEntity
  8
0
 62
     7
370
    35
100
AcDbLine
 10
-575.0
 20
121.642494
 30
0.0
 11
-575.0
 21
120.142494
 31
0.0
  0
LINE
  5
1BA
330
1F
100
AcDbEntity
  8
0
 62
     7
370
    35
100
AcDbLine
 10
-575.0
 20
120.142494
 30
0.0
 11
-534.0
 21
120.142494
 31
0.0
  0
LINE
  5
1BB
330
1F
100
AcDbEntity
  8
0
 62
     7
370
    35
100
AcDbLine
 10
-584.5
 20
121.69249
 30
0.0
 11
-623.5
 21
121.69249
 31
0.0
  0
LINE
  5
1BC
330
1F
100
AcDbEntity
  8
0
 62
     7
370
    35
100
AcDbLine
 10
-584.5
 20
127.19249
 30
0.0
 11
-623.5
 21
127.19249
 31
0.0
  0
LINE
  5
1BD
330
1F
100
AcDbEntity
  8
0
 62
     7
370
    35
100
AcDbLine
 10
-623.5
 20
121.69249
 30
0.0
 11
-623.5
 21
127.19249
 31
0.0
  0
LINE
  5
1BE
330
1F
100
AcDbEntity
  8
0
 62
     7
370
    35
100
AcDbLine
 10
-658.0
 20
131.042496
 30
0.0
 11
-664.5
 21
131.042496
 31
0.0
  0
LINE
  5
1BF
330
1F
100
AcDbEntity
  8
0
 62
     7
370
    35
100
AcDbLine
 10
-658.0
 20
131.042496
 30
0.0
 11
-651.5
 21
131.042496
 31
0.0
  0
LINE
  5
1C0
330
1F
100
AcDbEntity
  8
0
 62
     7
370
    35
100
AcDbLine
 10
-664.5
 20
128.742493
 30
0.0
 11
-664.5
 21
131.042496
 31
0.0
  0
LINE
  5
1C1
330
1F
100
AcDbEntity
  8
0
 62
     7
370
    35
100
AcDbLine
 10
-658.0
 20
128.742493
 30
0.0
 11
-658.0
 21
131.042496
 31
0.0
  0
LINE
  5
1C2
330
1F
100
AcDbEntity
  8
0
 62
     7
370
    35
100
AcDbLine
 10
-664.5
 20
128.742493
 30
0.0
 11
-664.5
 21
124.342491
 31
0.0
  0
LINE
  5
1C3
330
1F
100
AcDbEntity
  8
0
 62
     7
370
    35
100
AcDbLine
 10
-658.0
 20
124.342491
 30
0.0
 11
-664.5
 21
124.342491
 31
0.0
  0
LINE
  5
1C4
330
1F
100
AcDbEntity
  8
0
 62
     7
370
    35
100
AcDbLine
 10
-658.0
 20
128.742493
 30
0.0
 11
-658.0
 21
124.342491
 31
0.0
  0
LINE
  5
1C5
330
1F
100
AcDbEntity
  8
0
 62
     7
370
    35
100
AcDbLine
 10
-664.5
 20
124.342491
 30
0.0
 11
-664.5
 21
121.592491
 31
0.0
  0
LINE
  5
1C6
330
1F
100
AcDbEntity
  8
0
 62
     7
370
    35
100
AcDbLine
 10
-658.0
 20
121.592491
 30
0.0
 11
-664.5
 21
121.592491
 31
0.0
  0
LINE
  5
1C7
330
1F
100
AcDbEntity
  8
0
 62
     7
370
    35
100
AcDbLine
 10
-658.0
 20
124.342491
 30
0.0
 11
-658.0
 21
121.592491
 31
0.0
  0
LINE
  5
1C8
330
1F
100
AcDbEntity
  8
0
 62
     7
370
    35
100
AcDbLine
 10
-664.5
 20
121.592491
 30
0.0
 11
-664.5
 21
120.092491
 31
0.0
  0
LINE
  5
1C9
330
1F
100
AcDbEntity
  8
0
 62
     7
370
    35
100
AcDbLine
 10
-658.0
 20
120.092491
 30
0.0
 11
-664.5
 21
120.092491
 31
0.0
  0
LINE
  5
1CA
330
1F
100
AcDbEntity
  8
0
 62
     7
370
    35
100
AcDbLine
 10
-658.0
 20
121.592491
 30
0.0
 11
-658.0
 21
120.092491
 31
0.0
  0
LINE
  5
1CB
330
1F
100
AcDbEntity
  8
0
 62
     7
370
    35
100
AcDbLine
 10
-664.5
 20
120.092491
 30
0.0
 11
-664.5
 21
117.342491
 31
0.0
  0
LINE
  5
1CC
330
1F
100
AcDbEntity
  8
0
 62
     7
370
    35
100
AcDbLine
 10
-658.0
 20
117.342491
 30
0.0
 11
-664.5
 21
117.342491
 31
0.0
  0
LINE
  5
1CD
330
1F
100
AcDbEntity
  8
0
 62
     7
370
    35
100
AcDbLine
 10
-658.0
 20
120.092491
 30
0.0
 11
-658.0
 21
117.342491
 31
0.0
  0
LINE
  5
1CE
330
1F
100
AcDbEntity
  8
0
 62
     7
370
    35
100
AcDbLine
 10
-658.0
 20
117.342491
 30
0.0
 11
-658.0
 21
112.94249
 31
0.0
  0
LINE
  5
1CF
330
1F
100
AcDbEntity
  8
0
 62
     7
370
    35
100
AcDbLine
 10
-664.5
 20
117.342491
 30
0.0
 11
-664.5
 21
112.94249
 31
0.0
  0
LINE
  5
1D0
330
1F
100
AcDbEntity
  8
0
 62
     7
370
    35
100
AcDbLine
 10
-664.5
 20
110.642494
 30
0.0
 11
-664.5
 21
112.94249
 31
0.0
  0
LINE
  5
1D1
330
1F
100
AcDbEntity
  8
0
 62
     7
370
    35
100
AcDbLine
 10
-658.0
 20
110.642494
 30
0.0
 11
-664.5
 21
110.642494
 31
0.0
  0
LINE
  5
1D2
330
1F
100
AcDbEntity
  8
0
 62
     7
370
    35
100
AcDbLine
 10
-658.0
 20
110.642494
 30
0.0
 11
-658.0
 21
112.94249
 31
0.0
  0
LINE
  5
1D3
330
1F
100
AcDbEntity
  8
0
 62
     7
370
    35
100
AcDbLine
 10
-651.5
 20
131.042496
 30
0.0
 11
-651.5
 21
130.342484
 31
0.0
  0
LINE
  5
1D4
330
1F
100
AcDbEntity
  8
0
 62
     7
370
    35
100
AcDbLine
 10
1499.0
 20
131.042496
 30
0.0
 11
1492.5
 21
131.042496
 31
0.0
  0
LINE
  5
1D5
330
1F
100
AcDbEntity
  8
0
 62
     7
370
    35
100
AcDbLine
 10
1499.0
 20
131.042496
 30
0.0
 11
1505.5
 21
131.042496
 31
0.0
  0
LINE
  5
1D6
330
1F
100
AcDbEntity
  8
0
 62
     7
370
    35
100
AcDbLine
 10
1499.0
 20
128.742493
 30
0.0
 11
1499.0
 21
131.042496
 31
0.0
  0
LINE
  5
1D7
330
1F
100
AcDbEntity
  8
0
 62
     7
370
    35
100
AcDbLine
 10
1505.5
 20
128.742493
 30
0.0
 11
1505.5
 21
131.042496
 31
0.0
  0
LINE
  5
1D8
330
1F
100
AcDbEntity
  8
0
 62
     7
370
    35
100
AcDbLine
 10
1499.0
 20
128.742493
 30
0.0
 11
1499.0
 21
124.342491
 31
0.0
  0
LINE
  5
1D9
330
1F
100
AcDbEntity
  8
0
 62
     7
370
    35
100
AcDbLine
 10
1499.0
 20
124.342491
 30
0.0
 11
1505.5
 21
124.342491
 31
0.0
  0
LINE
  5
1DA
330
1F
100
AcDbEntity
  8
0
 62
     7
370
    35
100
AcDbLine
 10
1505.5
 20
128.742493
 30
0.0
 11
1505.5
 21
124.342491
 31
0.0
  0
LINE
  5
1DB
330
1F
100
AcDbEntity
  8
0
 62
     7
370
    35
100
AcDbLine
 10
1499.0
 20
124.342491
 30
0.0
 11
1499.0
 21
121.592491
 31
0.0
  0
LINE
  5
1DC
330
1F
100
AcDbEntity
  8
0
 62
     7
370
    35
100
AcDbLine
 10
1499.0
 20
121.592491
 30
0.0
 11
1505.5
 21
121.592491
 31
0.0
  0
LINE
  5
1DD
330
1F
100
AcDbEntity
  8
0
 62
     7
370
    35
100
AcDbLine
 10
1505.5
 20
124.342491
 30
0.0
 11
1505.5
 21
121.592491
 31
0.0
  0
LINE
  5
1DE
330
1F
100
AcDbEntity
  8
0
 62
     7
370
    35
100
AcDbLine
 10
1499.0
 20
121.592491
 30
0.0
 11
1499.0
 21
120.092491
 31
0.0
  0
LINE
  5
1DF
330
1F
100
AcDbEntity
  8
0
 62
     7
370
    35
100
AcDbLine
 10
1499.0
 20
120.092491
 30
0.0
 11
1505.5
 21
120.092491
 31
0.0
  0
LINE
  5
1E0
330
1F
100
AcDbEntity
  8
0
 62
     7
370
    35
100
AcDbLine
 10
1505.5
 20
121.592491
 30
0.0
 11
1505.5
 21
120.092491
 31
0.0
  0
LINE
  5
1E1
330
1F
100
AcDbEntity
  8
0
 62
     7
370
    35
100
AcDbLine
 10
1499.0
 20
120.092491
 30
0.0
 11
1499.0
 21
117.342491
 31
0.0
  0
LINE
  5
1E2
330
1F
100
AcDbEntity
  8
0
 62
     7
370
    35
100
AcDbLine
 10
1499.0
 20
117.342491
 30
0.0
 11
1505.5
 21
117.342491
 31
0.0
  0
LINE
  5
1E3
330
1F
100
AcDbEntity
  8
0
 62
     7
370
    35
100
AcDbLine
 10
1505.5
 20
120.092491
 30
0.0
 11
1505.5
 21
117.342491
 31
0.0
  0
LINE
  5
1E4
330
1F
100
AcDbEntity
  8
0
 62
     7
370
    35
100
AcDbLine
 10
1505.5
 20
117.342491
 30
0.0
 11
1505.5
 21
112.94249
 31
0.0
  0
LINE
  5
1E5
330
1F
100
AcDbEntity
  8
0
 62
     7
370
    35
100
AcDbLine
 10
1499.0
 20
117.342491
 30
0.0
 11
1499.0
 21
112.94249
 31
0.0
  0
LINE
  5
1E6
330
1F
100
AcDbEntity
  8
0
 62
     7
370
    35
100
AcDbLine
 10
1499.0
 20
110.642494
 30
0.0
 11
1499.0
 21
112.94249
 31
0.0
  0
LINE
  5
1E7
330
1F
100
AcDbEntity
  8
0
 62
     7
370
    35
100
AcDbLine
 10
1499.0
 20
110.642494
 30
0.0
 11
1505.5
 21
110.642494
 31
0.0
  0
LINE
  5
1E8
330
1F
100
AcDbEntity
  8
0
 62
     7
370
    35
100
AcDbLine
 10
1505.5
 20
110.642494
 30
0.0
 11
1505.5
 21
112.94249
 31
0.0
  0
LINE
  5
1E9
330
1F
100
AcDbEntity
  8
0
 62
     7
370
    35
100
AcDbLine
 10
1492.5
 20
130.342484
 30
0.0
 11
1492.5
 21
131.042496
 31
0.0
  0
LINE
  5
1EA
330
1F
100
AcDbEntity
  8
0
  6
DASHDOT
 62
     7
 48
0.276999
370
    13
100
AcDbLine
 10
1598.323364
 20
284.25
 30
0.0
 11
1587.243408
 21
284.25
 31
0.0
  0
LINE
  5
1EB
330
1F
100
AcDbEntity
  8
0
  6
DASHDOT
 62
     7
 48
0.277
370
    13
100
AcDbLine
 10
1592.783325
 20
289.790009
 30
0.0
 11
1592.783325
 21
278.709991
 31
0.0
  0
LINE
  5
1EC
330
1F
100
AcDbEntity
  8
0
  6
DASHDOT
 62
     7
 48
0.264499
370
    13
100
AcDbLine
 10
1598.273315
 20
284.25
 30
0.0
 11
1587.693359
 21
284.25
 31
0.0
  0
LINE
  5
1ED
330
1F
100
AcDbEntity
  8
0
  6
DASHDOT
 62
     7
 48
0.2645
370
    13
100
AcDbLine
 10
1592.983398
 20
289.540009
 30
0.0
 11
1592.983398
 21
278.959991
 31
0.0
  0
LINE
  5
1EE
330
1F
100
AcDbEntity
  8
0
 62
     7
370
    35
100
AcDbLine
 10
1590.18335
 20
312.75
 30
0.0
 11
1603.18335
 21
312.75
 31
0.0
  0
LINE
  5
1EF
330
1F
100
AcDbEntity
  8
0
 62
     7
370
    35
100
AcDbLine
 10
1607.233398
 20
308.149994
 30
0.0
 11
1607.233398
 21
305.599182
 31
0.0
  0
LINE
  5
1F0
330
1F
100
AcDbEntity
  8
0
 62
     7
370
    35
100
AcDbLine
 10
1607.233398
 20
305.599182
 30
0.0
 11
1607.233398
 21
298.350006
 31
0.0
  0
LINE
  5
1F1
330
1F
100
AcDbEntity
  8
0
 62
     7
370
    35
100
AcDbLine
 10
1607.383301
 20
305.40271
 30
0.0
 11
1607.383301
 21
298.759796
 31
0.0
  0
LINE
  5
1F2
330
1F
100
AcDbEntity
  8
0
 62
     7
370
    35
100
AcDbLine
 10
1607.383301
 20
307.740204
 30
0.0
 11
1607.383301
 21
305.40271
 31
0.0
  0
LINE
  5
1F3
330
1F
100
AcDbEntity
  8
0
 62
     7
370
    35
100
AcDbLine
 10
1607.233398
 20
308.149994
 30
0.0
 11
1606.783325
 21
308.149994
 31
0.0
  0
LINE
  5
1F4
330
1F
100
AcDbEntity
  8
0
 62
     7
370
    35
100
AcDbLine
 10
1607.233398
 20
298.350006
 30
0.0
 11
1606.783325
 21
298.350006
 31
0.0
  0
LINE
  5
1F5
330
1F
100
AcDbEntity
  8
0
 62
     7
370
    35
100
AcDbLine
 10
1607.383301
 20
298.759796
 30
0.0
 11
1607.233398
 21
298.5
 31
0.0
  0
LINE
  5
1F6
330
1F
100
AcDbEntity
  8
0
 62
     7
370
    35
100
AcDbLine
 10
1607.383301
 20
307.740204
 30
0.0
 11
1607.233398
 21
308.0
 31
0.0
  0
LINE
  5
1F7
330
1F
100
AcDbEntity
  8
0
 62
     7
370
    35
100
AcDbLine
 10
1607.383301
 20
296.25
 30
0.0
 11
1606.782593
 21
296.25
 31
0.0
  0
LINE
  5
1F8
330
1F
100
AcDbEntity
  8
0
 62
     7
370
    35
100
AcDbLine
 10
1607.383301
 20
299.25
 30
0.0
 11
1607.383301
 21
296.25
 31
0.0
  0
LINE
  5
1F9
330
1F
100
AcDbEntity
  8
0
 62
     7
370
    35
100
AcDbLine
 10
1607.383301
 20
307.739471
 30
0.0
 11
1607.383301
 21
318.25
 31
0.0
  0
LINE
  5
1FA
330
1F
100
AcDbEntity
  8
0
 62
     7
370
    35
100
AcDbLine
 10
1605.783325
 20
312.749268
 30
0.0
 11
1605.783325
 21
318.25
 31
0.0
  0
LINE
  5
1FB
330
1F
100
AcDbEntity
  8
0
 62
     7
370
    35
100
AcDbLine
 10
1607.383301
 20
323.25
 30
0.0
 11
1607.383301
 21
318.25
 31
0.0
  0
LINE
  5
1FC
330
1F
100
AcDbEntity
  8
0
 62
     7
370
    35
100
AcDbLine
 10
1607.383301
 20
323.25
 30
0.0
 11
1605.783325
 21
323.25
 31
0.0
  0
LINE
  5
1FD
330
1F
100
AcDbEntity
  8
0
 62
     7
370
    35
100
AcDbLine
 10
1605.783325
 20
323.25
 30
0.0
 11
1605.783325
 21
318.25
 31
0.0
  0
LINE
  5
1FE
330
1F
100
AcDbEntity
  8
0
 62
     7
370
    35
100
AcDbLine
 10
1598.283325
 20
288.25
 30
0.0
 11
1598.283325
 21
288.290802
 31
0.0
  0
LINE
  5
1FF
330
1F
100
AcDbEntity
  8
0
 62
     7
370
    35
100
AcDbLine
 10
1598.283325
 20
287.25
 30
0.0
 11
1598.283325
 21
288.25
 31
0.0
  0
LINE
  5
200
330
1F
100
AcDbEntity
  8
0
 62
     7
370
    35
100
AcDbLine
 10
1598.283325
 20
287.25
 30
0.0
 11
1595.783325
 21
287.25
 31
0.0
  0
LINE
  5
201
330
1F
100
AcDbEntity
  8
0
 62
     7
370
    35
100
AcDbLine
 10
1592.783325
 20
287.25
 30
0.0
 11
1595.783325
 21
287.25
 31
0.0
  0
LINE
  5
202
330
1F
100
AcDbEntity
  8
0
 62
     7
370
    35
100
AcDbLine
 10
1587.18335
 20
288.25
 30
0.0
 11
1595.040771
 21
288.25
 31
0.0
  0
LINE
  5
203
330
1F
100
AcDbEntity
  8
0
 62
     7
370
    35
100
AcDbLine
 10
1598.123047
 20
288.25
 30
0.0
 11
1598.283325
 21
288.25
 31
0.0
  0
LINE
  5
204
330
1F
100
AcDbEntity
  8
0
 62
     7
370
    35
100
AcDbLine
 10
1587.18335
 20
285.75
 30
0.0
 11
1587.18335
 21
288.25
 31
0.0
  0
LINE
  5
205
330
1F
100
AcDbEntity
  8
0
 62
     7
370
    35
100
AcDbLine
 10
1586.383301
 20
285.75
 30
0.0
 11
1587.18335
 21
285.75
 31
0.0
  0
LINE
  5
206
330
1F
100
AcDbEntity
  8
0
 62
     7
370
    35
100
AcDbLine
 10
1586.383301
 20
285.75
 30
0.0
 11
1586.383301
 21
280.75
 31
0.0
  0
LINE
  5
207
330
1F
100
AcDbEntity
  8
0
 62
     7
370
    35
100
AcDbLine
 10
1586.383301
 20
280.75
 30
0.0
 11
1591.483398
 21
280.75
 31
0.0
  0
LINE
  5
208
330
1F
100
AcDbEntity
  8
0
 62
     7
370
    35
100
AcDbLine
 10
1591.483398
 20
271.75
 30
0.0
 11
1591.483398
 21
280.75
 31
0.0
  0
LINE
  5
209
330
1F
100
AcDbEntity
  8
0
 62
     7
370
    35
100
AcDbLine
 10
1586.383301
 20
271.75
 30
0.0
 11
1591.483398
 21
271.75
 31
0.0
  0
LINE
  5
20A
330
1F
100
AcDbEntity
  8
0
 62
     7
370
    35
100
AcDbLine
 10
1586.383301
 20
271.75
 30
0.0
 11
1586.383301
 21
270.75
 31
0.0
  0
LINE
  5
20B
330
1F
100
AcDbEntity
  8
0
 62
     7
370
    35
100
AcDbLine
 10
1586.383301
 20
270.75
 30
0.0
 11
1598.383301
 21
270.75
 31
0.0
  0
LINE
  5
20C
330
1F
100
AcDbEntity
  8
0
 62
     7
370
    35
100
AcDbLine
 10
1598.383301
 20
281.25
 30
0.0
 11
1598.383301
 21
270.75
 31
0.0
  0
LINE
  5
20D
330
1F
100
AcDbEntity
  8
0
 62
     7
370
    35
100
AcDbLine
 10
1598.383301
 20
281.25
 30
0.0
 11
1595.783325
 21
281.25
 31
0.0
  0
LINE
  5
20E
330
1F
100
AcDbEntity
  8
0
 62
     7
370
    35
100
AcDbLine
 10
1595.783325
 20
281.25
 30
0.0
 11
1592.783325
 21
281.25
 31
0.0
  0
ARC
  5
20F
330
1F
100
AcDbEntity
  8
0
 62
     7
370
    35
100
AcDbCircle
 10
1592.783325
 20
284.25
 30
0.0
 40
3.0
100
AcDbArc
 50
90.000003
 51
269.999997
  0
LINE
  5
210
330
1F
100
AcDbEntity
  8
0
 62
     7
370
    35
100
AcDbLine
 10
1586.383301
 20
271.75
 30
0.0
 11
1586.383301
 21
280.75
 31
0.0
  0
LINE
  5
211
330
1F
100
AcDbEntity
  8
0
 62
     7
370
    35
100
AcDbLine
 10
1595.21936
 20
282.25
 30
0.0
 11
1594.109985
 21
282.25
 31
0.0
  0
LINE
  5
212
330
1F
100
AcDbEntity
  8
0
 62
     7
370
    35
100
AcDbLine
 10
1586.68335
 20
285.749969
 30
0.0
 11
1586.68335
 21
286.25
 31
0.0
  0
LINE
  5
213
330
1F
100
AcDbEntity
  8
0
 62
     7
370
    35
100
AcDbLine
 10
1587.18335
 20
286.25
 30
0.0
 11
1586.68335
 21
286.25
 31
0.0
  0
LINE
  5
214
330
1F
100
AcDbEntity
  8
0
 62
     7
370
    35
100
AcDbLine
 10
1595.783325
 20
285.25
 30
0.0
 11
1594.965088
 21
285.25
 31
0.0
  0
LINE
  5
215
330
1F
100
AcDbEntity
  8
0
 62
     7
370
    35
100
AcDbLine
 10
1593.879028
 20
288.545685
 30
0.0
 11
1593.583374
 21
288.25
 31
0.0
  0
LINE
  5
216
330
1F
100
AcDbEntity
  8
0
 62
     7
370
    35
100
AcDbLine
 10
1598.18335
 20
281.149994
 30
0.0
 11
1594.483398
 21
281.149994
 31
0.0
  0
LINE
  5
217
330
1F
100
AcDbEntity
  8
0
 62
     7
370
    35
100
AcDbLine
 10
1594.483398
 20
281.149994
 30
0.0
 11
1594.483398
 21
281.651917
 31
0.0
  0
ARC
  5
218
330
1F
100
AcDbEntity
  8
0
 62
     7
370
    35
100
AcDbCircle
 10
1592.983398
 20
284.25
 30
0.0
 40
3.0
100
AcDbArc
 50
299.999998
 51
60.000002
  0
LINE
  5
219
330
1F
100
AcDbEntity
  8
0
 62
     7
370
    35
100
AcDbLine
 10
1594.483398
 20
287.350006
 30
0.0
 11
1594.483398
 21
286.848083
 31
0.0
  0
LINE
  5
21A
330
1F
100
AcDbEntity
  8
0
 62
     7
370
    35
100
AcDbLine
 10
1598.18335
 20
287.350006
 30
0.0
 11
1594.483398
 21
287.350006
 31
0.0
  0
LINE
  5
21B
330
1F
100
AcDbEntity
  8
0
 62
     7
370
    35
100
AcDbLine
 10
1598.18335
 20
287.350006
 30
0.0
 11
1598.18335
 21
281.149994
 31
0.0
  0
LINE
  5
21C
330
1F
100
AcDbEntity
  8
0
 62
     7
370
    35
100
AcDbLine
 10
1598.483398
 20
286.25
 30
0.0
 11
1598.483398
 21
288.341705
 31
0.0
  0
LINE
  5
21D
330
1F
100
AcDbEntity
  8
0
 62
     7
370
    35
100
AcDbLine
 10
1598.483398
 20
286.25
 30
0.0
 11
1598.18335
 21
283.25
 31
0.0
  0
LINE
  5
21E
330
1F
100
AcDbEntity
  8
0
 62
     7
370
    35
100
AcDbLine
 10
1595.783325
 20
283.172974
 30
0.0
 11
1595.783325
 21
285.326996
 31
0.0
  0
LINE
  5
21F
330
1F
100
AcDbEntity
  8
0
 62
     7
370
    35
100
AcDbLine
 10
1594.230835
 20
282.335632
 30
0.0
 11
1595.262817
 21
282.299622
 31
0.0
  0
ARC
  5
220
330
1F
100
AcDbEntity
  8
0
 62
     7
370
    35
100
AcDbCircle
 10
1594.083374
 20
281.883575
 30
0.0
 40
0.3
100
AcDbArc
 50
118.782208
 51
180.000005
  0
LINE
  5
221
330
1F
100
AcDbEntity
  8
0
 62
     7
370
    35
100
AcDbLine
 10
1593.483398
 20
281.25
 30
0.0
 11
1592.783325
 21
281.25
 31
0.0
  0
LINE
  5
222
330
1F
100
AcDbEntity
  8
0
 62
     7
370
    35
100
AcDbLine
 10
1593.783325
 20
281.883575
 30
0.0
 11
1593.783325
 21
281.549988
 31
0.0
  0
ARC
  5
223
330
1F
100
AcDbEntity
  8
0
 62
     7
370
    35
100
AcDbCircle
 10
1593.483398
 20
281.549988
 30
0.0
 40
0.2999999999999998
100
AcDbArc
 50
269.999997
 51
360.0
  0
ARC
  5
224
330
1F
100
AcDbEntity
  8
0
 62
     7
370
    35
100
AcDbCircle
 10
1593.483398
 20
286.950012
 30
0.0
 40
0.3
100
AcDbArc
 50
0.0
 51
90.000003
  0
LINE
  5
225
330
1F
100
AcDbEntity
  8
0
 62
     7
370
    35
100
AcDbLine
 10
1593.783325
 20
286.950012
 30
0.0
 11
1593.783325
 21
286.616425
 31
0.0
  0
ARC
  5
226
330
1F
100
AcDbEntity
  8
0
 62
     7
370
    35
100
AcDbCircle
 10
1594.083374
 20
286.616425
 30
0.0
 40
0.2999999999999999
100
AcDbArc
 50
179.999995
 51
241.217792
  0
ARC
  5
227
330
1F
100
AcDbEntity
  8
0
 62
     7
370
    35
100
AcDbCircle
 10
1592.783325
 20
284.25
 30
0.0
 40
2.4
100
AcDbArc
 50
298.782203
 51
61.217797
  0
ARC
  5
228
330
1F
100
AcDbEntity
  8
0
 62
     7
370
    35
100
AcDbCircle
 10
1592.983398
 20
284.25
 30
0.0
 40
2.75
100
AcDbArc
 50
313.341567
 51
315.166024
  0
LINE
  5
229
330
1F
100
AcDbEntity
  8
0
 62
     7
370
    35
100
AcDbLine
 10
1600.583374
 20
312.950012
 30
0.0
 11
1593.025146
 21
312.950012
 31
0.0
  0
LINE
  5
22A
330
1F
100
AcDbEntity
  8
0
 62
     7
370
    35
100
AcDbLine
 10
1593.025146
 20
312.950012
 30
0.0
 11
1592.583374
 21
312.950012
 31
0.0
  0
LINE
  5
22B
330
1F
100
AcDbEntity
  8
0
 62
     7
370
    35
100
AcDbLine
 10
1600.583374
 20
312.75
 30
0.0
 11
1600.583374
 21
312.950012
 31
0.0
  0
LINE
  5
22C
330
1F
100
AcDbEntity
  8
0
 62
     7
370
    35
100
AcDbLine
 10
1592.583374
 20
312.75
 30
0.0
 11
1592.583374
 21
312.950012
 31
0.0
  0
ARC
  5
22D
330
1F
100
AcDbEntity
  8
0
 62
     7
370
    35
100
AcDbCircle
 10
1589.68335
 20
310.595947
 30
0.0
 40
3.3
100
AcDbArc
 50
139.250946
 51
180.000005
  0
LINE
  5
22E
330
1F
100
AcDbEntity
  8
0
 62
     7
370
    35
100
AcDbLine
 10
1605.983398
 20
312.75
 30
0.0
 11
1587.18335
 21
312.75
 31
0.0
  0
LINE
  5
22F
330
1F
100
AcDbEntity
  8
0
 62
     7
370
    35
100
AcDbLine
 10
1586.383301
 20
310.595947
 30
0.0
 11
1586.383301
 21
291.049988
 31
0.0
  0
ARC
  5
230
330
1F
100
AcDbEntity
  8
0
 62
     7
370
    35
100
AcDbCircle
 10
1603.483398
 20
310.595947
 30
0.0
 40
3.3
100
AcDbArc
 50
360.0
 51
40.749055
  0
ARC
  5
231
330
1F
100
AcDbEntity
  8
0
 62
     7
370
    35
100
AcDbCircle
 10
1588.68335
 20
291.049988
 30
0.0
 40
2.3
100
AcDbArc
 50
180.000005
 51
269.999997
  0
LINE
  5
232
330
1F
100
AcDbEntity
  8
0
 62
     7
370
    35
100
AcDbLine
 10
1588.68335
 20
288.75
 30
0.0
 11
1593.083374
 21
288.75
 31
0.0
  0
LINE
  5
233
330
1F
100
AcDbEntity
  8
0
 62
     7
370
    35
100
AcDbLine
 10
1593.083374
 20
288.75
 30
0.0
 11
1595.833374
 21
288.049988
 31
0.0
  0
LINE
  5
234
330
1F
100
AcDbEntity
  8
0
 62
     7
370
    35
100
AcDbLine
 10
1595.833374
 20
288.049988
 30
0.0
 11
1597.333374
 21
288.049988
 31
0.0
  0
LINE
  5
235
330
1F
100
AcDbEntity
  8
0
 62
     7
370
    35
100
AcDbLine
 10
1597.333374
 20
288.049988
 30
0.0
 11
1600.083374
 21
288.75
 31
0.0
  0
LINE
  5
236
330
1F
100
AcDbEntity
  8
0
 62
     7
370
    35
100
AcDbLine
 10
1600.083374
 20
288.75
 30
0.0
 11
1604.483398
 21
288.75
 31
0.0
  0
ARC
  5
237
330
1F
100
AcDbEntity
  8
0
 62
     7
370
    35
100
AcDbCircle
 10
1604.483398
 20
291.049988
 30
0.0
 40
2.300000000000001
100
AcDbArc
 50
269.999997
 51
0.0
  0
LINE
  5
238
330
1F
100
AcDbEntity
  8
0
 62
     7
370
    35
100
AcDbLine
 10
1606.783325
 20
291.049988
 30
0.0
 11
1606.783325
 21
310.595947
 31
0.0
  0
LINE
  5
239
330
1F
100
AcDbEntity
  8
0
 62
     7
370
    35
100
AcDbLine
 10
1605.4729
 20
311.75
 30
0.0
 11
1587.693848
 21
311.75
 31
0.0
  0
ARC
  5
23A
330
1F
100
AcDbEntity
  8
0
 62
     7
370
    35
100
AcDbCircle
 10
1589.68335
 20
310.595947
 30
0.0
 40
2.300000000059505
100
AcDbArc
 50
149.882969
 51
180.000005
  0
LINE
  5
23B
330
1F
100
AcDbEntity
  8
0
 62
     7
370
    35
100
AcDbLine
 10
1587.383301
 20
310.595947
 30
0.0
 11
1587.383301
 21
291.049988
 31
0.0
  0
ARC
  5
23C
330
1F
100
AcDbEntity
  8
0
 62
     7
370
    35
100
AcDbCircle
 10
1588.68335
 20
291.049988
 30
0.0
 40
1.300000000363393
100
AcDbArc
 50
180.000005
 51
269.999997
  0
LINE
  5
23D
330
1F
100
AcDbEntity
  8
0
 62
     7
370
    35
100
AcDbLine
 10
1588.68335
 20
289.75
 30
0.0
 11
1593.208618
 21
289.75
 31
0.0
  0
LINE
  5
23E
330
1F
100
AcDbEntity
  8
0
 62
     7
370
    35
100
AcDbLine
 10
1593.208618
 20
289.75
 30
0.0
 11
1595.958618
 21
289.049988
 31
0.0
  0
LINE
  5
23F
330
1F
100
AcDbEntity
  8
0
 62
     7
370
    35
100
AcDbLine
 10
1595.958618
 20
289.049988
 30
0.0
 11
1597.20813
 21
289.049988
 31
0.0
  0
LINE
  5
240
330
1F
100
AcDbEntity
  8
0
 62
     7
370
    35
100
AcDbLine
 10
1597.20813
 20
289.049988
 30
0.0
 11
1599.95813
 21
289.75
 31
0.0
  0
LINE
  5
241
330
1F
100
AcDbEntity
  8
0
 62
     7
370
    35
100
AcDbLine
 10
1599.95813
 20
289.75
 30
0.0
 11
1604.483398
 21
289.75
 31
0.0
  0
ARC
  5
242
330
1F
100
AcDbEntity
  8
0
 62
     7
370
    35
100
AcDbCircle
 10
1604.483398
 20
291.049988
 30
0.0
 40
1.300000000158153
100
AcDbArc
 50
269.999997
 51
0.0
  0
LINE
  5
243
330
1F
100
AcDbEntity
  8
0
 62
     7
370
    35
100
AcDbLine
 10
1605.783325
 20
291.049988
 30
0.0
 11
1605.783325
 21
310.595947
 31
0.0
  0
ARC
  5
244
330
1F
100
AcDbEntity
  8
0
 62
     7
370
    35
100
AcDbCircle
 10
1603.483398
 20
310.595947
 30
0.0
 40
2.299999999404121
100
AcDbArc
 50
0.0
 51
30.117026
  0
ARC
  5
245
330
1F
100
AcDbEntity
  8
0
 62
     7
370
    35
100
AcDbCircle
 10
1588.633301
 20
300.649994
 30
0.0
 40
0.4000000000000004
100
AcDbArc
 50
180.000005
 51
269.999997
  0
LINE
  5
246
330
1F
100
AcDbEntity
  8
0
 62
     7
370
    35
100
AcDbLine
 10
1588.233398
 20
300.649994
 30
0.0
 11
1588.233398
 21
305.850006
 31
0.0
  0
ARC
  5
247
330
1F
100
AcDbEntity
  8
0
 62
     7
370
    35
100
AcDbCircle
 10
1588.633301
 20
305.850006
 30
0.0
 40
0.3999999999999999
100
AcDbArc
 50
90.000003
 51
180.000005
  0
LINE
  5
248
330
1F
100
AcDbEntity
  8
0
 62
     7
370
    35
100
AcDbLine
 10
1588.633301
 20
306.25
 30
0.0
 11
1604.533325
 21
306.25
 31
0.0
  0
ARC
  5
249
330
1F
100
AcDbEntity
  8
0
 62
     7
370
    35
100
AcDbCircle
 10
1604.533325
 20
305.850006
 30
0.0
 40
0.4000000000000004
100
AcDbArc
 50
0.0
 51
90.000003
  0
LINE
  5
24A
330
1F
100
AcDbEntity
  8
0
 62
     7
370
    35
100
AcDbLine
 10
1604.93335
 20
305.850006
 30
0.0
 11
1604.93335
 21
300.649994
 31
0.0
  0
LINE
  5
24B
330
1F
100
AcDbEntity
  8
0
 62
     7
370
    35
100
AcDbLine
 10
1604.533325
 20
300.25
 30
0.0
 11
1588.633301
 21
300.25
 31
0.0
  0
ARC
  5
24C
330
1F
100
AcDbEntity
  8
0
 62
     7
370
    35
100
AcDbCircle
 10
1604.533325
 20
300.649994
 30
0.0
 40
0.3999999999999999
100
AcDbArc
 50
269.999997
 51
360.0
  0
ENDSEC
  0
SECTION
  2
OBJECTS
  0
DICTIONARY
  5
C
330
0
100
AcDbDictionary
281
     1
  3
ACAD_GROUP
350
D
  3
ACAD_LAYOUT
350
1A
  3
ACAD_MLINESTYLE
350
17
  3
ACAD_PLOTSETTINGS
350
19
  3
ACAD_PLOTSTYLENAME
350
E
  3
ACAD_SCALELIST
350
47
  0
DICTIONARY
  5
D
102
{ACAD_REACTORS
330
C
102
}
330
C
100
AcDbDictionary
281
     1
  0
DICTIONARY
  5
1A
102
{ACAD_REACTORS
330
C
102
}
330
C
100
AcDbDictionary
281
     1
  3
Layout1
350
1E
  3
Layout2
350
26
  3
Model
350
22
  0
DICTIONARY
  5
17
102
{ACAD_REACTORS
330
C
102
}
330
C
100
AcDbDictionary
281
     1
  3
Standard
350
18
  0
DICTIONARY
  5
19
102
{ACAD_REACTORS
330
C
102
}
330
C
100
AcDbDictionary
281
     1
  0
ACDBDICTIONARYWDFLT
  5
E
102
{ACAD_REACTORS
330
C
102
}
330
C
100
AcDbDictionary
281
     1
  3
Normal
350
F
100
AcDbDictionaryWithDefault
340
F
  0
DICTIONARY
  5
47
102
{ACAD_REACTORS
330
C
102
}
330
C
100
AcDbDictionary
281
     1
  3
A0
350
48
  3
A1
350
49
  3
A2
350
4A
  3
A3
350
4B
  3
A4
350
4C
  3
A5
350
4D
  3
A6
350
4E
  3
A7
350
4F
  3
A8
350
50
  3
A9
350
51
  3
B0
350
52
  3
B1
350
53
  3
B2
350
54
  3
B3
350
55
  3
B4
350
56
  3
B5
350
57
  3
B6
350
58
  3
B7
350
59
  3
B8
350
5A
  3
B9
350
5B
  3
C0
350
5C
  3
C1
350
5D
  3
C2
350
5E
  3
C3
350
5F
  3
C4
350
60
  3
C5
350
61
  3
C6
350
62
  3
C7
350
63
  3
C8
350
64
  3
C9
350
65
  3
D0
350
66
  3
D1
350
67
  3
D2
350
68
  0
LAYOUT
  5
1E
102
{ACAD_REACTORS
330
1A
102
}
330
1A
100
AcDbPlotSettings
  1

  2
none_device
  4

  6

 40
0.0
 41
0.0
 42
0.0
 43
0.0
 44
0.0
 45
0.0
 46
0.0
 47
0.0
 48
0.0
 49
0.0
140
0.0
141
0.0
142
1.0
143
1.0
 70
  4784
 72
     0
 73
     0
 74
     5
  7

 75
    16
147
1.0
148
0.0
149
0.0
100
AcDbLayout
  1
Layout1
 70
     1
 71
     1
 10
0.0
 20
0.0
 11
420.0
 21
297.0
 12
0.0
 22
0.0
 32
0.0
 14
0.0
 24
0.0
 34
0.0
 15
1607.383301
 25
323.290009
 35
2.0
146
0.0
 13
0.0
 23
0.0
 33
0.0
 16
1.0
 26
0.0
 36
0.0
 17
0.0
 27
1.0
 37
0.0
 76
     0
330
1B
  0
LAYOUT
  5
26
102
{ACAD_REACTORS
330
1A
102
}
330
1A
100
AcDbPlotSettings
  1

  2
none_device
  4

  6

 40
0.0
 41
0.0
 42
0.0
 43
0.0
 44
0.0
 45
0.0
 46
0.0
 47
0.0
 48
0.0
 49
0.0
140
0.0
141
0.0
142
1.0
143
1.0
 70
  4784
 72
     0
 73
     0
 74
     5
  7

 75
    16
147
1.0
148
0.0
149
0.0
100
AcDbLayout
  1
Layout2
 70
     1
 71
     2
 10
0.0
 20
0.0
 11
0.0
 21
0.0
 12
0.0
 22
0.0
 32
0.0
 14
0.0
 24
0.0
 34
0.0
 15
0.0
 25
0.0
 35
0.0
146
0.0
 13
0.0
 23
0.0
 33
0.0
 16
1.0
 26
0.0
 36
0.0
 17
0.0
 27
1.0
 37
0.0
 76
     0
330
23
  0
LAYOUT
  5
22
102
{ACAD_REACTORS
330
1A
102
}
330
1A
100
AcDbPlotSettings
  1

  2
none_device
  4
Letter_(8.50_x_11.00_Inches)
  6

 40
6.35
 41
6.35
 42
6.350005
 43
6.350005
 44
215.9
 45
279.4
 46
0.0
 47
0.0
 48
0.0
 49
0.0
140
0.0
141
0.0
142
1.0
143
1.0
 70
  5808
 72
     0
 73
     0
 74
     0
  7

 75
     0
147
1.0
148
0.0
149
0.0
100
AcDbLayout
  1
Model
 70
     1
 71
     0
 10
0.0
 20
0.0
 11
420.0
 21
297.0
 12
0.0
 22
0.0
 32
0.0
 14
0.0
 24
0.0
 34
0.0
 15
1607.383301
 25
323.290009
 35
2.0
146
0.0
 13
0.0
 23
0.0
 33
0.0
 16
1.0
 26
0.0
 36
0.0
 17
0.0
 27
1.0
 37
0.0
 76
     0
330
1F
331
29
  0
MLINESTYLE
  5
18
102
{ACAD_REACTORS
330
17
102
}
330
17
100
AcDbMlineStyle
  2
Standard
 70
     0
  3

 62
   256
 51
90.0
 52
90.0
 71
     2
 49
0.5
 62
   256
  6
BYLAYER
 49
-0.5
 62
   256
  6
BYLAYER
  0
ACDBPLACEHOLDER
  5
F
102
{ACAD_REACTORS
330
E
102
}
330
E
  0
SCALE
  5
48
102
{ACAD_REACTORS
330
47
102
}
330
47
100
AcDbScale
 70
     0
300
1:1
140
1.0
141
1.0
290
     1
  0
SCALE
  5
49
102
{ACAD_REACTORS
330
47
102
}
330
47
100
AcDbScale
 70
     0
300
1:2
140
1.0
141
2.0
290
     0
  0
SCALE
  5
4A
102
{ACAD_REACTORS
330
47
102
}
330
47
100
AcDbScale
 70
     0
300
1:4
140
1.0
141
4.0
290
     0
  0
SCALE
  5
4B
102
{ACAD_REACTORS
330
47
102
}
330
47
100
AcDbScale
 70
     0
300
1:5
140
1.0
141
5.0
290
     0
  0
SCALE
  5
4C
102
{ACAD_REACTORS
330
47
102
}
330
47
100
AcDbScale
 70
     0
300
1:8
140
1.0
141
8.0
290
     0
  0
SCALE
  5
4D
102
{ACAD_REACTORS
330
47
102
}
330
47
100
AcDbScale
 70
     0
300
1:10
140
1.0
141
10.0
290
     0
  0
SCALE
  5
4E
102
{ACAD_REACTORS
330
47
102
}
330
47
100
AcDbScale
 70
     0
300
1:16
140
1.0
141
16.0
290
     0
  0
SCALE
  5
4F
102
{ACAD_REACTORS
330
47
102
}
330
47
100
AcDbScale
 70
     0
300
1:20
140
1.0
141
20.0
290
     0
  0
SCALE
  5
50
102
{ACAD_REACTORS
330
47
102
}
330
47
100
AcDbScale
 70
     0
300
1:30
140
1.0
141
30.0
290
     0
  0
SCALE
  5
51
102
{ACAD_REACTORS
330
47
102
}
330
47
100
AcDbScale
 70
     0
300
1:40
140
1.0
141
40.0
290
     0
  0
SCALE
  5
52
102
{ACAD_REACTORS
330
47
102
}
330
47
100
AcDbScale
 70
     0
300
1:50
140
1.0
141
50.0
290
     0
  0
SCALE
  5
53
102
{ACAD_REACTORS
330
47
102
}
330
47
100
AcDbScale
 70
     0
300
1:100
140
1.0
141
100.0
290
     0
  0
SCALE
  5
54
102
{ACAD_REACTORS
330
47
102
}
330
47
100
AcDbScale
 70
     0
300
2:1
140
2.0
141
1.0
290
     0
  0
SCALE
  5
55
102
{ACAD_REACTORS
330
47
102
}
330
47
100
AcDbScale
 70
     0
300
4:1
140
4.0
141
1.0
290
     0
  0
SCALE
  5
56
102
{ACAD_REACTORS
330
47
102
}
330
47
100
AcDbScale
 70
     0
300
8:1
140
8.0
141
1.0
290
     0
  0
SCALE
  5
57
102
{ACAD_REACTORS
330
47
102
}
330
47
100
AcDbScale
 70
     0
300
10:1
140
10.0
141
1.0
290
     0
  0
SCALE
  5
58
102
{ACAD_REACTORS
330
47
102
}
330
47
100
AcDbScale
 70
     0
300
100:1
140
100.0
141
1.0
290
     0
  0
SCALE
  5
59
102
{ACAD_REACTORS
330
47
102
}
330
47
100
AcDbScale
 70
     0
300
1/128" = 1'-0"
140
0.007812
141
12.0
290
     0
  0
SCALE
  5
5A
102
{ACAD_REACTORS
330
47
102
}
330
47
100
AcDbScale
 70
     0
300
1/64" = 1'-0"
140
0.015625
141
12.0
290
     0
  0
SCALE
  5
5B
102
{ACAD_REACTORS
330
47
102
}
330
47
100
AcDbScale
 70
     0
300
1/32" = 1'-0"
140
0.03125
141
12.0
290
     0
  0
SCALE
  5
5C
102
{ACAD_REACTORS
330
47
102
}
330
47
100
AcDbScale
 70
     0
300
1/16" = 1'-0"
140
0.0625
141
12.0
290
     0
  0
SCALE
  5
5D
102
{ACAD_REACTORS
330
47
102
}
330
47
100
AcDbScale
 70
     0
300
3/32" = 1'-0"
140
0.09375
141
12.0
290
     0
  0
SCALE
  5
5E
102
{ACAD_REACTORS
330
47
102
}
330
47
100
AcDbScale
 70
     0
300
1/8" = 1'-0"
140
0.125
141
12.0
290
     0
  0
SCALE
  5
5F
102
{ACAD_REACTORS
330
47
102
}
330
47
100
AcDbScale
 70
     0
300
3/16" = 1'-0"
140
0.1875
141
12.0
290
     0
  0
SCALE
  5
60
102
{ACAD_REACTORS
330
47
102
}
330
47
100
AcDbScale
 70
     0
300
1/4" = 1'-0"
140
0.25
141
12.0
290
     0
  0
SCALE
  5
61
102
{ACAD_REACTORS
330
47
102
}
330
47
100
AcDbScale
 70
     0
300
3/8" = 1'-0"
140
0.375
141
12.0
290
     0
  0
SCALE
  5
62
102
{ACAD_REACTORS
330
47
102
}
330
47
100
AcDbScale
 70
     0
300
1/2" = 1'-0"
140
0.5
141
12.0
290
     0
  0
SCALE
  5
63
102
{ACAD_REACTORS
330
47
102
}
330
47
100
AcDbScale
 70
     0
300
3/4" = 1'-0"
140
0.75
141
12.0
290
     0
  0
SCALE
  5
64
102
{ACAD_REACTORS
330
47
102
}
330
47
100
AcDbScale
 70
     0
300
1" = 1'-0"
140
1.0
141
12.0
290
     0
  0
SCALE
  5
65
102
{ACAD_REACTORS
330
47
102
}
330
47
100
AcDbScale
 70
     0
300
1-1/2" = 1'-0"
140
1.5
141
12.0
290
     0
  0
SCALE
  5
66
102
{ACAD_REACTORS
330
47
102
}
330
47
100
AcDbScale
 70
     0
300
3" = 1'-0"
140
3.0
141
12.0
290
     0
  0
SCALE
  5
67
102
{ACAD_REACTORS
330
47
102
}
330
47
100
AcDbScale
 70
     0
300
6" = 1'-0"
140
6.0
141
12.0
290
     0
  0
SCALE
  5
68
102
{ACAD_REACTORS
330
47
102
}
330
47
100
AcDbScale
 70
     0
300
1'-0" = 1'-0"
140
12.0
141
12.0
290
     0
  0
ENDSEC
  0
EOF
