  0
SECTION
  2
HEADER
  9
$ACADVER
  1
AC1015
  9
$ACADMAINTVER
 70
     6
  9
$DWGCODEPAGE
  3
ANSI_1252
  9
$INSBASE
 10
0.0
 20
0.0
 30
0.0
  9
$EXTMIN
 10
0.0
 20
0.0
 30
0.0
  9
$EXTMAX
 10
1066.099121
 20
441.600006
 30
2.0
  9
$LIMMIN
 10
0.0
 20
0.0
  9
$LIMMAX
 10
420.0
 20
297.0
  9
$ORTHOMODE
 70
     0
  9
$REGENMODE
 70
     1
  9
$FILLMODE
 70
     1
  9
$QTEXTMODE
 70
     0
  9
$MIRRTEXT
 70
     1
  9
$LTSCALE
 40
1.0
  9
$ATTMODE
 70
     1
  9
$TEXTSIZE
 40
2.5
  9
$TRACEWID
 40
1.0
  9
$TEXTSTYLE
  7
Standard
  9
$CLAYER
  8
0
  9
$CELTYPE
  6
ByLayer
  9
$CECOLOR
 62
   256
  9
$CELTSCALE
 40
1.0
  9
$DISPSILH
 70
     0
  9
$DIMSCALE
 40
1.0
  9
$DIMASZ
 40
2.5
  9
$DIMEXO
 40
0.625
  9
$DIMDLI
 40
3.75
  9
$DIMRND
 40
0.0
  9
$DIMDLE
 40
0.0
  9
$DIMEXE
 40
1.25
  9
$DIMTP
 40
0.0
  9
$DIMTM
 40
0.0
  9
$DIMTXT
 40
2.5
  9
$DIMCEN
 40
2.5
  9
$DIMTSZ
 40
0.0
  9
$DIMTOL
 70
     0
  9
$DIMLIM
 70
     0
  9
$DIMTIH
 70
     0
  9
$DIMTOH
 70
     0
  9
$DIMSE1
 70
     0
  9
$DIMSE2
 70
     0
  9
$DIMTAD
 70
     1
  9
$DIMZIN
 70
     8
  9
$DIMBLK
  1

  9
$DIMASO
 70
     1
  9
$DIMSHO
 70
     1
  9
$DIMPOST
  1

  9
$DIMAPOST
  1

  9
$DIMALT
 70
     0
  9
$DIMALTD
 70
     3
  9
$DIMALTF
 40
0.03937
  9
$DIMLFAC
 40
1.0
  9
$DIMTOFL
 70
     1
  9
$DIMTVP
 40
0.0
  9
$DIMTIX
 70
     0
  9
$DIMSOXD
 70
     0
  9
$DIMSAH
 70
     0
  9
$DIMBLK1
  1

  9
$DIMBLK2
  1

  9
$DIMSTYLE
  2
Standard
  9
$DIMCLRD
 70
     0
  9
$DIMCLRE
 70
     0
  9
$DIMCLRT
 70
     0
  9
$DIMTFAC
 40
1.0
  9
$DIMGAP
 40
0.625
  9
$DIMJUST
 70
     0
  9
$DIMSD1
 70
     0
  9
$DIMSD2
 70
     0
  9
$DIMTOLJ
 70
     0
  9
$DIMTZIN
 70
     8
  9
$DIMALTZ
 70
     0
  9
$DIMALTTZ
 70
     0
  9
$DIMUPT
 70
     0
  9
$DIMDEC
 70
     2
  9
$DIMTDEC
 70
     2
  9
$DIMALTU
 70
     2
  9
$DIMALTTD
 70
     3
  9
$DIMTXSTY
  7
Standard
  9
$DIMAUNIT
 70
     0
  9
$DIMADEC
 70
     0
  9
$DIMALTRND
 40
0.0
  9
$DIMAZIN
 70
     0
  9
$DIMDSEP
 70
    44
  9
$DIMATFIT
 70
     0
  9
$DIMFRAC
 70
     0
  9
$DIMLDRBLK
  1

  9
$DIMLUNIT
 70
     2
  9
$DIMLWD
 70
    -2
  9
$DIMLWE
 70
    -2
  9
$DIMTMOVE
 70
     0
  9
$LUNITS
 70
     2
  9
$LUPREC
 70
     4
  9
$SKETCHINC
 40
1.0
  9
$FILLETRAD
 40
2.5
  9
$AUNITS
 70
     0
  9
$AUPREC
 70
     0
  9
$MENU
  1
.
  9
$ELEVATION
 40
0.0
  9
$PELEVATION
 40
0.0
  9
$THICKNESS
 40
0.0
  9
$LIMCHECK
 70
     0
  9
$CHAMFERA
 40
2.5
  9
$CHAMFERB
 40
2.5
  9
$CHAMFERC
 40
0.0
  9
$CHAMFERD
 40
0.0
  9
$SKPOLY
 70
     0
  9
$TDCREATE
 40
2447893.375
  9
$TDUCREATE
 40
0.0
  9
$TDUPDATE
 40
2458796.410411366
  9
$TDUUPDATE
 40
2458796.035411366
  9
$TDINDWG
 40
0.0
  9
$TDUSRTIMER
 40
0.0
  9
$USRTIMER
 70
     1
  9
$ANGBASE
 50
0.0
  9
$ANGDIR
 70
     0
  9
$PDMODE
 70
     0
  9
$PDSIZE
 40
0.0
  9
$PLINEWID
 40
0.0
  9
$SPLFRAME
 70
     0
  9
$SPLINETYPE
 70
     6
  9
$SPLINESEGS
 70
     8
  9
$HANDSEED
  5
22A
  9
$SURFTAB1
 70
     6
  9
$SURFTAB2
 70
     6
  9
$SURFTYPE
 70
     6
  9
$SURFU
 70
     6
  9
$SURFV
 70
     6
  9
$UCSBASE
  2

  9
$UCSNAME
  2

  9
$UCSORG
 10
0.0
 20
0.0
 30
0.0
  9
$UCSXDIR
 10
1.0
 20
0.0
 30
0.0
  9
$UCSYDIR
 10
0.0
 20
1.0
 30
0.0
  9
$UCSORTHOREF
  2

  9
$UCSORTHOVIEW
 70
     1
  9
$UCSORGTOP
 10
0.0
 20
0.0
 30
0.0
  9
$UCSORGBOTTOM
 10
0.0
 20
0.0
 30
0.0
  9
$UCSORGLEFT
 10
0.0
 20
0.0
 30
0.0
  9
$UCSORGRIGHT
 10
0.0
 20
0.0
 30
0.0
  9
$UCSORGFRONT
 10
0.0
 20
0.0
 30
0.0
  9
$UCSORGBACK
 10
0.0
 20
0.0
 30
0.0
  9
$PUCSBASE
  2

  9
$PUCSNAME
  2

  9
$PUCSORG
 10
0.0
 20
0.0
 30
0.0
  9
$PUCSXDIR
 10
1.0
 20
0.0
 30
0.0
  9
$PUCSYDIR
 10
0.0
 20
1.0
 30
0.0
  9
$PUCSORTHOREF
  2

  9
$PUCSORTHOVIEW
 70
     0
  9
$PUCSORGTOP
 10
0.0
 20
0.0
 30
0.0
  9
$PUCSORGBOTTOM
 10
0.0
 20
0.0
 30
0.0
  9
$PUCSORGLEFT
 10
0.0
 20
0.0
 30
0.0
  9
$PUCSORGRIGHT
 10
0.0
 20
0.0
 30
0.0
  9
$PUCSORGFRONT
 10
0.0
 20
0.0
 30
0.0
  9
$PUCSORGBACK
 10
0.0
 20
0.0
 30
0.0
  9
$USERI1
 70
     0
  9
$USERI2
 70
     0
  9
$USERI3
 70
     0
  9
$USERI4
 70
     0
  9
$USERI5
 70
     0
  9
$USERR1
 40
0.0
  9
$USERR2
 40
0.0
  9
$USERR3
 40
0.0
  9
$USERR4
 40
0.0
  9
$USERR5
 40
0.0
  9
$WORLDVIEW
 70
     1
  9
$SHADEDGE
 70
     3
  9
$SHADEDIF
 70
    70
  9
$TILEMODE
 70
     1
  9
$MAXACTVP
 70
    64
  9
$PINSBASE
 10
0.0
 20
0.0
 30
0.0
  9
$PLIMCHECK
 70
     0
  9
$PEXTMIN
 10
0.0
 20
0.0
 30
0.0
  9
$PEXTMAX
 10
1066.099121
 20
441.600006
 30
2.0
  9
$PLIMMIN
 10
0.0
 20
0.0
  9
$PLIMMAX
 10
420.0
 20
297.0
  9
$UNITMODE
 70
     0
  9
$VISRETAIN
 70
     0
  9
$PLINEGEN
 70
     0
  9
$PSLTSCALE
 70
     1
  9
$TREEDEPTH
 70
  3020
  9
$CMLSTYLE
  2
Standard
  9
$CMLJUST
 70
     0
  9
$CMLSCALE
 40
20.0
  9
$PROXYGRAPHICS
 70
     1
  9
$MEASUREMENT
 70
     1
  9
$CELWEIGHT
370
    -1
  9
$ENDCAPS
280
     0
  9
$JOINSTYLE
280
     0
  9
$LWDISPLAY
290
     0
  9
$INSUNITS
 70
     0
  9
$HYPERLINKBASE
  1

  9
$STYLESHEET
  1

  9
$XEDIT
290
     1
  9
$CEPSNTYPE
380
     0
  9
$PSTYLEMODE
290
     0
  9
$FINGERPRINTGUID
  2
{0FF11526-2A01-4A26-ABC1-F1EB05ED56D0}
  9
$VERSIONGUID
  2
{FAEB1C32-E019-11D5-929B-00C0DF256EC4}
  9
$EXTNAMES
290
     1
  9
$PSVPSCALE
 40
0.0
  9
$OLESTARTUP
290
     0
  0
ENDSEC
  0
SECTION
  2
CLASSES
  0
CLASS
  1
ACDBDICTIONARYWDFLT
  2
AcDbDictionaryWithDefault
  3
ObjectDBX Classes
 90
        0
280
     0
281
     0
  0
CLASS
  1
VISUALSTYLE
  2
AcDbVisualStyle
  3
ObjectDBX Classes
 90
     4095
280
     0
281
     0
  0
CLASS
  1
MATERIAL
  2
AcDbMaterial
  3
ObjectDBX Classes
 90
     1153
280
     0
281
     0
  0
CLASS
  1
SCALE
  2
AcDbScale
  3
ObjectDBX Classes
 90
     1153
280
     0
281
     0
  0
CLASS
  1
SUN
  2
AcDbSun
  3
SCENEOE
 90
     1153
280
     0
281
     0
  0
CLASS
  1
ACDBPLACEHOLDER
  2
AcDbPlaceHolder
  3
ObjectDBX Classes
 90
        0
280
     0
281
     0
  0
CLASS
  1
LAYOUT
  2
AcDbLayout
  3
ObjectDBX Classes
 90
        0
280
     0
281
     0
  0
ENDSEC
  0
SECTION
  2
TABLES
  0
TABLE
  2
VPORT
  5
8
330
0
100
AcDbSymbolTable
 70
     1
  0
VPORT
  5
29
330
8
100
AcDbSymbolTableRecord
100
AcDbViewportTableRecord
  2
*Active
 70
     0
 10
0.0
 20
0.0
 11
1.0
 21
1.0
 12
10.429907
 22
4.5
 13
0.0
 23
0.0
 14
0.5
 24
0.5
 15
0.5
 25
0.5
 16
0.0
 26
0.0
 36
1.0
 17
0.0
 27
0.0
 37
0.0
 40
9.0
 41
1.972973
 42
50.0
 43
0.0
 44
0.0
 50
0.0
 51
0.0
 71
     0
 72
   100
 73
     1
 74
     3
 75
     0
 76
     0
 77
     0
 78
     0
281
     0
 65
     1
110
0.0
120
0.0
130
0.0
111
1.0
121
0.0
131
0.0
112
0.0
122
1.0
132
0.0
 79
     0
146
0.0
  0
ENDTAB
  0
TABLE
  2
LTYPE
  5
5
330
0
100
AcDbSymbolTable
 70
     2
  0
LTYPE
  5
14
330
5
100
AcDbSymbolTableRecord
100
AcDbLinetypeTableRecord
  2
ByBlock
 70
     0
  3

 72
    65
 73
     0
 40
0.0
  0
LTYPE
  5
15
330
5
100
AcDbSymbolTableRecord
100
AcDbLinetypeTableRecord
  2
ByLayer
 70
     0
  3

 72
    65
 73
     0
 40
0.0
  0
LTYPE
  5
16
330
5
100
AcDbSymbolTableRecord
100
AcDbLinetypeTableRecord
  2
Continuous
 70
     0
  3
Solid line
 72
    65
 73
     0
 40
0.0
  0
LTYPE
  5
6A
330
5
100
AcDbSymbolTableRecord
100
AcDbLinetypeTableRecord
  2
DASHDOT
 70
     0
  3
 __ . __ . __ . __ . __ . __ . __ . 
 72
    65
 73
     4
 40
18.5
 49
12.0
 74
     0
 49
-3.0
 74
     0
 49
0.5
 74
     0
 49
-3.0
 74
     0
  0
ENDTAB
  0
TABLE
  2
LAYER
  5
2
330
0
100
AcDbSymbolTable
 70
     1
  0
LAYER
  5
10
330
2
100
AcDbSymbolTableRecord
100
AcDbLayerTableRecord
  2
0
 70
     0
 62
     7
  6
Continuous
370
    -3
390
F
  0
ENDTAB
  0
TABLE
  2
STYLE
  5
3
330
0
100
AcDbSymbolTable
 70
     1
  0
STYLE
  5
11
330
3
100
AcDbSymbolTableRecord
100
AcDbTextStyleTableRecord
  2
Standard
 70
     0
 40
0.0
 41
1.0
 50
0.0
 71
     0
 42
2.5
  3
txt
  4

  0
ENDTAB
  0
TABLE
  2
VIEW
  5
6
330
0
100
AcDbSymbolTable
 70
     0
  0
ENDTAB
  0
TABLE
  2
UCS
  5
7
330
0
100
AcDbSymbolTable
 70
     0
  0
ENDTAB
  0
TABLE
  2
APPID
  5
9
330
0
100
AcDbSymbolTable
 70
     1
  0
APPID
  5
12
330
9
100
AcDbSymbolTableRecord
100
AcDbRegAppTableRecord
  2
ACAD
 70
     0
  0
ENDTAB
  0
TABLE
  2
DIMSTYLE
  5
A
330
0
100
AcDbSymbolTable
 70
     1
100
AcDbDimStyleTable
  0
DIMSTYLE
105
27
330
A
100
AcDbSymbolTableRecord
100
AcDbDimStyleTableRecord
  2
Standard
 70
     0
178
     0
340
11
  0
ENDTAB
  0
TABLE
  2
BLOCK_RECORD
  5
1
330
0
100
AcDbSymbolTable
 70
     1
  0
BLOCK_RECORD
  5
1F
330
1
100
AcDbSymbolTableRecord
100
AcDbBlockTableRecord
  2
*Model_Space
340
22
  0
BLOCK_RECORD
  5
1B
330
1
100
AcDbSymbolTableRecord
100
AcDbBlockTableRecord
  2
*Paper_Space
340
1E
  0
BLOCK_RECORD
  5
23
330
1
100
AcDbSymbolTableRecord
100
AcDbBlockTableRecord
  2
*Paper_Space0
340
26
  0
ENDTAB
  0
ENDSEC
  0
SECTION
  2
BLOCKS
  0
BLOCK
  5
20
330
1F
100
AcDbEntity
  8
0
100
AcDbBlockBegin
  2
*Model_Space
 70
     0
 10
0.0
 20
0.0
 30
0.0
  3
*Model_Space
  1
*Model_Space
  0
ENDBLK
  5
21
330
1F
100
AcDbEntity
  8
0
100
AcDbBlockEnd
  0
BLOCK
  5
1C
330
1B
100
AcDbEntity
 67
     1
  8
0
100
AcDbBlockBegin
  2
*Paper_Space
 70
     0
 10
0.0
 20
0.0
 30
0.0
  3
*Paper_Space
  1
*Paper_Space
  0
ENDBLK
  5
1D
330
1B
100
AcDbEntity
 67
     1
  8
0
100
AcDbBlockEnd
  0
BLOCK
  5
24
330
23
100
AcDbEntity
  8
0
100
AcDbBlockBegin
  2
*Paper_Space0
 70
     0
 10
0.0
 20
0.0
 30
0.0
  3
*Paper_Space0
  1
*Paper_Space0
  0
ENDBLK
  5
25
330
23
100
AcDbEntity
  8
0
100
AcDbBlockEnd
  0
ENDSEC
  0
SECTION
  2
ENTITIES
  0
LINE
  5
6B
330
1F
100
AcDbEntity
  8
0
  6
DASHDOT
 62
     7
 48
0.451999
370
    13
100
AcDbLine
 10
982.039978
 20
431.899994
 30
0.0
 11
963.960022
 21
431.899994
 31
0.0
  0
LINE
  5
6C
330
1F
100
AcDbEntity
  8
0
  6
DASHDOT
 62
     7
 48
0.452
370
    13
100
AcDbLine
 10
973.0
 20
440.940002
 30
0.0
 11
973.0
 21
422.859985
 31
0.0
  0
LINE
  5
6D
330
1F
100
AcDbEntity
  8
0
  6
DASHDOT
 62
     7
 48
0.452
370
    13
100
AcDbLine
 10
225.039993
 20
431.899994
 30
0.0
 11
206.960007
 21
431.899994
 31
0.0
  0
LINE
  5
6E
330
1F
100
AcDbEntity
  8
0
  6
DASHDOT
 62
     7
 48
0.452
370
    13
100
AcDbLine
 10
216.0
 20
440.940002
 30
0.0
 11
216.0
 21
422.859985
 31
0.0
  0
LINE
  5
6F
330
1F
100
AcDbEntity
  8
0
  6
DASHDOT
 62
     7
 48
0.247
370
    13
100
AcDbLine
 10
235.940002
 20
431.899994
 30
0.0
 11
226.059998
 21
431.899994
 31
0.0
  0
LINE
  5
70
330
1F
100
AcDbEntity
  8
0
  6
DASHDOT
 62
     7
 48
0.247
370
    13
100
AcDbLine
 10
231.0
 20
436.839996
 30
0.0
 11
231.0
 21
426.959991
 31
0.0
  0
LINE
  5
71
330
1F
100
AcDbEntity
  8
0
  6
DASHDOT
 62
     7
 48
0.247
370
    13
100
AcDbLine
 10
962.940002
 20
431.899994
 30
0.0
 11
953.059998
 21
431.899994
 31
0.0
  0
LINE
  5
72
330
1F
100
AcDbEntity
  8
0
  6
DASHDOT
 62
     7
 48
0.247
370
    13
100
AcDbLine
 10
958.0
 20
436.839996
 30
0.0
 11
958.0
 21
426.959991
 31
0.0
  0
LINE
  5
73
330
1F
100
AcDbEntity
  8
0
  6
DASHDOT
 62
     7
 48
0.227
370
    13
100
AcDbLine
 10
235.540009
 20
436.600006
 30
0.0
 11
226.459991
 21
436.600006
 31
0.0
  0
LINE
  5
74
330
1F
100
AcDbEntity
  8
0
  6
DASHDOT
 62
     7
 48
0.227
370
    13
100
AcDbLine
 10
231.0
 20
441.139984
 30
0.0
 11
231.0
 21
432.059998
 31
0.0
  0
LINE
  5
75
330
1F
100
AcDbEntity
  8
0
  6
DASHDOT
 62
     7
 48
0.227
370
    13
100
AcDbLine
 10
235.540009
 20
427.199982
 30
0.0
 11
226.459991
 21
427.199982
 31
0.0
  0
LINE
  5
76
330
1F
100
AcDbEntity
  8
0
  6
DASHDOT
 62
     7
 48
0.227
370
    13
100
AcDbLine
 10
231.0
 20
431.73999
 30
0.0
 11
231.0
 21
422.660004
 31
0.0
  0
LINE
  5
77
330
1F
100
AcDbEntity
  8
0
  6
DASHDOT
 62
     7
 48
0.226999
370
    13
100
AcDbLine
 10
962.539978
 20
436.600006
 30
0.0
 11
953.460022
 21
436.600006
 31
0.0
  0
LINE
  5
78
330
1F
100
AcDbEntity
  8
0
  6
DASHDOT
 62
     7
 48
0.227
370
    13
100
AcDbLine
 10
958.0
 20
441.139984
 30
0.0
 11
958.0
 21
432.059998
 31
0.0
  0
LINE
  5
79
330
1F
100
AcDbEntity
  8
0
  6
DASHDOT
 62
     7
 48
0.226999
370
    13
100
AcDbLine
 10
962.539978
 20
427.199982
 30
0.0
 11
953.460022
 21
427.199982
 31
0.0
  0
LINE
  5
7A
330
1F
100
AcDbEntity
  8
0
  6
DASHDOT
 62
     7
 48
0.227
370
    13
100
AcDbLine
 10
958.0
 20
431.73999
 30
0.0
 11
958.0
 21
422.660004
 31
0.0
  0
LINE
  5
7B
330
1F
100
AcDbEntity
  8
0
  6
DASHDOT
 62
     7
 48
0.352
370
    13
100
AcDbLine
 10
301.540009
 20
404.899994
 30
0.0
 11
287.459991
 21
404.899994
 31
0.0
  0
LINE
  5
7C
330
1F
100
AcDbEntity
  8
0
  6
DASHDOT
 62
     7
 48
0.352
370
    13
100
AcDbLine
 10
294.5
 20
411.940002
 30
0.0
 11
294.5
 21
397.859985
 31
0.0
  0
LINE
  5
7D
330
1F
100
AcDbEntity
  8
0
  6
DASHDOT
 62
     7
 48
0.352
370
    13
100
AcDbLine
 10
351.539978
 20
404.899994
 30
0.0
 11
337.459991
 21
404.899994
 31
0.0
  0
LINE
  5
7E
330
1F
100
AcDbEntity
  8
0
  6
DASHDOT
 62
     7
 48
0.352
370
    13
100
AcDbLine
 10
344.5
 20
411.940002
 30
0.0
 11
344.5
 21
397.859985
 31
0.0
  0
LINE
  5
7F
330
1F
100
AcDbEntity
  8
0
  6
DASHDOT
 62
     7
 48
0.326999
370
    13
100
AcDbLine
 10
876.039978
 20
431.899994
 30
0.0
 11
862.960022
 21
431.899994
 31
0.0
  0
LINE
  5
80
330
1F
100
AcDbEntity
  8
0
  6
DASHDOT
 62
     7
 48
0.327
370
    13
100
AcDbLine
 10
869.5
 20
438.440002
 30
0.0
 11
869.5
 21
425.359985
 31
0.0
  0
LINE
  5
81
330
1F
100
AcDbEntity
  8
0
  6
DASHDOT
 62
     7
 48
0.326999
370
    13
100
AcDbLine
 10
376.039978
 20
431.899994
 30
0.0
 11
362.960022
 21
431.899994
 31
0.0
  0
LINE
  5
82
330
1F
100
AcDbEntity
  8
0
  6
DASHDOT
 62
     7
 48
0.327
370
    13
100
AcDbLine
 10
369.5
 20
438.440002
 30
0.0
 11
369.5
 21
425.359985
 31
0.0
  0
LINE
  5
83
330
1F
100
AcDbEntity
  8
0
  6
DASHDOT
 62
     7
 48
0.2395
370
    13
100
AcDbLine
 10
220.289993
 20
431.899994
 30
0.0
 11
210.710007
 21
431.899994
 31
0.0
  0
LINE
  5
84
330
1F
100
AcDbEntity
  8
0
  6
DASHDOT
 62
     7
 48
0.2395
370
    13
100
AcDbLine
 10
215.5
 20
436.690002
 30
0.0
 11
215.5
 21
427.109985
 31
0.0
  0
LINE
  5
85
330
1F
100
AcDbEntity
  8
0
  6
DASHDOT
 62
     7
 48
0.2395
370
    13
100
AcDbLine
 10
221.289993
 20
431.899994
 30
0.0
 11
211.710007
 21
431.899994
 31
0.0
  0
LINE
  5
86
330
1F
100
AcDbEntity
  8
0
  6
DASHDOT
 62
     7
 48
0.2395
370
    13
100
AcDbLine
 10
216.5
 20
436.690002
 30
0.0
 11
216.5
 21
427.109985
 31
0.0
  0
LINE
  5
87
330
1F
100
AcDbEntity
  8
0
  6
DASHDOT
 62
     7
 48
0.239499
370
    13
100
AcDbLine
 10
977.789978
 20
432.399994
 30
0.0
 11
968.210022
 21
432.399994
 31
0.0
  0
LINE
  5
88
330
1F
100
AcDbEntity
  8
0
  6
DASHDOT
 62
     7
 48
0.2395
370
    13
100
AcDbLine
 10
973.0
 20
437.190002
 30
0.0
 11
973.0
 21
427.609985
 31
0.0
  0
LINE
  5
89
330
1F
100
AcDbEntity
  8
0
  6
DASHDOT
 62
     7
 48
0.239499
370
    13
100
AcDbLine
 10
977.789978
 20
431.399994
 30
0.0
 11
968.210022
 21
431.399994
 31
0.0
  0
LINE
  5
8A
330
1F
100
AcDbEntity
  8
0
  6
DASHDOT
 62
     7
 48
0.2395
370
    13
100
AcDbLine
 10
973.0
 20
436.190002
 30
0.0
 11
973.0
 21
426.609985
 31
0.0
  0
LINE
  5
8B
330
1F
100
AcDbEntity
  8
0
  6
DASHDOT
 62
     7
 48
0.177325
370
    13
100
AcDbLine
 10
335.546509
 20
407.399994
 30
0.0
 11
328.453491
 21
407.399994
 31
0.0
  0
LINE
  5
8C
330
1F
100
AcDbEntity
  8
0
  6
DASHDOT
 62
     7
 48
0.177325
370
    13
100
AcDbLine
 10
332.0
 20
410.946503
 30
0.0
 11
332.0
 21
403.853485
 31
0.0
  0
LINE
  5
8D
330
1F
100
AcDbEntity
  8
0
  6
DASHDOT
 62
     7
 48
0.177325
370
    13
100
AcDbLine
 10
310.546509
 20
407.399994
 30
0.0
 11
303.453491
 21
407.399994
 31
0.0
  0
LINE
  5
8E
330
1F
100
AcDbEntity
  8
0
  6
DASHDOT
 62
     7
 48
0.177325
370
    13
100
AcDbLine
 10
307.0
 20
410.946503
 30
0.0
 11
307.0
 21
403.853485
 31
0.0
  0
LINE
  5
8F
330
1F
100
AcDbEntity
  8
0
 62
     7
370
    35
100
AcDbLine
 10
216.0
 20
441.399994
 30
0.0
 11
973.0
 21
441.399994
 31
0.0
  0
LINE
  5
90
330
1F
100
AcDbEntity
  8
0
 62
     7
370
    35
100
AcDbLine
 10
209.5
 20
441.399994
 30
0.0
 11
216.0
 21
441.399994
 31
0.0
  0
LINE
  5
91
330
1F
100
AcDbEntity
  8
0
 62
     7
370
    35
100
AcDbLine
 10
979.5
 20
441.399994
 30
0.0
 11
973.0
 21
441.399994
 31
0.0
  0
CIRCLE
  5
92
330
1F
100
AcDbEntity
  8
0
 62
     7
370
    35
100
AcDbCircle
 10
216.0
 20
431.899994
 30
0.0
 40
3.5
  0
CIRCLE
  5
93
330
1F
100
AcDbEntity
  8
0
 62
     7
370
    35
100
AcDbCircle
 10
973.0
 20
431.899994
 30
0.0
 40
3.5
  0
CIRCLE
  5
94
330
1F
100
AcDbEntity
  8
0
 62
     7
370
    35
100
AcDbCircle
 10
231.0
 20
431.899994
 30
0.0
 40
2.4
  0
CIRCLE
  5
95
330
1F
100
AcDbEntity
  8
0
 62
     7
370
    35
100
AcDbCircle
 10
958.0
 20
431.899994
 30
0.0
 40
2.4
  0
LINE
  5
96
330
1F
100
AcDbEntity
  8
0
 62
     7
370
    35
100
AcDbLine
 10
973.0
 20
418.5
 30
0.0
 11
216.0
 21
418.5
 31
0.0
  0
CIRCLE
  5
97
330
1F
100
AcDbEntity
  8
0
 62
     7
370
    35
100
AcDbCircle
 10
231.0
 20
436.600006
 30
0.0
 40
2.0
  0
CIRCLE
  5
98
330
1F
100
AcDbEntity
  8
0
 62
     7
370
    35
100
AcDbCircle
 10
231.0
 20
427.199982
 30
0.0
 40
2.0
  0
CIRCLE
  5
99
330
1F
100
AcDbEntity
  8
0
 62
     7
370
    35
100
AcDbCircle
 10
958.0
 20
436.600006
 30
0.0
 40
2.0
  0
CIRCLE
  5
9A
330
1F
100
AcDbEntity
  8
0
 62
     7
370
    35
100
AcDbCircle
 10
958.0
 20
427.199982
 30
0.0
 40
2.0
  0
CIRCLE
  5
9B
330
1F
100
AcDbEntity
  8
0
 62
     7
370
    35
100
AcDbCircle
 10
216.0
 20
431.899994
 30
0.0
 40
3.199999999999998
  0
LINE
  5
9C
330
1F
100
AcDbEntity
  8
0
 62
     7
370
    35
100
AcDbLine
 10
216.5
 20
429.649994
 30
0.0
 11
215.5
 21
429.649994
 31
0.0
  0
ARC
  5
9D
330
1F
100
AcDbEntity
  8
0
 62
     7
370
    35
100
AcDbCircle
 10
216.5
 20
431.899994
 30
0.0
 40
2.249999999999999
100
AcDbArc
 50
269.999997
 51
90.000003
  0
LINE
  5
9E
330
1F
100
AcDbEntity
  8
0
 62
     7
370
    35
100
AcDbLine
 10
215.5
 20
434.149994
 30
0.0
 11
216.5
 21
434.149994
 31
0.0
  0
ARC
  5
9F
330
1F
100
AcDbEntity
  8
0
 62
     7
370
    35
100
AcDbCircle
 10
215.5
 20
431.899994
 30
0.0
 40
2.249999999999999
100
AcDbArc
 50
90.000003
 51
269.999997
  0
CIRCLE
  5
A0
330
1F
100
AcDbEntity
  8
0
 62
     7
370
    35
100
AcDbCircle
 10
216.0
 20
431.899994
 30
0.0
 40
3.399999999999996
  0
CIRCLE
  5
A1
330
1F
100
AcDbEntity
  8
0
 62
     7
370
    35
100
AcDbCircle
 10
973.0
 20
431.899994
 30
0.0
 40
3.199999999999998
  0
LINE
  5
A2
330
1F
100
AcDbEntity
  8
0
 62
     7
370
    35
100
AcDbLine
 10
970.75
 20
431.399994
 30
0.0
 11
970.75
 21
432.399994
 31
0.0
  0
ARC
  5
A3
330
1F
100
AcDbEntity
  8
0
 62
     7
370
    35
100
AcDbCircle
 10
973.0
 20
431.399994
 30
0.0
 40
2.249999999999999
100
AcDbArc
 50
180.000005
 51
360.0
  0
LINE
  5
A4
330
1F
100
AcDbEntity
  8
0
 62
     7
370
    35
100
AcDbLine
 10
975.25
 20
432.399994
 30
0.0
 11
975.25
 21
431.399994
 31
0.0
  0
ARC
  5
A5
330
1F
100
AcDbEntity
  8
0
 62
     7
370
    35
100
AcDbCircle
 10
973.0
 20
432.399994
 30
0.0
 40
2.249999999999999
100
AcDbArc
 50
0.0
 51
180.000005
  0
CIRCLE
  5
A6
330
1F
100
AcDbEntity
  8
0
 62
     7
370
    35
100
AcDbCircle
 10
973.0
 20
431.899994
 30
0.0
 40
3.399999999999996
  0
ARC
  5
A7
330
1F
100
AcDbEntity
  8
0
 62
     7
370
    35
100
AcDbCircle
 10
590.5
 20
428.799988
 30
0.0
 40
0.5
100
AcDbArc
 50
90.000003
 51
180.000005
  0
LINE
  5
A8
330
1F
100
AcDbEntity
  8
0
 62
     7
370
    35
100
AcDbLine
 10
590.0
 20
428.799988
 30
0.0
 11
590.0
 21
424.799988
 31
0.0
  0
ARC
  5
A9
330
1F
100
AcDbEntity
  8
0
 62
     7
370
    35
100
AcDbCircle
 10
590.5
 20
424.799988
 30
0.0
 40
0.5
100
AcDbArc
 50
180.000005
 51
269.999997
  0
LINE
  5
AA
330
1F
100
AcDbEntity
  8
0
 62
     7
370
    35
100
AcDbLine
 10
598.5
 20
424.299988
 30
0.0
 11
590.5
 21
424.299988
 31
0.0
  0
ARC
  5
AB
330
1F
100
AcDbEntity
  8
0
 62
     7
370
    35
100
AcDbCircle
 10
598.5
 20
424.799988
 30
0.0
 40
0.5
100
AcDbArc
 50
269.999997
 51
360.0
  0
LINE
  5
AC
330
1F
100
AcDbEntity
  8
0
 62
     7
370
    35
100
AcDbLine
 10
599.0
 20
424.799988
 30
0.0
 11
599.0
 21
428.799988
 31
0.0
  0
ARC
  5
AD
330
1F
100
AcDbEntity
  8
0
 62
     7
370
    35
100
AcDbCircle
 10
598.5
 20
428.799988
 30
0.0
 40
0.5
100
AcDbArc
 50
0.0
 51
90.000003
  0
LINE
  5
AE
330
1F
100
AcDbEntity
  8
0
 62
     7
370
    35
100
AcDbLine
 10
590.5
 20
429.299988
 30
0.0
 11
593.5
 21
429.299988
 31
0.0
  0
LINE
  5
AF
330
1F
100
AcDbEntity
  8
0
 62
     7
370
    35
100
AcDbLine
 10
595.5
 20
429.299988
 30
0.0
 11
598.5
 21
429.299988
 31
0.0
  0
LINE
  5
B0
330
1F
100
AcDbEntity
  8
0
 62
     7
370
    35
100
AcDbLine
 10
595.5
 20
429.299988
 30
0.0
 11
595.5
 21
427.299988
 31
0.0
  0
LINE
  5
B1
330
1F
100
AcDbEntity
  8
0
 62
     7
370
    35
100
AcDbLine
 10
595.5
 20
427.299988
 30
0.0
 11
597.0
 21
427.299988
 31
0.0
  0
LINE
  5
B2
330
1F
100
AcDbEntity
  8
0
 62
     7
370
    35
100
AcDbLine
 10
597.0
 20
427.299988
 30
0.0
 11
594.5
 21
424.799988
 31
0.0
  0
LINE
  5
B3
330
1F
100
AcDbEntity
  8
0
 62
     7
370
    35
100
AcDbLine
 10
594.5
 20
424.799988
 30
0.0
 11
592.0
 21
427.299988
 31
0.0
  0
LINE
  5
B4
330
1F
100
AcDbEntity
  8
0
 62
     7
370
    35
100
AcDbLine
 10
592.0
 20
427.299988
 30
0.0
 11
593.5
 21
427.299988
 31
0.0
  0
LINE
  5
B5
330
1F
100
AcDbEntity
  8
0
 62
     7
370
    35
100
AcDbLine
 10
593.5
 20
427.299988
 30
0.0
 11
593.5
 21
429.299988
 31
0.0
  0
LINE
  5
B6
330
1F
100
AcDbEntity
  8
0
 62
     7
370
    35
100
AcDbLine
 10
593.5
 20
429.299988
 30
0.0
 11
595.5
 21
429.299988
 31
0.0
  0
LINE
  5
B7
330
1F
100
AcDbEntity
  8
0
 62
     7
370
    35
100
AcDbLine
 10
306.440735
 20
418.399994
 30
0.0
 11
300.409637
 21
416.899994
 31
0.0
  0
LINE
  5
B8
330
1F
100
AcDbEntity
  8
0
 62
     7
370
    35
100
AcDbLine
 10
306.44101
 20
416.899994
 30
0.0
 11
306.440735
 21
418.399994
 31
0.0
  0
LINE
  5
B9
330
1F
100
AcDbEntity
  8
0
 62
     7
370
    35
100
AcDbLine
 10
306.440735
 20
418.399994
 30
0.0
 11
306.440735
 21
418.5
 31
0.0
  0
LINE
  5
BA
330
1F
100
AcDbEntity
  8
0
 62
     7
370
    35
100
AcDbLine
 10
332.55899
 20
418.399994
 30
0.0
 11
306.44101
 21
418.399994
 31
0.0
  0
LINE
  5
BB
330
1F
100
AcDbEntity
  8
0
 62
     7
370
    35
100
AcDbLine
 10
332.559265
 20
418.399994
 30
0.0
 11
332.559265
 21
418.5
 31
0.0
  0
LINE
  5
BC
330
1F
100
AcDbEntity
  8
0
 62
     7
370
    35
100
AcDbLine
 10
338.590332
 20
416.899994
 30
0.0
 11
332.559265
 21
418.399994
 31
0.0
  0
LINE
  5
BD
330
1F
100
AcDbEntity
  8
0
 62
     7
370
    35
100
AcDbLine
 10
349.5
 20
414.399994
 30
0.0
 11
349.5
 21
416.899994
 31
0.0
  0
LINE
  5
BE
330
1F
100
AcDbEntity
  8
0
 62
     7
370
    35
100
AcDbLine
 10
349.5
 20
414.399994
 30
0.0
 11
349.5
 21
409.399994
 31
0.0
  0
LINE
  5
BF
330
1F
100
AcDbEntity
  8
0
 62
     7
370
    35
100
AcDbLine
 10
349.5
 20
400.399994
 30
0.0
 11
349.5
 21
409.399994
 31
0.0
  0
LINE
  5
C0
330
1F
100
AcDbEntity
  8
0
 62
     7
370
    35
100
AcDbLine
 10
349.5
 20
400.399994
 30
0.0
 11
349.5
 21
399.399994
 31
0.0
  0
LINE
  5
C1
330
1F
100
AcDbEntity
  8
0
 62
     7
370
    35
100
AcDbLine
 10
349.5
 20
409.399994
 30
0.0
 11
344.5
 21
409.399994
 31
0.0
  0
ARC
  5
C2
330
1F
100
AcDbEntity
  8
0
 62
     7
370
    35
100
AcDbCircle
 10
344.5
 20
404.899994
 30
0.0
 40
4.500000000000001
100
AcDbArc
 50
90.000003
 51
269.999997
  0
LINE
  5
C3
330
1F
100
AcDbEntity
  8
0
 62
     7
370
    35
100
AcDbLine
 10
344.5
 20
400.399994
 30
0.0
 11
349.5
 21
400.399994
 31
0.0
  0
LINE
  5
C4
330
1F
100
AcDbEntity
  8
0
 62
     7
370
    35
100
AcDbLine
 10
327.0
 20
399.399994
 30
0.0
 11
349.5
 21
399.399994
 31
0.0
  0
LINE
  5
C5
330
1F
100
AcDbEntity
  8
0
 62
     7
370
    35
100
AcDbLine
 10
327.0
 20
399.399994
 30
0.0
 11
327.0
 21
410.899994
 31
0.0
  0
ARC
  5
C6
330
1F
100
AcDbEntity
  8
0
 62
     7
370
    35
100
AcDbCircle
 10
330.5
 20
410.899994
 30
0.0
 40
3.5
100
AcDbArc
 50
90.000003
 51
180.000005
  0
LINE
  5
C7
330
1F
100
AcDbEntity
  8
0
 62
     7
370
    35
100
AcDbLine
 10
330.5
 20
414.399994
 30
0.0
 11
349.5
 21
414.399994
 31
0.0
  0
CIRCLE
  5
C8
330
1F
100
AcDbEntity
  8
0
 62
     7
370
    35
100
AcDbCircle
 10
332.0
 20
407.399994
 30
0.0
 40
1.006499999999999
  0
LINE
  5
C9
330
1F
100
AcDbEntity
  8
0
 62
     7
370
    35
100
AcDbLine
 10
289.5
 20
414.399994
 30
0.0
 11
308.5
 21
414.399994
 31
0.0
  0
ARC
  5
CA
330
1F
100
AcDbEntity
  8
0
 62
     7
370
    35
100
AcDbCircle
 10
308.5
 20
410.899994
 30
0.0
 40
3.5
100
AcDbArc
 50
0.0
 51
90.000003
  0
LINE
  5
CB
330
1F
100
AcDbEntity
  8
0
 62
     7
370
    35
100
AcDbLine
 10
312.0
 20
410.899994
 30
0.0
 11
312.0
 21
399.399994
 31
0.0
  0
LINE
  5
CC
330
1F
100
AcDbEntity
  8
0
 62
     7
370
    35
100
AcDbLine
 10
289.5
 20
399.399994
 30
0.0
 11
312.0
 21
399.399994
 31
0.0
  0
LINE
  5
CD
330
1F
100
AcDbEntity
  8
0
 62
     7
370
    35
100
AcDbLine
 10
289.5
 20
399.399994
 30
0.0
 11
289.5
 21
400.399994
 31
0.0
  0
LINE
  5
CE
330
1F
100
AcDbEntity
  8
0
 62
     7
370
    35
100
AcDbLine
 10
294.5
 20
400.399994
 30
0.0
 11
289.5
 21
400.399994
 31
0.0
  0
ARC
  5
CF
330
1F
100
AcDbEntity
  8
0
 62
     7
370
    35
100
AcDbCircle
 10
294.5
 20
404.899994
 30
0.0
 40
4.500000000000001
100
AcDbArc
 50
269.999997
 51
90.000003
  0
LINE
  5
D0
330
1F
100
AcDbEntity
  8
0
 62
     7
370
    35
100
AcDbLine
 10
289.5
 20
409.399994
 30
0.0
 11
294.5
 21
409.399994
 31
0.0
  0
LINE
  5
D1
330
1F
100
AcDbEntity
  8
0
 62
     7
370
    35
100
AcDbLine
 10
289.5
 20
409.399994
 30
0.0
 11
289.5
 21
414.399994
 31
0.0
  0
CIRCLE
  5
D2
330
1F
100
AcDbEntity
  8
0
 62
     7
370
    35
100
AcDbCircle
 10
307.0
 20
407.399994
 30
0.0
 40
1.006500000000003
  0
LINE
  5
D3
330
1F
100
AcDbEntity
  8
0
 62
     7
370
    35
100
AcDbLine
 10
289.5
 20
400.399994
 30
0.0
 11
289.5
 21
409.399994
 31
0.0
  0
CIRCLE
  5
D4
330
1F
100
AcDbEntity
  8
0
 62
     7
370
    35
100
AcDbCircle
 10
294.5
 20
404.899994
 30
0.0
 40
2.5
  0
LINE
  5
D5
330
1F
100
AcDbEntity
  8
0
 62
     7
370
    35
100
AcDbLine
 10
324.5
 20
409.899994
 30
0.0
 11
319.5
 21
414.899994
 31
0.0
  0
LINE
  5
D6
330
1F
100
AcDbEntity
  8
0
 62
     7
370
    35
100
AcDbLine
 10
314.5
 20
409.899994
 30
0.0
 11
319.5
 21
414.899994
 31
0.0
  0
LINE
  5
D7
330
1F
100
AcDbEntity
  8
0
 62
     7
370
    35
100
AcDbLine
 10
314.5
 20
409.899994
 30
0.0
 11
317.5
 21
409.899994
 31
0.0
  0
LINE
  5
D8
330
1F
100
AcDbEntity
  8
0
 62
     7
370
    35
100
AcDbLine
 10
317.5
 20
401.899994
 30
0.0
 11
317.5
 21
409.899994
 31
0.0
  0
LINE
  5
D9
330
1F
100
AcDbEntity
  8
0
 62
     7
370
    35
100
AcDbLine
 10
317.5
 20
401.899994
 30
0.0
 11
321.5
 21
401.899994
 31
0.0
  0
LINE
  5
DA
330
1F
100
AcDbEntity
  8
0
 62
     7
370
    35
100
AcDbLine
 10
321.5
 20
409.899994
 30
0.0
 11
321.5
 21
401.899994
 31
0.0
  0
LINE
  5
DB
330
1F
100
AcDbEntity
  8
0
 62
     7
370
    35
100
AcDbLine
 10
321.5
 20
409.899994
 30
0.0
 11
324.5
 21
409.899994
 31
0.0
  0
CIRCLE
  5
DC
330
1F
100
AcDbEntity
  8
0
 62
     7
370
    35
100
AcDbCircle
 10
344.5
 20
404.899994
 30
0.0
 40
2.5
  0
LINE
  5
DD
330
1F
100
AcDbEntity
  8
0
 62
     7
370
    35
100
AcDbLine
 10
312.0
 20
399.899994
 30
0.0
 11
327.0
 21
399.899994
 31
0.0
  0
LINE
  5
DE
330
1F
100
AcDbEntity
  8
0
 62
     7
370
    35
100
AcDbLine
 10
289.5
 20
416.899994
 30
0.0
 11
289.5
 21
414.399994
 31
0.0
  0
LINE
  5
DF
330
1F
100
AcDbEntity
  8
0
 62
     7
370
    35
100
AcDbLine
 10
349.5
 20
416.899994
 30
0.0
 11
289.5
 21
416.899994
 31
0.0
  0
LINE
  5
E0
330
1F
100
AcDbEntity
  8
0
 62
     7
370
    35
100
AcDbLine
 10
332.55899
 20
418.399994
 30
0.0
 11
332.55899
 21
416.899994
 31
0.0
  0
LINE
  5
E1
330
1F
100
AcDbEntity
  8
0
 62
     7
370
    35
100
AcDbLine
 10
250.5
 20
412.899994
 30
0.0
 11
250.5
 21
415.649994
 31
0.0
  0
LINE
  5
E2
330
1F
100
AcDbEntity
  8
0
 62
     7
370
    35
100
AcDbLine
 10
250.5
 20
410.149994
 30
0.0
 11
250.5
 21
412.899994
 31
0.0
  0
LINE
  5
E3
330
1F
100
AcDbEntity
  8
0
 62
     7
370
    35
100
AcDbLine
 10
243.5
 20
424.299988
 30
0.0
 11
273.5
 21
424.299988
 31
0.0
  0
ARC
  5
E4
330
1F
100
AcDbEntity
  8
0
 62
     7
370
    35
100
AcDbCircle
 10
273.5
 20
425.299988
 30
0.0
 40
1.0
100
AcDbArc
 50
269.999997
 51
360.0
  0
LINE
  5
E5
330
1F
100
AcDbEntity
  8
0
 62
     7
370
    35
100
AcDbLine
 10
274.5
 20
425.299988
 30
0.0
 11
274.5
 21
436.799988
 31
0.0
  0
ARC
  5
E6
330
1F
100
AcDbEntity
  8
0
 62
     7
370
    35
100
AcDbCircle
 10
273.5
 20
436.799988
 30
0.0
 40
1.0
100
AcDbArc
 50
0.0
 51
90.000003
  0
LINE
  5
E7
330
1F
100
AcDbEntity
  8
0
 62
     7
370
    35
100
AcDbLine
 10
273.5
 20
437.799988
 30
0.0
 11
243.5
 21
437.799988
 31
0.0
  0
ARC
  5
E8
330
1F
100
AcDbEntity
  8
0
 62
     7
370
    35
100
AcDbCircle
 10
243.5
 20
436.799988
 30
0.0
 40
1.0
100
AcDbArc
 50
90.000003
 51
180.000005
  0
LINE
  5
E9
330
1F
100
AcDbEntity
  8
0
 62
     7
370
    35
100
AcDbLine
 10
242.5
 20
436.799988
 30
0.0
 11
242.5
 21
425.299988
 31
0.0
  0
ARC
  5
EA
330
1F
100
AcDbEntity
  8
0
 62
     7
370
    35
100
AcDbCircle
 10
243.5
 20
425.299988
 30
0.0
 40
1.0
100
AcDbArc
 50
180.000005
 51
269.999997
  0
LINE
  5
EB
330
1F
100
AcDbEntity
  8
0
 62
     7
370
    35
100
AcDbLine
 10
265.5
 20
425.299988
 30
0.0
 11
273.5
 21
425.299988
 31
0.0
  0
LINE
  5
EC
330
1F
100
AcDbEntity
  8
0
 62
     7
370
    35
100
AcDbLine
 10
273.5
 20
425.299988
 30
0.0
 11
273.5
 21
433.299988
 31
0.0
  0
LINE
  5
ED
330
1F
100
AcDbEntity
  8
0
 62
     7
370
    35
100
AcDbLine
 10
273.5
 20
433.299988
 30
0.0
 11
265.5
 21
433.299988
 31
0.0
  0
LINE
  5
EE
330
1F
100
AcDbEntity
  8
0
 62
     7
370
    35
100
AcDbLine
 10
265.5
 20
433.299988
 30
0.0
 11
265.5
 21
425.299988
 31
0.0
  0
LINE
  5
EF
330
1F
100
AcDbEntity
  8
0
 62
     7
370
    35
100
AcDbLine
 10
266.5
 20
429.299988
 30
0.0
 11
269.5
 21
426.299988
 31
0.0
  0
LINE
  5
F0
330
1F
100
AcDbEntity
  8
0
 62
     7
370
    35
100
AcDbLine
 10
268.5
 20
429.299988
 30
0.0
 11
266.5
 21
429.299988
 31
0.0
  0
LINE
  5
F1
330
1F
100
AcDbEntity
  8
0
 62
     7
370
    35
100
AcDbLine
 10
268.5
 20
432.299988
 30
0.0
 11
268.5
 21
429.299988
 31
0.0
  0
LINE
  5
F2
330
1F
100
AcDbEntity
  8
0
 62
     7
370
    35
100
AcDbLine
 10
270.5
 20
432.299988
 30
0.0
 11
268.5
 21
432.299988
 31
0.0
  0
LINE
  5
F3
330
1F
100
AcDbEntity
  8
0
 62
     7
370
    35
100
AcDbLine
 10
270.5
 20
429.299988
 30
0.0
 11
270.5
 21
432.299988
 31
0.0
  0
LINE
  5
F4
330
1F
100
AcDbEntity
  8
0
 62
     7
370
    35
100
AcDbLine
 10
272.5
 20
429.299988
 30
0.0
 11
270.5
 21
429.299988
 31
0.0
  0
LINE
  5
F5
330
1F
100
AcDbEntity
  8
0
 62
     7
370
    35
100
AcDbLine
 10
269.5
 20
426.299988
 30
0.0
 11
272.5
 21
429.299988
 31
0.0
  0
LINE
  5
F6
330
1F
100
AcDbEntity
  8
0
 62
     7
370
    35
100
AcDbLine
 10
243.5
 20
425.299988
 30
0.0
 11
264.5
 21
425.299988
 31
0.0
  0
LINE
  5
F7
330
1F
100
AcDbEntity
  8
0
 62
     7
370
    35
100
AcDbLine
 10
264.5
 20
425.299988
 30
0.0
 11
264.5
 21
428.299988
 31
0.0
  0
LINE
  5
F8
330
1F
100
AcDbEntity
  8
0
 62
     7
370
    35
100
AcDbLine
 10
264.5
 20
428.299988
 30
0.0
 11
243.5
 21
428.299988
 31
0.0
  0
LINE
  5
F9
330
1F
100
AcDbEntity
  8
0
 62
     7
370
    35
100
AcDbLine
 10
243.5
 20
428.299988
 30
0.0
 11
243.5
 21
425.299988
 31
0.0
  0
ARC
  5
FA
330
1F
100
AcDbEntity
  8
0
 62
     7
370
    35
100
AcDbCircle
 10
915.5
 20
425.299988
 30
0.0
 40
1.0
100
AcDbArc
 50
180.000005
 51
269.999997
  0
LINE
  5
FB
330
1F
100
AcDbEntity
  8
0
 62
     7
370
    35
100
AcDbLine
 10
945.5
 20
424.299988
 30
0.0
 11
915.5
 21
424.299988
 31
0.0
  0
ARC
  5
FC
330
1F
100
AcDbEntity
  8
0
 62
     7
370
    35
100
AcDbCircle
 10
945.5
 20
425.299988
 30
0.0
 40
1.0
100
AcDbArc
 50
269.999997
 51
360.0
  0
LINE
  5
FD
330
1F
100
AcDbEntity
  8
0
 62
     7
370
    35
100
AcDbLine
 10
946.5
 20
425.299988
 30
0.0
 11
946.5
 21
436.799988
 31
0.0
  0
ARC
  5
FE
330
1F
100
AcDbEntity
  8
0
 62
     7
370
    35
100
AcDbCircle
 10
945.5
 20
436.799988
 30
0.0
 40
1.0
100
AcDbArc
 50
0.0
 51
90.000003
  0
LINE
  5
FF
330
1F
100
AcDbEntity
  8
0
 62
     7
370
    35
100
AcDbLine
 10
914.5
 20
436.799988
 30
0.0
 11
914.5
 21
425.299988
 31
0.0
  0
LINE
  5
100
330
1F
100
AcDbEntity
  8
0
 62
     7
370
    35
100
AcDbLine
 10
915.5
 20
437.799988
 30
0.0
 11
945.5
 21
437.799988
 31
0.0
  0
ARC
  5
101
330
1F
100
AcDbEntity
  8
0
 62
     7
370
    35
100
AcDbCircle
 10
915.5
 20
436.799988
 30
0.0
 40
0.9999999999999996
100
AcDbArc
 50
90.000003
 51
180.000005
  0
LINE
  5
102
330
1F
100
AcDbEntity
  8
0
 62
     7
370
    35
100
AcDbLine
 10
915.5
 20
425.299988
 30
0.0
 11
923.5
 21
425.299988
 31
0.0
  0
LINE
  5
103
330
1F
100
AcDbEntity
  8
0
 62
     7
370
    35
100
AcDbLine
 10
923.5
 20
425.299988
 30
0.0
 11
923.5
 21
433.299988
 31
0.0
  0
LINE
  5
104
330
1F
100
AcDbEntity
  8
0
 62
     7
370
    35
100
AcDbLine
 10
923.5
 20
433.299988
 30
0.0
 11
915.5
 21
433.299988
 31
0.0
  0
LINE
  5
105
330
1F
100
AcDbEntity
  8
0
 62
     7
370
    35
100
AcDbLine
 10
915.5
 20
433.299988
 30
0.0
 11
915.5
 21
425.299988
 31
0.0
  0
LINE
  5
106
330
1F
100
AcDbEntity
  8
0
 62
     7
370
    35
100
AcDbLine
 10
916.5
 20
429.299988
 30
0.0
 11
919.5
 21
426.299988
 31
0.0
  0
LINE
  5
107
330
1F
100
AcDbEntity
  8
0
 62
     7
370
    35
100
AcDbLine
 10
918.5
 20
429.299988
 30
0.0
 11
916.5
 21
429.299988
 31
0.0
  0
LINE
  5
108
330
1F
100
AcDbEntity
  8
0
 62
     7
370
    35
100
AcDbLine
 10
918.5
 20
432.299988
 30
0.0
 11
918.5
 21
429.299988
 31
0.0
  0
LINE
  5
109
330
1F
100
AcDbEntity
  8
0
 62
     7
370
    35
100
AcDbLine
 10
920.5
 20
432.299988
 30
0.0
 11
918.5
 21
432.299988
 31
0.0
  0
LINE
  5
10A
330
1F
100
AcDbEntity
  8
0
 62
     7
370
    35
100
AcDbLine
 10
920.5
 20
429.299988
 30
0.0
 11
920.5
 21
432.299988
 31
0.0
  0
LINE
  5
10B
330
1F
100
AcDbEntity
  8
0
 62
     7
370
    35
100
AcDbLine
 10
922.5
 20
429.299988
 30
0.0
 11
920.5
 21
429.299988
 31
0.0
  0
LINE
  5
10C
330
1F
100
AcDbEntity
  8
0
 62
     7
370
    35
100
AcDbLine
 10
919.5
 20
426.299988
 30
0.0
 11
922.5
 21
429.299988
 31
0.0
  0
LINE
  5
10D
330
1F
100
AcDbEntity
  8
0
 62
     7
370
    35
100
AcDbLine
 10
934.799988
 20
428.899994
 30
0.0
 11
945.5
 21
428.899994
 31
0.0
  0
LINE
  5
10E
330
1F
100
AcDbEntity
  8
0
 62
     7
370
    35
100
AcDbLine
 10
945.5
 20
428.899994
 30
0.0
 11
945.5
 21
431.699982
 31
0.0
  0
LINE
  5
10F
330
1F
100
AcDbEntity
  8
0
 62
     7
370
    35
100
AcDbLine
 10
945.5
 20
431.699982
 30
0.0
 11
934.799988
 21
431.699982
 31
0.0
  0
LINE
  5
110
330
1F
100
AcDbEntity
  8
0
 62
     7
370
    35
100
AcDbLine
 10
934.799988
 20
431.699982
 30
0.0
 11
934.799988
 21
428.899994
 31
0.0
  0
CIRCLE
  5
111
330
1F
100
AcDbEntity
  8
0
 62
     7
370
    35
100
AcDbCircle
 10
869.5
 20
431.899994
 30
0.0
 40
4.0
  0
LINE
  5
112
330
1F
100
AcDbEntity
  8
0
 62
     7
370
    35
100
AcDbLine
 10
873.5
 20
441.600006
 30
0.0
 11
871.327271
 21
441.600006
 31
0.0
  0
LINE
  5
113
330
1F
100
AcDbEntity
  8
0
 62
     7
370
    35
100
AcDbLine
 10
871.327271
 20
441.600006
 30
0.0
 11
865.5
 21
441.600006
 31
0.0
  0
CIRCLE
  5
114
330
1F
100
AcDbEntity
  8
0
 62
     7
370
    35
100
AcDbCircle
 10
369.5
 20
431.899994
 30
0.0
 40
4.0
  0
LINE
  5
115
330
1F
100
AcDbEntity
  8
0
 62
     7
370
    35
100
AcDbLine
 10
373.5
 20
441.600006
 30
0.0
 11
371.327271
 21
441.600006
 31
0.0
  0
LINE
  5
116
330
1F
100
AcDbEntity
  8
0
 62
     7
370
    35
100
AcDbLine
 10
371.327271
 20
441.600006
 30
0.0
 11
365.5
 21
441.600006
 31
0.0
  0
LINE
  5
117
330
1F
100
AcDbEntity
  8
0
 62
     7
370
    35
100
AcDbLine
 10
216.0
 20
439.245941
 30
0.0
 11
216.0
 21
441.399994
 31
0.0
  0
LINE
  5
118
330
1F
100
AcDbEntity
  8
0
 62
     7
370
    35
100
AcDbLine
 10
209.5
 20
439.245941
 30
0.0
 11
209.5
 21
441.399994
 31
0.0
  0
LINE
  5
119
330
1F
100
AcDbEntity
  8
0
 62
     7
370
    35
100
AcDbLine
 10
209.5
 20
439.245941
 30
0.0
 11
209.5
 21
419.699982
 31
0.0
  0
LINE
  5
11A
330
1F
100
AcDbEntity
  8
0
 62
     7
370
    35
100
AcDbLine
 10
216.0
 20
425.399994
 30
0.0
 11
216.0
 21
419.699982
 31
0.0
  0
ARC
  5
11B
330
1F
100
AcDbEntity
  8
0
 62
     7
370
    35
100
AcDbCircle
 10
216.0
 20
431.899994
 30
0.0
 40
6.5
100
AcDbArc
 50
269.999997
 51
90.000003
  0
LINE
  5
11C
330
1F
100
AcDbEntity
  8
0
 62
     7
370
    35
100
AcDbLine
 10
216.0
 20
439.245941
 30
0.0
 11
216.0
 21
438.399994
 31
0.0
  0
CIRCLE
  5
11D
330
1F
100
AcDbEntity
  8
0
 62
     7
370
    35
100
AcDbCircle
 10
216.0
 20
431.899994
 30
0.0
 40
5.0
  0
LINE
  5
11E
330
1F
100
AcDbEntity
  8
0
 62
     7
370
    35
100
AcDbLine
 10
209.5
 20
417.399994
 30
0.0
 11
209.5
 21
419.699982
 31
0.0
  0
LINE
  5
11F
330
1F
100
AcDbEntity
  8
0
 62
     7
370
    35
100
AcDbLine
 10
216.0
 20
417.399994
 30
0.0
 11
209.5
 21
417.399994
 31
0.0
  0
LINE
  5
120
330
1F
100
AcDbEntity
  8
0
 62
     7
370
    35
100
AcDbLine
 10
216.0
 20
417.399994
 30
0.0
 11
216.0
 21
419.699982
 31
0.0
  0
LINE
  5
121
330
1F
100
AcDbEntity
  8
0
 62
     7
370
    35
100
AcDbLine
 10
209.5
 20
417.399994
 30
0.0
 11
209.5
 21
416.699982
 31
0.0
  0
LINE
  5
122
330
1F
100
AcDbEntity
  8
0
 62
     7
370
    35
100
AcDbLine
 10
216.0
 20
416.699982
 30
0.0
 11
209.5
 21
416.699982
 31
0.0
  0
LINE
  5
123
330
1F
100
AcDbEntity
  8
0
 62
     7
370
    35
100
AcDbLine
 10
216.0
 20
417.399994
 30
0.0
 11
216.0
 21
416.699982
 31
0.0
  0
LINE
  5
124
330
1F
100
AcDbEntity
  8
0
 62
     7
370
    35
100
AcDbLine
 10
979.5
 20
439.245941
 30
0.0
 11
979.5
 21
441.399994
 31
0.0
  0
LINE
  5
125
330
1F
100
AcDbEntity
  8
0
 62
     7
370
    35
100
AcDbLine
 10
973.0
 20
439.245941
 30
0.0
 11
973.0
 21
441.399994
 31
0.0
  0
LINE
  5
126
330
1F
100
AcDbEntity
  8
0
 62
     7
370
    35
100
AcDbLine
 10
973.0
 20
439.245941
 30
0.0
 11
973.0
 21
438.399994
 31
0.0
  0
ARC
  5
127
330
1F
100
AcDbEntity
  8
0
 62
     7
370
    35
100
AcDbCircle
 10
973.0
 20
431.899994
 30
0.0
 40
6.5
100
AcDbArc
 50
90.000003
 51
269.999997
  0
LINE
  5
128
330
1F
100
AcDbEntity
  8
0
 62
     7
370
    35
100
AcDbLine
 10
973.0
 20
425.399994
 30
0.0
 11
973.0
 21
419.699982
 31
0.0
  0
LINE
  5
129
330
1F
100
AcDbEntity
  8
0
 62
     7
370
    35
100
AcDbLine
 10
979.5
 20
439.245941
 30
0.0
 11
979.5
 21
419.699982
 31
0.0
  0
CIRCLE
  5
12A
330
1F
100
AcDbEntity
  8
0
 62
     7
370
    35
100
AcDbCircle
 10
973.0
 20
431.899994
 30
0.0
 40
5.0
  0
LINE
  5
12B
330
1F
100
AcDbEntity
  8
0
 62
     7
370
    35
100
AcDbLine
 10
973.0
 20
417.399994
 30
0.0
 11
973.0
 21
419.699982
 31
0.0
  0
LINE
  5
12C
330
1F
100
AcDbEntity
  8
0
 62
     7
370
    35
100
AcDbLine
 10
973.0
 20
417.399994
 30
0.0
 11
979.5
 21
417.399994
 31
0.0
  0
LINE
  5
12D
330
1F
100
AcDbEntity
  8
0
 62
     7
370
    35
100
AcDbLine
 10
979.5
 20
417.399994
 30
0.0
 11
979.5
 21
419.699982
 31
0.0
  0
LINE
  5
12E
330
1F
100
AcDbEntity
  8
0
 62
     7
370
    35
100
AcDbLine
 10
973.0
 20
417.399994
 30
0.0
 11
973.0
 21
416.699982
 31
0.0
  0
LINE
  5
12F
330
1F
100
AcDbEntity
  8
0
 62
     7
370
    35
100
AcDbLine
 10
973.0
 20
416.699982
 30
0.0
 11
979.5
 21
416.699982
 31
0.0
  0
LINE
  5
130
330
1F
100
AcDbEntity
  8
0
 62
     7
370
    35
100
AcDbLine
 10
979.5
 20
417.399994
 30
0.0
 11
979.5
 21
416.699982
 31
0.0
  0
LINE
  5
131
330
1F
100
AcDbEntity
  8
0
 62
     7
370
    35
100
AcDbLine
 10
973.0
 20
424.299988
 30
0.0
 11
216.0
 21
424.299988
 31
0.0
  0
LINE
  5
132
330
1F
100
AcDbEntity
  8
0
 62
     7
370
    35
100
AcDbLine
 10
339.0
 20
416.899994
 30
0.0
 11
339.0
 21
418.5
 31
0.0
  0
LINE
  5
133
330
1F
100
AcDbEntity
  8
0
 62
     7
370
    35
100
AcDbLine
 10
300.0
 20
416.899994
 30
0.0
 11
300.0
 21
418.5
 31
0.0
  0
LINE
  5
134
330
1F
100
AcDbEntity
  8
0
 62
     7
370
    35
100
AcDbLine
 10
250.5
 20
415.649994
 30
0.0
 11
289.5
 21
415.649994
 31
0.0
  0
LINE
  5
135
330
1F
100
AcDbEntity
  8
0
 62
     7
370
    35
100
AcDbLine
 10
250.5
 20
410.149994
 30
0.0
 11
289.5
 21
410.149994
 31
0.0
  0
LINE
  5
136
330
1F
100
AcDbEntity
  8
0
 62
     7
370
    35
100
AcDbLine
 10
873.5
 20
441.399994
 30
0.0
 11
873.5
 21
441.600006
 31
0.0
  0
LINE
  5
137
330
1F
100
AcDbEntity
  8
0
 62
     7
370
    35
100
AcDbLine
 10
865.5
 20
441.399994
 30
0.0
 11
865.5
 21
441.600006
 31
0.0
  0
LINE
  5
138
330
1F
100
AcDbEntity
  8
0
 62
     7
370
    35
100
AcDbLine
 10
373.5
 20
441.399994
 30
0.0
 11
373.5
 21
441.600006
 31
0.0
  0
LINE
  5
139
330
1F
100
AcDbEntity
  8
0
 62
     7
370
    35
100
AcDbLine
 10
365.5
 20
441.399994
 30
0.0
 11
365.5
 21
441.600006
 31
0.0
  0
LINE
  5
13A
330
1F
100
AcDbEntity
  8
0
  6
DASHDOT
 62
     7
 48
0.276999
370
    13
100
AcDbLine
 10
1057.039185
 20
412.899994
 30
0.0
 11
1045.959229
 21
412.899994
 31
0.0
  0
LINE
  5
13B
330
1F
100
AcDbEntity
  8
0
  6
DASHDOT
 62
     7
 48
0.277
370
    13
100
AcDbLine
 10
1051.499146
 20
418.440002
 30
0.0
 11
1051.499146
 21
407.359985
 31
0.0
  0
LINE
  5
13C
330
1F
100
AcDbEntity
  8
0
  6
DASHDOT
 62
     7
 48
0.264499
370
    13
100
AcDbLine
 10
1056.989136
 20
412.899994
 30
0.0
 11
1046.40918
 21
412.899994
 31
0.0
  0
LINE
  5
13D
330
1F
100
AcDbEntity
  8
0
  6
DASHDOT
 62
     7
 48
0.2645
370
    13
100
AcDbLine
 10
1051.699219
 20
418.190002
 30
0.0
 11
1051.699219
 21
407.609985
 31
0.0
  0
LINE
  5
13E
330
1F
100
AcDbEntity
  8
0
 62
     7
370
    35
100
AcDbLine
 10
1064.699219
 20
441.399994
 30
0.0
 11
1045.89917
 21
441.399994
 31
0.0
  0
LINE
  5
13F
330
1F
100
AcDbEntity
  8
0
 62
     7
370
    35
100
AcDbLine
 10
1065.949219
 20
436.799988
 30
0.0
 11
1065.949219
 21
434.249176
 31
0.0
  0
LINE
  5
140
330
1F
100
AcDbEntity
  8
0
 62
     7
370
    35
100
AcDbLine
 10
1065.949219
 20
434.249176
 30
0.0
 11
1065.949219
 21
427.0
 31
0.0
  0
LINE
  5
141
330
1F
100
AcDbEntity
  8
0
 62
     7
370
    35
100
AcDbLine
 10
1066.099121
 20
434.052704
 30
0.0
 11
1066.099121
 21
427.40979
 31
0.0
  0
LINE
  5
142
330
1F
100
AcDbEntity
  8
0
 62
     7
370
    35
100
AcDbLine
 10
1066.099121
 20
436.390198
 30
0.0
 11
1066.099121
 21
434.052704
 31
0.0
  0
LINE
  5
143
330
1F
100
AcDbEntity
  8
0
 62
     7
370
    35
100
AcDbLine
 10
1056.999146
 20
416.899994
 30
0.0
 11
1056.999146
 21
416.941498
 31
0.0
  0
LINE
  5
144
330
1F
100
AcDbEntity
  8
0
 62
     7
370
    35
100
AcDbLine
 10
1056.999146
 20
415.899994
 30
0.0
 11
1056.999146
 21
416.899994
 31
0.0
  0
LINE
  5
145
330
1F
100
AcDbEntity
  8
0
 62
     7
370
    35
100
AcDbLine
 10
1056.999146
 20
415.899994
 30
0.0
 11
1056.89917
 21
415.899994
 31
0.0
  0
LINE
  5
146
330
1F
100
AcDbEntity
  8
0
 62
     7
370
    35
100
AcDbLine
 10
1051.499146
 20
415.899994
 30
0.0
 11
1053.199219
 21
415.899994
 31
0.0
  0
LINE
  5
147
330
1F
100
AcDbEntity
  8
0
 62
     7
370
    35
100
AcDbLine
 10
1056.89917
 20
415.899994
 30
0.0
 11
1056.89917
 21
409.899994
 31
0.0
  0
LINE
  5
148
330
1F
100
AcDbEntity
  8
0
 62
     7
370
    35
100
AcDbLine
 10
1045.89917
 20
416.899994
 30
0.0
 11
1053.761353
 21
416.899994
 31
0.0
  0
LINE
  5
149
330
1F
100
AcDbEntity
  8
0
 62
     7
370
    35
100
AcDbLine
 10
1056.83606
 20
416.899994
 30
0.0
 11
1056.999146
 21
416.899994
 31
0.0
  0
LINE
  5
14A
330
1F
100
AcDbEntity
  8
0
 62
     7
370
    35
100
AcDbLine
 10
1045.89917
 20
414.399994
 30
0.0
 11
1045.89917
 21
416.899994
 31
0.0
  0
LINE
  5
14B
330
1F
100
AcDbEntity
  8
0
 62
     7
370
    35
100
AcDbLine
 10
1045.099121
 20
414.399994
 30
0.0
 11
1045.89917
 21
414.399994
 31
0.0
  0
LINE
  5
14C
330
1F
100
AcDbEntity
  8
0
 62
     7
370
    35
100
AcDbLine
 10
1045.099121
 20
414.399994
 30
0.0
 11
1045.099121
 21
409.399994
 31
0.0
  0
LINE
  5
14D
330
1F
100
AcDbEntity
  8
0
 62
     7
370
    35
100
AcDbLine
 10
1045.099121
 20
409.399994
 30
0.0
 11
1050.199219
 21
409.399994
 31
0.0
  0
LINE
  5
14E
330
1F
100
AcDbEntity
  8
0
 62
     7
370
    35
100
AcDbLine
 10
1050.199219
 20
400.399994
 30
0.0
 11
1050.199219
 21
409.399994
 31
0.0
  0
LINE
  5
14F
330
1F
100
AcDbEntity
  8
0
 62
     7
370
    35
100
AcDbLine
 10
1045.099121
 20
400.399994
 30
0.0
 11
1050.199219
 21
400.399994
 31
0.0
  0
LINE
  5
150
330
1F
100
AcDbEntity
  8
0
 62
     7
370
    35
100
AcDbLine
 10
1045.099121
 20
400.399994
 30
0.0
 11
1045.099121
 21
399.399994
 31
0.0
  0
LINE
  5
151
330
1F
100
AcDbEntity
  8
0
 62
     7
370
    35
100
AcDbLine
 10
1045.099121
 20
399.399994
 30
0.0
 11
1057.099121
 21
399.399994
 31
0.0
  0
LINE
  5
152
330
1F
100
AcDbEntity
  8
0
 62
     7
370
    35
100
AcDbLine
 10
1057.099121
 20
409.899994
 30
0.0
 11
1057.099121
 21
399.399994
 31
0.0
  0
LINE
  5
153
330
1F
100
AcDbEntity
  8
0
 62
     7
370
    35
100
AcDbLine
 10
1057.099121
 20
409.899994
 30
0.0
 11
1056.89917
 21
409.899994
 31
0.0
  0
LINE
  5
154
330
1F
100
AcDbEntity
  8
0
 62
     7
370
    35
100
AcDbLine
 10
1053.199219
 20
415.899994
 30
0.0
 11
1053.199219
 21
415.498077
 31
0.0
  0
ARC
  5
155
330
1F
100
AcDbEntity
  8
0
 62
     7
370
    35
100
AcDbCircle
 10
1051.699219
 20
412.899994
 30
0.0
 40
3.0
100
AcDbArc
 50
299.999998
 51
60.000002
  0
LINE
  5
156
330
1F
100
AcDbEntity
  8
0
 62
     7
370
    35
100
AcDbLine
 10
1053.199219
 20
409.899994
 30
0.0
 11
1053.199219
 21
410.30191
 31
0.0
  0
LINE
  5
157
330
1F
100
AcDbEntity
  8
0
 62
     7
370
    35
100
AcDbLine
 10
1053.199219
 20
409.899994
 30
0.0
 11
1051.499146
 21
409.899994
 31
0.0
  0
ARC
  5
158
330
1F
100
AcDbEntity
  8
0
 62
     7
370
    35
100
AcDbCircle
 10
1051.499146
 20
412.899994
 30
0.0
 40
3.0
100
AcDbArc
 50
90.000003
 51
269.999997
  0
LINE
  5
159
330
1F
100
AcDbEntity
  8
0
 62
     7
370
    35
100
AcDbLine
 10
1045.099121
 20
400.399994
 30
0.0
 11
1045.099121
 21
409.399994
 31
0.0
  0
LINE
  5
15A
330
1F
100
AcDbEntity
  8
0
 62
     7
370
    35
100
AcDbLine
 10
1053.935181
 20
410.899994
 30
0.0
 11
1052.825806
 21
410.899994
 31
0.0
  0
LINE
  5
15B
330
1F
100
AcDbEntity
  8
0
 62
     7
370
    35
100
AcDbLine
 10
1045.39917
 20
414.399963
 30
0.0
 11
1045.39917
 21
414.899994
 31
0.0
  0
LINE
  5
15C
330
1F
100
AcDbEntity
  8
0
 62
     7
370
    35
100
AcDbLine
 10
1045.89917
 20
414.899994
 30
0.0
 11
1045.39917
 21
414.899994
 31
0.0
  0
LINE
  5
15D
330
1F
100
AcDbEntity
  8
0
 62
     7
370
    35
100
AcDbLine
 10
1054.499146
 20
413.899994
 30
0.0
 11
1053.680908
 21
413.899994
 31
0.0
  0
LINE
  5
15E
330
1F
100
AcDbEntity
  8
0
 62
     7
370
    35
100
AcDbLine
 10
1052.595825
 20
417.196655
 30
0.0
 11
1052.299194
 21
416.899994
 31
0.0
  0
LINE
  5
15F
330
1F
100
AcDbEntity
  8
0
 62
     7
370
    35
100
AcDbLine
 10
1057.199219
 20
414.899994
 30
0.0
 11
1057.199219
 21
416.992401
 31
0.0
  0
LINE
  5
160
330
1F
100
AcDbEntity
  8
0
 62
     7
370
    35
100
AcDbLine
 10
1057.199219
 20
414.899994
 30
0.0
 11
1056.89917
 21
411.899994
 31
0.0
  0
LINE
  5
161
330
1F
100
AcDbEntity
  8
0
 62
     7
370
    35
100
AcDbLine
 10
1054.499146
 20
411.822968
 30
0.0
 11
1054.499146
 21
413.97699
 31
0.0
  0
LINE
  5
162
330
1F
100
AcDbEntity
  8
0
 62
     7
370
    35
100
AcDbLine
 10
1052.946655
 20
410.985626
 30
0.0
 11
1053.978638
 21
410.949585
 31
0.0
  0
ARC
  5
163
330
1F
100
AcDbEntity
  8
0
 62
     7
370
    35
100
AcDbCircle
 10
1052.799194
 20
410.533569
 30
0.0
 40
0.3
100
AcDbArc
 50
118.782208
 51
180.000005
  0
LINE
  5
164
330
1F
100
AcDbEntity
  8
0
 62
     7
370
    35
100
AcDbLine
 10
1052.499146
 20
410.533569
 30
0.0
 11
1052.499146
 21
410.199982
 31
0.0
  0
ARC
  5
165
330
1F
100
AcDbEntity
  8
0
 62
     7
370
    35
100
AcDbCircle
 10
1052.199219
 20
410.199982
 30
0.0
 40
0.2999999999999998
100
AcDbArc
 50
269.999997
 51
360.0
  0
ARC
  5
166
330
1F
100
AcDbEntity
  8
0
 62
     7
370
    35
100
AcDbCircle
 10
1052.199219
 20
415.600006
 30
0.0
 40
0.3
100
AcDbArc
 50
0.0
 51
90.000003
  0
LINE
  5
167
330
1F
100
AcDbEntity
  8
0
 62
     7
370
    35
100
AcDbLine
 10
1052.499146
 20
415.600006
 30
0.0
 11
1052.499146
 21
415.266418
 31
0.0
  0
ARC
  5
168
330
1F
100
AcDbEntity
  8
0
 62
     7
370
    35
100
AcDbCircle
 10
1052.799194
 20
415.266418
 30
0.0
 40
0.2999999999999999
100
AcDbArc
 50
179.999995
 51
241.217792
  0
ARC
  5
169
330
1F
100
AcDbEntity
  8
0
 62
     7
370
    35
100
AcDbCircle
 10
1051.499146
 20
412.899994
 30
0.0
 40
2.4
100
AcDbArc
 50
298.782203
 51
61.217797
  0
ARC
  5
16A
330
1F
100
AcDbEntity
  8
0
 62
     7
370
    35
100
AcDbCircle
 10
1051.699219
 20
412.899994
 30
0.0
 40
2.75
100
AcDbArc
 50
313.341567
 51
315.166024
  0
LINE
  5
16B
330
1F
100
AcDbEntity
  8
0
 62
     7
370
    35
100
AcDbLine
 10
1059.299194
 20
441.600006
 30
0.0
 11
1051.740967
 21
441.600006
 31
0.0
  0
LINE
  5
16C
330
1F
100
AcDbEntity
  8
0
 62
     7
370
    35
100
AcDbLine
 10
1051.740967
 20
441.600006
 30
0.0
 11
1051.299194
 21
441.600006
 31
0.0
  0
ARC
  5
16D
330
1F
100
AcDbEntity
  8
0
 62
     7
370
    35
100
AcDbCircle
 10
1048.39917
 20
439.245941
 30
0.0
 40
3.3
100
AcDbArc
 50
139.250946
 51
180.000005
  0
LINE
  5
16E
330
1F
100
AcDbEntity
  8
0
 62
     7
370
    35
100
AcDbLine
 10
1045.099121
 20
439.245941
 30
0.0
 11
1045.099121
 21
419.699982
 31
0.0
  0
ARC
  5
16F
330
1F
100
AcDbEntity
  8
0
 62
     7
370
    35
100
AcDbCircle
 10
1062.199219
 20
439.245941
 30
0.0
 40
3.3
100
AcDbArc
 50
360.0
 51
40.749055
  0
ARC
  5
170
330
1F
100
AcDbEntity
  8
0
 62
     7
370
    35
100
AcDbCircle
 10
1047.39917
 20
419.699982
 30
0.0
 40
2.3
100
AcDbArc
 50
180.000005
 51
269.999997
  0
LINE
  5
171
330
1F
100
AcDbEntity
  8
0
 62
     7
370
    35
100
AcDbLine
 10
1047.39917
 20
417.399994
 30
0.0
 11
1051.799194
 21
417.399994
 31
0.0
  0
LINE
  5
172
330
1F
100
AcDbEntity
  8
0
 62
     7
370
    35
100
AcDbLine
 10
1051.799194
 20
417.399994
 30
0.0
 11
1054.549194
 21
416.699982
 31
0.0
  0
LINE
  5
173
330
1F
100
AcDbEntity
  8
0
 62
     7
370
    35
100
AcDbLine
 10
1054.549194
 20
416.699982
 30
0.0
 11
1056.049194
 21
416.699982
 31
0.0
  0
LINE
  5
174
330
1F
100
AcDbEntity
  8
0
 62
     7
370
    35
100
AcDbLine
 10
1056.049194
 20
416.699982
 30
0.0
 11
1058.799194
 21
417.399994
 31
0.0
  0
LINE
  5
175
330
1F
100
AcDbEntity
  8
0
 62
     7
370
    35
100
AcDbLine
 10
1058.799194
 20
417.399994
 30
0.0
 11
1063.199219
 21
417.399994
 31
0.0
  0
ARC
  5
176
330
1F
100
AcDbEntity
  8
0
 62
     7
370
    35
100
AcDbCircle
 10
1063.199219
 20
419.699982
 30
0.0
 40
2.300000000000001
100
AcDbArc
 50
269.999997
 51
0.0
  0
LINE
  5
177
330
1F
100
AcDbEntity
  8
0
 62
     7
370
    35
100
AcDbLine
 10
1065.499146
 20
419.699982
 30
0.0
 11
1065.499146
 21
439.245941
 31
0.0
  0
LINE
  5
178
330
1F
100
AcDbEntity
  8
0
 62
     7
370
    35
100
AcDbLine
 10
1064.188721
 20
440.399994
 30
0.0
 11
1046.409668
 21
440.399994
 31
0.0
  0
ARC
  5
179
330
1F
100
AcDbEntity
  8
0
 62
     7
370
    35
100
AcDbCircle
 10
1048.39917
 20
439.245941
 30
0.0
 40
2.300000000059505
100
AcDbArc
 50
149.882969
 51
180.000005
  0
LINE
  5
17A
330
1F
100
AcDbEntity
  8
0
 62
     7
370
    35
100
AcDbLine
 10
1046.099121
 20
439.245941
 30
0.0
 11
1046.099121
 21
419.699982
 31
0.0
  0
ARC
  5
17B
330
1F
100
AcDbEntity
  8
0
 62
     7
370
    35
100
AcDbCircle
 10
1047.39917
 20
419.699982
 30
0.0
 40
1.300000000363393
100
AcDbArc
 50
180.000005
 51
269.999997
  0
LINE
  5
17C
330
1F
100
AcDbEntity
  8
0
 62
     7
370
    35
100
AcDbLine
 10
1047.39917
 20
418.399994
 30
0.0
 11
1051.924438
 21
418.399994
 31
0.0
  0
LINE
  5
17D
330
1F
100
AcDbEntity
  8
0
 62
     7
370
    35
100
AcDbLine
 10
1051.924438
 20
418.399994
 30
0.0
 11
1054.674438
 21
417.699982
 31
0.0
  0
LINE
  5
17E
330
1F
100
AcDbEntity
  8
0
 62
     7
370
    35
100
AcDbLine
 10
1054.674438
 20
417.699982
 30
0.0
 11
1055.92395
 21
417.699982
 31
0.0
  0
LINE
  5
17F
330
1F
100
AcDbEntity
  8
0
 62
     7
370
    35
100
AcDbLine
 10
1055.92395
 20
417.699982
 30
0.0
 11
1058.67395
 21
418.399994
 31
0.0
  0
LINE
  5
180
330
1F
100
AcDbEntity
  8
0
 62
     7
370
    35
100
AcDbLine
 10
1058.67395
 20
418.399994
 30
0.0
 11
1063.199219
 21
418.399994
 31
0.0
  0
ARC
  5
181
330
1F
100
AcDbEntity
  8
0
 62
     7
370
    35
100
AcDbCircle
 10
1063.199219
 20
419.699982
 30
0.0
 40
1.300000000158153
100
AcDbArc
 50
269.999997
 51
0.0
  0
LINE
  5
182
330
1F
100
AcDbEntity
  8
0
 62
     7
370
    35
100
AcDbLine
 10
1064.499146
 20
419.699982
 30
0.0
 11
1064.499146
 21
439.245941
 31
0.0
  0
ARC
  5
183
330
1F
100
AcDbEntity
  8
0
 62
     7
370
    35
100
AcDbCircle
 10
1062.199219
 20
439.245941
 30
0.0
 40
2.299999999404121
100
AcDbArc
 50
0.0
 51
30.117026
  0
ARC
  5
184
330
1F
100
AcDbEntity
  8
0
 62
     7
370
    35
100
AcDbCircle
 10
1047.349121
 20
429.299988
 30
0.0
 40
0.4000000000000004
100
AcDbArc
 50
180.000005
 51
269.999997
  0
LINE
  5
185
330
1F
100
AcDbEntity
  8
0
 62
     7
370
    35
100
AcDbLine
 10
1046.949219
 20
429.299988
 30
0.0
 11
1046.949219
 21
434.5
 31
0.0
  0
ARC
  5
186
330
1F
100
AcDbEntity
  8
0
 62
     7
370
    35
100
AcDbCircle
 10
1047.349121
 20
434.5
 30
0.0
 40
0.3999999999999999
100
AcDbArc
 50
90.000003
 51
180.000005
  0
LINE
  5
187
330
1F
100
AcDbEntity
  8
0
 62
     7
370
    35
100
AcDbLine
 10
1047.349121
 20
434.899994
 30
0.0
 11
1063.249146
 21
434.899994
 31
0.0
  0
ARC
  5
188
330
1F
100
AcDbEntity
  8
0
 62
     7
370
    35
100
AcDbCircle
 10
1063.249146
 20
434.5
 30
0.0
 40
0.4000000000000004
100
AcDbArc
 50
0.0
 51
90.000003
  0
LINE
  5
189
330
1F
100
AcDbEntity
  8
0
 62
     7
370
    35
100
AcDbLine
 10
1063.64917
 20
434.5
 30
0.0
 11
1063.64917
 21
429.299988
 31
0.0
  0
LINE
  5
18A
330
1F
100
AcDbEntity
  8
0
 62
     7
370
    35
100
AcDbLine
 10
1063.249146
 20
428.899994
 30
0.0
 11
1047.349121
 21
428.899994
 31
0.0
  0
ARC
  5
18B
330
1F
100
AcDbEntity
  8
0
 62
     7
370
    35
100
AcDbCircle
 10
1063.249146
 20
429.299988
 30
0.0
 40
0.3999999999999999
100
AcDbArc
 50
269.999997
 51
360.0
  0
LINE
  5
18C
330
1F
100
AcDbEntity
  8
0
 62
     7
370
    35
100
AcDbLine
 10
1065.499146
 20
438.299988
 30
0.0
 11
1065.498657
 21
438.318115
 31
0.0
  0
LINE
  5
18D
330
1F
100
AcDbEntity
  8
0
 62
     7
370
    35
100
AcDbLine
 10
1065.499146
 20
425.5
 30
0.0
 11
1065.498657
 21
425.481873
 31
0.0
  0
LINE
  5
18E
330
1F
100
AcDbEntity
  8
0
 62
     7
370
    35
100
AcDbLine
 10
1065.949219
 20
436.799988
 30
0.0
 11
1065.498657
 21
436.799988
 31
0.0
  0
LINE
  5
18F
330
1F
100
AcDbEntity
  8
0
 62
     7
370
    35
100
AcDbLine
 10
1066.099121
 20
436.390198
 30
0.0
 11
1065.949219
 21
436.649994
 31
0.0
  0
LINE
  5
190
330
1F
100
AcDbEntity
  8
0
 62
     7
370
    35
100
AcDbLine
 10
1066.099121
 20
427.40979
 30
0.0
 11
1065.949219
 21
427.149994
 31
0.0
  0
LINE
  5
191
330
1F
100
AcDbEntity
  8
0
 62
     7
370
    35
100
AcDbLine
 10
1065.949219
 20
436.799988
 30
0.0
 11
1065.499146
 21
436.799988
 31
0.0
  0
LINE
  5
192
330
1F
100
AcDbEntity
  8
0
 62
     7
370
    35
100
AcDbLine
 10
1065.949219
 20
427.0
 30
0.0
 11
1065.499146
 21
427.0
 31
0.0
  0
LINE
  5
193
330
1F
100
AcDbEntity
  8
0
 62
     7
370
    35
100
AcDbLine
 10
1066.099121
 20
427.40979
 30
0.0
 11
1065.949219
 21
427.149994
 31
0.0
  0
LINE
  5
194
330
1F
100
AcDbEntity
  8
0
 62
     7
370
    35
100
AcDbLine
 10
1066.099121
 20
436.390198
 30
0.0
 11
1065.949219
 21
436.649994
 31
0.0
  0
LINE
  5
195
330
1F
100
AcDbEntity
  8
0
 62
     7
370
    35
100
AcDbLine
 10
1059.299194
 20
441.399994
 30
0.0
 11
1059.299194
 21
441.600006
 31
0.0
  0
LINE
  5
196
330
1F
100
AcDbEntity
  8
0
 62
     7
370
    35
100
AcDbLine
 10
1051.299194
 20
441.399994
 30
0.0
 11
1051.299194
 21
441.600006
 31
0.0
  0
LINE
  5
197
330
1F
100
AcDbEntity
  8
0
 62
     7
370
    35
100
AcDbLine
 10
1059.299194
 20
441.399994
 30
0.0
 11
1059.299194
 21
441.600006
 31
0.0
  0
LINE
  5
198
330
1F
100
AcDbEntity
  8
0
  6
DASHDOT
 62
     7
 48
0.208051
370
    13
100
AcDbLine
 10
341.661011
 20
314.679718
 30
0.0
 11
333.338989
 21
314.679718
 31
0.0
  0
LINE
  5
199
330
1F
100
AcDbEntity
  8
0
  6
DASHDOT
 62
     7
 48
0.20805
370
    13
100
AcDbLine
 10
337.5
 20
318.840729
 30
0.0
 11
337.5
 21
310.518738
 31
0.0
  0
LINE
  5
19A
330
1F
100
AcDbEntity
  8
0
  6
DASHDOT
 62
     7
 48
0.208051
370
    13
100
AcDbLine
 10
305.661011
 20
314.679718
 30
0.0
 11
297.338989
 21
314.679718
 31
0.0
  0
LINE
  5
19B
330
1F
100
AcDbEntity
  8
0
  6
DASHDOT
 62
     7
 48
0.20805
370
    13
100
AcDbLine
 10
301.5
 20
318.840729
 30
0.0
 11
301.5
 21
310.518738
 31
0.0
  0
LINE
  5
19C
330
1F
100
AcDbEntity
  8
0
 62
     7
370
    35
100
AcDbLine
 10
973.0
 20
319.979736
 30
0.0
 11
349.5
 21
319.979736
 31
0.0
  0
LINE
  5
19D
330
1F
100
AcDbEntity
  8
0
 62
     7
370
    35
100
AcDbLine
 10
327.0
 20
319.979736
 30
0.0
 11
324.5
 21
319.979736
 31
0.0
  0
LINE
  5
19E
330
1F
100
AcDbEntity
  8
0
 62
     7
370
    35
100
AcDbLine
 10
314.5
 20
319.979736
 30
0.0
 11
312.0
 21
319.979736
 31
0.0
  0
LINE
  5
19F
330
1F
100
AcDbEntity
  8
0
 62
     7
370
    35
100
AcDbLine
 10
289.5
 20
319.979736
 30
0.0
 11
216.0
 21
319.979736
 31
0.0
  0
LINE
  5
1A0
330
1F
100
AcDbEntity
  8
0
 62
     7
370
    35
100
AcDbLine
 10
973.0
 20
314.279724
 30
0.0
 11
349.5
 21
314.279724
 31
0.0
  0
LINE
  5
1A1
330
1F
100
AcDbEntity
  8
0
 62
     7
370
    35
100
AcDbLine
 10
250.5
 20
314.279724
 30
0.0
 11
216.0
 21
314.279724
 31
0.0
  0
LINE
  5
1A2
330
1F
100
AcDbEntity
  8
0
 62
     7
370
    35
100
AcDbLine
 10
349.5
 20
310.37973
 30
0.0
 11
973.0
 21
310.37973
 31
0.0
  0
LINE
  5
1A3
330
1F
100
AcDbEntity
  8
0
 62
     7
370
    35
100
AcDbLine
 10
216.0
 20
310.37973
 30
0.0
 11
289.5
 21
310.37973
 31
0.0
  0
LINE
  5
1A4
330
1F
100
AcDbEntity
  8
0
 62
     7
370
    35
100
AcDbLine
 10
973.0
 20
300.779724
 30
0.0
 11
216.0
 21
300.779724
 31
0.0
  0
LINE
  5
1A5
330
1F
100
AcDbEntity
  8
0
 62
     7
370
    35
100
AcDbLine
 10
973.0
 20
306.479736
 30
0.0
 11
216.0
 21
306.479736
 31
0.0
  0
LINE
  5
1A6
330
1F
100
AcDbEntity
  8
0
 62
     7
370
    35
100
AcDbLine
 10
233.0
 20
320.179718
 30
0.0
 11
233.0
 21
319.979706
 31
0.0
  0
ARC
  5
1A7
330
1F
100
AcDbEntity
  8
0
 62
     7
370
    35
100
AcDbCircle
 10
232.699997
 20
320.179718
 30
0.0
 40
0.3
100
AcDbArc
 50
0.0
 51
90.000003
  0
ARC
  5
1A8
330
1F
100
AcDbEntity
  8
0
 62
     7
370
    35
100
AcDbCircle
 10
229.300003
 20
320.179718
 30
0.0
 40
0.3
100
AcDbArc
 50
90.000003
 51
180.000005
  0
LINE
  5
1A9
330
1F
100
AcDbEntity
  8
0
 62
     7
370
    35
100
AcDbLine
 10
233.0
 20
320.179718
 30
0.0
 11
233.0
 21
319.979736
 31
0.0
  0
LINE
  5
1AA
330
1F
100
AcDbEntity
  8
0
 62
     7
370
    35
100
AcDbLine
 10
229.0
 20
320.179718
 30
0.0
 11
229.0
 21
319.979736
 31
0.0
  0
LINE
  5
1AB
330
1F
100
AcDbEntity
  8
0
 62
     7
370
    35
100
AcDbLine
 10
229.300003
 20
320.479736
 30
0.0
 11
232.699997
 21
320.479736
 31
0.0
  0
ARC
  5
1AC
330
1F
100
AcDbEntity
  8
0
 62
     7
370
    35
100
AcDbCircle
 10
232.699997
 20
320.179718
 30
0.0
 40
0.3
100
AcDbArc
 50
0.0
 51
90.000003
  0
ARC
  5
1AD
330
1F
100
AcDbEntity
  8
0
 62
     7
370
    35
100
AcDbCircle
 10
229.300003
 20
320.179718
 30
0.0
 40
0.3
100
AcDbArc
 50
90.000003
 51
180.000005
  0
LINE
  5
1AE
330
1F
100
AcDbEntity
  8
0
 62
     7
370
    35
100
AcDbLine
 10
233.0
 20
300.579742
 30
0.0
 11
233.0
 21
300.779724
 31
0.0
  0
LINE
  5
1AF
330
1F
100
AcDbEntity
  8
0
 62
     7
370
    35
100
AcDbLine
 10
233.0
 20
300.579742
 30
0.0
 11
233.0
 21
300.779724
 31
0.0
  0
LINE
  5
1B0
330
1F
100
AcDbEntity
  8
0
 62
     7
370
    35
100
AcDbLine
 10
229.0
 20
300.579742
 30
0.0
 11
229.0
 21
300.779724
 31
0.0
  0
LINE
  5
1B1
330
1F
100
AcDbEntity
  8
0
 62
     7
370
    35
100
AcDbLine
 10
232.699997
 20
300.279724
 30
0.0
 11
229.300003
 21
300.279724
 31
0.0
  0
ARC
  5
1B2
330
1F
100
AcDbEntity
  8
0
 62
     7
370
    35
100
AcDbCircle
 10
232.699997
 20
300.579742
 30
0.0
 40
0.3
100
AcDbArc
 50
269.999997
 51
360.0
  0
ARC
  5
1B3
330
1F
100
AcDbEntity
  8
0
 62
     7
370
    35
100
AcDbCircle
 10
229.300003
 20
300.579742
 30
0.0
 40
0.3
100
AcDbArc
 50
180.000005
 51
269.999997
  0
LINE
  5
1B4
330
1F
100
AcDbEntity
  8
0
 62
     7
370
    35
100
AcDbLine
 10
960.0
 20
320.179718
 30
0.0
 11
960.0
 21
319.979706
 31
0.0
  0
ARC
  5
1B5
330
1F
100
AcDbEntity
  8
0
 62
     7
370
    35
100
AcDbCircle
 10
959.700012
 20
320.179718
 30
0.0
 40
0.3
100
AcDbArc
 50
0.0
 51
90.000003
  0
ARC
  5
1B6
330
1F
100
AcDbEntity
  8
0
 62
     7
370
    35
100
AcDbCircle
 10
956.299988
 20
320.179718
 30
0.0
 40
0.3
100
AcDbArc
 50
90.000003
 51
180.000005
  0
LINE
  5
1B7
330
1F
100
AcDbEntity
  8
0
 62
     7
370
    35
100
AcDbLine
 10
960.0
 20
320.179718
 30
0.0
 11
960.0
 21
319.979736
 31
0.0
  0
LINE
  5
1B8
330
1F
100
AcDbEntity
  8
0
 62
     7
370
    35
100
AcDbLine
 10
956.0
 20
320.179718
 30
0.0
 11
956.0
 21
319.979736
 31
0.0
  0
LINE
  5
1B9
330
1F
100
AcDbEntity
  8
0
 62
     7
370
    35
100
AcDbLine
 10
956.299988
 20
320.479736
 30
0.0
 11
959.700012
 21
320.479736
 31
0.0
  0
ARC
  5
1BA
330
1F
100
AcDbEntity
  8
0
 62
     7
370
    35
100
AcDbCircle
 10
959.700012
 20
320.179718
 30
0.0
 40
0.3
100
AcDbArc
 50
0.0
 51
90.000003
  0
ARC
  5
1BB
330
1F
100
AcDbEntity
  8
0
 62
     7
370
    35
100
AcDbCircle
 10
956.299988
 20
320.179718
 30
0.0
 40
0.3
100
AcDbArc
 50
90.000003
 51
180.000005
  0
LINE
  5
1BC
330
1F
100
AcDbEntity
  8
0
 62
     7
370
    35
100
AcDbLine
 10
960.0
 20
300.579742
 30
0.0
 11
960.0
 21
300.779724
 31
0.0
  0
LINE
  5
1BD
330
1F
100
AcDbEntity
  8
0
 62
     7
370
    35
100
AcDbLine
 10
960.0
 20
300.579742
 30
0.0
 11
960.0
 21
300.779724
 31
0.0
  0
LINE
  5
1BE
330
1F
100
AcDbEntity
  8
0
 62
     7
370
    35
100
AcDbLine
 10
956.0
 20
300.579742
 30
0.0
 11
956.0
 21
300.779724
 31
0.0
  0
LINE
  5
1BF
330
1F
100
AcDbEntity
  8
0
 62
     7
370
    35
100
AcDbLine
 10
959.700012
 20
300.279724
 30
0.0
 11
956.299988
 21
300.279724
 31
0.0
  0
ARC
  5
1C0
330
1F
100
AcDbEntity
  8
0
 62
     7
370
    35
100
AcDbCircle
 10
959.700012
 20
300.579742
 30
0.0
 40
0.3
100
AcDbArc
 50
269.999997
 51
360.0
  0
ARC
  5
1C1
330
1F
100
AcDbEntity
  8
0
 62
     7
370
    35
100
AcDbCircle
 10
956.299988
 20
300.579742
 30
0.0
 40
0.3
100
AcDbArc
 50
180.000005
 51
269.999997
  0
LINE
  5
1C2
330
1F
100
AcDbEntity
  8
0
 62
     7
370
    35
100
AcDbLine
 10
218.349182
 20
299.829742
 30
0.0
 11
211.100006
 21
299.829742
 31
0.0
  0
LINE
  5
1C3
330
1F
100
AcDbEntity
  8
0
 62
     7
370
    35
100
AcDbLine
 10
220.899994
 20
299.829742
 30
0.0
 11
218.349182
 21
299.829742
 31
0.0
  0
LINE
  5
1C4
330
1F
100
AcDbEntity
  8
0
 62
     7
370
    35
100
AcDbLine
 10
220.490189
 20
299.679718
 30
0.0
 11
218.15271
 21
299.679718
 31
0.0
  0
LINE
  5
1C5
330
1F
100
AcDbEntity
  8
0
 62
     7
370
    35
100
AcDbLine
 10
218.15271
 20
299.679718
 30
0.0
 11
211.509811
 21
299.679718
 31
0.0
  0
LINE
  5
1C6
330
1F
100
AcDbEntity
  8
0
 62
     7
370
    35
100
AcDbLine
 10
968.699829
 20
299.829742
 30
0.0
 11
968.099976
 21
299.829742
 31
0.0
  0
LINE
  5
1C7
330
1F
100
AcDbEntity
  8
0
 62
     7
370
    35
100
AcDbLine
 10
977.900024
 20
299.829742
 30
0.0
 11
968.699829
 21
299.829742
 31
0.0
  0
LINE
  5
1C8
330
1F
100
AcDbEntity
  8
0
 62
     7
370
    35
100
AcDbLine
 10
977.490173
 20
299.679718
 30
0.0
 11
969.059509
 21
299.679718
 31
0.0
  0
LINE
  5
1C9
330
1F
100
AcDbEntity
  8
0
 62
     7
370
    35
100
AcDbLine
 10
969.059509
 20
299.679718
 30
0.0
 11
968.509827
 21
299.679718
 31
0.0
  0
LINE
  5
1CA
330
1F
100
AcDbEntity
  8
0
 62
     7
370
    35
100
AcDbLine
 10
325.5
 20
308.779724
 30
0.0
 11
340.0
 21
308.779724
 31
0.0
  0
LINE
  5
1CB
330
1F
100
AcDbEntity
  8
0
 62
     7
370
    35
100
AcDbLine
 10
325.5
 20
308.779724
 30
0.0
 11
325.5
 21
308.87973
 31
0.0
  0
LINE
  5
1CC
330
1F
100
AcDbEntity
  8
0
 62
     7
370
    35
100
AcDbLine
 10
349.5
 20
320.679718
 30
0.0
 11
349.5
 21
308.679718
 31
0.0
  0
LINE
  5
1CD
330
1F
100
AcDbEntity
  8
0
 62
     7
370
    35
100
AcDbLine
 10
327.0
 20
320.679718
 30
0.0
 11
349.5
 21
320.679718
 31
0.0
  0
LINE
  5
1CE
330
1F
100
AcDbEntity
  8
0
 62
     7
370
    35
100
AcDbLine
 10
327.0
 20
311.279724
 30
0.0
 11
340.0
 21
311.279724
 31
0.0
  0
LINE
  5
1CF
330
1F
100
AcDbEntity
  8
0
 62
     7
370
    35
100
AcDbLine
 10
340.0
 20
308.679718
 30
0.0
 11
340.0
 21
311.279724
 31
0.0
  0
LINE
  5
1D0
330
1F
100
AcDbEntity
  8
0
 62
     7
370
    35
100
AcDbLine
 10
340.0
 20
308.679718
 30
0.0
 11
349.5
 21
308.679718
 31
0.0
  0
LINE
  5
1D1
330
1F
100
AcDbEntity
  8
0
 62
     7
370
    35
100
AcDbLine
 10
327.0
 20
320.679718
 30
0.0
 11
327.0
 21
319.87973
 31
0.0
  0
LINE
  5
1D2
330
1F
100
AcDbEntity
  8
0
 62
     7
370
    35
100
AcDbLine
 10
327.0
 20
319.87973
 30
0.0
 11
327.0
 21
311.279724
 31
0.0
  0
CIRCLE
  5
1D3
330
1F
100
AcDbEntity
  8
0
 62
     7
370
    35
100
AcDbCircle
 10
337.5
 20
314.679718
 30
0.0
 40
1.621
  0
LINE
  5
1D4
330
1F
100
AcDbEntity
  8
0
 62
     7
370
    35
100
AcDbLine
 10
312.0
 20
320.679718
 30
0.0
 11
312.0
 21
319.87973
 31
0.0
  0
LINE
  5
1D5
330
1F
100
AcDbEntity
  8
0
 62
     7
370
    35
100
AcDbLine
 10
312.0
 20
319.87973
 30
0.0
 11
312.0
 21
311.279724
 31
0.0
  0
LINE
  5
1D6
330
1F
100
AcDbEntity
  8
0
 62
     7
370
    35
100
AcDbLine
 10
289.5
 20
320.679718
 30
0.0
 11
312.0
 21
320.679718
 31
0.0
  0
LINE
  5
1D7
330
1F
100
AcDbEntity
  8
0
 62
     7
370
    35
100
AcDbLine
 10
299.0
 20
308.679718
 30
0.0
 11
299.0
 21
311.279724
 31
0.0
  0
LINE
  5
1D8
330
1F
100
AcDbEntity
  8
0
 62
     7
370
    35
100
AcDbLine
 10
299.0
 20
311.279724
 30
0.0
 11
312.0
 21
311.279724
 31
0.0
  0
LINE
  5
1D9
330
1F
100
AcDbEntity
  8
0
 62
     7
370
    35
100
AcDbLine
 10
289.5
 20
320.679718
 30
0.0
 11
289.5
 21
308.679718
 31
0.0
  0
LINE
  5
1DA
330
1F
100
AcDbEntity
  8
0
 62
     7
370
    35
100
AcDbLine
 10
289.5
 20
308.679718
 30
0.0
 11
299.0
 21
308.679718
 31
0.0
  0
CIRCLE
  5
1DB
330
1F
100
AcDbEntity
  8
0
 62
     7
370
    35
100
AcDbCircle
 10
301.5
 20
314.679718
 30
0.0
 40
1.621000000000002
  0
LINE
  5
1DC
330
1F
100
AcDbEntity
  8
0
 62
     7
370
    35
100
AcDbLine
 10
314.5
 20
320.37973
 30
0.0
 11
317.5
 21
320.37973
 31
0.0
  0
LINE
  5
1DD
330
1F
100
AcDbEntity
  8
0
 62
     7
370
    35
100
AcDbLine
 10
317.5
 20
320.37973
 30
0.0
 11
321.5
 21
320.37973
 31
0.0
  0
LINE
  5
1DE
330
1F
100
AcDbEntity
  8
0
 62
     7
370
    35
100
AcDbLine
 10
321.5
 20
320.37973
 30
0.0
 11
324.5
 21
320.37973
 31
0.0
  0
LINE
  5
1DF
330
1F
100
AcDbEntity
  8
0
 62
     7
370
    35
100
AcDbLine
 10
324.5
 20
319.87973
 30
0.0
 11
324.5
 21
320.37973
 31
0.0
  0
LINE
  5
1E0
330
1F
100
AcDbEntity
  8
0
 62
     7
370
    35
100
AcDbLine
 10
314.5
 20
319.87973
 30
0.0
 11
314.5
 21
320.37973
 31
0.0
  0
LINE
  5
1E1
330
1F
100
AcDbEntity
  8
0
 62
     7
370
    35
100
AcDbLine
 10
317.5
 20
319.87973
 30
0.0
 11
317.5
 21
320.37973
 31
0.0
  0
LINE
  5
1E2
330
1F
100
AcDbEntity
  8
0
 62
     7
370
    35
100
AcDbLine
 10
321.5
 20
319.87973
 30
0.0
 11
321.5
 21
320.37973
 31
0.0
  0
LINE
  5
1E3
330
1F
100
AcDbEntity
  8
0
 62
     7
370
    35
100
AcDbLine
 10
339.899994
 20
309.779724
 30
0.0
 11
340.0
 21
309.779724
 31
0.0
  0
LINE
  5
1E4
330
1F
100
AcDbEntity
  8
0
 62
     7
370
    35
100
AcDbLine
 10
312.0
 20
319.87973
 30
0.0
 11
327.0
 21
319.87973
 31
0.0
  0
LINE
  5
1E5
330
1F
100
AcDbEntity
  8
0
 62
     7
370
    35
100
AcDbLine
 10
299.0
 20
309.779724
 30
0.0
 11
299.100006
 21
309.779724
 31
0.0
  0
LINE
  5
1E6
330
1F
100
AcDbEntity
  8
0
 62
     7
370
    35
100
AcDbLine
 10
299.100006
 20
308.87973
 30
0.0
 11
299.100006
 21
309.779724
 31
0.0
  0
LINE
  5
1E7
330
1F
100
AcDbEntity
  8
0
 62
     7
370
    35
100
AcDbLine
 10
299.100006
 20
308.87973
 30
0.0
 11
339.899994
 21
308.87973
 31
0.0
  0
LINE
  5
1E8
330
1F
100
AcDbEntity
  8
0
 62
     7
370
    35
100
AcDbLine
 10
339.899994
 20
308.87973
 30
0.0
 11
339.899994
 21
309.779724
 31
0.0
  0
LINE
  5
1E9
330
1F
100
AcDbEntity
  8
0
 62
     7
370
    35
100
AcDbLine
 10
299.0
 20
308.779724
 30
0.0
 11
313.5
 21
308.779724
 31
0.0
  0
LINE
  5
1EA
330
1F
100
AcDbEntity
  8
0
 62
     7
370
    35
100
AcDbLine
 10
313.5
 20
308.779724
 30
0.0
 11
313.5
 21
308.87973
 31
0.0
  0
LINE
  5
1EB
330
1F
100
AcDbEntity
  8
0
 62
     7
370
    35
100
AcDbLine
 10
339.899994
 20
308.87973
 30
0.0
 11
340.0
 21
308.87973
 31
0.0
  0
LINE
  5
1EC
330
1F
100
AcDbEntity
  8
0
 62
     7
370
    35
100
AcDbLine
 10
315.5
 20
308.579742
 30
0.0
 11
323.5
 21
308.579742
 31
0.0
  0
LINE
  5
1ED
330
1F
100
AcDbEntity
  8
0
 62
     7
370
    35
100
AcDbLine
 10
299.100006
 20
308.87973
 30
0.0
 11
299.0
 21
308.87973
 31
0.0
  0
LINE
  5
1EE
330
1F
100
AcDbEntity
  8
0
 62
     7
370
    35
100
AcDbLine
 10
323.5
 20
308.579742
 30
0.0
 11
325.5
 21
308.87973
 31
0.0
  0
LINE
  5
1EF
330
1F
100
AcDbEntity
  8
0
 62
     7
370
    35
100
AcDbLine
 10
315.5
 20
308.579742
 30
0.0
 11
313.5
 21
308.87973
 31
0.0
  0
LINE
  5
1F0
330
1F
100
AcDbEntity
  8
0
 62
     7
370
    35
100
AcDbLine
 10
289.5
 20
311.329742
 30
0.0
 11
250.5
 21
311.329742
 31
0.0
  0
LINE
  5
1F1
330
1F
100
AcDbEntity
  8
0
 62
     7
370
    35
100
AcDbLine
 10
289.5
 20
316.829742
 30
0.0
 11
250.5
 21
316.829742
 31
0.0
  0
LINE
  5
1F2
330
1F
100
AcDbEntity
  8
0
 62
     7
370
    35
100
AcDbLine
 10
250.5
 20
311.329742
 30
0.0
 11
250.5
 21
316.829742
 31
0.0
  0
LINE
  5
1F3
330
1F
100
AcDbEntity
  8
0
 62
     7
370
    35
100
AcDbLine
 10
216.0
 20
320.679718
 30
0.0
 11
209.5
 21
320.679718
 31
0.0
  0
LINE
  5
1F4
330
1F
100
AcDbEntity
  8
0
 62
     7
370
    35
100
AcDbLine
 10
216.0
 20
320.679718
 30
0.0
 11
222.5
 21
320.679718
 31
0.0
  0
LINE
  5
1F5
330
1F
100
AcDbEntity
  8
0
 62
     7
370
    35
100
AcDbLine
 10
209.5
 20
318.37973
 30
0.0
 11
209.5
 21
320.679718
 31
0.0
  0
LINE
  5
1F6
330
1F
100
AcDbEntity
  8
0
 62
     7
370
    35
100
AcDbLine
 10
216.0
 20
318.37973
 30
0.0
 11
216.0
 21
320.679718
 31
0.0
  0
LINE
  5
1F7
330
1F
100
AcDbEntity
  8
0
 62
     7
370
    35
100
AcDbLine
 10
209.5
 20
318.37973
 30
0.0
 11
209.5
 21
313.979736
 31
0.0
  0
LINE
  5
1F8
330
1F
100
AcDbEntity
  8
0
 62
     7
370
    35
100
AcDbLine
 10
216.0
 20
313.979736
 30
0.0
 11
209.5
 21
313.979736
 31
0.0
  0
LINE
  5
1F9
330
1F
100
AcDbEntity
  8
0
 62
     7
370
    35
100
AcDbLine
 10
216.0
 20
318.37973
 30
0.0
 11
216.0
 21
313.979736
 31
0.0
  0
LINE
  5
1FA
330
1F
100
AcDbEntity
  8
0
 62
     7
370
    35
100
AcDbLine
 10
209.5
 20
313.979736
 30
0.0
 11
209.5
 21
311.229736
 31
0.0
  0
LINE
  5
1FB
330
1F
100
AcDbEntity
  8
0
 62
     7
370
    35
100
AcDbLine
 10
216.0
 20
311.229736
 30
0.0
 11
209.5
 21
311.229736
 31
0.0
  0
LINE
  5
1FC
330
1F
100
AcDbEntity
  8
0
 62
     7
370
    35
100
AcDbLine
 10
216.0
 20
313.979736
 30
0.0
 11
216.0
 21
311.229736
 31
0.0
  0
LINE
  5
1FD
330
1F
100
AcDbEntity
  8
0
 62
     7
370
    35
100
AcDbLine
 10
209.5
 20
311.229736
 30
0.0
 11
209.5
 21
309.729736
 31
0.0
  0
LINE
  5
1FE
330
1F
100
AcDbEntity
  8
0
 62
     7
370
    35
100
AcDbLine
 10
216.0
 20
309.729736
 30
0.0
 11
209.5
 21
309.729736
 31
0.0
  0
LINE
  5
1FF
330
1F
100
AcDbEntity
  8
0
 62
     7
370
    35
100
AcDbLine
 10
216.0
 20
311.229736
 30
0.0
 11
216.0
 21
309.729736
 31
0.0
  0
LINE
  5
200
330
1F
100
AcDbEntity
  8
0
 62
     7
370
    35
100
AcDbLine
 10
209.5
 20
309.729736
 30
0.0
 11
209.5
 21
306.979736
 31
0.0
  0
LINE
  5
201
330
1F
100
AcDbEntity
  8
0
 62
     7
370
    35
100
AcDbLine
 10
216.0
 20
306.979736
 30
0.0
 11
209.5
 21
306.979736
 31
0.0
  0
LINE
  5
202
330
1F
100
AcDbEntity
  8
0
 62
     7
370
    35
100
AcDbLine
 10
216.0
 20
309.729736
 30
0.0
 11
216.0
 21
306.979736
 31
0.0
  0
LINE
  5
203
330
1F
100
AcDbEntity
  8
0
 62
     7
370
    35
100
AcDbLine
 10
216.0
 20
306.979736
 30
0.0
 11
216.0
 21
302.579742
 31
0.0
  0
LINE
  5
204
330
1F
100
AcDbEntity
  8
0
 62
     7
370
    35
100
AcDbLine
 10
209.5
 20
306.979736
 30
0.0
 11
209.5
 21
302.579742
 31
0.0
  0
LINE
  5
205
330
1F
100
AcDbEntity
  8
0
 62
     7
370
    35
100
AcDbLine
 10
209.5
 20
300.279724
 30
0.0
 11
209.5
 21
302.579742
 31
0.0
  0
LINE
  5
206
330
1F
100
AcDbEntity
  8
0
 62
     7
370
    35
100
AcDbLine
 10
216.0
 20
300.279724
 30
0.0
 11
209.5
 21
300.279724
 31
0.0
  0
LINE
  5
207
330
1F
100
AcDbEntity
  8
0
 62
     7
370
    35
100
AcDbLine
 10
216.0
 20
300.279724
 30
0.0
 11
216.0
 21
302.579742
 31
0.0
  0
LINE
  5
208
330
1F
100
AcDbEntity
  8
0
 62
     7
370
    35
100
AcDbLine
 10
973.0
 20
320.679718
 30
0.0
 11
966.5
 21
320.679718
 31
0.0
  0
LINE
  5
209
330
1F
100
AcDbEntity
  8
0
 62
     7
370
    35
100
AcDbLine
 10
973.0
 20
320.679718
 30
0.0
 11
979.5
 21
320.679718
 31
0.0
  0
LINE
  5
20A
330
1F
100
AcDbEntity
  8
0
 62
     7
370
    35
100
AcDbLine
 10
973.0
 20
318.37973
 30
0.0
 11
973.0
 21
320.679718
 31
0.0
  0
LINE
  5
20B
330
1F
100
AcDbEntity
  8
0
 62
     7
370
    35
100
AcDbLine
 10
979.5
 20
318.37973
 30
0.0
 11
979.5
 21
320.679718
 31
0.0
  0
LINE
  5
20C
330
1F
100
AcDbEntity
  8
0
 62
     7
370
    35
100
AcDbLine
 10
973.0
 20
318.37973
 30
0.0
 11
973.0
 21
313.979736
 31
0.0
  0
LINE
  5
20D
330
1F
100
AcDbEntity
  8
0
 62
     7
370
    35
100
AcDbLine
 10
973.0
 20
313.979736
 30
0.0
 11
979.5
 21
313.979736
 31
0.0
  0
LINE
  5
20E
330
1F
100
AcDbEntity
  8
0
 62
     7
370
    35
100
AcDbLine
 10
979.5
 20
318.37973
 30
0.0
 11
979.5
 21
313.979736
 31
0.0
  0
LINE
  5
20F
330
1F
100
AcDbEntity
  8
0
 62
     7
370
    35
100
AcDbLine
 10
973.0
 20
313.979736
 30
0.0
 11
973.0
 21
311.229736
 31
0.0
  0
LINE
  5
210
330
1F
100
AcDbEntity
  8
0
 62
     7
370
    35
100
AcDbLine
 10
973.0
 20
311.229736
 30
0.0
 11
979.5
 21
311.229736
 31
0.0
  0
LINE
  5
211
330
1F
100
AcDbEntity
  8
0
 62
     7
370
    35
100
AcDbLine
 10
979.5
 20
313.979736
 30
0.0
 11
979.5
 21
311.229736
 31
0.0
  0
LINE
  5
212
330
1F
100
AcDbEntity
  8
0
 62
     7
370
    35
100
AcDbLine
 10
973.0
 20
311.229736
 30
0.0
 11
973.0
 21
309.729736
 31
0.0
  0
LINE
  5
213
330
1F
100
AcDbEntity
  8
0
 62
     7
370
    35
100
AcDbLine
 10
973.0
 20
309.729736
 30
0.0
 11
979.5
 21
309.729736
 31
0.0
  0
LINE
  5
214
330
1F
100
AcDbEntity
  8
0
 62
     7
370
    35
100
AcDbLine
 10
979.5
 20
311.229736
 30
0.0
 11
979.5
 21
309.729736
 31
0.0
  0
LINE
  5
215
330
1F
100
AcDbEntity
  8
0
 62
     7
370
    35
100
AcDbLine
 10
973.0
 20
309.729736
 30
0.0
 11
973.0
 21
306.979736
 31
0.0
  0
LINE
  5
216
330
1F
100
AcDbEntity
  8
0
 62
     7
370
    35
100
AcDbLine
 10
973.0
 20
306.979736
 30
0.0
 11
979.5
 21
306.979736
 31
0.0
  0
LINE
  5
217
330
1F
100
AcDbEntity
  8
0
 62
     7
370
    35
100
AcDbLine
 10
979.5
 20
309.729736
 30
0.0
 11
979.5
 21
306.979736
 31
0.0
  0
LINE
  5
218
330
1F
100
AcDbEntity
  8
0
 62
     7
370
    35
100
AcDbLine
 10
979.5
 20
306.979736
 30
0.0
 11
979.5
 21
302.579742
 31
0.0
  0
LINE
  5
219
330
1F
100
AcDbEntity
  8
0
 62
     7
370
    35
100
AcDbLine
 10
973.0
 20
306.979736
 30
0.0
 11
973.0
 21
302.579742
 31
0.0
  0
LINE
  5
21A
330
1F
100
AcDbEntity
  8
0
 62
     7
370
    35
100
AcDbLine
 10
973.0
 20
300.279724
 30
0.0
 11
973.0
 21
302.579742
 31
0.0
  0
LINE
  5
21B
330
1F
100
AcDbEntity
  8
0
 62
     7
370
    35
100
AcDbLine
 10
973.0
 20
300.279724
 30
0.0
 11
979.5
 21
300.279724
 31
0.0
  0
LINE
  5
21C
330
1F
100
AcDbEntity
  8
0
 62
     7
370
    35
100
AcDbLine
 10
979.5
 20
300.279724
 30
0.0
 11
979.5
 21
302.579742
 31
0.0
  0
LINE
  5
21D
330
1F
100
AcDbEntity
  8
0
 62
     7
370
    35
100
AcDbLine
 10
216.0
 20
312.211395
 30
0.0
 11
250.5
 21
312.211395
 31
0.0
  0
LINE
  5
21E
330
1F
100
AcDbEntity
  8
0
 62
     7
370
    35
100
AcDbLine
 10
349.5
 20
312.211395
 30
0.0
 11
973.0
 21
312.211395
 31
0.0
  0
LINE
  5
21F
330
1F
100
AcDbEntity
  8
0
 62
     7
370
    35
100
AcDbLine
 10
973.0
 20
308.548065
 30
0.0
 11
216.0
 21
308.548065
 31
0.0
  0
LINE
  5
220
330
1F
100
AcDbEntity
  8
0
 62
     7
370
    35
100
AcDbLine
 10
211.100006
 20
299.829742
 30
0.0
 11
211.100006
 21
300.279724
 31
0.0
  0
LINE
  5
221
330
1F
100
AcDbEntity
  8
0
 62
     7
370
    35
100
AcDbLine
 10
220.899994
 20
299.829742
 30
0.0
 11
220.899994
 21
300.779724
 31
0.0
  0
LINE
  5
222
330
1F
100
AcDbEntity
  8
0
 62
     7
370
    35
100
AcDbLine
 10
220.490189
 20
299.679718
 30
0.0
 11
220.75
 21
299.829742
 31
0.0
  0
LINE
  5
223
330
1F
100
AcDbEntity
  8
0
 62
     7
370
    35
100
AcDbLine
 10
211.509811
 20
299.679718
 30
0.0
 11
211.25
 21
299.829742
 31
0.0
  0
LINE
  5
224
330
1F
100
AcDbEntity
  8
0
 62
     7
370
    35
100
AcDbLine
 10
968.099976
 20
299.829742
 30
0.0
 11
968.099976
 21
300.779724
 31
0.0
  0
LINE
  5
225
330
1F
100
AcDbEntity
  8
0
 62
     7
370
    35
100
AcDbLine
 10
977.900024
 20
299.829742
 30
0.0
 11
977.900024
 21
300.279724
 31
0.0
  0
LINE
  5
226
330
1F
100
AcDbEntity
  8
0
 62
     7
370
    35
100
AcDbLine
 10
977.490173
 20
299.679718
 30
0.0
 11
977.75
 21
299.829742
 31
0.0
  0
LINE
  5
227
330
1F
100
AcDbEntity
  8
0
 62
     7
370
    35
100
AcDbLine
 10
968.509827
 20
299.679718
 30
0.0
 11
968.25
 21
299.829742
 31
0.0
  0
LINE
  5
228
330
1F
100
AcDbEntity
  8
0
 62
     7
370
    35
100
AcDbLine
 10
222.5
 20
320.679718
 30
0.0
 11
222.5
 21
319.979736
 31
0.0
  0
LINE
  5
229
330
1F
100
AcDbEntity
  8
0
 62
     7
370
    35
100
AcDbLine
 10
966.5
 20
319.979736
 30
0.0
 11
966.5
 21
320.679718
 31
0.0
  0
ENDSEC
  0
SECTION
  2
OBJECTS
  0
DICTIONARY
  5
C
330
0
100
AcDbDictionary
281
     1
  3
ACAD_GROUP
350
D
  3
ACAD_LAYOUT
350
1A
  3
ACAD_MLINESTYLE
350
17
  3
ACAD_PLOTSETTINGS
350
19
  3
ACAD_PLOTSTYLENAME
350
E
  3
ACAD_SCALELIST
350
47
  0
DICTIONARY
  5
D
102
{ACAD_REACTORS
330
C
102
}
330
C
100
AcDbDictionary
281
     1
  0
DICTIONARY
  5
1A
102
{ACAD_REACTORS
330
C
102
}
330
C
100
AcDbDictionary
281
     1
  3
Layout1
350
1E
  3
Layout2
350
26
  3
Model
350
22
  0
DICTIONARY
  5
17
102
{ACAD_REACTORS
330
C
102
}
330
C
100
AcDbDictionary
281
     1
  3
Standard
350
18
  0
DICTIONARY
  5
19
102
{ACAD_REACTORS
330
C
102
}
330
C
100
AcDbDictionary
281
     1
  0
ACDBDICTIONARYWDFLT
  5
E
102
{ACAD_REACTORS
330
C
102
}
330
C
100
AcDbDictionary
281
     1
  3
Normal
350
F
100
AcDbDictionaryWithDefault
340
F
  0
DICTIONARY
  5
47
102
{ACAD_REACTORS
330
C
102
}
330
C
100
AcDbDictionary
281
     1
  3
A0
350
48
  3
A1
350
49
  3
A2
350
4A
  3
A3
350
4B
  3
A4
350
4C
  3
A5
350
4D
  3
A6
350
4E
  3
A7
350
4F
  3
A8
350
50
  3
A9
350
51
  3
B0
350
52
  3
B1
350
53
  3
B2
350
54
  3
B3
350
55
  3
B4
350
56
  3
B5
350
57
  3
B6
350
58
  3
B7
350
59
  3
B8
350
5A
  3
B9
350
5B
  3
C0
350
5C
  3
C1
350
5D
  3
C2
350
5E
  3
C3
350
5F
  3
C4
350
60
  3
C5
350
61
  3
C6
350
62
  3
C7
350
63
  3
C8
350
64
  3
C9
350
65
  3
D0
350
66
  3
D1
350
67
  3
D2
350
68
  0
LAYOUT
  5
1E
102
{ACAD_REACTORS
330
1A
102
}
330
1A
100
AcDbPlotSettings
  1

  2
none_device
  4

  6

 40
0.0
 41
0.0
 42
0.0
 43
0.0
 44
0.0
 45
0.0
 46
0.0
 47
0.0
 48
0.0
 49
0.0
140
0.0
141
0.0
142
1.0
143
1.0
 70
  4784
 72
     0
 73
     0
 74
     5
  7

 75
    16
147
1.0
148
0.0
149
0.0
100
AcDbLayout
  1
Layout1
 70
     1
 71
     1
 10
0.0
 20
0.0
 11
420.0
 21
297.0
 12
0.0
 22
0.0
 32
0.0
 14
0.0
 24
0.0
 34
0.0
 15
1066.099121
 25
441.600006
 35
2.0
146
0.0
 13
0.0
 23
0.0
 33
0.0
 16
1.0
 26
0.0
 36
0.0
 17
0.0
 27
1.0
 37
0.0
 76
     0
330
1B
  0
LAYOUT
  5
26
102
{ACAD_REACTORS
330
1A
102
}
330
1A
100
AcDbPlotSettings
  1

  2
none_device
  4

  6

 40
0.0
 41
0.0
 42
0.0
 43
0.0
 44
0.0
 45
0.0
 46
0.0
 47
0.0
 48
0.0
 49
0.0
140
0.0
141
0.0
142
1.0
143
1.0
 70
  4784
 72
     0
 73
     0
 74
     5
  7

 75
    16
147
1.0
148
0.0
149
0.0
100
AcDbLayout
  1
Layout2
 70
     1
 71
     2
 10
0.0
 20
0.0
 11
0.0
 21
0.0
 12
0.0
 22
0.0
 32
0.0
 14
0.0
 24
0.0
 34
0.0
 15
0.0
 25
0.0
 35
0.0
146
0.0
 13
0.0
 23
0.0
 33
0.0
 16
1.0
 26
0.0
 36
0.0
 17
0.0
 27
1.0
 37
0.0
 76
     0
330
23
  0
LAYOUT
  5
22
102
{ACAD_REACTORS
330
1A
102
}
330
1A
100
AcDbPlotSettings
  1

  2
none_device
  4
Letter_(8.50_x_11.00_Inches)
  6

 40
6.35
 41
6.35
 42
6.350005
 43
6.350005
 44
215.9
 45
279.4
 46
0.0
 47
0.0
 48
0.0
 49
0.0
140
0.0
141
0.0
142
1.0
143
1.0
 70
  5808
 72
     0
 73
     0
 74
     0
  7

 75
     0
147
1.0
148
0.0
149
0.0
100
AcDbLayout
  1
Model
 70
     1
 71
     0
 10
0.0
 20
0.0
 11
420.0
 21
297.0
 12
0.0
 22
0.0
 32
0.0
 14
0.0
 24
0.0
 34
0.0
 15
1066.099121
 25
441.600006
 35
2.0
146
0.0
 13
0.0
 23
0.0
 33
0.0
 16
1.0
 26
0.0
 36
0.0
 17
0.0
 27
1.0
 37
0.0
 76
     0
330
1F
331
29
  0
MLINESTYLE
  5
18
102
{ACAD_REACTORS
330
17
102
}
330
17
100
AcDbMlineStyle
  2
Standard
 70
     0
  3

 62
   256
 51
90.0
 52
90.0
 71
     2
 49
0.5
 62
   256
  6
BYLAYER
 49
-0.5
 62
   256
  6
BYLAYER
  0
ACDBPLACEHOLDER
  5
F
102
{ACAD_REACTORS
330
E
102
}
330
E
  0
SCALE
  5
48
102
{ACAD_REACTORS
330
47
102
}
330
47
100
AcDbScale
 70
     0
300
1:1
140
1.0
141
1.0
290
     1
  0
SCALE
  5
49
102
{ACAD_REACTORS
330
47
102
}
330
47
100
AcDbScale
 70
     0
300
1:2
140
1.0
141
2.0
290
     0
  0
SCALE
  5
4A
102
{ACAD_REACTORS
330
47
102
}
330
47
100
AcDbScale
 70
     0
300
1:4
140
1.0
141
4.0
290
     0
  0
SCALE
  5
4B
102
{ACAD_REACTORS
330
47
102
}
330
47
100
AcDbScale
 70
     0
300
1:5
140
1.0
141
5.0
290
     0
  0
SCALE
  5
4C
102
{ACAD_REACTORS
330
47
102
}
330
47
100
AcDbScale
 70
     0
300
1:8
140
1.0
141
8.0
290
     0
  0
SCALE
  5
4D
102
{ACAD_REACTORS
330
47
102
}
330
47
100
AcDbScale
 70
     0
300
1:10
140
1.0
141
10.0
290
     0
  0
SCALE
  5
4E
102
{ACAD_REACTORS
330
47
102
}
330
47
100
AcDbScale
 70
     0
300
1:16
140
1.0
141
16.0
290
     0
  0
SCALE
  5
4F
102
{ACAD_REACTORS
330
47
102
}
330
47
100
AcDbScale
 70
     0
300
1:20
140
1.0
141
20.0
290
     0
  0
SCALE
  5
50
102
{ACAD_REACTORS
330
47
102
}
330
47
100
AcDbScale
 70
     0
300
1:30
140
1.0
141
30.0
290
     0
  0
SCALE
  5
51
102
{ACAD_REACTORS
330
47
102
}
330
47
100
AcDbScale
 70
     0
300
1:40
140
1.0
141
40.0
290
     0
  0
SCALE
  5
52
102
{ACAD_REACTORS
330
47
102
}
330
47
100
AcDbScale
 70
     0
300
1:50
140
1.0
141
50.0
290
     0
  0
SCALE
  5
53
102
{ACAD_REACTORS
330
47
102
}
330
47
100
AcDbScale
 70
     0
300
1:100
140
1.0
141
100.0
290
     0
  0
SCALE
  5
54
102
{ACAD_REACTORS
330
47
102
}
330
47
100
AcDbScale
 70
     0
300
2:1
140
2.0
141
1.0
290
     0
  0
SCALE
  5
55
102
{ACAD_REACTORS
330
47
102
}
330
47
100
AcDbScale
 70
     0
300
4:1
140
4.0
141
1.0
290
     0
  0
SCALE
  5
56
102
{ACAD_REACTORS
330
47
102
}
330
47
100
AcDbScale
 70
     0
300
8:1
140
8.0
141
1.0
290
     0
  0
SCALE
  5
57
102
{ACAD_REACTORS
330
47
102
}
330
47
100
AcDbScale
 70
     0
300
10:1
140
10.0
141
1.0
290
     0
  0
SCALE
  5
58
102
{ACAD_REACTORS
330
47
102
}
330
47
100
AcDbScale
 70
     0
300
100:1
140
100.0
141
1.0
290
     0
  0
SCALE
  5
59
102
{ACAD_REACTORS
330
47
102
}
330
47
100
AcDbScale
 70
     0
300
1/128" = 1'-0"
140
0.007812
141
12.0
290
     0
  0
SCALE
  5
5A
102
{ACAD_REACTORS
330
47
102
}
330
47
100
AcDbScale
 70
     0
300
1/64" = 1'-0"
140
0.015625
141
12.0
290
     0
  0
SCALE
  5
5B
102
{ACAD_REACTORS
330
47
102
}
330
47
100
AcDbScale
 70
     0
300
1/32" = 1'-0"
140
0.03125
141
12.0
290
     0
  0
SCALE
  5
5C
102
{ACAD_REACTORS
330
47
102
}
330
47
100
AcDbScale
 70
     0
300
1/16" = 1'-0"
140
0.0625
141
12.0
290
     0
  0
SCALE
  5
5D
102
{ACAD_REACTORS
330
47
102
}
330
47
100
AcDbScale
 70
     0
300
3/32" = 1'-0"
140
0.09375
141
12.0
290
     0
  0
SCALE
  5
5E
102
{ACAD_REACTORS
330
47
102
}
330
47
100
AcDbScale
 70
     0
300
1/8" = 1'-0"
140
0.125
141
12.0
290
     0
  0
SCALE
  5
5F
102
{ACAD_REACTORS
330
47
102
}
330
47
100
AcDbScale
 70
     0
300
3/16" = 1'-0"
140
0.1875
141
12.0
290
     0
  0
SCALE
  5
60
102
{ACAD_REACTORS
330
47
102
}
330
47
100
AcDbScale
 70
     0
300
1/4" = 1'-0"
140
0.25
141
12.0
290
     0
  0
SCALE
  5
61
102
{ACAD_REACTORS
330
47
102
}
330
47
100
AcDbScale
 70
     0
300
3/8" = 1'-0"
140
0.375
141
12.0
290
     0
  0
SCALE
  5
62
102
{ACAD_REACTORS
330
47
102
}
330
47
100
AcDbScale
 70
     0
300
1/2" = 1'-0"
140
0.5
141
12.0
290
     0
  0
SCALE
  5
63
102
{ACAD_REACTORS
330
47
102
}
330
47
100
AcDbScale
 70
     0
300
3/4" = 1'-0"
140
0.75
141
12.0
290
     0
  0
SCALE
  5
64
102
{ACAD_REACTORS
330
47
102
}
330
47
100
AcDbScale
 70
     0
300
1" = 1'-0"
140
1.0
141
12.0
290
     0
  0
SCALE
  5
65
102
{ACAD_REACTORS
330
47
102
}
330
47
100
AcDbScale
 70
     0
300
1-1/2" = 1'-0"
140
1.5
141
12.0
290
     0
  0
SCALE
  5
66
102
{ACAD_REACTORS
330
47
102
}
330
47
100
AcDbScale
 70
     0
300
3" = 1'-0"
140
3.0
141
12.0
290
     0
  0
SCALE
  5
67
102
{ACAD_REACTORS
330
47
102
}
330
47
100
AcDbScale
 70
     0
300
6" = 1'-0"
140
6.0
141
12.0
290
     0
  0
SCALE
  5
68
102
{ACAD_REACTORS
330
47
102
}
330
47
100
AcDbScale
 70
     0
300
1'-0" = 1'-0"
140
12.0
141
12.0
290
     0
  0
ENDSEC
  0
EOF
