  0
SECTION
  2
HEADER
  9
$ACADVER
  1
AC1015
  9
$ACADMAINTVER
 70
     6
  9
$DWGCODEPAGE
  3
ANSI_1252
  9
$INSBASE
 10
0.0
 20
0.0
 30
0.0
  9
$EXTMIN
 10
0.0
 20
0.0
 30
0.0
  9
$EXTMAX
 10
565.635498
 20
169.599991
 30
2.0
  9
$LIMMIN
 10
0.0
 20
0.0
  9
$LIMMAX
 10
420.0
 20
297.0
  9
$ORTHOMODE
 70
     0
  9
$REGENMODE
 70
     1
  9
$FILLMODE
 70
     1
  9
$QTEXTMODE
 70
     0
  9
$MIRRTEXT
 70
     1
  9
$LTSCALE
 40
1.0
  9
$ATTMODE
 70
     1
  9
$TEXTSIZE
 40
2.5
  9
$TRACEWID
 40
1.0
  9
$TEXTSTYLE
  7
Standard
  9
$CLAYER
  8
0
  9
$CELTYPE
  6
ByLayer
  9
$CECOLOR
 62
   256
  9
$CELTSCALE
 40
1.0
  9
$DISPSILH
 70
     0
  9
$DIMSCALE
 40
1.0
  9
$DIMASZ
 40
2.5
  9
$DIMEXO
 40
0.625
  9
$DIMDLI
 40
3.75
  9
$DIMRND
 40
0.0
  9
$DIMDLE
 40
0.0
  9
$DIMEXE
 40
1.25
  9
$DIMTP
 40
0.0
  9
$DIMTM
 40
0.0
  9
$DIMTXT
 40
2.5
  9
$DIMCEN
 40
2.5
  9
$DIMTSZ
 40
0.0
  9
$DIMTOL
 70
     0
  9
$DIMLIM
 70
     0
  9
$DIMTIH
 70
     0
  9
$DIMTOH
 70
     0
  9
$DIMSE1
 70
     0
  9
$DIMSE2
 70
     0
  9
$DIMTAD
 70
     1
  9
$DIMZIN
 70
     8
  9
$DIMBLK
  1

  9
$DIMASO
 70
     1
  9
$DIMSHO
 70
     1
  9
$DIMPOST
  1

  9
$DIMAPOST
  1

  9
$DIMALT
 70
     0
  9
$DIMALTD
 70
     3
  9
$DIMALTF
 40
0.03937
  9
$DIMLFAC
 40
1.0
  9
$DIMTOFL
 70
     1
  9
$DIMTVP
 40
0.0
  9
$DIMTIX
 70
     0
  9
$DIMSOXD
 70
     0
  9
$DIMSAH
 70
     0
  9
$DIMBLK1
  1

  9
$DIMBLK2
  1

  9
$DIMSTYLE
  2
Standard
  9
$DIMCLRD
 70
     0
  9
$DIMCLRE
 70
     0
  9
$DIMCLRT
 70
     0
  9
$DIMTFAC
 40
1.0
  9
$DIMGAP
 40
0.625
  9
$DIMJUST
 70
     0
  9
$DIMSD1
 70
     0
  9
$DIMSD2
 70
     0
  9
$DIMTOLJ
 70
     0
  9
$DIMTZIN
 70
     8
  9
$DIMALTZ
 70
     0
  9
$DIMALTTZ
 70
     0
  9
$DIMUPT
 70
     0
  9
$DIMDEC
 70
     2
  9
$DIMTDEC
 70
     2
  9
$DIMALTU
 70
     2
  9
$DIMALTTD
 70
     3
  9
$DIMTXSTY
  7
Standard
  9
$DIMAUNIT
 70
     0
  9
$DIMADEC
 70
     0
  9
$DIMALTRND
 40
0.0
  9
$DIMAZIN
 70
     0
  9
$DIMDSEP
 70
    44
  9
$DIMATFIT
 70
     0
  9
$DIMFRAC
 70
     0
  9
$DIMLDRBLK
  1

  9
$DIMLUNIT
 70
     2
  9
$DIMLWD
 70
    -2
  9
$DIMLWE
 70
    -2
  9
$DIMTMOVE
 70
     0
  9
$LUNITS
 70
     2
  9
$LUPREC
 70
     4
  9
$SKETCHINC
 40
1.0
  9
$FILLETRAD
 40
2.5
  9
$AUNITS
 70
     0
  9
$AUPREC
 70
     0
  9
$MENU
  1
.
  9
$ELEVATION
 40
0.0
  9
$PELEVATION
 40
0.0
  9
$THICKNESS
 40
0.0
  9
$LIMCHECK
 70
     0
  9
$CHAMFERA
 40
2.5
  9
$CHAMFERB
 40
2.5
  9
$CHAMFERC
 40
0.0
  9
$CHAMFERD
 40
0.0
  9
$SKPOLY
 70
     0
  9
$TDCREATE
 40
2447893.375
  9
$TDUCREATE
 40
0.0
  9
$TDUPDATE
 40
2458796.375720868
  9
$TDUUPDATE
 40
2458796.000720868
  9
$TDINDWG
 40
0.0
  9
$TDUSRTIMER
 40
0.0
  9
$USRTIMER
 70
     1
  9
$ANGBASE
 50
0.0
  9
$ANGDIR
 70
     0
  9
$PDMODE
 70
     0
  9
$PDSIZE
 40
0.0
  9
$PLINEWID
 40
0.0
  9
$SPLFRAME
 70
     0
  9
$SPLINETYPE
 70
     6
  9
$SPLINESEGS
 70
     8
  9
$HANDSEED
  5
22A
  9
$SURFTAB1
 70
     6
  9
$SURFTAB2
 70
     6
  9
$SURFTYPE
 70
     6
  9
$SURFU
 70
     6
  9
$SURFV
 70
     6
  9
$UCSBASE
  2

  9
$UCSNAME
  2

  9
$UCSORG
 10
0.0
 20
0.0
 30
0.0
  9
$UCSXDIR
 10
1.0
 20
0.0
 30
0.0
  9
$UCSYDIR
 10
0.0
 20
1.0
 30
0.0
  9
$UCSORTHOREF
  2

  9
$UCSORTHOVIEW
 70
     1
  9
$UCSORGTOP
 10
0.0
 20
0.0
 30
0.0
  9
$UCSORGBOTTOM
 10
0.0
 20
0.0
 30
0.0
  9
$UCSORGLEFT
 10
0.0
 20
0.0
 30
0.0
  9
$UCSORGRIGHT
 10
0.0
 20
0.0
 30
0.0
  9
$UCSORGFRONT
 10
0.0
 20
0.0
 30
0.0
  9
$UCSORGBACK
 10
0.0
 20
0.0
 30
0.0
  9
$PUCSBASE
  2

  9
$PUCSNAME
  2

  9
$PUCSORG
 10
0.0
 20
0.0
 30
0.0
  9
$PUCSXDIR
 10
1.0
 20
0.0
 30
0.0
  9
$PUCSYDIR
 10
0.0
 20
1.0
 30
0.0
  9
$PUCSORTHOREF
  2

  9
$PUCSORTHOVIEW
 70
     0
  9
$PUCSORGTOP
 10
0.0
 20
0.0
 30
0.0
  9
$PUCSORGBOTTOM
 10
0.0
 20
0.0
 30
0.0
  9
$PUCSORGLEFT
 10
0.0
 20
0.0
 30
0.0
  9
$PUCSORGRIGHT
 10
0.0
 20
0.0
 30
0.0
  9
$PUCSORGFRONT
 10
0.0
 20
0.0
 30
0.0
  9
$PUCSORGBACK
 10
0.0
 20
0.0
 30
0.0
  9
$USERI1
 70
     0
  9
$USERI2
 70
     0
  9
$USERI3
 70
     0
  9
$USERI4
 70
     0
  9
$USERI5
 70
     0
  9
$USERR1
 40
0.0
  9
$USERR2
 40
0.0
  9
$USERR3
 40
0.0
  9
$USERR4
 40
0.0
  9
$USERR5
 40
0.0
  9
$WORLDVIEW
 70
     1
  9
$SHADEDGE
 70
     3
  9
$SHADEDIF
 70
    70
  9
$TILEMODE
 70
     1
  9
$MAXACTVP
 70
    64
  9
$PINSBASE
 10
0.0
 20
0.0
 30
0.0
  9
$PLIMCHECK
 70
     0
  9
$PEXTMIN
 10
0.0
 20
0.0
 30
0.0
  9
$PEXTMAX
 10
565.635498
 20
169.599991
 30
2.0
  9
$PLIMMIN
 10
0.0
 20
0.0
  9
$PLIMMAX
 10
420.0
 20
297.0
  9
$UNITMODE
 70
     0
  9
$VISRETAIN
 70
     0
  9
$PLINEGEN
 70
     0
  9
$PSLTSCALE
 70
     1
  9
$TREEDEPTH
 70
  3020
  9
$CMLSTYLE
  2
Standard
  9
$CMLJUST
 70
     0
  9
$CMLSCALE
 40
20.0
  9
$PROXYGRAPHICS
 70
     1
  9
$MEASUREMENT
 70
     1
  9
$CELWEIGHT
370
    -1
  9
$ENDCAPS
280
     0
  9
$JOINSTYLE
280
     0
  9
$LWDISPLAY
290
     0
  9
$INSUNITS
 70
     0
  9
$HYPERLINKBASE
  1

  9
$STYLESHEET
  1

  9
$XEDIT
290
     1
  9
$CEPSNTYPE
380
     0
  9
$PSTYLEMODE
290
     0
  9
$FINGERPRINTGUID
  2
{F9FED70D-85DF-4965-B780-C2CF5335B29B}
  9
$VERSIONGUID
  2
{FAEB1C32-E019-11D5-929B-00C0DF256EC4}
  9
$EXTNAMES
290
     1
  9
$PSVPSCALE
 40
0.0
  9
$OLESTARTUP
290
     0
  0
ENDSEC
  0
SECTION
  2
CLASSES
  0
CLASS
  1
ACDBDICTIONARYWDFLT
  2
AcDbDictionaryWithDefault
  3
ObjectDBX Classes
 90
        0
280
     0
281
     0
  0
CLASS
  1
VISUALSTYLE
  2
AcDbVisualStyle
  3
ObjectDBX Classes
 90
     4095
280
     0
281
     0
  0
CLASS
  1
MATERIAL
  2
AcDbMaterial
  3
ObjectDBX Classes
 90
     1153
280
     0
281
     0
  0
CLASS
  1
SCALE
  2
AcDbScale
  3
ObjectDBX Classes
 90
     1153
280
     0
281
     0
  0
CLASS
  1
SUN
  2
AcDbSun
  3
SCENEOE
 90
     1153
280
     0
281
     0
  0
CLASS
  1
ACDBPLACEHOLDER
  2
AcDbPlaceHolder
  3
ObjectDBX Classes
 90
        0
280
     0
281
     0
  0
CLASS
  1
LAYOUT
  2
AcDbLayout
  3
ObjectDBX Classes
 90
        0
280
     0
281
     0
  0
ENDSEC
  0
SECTION
  2
TABLES
  0
TABLE
  2
VPORT
  5
8
330
0
100
AcDbSymbolTable
 70
     1
  0
VPORT
  5
29
330
8
100
AcDbSymbolTableRecord
100
AcDbViewportTableRecord
  2
*Active
 70
     0
 10
0.0
 20
0.0
 11
1.0
 21
1.0
 12
10.429907
 22
4.5
 13
0.0
 23
0.0
 14
0.5
 24
0.5
 15
0.5
 25
0.5
 16
0.0
 26
0.0
 36
1.0
 17
0.0
 27
0.0
 37
0.0
 40
9.0
 41
1.972973
 42
50.0
 43
0.0
 44
0.0
 50
0.0
 51
0.0
 71
     0
 72
   100
 73
     1
 74
     3
 75
     0
 76
     0
 77
     0
 78
     0
281
     0
 65
     1
110
0.0
120
0.0
130
0.0
111
1.0
121
0.0
131
0.0
112
0.0
122
1.0
132
0.0
 79
     0
146
0.0
  0
ENDTAB
  0
TABLE
  2
LTYPE
  5
5
330
0
100
AcDbSymbolTable
 70
     2
  0
LTYPE
  5
14
330
5
100
AcDbSymbolTableRecord
100
AcDbLinetypeTableRecord
  2
ByBlock
 70
     0
  3

 72
    65
 73
     0
 40
0.0
  0
LTYPE
  5
15
330
5
100
AcDbSymbolTableRecord
100
AcDbLinetypeTableRecord
  2
ByLayer
 70
     0
  3

 72
    65
 73
     0
 40
0.0
  0
LTYPE
  5
16
330
5
100
AcDbSymbolTableRecord
100
AcDbLinetypeTableRecord
  2
Continuous
 70
     0
  3
Solid line
 72
    65
 73
     0
 40
0.0
  0
LTYPE
  5
6A
330
5
100
AcDbSymbolTableRecord
100
AcDbLinetypeTableRecord
  2
DASHDOT
 70
     0
  3
 __ . __ . __ . __ . __ . __ . __ . 
 72
    65
 73
     4
 40
18.5
 49
12.0
 74
     0
 49
-3.0
 74
     0
 49
0.5
 74
     0
 49
-3.0
 74
     0
  0
ENDTAB
  0
TABLE
  2
LAYER
  5
2
330
0
100
AcDbSymbolTable
 70
     1
  0
LAYER
  5
10
330
2
100
AcDbSymbolTableRecord
100
AcDbLayerTableRecord
  2
0
 70
     0
 62
     7
  6
Continuous
370
    -3
390
F
  0
ENDTAB
  0
TABLE
  2
STYLE
  5
3
330
0
100
AcDbSymbolTable
 70
     1
  0
STYLE
  5
11
330
3
100
AcDbSymbolTableRecord
100
AcDbTextStyleTableRecord
  2
Standard
 70
     0
 40
0.0
 41
1.0
 50
0.0
 71
     0
 42
2.5
  3
txt
  4

  0
ENDTAB
  0
TABLE
  2
VIEW
  5
6
330
0
100
AcDbSymbolTable
 70
     0
  0
ENDTAB
  0
TABLE
  2
UCS
  5
7
330
0
100
AcDbSymbolTable
 70
     0
  0
ENDTAB
  0
TABLE
  2
APPID
  5
9
330
0
100
AcDbSymbolTable
 70
     1
  0
APPID
  5
12
330
9
100
AcDbSymbolTableRecord
100
AcDbRegAppTableRecord
  2
ACAD
 70
     0
  0
ENDTAB
  0
TABLE
  2
DIMSTYLE
  5
A
330
0
100
AcDbSymbolTable
 70
     1
100
AcDbDimStyleTable
  0
DIMSTYLE
105
27
330
A
100
AcDbSymbolTableRecord
100
AcDbDimStyleTableRecord
  2
Standard
 70
     0
178
     0
340
11
  0
ENDTAB
  0
TABLE
  2
BLOCK_RECORD
  5
1
330
0
100
AcDbSymbolTable
 70
     1
  0
BLOCK_RECORD
  5
1F
330
1
100
AcDbSymbolTableRecord
100
AcDbBlockTableRecord
  2
*Model_Space
340
22
  0
BLOCK_RECORD
  5
1B
330
1
100
AcDbSymbolTableRecord
100
AcDbBlockTableRecord
  2
*Paper_Space
340
1E
  0
BLOCK_RECORD
  5
23
330
1
100
AcDbSymbolTableRecord
100
AcDbBlockTableRecord
  2
*Paper_Space0
340
26
  0
ENDTAB
  0
ENDSEC
  0
SECTION
  2
BLOCKS
  0
BLOCK
  5
20
330
1F
100
AcDbEntity
  8
0
100
AcDbBlockBegin
  2
*Model_Space
 70
     0
 10
0.0
 20
0.0
 30
0.0
  3
*Model_Space
  1
*Model_Space
  0
ENDBLK
  5
21
330
1F
100
AcDbEntity
  8
0
100
AcDbBlockEnd
  0
BLOCK
  5
1C
330
1B
100
AcDbEntity
 67
     1
  8
0
100
AcDbBlockBegin
  2
*Paper_Space
 70
     0
 10
0.0
 20
0.0
 30
0.0
  3
*Paper_Space
  1
*Paper_Space
  0
ENDBLK
  5
1D
330
1B
100
AcDbEntity
 67
     1
  8
0
100
AcDbBlockEnd
  0
BLOCK
  5
24
330
23
100
AcDbEntity
  8
0
100
AcDbBlockBegin
  2
*Paper_Space0
 70
     0
 10
0.0
 20
0.0
 30
0.0
  3
*Paper_Space0
  1
*Paper_Space0
  0
ENDBLK
  5
25
330
23
100
AcDbEntity
  8
0
100
AcDbBlockEnd
  0
ENDSEC
  0
SECTION
  2
ENTITIES
  0
LINE
  5
6B
330
1F
100
AcDbEntity
  8
0
  6
DASHDOT
 62
     7
 48
0.451999
370
    13
100
AcDbLine
 10
522.539978
 20
159.899994
 30
0.0
 11
504.460022
 21
159.899994
 31
0.0
  0
LINE
  5
6C
330
1F
100
AcDbEntity
  8
0
  6
DASHDOT
 62
     7
 48
0.452
370
    13
100
AcDbLine
 10
513.5
 20
168.939987
 30
0.0
 11
513.5
 21
150.860001
 31
0.0
  0
LINE
  5
6D
330
1F
100
AcDbEntity
  8
0
  6
DASHDOT
 62
     7
 48
0.452
370
    13
100
AcDbLine
 10
-84.459984
 20
159.899994
 30
0.0
 11
-102.539986
 21
159.899994
 31
0.0
  0
LINE
  5
6E
330
1F
100
AcDbEntity
  8
0
  6
DASHDOT
 62
     7
 48
0.452
370
    13
100
AcDbLine
 10
-93.499985
 20
168.939987
 30
0.0
 11
-93.499985
 21
150.860001
 31
0.0
  0
LINE
  5
6F
330
1F
100
AcDbEntity
  8
0
  6
DASHDOT
 62
     7
 48
0.247
370
    13
100
AcDbLine
 10
-73.559982
 20
159.899994
 30
0.0
 11
-83.439987
 21
159.899994
 31
0.0
  0
LINE
  5
70
330
1F
100
AcDbEntity
  8
0
  6
DASHDOT
 62
     7
 48
0.247
370
    13
100
AcDbLine
 10
-78.499985
 20
164.839996
 30
0.0
 11
-78.499985
 21
154.959991
 31
0.0
  0
LINE
  5
71
330
1F
100
AcDbEntity
  8
0
  6
DASHDOT
 62
     7
 48
0.247
370
    13
100
AcDbLine
 10
503.440002
 20
159.899994
 30
0.0
 11
493.559998
 21
159.899994
 31
0.0
  0
LINE
  5
72
330
1F
100
AcDbEntity
  8
0
  6
DASHDOT
 62
     7
 48
0.247
370
    13
100
AcDbLine
 10
498.5
 20
164.839996
 30
0.0
 11
498.5
 21
154.959991
 31
0.0
  0
LINE
  5
73
330
1F
100
AcDbEntity
  8
0
  6
DASHDOT
 62
     7
 48
0.227
370
    13
100
AcDbLine
 10
-73.959984
 20
164.599991
 30
0.0
 11
-83.039986
 21
164.599991
 31
0.0
  0
LINE
  5
74
330
1F
100
AcDbEntity
  8
0
  6
DASHDOT
 62
     7
 48
0.227
370
    13
100
AcDbLine
 10
-78.499985
 20
169.139999
 30
0.0
 11
-78.499985
 21
160.059998
 31
0.0
  0
LINE
  5
75
330
1F
100
AcDbEntity
  8
0
  6
DASHDOT
 62
     7
 48
0.227
370
    13
100
AcDbLine
 10
-73.959984
 20
155.199997
 30
0.0
 11
-83.039986
 21
155.199997
 31
0.0
  0
LINE
  5
76
330
1F
100
AcDbEntity
  8
0
  6
DASHDOT
 62
     7
 48
0.227
370
    13
100
AcDbLine
 10
-78.499985
 20
159.73999
 30
0.0
 11
-78.499985
 21
150.659988
 31
0.0
  0
LINE
  5
77
330
1F
100
AcDbEntity
  8
0
  6
DASHDOT
 62
     7
 48
0.226999
370
    13
100
AcDbLine
 10
503.039978
 20
164.599991
 30
0.0
 11
493.960022
 21
164.599991
 31
0.0
  0
LINE
  5
78
330
1F
100
AcDbEntity
  8
0
  6
DASHDOT
 62
     7
 48
0.227
370
    13
100
AcDbLine
 10
498.5
 20
169.139999
 30
0.0
 11
498.5
 21
160.059998
 31
0.0
  0
LINE
  5
79
330
1F
100
AcDbEntity
  8
0
  6
DASHDOT
 62
     7
 48
0.226999
370
    13
100
AcDbLine
 10
503.039978
 20
155.199997
 30
0.0
 11
493.960022
 21
155.199997
 31
0.0
  0
LINE
  5
7A
330
1F
100
AcDbEntity
  8
0
  6
DASHDOT
 62
     7
 48
0.227
370
    13
100
AcDbLine
 10
498.5
 20
159.73999
 30
0.0
 11
498.5
 21
150.659988
 31
0.0
  0
LINE
  5
7B
330
1F
100
AcDbEntity
  8
0
  6
DASHDOT
 62
     7
 48
0.352
370
    13
100
AcDbLine
 10
-7.959984
 20
132.899994
 30
0.0
 11
-22.039986
 21
132.899994
 31
0.0
  0
LINE
  5
7C
330
1F
100
AcDbEntity
  8
0
  6
DASHDOT
 62
     7
 48
0.352
370
    13
100
AcDbLine
 10
-14.999985
 20
139.940002
 30
0.0
 11
-14.999985
 21
125.859993
 31
0.0
  0
LINE
  5
7D
330
1F
100
AcDbEntity
  8
0
  6
DASHDOT
 62
     7
 48
0.352
370
    13
100
AcDbLine
 10
42.040009
 20
132.899994
 30
0.0
 11
27.960014
 21
132.899994
 31
0.0
  0
LINE
  5
7E
330
1F
100
AcDbEntity
  8
0
  6
DASHDOT
 62
     7
 48
0.352
370
    13
100
AcDbLine
 10
35.000015
 20
139.940002
 30
0.0
 11
35.000015
 21
125.859993
 31
0.0
  0
LINE
  5
7F
330
1F
100
AcDbEntity
  8
0
  6
DASHDOT
 62
     7
 48
0.326999
370
    13
100
AcDbLine
 10
416.539978
 20
159.899994
 30
0.0
 11
403.460022
 21
159.899994
 31
0.0
  0
LINE
  5
80
330
1F
100
AcDbEntity
  8
0
  6
DASHDOT
 62
     7
 48
0.327
370
    13
100
AcDbLine
 10
410.0
 20
166.439987
 30
0.0
 11
410.0
 21
153.360001
 31
0.0
  0
LINE
  5
81
330
1F
100
AcDbEntity
  8
0
  6
DASHDOT
 62
     7
 48
0.327
370
    13
100
AcDbLine
 10
66.540009
 20
159.899994
 30
0.0
 11
53.460022
 21
159.899994
 31
0.0
  0
LINE
  5
82
330
1F
100
AcDbEntity
  8
0
  6
DASHDOT
 62
     7
 48
0.327
370
    13
100
AcDbLine
 10
60.000015
 20
166.439987
 30
0.0
 11
60.000015
 21
153.360001
 31
0.0
  0
LINE
  5
83
330
1F
100
AcDbEntity
  8
0
  6
DASHDOT
 62
     7
 48
0.2395
370
    13
100
AcDbLine
 10
-89.209984
 20
159.899994
 30
0.0
 11
-98.789986
 21
159.899994
 31
0.0
  0
LINE
  5
84
330
1F
100
AcDbEntity
  8
0
  6
DASHDOT
 62
     7
 48
0.2395
370
    13
100
AcDbLine
 10
-93.999985
 20
164.689987
 30
0.0
 11
-93.999985
 21
155.110001
 31
0.0
  0
LINE
  5
85
330
1F
100
AcDbEntity
  8
0
  6
DASHDOT
 62
     7
 48
0.2395
370
    13
100
AcDbLine
 10
-88.209984
 20
159.899994
 30
0.0
 11
-97.789986
 21
159.899994
 31
0.0
  0
LINE
  5
86
330
1F
100
AcDbEntity
  8
0
  6
DASHDOT
 62
     7
 48
0.2395
370
    13
100
AcDbLine
 10
-92.999985
 20
164.689987
 30
0.0
 11
-92.999985
 21
155.110001
 31
0.0
  0
LINE
  5
87
330
1F
100
AcDbEntity
  8
0
  6
DASHDOT
 62
     7
 48
0.239499
370
    13
100
AcDbLine
 10
518.289978
 20
160.399994
 30
0.0
 11
508.710022
 21
160.399994
 31
0.0
  0
LINE
  5
88
330
1F
100
AcDbEntity
  8
0
  6
DASHDOT
 62
     7
 48
0.2395
370
    13
100
AcDbLine
 10
513.5
 20
165.189987
 30
0.0
 11
513.5
 21
155.610001
 31
0.0
  0
LINE
  5
89
330
1F
100
AcDbEntity
  8
0
  6
DASHDOT
 62
     7
 48
0.239499
370
    13
100
AcDbLine
 10
518.289978
 20
159.399994
 30
0.0
 11
508.710022
 21
159.399994
 31
0.0
  0
LINE
  5
8A
330
1F
100
AcDbEntity
  8
0
  6
DASHDOT
 62
     7
 48
0.2395
370
    13
100
AcDbLine
 10
513.5
 20
164.189987
 30
0.0
 11
513.5
 21
154.610001
 31
0.0
  0
LINE
  5
8B
330
1F
100
AcDbEntity
  8
0
  6
DASHDOT
 62
     7
 48
0.177325
370
    13
100
AcDbLine
 10
26.046516
 20
135.399994
 30
0.0
 11
18.953514
 21
135.399994
 31
0.0
  0
LINE
  5
8C
330
1F
100
AcDbEntity
  8
0
  6
DASHDOT
 62
     7
 48
0.177325
370
    13
100
AcDbLine
 10
22.500015
 20
138.946487
 30
0.0
 11
22.500015
 21
131.8535
 31
0.0
  0
LINE
  5
8D
330
1F
100
AcDbEntity
  8
0
  6
DASHDOT
 62
     7
 48
0.177325
370
    13
100
AcDbLine
 10
1.046516
 20
135.399994
 30
0.0
 11
-6.046486
 21
135.399994
 31
0.0
  0
LINE
  5
8E
330
1F
100
AcDbEntity
  8
0
  6
DASHDOT
 62
     7
 48
0.177325
370
    13
100
AcDbLine
 10
-2.499985
 20
138.946487
 30
0.0
 11
-2.499985
 21
131.8535
 31
0.0
  0
LINE
  5
8F
330
1F
100
AcDbEntity
  8
0
 62
     7
370
    35
100
AcDbLine
 10
-93.499985
 20
169.399994
 30
0.0
 11
513.5
 21
169.399994
 31
0.0
  0
LINE
  5
90
330
1F
100
AcDbEntity
  8
0
 62
     7
370
    35
100
AcDbLine
 10
-99.999985
 20
169.399994
 30
0.0
 11
-93.499985
 21
169.399994
 31
0.0
  0
LINE
  5
91
330
1F
100
AcDbEntity
  8
0
 62
     7
370
    35
100
AcDbLine
 10
520.0
 20
169.399994
 30
0.0
 11
513.5
 21
169.399994
 31
0.0
  0
CIRCLE
  5
92
330
1F
100
AcDbEntity
  8
0
 62
     7
370
    35
100
AcDbCircle
 10
-93.499985
 20
159.899994
 30
0.0
 40
3.5
  0
CIRCLE
  5
93
330
1F
100
AcDbEntity
  8
0
 62
     7
370
    35
100
AcDbCircle
 10
513.5
 20
159.899994
 30
0.0
 40
3.5
  0
CIRCLE
  5
94
330
1F
100
AcDbEntity
  8
0
 62
     7
370
    35
100
AcDbCircle
 10
-78.499985
 20
159.899994
 30
0.0
 40
2.4
  0
CIRCLE
  5
95
330
1F
100
AcDbEntity
  8
0
 62
     7
370
    35
100
AcDbCircle
 10
498.5
 20
159.899994
 30
0.0
 40
2.4
  0
LINE
  5
96
330
1F
100
AcDbEntity
  8
0
 62
     7
370
    35
100
AcDbLine
 10
513.5
 20
146.5
 30
0.0
 11
-93.499985
 21
146.5
 31
0.0
  0
CIRCLE
  5
97
330
1F
100
AcDbEntity
  8
0
 62
     7
370
    35
100
AcDbCircle
 10
-78.499985
 20
164.599991
 30
0.0
 40
2.0
  0
CIRCLE
  5
98
330
1F
100
AcDbEntity
  8
0
 62
     7
370
    35
100
AcDbCircle
 10
-78.499985
 20
155.199997
 30
0.0
 40
2.0
  0
CIRCLE
  5
99
330
1F
100
AcDbEntity
  8
0
 62
     7
370
    35
100
AcDbCircle
 10
498.5
 20
164.599991
 30
0.0
 40
2.0
  0
CIRCLE
  5
9A
330
1F
100
AcDbEntity
  8
0
 62
     7
370
    35
100
AcDbCircle
 10
498.5
 20
155.199997
 30
0.0
 40
2.0
  0
CIRCLE
  5
9B
330
1F
100
AcDbEntity
  8
0
 62
     7
370
    35
100
AcDbCircle
 10
-93.499985
 20
159.899994
 30
0.0
 40
3.199999999999998
  0
LINE
  5
9C
330
1F
100
AcDbEntity
  8
0
 62
     7
370
    35
100
AcDbLine
 10
-92.999985
 20
157.649994
 30
0.0
 11
-93.999985
 21
157.649994
 31
0.0
  0
ARC
  5
9D
330
1F
100
AcDbEntity
  8
0
 62
     7
370
    35
100
AcDbCircle
 10
-92.999985
 20
159.899994
 30
0.0
 40
2.249999999999999
100
AcDbArc
 50
269.999997
 51
90.000003
  0
LINE
  5
9E
330
1F
100
AcDbEntity
  8
0
 62
     7
370
    35
100
AcDbLine
 10
-93.999985
 20
162.149994
 30
0.0
 11
-92.999985
 21
162.149994
 31
0.0
  0
ARC
  5
9F
330
1F
100
AcDbEntity
  8
0
 62
     7
370
    35
100
AcDbCircle
 10
-93.999985
 20
159.899994
 30
0.0
 40
2.249999999999999
100
AcDbArc
 50
90.000003
 51
269.999997
  0
CIRCLE
  5
A0
330
1F
100
AcDbEntity
  8
0
 62
     7
370
    35
100
AcDbCircle
 10
-93.499985
 20
159.899994
 30
0.0
 40
3.399999999999996
  0
CIRCLE
  5
A1
330
1F
100
AcDbEntity
  8
0
 62
     7
370
    35
100
AcDbCircle
 10
513.5
 20
159.899994
 30
0.0
 40
3.199999999999998
  0
LINE
  5
A2
330
1F
100
AcDbEntity
  8
0
 62
     7
370
    35
100
AcDbLine
 10
511.25
 20
159.399994
 30
0.0
 11
511.25
 21
160.399994
 31
0.0
  0
ARC
  5
A3
330
1F
100
AcDbEntity
  8
0
 62
     7
370
    35
100
AcDbCircle
 10
513.5
 20
159.399994
 30
0.0
 40
2.249999999999999
100
AcDbArc
 50
180.000005
 51
360.0
  0
LINE
  5
A4
330
1F
100
AcDbEntity
  8
0
 62
     7
370
    35
100
AcDbLine
 10
515.75
 20
160.399994
 30
0.0
 11
515.75
 21
159.399994
 31
0.0
  0
ARC
  5
A5
330
1F
100
AcDbEntity
  8
0
 62
     7
370
    35
100
AcDbCircle
 10
513.5
 20
160.399994
 30
0.0
 40
2.249999999999999
100
AcDbArc
 50
0.0
 51
180.000005
  0
CIRCLE
  5
A6
330
1F
100
AcDbEntity
  8
0
 62
     7
370
    35
100
AcDbCircle
 10
513.5
 20
159.899994
 30
0.0
 40
3.399999999999996
  0
ARC
  5
A7
330
1F
100
AcDbEntity
  8
0
 62
     7
370
    35
100
AcDbCircle
 10
206.000015
 20
156.799988
 30
0.0
 40
0.5
100
AcDbArc
 50
90.000003
 51
180.000005
  0
LINE
  5
A8
330
1F
100
AcDbEntity
  8
0
 62
     7
370
    35
100
AcDbLine
 10
205.500015
 20
156.799988
 30
0.0
 11
205.500015
 21
152.799988
 31
0.0
  0
ARC
  5
A9
330
1F
100
AcDbEntity
  8
0
 62
     7
370
    35
100
AcDbCircle
 10
206.000015
 20
152.799988
 30
0.0
 40
0.5
100
AcDbArc
 50
180.000005
 51
269.999997
  0
LINE
  5
AA
330
1F
100
AcDbEntity
  8
0
 62
     7
370
    35
100
AcDbLine
 10
214.000015
 20
152.299988
 30
0.0
 11
206.000015
 21
152.299988
 31
0.0
  0
ARC
  5
AB
330
1F
100
AcDbEntity
  8
0
 62
     7
370
    35
100
AcDbCircle
 10
214.000015
 20
152.799988
 30
0.0
 40
0.5
100
AcDbArc
 50
269.999997
 51
360.0
  0
LINE
  5
AC
330
1F
100
AcDbEntity
  8
0
 62
     7
370
    35
100
AcDbLine
 10
214.500015
 20
152.799988
 30
0.0
 11
214.500015
 21
156.799988
 31
0.0
  0
ARC
  5
AD
330
1F
100
AcDbEntity
  8
0
 62
     7
370
    35
100
AcDbCircle
 10
214.000015
 20
156.799988
 30
0.0
 40
0.5
100
AcDbArc
 50
0.0
 51
90.000003
  0
LINE
  5
AE
330
1F
100
AcDbEntity
  8
0
 62
     7
370
    35
100
AcDbLine
 10
206.000015
 20
157.299988
 30
0.0
 11
209.000015
 21
157.299988
 31
0.0
  0
LINE
  5
AF
330
1F
100
AcDbEntity
  8
0
 62
     7
370
    35
100
AcDbLine
 10
211.000015
 20
157.299988
 30
0.0
 11
214.000015
 21
157.299988
 31
0.0
  0
LINE
  5
B0
330
1F
100
AcDbEntity
  8
0
 62
     7
370
    35
100
AcDbLine
 10
211.000015
 20
157.299988
 30
0.0
 11
211.000015
 21
155.299988
 31
0.0
  0
LINE
  5
B1
330
1F
100
AcDbEntity
  8
0
 62
     7
370
    35
100
AcDbLine
 10
211.000015
 20
155.299988
 30
0.0
 11
212.500015
 21
155.299988
 31
0.0
  0
LINE
  5
B2
330
1F
100
AcDbEntity
  8
0
 62
     7
370
    35
100
AcDbLine
 10
212.500015
 20
155.299988
 30
0.0
 11
210.000015
 21
152.799988
 31
0.0
  0
LINE
  5
B3
330
1F
100
AcDbEntity
  8
0
 62
     7
370
    35
100
AcDbLine
 10
210.000015
 20
152.799988
 30
0.0
 11
207.500015
 21
155.299988
 31
0.0
  0
LINE
  5
B4
330
1F
100
AcDbEntity
  8
0
 62
     7
370
    35
100
AcDbLine
 10
207.500015
 20
155.299988
 30
0.0
 11
209.000015
 21
155.299988
 31
0.0
  0
LINE
  5
B5
330
1F
100
AcDbEntity
  8
0
 62
     7
370
    35
100
AcDbLine
 10
209.000015
 20
155.299988
 30
0.0
 11
209.000015
 21
157.299988
 31
0.0
  0
LINE
  5
B6
330
1F
100
AcDbEntity
  8
0
 62
     7
370
    35
100
AcDbLine
 10
209.000015
 20
157.299988
 30
0.0
 11
211.000015
 21
157.299988
 31
0.0
  0
LINE
  5
B7
330
1F
100
AcDbEntity
  8
0
 62
     7
370
    35
100
AcDbLine
 10
-3.059235
 20
146.399994
 30
0.0
 11
-9.090347
 21
144.899994
 31
0.0
  0
LINE
  5
B8
330
1F
100
AcDbEntity
  8
0
 62
     7
370
    35
100
AcDbLine
 10
-3.058983
 20
144.899994
 30
0.0
 11
-3.059235
 21
146.399994
 31
0.0
  0
LINE
  5
B9
330
1F
100
AcDbEntity
  8
0
 62
     7
370
    35
100
AcDbLine
 10
-3.059235
 20
146.399994
 30
0.0
 11
-3.059235
 21
146.499985
 31
0.0
  0
LINE
  5
BA
330
1F
100
AcDbEntity
  8
0
 62
     7
370
    35
100
AcDbLine
 10
23.059013
 20
146.399994
 30
0.0
 11
-3.058983
 21
146.399994
 31
0.0
  0
LINE
  5
BB
330
1F
100
AcDbEntity
  8
0
 62
     7
370
    35
100
AcDbLine
 10
23.059265
 20
146.399994
 30
0.0
 11
23.059265
 21
146.499985
 31
0.0
  0
LINE
  5
BC
330
1F
100
AcDbEntity
  8
0
 62
     7
370
    35
100
AcDbLine
 10
29.090332
 20
144.899994
 30
0.0
 11
23.059265
 21
146.399994
 31
0.0
  0
LINE
  5
BD
330
1F
100
AcDbEntity
  8
0
 62
     7
370
    35
100
AcDbLine
 10
40.000015
 20
142.399994
 30
0.0
 11
40.000015
 21
144.899994
 31
0.0
  0
LINE
  5
BE
330
1F
100
AcDbEntity
  8
0
 62
     7
370
    35
100
AcDbLine
 10
40.000015
 20
142.399994
 30
0.0
 11
40.000015
 21
137.399994
 31
0.0
  0
LINE
  5
BF
330
1F
100
AcDbEntity
  8
0
 62
     7
370
    35
100
AcDbLine
 10
40.000015
 20
128.399994
 30
0.0
 11
40.000015
 21
137.399994
 31
0.0
  0
LINE
  5
C0
330
1F
100
AcDbEntity
  8
0
 62
     7
370
    35
100
AcDbLine
 10
40.000015
 20
128.399994
 30
0.0
 11
40.000015
 21
127.399994
 31
0.0
  0
LINE
  5
C1
330
1F
100
AcDbEntity
  8
0
 62
     7
370
    35
100
AcDbLine
 10
40.000015
 20
137.399994
 30
0.0
 11
35.000015
 21
137.399994
 31
0.0
  0
ARC
  5
C2
330
1F
100
AcDbEntity
  8
0
 62
     7
370
    35
100
AcDbCircle
 10
35.000015
 20
132.899994
 30
0.0
 40
4.500000000000001
100
AcDbArc
 50
90.000003
 51
269.999997
  0
LINE
  5
C3
330
1F
100
AcDbEntity
  8
0
 62
     7
370
    35
100
AcDbLine
 10
35.000015
 20
128.399994
 30
0.0
 11
40.000015
 21
128.399994
 31
0.0
  0
LINE
  5
C4
330
1F
100
AcDbEntity
  8
0
 62
     7
370
    35
100
AcDbLine
 10
17.500015
 20
127.399994
 30
0.0
 11
40.000015
 21
127.399994
 31
0.0
  0
LINE
  5
C5
330
1F
100
AcDbEntity
  8
0
 62
     7
370
    35
100
AcDbLine
 10
17.500015
 20
127.399994
 30
0.0
 11
17.500015
 21
138.899994
 31
0.0
  0
ARC
  5
C6
330
1F
100
AcDbEntity
  8
0
 62
     7
370
    35
100
AcDbCircle
 10
21.000015
 20
138.899994
 30
0.0
 40
3.5
100
AcDbArc
 50
90.000003
 51
180.000005
  0
LINE
  5
C7
330
1F
100
AcDbEntity
  8
0
 62
     7
370
    35
100
AcDbLine
 10
21.000015
 20
142.399994
 30
0.0
 11
40.000015
 21
142.399994
 31
0.0
  0
CIRCLE
  5
C8
330
1F
100
AcDbEntity
  8
0
 62
     7
370
    35
100
AcDbCircle
 10
22.500015
 20
135.399994
 30
0.0
 40
1.006499999999999
  0
LINE
  5
C9
330
1F
100
AcDbEntity
  8
0
 62
     7
370
    35
100
AcDbLine
 10
-19.999985
 20
142.399994
 30
0.0
 11
-0.999985
 21
142.399994
 31
0.0
  0
ARC
  5
CA
330
1F
100
AcDbEntity
  8
0
 62
     7
370
    35
100
AcDbCircle
 10
-0.999985
 20
138.899994
 30
0.0
 40
3.5
100
AcDbArc
 50
0.0
 51
90.000003
  0
LINE
  5
CB
330
1F
100
AcDbEntity
  8
0
 62
     7
370
    35
100
AcDbLine
 10
2.500015
 20
138.899994
 30
0.0
 11
2.500015
 21
127.399994
 31
0.0
  0
LINE
  5
CC
330
1F
100
AcDbEntity
  8
0
 62
     7
370
    35
100
AcDbLine
 10
-19.999985
 20
127.399994
 30
0.0
 11
2.500015
 21
127.399994
 31
0.0
  0
LINE
  5
CD
330
1F
100
AcDbEntity
  8
0
 62
     7
370
    35
100
AcDbLine
 10
-19.999985
 20
127.399994
 30
0.0
 11
-19.999985
 21
128.399994
 31
0.0
  0
LINE
  5
CE
330
1F
100
AcDbEntity
  8
0
 62
     7
370
    35
100
AcDbLine
 10
-14.999985
 20
128.399994
 30
0.0
 11
-19.999985
 21
128.399994
 31
0.0
  0
ARC
  5
CF
330
1F
100
AcDbEntity
  8
0
 62
     7
370
    35
100
AcDbCircle
 10
-14.999985
 20
132.899994
 30
0.0
 40
4.500000000000001
100
AcDbArc
 50
269.999997
 51
90.000003
  0
LINE
  5
D0
330
1F
100
AcDbEntity
  8
0
 62
     7
370
    35
100
AcDbLine
 10
-19.999985
 20
137.399994
 30
0.0
 11
-14.999985
 21
137.399994
 31
0.0
  0
LINE
  5
D1
330
1F
100
AcDbEntity
  8
0
 62
     7
370
    35
100
AcDbLine
 10
-19.999985
 20
137.399994
 30
0.0
 11
-19.999985
 21
142.399994
 31
0.0
  0
CIRCLE
  5
D2
330
1F
100
AcDbEntity
  8
0
 62
     7
370
    35
100
AcDbCircle
 10
-2.499985
 20
135.399994
 30
0.0
 40
1.006500000000003
  0
LINE
  5
D3
330
1F
100
AcDbEntity
  8
0
 62
     7
370
    35
100
AcDbLine
 10
-19.999985
 20
128.399994
 30
0.0
 11
-19.999985
 21
137.399994
 31
0.0
  0
CIRCLE
  5
D4
330
1F
100
AcDbEntity
  8
0
 62
     7
370
    35
100
AcDbCircle
 10
-14.999985
 20
132.899994
 30
0.0
 40
2.5
  0
LINE
  5
D5
330
1F
100
AcDbEntity
  8
0
 62
     7
370
    35
100
AcDbLine
 10
15.000015
 20
137.899994
 30
0.0
 11
10.000015
 21
142.899994
 31
0.0
  0
LINE
  5
D6
330
1F
100
AcDbEntity
  8
0
 62
     7
370
    35
100
AcDbLine
 10
5.000015
 20
137.899994
 30
0.0
 11
10.000015
 21
142.899994
 31
0.0
  0
LINE
  5
D7
330
1F
100
AcDbEntity
  8
0
 62
     7
370
    35
100
AcDbLine
 10
5.000015
 20
137.899994
 30
0.0
 11
8.000015
 21
137.899994
 31
0.0
  0
LINE
  5
D8
330
1F
100
AcDbEntity
  8
0
 62
     7
370
    35
100
AcDbLine
 10
8.000015
 20
129.899994
 30
0.0
 11
8.000015
 21
137.899994
 31
0.0
  0
LINE
  5
D9
330
1F
100
AcDbEntity
  8
0
 62
     7
370
    35
100
AcDbLine
 10
8.000015
 20
129.899994
 30
0.0
 11
12.000015
 21
129.899994
 31
0.0
  0
LINE
  5
DA
330
1F
100
AcDbEntity
  8
0
 62
     7
370
    35
100
AcDbLine
 10
12.000015
 20
137.899994
 30
0.0
 11
12.000015
 21
129.899994
 31
0.0
  0
LINE
  5
DB
330
1F
100
AcDbEntity
  8
0
 62
     7
370
    35
100
AcDbLine
 10
12.000015
 20
137.899994
 30
0.0
 11
15.000015
 21
137.899994
 31
0.0
  0
CIRCLE
  5
DC
330
1F
100
AcDbEntity
  8
0
 62
     7
370
    35
100
AcDbCircle
 10
35.000015
 20
132.899994
 30
0.0
 40
2.5
  0
LINE
  5
DD
330
1F
100
AcDbEntity
  8
0
 62
     7
370
    35
100
AcDbLine
 10
2.500015
 20
127.899994
 30
0.0
 11
17.500015
 21
127.899994
 31
0.0
  0
LINE
  5
DE
330
1F
100
AcDbEntity
  8
0
 62
     7
370
    35
100
AcDbLine
 10
-19.999985
 20
144.899994
 30
0.0
 11
-19.999985
 21
142.399994
 31
0.0
  0
LINE
  5
DF
330
1F
100
AcDbEntity
  8
0
 62
     7
370
    35
100
AcDbLine
 10
40.000015
 20
144.899994
 30
0.0
 11
-19.999985
 21
144.899994
 31
0.0
  0
LINE
  5
E0
330
1F
100
AcDbEntity
  8
0
 62
     7
370
    35
100
AcDbLine
 10
23.059013
 20
146.399994
 30
0.0
 11
23.059013
 21
144.899994
 31
0.0
  0
LINE
  5
E1
330
1F
100
AcDbEntity
  8
0
 62
     7
370
    35
100
AcDbLine
 10
-58.999985
 20
140.899994
 30
0.0
 11
-58.999985
 21
143.649994
 31
0.0
  0
LINE
  5
E2
330
1F
100
AcDbEntity
  8
0
 62
     7
370
    35
100
AcDbLine
 10
-58.999985
 20
138.149994
 30
0.0
 11
-58.999985
 21
140.899994
 31
0.0
  0
LINE
  5
E3
330
1F
100
AcDbEntity
  8
0
 62
     7
370
    35
100
AcDbLine
 10
-65.999985
 20
152.299988
 30
0.0
 11
-35.999985
 21
152.299988
 31
0.0
  0
ARC
  5
E4
330
1F
100
AcDbEntity
  8
0
 62
     7
370
    35
100
AcDbCircle
 10
-35.999985
 20
153.299988
 30
0.0
 40
1.0
100
AcDbArc
 50
269.999997
 51
360.0
  0
LINE
  5
E5
330
1F
100
AcDbEntity
  8
0
 62
     7
370
    35
100
AcDbLine
 10
-34.999985
 20
153.299988
 30
0.0
 11
-34.999985
 21
164.799988
 31
0.0
  0
ARC
  5
E6
330
1F
100
AcDbEntity
  8
0
 62
     7
370
    35
100
AcDbCircle
 10
-35.999985
 20
164.799988
 30
0.0
 40
1.0
100
AcDbArc
 50
0.0
 51
90.000003
  0
LINE
  5
E7
330
1F
100
AcDbEntity
  8
0
 62
     7
370
    35
100
AcDbLine
 10
-35.999985
 20
165.799988
 30
0.0
 11
-65.999985
 21
165.799988
 31
0.0
  0
ARC
  5
E8
330
1F
100
AcDbEntity
  8
0
 62
     7
370
    35
100
AcDbCircle
 10
-65.999985
 20
164.799988
 30
0.0
 40
1.0
100
AcDbArc
 50
90.000003
 51
180.000005
  0
LINE
  5
E9
330
1F
100
AcDbEntity
  8
0
 62
     7
370
    35
100
AcDbLine
 10
-66.999985
 20
164.799988
 30
0.0
 11
-66.999985
 21
153.299988
 31
0.0
  0
ARC
  5
EA
330
1F
100
AcDbEntity
  8
0
 62
     7
370
    35
100
AcDbCircle
 10
-65.999985
 20
153.299988
 30
0.0
 40
1.0
100
AcDbArc
 50
180.000005
 51
269.999997
  0
LINE
  5
EB
330
1F
100
AcDbEntity
  8
0
 62
     7
370
    35
100
AcDbLine
 10
-43.999985
 20
153.299988
 30
0.0
 11
-35.999985
 21
153.299988
 31
0.0
  0
LINE
  5
EC
330
1F
100
AcDbEntity
  8
0
 62
     7
370
    35
100
AcDbLine
 10
-35.999985
 20
153.299988
 30
0.0
 11
-35.999985
 21
161.299988
 31
0.0
  0
LINE
  5
ED
330
1F
100
AcDbEntity
  8
0
 62
     7
370
    35
100
AcDbLine
 10
-35.999985
 20
161.299988
 30
0.0
 11
-43.999985
 21
161.299988
 31
0.0
  0
LINE
  5
EE
330
1F
100
AcDbEntity
  8
0
 62
     7
370
    35
100
AcDbLine
 10
-43.999985
 20
161.299988
 30
0.0
 11
-43.999985
 21
153.299988
 31
0.0
  0
LINE
  5
EF
330
1F
100
AcDbEntity
  8
0
 62
     7
370
    35
100
AcDbLine
 10
-42.999985
 20
157.299988
 30
0.0
 11
-39.999985
 21
154.299988
 31
0.0
  0
LINE
  5
F0
330
1F
100
AcDbEntity
  8
0
 62
     7
370
    35
100
AcDbLine
 10
-40.999985
 20
157.299988
 30
0.0
 11
-42.999985
 21
157.299988
 31
0.0
  0
LINE
  5
F1
330
1F
100
AcDbEntity
  8
0
 62
     7
370
    35
100
AcDbLine
 10
-40.999985
 20
160.299988
 30
0.0
 11
-40.999985
 21
157.299988
 31
0.0
  0
LINE
  5
F2
330
1F
100
AcDbEntity
  8
0
 62
     7
370
    35
100
AcDbLine
 10
-38.999985
 20
160.299988
 30
0.0
 11
-40.999985
 21
160.299988
 31
0.0
  0
LINE
  5
F3
330
1F
100
AcDbEntity
  8
0
 62
     7
370
    35
100
AcDbLine
 10
-38.999985
 20
157.299988
 30
0.0
 11
-38.999985
 21
160.299988
 31
0.0
  0
LINE
  5
F4
330
1F
100
AcDbEntity
  8
0
 62
     7
370
    35
100
AcDbLine
 10
-36.999985
 20
157.299988
 30
0.0
 11
-38.999985
 21
157.299988
 31
0.0
  0
LINE
  5
F5
330
1F
100
AcDbEntity
  8
0
 62
     7
370
    35
100
AcDbLine
 10
-39.999985
 20
154.299988
 30
0.0
 11
-36.999985
 21
157.299988
 31
0.0
  0
LINE
  5
F6
330
1F
100
AcDbEntity
  8
0
 62
     7
370
    35
100
AcDbLine
 10
-65.999985
 20
153.299988
 30
0.0
 11
-44.999985
 21
153.299988
 31
0.0
  0
LINE
  5
F7
330
1F
100
AcDbEntity
  8
0
 62
     7
370
    35
100
AcDbLine
 10
-44.999985
 20
153.299988
 30
0.0
 11
-44.999985
 21
156.299988
 31
0.0
  0
LINE
  5
F8
330
1F
100
AcDbEntity
  8
0
 62
     7
370
    35
100
AcDbLine
 10
-44.999985
 20
156.299988
 30
0.0
 11
-65.999985
 21
156.299988
 31
0.0
  0
LINE
  5
F9
330
1F
100
AcDbEntity
  8
0
 62
     7
370
    35
100
AcDbLine
 10
-65.999985
 20
156.299988
 30
0.0
 11
-65.999985
 21
153.299988
 31
0.0
  0
ARC
  5
FA
330
1F
100
AcDbEntity
  8
0
 62
     7
370
    35
100
AcDbCircle
 10
456.0
 20
153.299988
 30
0.0
 40
1.0
100
AcDbArc
 50
180.000005
 51
269.999997
  0
LINE
  5
FB
330
1F
100
AcDbEntity
  8
0
 62
     7
370
    35
100
AcDbLine
 10
486.0
 20
152.299988
 30
0.0
 11
456.0
 21
152.299988
 31
0.0
  0
ARC
  5
FC
330
1F
100
AcDbEntity
  8
0
 62
     7
370
    35
100
AcDbCircle
 10
486.0
 20
153.299988
 30
0.0
 40
1.0
100
AcDbArc
 50
269.999997
 51
360.0
  0
LINE
  5
FD
330
1F
100
AcDbEntity
  8
0
 62
     7
370
    35
100
AcDbLine
 10
487.0
 20
153.299988
 30
0.0
 11
487.0
 21
164.799988
 31
0.0
  0
ARC
  5
FE
330
1F
100
AcDbEntity
  8
0
 62
     7
370
    35
100
AcDbCircle
 10
486.0
 20
164.799988
 30
0.0
 40
1.0
100
AcDbArc
 50
0.0
 51
90.000003
  0
LINE
  5
FF
330
1F
100
AcDbEntity
  8
0
 62
     7
370
    35
100
AcDbLine
 10
455.0
 20
164.799988
 30
0.0
 11
455.0
 21
153.299988
 31
0.0
  0
LINE
  5
100
330
1F
100
AcDbEntity
  8
0
 62
     7
370
    35
100
AcDbLine
 10
456.0
 20
165.799988
 30
0.0
 11
486.0
 21
165.799988
 31
0.0
  0
ARC
  5
101
330
1F
100
AcDbEntity
  8
0
 62
     7
370
    35
100
AcDbCircle
 10
456.0
 20
164.799988
 30
0.0
 40
0.9999999999999996
100
AcDbArc
 50
90.000003
 51
180.000005
  0
LINE
  5
102
330
1F
100
AcDbEntity
  8
0
 62
     7
370
    35
100
AcDbLine
 10
456.0
 20
153.299988
 30
0.0
 11
464.0
 21
153.299988
 31
0.0
  0
LINE
  5
103
330
1F
100
AcDbEntity
  8
0
 62
     7
370
    35
100
AcDbLine
 10
464.0
 20
153.299988
 30
0.0
 11
464.0
 21
161.299988
 31
0.0
  0
LINE
  5
104
330
1F
100
AcDbEntity
  8
0
 62
     7
370
    35
100
AcDbLine
 10
464.0
 20
161.299988
 30
0.0
 11
456.0
 21
161.299988
 31
0.0
  0
LINE
  5
105
330
1F
100
AcDbEntity
  8
0
 62
     7
370
    35
100
AcDbLine
 10
456.0
 20
161.299988
 30
0.0
 11
456.0
 21
153.299988
 31
0.0
  0
LINE
  5
106
330
1F
100
AcDbEntity
  8
0
 62
     7
370
    35
100
AcDbLine
 10
457.0
 20
157.299988
 30
0.0
 11
460.0
 21
154.299988
 31
0.0
  0
LINE
  5
107
330
1F
100
AcDbEntity
  8
0
 62
     7
370
    35
100
AcDbLine
 10
459.0
 20
157.299988
 30
0.0
 11
457.0
 21
157.299988
 31
0.0
  0
LINE
  5
108
330
1F
100
AcDbEntity
  8
0
 62
     7
370
    35
100
AcDbLine
 10
459.0
 20
160.299988
 30
0.0
 11
459.0
 21
157.299988
 31
0.0
  0
LINE
  5
109
330
1F
100
AcDbEntity
  8
0
 62
     7
370
    35
100
AcDbLine
 10
461.0
 20
160.299988
 30
0.0
 11
459.0
 21
160.299988
 31
0.0
  0
LINE
  5
10A
330
1F
100
AcDbEntity
  8
0
 62
     7
370
    35
100
AcDbLine
 10
461.0
 20
157.299988
 30
0.0
 11
461.0
 21
160.299988
 31
0.0
  0
LINE
  5
10B
330
1F
100
AcDbEntity
  8
0
 62
     7
370
    35
100
AcDbLine
 10
463.0
 20
157.299988
 30
0.0
 11
461.0
 21
157.299988
 31
0.0
  0
LINE
  5
10C
330
1F
100
AcDbEntity
  8
0
 62
     7
370
    35
100
AcDbLine
 10
460.0
 20
154.299988
 30
0.0
 11
463.0
 21
157.299988
 31
0.0
  0
LINE
  5
10D
330
1F
100
AcDbEntity
  8
0
 62
     7
370
    35
100
AcDbLine
 10
475.299988
 20
156.899994
 30
0.0
 11
486.0
 21
156.899994
 31
0.0
  0
LINE
  5
10E
330
1F
100
AcDbEntity
  8
0
 62
     7
370
    35
100
AcDbLine
 10
486.0
 20
156.899994
 30
0.0
 11
486.0
 21
159.699997
 31
0.0
  0
LINE
  5
10F
330
1F
100
AcDbEntity
  8
0
 62
     7
370
    35
100
AcDbLine
 10
486.0
 20
159.699997
 30
0.0
 11
475.299988
 21
159.699997
 31
0.0
  0
LINE
  5
110
330
1F
100
AcDbEntity
  8
0
 62
     7
370
    35
100
AcDbLine
 10
475.299988
 20
159.699997
 30
0.0
 11
475.299988
 21
156.899994
 31
0.0
  0
CIRCLE
  5
111
330
1F
100
AcDbEntity
  8
0
 62
     7
370
    35
100
AcDbCircle
 10
410.0
 20
159.899994
 30
0.0
 40
4.0
  0
LINE
  5
112
330
1F
100
AcDbEntity
  8
0
 62
     7
370
    35
100
AcDbLine
 10
414.0
 20
169.599991
 30
0.0
 11
411.827271
 21
169.599991
 31
0.0
  0
LINE
  5
113
330
1F
100
AcDbEntity
  8
0
 62
     7
370
    35
100
AcDbLine
 10
411.827271
 20
169.599991
 30
0.0
 11
406.0
 21
169.599991
 31
0.0
  0
CIRCLE
  5
114
330
1F
100
AcDbEntity
  8
0
 62
     7
370
    35
100
AcDbCircle
 10
60.000015
 20
159.899994
 30
0.0
 40
4.0
  0
LINE
  5
115
330
1F
100
AcDbEntity
  8
0
 62
     7
370
    35
100
AcDbLine
 10
64.000015
 20
169.599991
 30
0.0
 11
61.827301
 21
169.599991
 31
0.0
  0
LINE
  5
116
330
1F
100
AcDbEntity
  8
0
 62
     7
370
    35
100
AcDbLine
 10
61.827301
 20
169.599991
 30
0.0
 11
56.000015
 21
169.599991
 31
0.0
  0
LINE
  5
117
330
1F
100
AcDbEntity
  8
0
 62
     7
370
    35
100
AcDbLine
 10
-93.499985
 20
167.245926
 30
0.0
 11
-93.499985
 21
169.399994
 31
0.0
  0
LINE
  5
118
330
1F
100
AcDbEntity
  8
0
 62
     7
370
    35
100
AcDbLine
 10
-99.999985
 20
167.245926
 30
0.0
 11
-99.999985
 21
169.399994
 31
0.0
  0
LINE
  5
119
330
1F
100
AcDbEntity
  8
0
 62
     7
370
    35
100
AcDbLine
 10
-99.999985
 20
167.245926
 30
0.0
 11
-99.999985
 21
147.699997
 31
0.0
  0
LINE
  5
11A
330
1F
100
AcDbEntity
  8
0
 62
     7
370
    35
100
AcDbLine
 10
-93.499985
 20
153.399994
 30
0.0
 11
-93.499985
 21
147.699997
 31
0.0
  0
ARC
  5
11B
330
1F
100
AcDbEntity
  8
0
 62
     7
370
    35
100
AcDbCircle
 10
-93.499985
 20
159.899994
 30
0.0
 40
6.5
100
AcDbArc
 50
269.999997
 51
90.000003
  0
LINE
  5
11C
330
1F
100
AcDbEntity
  8
0
 62
     7
370
    35
100
AcDbLine
 10
-93.499985
 20
167.245926
 30
0.0
 11
-93.499985
 21
166.399994
 31
0.0
  0
CIRCLE
  5
11D
330
1F
100
AcDbEntity
  8
0
 62
     7
370
    35
100
AcDbCircle
 10
-93.499985
 20
159.899994
 30
0.0
 40
5.0
  0
LINE
  5
11E
330
1F
100
AcDbEntity
  8
0
 62
     7
370
    35
100
AcDbLine
 10
-99.999985
 20
145.399994
 30
0.0
 11
-99.999985
 21
147.699997
 31
0.0
  0
LINE
  5
11F
330
1F
100
AcDbEntity
  8
0
 62
     7
370
    35
100
AcDbLine
 10
-93.499985
 20
145.399994
 30
0.0
 11
-99.999985
 21
145.399994
 31
0.0
  0
LINE
  5
120
330
1F
100
AcDbEntity
  8
0
 62
     7
370
    35
100
AcDbLine
 10
-93.499985
 20
145.399994
 30
0.0
 11
-93.499985
 21
147.699997
 31
0.0
  0
LINE
  5
121
330
1F
100
AcDbEntity
  8
0
 62
     7
370
    35
100
AcDbLine
 10
-99.999985
 20
145.399994
 30
0.0
 11
-99.999985
 21
144.699997
 31
0.0
  0
LINE
  5
122
330
1F
100
AcDbEntity
  8
0
 62
     7
370
    35
100
AcDbLine
 10
-93.499985
 20
144.699997
 30
0.0
 11
-99.999985
 21
144.699997
 31
0.0
  0
LINE
  5
123
330
1F
100
AcDbEntity
  8
0
 62
     7
370
    35
100
AcDbLine
 10
-93.499985
 20
145.399994
 30
0.0
 11
-93.499985
 21
144.699997
 31
0.0
  0
LINE
  5
124
330
1F
100
AcDbEntity
  8
0
 62
     7
370
    35
100
AcDbLine
 10
520.0
 20
167.245926
 30
0.0
 11
520.0
 21
169.399994
 31
0.0
  0
LINE
  5
125
330
1F
100
AcDbEntity
  8
0
 62
     7
370
    35
100
AcDbLine
 10
513.5
 20
167.245926
 30
0.0
 11
513.5
 21
169.399994
 31
0.0
  0
LINE
  5
126
330
1F
100
AcDbEntity
  8
0
 62
     7
370
    35
100
AcDbLine
 10
513.5
 20
167.245926
 30
0.0
 11
513.5
 21
166.399994
 31
0.0
  0
ARC
  5
127
330
1F
100
AcDbEntity
  8
0
 62
     7
370
    35
100
AcDbCircle
 10
513.5
 20
159.899994
 30
0.0
 40
6.5
100
AcDbArc
 50
90.000003
 51
269.999997
  0
LINE
  5
128
330
1F
100
AcDbEntity
  8
0
 62
     7
370
    35
100
AcDbLine
 10
513.5
 20
153.399994
 30
0.0
 11
513.5
 21
147.699997
 31
0.0
  0
LINE
  5
129
330
1F
100
AcDbEntity
  8
0
 62
     7
370
    35
100
AcDbLine
 10
520.0
 20
167.245926
 30
0.0
 11
520.0
 21
147.699997
 31
0.0
  0
CIRCLE
  5
12A
330
1F
100
AcDbEntity
  8
0
 62
     7
370
    35
100
AcDbCircle
 10
513.5
 20
159.899994
 30
0.0
 40
5.0
  0
LINE
  5
12B
330
1F
100
AcDbEntity
  8
0
 62
     7
370
    35
100
AcDbLine
 10
513.5
 20
145.399994
 30
0.0
 11
513.5
 21
147.699997
 31
0.0
  0
LINE
  5
12C
330
1F
100
AcDbEntity
  8
0
 62
     7
370
    35
100
AcDbLine
 10
513.5
 20
145.399994
 30
0.0
 11
520.0
 21
145.399994
 31
0.0
  0
LINE
  5
12D
330
1F
100
AcDbEntity
  8
0
 62
     7
370
    35
100
AcDbLine
 10
520.0
 20
145.399994
 30
0.0
 11
520.0
 21
147.699997
 31
0.0
  0
LINE
  5
12E
330
1F
100
AcDbEntity
  8
0
 62
     7
370
    35
100
AcDbLine
 10
513.5
 20
145.399994
 30
0.0
 11
513.5
 21
144.699997
 31
0.0
  0
LINE
  5
12F
330
1F
100
AcDbEntity
  8
0
 62
     7
370
    35
100
AcDbLine
 10
513.5
 20
144.699997
 30
0.0
 11
520.0
 21
144.699997
 31
0.0
  0
LINE
  5
130
330
1F
100
AcDbEntity
  8
0
 62
     7
370
    35
100
AcDbLine
 10
520.0
 20
145.399994
 30
0.0
 11
520.0
 21
144.699997
 31
0.0
  0
LINE
  5
131
330
1F
100
AcDbEntity
  8
0
 62
     7
370
    35
100
AcDbLine
 10
513.5
 20
152.299988
 30
0.0
 11
-93.499985
 21
152.299988
 31
0.0
  0
LINE
  5
132
330
1F
100
AcDbEntity
  8
0
 62
     7
370
    35
100
AcDbLine
 10
29.500015
 20
144.899994
 30
0.0
 11
29.500015
 21
146.499985
 31
0.0
  0
LINE
  5
133
330
1F
100
AcDbEntity
  8
0
 62
     7
370
    35
100
AcDbLine
 10
-9.499985
 20
144.899994
 30
0.0
 11
-9.499985
 21
146.499985
 31
0.0
  0
LINE
  5
134
330
1F
100
AcDbEntity
  8
0
 62
     7
370
    35
100
AcDbLine
 10
-58.999985
 20
143.649994
 30
0.0
 11
-19.999992
 21
143.649994
 31
0.0
  0
LINE
  5
135
330
1F
100
AcDbEntity
  8
0
 62
     7
370
    35
100
AcDbLine
 10
-58.999985
 20
138.149994
 30
0.0
 11
-19.999992
 21
138.149994
 31
0.0
  0
LINE
  5
136
330
1F
100
AcDbEntity
  8
0
 62
     7
370
    35
100
AcDbLine
 10
414.0
 20
169.399994
 30
0.0
 11
414.0
 21
169.599991
 31
0.0
  0
LINE
  5
137
330
1F
100
AcDbEntity
  8
0
 62
     7
370
    35
100
AcDbLine
 10
406.0
 20
169.399994
 30
0.0
 11
406.0
 21
169.599991
 31
0.0
  0
LINE
  5
138
330
1F
100
AcDbEntity
  8
0
 62
     7
370
    35
100
AcDbLine
 10
64.000015
 20
169.399994
 30
0.0
 11
64.000015
 21
169.599991
 31
0.0
  0
LINE
  5
139
330
1F
100
AcDbEntity
  8
0
 62
     7
370
    35
100
AcDbLine
 10
56.000015
 20
169.399994
 30
0.0
 11
56.000015
 21
169.599991
 31
0.0
  0
LINE
  5
13A
330
1F
100
AcDbEntity
  8
0
  6
DASHDOT
 62
     7
 48
0.277
370
    13
100
AcDbLine
 10
556.5755
 20
140.899994
 30
0.0
 11
545.495483
 21
140.899994
 31
0.0
  0
LINE
  5
13B
330
1F
100
AcDbEntity
  8
0
  6
DASHDOT
 62
     7
 48
0.277
370
    13
100
AcDbLine
 10
551.035461
 20
146.439987
 30
0.0
 11
551.035461
 21
135.359985
 31
0.0
  0
LINE
  5
13C
330
1F
100
AcDbEntity
  8
0
  6
DASHDOT
 62
     7
 48
0.2645
370
    13
100
AcDbLine
 10
556.525513
 20
140.899994
 30
0.0
 11
545.945496
 21
140.899994
 31
0.0
  0
LINE
  5
13D
330
1F
100
AcDbEntity
  8
0
  6
DASHDOT
 62
     7
 48
0.2645
370
    13
100
AcDbLine
 10
551.235474
 20
146.189987
 30
0.0
 11
551.235474
 21
135.609985
 31
0.0
  0
LINE
  5
13E
330
1F
100
AcDbEntity
  8
0
 62
     7
370
    35
100
AcDbLine
 10
564.235474
 20
169.399994
 30
0.0
 11
545.435486
 21
169.399994
 31
0.0
  0
LINE
  5
13F
330
1F
100
AcDbEntity
  8
0
 62
     7
370
    35
100
AcDbLine
 10
565.485474
 20
164.799988
 30
0.0
 11
565.485474
 21
162.249176
 31
0.0
  0
LINE
  5
140
330
1F
100
AcDbEntity
  8
0
 62
     7
370
    35
100
AcDbLine
 10
565.485474
 20
162.249176
 30
0.0
 11
565.485474
 21
155.0
 31
0.0
  0
LINE
  5
141
330
1F
100
AcDbEntity
  8
0
 62
     7
370
    35
100
AcDbLine
 10
565.635498
 20
162.052704
 30
0.0
 11
565.635498
 21
155.409805
 31
0.0
  0
LINE
  5
142
330
1F
100
AcDbEntity
  8
0
 62
     7
370
    35
100
AcDbLine
 10
565.635498
 20
164.390182
 30
0.0
 11
565.635498
 21
162.052704
 31
0.0
  0
LINE
  5
143
330
1F
100
AcDbEntity
  8
0
 62
     7
370
    35
100
AcDbLine
 10
556.535461
 20
144.899994
 30
0.0
 11
556.535461
 21
144.941559
 31
0.0
  0
LINE
  5
144
330
1F
100
AcDbEntity
  8
0
 62
     7
370
    35
100
AcDbLine
 10
556.535461
 20
143.899994
 30
0.0
 11
556.535461
 21
144.899994
 31
0.0
  0
LINE
  5
145
330
1F
100
AcDbEntity
  8
0
 62
     7
370
    35
100
AcDbLine
 10
556.535461
 20
143.899994
 30
0.0
 11
556.435486
 21
143.899994
 31
0.0
  0
LINE
  5
146
330
1F
100
AcDbEntity
  8
0
 62
     7
370
    35
100
AcDbLine
 10
551.035461
 20
143.899994
 30
0.0
 11
552.735474
 21
143.899994
 31
0.0
  0
LINE
  5
147
330
1F
100
AcDbEntity
  8
0
 62
     7
370
    35
100
AcDbLine
 10
556.435486
 20
143.899994
 30
0.0
 11
556.435486
 21
137.899994
 31
0.0
  0
LINE
  5
148
330
1F
100
AcDbEntity
  8
0
 62
     7
370
    35
100
AcDbLine
 10
545.435486
 20
144.899994
 30
0.0
 11
553.298157
 21
144.899994
 31
0.0
  0
LINE
  5
149
330
1F
100
AcDbEntity
  8
0
 62
     7
370
    35
100
AcDbLine
 10
556.372131
 20
144.899994
 30
0.0
 11
556.535461
 21
144.899994
 31
0.0
  0
LINE
  5
14A
330
1F
100
AcDbEntity
  8
0
 62
     7
370
    35
100
AcDbLine
 10
545.435486
 20
142.399994
 30
0.0
 11
545.435486
 21
144.899994
 31
0.0
  0
LINE
  5
14B
330
1F
100
AcDbEntity
  8
0
 62
     7
370
    35
100
AcDbLine
 10
544.635498
 20
142.399994
 30
0.0
 11
545.435486
 21
142.399994
 31
0.0
  0
LINE
  5
14C
330
1F
100
AcDbEntity
  8
0
 62
     7
370
    35
100
AcDbLine
 10
544.635498
 20
142.399994
 30
0.0
 11
544.635498
 21
137.399994
 31
0.0
  0
LINE
  5
14D
330
1F
100
AcDbEntity
  8
0
 62
     7
370
    35
100
AcDbLine
 10
544.635498
 20
137.399994
 30
0.0
 11
549.735474
 21
137.399994
 31
0.0
  0
LINE
  5
14E
330
1F
100
AcDbEntity
  8
0
 62
     7
370
    35
100
AcDbLine
 10
549.735474
 20
128.399994
 30
0.0
 11
549.735474
 21
137.399994
 31
0.0
  0
LINE
  5
14F
330
1F
100
AcDbEntity
  8
0
 62
     7
370
    35
100
AcDbLine
 10
544.635498
 20
128.399994
 30
0.0
 11
549.735474
 21
128.399994
 31
0.0
  0
LINE
  5
150
330
1F
100
AcDbEntity
  8
0
 62
     7
370
    35
100
AcDbLine
 10
544.635498
 20
128.399994
 30
0.0
 11
544.635498
 21
127.399994
 31
0.0
  0
LINE
  5
151
330
1F
100
AcDbEntity
  8
0
 62
     7
370
    35
100
AcDbLine
 10
544.635498
 20
127.399994
 30
0.0
 11
556.635498
 21
127.399994
 31
0.0
  0
LINE
  5
152
330
1F
100
AcDbEntity
  8
0
 62
     7
370
    35
100
AcDbLine
 10
556.635498
 20
137.899994
 30
0.0
 11
556.635498
 21
127.399994
 31
0.0
  0
LINE
  5
153
330
1F
100
AcDbEntity
  8
0
 62
     7
370
    35
100
AcDbLine
 10
556.635498
 20
137.899994
 30
0.0
 11
556.435486
 21
137.899994
 31
0.0
  0
LINE
  5
154
330
1F
100
AcDbEntity
  8
0
 62
     7
370
    35
100
AcDbLine
 10
552.735474
 20
143.899994
 30
0.0
 11
552.735474
 21
143.498077
 31
0.0
  0
ARC
  5
155
330
1F
100
AcDbEntity
  8
0
 62
     7
370
    35
100
AcDbCircle
 10
551.235474
 20
140.899994
 30
0.0
 40
3.0
100
AcDbArc
 50
299.999998
 51
60.000002
  0
LINE
  5
156
330
1F
100
AcDbEntity
  8
0
 62
     7
370
    35
100
AcDbLine
 10
552.735474
 20
137.899994
 30
0.0
 11
552.735474
 21
138.30191
 31
0.0
  0
LINE
  5
157
330
1F
100
AcDbEntity
  8
0
 62
     7
370
    35
100
AcDbLine
 10
552.735474
 20
137.899994
 30
0.0
 11
551.035461
 21
137.899994
 31
0.0
  0
ARC
  5
158
330
1F
100
AcDbEntity
  8
0
 62
     7
370
    35
100
AcDbCircle
 10
551.035461
 20
140.899994
 30
0.0
 40
3.0
100
AcDbArc
 50
90.000003
 51
269.999997
  0
LINE
  5
159
330
1F
100
AcDbEntity
  8
0
 62
     7
370
    35
100
AcDbLine
 10
544.635498
 20
128.399994
 30
0.0
 11
544.635498
 21
137.399994
 31
0.0
  0
LINE
  5
15A
330
1F
100
AcDbEntity
  8
0
 62
     7
370
    35
100
AcDbLine
 10
553.471558
 20
138.899994
 30
0.0
 11
552.362122
 21
138.899994
 31
0.0
  0
LINE
  5
15B
330
1F
100
AcDbEntity
  8
0
 62
     7
370
    35
100
AcDbLine
 10
544.935486
 20
142.399979
 30
0.0
 11
544.935486
 21
142.899994
 31
0.0
  0
LINE
  5
15C
330
1F
100
AcDbEntity
  8
0
 62
     7
370
    35
100
AcDbLine
 10
545.435486
 20
142.899994
 30
0.0
 11
544.935486
 21
142.899994
 31
0.0
  0
LINE
  5
15D
330
1F
100
AcDbEntity
  8
0
 62
     7
370
    35
100
AcDbLine
 10
554.035461
 20
141.899994
 30
0.0
 11
553.217224
 21
141.899994
 31
0.0
  0
LINE
  5
15E
330
1F
100
AcDbEntity
  8
0
 62
     7
370
    35
100
AcDbLine
 10
552.132263
 20
145.196747
 30
0.0
 11
551.83551
 21
144.899994
 31
0.0
  0
LINE
  5
15F
330
1F
100
AcDbEntity
  8
0
 62
     7
370
    35
100
AcDbLine
 10
556.735474
 20
142.899994
 30
0.0
 11
556.735474
 21
144.992477
 31
0.0
  0
LINE
  5
160
330
1F
100
AcDbEntity
  8
0
 62
     7
370
    35
100
AcDbLine
 10
556.735474
 20
142.899994
 30
0.0
 11
556.435486
 21
139.899994
 31
0.0
  0
LINE
  5
161
330
1F
100
AcDbEntity
  8
0
 62
     7
370
    35
100
AcDbLine
 10
554.035461
 20
139.822968
 30
0.0
 11
554.035461
 21
141.977005
 31
0.0
  0
LINE
  5
162
330
1F
100
AcDbEntity
  8
0
 62
     7
370
    35
100
AcDbLine
 10
552.482971
 20
138.985641
 30
0.0
 11
553.514954
 21
138.9496
 31
0.0
  0
ARC
  5
163
330
1F
100
AcDbEntity
  8
0
 62
     7
370
    35
100
AcDbCircle
 10
552.33551
 20
138.533569
 30
0.0
 40
0.3
100
AcDbArc
 50
118.782208
 51
180.000005
  0
LINE
  5
164
330
1F
100
AcDbEntity
  8
0
 62
     7
370
    35
100
AcDbLine
 10
552.035461
 20
138.533569
 30
0.0
 11
552.035461
 21
138.199997
 31
0.0
  0
ARC
  5
165
330
1F
100
AcDbEntity
  8
0
 62
     7
370
    35
100
AcDbCircle
 10
551.735474
 20
138.199997
 30
0.0
 40
0.2999999999999998
100
AcDbArc
 50
269.999997
 51
360.0
  0
ARC
  5
166
330
1F
100
AcDbEntity
  8
0
 62
     7
370
    35
100
AcDbCircle
 10
551.735474
 20
143.599991
 30
0.0
 40
0.3
100
AcDbArc
 50
0.0
 51
90.000003
  0
LINE
  5
167
330
1F
100
AcDbEntity
  8
0
 62
     7
370
    35
100
AcDbLine
 10
552.035461
 20
143.599991
 30
0.0
 11
552.035461
 21
143.266418
 31
0.0
  0
ARC
  5
168
330
1F
100
AcDbEntity
  8
0
 62
     7
370
    35
100
AcDbCircle
 10
552.33551
 20
143.266418
 30
0.0
 40
0.2999999999999999
100
AcDbArc
 50
179.999995
 51
241.217792
  0
ARC
  5
169
330
1F
100
AcDbEntity
  8
0
 62
     7
370
    35
100
AcDbCircle
 10
551.035461
 20
140.899994
 30
0.0
 40
2.4
100
AcDbArc
 50
298.782203
 51
61.217797
  0
ARC
  5
16A
330
1F
100
AcDbEntity
  8
0
 62
     7
370
    35
100
AcDbCircle
 10
551.235474
 20
140.899994
 30
0.0
 40
2.75
100
AcDbArc
 50
313.341567
 51
315.166024
  0
LINE
  5
16B
330
1F
100
AcDbEntity
  8
0
 62
     7
370
    35
100
AcDbLine
 10
558.83551
 20
169.599991
 30
0.0
 11
551.277222
 21
169.599991
 31
0.0
  0
LINE
  5
16C
330
1F
100
AcDbEntity
  8
0
 62
     7
370
    35
100
AcDbLine
 10
551.277222
 20
169.599991
 30
0.0
 11
550.83551
 21
169.599991
 31
0.0
  0
ARC
  5
16D
330
1F
100
AcDbEntity
  8
0
 62
     7
370
    35
100
AcDbCircle
 10
547.935486
 20
167.245926
 30
0.0
 40
3.3
100
AcDbArc
 50
139.250946
 51
180.000005
  0
LINE
  5
16E
330
1F
100
AcDbEntity
  8
0
 62
     7
370
    35
100
AcDbLine
 10
544.635498
 20
167.245926
 30
0.0
 11
544.635498
 21
147.699997
 31
0.0
  0
ARC
  5
16F
330
1F
100
AcDbEntity
  8
0
 62
     7
370
    35
100
AcDbCircle
 10
561.735474
 20
167.245926
 30
0.0
 40
3.3
100
AcDbArc
 50
360.0
 51
40.749055
  0
ARC
  5
170
330
1F
100
AcDbEntity
  8
0
 62
     7
370
    35
100
AcDbCircle
 10
546.935486
 20
147.699997
 30
0.0
 40
2.3
100
AcDbArc
 50
180.000005
 51
269.999997
  0
LINE
  5
171
330
1F
100
AcDbEntity
  8
0
 62
     7
370
    35
100
AcDbLine
 10
546.935486
 20
145.399994
 30
0.0
 11
551.33551
 21
145.399994
 31
0.0
  0
LINE
  5
172
330
1F
100
AcDbEntity
  8
0
 62
     7
370
    35
100
AcDbLine
 10
551.33551
 20
145.399994
 30
0.0
 11
554.08551
 21
144.699997
 31
0.0
  0
LINE
  5
173
330
1F
100
AcDbEntity
  8
0
 62
     7
370
    35
100
AcDbLine
 10
554.08551
 20
144.699997
 30
0.0
 11
555.58551
 21
144.699997
 31
0.0
  0
LINE
  5
174
330
1F
100
AcDbEntity
  8
0
 62
     7
370
    35
100
AcDbLine
 10
555.58551
 20
144.699997
 30
0.0
 11
558.33551
 21
145.399994
 31
0.0
  0
LINE
  5
175
330
1F
100
AcDbEntity
  8
0
 62
     7
370
    35
100
AcDbLine
 10
558.33551
 20
145.399994
 30
0.0
 11
562.735474
 21
145.399994
 31
0.0
  0
ARC
  5
176
330
1F
100
AcDbEntity
  8
0
 62
     7
370
    35
100
AcDbCircle
 10
562.735474
 20
147.699997
 30
0.0
 40
2.300000000000001
100
AcDbArc
 50
269.999997
 51
0.0
  0
LINE
  5
177
330
1F
100
AcDbEntity
  8
0
 62
     7
370
    35
100
AcDbLine
 10
565.035461
 20
147.699997
 30
0.0
 11
565.035461
 21
167.245926
 31
0.0
  0
LINE
  5
178
330
1F
100
AcDbEntity
  8
0
 62
     7
370
    35
100
AcDbLine
 10
563.724976
 20
168.399994
 30
0.0
 11
545.945984
 21
168.399994
 31
0.0
  0
ARC
  5
179
330
1F
100
AcDbEntity
  8
0
 62
     7
370
    35
100
AcDbCircle
 10
547.935486
 20
167.245926
 30
0.0
 40
2.300000000059505
100
AcDbArc
 50
149.882969
 51
180.000005
  0
LINE
  5
17A
330
1F
100
AcDbEntity
  8
0
 62
     7
370
    35
100
AcDbLine
 10
545.635498
 20
167.245926
 30
0.0
 11
545.635498
 21
147.699997
 31
0.0
  0
ARC
  5
17B
330
1F
100
AcDbEntity
  8
0
 62
     7
370
    35
100
AcDbCircle
 10
546.935486
 20
147.699997
 30
0.0
 40
1.300000000363393
100
AcDbArc
 50
180.000005
 51
269.999997
  0
LINE
  5
17C
330
1F
100
AcDbEntity
  8
0
 62
     7
370
    35
100
AcDbLine
 10
546.935486
 20
146.399994
 30
0.0
 11
551.460754
 21
146.399994
 31
0.0
  0
LINE
  5
17D
330
1F
100
AcDbEntity
  8
0
 62
     7
370
    35
100
AcDbLine
 10
551.460754
 20
146.399994
 30
0.0
 11
554.210754
 21
145.699997
 31
0.0
  0
LINE
  5
17E
330
1F
100
AcDbEntity
  8
0
 62
     7
370
    35
100
AcDbLine
 10
554.210754
 20
145.699997
 30
0.0
 11
555.460205
 21
145.699997
 31
0.0
  0
LINE
  5
17F
330
1F
100
AcDbEntity
  8
0
 62
     7
370
    35
100
AcDbLine
 10
555.460205
 20
145.699997
 30
0.0
 11
558.210205
 21
146.399994
 31
0.0
  0
LINE
  5
180
330
1F
100
AcDbEntity
  8
0
 62
     7
370
    35
100
AcDbLine
 10
558.210205
 20
146.399994
 30
0.0
 11
562.735474
 21
146.399994
 31
0.0
  0
ARC
  5
181
330
1F
100
AcDbEntity
  8
0
 62
     7
370
    35
100
AcDbCircle
 10
562.735474
 20
147.699997
 30
0.0
 40
1.300000000158153
100
AcDbArc
 50
269.999997
 51
0.0
  0
LINE
  5
182
330
1F
100
AcDbEntity
  8
0
 62
     7
370
    35
100
AcDbLine
 10
564.035461
 20
147.699997
 30
0.0
 11
564.035461
 21
167.245926
 31
0.0
  0
ARC
  5
183
330
1F
100
AcDbEntity
  8
0
 62
     7
370
    35
100
AcDbCircle
 10
561.735474
 20
167.245926
 30
0.0
 40
2.299999999404121
100
AcDbArc
 50
0.0
 51
30.117026
  0
ARC
  5
184
330
1F
100
AcDbEntity
  8
0
 62
     7
370
    35
100
AcDbCircle
 10
546.885498
 20
157.299988
 30
0.0
 40
0.4000000000000004
100
AcDbArc
 50
180.000005
 51
269.999997
  0
LINE
  5
185
330
1F
100
AcDbEntity
  8
0
 62
     7
370
    35
100
AcDbLine
 10
546.485474
 20
157.299988
 30
0.0
 11
546.485474
 21
162.5
 31
0.0
  0
ARC
  5
186
330
1F
100
AcDbEntity
  8
0
 62
     7
370
    35
100
AcDbCircle
 10
546.885498
 20
162.5
 30
0.0
 40
0.3999999999999999
100
AcDbArc
 50
90.000003
 51
180.000005
  0
LINE
  5
187
330
1F
100
AcDbEntity
  8
0
 62
     7
370
    35
100
AcDbLine
 10
546.885498
 20
162.899994
 30
0.0
 11
562.785461
 21
162.899994
 31
0.0
  0
ARC
  5
188
330
1F
100
AcDbEntity
  8
0
 62
     7
370
    35
100
AcDbCircle
 10
562.785461
 20
162.5
 30
0.0
 40
0.4000000000000004
100
AcDbArc
 50
0.0
 51
90.000003
  0
LINE
  5
189
330
1F
100
AcDbEntity
  8
0
 62
     7
370
    35
100
AcDbLine
 10
563.185486
 20
162.5
 30
0.0
 11
563.185486
 21
157.299988
 31
0.0
  0
LINE
  5
18A
330
1F
100
AcDbEntity
  8
0
 62
     7
370
    35
100
AcDbLine
 10
562.785461
 20
156.899994
 30
0.0
 11
546.885498
 21
156.899994
 31
0.0
  0
ARC
  5
18B
330
1F
100
AcDbEntity
  8
0
 62
     7
370
    35
100
AcDbCircle
 10
562.785461
 20
157.299988
 30
0.0
 40
0.3999999999999999
100
AcDbArc
 50
269.999997
 51
360.0
  0
LINE
  5
18C
330
1F
100
AcDbEntity
  8
0
 62
     7
370
    35
100
AcDbLine
 10
565.035461
 20
166.299988
 30
0.0
 11
565.035034
 21
166.316208
 31
0.0
  0
LINE
  5
18D
330
1F
100
AcDbEntity
  8
0
 62
     7
370
    35
100
AcDbLine
 10
565.035461
 20
153.5
 30
0.0
 11
565.035034
 21
153.48378
 31
0.0
  0
LINE
  5
18E
330
1F
100
AcDbEntity
  8
0
 62
     7
370
    35
100
AcDbLine
 10
565.485474
 20
164.799988
 30
0.0
 11
565.035034
 21
164.799988
 31
0.0
  0
LINE
  5
18F
330
1F
100
AcDbEntity
  8
0
 62
     7
370
    35
100
AcDbLine
 10
565.635498
 20
164.390182
 30
0.0
 11
565.485474
 21
164.649994
 31
0.0
  0
LINE
  5
190
330
1F
100
AcDbEntity
  8
0
 62
     7
370
    35
100
AcDbLine
 10
565.635498
 20
155.409805
 30
0.0
 11
565.485474
 21
155.149994
 31
0.0
  0
LINE
  5
191
330
1F
100
AcDbEntity
  8
0
 62
     7
370
    35
100
AcDbLine
 10
565.485474
 20
164.799988
 30
0.0
 11
565.035461
 21
164.799988
 31
0.0
  0
LINE
  5
192
330
1F
100
AcDbEntity
  8
0
 62
     7
370
    35
100
AcDbLine
 10
565.485474
 20
155.0
 30
0.0
 11
565.035461
 21
155.0
 31
0.0
  0
LINE
  5
193
330
1F
100
AcDbEntity
  8
0
 62
     7
370
    35
100
AcDbLine
 10
565.635498
 20
155.409805
 30
0.0
 11
565.485474
 21
155.149994
 31
0.0
  0
LINE
  5
194
330
1F
100
AcDbEntity
  8
0
 62
     7
370
    35
100
AcDbLine
 10
565.635498
 20
164.390182
 30
0.0
 11
565.485474
 21
164.649994
 31
0.0
  0
LINE
  5
195
330
1F
100
AcDbEntity
  8
0
 62
     7
370
    35
100
AcDbLine
 10
558.83551
 20
169.399994
 30
0.0
 11
558.83551
 21
169.599991
 31
0.0
  0
LINE
  5
196
330
1F
100
AcDbEntity
  8
0
 62
     7
370
    35
100
AcDbLine
 10
550.83551
 20
169.399994
 30
0.0
 11
550.83551
 21
169.599991
 31
0.0
  0
LINE
  5
197
330
1F
100
AcDbEntity
  8
0
 62
     7
370
    35
100
AcDbLine
 10
558.83551
 20
169.399994
 30
0.0
 11
558.83551
 21
169.599991
 31
0.0
  0
LINE
  5
198
330
1F
100
AcDbEntity
  8
0
  6
DASHDOT
 62
     7
 48
0.20805
370
    13
100
AcDbLine
 10
32.161011
 20
92.41275
 30
0.0
 11
23.839012
 21
92.41275
 31
0.0
  0
LINE
  5
199
330
1F
100
AcDbEntity
  8
0
  6
DASHDOT
 62
     7
 48
0.20805
370
    13
100
AcDbLine
 10
28.000015
 20
96.573746
 30
0.0
 11
28.000015
 21
88.251747
 31
0.0
  0
LINE
  5
19A
330
1F
100
AcDbEntity
  8
0
  6
DASHDOT
 62
     7
 48
0.20805
370
    13
100
AcDbLine
 10
-3.838982
 20
92.41275
 30
0.0
 11
-12.160988
 21
92.41275
 31
0.0
  0
LINE
  5
19B
330
1F
100
AcDbEntity
  8
0
  6
DASHDOT
 62
     7
 48
0.20805
370
    13
100
AcDbLine
 10
-7.999985
 20
96.573746
 30
0.0
 11
-7.999985
 21
88.251747
 31
0.0
  0
LINE
  5
19C
330
1F
100
AcDbEntity
  8
0
 62
     7
370
    35
100
AcDbLine
 10
513.5
 20
97.712746
 30
0.0
 11
40.0
 21
97.712746
 31
0.0
  0
LINE
  5
19D
330
1F
100
AcDbEntity
  8
0
 62
     7
370
    35
100
AcDbLine
 10
17.5
 20
97.712746
 30
0.0
 11
15.000008
 21
97.712746
 31
0.0
  0
LINE
  5
19E
330
1F
100
AcDbEntity
  8
0
 62
     7
370
    35
100
AcDbLine
 10
5.000008
 20
97.712746
 30
0.0
 11
2.5
 21
97.712746
 31
0.0
  0
LINE
  5
19F
330
1F
100
AcDbEntity
  8
0
 62
     7
370
    35
100
AcDbLine
 10
-20.0
 20
97.712746
 30
0.0
 11
-93.499985
 21
97.712746
 31
0.0
  0
LINE
  5
1A0
330
1F
100
AcDbEntity
  8
0
 62
     7
370
    35
100
AcDbLine
 10
513.5
 20
92.012749
 30
0.0
 11
40.0
 21
92.012749
 31
0.0
  0
LINE
  5
1A1
330
1F
100
AcDbEntity
  8
0
 62
     7
370
    35
100
AcDbLine
 10
-58.999985
 20
92.012749
 30
0.0
 11
-93.499985
 21
92.012749
 31
0.0
  0
LINE
  5
1A2
330
1F
100
AcDbEntity
  8
0
 62
     7
370
    35
100
AcDbLine
 10
40.0
 20
88.112747
 30
0.0
 11
513.5
 21
88.112747
 31
0.0
  0
LINE
  5
1A3
330
1F
100
AcDbEntity
  8
0
 62
     7
370
    35
100
AcDbLine
 10
-93.499985
 20
88.112747
 30
0.0
 11
-20.0
 21
88.112747
 31
0.0
  0
LINE
  5
1A4
330
1F
100
AcDbEntity
  8
0
 62
     7
370
    35
100
AcDbLine
 10
513.5
 20
78.512749
 30
0.0
 11
-93.499985
 21
78.512749
 31
0.0
  0
LINE
  5
1A5
330
1F
100
AcDbEntity
  8
0
 62
     7
370
    35
100
AcDbLine
 10
513.5
 20
84.212746
 30
0.0
 11
-93.499985
 21
84.212746
 31
0.0
  0
LINE
  5
1A6
330
1F
100
AcDbEntity
  8
0
 62
     7
370
    35
100
AcDbLine
 10
-76.499985
 20
97.91275
 30
0.0
 11
-76.499985
 21
97.712738
 31
0.0
  0
ARC
  5
1A7
330
1F
100
AcDbEntity
  8
0
 62
     7
370
    35
100
AcDbCircle
 10
-76.799988
 20
97.91275
 30
0.0
 40
0.3
100
AcDbArc
 50
0.0
 51
90.000003
  0
ARC
  5
1A8
330
1F
100
AcDbEntity
  8
0
 62
     7
370
    35
100
AcDbCircle
 10
-80.199982
 20
97.91275
 30
0.0
 40
0.3
100
AcDbArc
 50
90.000003
 51
180.000005
  0
LINE
  5
1A9
330
1F
100
AcDbEntity
  8
0
 62
     7
370
    35
100
AcDbLine
 10
-76.499985
 20
97.91275
 30
0.0
 11
-76.499985
 21
97.712746
 31
0.0
  0
LINE
  5
1AA
330
1F
100
AcDbEntity
  8
0
 62
     7
370
    35
100
AcDbLine
 10
-80.499985
 20
97.91275
 30
0.0
 11
-80.499985
 21
97.712746
 31
0.0
  0
LINE
  5
1AB
330
1F
100
AcDbEntity
  8
0
 62
     7
370
    35
100
AcDbLine
 10
-80.199982
 20
98.212746
 30
0.0
 11
-76.799988
 21
98.212746
 31
0.0
  0
ARC
  5
1AC
330
1F
100
AcDbEntity
  8
0
 62
     7
370
    35
100
AcDbCircle
 10
-76.799988
 20
97.91275
 30
0.0
 40
0.3
100
AcDbArc
 50
0.0
 51
90.000003
  0
ARC
  5
1AD
330
1F
100
AcDbEntity
  8
0
 62
     7
370
    35
100
AcDbCircle
 10
-80.199982
 20
97.91275
 30
0.0
 40
0.3
100
AcDbArc
 50
90.000003
 51
180.000005
  0
LINE
  5
1AE
330
1F
100
AcDbEntity
  8
0
 62
     7
370
    35
100
AcDbLine
 10
-76.499985
 20
78.312744
 30
0.0
 11
-76.499985
 21
78.512733
 31
0.0
  0
LINE
  5
1AF
330
1F
100
AcDbEntity
  8
0
 62
     7
370
    35
100
AcDbLine
 10
-76.499985
 20
78.312744
 30
0.0
 11
-76.499985
 21
78.512741
 31
0.0
  0
LINE
  5
1B0
330
1F
100
AcDbEntity
  8
0
 62
     7
370
    35
100
AcDbLine
 10
-80.499985
 20
78.312744
 30
0.0
 11
-80.499985
 21
78.512741
 31
0.0
  0
LINE
  5
1B1
330
1F
100
AcDbEntity
  8
0
 62
     7
370
    35
100
AcDbLine
 10
-76.799988
 20
78.012749
 30
0.0
 11
-80.199982
 21
78.012749
 31
0.0
  0
ARC
  5
1B2
330
1F
100
AcDbEntity
  8
0
 62
     7
370
    35
100
AcDbCircle
 10
-76.799988
 20
78.312744
 30
0.0
 40
0.3
100
AcDbArc
 50
269.999997
 51
360.0
  0
ARC
  5
1B3
330
1F
100
AcDbEntity
  8
0
 62
     7
370
    35
100
AcDbCircle
 10
-80.199982
 20
78.312744
 30
0.0
 40
0.3
100
AcDbArc
 50
180.000005
 51
269.999997
  0
LINE
  5
1B4
330
1F
100
AcDbEntity
  8
0
 62
     7
370
    35
100
AcDbLine
 10
500.5
 20
97.91275
 30
0.0
 11
500.5
 21
97.712738
 31
0.0
  0
ARC
  5
1B5
330
1F
100
AcDbEntity
  8
0
 62
     7
370
    35
100
AcDbCircle
 10
500.200012
 20
97.91275
 30
0.0
 40
0.3
100
AcDbArc
 50
0.0
 51
90.000003
  0
ARC
  5
1B6
330
1F
100
AcDbEntity
  8
0
 62
     7
370
    35
100
AcDbCircle
 10
496.799988
 20
97.91275
 30
0.0
 40
0.3
100
AcDbArc
 50
90.000003
 51
180.000005
  0
LINE
  5
1B7
330
1F
100
AcDbEntity
  8
0
 62
     7
370
    35
100
AcDbLine
 10
500.5
 20
97.91275
 30
0.0
 11
500.5
 21
97.712746
 31
0.0
  0
LINE
  5
1B8
330
1F
100
AcDbEntity
  8
0
 62
     7
370
    35
100
AcDbLine
 10
496.5
 20
97.91275
 30
0.0
 11
496.5
 21
97.712746
 31
0.0
  0
LINE
  5
1B9
330
1F
100
AcDbEntity
  8
0
 62
     7
370
    35
100
AcDbLine
 10
496.799988
 20
98.212746
 30
0.0
 11
500.200012
 21
98.212746
 31
0.0
  0
ARC
  5
1BA
330
1F
100
AcDbEntity
  8
0
 62
     7
370
    35
100
AcDbCircle
 10
500.200012
 20
97.91275
 30
0.0
 40
0.3
100
AcDbArc
 50
0.0
 51
90.000003
  0
ARC
  5
1BB
330
1F
100
AcDbEntity
  8
0
 62
     7
370
    35
100
AcDbCircle
 10
496.799988
 20
97.91275
 30
0.0
 40
0.3
100
AcDbArc
 50
90.000003
 51
180.000005
  0
LINE
  5
1BC
330
1F
100
AcDbEntity
  8
0
 62
     7
370
    35
100
AcDbLine
 10
500.5
 20
78.312744
 30
0.0
 11
500.5
 21
78.512733
 31
0.0
  0
LINE
  5
1BD
330
1F
100
AcDbEntity
  8
0
 62
     7
370
    35
100
AcDbLine
 10
500.5
 20
78.312744
 30
0.0
 11
500.5
 21
78.512741
 31
0.0
  0
LINE
  5
1BE
330
1F
100
AcDbEntity
  8
0
 62
     7
370
    35
100
AcDbLine
 10
496.5
 20
78.312744
 30
0.0
 11
496.5
 21
78.512741
 31
0.0
  0
LINE
  5
1BF
330
1F
100
AcDbEntity
  8
0
 62
     7
370
    35
100
AcDbLine
 10
500.200012
 20
78.012749
 30
0.0
 11
496.799988
 21
78.012749
 31
0.0
  0
ARC
  5
1C0
330
1F
100
AcDbEntity
  8
0
 62
     7
370
    35
100
AcDbCircle
 10
500.200012
 20
78.312744
 30
0.0
 40
0.3
100
AcDbArc
 50
269.999997
 51
360.0
  0
ARC
  5
1C1
330
1F
100
AcDbEntity
  8
0
 62
     7
370
    35
100
AcDbCircle
 10
496.799988
 20
78.312744
 30
0.0
 40
0.3
100
AcDbArc
 50
180.000005
 51
269.999997
  0
LINE
  5
1C2
330
1F
100
AcDbEntity
  8
0
 62
     7
370
    35
100
AcDbLine
 10
-91.150803
 20
77.562744
 30
0.0
 11
-98.399986
 21
77.562744
 31
0.0
  0
LINE
  5
1C3
330
1F
100
AcDbEntity
  8
0
 62
     7
370
    35
100
AcDbLine
 10
-88.599983
 20
77.562744
 30
0.0
 11
-91.150803
 21
77.562744
 31
0.0
  0
LINE
  5
1C4
330
1F
100
AcDbEntity
  8
0
 62
     7
370
    35
100
AcDbLine
 10
-89.009796
 20
77.41275
 30
0.0
 11
-91.347275
 21
77.41275
 31
0.0
  0
LINE
  5
1C5
330
1F
100
AcDbEntity
  8
0
 62
     7
370
    35
100
AcDbLine
 10
-91.347275
 20
77.41275
 30
0.0
 11
-97.990173
 21
77.41275
 31
0.0
  0
LINE
  5
1C6
330
1F
100
AcDbEntity
  8
0
 62
     7
370
    35
100
AcDbLine
 10
509.199829
 20
77.562744
 30
0.0
 11
508.599976
 21
77.562744
 31
0.0
  0
LINE
  5
1C7
330
1F
100
AcDbEntity
  8
0
 62
     7
370
    35
100
AcDbLine
 10
518.400024
 20
77.562744
 30
0.0
 11
509.199829
 21
77.562744
 31
0.0
  0
LINE
  5
1C8
330
1F
100
AcDbEntity
  8
0
 62
     7
370
    35
100
AcDbLine
 10
517.990173
 20
77.41275
 30
0.0
 11
509.559509
 21
77.41275
 31
0.0
  0
LINE
  5
1C9
330
1F
100
AcDbEntity
  8
0
 62
     7
370
    35
100
AcDbLine
 10
509.559509
 20
77.41275
 30
0.0
 11
509.009827
 21
77.41275
 31
0.0
  0
LINE
  5
1CA
330
1F
100
AcDbEntity
  8
0
 62
     7
370
    35
100
AcDbLine
 10
16.000015
 20
86.512749
 30
0.0
 11
30.5
 21
86.512749
 31
0.0
  0
LINE
  5
1CB
330
1F
100
AcDbEntity
  8
0
 62
     7
370
    35
100
AcDbLine
 10
16.000015
 20
86.512749
 30
0.0
 11
16.000015
 21
86.612747
 31
0.0
  0
LINE
  5
1CC
330
1F
100
AcDbEntity
  8
0
 62
     7
370
    35
100
AcDbLine
 10
40.000015
 20
98.41275
 30
0.0
 11
40.000015
 21
86.41275
 31
0.0
  0
LINE
  5
1CD
330
1F
100
AcDbEntity
  8
0
 62
     7
370
    35
100
AcDbLine
 10
17.500015
 20
98.41275
 30
0.0
 11
40.000015
 21
98.41275
 31
0.0
  0
LINE
  5
1CE
330
1F
100
AcDbEntity
  8
0
 62
     7
370
    35
100
AcDbLine
 10
17.500015
 20
89.012749
 30
0.0
 11
30.500015
 21
89.012749
 31
0.0
  0
LINE
  5
1CF
330
1F
100
AcDbEntity
  8
0
 62
     7
370
    35
100
AcDbLine
 10
30.500015
 20
86.41275
 30
0.0
 11
30.500015
 21
89.012749
 31
0.0
  0
LINE
  5
1D0
330
1F
100
AcDbEntity
  8
0
 62
     7
370
    35
100
AcDbLine
 10
30.500015
 20
86.41275
 30
0.0
 11
40.000015
 21
86.41275
 31
0.0
  0
LINE
  5
1D1
330
1F
100
AcDbEntity
  8
0
 62
     7
370
    35
100
AcDbLine
 10
17.500015
 20
98.41275
 30
0.0
 11
17.500015
 21
97.612747
 31
0.0
  0
LINE
  5
1D2
330
1F
100
AcDbEntity
  8
0
 62
     7
370
    35
100
AcDbLine
 10
17.500015
 20
97.612747
 30
0.0
 11
17.500015
 21
89.012749
 31
0.0
  0
CIRCLE
  5
1D3
330
1F
100
AcDbEntity
  8
0
 62
     7
370
    35
100
AcDbCircle
 10
28.000015
 20
92.41275
 30
0.0
 40
1.621
  0
LINE
  5
1D4
330
1F
100
AcDbEntity
  8
0
 62
     7
370
    35
100
AcDbLine
 10
2.500015
 20
98.41275
 30
0.0
 11
2.500015
 21
97.612747
 31
0.0
  0
LINE
  5
1D5
330
1F
100
AcDbEntity
  8
0
 62
     7
370
    35
100
AcDbLine
 10
2.500015
 20
97.612747
 30
0.0
 11
2.500015
 21
89.012749
 31
0.0
  0
LINE
  5
1D6
330
1F
100
AcDbEntity
  8
0
 62
     7
370
    35
100
AcDbLine
 10
-19.999985
 20
98.41275
 30
0.0
 11
2.500015
 21
98.41275
 31
0.0
  0
LINE
  5
1D7
330
1F
100
AcDbEntity
  8
0
 62
     7
370
    35
100
AcDbLine
 10
-10.499985
 20
86.41275
 30
0.0
 11
-10.499985
 21
89.012749
 31
0.0
  0
LINE
  5
1D8
330
1F
100
AcDbEntity
  8
0
 62
     7
370
    35
100
AcDbLine
 10
-10.499985
 20
89.012749
 30
0.0
 11
2.500015
 21
89.012749
 31
0.0
  0
LINE
  5
1D9
330
1F
100
AcDbEntity
  8
0
 62
     7
370
    35
100
AcDbLine
 10
-19.999985
 20
98.41275
 30
0.0
 11
-19.999985
 21
86.41275
 31
0.0
  0
LINE
  5
1DA
330
1F
100
AcDbEntity
  8
0
 62
     7
370
    35
100
AcDbLine
 10
-19.999985
 20
86.41275
 30
0.0
 11
-10.499985
 21
86.41275
 31
0.0
  0
CIRCLE
  5
1DB
330
1F
100
AcDbEntity
  8
0
 62
     7
370
    35
100
AcDbCircle
 10
-7.999985
 20
92.41275
 30
0.0
 40
1.621000000000002
  0
LINE
  5
1DC
330
1F
100
AcDbEntity
  8
0
 62
     7
370
    35
100
AcDbLine
 10
5.000015
 20
98.112747
 30
0.0
 11
8.000015
 21
98.112747
 31
0.0
  0
LINE
  5
1DD
330
1F
100
AcDbEntity
  8
0
 62
     7
370
    35
100
AcDbLine
 10
8.000015
 20
98.112747
 30
0.0
 11
12.000015
 21
98.112747
 31
0.0
  0
LINE
  5
1DE
330
1F
100
AcDbEntity
  8
0
 62
     7
370
    35
100
AcDbLine
 10
12.000015
 20
98.112747
 30
0.0
 11
15.000015
 21
98.112747
 31
0.0
  0
LINE
  5
1DF
330
1F
100
AcDbEntity
  8
0
 62
     7
370
    35
100
AcDbLine
 10
15.000015
 20
97.612747
 30
0.0
 11
15.000015
 21
98.112747
 31
0.0
  0
LINE
  5
1E0
330
1F
100
AcDbEntity
  8
0
 62
     7
370
    35
100
AcDbLine
 10
5.000015
 20
97.612747
 30
0.0
 11
5.000015
 21
98.112747
 31
0.0
  0
LINE
  5
1E1
330
1F
100
AcDbEntity
  8
0
 62
     7
370
    35
100
AcDbLine
 10
8.000015
 20
97.612747
 30
0.0
 11
8.000015
 21
98.112747
 31
0.0
  0
LINE
  5
1E2
330
1F
100
AcDbEntity
  8
0
 62
     7
370
    35
100
AcDbLine
 10
12.000015
 20
97.612747
 30
0.0
 11
12.000015
 21
98.112747
 31
0.0
  0
LINE
  5
1E3
330
1F
100
AcDbEntity
  8
0
 62
     7
370
    35
100
AcDbLine
 10
30.400009
 20
87.512749
 30
0.0
 11
30.500015
 21
87.512749
 31
0.0
  0
LINE
  5
1E4
330
1F
100
AcDbEntity
  8
0
 62
     7
370
    35
100
AcDbLine
 10
2.500015
 20
97.612747
 30
0.0
 11
17.500015
 21
97.612747
 31
0.0
  0
LINE
  5
1E5
330
1F
100
AcDbEntity
  8
0
 62
     7
370
    35
100
AcDbLine
 10
-10.499985
 20
87.512749
 30
0.0
 11
-10.399986
 21
87.512749
 31
0.0
  0
LINE
  5
1E6
330
1F
100
AcDbEntity
  8
0
 62
     7
370
    35
100
AcDbLine
 10
-10.399986
 20
86.612747
 30
0.0
 11
-10.399986
 21
87.512749
 31
0.0
  0
LINE
  5
1E7
330
1F
100
AcDbEntity
  8
0
 62
     7
370
    35
100
AcDbLine
 10
-10.399986
 20
86.612747
 30
0.0
 11
30.400009
 21
86.612747
 31
0.0
  0
LINE
  5
1E8
330
1F
100
AcDbEntity
  8
0
 62
     7
370
    35
100
AcDbLine
 10
30.400009
 20
86.612747
 30
0.0
 11
30.400009
 21
87.512749
 31
0.0
  0
LINE
  5
1E9
330
1F
100
AcDbEntity
  8
0
 62
     7
370
    35
100
AcDbLine
 10
-10.499992
 20
86.512749
 30
0.0
 11
4.000015
 21
86.512749
 31
0.0
  0
LINE
  5
1EA
330
1F
100
AcDbEntity
  8
0
 62
     7
370
    35
100
AcDbLine
 10
4.000015
 20
86.512749
 30
0.0
 11
4.000015
 21
86.612747
 31
0.0
  0
LINE
  5
1EB
330
1F
100
AcDbEntity
  8
0
 62
     7
370
    35
100
AcDbLine
 10
30.400009
 20
86.612747
 30
0.0
 11
30.500015
 21
86.612747
 31
0.0
  0
LINE
  5
1EC
330
1F
100
AcDbEntity
  8
0
 62
     7
370
    35
100
AcDbLine
 10
6.000015
 20
86.312744
 30
0.0
 11
14.000015
 21
86.312744
 31
0.0
  0
LINE
  5
1ED
330
1F
100
AcDbEntity
  8
0
 62
     7
370
    35
100
AcDbLine
 10
-10.399986
 20
86.612747
 30
0.0
 11
-10.499985
 21
86.612747
 31
0.0
  0
LINE
  5
1EE
330
1F
100
AcDbEntity
  8
0
 62
     7
370
    35
100
AcDbLine
 10
14.000015
 20
86.312744
 30
0.0
 11
16.000015
 21
86.612747
 31
0.0
  0
LINE
  5
1EF
330
1F
100
AcDbEntity
  8
0
 62
     7
370
    35
100
AcDbLine
 10
6.000015
 20
86.312744
 30
0.0
 11
4.000015
 21
86.612747
 31
0.0
  0
LINE
  5
1F0
330
1F
100
AcDbEntity
  8
0
 62
     7
370
    35
100
AcDbLine
 10
-19.999992
 20
89.062744
 30
0.0
 11
-58.999985
 21
89.062744
 31
0.0
  0
LINE
  5
1F1
330
1F
100
AcDbEntity
  8
0
 62
     7
370
    35
100
AcDbLine
 10
-19.999992
 20
94.562744
 30
0.0
 11
-58.999985
 21
94.562744
 31
0.0
  0
LINE
  5
1F2
330
1F
100
AcDbEntity
  8
0
 62
     7
370
    35
100
AcDbLine
 10
-58.999985
 20
89.062744
 30
0.0
 11
-58.999985
 21
94.562744
 31
0.0
  0
LINE
  5
1F3
330
1F
100
AcDbEntity
  8
0
 62
     7
370
    35
100
AcDbLine
 10
-93.499985
 20
98.41275
 30
0.0
 11
-99.999985
 21
98.41275
 31
0.0
  0
LINE
  5
1F4
330
1F
100
AcDbEntity
  8
0
 62
     7
370
    35
100
AcDbLine
 10
-93.499985
 20
98.41275
 30
0.0
 11
-86.999985
 21
98.41275
 31
0.0
  0
LINE
  5
1F5
330
1F
100
AcDbEntity
  8
0
 62
     7
370
    35
100
AcDbLine
 10
-99.999985
 20
96.112747
 30
0.0
 11
-99.999985
 21
98.41275
 31
0.0
  0
LINE
  5
1F6
330
1F
100
AcDbEntity
  8
0
 62
     7
370
    35
100
AcDbLine
 10
-93.499985
 20
96.112747
 30
0.0
 11
-93.499985
 21
98.41275
 31
0.0
  0
LINE
  5
1F7
330
1F
100
AcDbEntity
  8
0
 62
     7
370
    35
100
AcDbLine
 10
-99.999985
 20
96.112747
 30
0.0
 11
-99.999985
 21
91.712746
 31
0.0
  0
LINE
  5
1F8
330
1F
100
AcDbEntity
  8
0
 62
     7
370
    35
100
AcDbLine
 10
-93.499985
 20
91.712746
 30
0.0
 11
-99.999985
 21
91.712746
 31
0.0
  0
LINE
  5
1F9
330
1F
100
AcDbEntity
  8
0
 62
     7
370
    35
100
AcDbLine
 10
-93.499985
 20
96.112747
 30
0.0
 11
-93.499985
 21
91.712746
 31
0.0
  0
LINE
  5
1FA
330
1F
100
AcDbEntity
  8
0
 62
     7
370
    35
100
AcDbLine
 10
-99.999985
 20
91.712746
 30
0.0
 11
-99.999985
 21
88.962746
 31
0.0
  0
LINE
  5
1FB
330
1F
100
AcDbEntity
  8
0
 62
     7
370
    35
100
AcDbLine
 10
-93.499985
 20
88.962746
 30
0.0
 11
-99.999985
 21
88.962746
 31
0.0
  0
LINE
  5
1FC
330
1F
100
AcDbEntity
  8
0
 62
     7
370
    35
100
AcDbLine
 10
-93.499985
 20
91.712746
 30
0.0
 11
-93.499985
 21
88.962746
 31
0.0
  0
LINE
  5
1FD
330
1F
100
AcDbEntity
  8
0
 62
     7
370
    35
100
AcDbLine
 10
-99.999985
 20
88.962746
 30
0.0
 11
-99.999985
 21
87.462746
 31
0.0
  0
LINE
  5
1FE
330
1F
100
AcDbEntity
  8
0
 62
     7
370
    35
100
AcDbLine
 10
-93.499985
 20
87.462746
 30
0.0
 11
-99.999985
 21
87.462746
 31
0.0
  0
LINE
  5
1FF
330
1F
100
AcDbEntity
  8
0
 62
     7
370
    35
100
AcDbLine
 10
-93.499985
 20
88.962746
 30
0.0
 11
-93.499985
 21
87.462746
 31
0.0
  0
LINE
  5
200
330
1F
100
AcDbEntity
  8
0
 62
     7
370
    35
100
AcDbLine
 10
-99.999985
 20
87.462746
 30
0.0
 11
-99.999985
 21
84.712746
 31
0.0
  0
LINE
  5
201
330
1F
100
AcDbEntity
  8
0
 62
     7
370
    35
100
AcDbLine
 10
-93.499985
 20
84.712746
 30
0.0
 11
-99.999985
 21
84.712746
 31
0.0
  0
LINE
  5
202
330
1F
100
AcDbEntity
  8
0
 62
     7
370
    35
100
AcDbLine
 10
-93.499985
 20
87.462746
 30
0.0
 11
-93.499985
 21
84.712746
 31
0.0
  0
LINE
  5
203
330
1F
100
AcDbEntity
  8
0
 62
     7
370
    35
100
AcDbLine
 10
-93.499985
 20
84.712746
 30
0.0
 11
-93.499985
 21
80.312744
 31
0.0
  0
LINE
  5
204
330
1F
100
AcDbEntity
  8
0
 62
     7
370
    35
100
AcDbLine
 10
-99.999985
 20
84.712746
 30
0.0
 11
-99.999985
 21
80.312744
 31
0.0
  0
LINE
  5
205
330
1F
100
AcDbEntity
  8
0
 62
     7
370
    35
100
AcDbLine
 10
-99.999985
 20
78.012749
 30
0.0
 11
-99.999985
 21
80.312744
 31
0.0
  0
LINE
  5
206
330
1F
100
AcDbEntity
  8
0
 62
     7
370
    35
100
AcDbLine
 10
-93.499985
 20
78.012749
 30
0.0
 11
-99.999985
 21
78.012749
 31
0.0
  0
LINE
  5
207
330
1F
100
AcDbEntity
  8
0
 62
     7
370
    35
100
AcDbLine
 10
-93.499985
 20
78.012749
 30
0.0
 11
-93.499985
 21
80.312744
 31
0.0
  0
LINE
  5
208
330
1F
100
AcDbEntity
  8
0
 62
     7
370
    35
100
AcDbLine
 10
513.5
 20
98.41275
 30
0.0
 11
507.0
 21
98.41275
 31
0.0
  0
LINE
  5
209
330
1F
100
AcDbEntity
  8
0
 62
     7
370
    35
100
AcDbLine
 10
513.5
 20
98.41275
 30
0.0
 11
520.0
 21
98.41275
 31
0.0
  0
LINE
  5
20A
330
1F
100
AcDbEntity
  8
0
 62
     7
370
    35
100
AcDbLine
 10
513.5
 20
96.112747
 30
0.0
 11
513.5
 21
98.41275
 31
0.0
  0
LINE
  5
20B
330
1F
100
AcDbEntity
  8
0
 62
     7
370
    35
100
AcDbLine
 10
520.0
 20
96.112747
 30
0.0
 11
520.0
 21
98.41275
 31
0.0
  0
LINE
  5
20C
330
1F
100
AcDbEntity
  8
0
 62
     7
370
    35
100
AcDbLine
 10
513.5
 20
96.112747
 30
0.0
 11
513.5
 21
91.712746
 31
0.0
  0
LINE
  5
20D
330
1F
100
AcDbEntity
  8
0
 62
     7
370
    35
100
AcDbLine
 10
513.5
 20
91.712746
 30
0.0
 11
520.0
 21
91.712746
 31
0.0
  0
LINE
  5
20E
330
1F
100
AcDbEntity
  8
0
 62
     7
370
    35
100
AcDbLine
 10
520.0
 20
96.112747
 30
0.0
 11
520.0
 21
91.712746
 31
0.0
  0
LINE
  5
20F
330
1F
100
AcDbEntity
  8
0
 62
     7
370
    35
100
AcDbLine
 10
513.5
 20
91.712746
 30
0.0
 11
513.5
 21
88.962746
 31
0.0
  0
LINE
  5
210
330
1F
100
AcDbEntity
  8
0
 62
     7
370
    35
100
AcDbLine
 10
513.5
 20
88.962746
 30
0.0
 11
520.0
 21
88.962746
 31
0.0
  0
LINE
  5
211
330
1F
100
AcDbEntity
  8
0
 62
     7
370
    35
100
AcDbLine
 10
520.0
 20
91.712746
 30
0.0
 11
520.0
 21
88.962746
 31
0.0
  0
LINE
  5
212
330
1F
100
AcDbEntity
  8
0
 62
     7
370
    35
100
AcDbLine
 10
513.5
 20
88.962746
 30
0.0
 11
513.5
 21
87.462746
 31
0.0
  0
LINE
  5
213
330
1F
100
AcDbEntity
  8
0
 62
     7
370
    35
100
AcDbLine
 10
513.5
 20
87.462746
 30
0.0
 11
520.0
 21
87.462746
 31
0.0
  0
LINE
  5
214
330
1F
100
AcDbEntity
  8
0
 62
     7
370
    35
100
AcDbLine
 10
520.0
 20
88.962746
 30
0.0
 11
520.0
 21
87.462746
 31
0.0
  0
LINE
  5
215
330
1F
100
AcDbEntity
  8
0
 62
     7
370
    35
100
AcDbLine
 10
513.5
 20
87.462746
 30
0.0
 11
513.5
 21
84.712746
 31
0.0
  0
LINE
  5
216
330
1F
100
AcDbEntity
  8
0
 62
     7
370
    35
100
AcDbLine
 10
513.5
 20
84.712746
 30
0.0
 11
520.0
 21
84.712746
 31
0.0
  0
LINE
  5
217
330
1F
100
AcDbEntity
  8
0
 62
     7
370
    35
100
AcDbLine
 10
520.0
 20
87.462746
 30
0.0
 11
520.0
 21
84.712746
 31
0.0
  0
LINE
  5
218
330
1F
100
AcDbEntity
  8
0
 62
     7
370
    35
100
AcDbLine
 10
520.0
 20
84.712746
 30
0.0
 11
520.0
 21
80.312744
 31
0.0
  0
LINE
  5
219
330
1F
100
AcDbEntity
  8
0
 62
     7
370
    35
100
AcDbLine
 10
513.5
 20
84.712746
 30
0.0
 11
513.5
 21
80.312744
 31
0.0
  0
LINE
  5
21A
330
1F
100
AcDbEntity
  8
0
 62
     7
370
    35
100
AcDbLine
 10
513.5
 20
78.012749
 30
0.0
 11
513.5
 21
80.312744
 31
0.0
  0
LINE
  5
21B
330
1F
100
AcDbEntity
  8
0
 62
     7
370
    35
100
AcDbLine
 10
513.5
 20
78.012749
 30
0.0
 11
520.0
 21
78.012749
 31
0.0
  0
LINE
  5
21C
330
1F
100
AcDbEntity
  8
0
 62
     7
370
    35
100
AcDbLine
 10
520.0
 20
78.012749
 30
0.0
 11
520.0
 21
80.312744
 31
0.0
  0
LINE
  5
21D
330
1F
100
AcDbEntity
  8
0
 62
     7
370
    35
100
AcDbLine
 10
-93.499985
 20
89.944405
 30
0.0
 11
-58.999985
 21
89.944405
 31
0.0
  0
LINE
  5
21E
330
1F
100
AcDbEntity
  8
0
 62
     7
370
    35
100
AcDbLine
 10
40.000015
 20
89.944405
 30
0.0
 11
513.5
 21
89.944405
 31
0.0
  0
LINE
  5
21F
330
1F
100
AcDbEntity
  8
0
 62
     7
370
    35
100
AcDbLine
 10
513.5
 20
86.28109
 30
0.0
 11
-93.499985
 21
86.28109
 31
0.0
  0
LINE
  5
220
330
1F
100
AcDbEntity
  8
0
 62
     7
370
    35
100
AcDbLine
 10
-98.399986
 20
77.562744
 30
0.0
 11
-98.399986
 21
78.012741
 31
0.0
  0
LINE
  5
221
330
1F
100
AcDbEntity
  8
0
 62
     7
370
    35
100
AcDbLine
 10
-88.599983
 20
77.562744
 30
0.0
 11
-88.599983
 21
78.512741
 31
0.0
  0
LINE
  5
222
330
1F
100
AcDbEntity
  8
0
 62
     7
370
    35
100
AcDbLine
 10
-89.009796
 20
77.41275
 30
0.0
 11
-88.749985
 21
77.562744
 31
0.0
  0
LINE
  5
223
330
1F
100
AcDbEntity
  8
0
 62
     7
370
    35
100
AcDbLine
 10
-97.990173
 20
77.41275
 30
0.0
 11
-98.249985
 21
77.562744
 31
0.0
  0
LINE
  5
224
330
1F
100
AcDbEntity
  8
0
 62
     7
370
    35
100
AcDbLine
 10
508.599976
 20
77.562744
 30
0.0
 11
508.599976
 21
78.512741
 31
0.0
  0
LINE
  5
225
330
1F
100
AcDbEntity
  8
0
 62
     7
370
    35
100
AcDbLine
 10
518.400024
 20
77.562744
 30
0.0
 11
518.400024
 21
78.012741
 31
0.0
  0
LINE
  5
226
330
1F
100
AcDbEntity
  8
0
 62
     7
370
    35
100
AcDbLine
 10
517.990173
 20
77.41275
 30
0.0
 11
518.25
 21
77.562744
 31
0.0
  0
LINE
  5
227
330
1F
100
AcDbEntity
  8
0
 62
     7
370
    35
100
AcDbLine
 10
509.009827
 20
77.41275
 30
0.0
 11
508.75
 21
77.562744
 31
0.0
  0
LINE
  5
228
330
1F
100
AcDbEntity
  8
0
 62
     7
370
    35
100
AcDbLine
 10
-86.999985
 20
98.41275
 30
0.0
 11
-86.999985
 21
97.712738
 31
0.0
  0
LINE
  5
229
330
1F
100
AcDbEntity
  8
0
 62
     7
370
    35
100
AcDbLine
 10
507.0
 20
97.712738
 30
0.0
 11
507.0
 21
98.41275
 31
0.0
  0
ENDSEC
  0
SECTION
  2
OBJECTS
  0
DICTIONARY
  5
C
330
0
100
AcDbDictionary
281
     1
  3
ACAD_GROUP
350
D
  3
ACAD_LAYOUT
350
1A
  3
ACAD_MLINESTYLE
350
17
  3
ACAD_PLOTSETTINGS
350
19
  3
ACAD_PLOTSTYLENAME
350
E
  3
ACAD_SCALELIST
350
47
  0
DICTIONARY
  5
D
102
{ACAD_REACTORS
330
C
102
}
330
C
100
AcDbDictionary
281
     1
  0
DICTIONARY
  5
1A
102
{ACAD_REACTORS
330
C
102
}
330
C
100
AcDbDictionary
281
     1
  3
Layout1
350
1E
  3
Layout2
350
26
  3
Model
350
22
  0
DICTIONARY
  5
17
102
{ACAD_REACTORS
330
C
102
}
330
C
100
AcDbDictionary
281
     1
  3
Standard
350
18
  0
DICTIONARY
  5
19
102
{ACAD_REACTORS
330
C
102
}
330
C
100
AcDbDictionary
281
     1
  0
ACDBDICTIONARYWDFLT
  5
E
102
{ACAD_REACTORS
330
C
102
}
330
C
100
AcDbDictionary
281
     1
  3
Normal
350
F
100
AcDbDictionaryWithDefault
340
F
  0
DICTIONARY
  5
47
102
{ACAD_REACTORS
330
C
102
}
330
C
100
AcDbDictionary
281
     1
  3
A0
350
48
  3
A1
350
49
  3
A2
350
4A
  3
A3
350
4B
  3
A4
350
4C
  3
A5
350
4D
  3
A6
350
4E
  3
A7
350
4F
  3
A8
350
50
  3
A9
350
51
  3
B0
350
52
  3
B1
350
53
  3
B2
350
54
  3
B3
350
55
  3
B4
350
56
  3
B5
350
57
  3
B6
350
58
  3
B7
350
59
  3
B8
350
5A
  3
B9
350
5B
  3
C0
350
5C
  3
C1
350
5D
  3
C2
350
5E
  3
C3
350
5F
  3
C4
350
60
  3
C5
350
61
  3
C6
350
62
  3
C7
350
63
  3
C8
350
64
  3
C9
350
65
  3
D0
350
66
  3
D1
350
67
  3
D2
350
68
  0
LAYOUT
  5
1E
102
{ACAD_REACTORS
330
1A
102
}
330
1A
100
AcDbPlotSettings
  1

  2
none_device
  4

  6

 40
0.0
 41
0.0
 42
0.0
 43
0.0
 44
0.0
 45
0.0
 46
0.0
 47
0.0
 48
0.0
 49
0.0
140
0.0
141
0.0
142
1.0
143
1.0
 70
  4784
 72
     0
 73
     0
 74
     5
  7

 75
    16
147
1.0
148
0.0
149
0.0
100
AcDbLayout
  1
Layout1
 70
     1
 71
     1
 10
0.0
 20
0.0
 11
420.0
 21
297.0
 12
0.0
 22
0.0
 32
0.0
 14
0.0
 24
0.0
 34
0.0
 15
565.635498
 25
169.599991
 35
2.0
146
0.0
 13
0.0
 23
0.0
 33
0.0
 16
1.0
 26
0.0
 36
0.0
 17
0.0
 27
1.0
 37
0.0
 76
     0
330
1B
  0
LAYOUT
  5
26
102
{ACAD_REACTORS
330
1A
102
}
330
1A
100
AcDbPlotSettings
  1

  2
none_device
  4

  6

 40
0.0
 41
0.0
 42
0.0
 43
0.0
 44
0.0
 45
0.0
 46
0.0
 47
0.0
 48
0.0
 49
0.0
140
0.0
141
0.0
142
1.0
143
1.0
 70
  4784
 72
     0
 73
     0
 74
     5
  7

 75
    16
147
1.0
148
0.0
149
0.0
100
AcDbLayout
  1
Layout2
 70
     1
 71
     2
 10
0.0
 20
0.0
 11
0.0
 21
0.0
 12
0.0
 22
0.0
 32
0.0
 14
0.0
 24
0.0
 34
0.0
 15
0.0
 25
0.0
 35
0.0
146
0.0
 13
0.0
 23
0.0
 33
0.0
 16
1.0
 26
0.0
 36
0.0
 17
0.0
 27
1.0
 37
0.0
 76
     0
330
23
  0
LAYOUT
  5
22
102
{ACAD_REACTORS
330
1A
102
}
330
1A
100
AcDbPlotSettings
  1

  2
none_device
  4
Letter_(8.50_x_11.00_Inches)
  6

 40
6.35
 41
6.35
 42
6.350005
 43
6.350005
 44
215.9
 45
279.4
 46
0.0
 47
0.0
 48
0.0
 49
0.0
140
0.0
141
0.0
142
1.0
143
1.0
 70
  5808
 72
     0
 73
     0
 74
     0
  7

 75
     0
147
1.0
148
0.0
149
0.0
100
AcDbLayout
  1
Model
 70
     1
 71
     0
 10
0.0
 20
0.0
 11
420.0
 21
297.0
 12
0.0
 22
0.0
 32
0.0
 14
0.0
 24
0.0
 34
0.0
 15
565.635498
 25
169.599991
 35
2.0
146
0.0
 13
0.0
 23
0.0
 33
0.0
 16
1.0
 26
0.0
 36
0.0
 17
0.0
 27
1.0
 37
0.0
 76
     0
330
1F
331
29
  0
MLINESTYLE
  5
18
102
{ACAD_REACTORS
330
17
102
}
330
17
100
AcDbMlineStyle
  2
Standard
 70
     0
  3

 62
   256
 51
90.0
 52
90.0
 71
     2
 49
0.5
 62
   256
  6
BYLAYER
 49
-0.5
 62
   256
  6
BYLAYER
  0
ACDBPLACEHOLDER
  5
F
102
{ACAD_REACTORS
330
E
102
}
330
E
  0
SCALE
  5
48
102
{ACAD_REACTORS
330
47
102
}
330
47
100
AcDbScale
 70
     0
300
1:1
140
1.0
141
1.0
290
     1
  0
SCALE
  5
49
102
{ACAD_REACTORS
330
47
102
}
330
47
100
AcDbScale
 70
     0
300
1:2
140
1.0
141
2.0
290
     0
  0
SCALE
  5
4A
102
{ACAD_REACTORS
330
47
102
}
330
47
100
AcDbScale
 70
     0
300
1:4
140
1.0
141
4.0
290
     0
  0
SCALE
  5
4B
102
{ACAD_REACTORS
330
47
102
}
330
47
100
AcDbScale
 70
     0
300
1:5
140
1.0
141
5.0
290
     0
  0
SCALE
  5
4C
102
{ACAD_REACTORS
330
47
102
}
330
47
100
AcDbScale
 70
     0
300
1:8
140
1.0
141
8.0
290
     0
  0
SCALE
  5
4D
102
{ACAD_REACTORS
330
47
102
}
330
47
100
AcDbScale
 70
     0
300
1:10
140
1.0
141
10.0
290
     0
  0
SCALE
  5
4E
102
{ACAD_REACTORS
330
47
102
}
330
47
100
AcDbScale
 70
     0
300
1:16
140
1.0
141
16.0
290
     0
  0
SCALE
  5
4F
102
{ACAD_REACTORS
330
47
102
}
330
47
100
AcDbScale
 70
     0
300
1:20
140
1.0
141
20.0
290
     0
  0
SCALE
  5
50
102
{ACAD_REACTORS
330
47
102
}
330
47
100
AcDbScale
 70
     0
300
1:30
140
1.0
141
30.0
290
     0
  0
SCALE
  5
51
102
{ACAD_REACTORS
330
47
102
}
330
47
100
AcDbScale
 70
     0
300
1:40
140
1.0
141
40.0
290
     0
  0
SCALE
  5
52
102
{ACAD_REACTORS
330
47
102
}
330
47
100
AcDbScale
 70
     0
300
1:50
140
1.0
141
50.0
290
     0
  0
SCALE
  5
53
102
{ACAD_REACTORS
330
47
102
}
330
47
100
AcDbScale
 70
     0
300
1:100
140
1.0
141
100.0
290
     0
  0
SCALE
  5
54
102
{ACAD_REACTORS
330
47
102
}
330
47
100
AcDbScale
 70
     0
300
2:1
140
2.0
141
1.0
290
     0
  0
SCALE
  5
55
102
{ACAD_REACTORS
330
47
102
}
330
47
100
AcDbScale
 70
     0
300
4:1
140
4.0
141
1.0
290
     0
  0
SCALE
  5
56
102
{ACAD_REACTORS
330
47
102
}
330
47
100
AcDbScale
 70
     0
300
8:1
140
8.0
141
1.0
290
     0
  0
SCALE
  5
57
102
{ACAD_REACTORS
330
47
102
}
330
47
100
AcDbScale
 70
     0
300
10:1
140
10.0
141
1.0
290
     0
  0
SCALE
  5
58
102
{ACAD_REACTORS
330
47
102
}
330
47
100
AcDbScale
 70
     0
300
100:1
140
100.0
141
1.0
290
     0
  0
SCALE
  5
59
102
{ACAD_REACTORS
330
47
102
}
330
47
100
AcDbScale
 70
     0
300
1/128" = 1'-0"
140
0.007812
141
12.0
290
     0
  0
SCALE
  5
5A
102
{ACAD_REACTORS
330
47
102
}
330
47
100
AcDbScale
 70
     0
300
1/64" = 1'-0"
140
0.015625
141
12.0
290
     0
  0
SCALE
  5
5B
102
{ACAD_REACTORS
330
47
102
}
330
47
100
AcDbScale
 70
     0
300
1/32" = 1'-0"
140
0.03125
141
12.0
290
     0
  0
SCALE
  5
5C
102
{ACAD_REACTORS
330
47
102
}
330
47
100
AcDbScale
 70
     0
300
1/16" = 1'-0"
140
0.0625
141
12.0
290
     0
  0
SCALE
  5
5D
102
{ACAD_REACTORS
330
47
102
}
330
47
100
AcDbScale
 70
     0
300
3/32" = 1'-0"
140
0.09375
141
12.0
290
     0
  0
SCALE
  5
5E
102
{ACAD_REACTORS
330
47
102
}
330
47
100
AcDbScale
 70
     0
300
1/8" = 1'-0"
140
0.125
141
12.0
290
     0
  0
SCALE
  5
5F
102
{ACAD_REACTORS
330
47
102
}
330
47
100
AcDbScale
 70
     0
300
3/16" = 1'-0"
140
0.1875
141
12.0
290
     0
  0
SCALE
  5
60
102
{ACAD_REACTORS
330
47
102
}
330
47
100
AcDbScale
 70
     0
300
1/4" = 1'-0"
140
0.25
141
12.0
290
     0
  0
SCALE
  5
61
102
{ACAD_REACTORS
330
47
102
}
330
47
100
AcDbScale
 70
     0
300
3/8" = 1'-0"
140
0.375
141
12.0
290
     0
  0
SCALE
  5
62
102
{ACAD_REACTORS
330
47
102
}
330
47
100
AcDbScale
 70
     0
300
1/2" = 1'-0"
140
0.5
141
12.0
290
     0
  0
SCALE
  5
63
102
{ACAD_REACTORS
330
47
102
}
330
47
100
AcDbScale
 70
     0
300
3/4" = 1'-0"
140
0.75
141
12.0
290
     0
  0
SCALE
  5
64
102
{ACAD_REACTORS
330
47
102
}
330
47
100
AcDbScale
 70
     0
300
1" = 1'-0"
140
1.0
141
12.0
290
     0
  0
SCALE
  5
65
102
{ACAD_REACTORS
330
47
102
}
330
47
100
AcDbScale
 70
     0
300
1-1/2" = 1'-0"
140
1.5
141
12.0
290
     0
  0
SCALE
  5
66
102
{ACAD_REACTORS
330
47
102
}
330
47
100
AcDbScale
 70
     0
300
3" = 1'-0"
140
3.0
141
12.0
290
     0
  0
SCALE
  5
67
102
{ACAD_REACTORS
330
47
102
}
330
47
100
AcDbScale
 70
     0
300
6" = 1'-0"
140
6.0
141
12.0
290
     0
  0
SCALE
  5
68
102
{ACAD_REACTORS
330
47
102
}
330
47
100
AcDbScale
 70
     0
300
1'-0" = 1'-0"
140
12.0
141
12.0
290
     0
  0
ENDSEC
  0
EOF
