  0
SECTION
  2
HEADER
  9
$ACADVER
  1
AC1015
  9
$ACADMAINTVER
 70
     6
  9
$DWGCODEPAGE
  3
ANSI_1252
  9
$INSBASE
 10
0.0
 20
0.0
 30
0.0
  9
$EXTMIN
 10
0.0
 20
0.0
 30
0.0
  9
$EXTMAX
 10
390.685486
 20
235.981613
 30
2.0
  9
$LIMMIN
 10
0.0
 20
0.0
  9
$LIMMAX
 10
420.0
 20
297.0
  9
$ORTHOMODE
 70
     0
  9
$REGENMODE
 70
     1
  9
$FILLMODE
 70
     1
  9
$QTEXTMODE
 70
     0
  9
$MIRRTEXT
 70
     1
  9
$LTSCALE
 40
1.0
  9
$ATTMODE
 70
     1
  9
$TEXTSIZE
 40
2.5
  9
$TRACEWID
 40
1.0
  9
$TEXTSTYLE
  7
Standard
  9
$CLAYER
  8
0
  9
$CELTYPE
  6
ByLayer
  9
$CECOLOR
 62
   256
  9
$CELTSCALE
 40
1.0
  9
$DISPSILH
 70
     0
  9
$DIMSCALE
 40
1.0
  9
$DIMASZ
 40
2.5
  9
$DIMEXO
 40
0.625
  9
$DIMDLI
 40
3.75
  9
$DIMRND
 40
0.0
  9
$DIMDLE
 40
0.0
  9
$DIMEXE
 40
1.25
  9
$DIMTP
 40
0.0
  9
$DIMTM
 40
0.0
  9
$DIMTXT
 40
2.5
  9
$DIMCEN
 40
2.5
  9
$DIMTSZ
 40
0.0
  9
$DIMTOL
 70
     0
  9
$DIMLIM
 70
     0
  9
$DIMTIH
 70
     0
  9
$DIMTOH
 70
     0
  9
$DIMSE1
 70
     0
  9
$DIMSE2
 70
     0
  9
$DIMTAD
 70
     1
  9
$DIMZIN
 70
     8
  9
$DIMBLK
  1

  9
$DIMASO
 70
     1
  9
$DIMSHO
 70
     1
  9
$DIMPOST
  1

  9
$DIMAPOST
  1

  9
$DIMALT
 70
     0
  9
$DIMALTD
 70
     3
  9
$DIMALTF
 40
0.03937
  9
$DIMLFAC
 40
1.0
  9
$DIMTOFL
 70
     1
  9
$DIMTVP
 40
0.0
  9
$DIMTIX
 70
     0
  9
$DIMSOXD
 70
     0
  9
$DIMSAH
 70
     0
  9
$DIMBLK1
  1

  9
$DIMBLK2
  1

  9
$DIMSTYLE
  2

  9
$DIMCLRD
 70
     0
  9
$DIMCLRE
 70
     0
  9
$DIMCLRT
 70
     0
  9
$DIMTFAC
 40
1.0
  9
$DIMGAP
 40
0.625
  9
$DIMJUST
 70
     0
  9
$DIMSD1
 70
     0
  9
$DIMSD2
 70
     0
  9
$DIMTOLJ
 70
     0
  9
$DIMTZIN
 70
     8
  9
$DIMALTZ
 70
     0
  9
$DIMALTTZ
 70
     0
  9
$DIMUPT
 70
     0
  9
$DIMDEC
 70
     2
  9
$DIMTDEC
 70
     2
  9
$DIMALTU
 70
     2
  9
$DIMALTTD
 70
     3
  9
$DIMTXSTY
  7
Standard
  9
$DIMAUNIT
 70
     0
  9
$DIMADEC
 70
     0
  9
$DIMALTRND
 40
0.0
  9
$DIMAZIN
 70
     0
  9
$DIMDSEP
 70
    44
  9
$DIMATFIT
 70
     0
  9
$DIMFRAC
 70
     0
  9
$DIMLDRBLK
  1

  9
$DIMLUNIT
 70
     2
  9
$DIMLWD
 70
    -2
  9
$DIMLWE
 70
    -2
  9
$DIMTMOVE
 70
     0
  9
$LUNITS
 70
     2
  9
$LUPREC
 70
     4
  9
$SKETCHINC
 40
1.0
  9
$FILLETRAD
 40
2.5
  9
$AUNITS
 70
     0
  9
$AUPREC
 70
     0
  9
$MENU
  1
.
  9
$ELEVATION
 40
0.0
  9
$PELEVATION
 40
0.0
  9
$THICKNESS
 40
0.0
  9
$LIMCHECK
 70
     0
  9
$CHAMFERA
 40
2.5
  9
$CHAMFERB
 40
2.5
  9
$CHAMFERC
 40
0.0
  9
$CHAMFERD
 40
0.0
  9
$SKPOLY
 70
     0
  9
$TDCREATE
 40
0.000000000
  9
$TDUCREATE
 40
0.000000000
  9
$TDUPDATE
 40
0.000000000
  9
$TDUUPDATE
 40
0.000000000
  9
$TDINDWG
 40
0.0000000000
  9
$TDUSRTIMER
 40
0.0000000000
  9
$USRTIMER
 70
     1
  9
$ANGBASE
 50
0.0
  9
$ANGDIR
 70
     0
  9
$PDMODE
 70
     0
  9
$PDSIZE
 40
0.0
  9
$PLINEWID
 40
0.0
  9
$SPLFRAME
 70
     0
  9
$SPLINETYPE
 70
     6
  9
$SPLINESEGS
 70
     8
  9
$HANDSEED
  5
287
  9
$SURFTAB1
 70
     6
  9
$SURFTAB2
 70
     6
  9
$SURFTYPE
 70
     6
  9
$SURFU
 70
     6
  9
$SURFV
 70
     6
  9
$UCSBASE
  2

  9
$UCSNAME
  2

  9
$UCSORG
 10
0.0
 20
0.0
 30
0.0
  9
$UCSXDIR
 10
1.0
 20
0.0
 30
0.0
  9
$UCSYDIR
 10
0.0
 20
1.0
 30
0.0
  9
$UCSORTHOREF
  2

  9
$UCSORTHOVIEW
 70
     1
  9
$UCSORGTOP
 10
0.0
 20
0.0
 30
0.0
  9
$UCSORGBOTTOM
 10
0.0
 20
0.0
 30
0.0
  9
$UCSORGLEFT
 10
0.0
 20
0.0
 30
0.0
  9
$UCSORGRIGHT
 10
0.0
 20
0.0
 30
0.0
  9
$UCSORGFRONT
 10
0.0
 20
0.0
 30
0.0
  9
$UCSORGBACK
 10
0.0
 20
0.0
 30
0.0
  9
$PUCSBASE
  2

  9
$PUCSNAME
  2

  9
$PUCSORG
 10
0.0
 20
0.0
 30
0.0
  9
$PUCSXDIR
 10
1.0
 20
0.0
 30
0.0
  9
$PUCSYDIR
 10
0.0
 20
1.0
 30
0.0
  9
$PUCSORTHOREF
  2

  9
$PUCSORTHOVIEW
 70
     0
  9
$PUCSORGTOP
 10
0.0
 20
0.0
 30
0.0
  9
$PUCSORGBOTTOM
 10
0.0
 20
0.0
 30
0.0
  9
$PUCSORGLEFT
 10
0.0
 20
0.0
 30
0.0
  9
$PUCSORGRIGHT
 10
0.0
 20
0.0
 30
0.0
  9
$PUCSORGFRONT
 10
0.0
 20
0.0
 30
0.0
  9
$PUCSORGBACK
 10
0.0
 20
0.0
 30
0.0
  9
$USERI1
 70
     0
  9
$USERI2
 70
     0
  9
$USERI3
 70
     0
  9
$USERI4
 70
     0
  9
$USERI5
 70
     0
  9
$USERR1
 40
0.0
  9
$USERR2
 40
0.0
  9
$USERR3
 40
0.0
  9
$USERR4
 40
0.0
  9
$USERR5
 40
0.0
  9
$WORLDVIEW
 70
     1
  9
$SHADEDGE
 70
     3
  9
$SHADEDIF
 70
    70
  9
$TILEMODE
 70
     1
  9
$MAXACTVP
 70
    48
  9
$PINSBASE
 10
0.0
 20
0.0
 30
0.0
  9
$PLIMCHECK
 70
     0
  9
$PEXTMIN
 10
0.0
 20
0.0
 30
0.0
  9
$PEXTMAX
 10
390.685486
 20
235.981613
 30
2.0
  9
$PLIMMIN
 10
0.0
 20
0.0
  9
$PLIMMAX
 10
420.0
 20
297.0
  9
$UNITMODE
 70
     0
  9
$VISRETAIN
 70
     0
  9
$PLINEGEN
 70
     0
  9
$PSLTSCALE
 70
     1
  9
$TREEDEPTH
 70
  3020
  9
$CMLSTYLE
  2
Standard
  9
$CMLJUST
 70
     0
  9
$CMLSCALE
 40
20.0
  9
$PROXYGRAPHICS
 70
     1
  9
$MEASUREMENT
 70
     1
  9
$CELWEIGHT
370
    -1
  9
$ENDCAPS
280
     0
  9
$JOINSTYLE
280
     0
  9
$LWDISPLAY
290
     0
  9
$INSUNITS
 70
     0
  9
$HYPERLINKBASE
  1

  9
$STYLESHEET
  1

  9
$XEDIT
290
     1
  9
$CEPSNTYPE
380
     0
  9
$PSTYLEMODE
290
     0
  9
$FINGERPRINTGUID
  2

  9
$VERSIONGUID
  2

  9
$EXTNAMES
290
     0
  9
$PSVPSCALE
 40
0.0
  0
ENDSEC
  0
SECTION
  2
CLASSES
  0
CLASS
  1
LWPOLYLINE
  2
AcDbPolyline
  3
AutoCAD 2000
 90
        0
280
     0
281
     1
  0
CLASS
  1
IMAGE
  2
AcDbRasterImage
  3
ISM
 90
      127
280
     0
281
     1
  0
CLASS
  1
OLE2FRAME
  2
AcDbOle2Frame
  3
AutoCAD 2000
 90
        0
280
     0
281
     1
  0
CLASS
  1
HATCH
  2
AcDbHatch
  3
AutoCAD 2000
 90
        0
280
     0
281
     1
  0
CLASS
  1
DICTIONARYVAR
  2
AcDbDictionaryVar
  3
AutoCAD 2000
 90
        0
280
     0
281
     0
  0
CLASS
  1
RASTERVARIABLES
  2
AcDbRasterVariables
  3
ISM
 90
        0
280
     0
281
     0
  0
CLASS
  1
IMAGEDEF
  2
AcDbRasterImageDef
  3
ISM
 90
        0
280
     0
281
     0
  0
CLASS
  1
IMAGEDEF_REACTOR
  2
AcDbRasterImageDefReactor
  3
ISM
 90
        1
280
     0
281
     0
  0
CLASS
  1
IDBUFFER
  2
AcDbIdBuffer
  3
AutoCAD 2000
 90
        0
280
     0
281
     0
  0
CLASS
  1
SPATIAL_FILTER
  2
AcDbSpatialFilter
  3
AutoCAD 2000
 90
        0
280
     0
281
     0
  0
CLASS
  1
XRECORD
  2
AcDbXrecord
  3
AutoCAD 2000
 90
        0
280
     0
281
     0
  0
CLASS
  1
SORTENTSTABLE
  2
AcDbSortentsTable
  3
AutoCAD 2000
 90
        0
280
     0
281
     0
  0
CLASS
  1
LAYER_INDEX
  2
AcDbLayerIndex
  3
AutoCAD 2000
 90
        0
280
     0
281
     0
  0
CLASS
  1
SPATIAL_INDEX
  2
AcDbSpatialIndex
  3
AutoCAD 2000
 90
        0
280
     0
281
     0
  0
CLASS
  1
OBJECT_PTR
  2
CAseDLPNTableRecord
  3
"ASE-LPNTableRecord"
 90
        1
280
     0
281
     0
  0
CLASS
  1
LAYOUT
  2
AcDbLayout
  3
AutoCAD 2000
 90
        0
280
     0
281
     0
  0
CLASS
  1
PLOTSETTINGS
  2
AcDbPlotSettings
  3
AutoCAD 2000
 90
        0
280
     0
281
     0
  0
CLASS
  1
ACDBDICTIONARYWDFLT
  2
AcDbDictionaryWithDefault
  3
AutoCAD 2000
 90
        0
280
     0
281
     0
  0
CLASS
  1
ACDBPLACEHOLDER
  2
AcDbPlaceHolder
  3
AutoCAD 2000
 90
        0
280
     0
281
     0
  0
CLASS
  1
VBA_PROJECT
  2
AcDbVbaProject
  3
acadvba
 90
        0
280
     0
281
     0
  0
CLASS
  1
WIPEOUT
  2
AcDbWipeout
  3
WipeOut|AutoCAD Express Tool|expresstools@autodesk.com
 90
      127
280
     0
281
     1
  0
CLASS
  1
WIPEOUTVARIABLES
  2
AcDbWipeoutVariables
  3
WipeOut|AutoCAD Express Tool|expresstools@autodesk.com
 90
        0
280
     0
281
     0
  0
CLASS
  1
RTEXT
  2
RText
  3
RText|AutoCAD Express Tool|expresstools@autodesk.com
 90
        0
280
     0
281
     1
  0
CLASS
  1
ARCALIGNEDTEXT
  2
AcDbArcAlignedText
  3
ATEXT|AutoCAD Express Tool|expresstools@autodesk.com
 90
        0
280
     0
281
     1
  0
ENDSEC
  0
SECTION
  2
TABLES
  0
TABLE
  2
VPORT
  5
7
100
AcDbSymbolTable
 70
     1
  0
VPORT
  5
15
100
AcDbSymbolTableRecord
100
AcDbViewportTableRecord
  2
*ACTIVE
 70
     0
 10
0.0
 20
0.0
 11
1.0
 21
1.0
 12
6.591288
 22
4.579184
 13
0.0
 23
0.0
 14
1.0
 24
1.0
 15
0.0
 25
0.0
 16
0.0
 26
0.0
 36
1.0
 17
0.0
 27
0.0
 37
0.0
 40
9.158369
 41
0.688564
 42
50.0
 43
0.0
 44
0.0
 50
0.0
 51
0.0
 71
     0
 72
   100
 73
     1
 74
     1
 75
     0
 76
     0
 77
     0
 78
     0
281
     0
 65
     0
110
0.0
120
0.0
130
0.0
111
1.0
121
0.0
131
0.0
112
0.0
122
1.0
132
0.0
345
0
346
0
 79
     0
146
0.0
  0
ENDTAB
  0
TABLE
  2
LTYPE
  5
4
100
AcDbSymbolTable
 70
     3
  0
LTYPE
  5
11
100
AcDbSymbolTableRecord
100
AcDbLinetypeTableRecord
  2
ByBlock
 70
    64
  3

 72
    65
 73
     0
 40
0.0
  0
LTYPE
  5
12
100
AcDbSymbolTableRecord
100
AcDbLinetypeTableRecord
  2
ByLayer
 70
    64
  3

 72
    65
 73
     0
 40
0.0
  0
LTYPE
  5
13
100
AcDbSymbolTableRecord
100
AcDbLinetypeTableRecord
  2
Continuous
 70
    64
  3
Solid line
 72
    65
 73
     0
 40
0.0
  0
ENDTAB
  0
TABLE
  2
LAYER
  5
2
100
AcDbSymbolTable
 70
     1
  0
LAYER
  5
14
100
AcDbSymbolTableRecord
100
AcDbLayerTableRecord
  2
0
 70
     0
 62
     7
  6
Continuous
290
     1
370
    -3
390
1D
  0
ENDTAB
  0
TABLE
  2
STYLE
  5
3
100
AcDbSymbolTable
 70
     1
  0
STYLE
  5
17
100
AcDbSymbolTableRecord
100
AcDbTextStyleTableRecord
  2
Standard
 70
     0
 40
0.0
 41
1.0
 50
0.0
 71
     0
 42
0.0
  3
txt
  4

  0
ENDTAB
  0
TABLE
  2
VIEW
  5
5
100
AcDbSymbolTable
 70
     0
  0
ENDTAB
  0
TABLE
  2
UCS
  5
6
100
AcDbSymbolTable
 70
     0
  0
ENDTAB
  0
TABLE
  2
APPID
  5
8
100
AcDbSymbolTable
 70
     1
  0
APPID
  5
16
100
AcDbSymbolTableRecord
100
AcDbRegAppTableRecord
  2
ACAD
 70
     0
  0
ENDTAB
  0
TABLE
  2
DIMSTYLE
  5
9
100
AcDbSymbolTable
 70
     1
100
AcDbDimStyleTable
 71
     0
  0
DIMSTYLE
105
18
100
AcDbSymbolTableRecord
100
AcDbDimStyleTableRecord
  2
Standard
 70
     0
  3

  4

 40
1.0
 41
0.18
 42
0.0625
 43
0.38
 44
0.18
 45
0.0
 46
0.0
 47
0.0
 48
0.0
 71
     0
 72
     0
 73
     1
 74
     1
 75
     0
 76
     0
 77
     0
 78
     0
 79
     0
140
0.18
141
0.09
142
0.0
143
25.4
144
1.0
145
0.0
146
1.0
147
0.09
148
0.0
170
     0
171
     2
172
     0
173
     0
174
     0
175
     0
176
     0
177
     0
178
     0
179
     0
271
     4
272
     4
273
     2
274
     2
275
     0
276
     0
277
     2
278
    46
279
     0
280
     0
281
     0
282
     0
283
     1
284
     0
285
     0
286
     0
288
     0
289
     3
340
17
341
0
342
0
343
0
344
0
371
    -2
372
    -2
  0
ENDTAB
  0
TABLE
  2
BLOCK_RECORD
  5
1
100
AcDbSymbolTable
 70
     0
  0
BLOCK_RECORD
  5
A
100
AcDbSymbolTableRecord
100
AcDbBlockTableRecord
  2
*MODEL_SPACE
340
20
  0
BLOCK_RECORD
  5
B
100
AcDbSymbolTableRecord
100
AcDbBlockTableRecord
  2
*PAPER_SPACE
340
21
  0
ENDTAB
  0
ENDSEC
  0
SECTION
  2
BLOCKS
  0
BLOCK
  5
D
100
AcDbEntity
  8
0
390
0
100
AcDbBlockBegin
  2
*MODEL_SPACE
 70
     0
 10
0.0
 20
0.0
 30
0.0
  3
*MODEL_SPACE
  1

  0
ENDBLK
  5
E
100
AcDbEntity
  8
0
390
0
100
AcDbBlockEnd
  0
BLOCK
  5
F
100
AcDbEntity
 67
     1
  8
0
390
0
100
AcDbBlockBegin
  2
*PAPER_SPACE
 70
     0
 10
0.0
 20
0.0
 30
0.0
  3
*PAPER_SPACE
  1

  0
ENDBLK
  5
10
100
AcDbEntity
 67
     1
  8
0
390
0
100
AcDbBlockEnd
  0
ENDSEC
  0
SECTION
  2
ENTITIES
  0
VIEWPORT
  5
286
100
AcDbEntity
 67
     1
  8
0
370
     0
390
0
 62
     0
 48
0.0
100
AcDbViewport
 10
0.0
 20
0.0
 30
0.0
 40
1000.0
 41
1000.0
 68
     1
 69
     1
 12
0.0
 22
0.0
 13
0.0
 23
0.0
 14
1.0
 24
1.0
 15
1.0
 25
1.0
 16
0.0
 26
0.0
 36
1.0
 17
0.0
 27
0.0
 37
0.0
 42
50.0
 43
0.0
 44
0.0
 45
1000.0
 50
0.0
 51
0.0
 72
   100
 90
        0
340
0
  1

281
     0
 71
     0
 74
     1
110
0.0
120
0.0
130
0.0
111
1.0
121
0.0
131
0.0
112
0.0
122
1.0
132
0.0
345
0
346
0
 79
     0
146
0.0
  0
LINE
  5
24
100
AcDbEntity
  8
0
370
    35
390
0
 62
     7
100
AcDbLine
 10
201.834076
 20
181.133469
 30
0.0
 11
253.124786
 21
181.133469
 31
0.0
210
0.0
220
0.0
230
1.0
  0
LINE
  5
25
100
AcDbEntity
  8
0
370
    35
390
0
 62
     7
100
AcDbLine
 10
201.834076
 20
186.985519
 30
0.0
 11
253.150848
 21
186.985519
 31
0.0
210
0.0
220
0.0
230
1.0
  0
LINE
  5
26
100
AcDbEntity
  8
0
370
    35
390
0
 62
     7
 48
0.2
100
AcDbLine
 10
227.183075
 20
229.981613
 30
0.0
 11
227.183075
 21
221.981613
 31
0.0
210
0.0
220
0.0
230
1.0
  0
LINE
  5
27
100
AcDbEntity
  8
0
370
    35
390
0
 62
     7
 48
0.025
100
AcDbLine
 10
207.183075
 20
230.731613
 30
0.0
 11
208.183075
 21
230.731613
 31
0.0
210
0.0
220
0.0
230
1.0
  0
LINE
  5
28
100
AcDbEntity
  8
0
370
    35
390
0
 62
     7
 48
0.025
100
AcDbLine
 10
207.183075
 20
221.231613
 30
0.0
 11
208.183075
 21
221.231613
 31
0.0
210
0.0
220
0.0
230
1.0
  0
LINE
  5
29
100
AcDbEntity
  8
0
370
    35
390
0
 62
     7
 48
0.068804
100
AcDbLine
 10
208.18306
 20
230.731613
 30
0.0
 11
210.933075
 21
230.623032
 31
0.0
210
0.0
220
0.0
230
1.0
  0
LINE
  5
2A
100
AcDbEntity
  8
0
370
    35
390
0
 62
     7
 48
0.068804
100
AcDbLine
 10
208.183075
 20
221.231613
 30
0.0
 11
210.933075
 21
221.340134
 31
0.0
210
0.0
220
0.0
230
1.0
  0
LINE
  5
2B
100
AcDbEntity
  8
0
370
    35
390
0
 62
     7
100
AcDbLine
 10
227.183075
 20
223.081589
 30
0.0
 11
253.150848
 21
223.081589
 31
0.0
210
0.0
220
0.0
230
1.0
  0
LINE
  5
2C
100
AcDbEntity
  8
0
370
    35
390
0
 62
     7
100
AcDbLine
 10
227.183075
 20
228.881577
 30
0.0
 11
253.124786
 21
228.881577
 31
0.0
210
0.0
220
0.0
230
1.0
  0
LINE
  5
2D
100
AcDbEntity
  8
0
370
    35
390
0
 62
     7
100
AcDbLine
 10
141.781036
 20
186.985519
 30
0.0
 11
196.834076
 21
186.985519
 31
0.0
210
0.0
220
0.0
230
1.0
  0
LINE
  5
2E
100
AcDbEntity
  8
0
370
    35
390
0
 62
     7
 48
0.340865
100
AcDbLine
 10
327.550873
 20
143.081589
 30
0.0
 11
341.185486
 21
143.081589
 31
0.0
210
0.0
220
0.0
230
1.0
  0
LINE
  5
2F
100
AcDbEntity
  8
0
370
    35
390
0
 62
     7
100
AcDbLine
 10
141.755005
 20
181.133469
 30
0.0
 11
196.834076
 21
181.133469
 31
0.0
210
0.0
220
0.0
230
1.0
  0
LINE
  5
30
100
AcDbEntity
  8
0
370
    35
390
0
 62
     7
 48
0.199999
100
AcDbLine
 10
355.185486
 20
141.981613
 30
0.0
 11
355.185486
 21
149.981583
 31
0.0
210
0.0
220
0.0
230
1.0
  0
LINE
  5
31
100
AcDbEntity
  8
0
370
    35
390
0
 62
     7
 48
0.25
100
AcDbLine
 10
390.685486
 20
140.981613
 30
0.0
 11
390.685486
 21
150.981613
 31
0.0
210
0.0
220
0.0
230
1.0
  0
LINE
  5
32
100
AcDbEntity
  8
0
370
    35
390
0
 62
     7
 48
0.295
100
AcDbLine
 10
384.485474
 20
140.081619
 30
0.0
 11
384.485474
 21
151.881607
 31
0.0
210
0.0
220
0.0
230
1.0
  0
LINE
  5
33
100
AcDbEntity
  8
0
370
    35
390
0
 62
     7
 48
0.175
100
AcDbLine
 10
341.185486
 20
142.481613
 30
0.0
 11
341.185486
 21
149.481613
 31
0.0
210
0.0
220
0.0
230
1.0
  0
LINE
  5
34
100
AcDbEntity
  8
0
370
    35
390
0
 62
     7
 48
0.325
100
AcDbLine
 10
360.185486
 20
139.481613
 30
0.0
 11
360.185486
 21
152.481613
 31
0.0
210
0.0
220
0.0
230
1.0
  0
LINE
  5
35
100
AcDbEntity
  8
0
370
    35
390
0
 62
     7
 48
0.325
100
AcDbLine
 10
379.685486
 20
139.481613
 30
0.0
 11
379.685486
 21
152.481613
 31
0.0
210
0.0
220
0.0
230
1.0
  0
LINE
  5
36
100
AcDbEntity
  8
0
370
    35
390
0
 62
     7
 48
0.4875
100
AcDbLine
 10
379.685486
 20
139.481613
 30
0.0
 11
360.185486
 21
139.481613
 31
0.0
210
0.0
220
0.0
230
1.0
  0
LINE
  5
37
100
AcDbEntity
  8
0
370
    35
390
0
 62
     7
 48
0.4875
100
AcDbLine
 10
379.685486
 20
152.481613
 30
0.0
 11
360.185486
 21
152.481613
 31
0.0
210
0.0
220
0.0
230
1.0
  0
LINE
  5
38
100
AcDbEntity
  8
0
370
    35
390
0
 62
     7
 48
0.12
100
AcDbLine
 10
384.485474
 20
140.081619
 30
0.0
 11
379.685486
 21
140.081619
 31
0.0
210
0.0
220
0.0
230
1.0
  0
LINE
  5
39
100
AcDbEntity
  8
0
370
    35
390
0
 62
     7
 48
0.12
100
AcDbLine
 10
384.485474
 20
151.881607
 30
0.0
 11
379.685486
 21
151.881607
 31
0.0
210
0.0
220
0.0
230
1.0
  0
LINE
  5
3A
100
AcDbEntity
  8
0
370
    35
390
0
 62
     7
 48
0.155
100
AcDbLine
 10
390.685486
 20
140.981613
 30
0.0
 11
384.485474
 21
140.981613
 31
0.0
210
0.0
220
0.0
230
1.0
  0
LINE
  5
3B
100
AcDbEntity
  8
0
370
    35
390
0
 62
     7
 48
0.155
100
AcDbLine
 10
390.685486
 20
150.981613
 30
0.0
 11
384.485474
 21
150.981613
 31
0.0
210
0.0
220
0.0
230
1.0
  0
LINE
  5
3C
100
AcDbEntity
  8
0
370
    35
390
0
 62
     7
 48
0.350223
100
AcDbLine
 10
341.185516
 20
142.481583
 30
0.0
 11
355.185516
 21
141.981583
 31
0.0
210
0.0
220
0.0
230
1.0
  0
LINE
  5
3D
100
AcDbEntity
  8
0
370
    35
390
0
 62
     7
 48
0.13372
100
AcDbLine
 10
360.185516
 20
140.081589
 30
0.0
 11
355.185547
 21
141.981583
 31
0.0
210
0.0
220
0.0
230
1.0
  0
LINE
  5
3E
100
AcDbEntity
  8
0
370
    35
390
0
 62
     7
 48
0.350224
100
AcDbLine
 10
341.185455
 20
149.481583
 30
0.0
 11
355.185486
 21
149.981583
 31
0.0
210
0.0
220
0.0
230
1.0
  0
LINE
  5
3F
100
AcDbEntity
  8
0
370
    35
390
0
 62
     7
 48
0.13372
100
AcDbLine
 10
360.185516
 20
151.881516
 30
0.0
 11
355.185547
 21
149.981522
 31
0.0
210
0.0
220
0.0
230
1.0
  0
LINE
  5
40
100
AcDbEntity
  8
0
370
    35
390
0
 62
     7
 48
0.1625
100
AcDbLine
 10
376.485474
 20
142.731613
 30
0.0
 11
376.485474
 21
149.231613
 31
0.0
210
0.0
220
0.0
230
1.0
  0
LINE
  5
41
100
AcDbEntity
  8
0
370
    35
390
0
 62
     7
 48
0.1625
100
AcDbLine
 10
369.985474
 20
142.731613
 30
0.0
 11
369.985474
 21
149.231613
 31
0.0
210
0.0
220
0.0
230
1.0
  0
LINE
  5
42
100
AcDbEntity
  8
0
370
    35
390
0
 62
     7
 48
0.1625
100
AcDbLine
 10
376.485474
 20
142.731613
 30
0.0
 11
369.985474
 21
142.731613
 31
0.0
210
0.0
220
0.0
230
1.0
  0
LINE
  5
43
100
AcDbEntity
  8
0
370
    35
390
0
 62
     7
 48
0.1625
100
AcDbLine
 10
376.485474
 20
149.231613
 30
0.0
 11
369.985474
 21
149.231613
 31
0.0
210
0.0
220
0.0
230
1.0
  0
LINE
  5
44
100
AcDbEntity
  8
0
370
    35
390
0
 62
     7
 48
0.051653
100
AcDbLine
 10
354.148468
 20
147.981613
 30
0.0
 11
354.666992
 21
145.981613
 31
0.0
210
0.0
220
0.0
230
1.0
  0
LINE
  5
45
100
AcDbEntity
  8
0
370
    35
390
0
 62
     7
 48
0.050231
100
AcDbLine
 10
353.644165
 20
142.036667
 30
0.0
 11
354.148438
 21
143.981613
 31
0.0
210
0.0
220
0.0
230
1.0
  0
LINE
  5
46
100
AcDbEntity
  8
0
370
    35
390
0
 62
     7
 48
0.051653
100
AcDbLine
 10
354.148468
 20
143.981613
 30
0.0
 11
353.629913
 21
145.981613
 31
0.0
210
0.0
220
0.0
230
1.0
  0
LINE
  5
47
100
AcDbEntity
  8
0
370
    35
390
0
 62
     7
 48
0.051653
100
AcDbLine
 10
353.629913
 20
145.981613
 30
0.0
 11
353.11142
 21
143.981613
 31
0.0
210
0.0
220
0.0
230
1.0
  0
LINE
  5
48
100
AcDbEntity
  8
0
370
    35
390
0
 62
     7
 48
0.050204
100
AcDbLine
 10
353.111389
 20
143.981613
 30
0.0
 11
353.615326
 21
142.037704
 31
0.0
210
0.0
220
0.0
230
1.0
  0
LINE
  5
49
100
AcDbEntity
  8
0
370
    35
390
0
 62
     7
 48
0.051653
100
AcDbLine
 10
352.592987
 20
145.981613
 30
0.0
 11
353.111511
 21
147.981613
 31
0.0
210
0.0
220
0.0
230
1.0
  0
LINE
  5
4A
100
AcDbEntity
  8
0
370
    35
390
0
 62
     7
 48
0.049284
100
AcDbLine
 10
353.11142
 20
147.981613
 30
0.0
 11
352.616699
 21
149.889877
 31
0.0
210
0.0
220
0.0
230
1.0
  0
LINE
  5
4B
100
AcDbEntity
  8
0
370
    35
390
0
 62
     7
 48
0.049239
100
AcDbLine
 10
352.568695
 20
149.888138
 30
0.0
 11
352.074402
 21
147.981613
 31
0.0
210
0.0
220
0.0
230
1.0
  0
LINE
  5
4C
100
AcDbEntity
  8
0
370
    35
390
0
 62
     7
 48
0.051653
100
AcDbLine
 10
352.074371
 20
147.981613
 30
0.0
 11
352.592896
 21
145.981613
 31
0.0
210
0.0
220
0.0
230
1.0
  0
LINE
  5
4D
100
AcDbEntity
  8
0
370
    35
390
0
 62
     7
 48
0.048336
100
AcDbLine
 10
351.589233
 20
142.110062
 30
0.0
 11
352.074463
 21
143.981613
 31
0.0
210
0.0
220
0.0
230
1.0
  0
LINE
  5
4E
100
AcDbEntity
  8
0
370
    35
390
0
 62
     7
 48
0.051653
100
AcDbLine
 10
352.074402
 20
143.981613
 30
0.0
 11
351.555878
 21
145.981613
 31
0.0
210
0.0
220
0.0
230
1.0
  0
LINE
  5
4F
100
AcDbEntity
  8
0
370
    35
390
0
 62
     7
 48
0.051653
100
AcDbLine
 10
351.555878
 20
145.981613
 30
0.0
 11
351.037354
 21
143.981613
 31
0.0
210
0.0
220
0.0
230
1.0
  0
LINE
  5
50
100
AcDbEntity
  8
0
370
    35
390
0
 62
     7
 48
0.048273
100
AcDbLine
 10
351.037354
 20
143.981613
 30
0.0
 11
351.521942
 21
142.112473
 31
0.0
210
0.0
220
0.0
230
1.0
  0
LINE
  5
51
100
AcDbEntity
  8
0
370
    35
390
0
 62
     7
 48
0.051653
100
AcDbLine
 10
350.518799
 20
145.981613
 30
0.0
 11
351.037292
 21
147.981613
 31
0.0
210
0.0
220
0.0
230
1.0
  0
LINE
  5
52
100
AcDbEntity
  8
0
370
    35
390
0
 62
     7
 48
0.05117
100
AcDbLine
 10
354.66214
 20
149.962906
 30
0.0
 11
354.148468
 21
147.981613
 31
0.0
210
0.0
220
0.0
230
1.0
  0
LINE
  5
53
100
AcDbEntity
  8
0
370
    35
390
0
 62
     7
 48
0.051653
100
AcDbLine
 10
354.666962
 20
145.981613
 30
0.0
 11
355.185486
 21
147.981613
 31
0.0
210
0.0
220
0.0
230
1.0
  0
LINE
  5
54
100
AcDbEntity
  8
0
370
    35
390
0
 62
     7
 48
0.051179
100
AcDbLine
 10
355.185577
 20
147.981644
 30
0.0
 11
354.671783
 21
149.963272
 31
0.0
210
0.0
220
0.0
230
1.0
  0
LINE
  5
55
100
AcDbEntity
  8
0
370
    35
390
0
 62
     7
 48
0.047388
100
AcDbLine
 10
351.037354
 20
147.981613
 30
0.0
 11
350.561676
 21
149.816483
 31
0.0
210
0.0
220
0.0
230
1.0
  0
LINE
  5
56
100
AcDbEntity
  8
0
370
    35
390
0
 62
     7
 48
0.047309
100
AcDbLine
 10
350.47525
 20
149.8134
 30
0.0
 11
350.000336
 21
147.981613
 31
0.0
210
0.0
220
0.0
230
1.0
  0
LINE
  5
57
100
AcDbEntity
  8
0
370
    35
390
0
 62
     7
 48
0.051653
100
AcDbLine
 10
350.000366
 20
147.981613
 30
0.0
 11
350.51889
 21
145.981613
 31
0.0
210
0.0
220
0.0
230
1.0
  0
LINE
  5
58
100
AcDbEntity
  8
0
370
    35
390
0
 62
     7
 48
0.04644
100
AcDbLine
 10
349.534149
 20
142.183456
 30
0.0
 11
350.000366
 21
143.981613
 31
0.0
210
0.0
220
0.0
230
1.0
  0
LINE
  5
59
100
AcDbEntity
  8
0
370
    35
390
0
 62
     7
 48
0.051652
100
AcDbLine
 10
350.000336
 20
143.981644
 30
0.0
 11
349.481812
 21
145.981613
 31
0.0
210
0.0
220
0.0
230
1.0
  0
LINE
  5
5A
100
AcDbEntity
  8
0
370
    35
390
0
 62
     7
 48
0.051653
100
AcDbLine
 10
349.481812
 20
145.981613
 30
0.0
 11
348.963287
 21
143.981613
 31
0.0
210
0.0
220
0.0
230
1.0
  0
LINE
  5
5B
100
AcDbEntity
  8
0
370
    35
390
0
 62
     7
 48
0.046342
100
AcDbLine
 10
348.963257
 20
143.981583
 30
0.0
 11
349.428467
 21
142.18721
 31
0.0
210
0.0
220
0.0
230
1.0
  0
LINE
  5
5C
100
AcDbEntity
  8
0
370
    35
390
0
 62
     7
 48
0.051653
100
AcDbLine
 10
348.444763
 20
145.981583
 30
0.0
 11
348.963287
 21
147.981583
 31
0.0
210
0.0
220
0.0
230
1.0
  0
LINE
  5
5D
100
AcDbEntity
  8
0
370
    35
390
0
 62
     7
 48
0.045492
100
AcDbLine
 10
348.963287
 20
147.981644
 30
0.0
 11
348.506622
 21
149.743088
 31
0.0
210
0.0
220
0.0
230
1.0
  0
LINE
  5
5E
100
AcDbEntity
  8
0
370
    35
390
0
 62
     7
 48
0.045377
100
AcDbLine
 10
348.381714
 20
149.738602
 30
0.0
 11
347.926208
 21
147.981613
 31
0.0
210
0.0
220
0.0
230
1.0
  0
LINE
  5
5F
100
AcDbEntity
  8
0
370
    35
390
0
 62
     7
 48
0.051653
100
AcDbLine
 10
347.92627
 20
147.981613
 30
0.0
 11
348.444763
 21
145.981613
 31
0.0
210
0.0
220
0.0
230
1.0
  0
LINE
  5
60
100
AcDbEntity
  8
0
370
    35
390
0
 62
     7
 48
0.044545
100
AcDbLine
 10
347.479126
 20
142.256821
 30
0.0
 11
347.9263
 21
143.981613
 31
0.0
210
0.0
220
0.0
230
1.0
  0
LINE
  5
61
100
AcDbEntity
  8
0
370
    35
390
0
 62
     7
 48
0.301218
100
AcDbLine
 10
310.491364
 20
148.881577
 30
0.0
 11
322.5401
 21
148.881577
 31
0.0
210
0.0
220
0.0
230
1.0
  0
LINE
  5
62
100
AcDbEntity
  8
0
370
    35
390
0
 62
     7
 48
0.195
100
AcDbLine
 10
310.491364
 20
149.881577
 30
0.0
 11
310.491364
 21
142.081589
 31
0.0
210
0.0
220
0.0
230
1.0
  0
LINE
  5
63
100
AcDbEntity
  8
0
370
    35
390
0
 62
     7
 48
0.012506
100
AcDbLine
 10
300.541351
 20
142.268448
 30
0.0
 11
301.041351
 21
142.284195
 31
0.0
210
0.0
220
0.0
230
1.0
  0
LINE
  5
64
100
AcDbEntity
  8
0
370
    35
390
0
 62
     7
 48
0.012506
100
AcDbLine
 10
300.541351
 20
149.694717
 30
0.0
 11
301.041351
 21
149.67897
 31
0.0
210
0.0
220
0.0
230
1.0
  0
LINE
  5
65
100
AcDbEntity
  8
0
370
    35
390
0
 62
     7
 48
0.208307
100
AcDbLine
 10
302.041351
 20
150.14772
 30
0.0
 11
302.041351
 21
141.815445
 31
0.0
210
0.0
220
0.0
230
1.0
  0
LINE
  5
66
100
AcDbEntity
  8
0
370
    35
390
0
 62
     7
 48
0.209882
100
AcDbLine
 10
301.041351
 20
150.179214
 30
0.0
 11
301.041351
 21
141.783951
 31
0.0
210
0.0
220
0.0
230
1.0
  0
LINE
  5
67
100
AcDbEntity
  8
0
370
    35
390
0
 62
     7
 48
0.028764
100
AcDbLine
 10
299.391357
 20
141.731979
 30
0.0
 11
300.541351
 21
141.768204
 31
0.0
210
0.0
220
0.0
230
1.0
  0
LINE
  5
68
100
AcDbEntity
  8
0
370
    35
390
0
 62
     7
 48
0.210669
100
AcDbLine
 10
300.541351
 20
150.194962
 30
0.0
 11
300.541351
 21
141.768204
 31
0.0
210
0.0
220
0.0
230
1.0
  0
LINE
  5
69
100
AcDbEntity
  8
0
370
    35
390
0
 62
     7
 48
0.028764
100
AcDbLine
 10
299.391357
 20
150.231186
 30
0.0
 11
300.541351
 21
150.194962
 31
0.0
210
0.0
220
0.0
230
1.0
  0
LINE
  5
6A
100
AcDbEntity
  8
0
370
    35
390
0
 62
     7
 48
0.20752
100
AcDbLine
 10
302.541351
 20
150.131973
 30
0.0
 11
302.541351
 21
141.831192
 31
0.0
210
0.0
220
0.0
230
1.0
  0
LINE
  5
6B
100
AcDbEntity
  8
0
370
    35
390
0
 62
     7
 48
0.205157
100
AcDbLine
 10
304.041351
 20
150.084732
 30
0.0
 11
304.041351
 21
141.878433
 31
0.0
210
0.0
220
0.0
230
1.0
  0
LINE
  5
6C
100
AcDbEntity
  8
0
370
    35
390
0
 62
     7
 48
0.205945
100
AcDbLine
 10
303.541351
 20
150.100479
 30
0.0
 11
303.541351
 21
141.862686
 31
0.0
210
0.0
220
0.0
230
1.0
  0
LINE
  5
6D
100
AcDbEntity
  8
0
370
    35
390
0
 62
     7
100
AcDbLine
 10
187.291351
 20
143.081589
 30
0.0
 11
141.781036
 21
143.081589
 31
0.0
210
0.0
220
0.0
230
1.0
  0
LINE
  5
6E
100
AcDbEntity
  8
0
370
    35
390
0
 62
     7
 48
0.203583
100
AcDbLine
 10
305.041351
 20
150.053238
 30
0.0
 11
305.041351
 21
141.909927
 31
0.0
210
0.0
220
0.0
230
1.0
  0
LINE
  5
6F
100
AcDbEntity
  8
0
370
    35
390
0
 62
     7
 48
0.202795
100
AcDbLine
 10
305.541351
 20
150.037491
 30
0.0
 11
305.541351
 21
141.925674
 31
0.0
210
0.0
220
0.0
230
1.0
  0
LINE
  5
70
100
AcDbEntity
  8
0
370
    35
390
0
 62
     7
 48
0.200433
100
AcDbLine
 10
307.041351
 20
149.99025
 30
0.0
 11
307.041351
 21
141.972916
 31
0.0
210
0.0
220
0.0
230
1.0
  0
LINE
  5
71
100
AcDbEntity
  8
0
370
    35
390
0
 62
     7
 48
0.201221
100
AcDbLine
 10
306.541351
 20
150.005997
 30
0.0
 11
306.541351
 21
141.957169
 31
0.0
210
0.0
220
0.0
230
1.0
  0
LINE
  5
72
100
AcDbEntity
  8
0
370
    35
390
0
 62
     7
 48
0.086293
100
AcDbLine
 10
307.041351
 20
141.972916
 30
0.0
 11
310.491364
 21
142.081589
 31
0.0
210
0.0
220
0.0
230
1.0
  0
LINE
  5
73
100
AcDbEntity
  8
0
370
    35
390
0
 62
     7
 48
0.025012
100
AcDbLine
 10
305.541351
 20
141.925674
 30
0.0
 11
306.541351
 21
141.957169
 31
0.0
210
0.0
220
0.0
230
1.0
  0
LINE
  5
74
100
AcDbEntity
  8
0
370
    35
390
0
 62
     7
 48
0.025012
100
AcDbLine
 10
304.041351
 20
141.878433
 30
0.0
 11
305.041351
 21
141.909927
 31
0.0
210
0.0
220
0.0
230
1.0
  0
LINE
  5
75
100
AcDbEntity
  8
0
370
    35
390
0
 62
     7
 48
0.025012
100
AcDbLine
 10
302.541351
 20
141.831192
 30
0.0
 11
303.541351
 21
141.862686
 31
0.0
210
0.0
220
0.0
230
1.0
  0
LINE
  5
76
100
AcDbEntity
  8
0
370
    35
390
0
 62
     7
 48
0.025012
100
AcDbLine
 10
301.041351
 20
141.783951
 30
0.0
 11
302.041351
 21
141.815445
 31
0.0
210
0.0
220
0.0
230
1.0
  0
LINE
  5
77
100
AcDbEntity
  8
0
370
    35
390
0
 62
     7
 48
0.025012
100
AcDbLine
 10
301.041351
 20
150.179214
 30
0.0
 11
302.041351
 21
150.14772
 31
0.0
210
0.0
220
0.0
230
1.0
  0
LINE
  5
78
100
AcDbEntity
  8
0
370
    35
390
0
 62
     7
 48
0.025012
100
AcDbLine
 10
302.541351
 20
150.131973
 30
0.0
 11
303.541351
 21
150.100479
 31
0.0
210
0.0
220
0.0
230
1.0
  0
LINE
  5
79
100
AcDbEntity
  8
0
370
    35
390
0
 62
     7
 48
0.025012
100
AcDbLine
 10
304.041351
 20
150.084732
 30
0.0
 11
305.041351
 21
150.053238
 31
0.0
210
0.0
220
0.0
230
1.0
  0
LINE
  5
7A
100
AcDbEntity
  8
0
370
    35
390
0
 62
     7
 48
0.025012
100
AcDbLine
 10
305.541351
 20
150.037491
 30
0.0
 11
306.541351
 21
150.005997
 31
0.0
210
0.0
220
0.0
230
1.0
  0
LINE
  5
7B
100
AcDbEntity
  8
0
370
    35
390
0
 62
     7
 48
0.086293
100
AcDbLine
 10
307.041351
 20
149.99025
 30
0.0
 11
310.491364
 21
149.881577
 31
0.0
210
0.0
220
0.0
230
1.0
  0
LINE
  5
7C
100
AcDbEntity
  8
0
370
    35
390
0
 62
     7
 48
0.051653
100
AcDbLine
 10
347.926208
 20
143.981613
 30
0.0
 11
347.407684
 21
145.981613
 31
0.0
210
0.0
220
0.0
230
1.0
  0
LINE
  5
7D
100
AcDbEntity
  8
0
370
    35
390
0
 62
     7
 48
0.051653
100
AcDbLine
 10
347.407745
 20
145.981613
 30
0.0
 11
346.889221
 21
143.981613
 31
0.0
210
0.0
220
0.0
230
1.0
  0
LINE
  5
7E
100
AcDbEntity
  8
0
370
    35
390
0
 62
     7
 48
0.044411
100
AcDbLine
 10
346.889191
 20
143.981613
 30
0.0
 11
347.335022
 21
142.262009
 31
0.0
210
0.0
220
0.0
230
1.0
  0
LINE
  5
7F
100
AcDbEntity
  8
0
370
    35
390
0
 62
     7
 48
0.051653
100
AcDbLine
 10
346.370697
 20
145.981613
 30
0.0
 11
346.889252
 21
147.981613
 31
0.0
210
0.0
220
0.0
230
1.0
  0
LINE
  5
80
100
AcDbEntity
  8
0
370
    35
390
0
 62
     7
 48
0.043597
100
AcDbLine
 10
346.88916
 20
147.981613
 30
0.0
 11
346.451508
 21
149.669662
 31
0.0
210
0.0
220
0.0
230
1.0
  0
LINE
  5
81
100
AcDbEntity
  8
0
370
    35
390
0
 62
     7
 48
0.043447
100
AcDbLine
 10
346.2883
 20
149.663864
 30
0.0
 11
345.852173
 21
147.981613
 31
0.0
210
0.0
220
0.0
230
1.0
  0
LINE
  5
82
100
AcDbEntity
  8
0
370
    35
390
0
 62
     7
 48
0.051653
100
AcDbLine
 10
345.852142
 20
147.981613
 30
0.0
 11
346.370667
 21
145.981613
 31
0.0
210
0.0
220
0.0
230
1.0
  0
LINE
  5
83
100
AcDbEntity
  8
0
370
    35
390
0
 62
     7
 48
0.042649
100
AcDbLine
 10
345.424011
 20
142.330246
 30
0.0
 11
345.852142
 21
143.981613
 31
0.0
210
0.0
220
0.0
230
1.0
  0
LINE
  5
84
100
AcDbEntity
  8
0
370
    35
390
0
 62
     7
 48
0.051653
100
AcDbLine
 10
345.852112
 20
143.981613
 30
0.0
 11
345.333618
 21
145.981613
 31
0.0
210
0.0
220
0.0
230
1.0
  0
LINE
  5
85
100
AcDbEntity
  8
0
370
    35
390
0
 62
     7
 48
0.051653
100
AcDbLine
 10
345.333649
 20
145.981613
 30
0.0
 11
344.815125
 21
143.981613
 31
0.0
210
0.0
220
0.0
230
1.0
  0
LINE
  5
86
100
AcDbEntity
  8
0
370
    35
390
0
 62
     7
 48
0.042481
100
AcDbLine
 10
344.815155
 20
143.981613
 30
0.0
 11
345.241608
 21
142.336777
 31
0.0
210
0.0
220
0.0
230
1.0
  0
LINE
  5
87
100
AcDbEntity
  8
0
370
    35
390
0
 62
     7
 48
0.051653
100
AcDbLine
 10
344.2966
 20
145.981613
 30
0.0
 11
344.815125
 21
147.981613
 31
0.0
210
0.0
220
0.0
230
1.0
  0
LINE
  5
88
100
AcDbEntity
  8
0
370
    35
390
0
 62
     7
 48
0.041702
100
AcDbLine
 10
344.815155
 20
147.981613
 30
0.0
 11
344.396545
 21
149.596298
 31
0.0
210
0.0
220
0.0
230
1.0
  0
LINE
  5
89
100
AcDbEntity
  8
0
370
    35
390
0
 62
     7
 48
0.041516
100
AcDbLine
 10
344.194824
 20
149.589096
 30
0.0
 11
343.778076
 21
147.981613
 31
0.0
210
0.0
220
0.0
230
1.0
  0
LINE
  5
8A
100
AcDbEntity
  8
0
370
    35
390
0
 62
     7
 48
0.051653
100
AcDbLine
 10
343.778107
 20
147.981613
 30
0.0
 11
344.296631
 21
145.981613
 31
0.0
210
0.0
220
0.0
230
1.0
  0
LINE
  5
8B
100
AcDbEntity
  8
0
370
    35
390
0
 62
     7
 48
0.040754
100
AcDbLine
 10
343.368988
 20
142.40361
 30
0.0
 11
343.778076
 21
143.981613
 31
0.0
210
0.0
220
0.0
230
1.0
  0
LINE
  5
8C
100
AcDbEntity
  8
0
370
    35
390
0
 62
     7
 48
0.051653
100
AcDbLine
 10
343.778107
 20
143.981613
 30
0.0
 11
343.259583
 21
145.981613
 31
0.0
210
0.0
220
0.0
230
1.0
  0
LINE
  5
8D
100
AcDbEntity
  8
0
370
    35
390
0
 62
     7
 48
0.051653
100
AcDbLine
 10
343.259552
 20
145.981613
 30
0.0
 11
342.741058
 21
143.981613
 31
0.0
210
0.0
220
0.0
230
1.0
  0
LINE
  5
8E
100
AcDbEntity
  8
0
370
    35
390
0
 62
     7
 48
0.04055
100
AcDbLine
 10
342.740997
 20
143.981613
 30
0.0
 11
343.148041
 21
142.411514
 31
0.0
210
0.0
220
0.0
230
1.0
  0
LINE
  5
8F
100
AcDbEntity
  8
0
370
    35
390
0
 62
     7
 48
0.051652
100
AcDbLine
 10
342.222565
 20
145.981613
 30
0.0
 11
342.741089
 21
147.981583
 31
0.0
210
0.0
220
0.0
230
1.0
  0
LINE
  5
90
100
AcDbEntity
  8
0
370
    35
390
0
 62
     7
 48
0.039806
100
AcDbLine
 10
342.741089
 20
147.981613
 30
0.0
 11
342.341492
 21
149.522903
 31
0.0
210
0.0
220
0.0
230
1.0
  0
LINE
  5
91
100
AcDbEntity
  8
0
370
    35
390
0
 62
     7
 48
0.039585
100
AcDbLine
 10
342.10141
 20
149.514328
 30
0.0
 11
341.704041
 21
147.981613
 31
0.0
210
0.0
220
0.0
230
1.0
  0
LINE
  5
92
100
AcDbEntity
  8
0
370
    35
390
0
 62
     7
 48
0.051652
100
AcDbLine
 10
341.704071
 20
147.981613
 30
0.0
 11
342.222565
 21
145.981644
 31
0.0
210
0.0
220
0.0
230
1.0
  0
LINE
  5
93
100
AcDbEntity
  8
0
370
    35
390
0
 62
     7
 48
0.1625
100
AcDbLine
 10
364.485474
 20
142.731613
 30
0.0
 11
364.485474
 21
149.231613
 31
0.0
210
0.0
220
0.0
230
1.0
  0
LINE
  5
94
100
AcDbEntity
  8
0
370
    35
390
0
 62
     7
 48
0.1625
100
AcDbLine
 10
365.985474
 20
142.731613
 30
0.0
 11
365.985474
 21
149.231613
 31
0.0
210
0.0
220
0.0
230
1.0
  0
LINE
  5
95
100
AcDbEntity
  8
0
370
    35
390
0
 62
     7
 48
0.1625
100
AcDbLine
 10
366.485474
 20
142.731613
 30
0.0
 11
366.485474
 21
149.231613
 31
0.0
210
0.0
220
0.0
230
1.0
  0
LINE
  5
96
100
AcDbEntity
  8
0
370
    35
390
0
 62
     7
 48
0.1625
100
AcDbLine
 10
367.985474
 20
142.731613
 30
0.0
 11
367.985474
 21
149.231613
 31
0.0
210
0.0
220
0.0
230
1.0
  0
LINE
  5
97
100
AcDbEntity
  8
0
370
    35
390
0
 62
     7
 48
0.1625
100
AcDbLine
 10
368.485474
 20
142.731613
 30
0.0
 11
368.485474
 21
149.231613
 31
0.0
210
0.0
220
0.0
230
1.0
  0
LINE
  5
98
100
AcDbEntity
  8
0
370
    35
390
0
 62
     7
 48
0.1625
100
AcDbLine
 10
363.985474
 20
142.731613
 30
0.0
 11
363.985474
 21
149.231613
 31
0.0
210
0.0
220
0.0
230
1.0
  0
LINE
  5
99
100
AcDbEntity
  8
0
370
    35
390
0
 62
     7
 48
0.0125
100
AcDbLine
 10
368.485474
 20
142.731613
 30
0.0
 11
367.985474
 21
142.731613
 31
0.0
210
0.0
220
0.0
230
1.0
  0
LINE
  5
9A
100
AcDbEntity
  8
0
370
    35
390
0
 62
     7
 48
0.0125
100
AcDbLine
 10
368.485474
 20
149.231613
 30
0.0
 11
367.985474
 21
149.231613
 31
0.0
210
0.0
220
0.0
230
1.0
  0
LINE
  5
9B
100
AcDbEntity
  8
0
370
    35
390
0
 62
     7
 48
0.0125
100
AcDbLine
 10
366.485474
 20
142.731613
 30
0.0
 11
365.985474
 21
142.731613
 31
0.0
210
0.0
220
0.0
230
1.0
  0
LINE
  5
9C
100
AcDbEntity
  8
0
370
    35
390
0
 62
     7
 48
0.0125
100
AcDbLine
 10
366.485474
 20
149.231613
 30
0.0
 11
365.985474
 21
149.231613
 31
0.0
210
0.0
220
0.0
230
1.0
  0
LINE
  5
9D
100
AcDbEntity
  8
0
370
    35
390
0
 62
     7
 48
0.0125
100
AcDbLine
 10
364.485474
 20
142.731613
 30
0.0
 11
363.985474
 21
142.731613
 31
0.0
210
0.0
220
0.0
230
1.0
  0
LINE
  5
9E
100
AcDbEntity
  8
0
370
    35
390
0
 62
     7
 48
0.0125
100
AcDbLine
 10
364.485474
 20
149.231613
 30
0.0
 11
363.985474
 21
149.231613
 31
0.0
210
0.0
220
0.0
230
1.0
  0
LINE
  5
9F
100
AcDbEntity
  8
0
370
    35
390
0
 62
     7
 48
0.084085
100
AcDbLine
 10
375.485504
 20
145.981613
 30
0.0
 11
372.985504
 21
148.231613
 31
0.0
210
0.0
220
0.0
230
1.0
  0
LINE
  5
A0
100
AcDbEntity
  8
0
370
    35
390
0
 62
     7
 48
0.05
100
AcDbLine
 10
370.985474
 20
144.981613
 30
0.0
 11
370.985474
 21
146.981613
 31
0.0
210
0.0
220
0.0
230
1.0
  0
LINE
  5
A1
100
AcDbEntity
  8
0
370
    35
390
0
 62
     7
 48
0.084085
100
AcDbLine
 10
372.985565
 20
143.731522
 30
0.0
 11
375.485565
 21
145.981522
 31
0.0
210
0.0
220
0.0
230
1.0
  0
LINE
  5
A2
100
AcDbEntity
  8
0
370
    35
390
0
 62
     7
 48
0.03125
100
AcDbLine
 10
372.985474
 20
146.981613
 30
0.0
 11
372.985474
 21
148.231613
 31
0.0
210
0.0
220
0.0
230
1.0
  0
LINE
  5
A3
100
AcDbEntity
  8
0
370
    35
390
0
 62
     7
 48
0.05
100
AcDbLine
 10
372.985474
 20
144.981613
 30
0.0
 11
370.985474
 21
144.981613
 31
0.0
210
0.0
220
0.0
230
1.0
  0
LINE
  5
A4
100
AcDbEntity
  8
0
370
    35
390
0
 62
     7
 48
0.05
100
AcDbLine
 10
372.985474
 20
146.981613
 30
0.0
 11
370.985474
 21
146.981613
 31
0.0
210
0.0
220
0.0
230
1.0
  0
LINE
  5
A5
100
AcDbEntity
  8
0
370
    35
390
0
 62
     7
 48
0.03125
100
AcDbLine
 10
372.985474
 20
143.731613
 30
0.0
 11
372.985474
 21
144.981613
 31
0.0
210
0.0
220
0.0
230
1.0
  0
LINE
  5
A6
100
AcDbEntity
  8
0
370
    35
390
0
 62
     7
 48
0.012506
100
AcDbLine
 10
195.741348
 20
149.647476
 30
0.0
 11
195.241348
 21
149.631729
 31
0.0
210
0.0
220
0.0
230
1.0
  0
LINE
  5
A7
100
AcDbEntity
  8
0
370
    35
390
0
 62
     7
 48
0.012506
100
AcDbLine
 10
194.241348
 20
149.600235
 30
0.0
 11
193.741348
 21
149.584488
 31
0.0
210
0.0
220
0.0
230
1.0
  0
LINE
  5
A8
100
AcDbEntity
  8
0
370
    35
390
0
 62
     7
 48
0.012506
100
AcDbLine
 10
192.741348
 20
149.552994
 30
0.0
 11
192.241348
 21
149.537247
 31
0.0
210
0.0
220
0.0
230
1.0
  0
LINE
  5
A9
100
AcDbEntity
  8
0
370
    35
390
0
 62
     7
 48
0.012506
100
AcDbLine
 10
191.241348
 20
149.505753
 30
0.0
 11
190.741348
 21
149.490005
 31
0.0
210
0.0
220
0.0
230
1.0
  0
LINE
  5
AA
100
AcDbEntity
  8
0
370
    35
390
0
 62
     7
 48
0.012506
100
AcDbLine
 10
195.741348
 20
142.315689
 30
0.0
 11
195.241348
 21
142.331436
 31
0.0
210
0.0
220
0.0
230
1.0
  0
LINE
  5
AB
100
AcDbEntity
  8
0
370
    35
390
0
 62
     7
 48
0.012506
100
AcDbLine
 10
194.241348
 20
142.36293
 30
0.0
 11
193.741348
 21
142.378677
 31
0.0
210
0.0
220
0.0
230
1.0
  0
LINE
  5
AC
100
AcDbEntity
  8
0
370
    35
390
0
 62
     7
 48
0.012506
100
AcDbLine
 10
192.741348
 20
142.410172
 30
0.0
 11
192.241348
 21
142.425919
 31
0.0
210
0.0
220
0.0
230
1.0
  0
LINE
  5
AD
100
AcDbEntity
  8
0
370
    35
390
0
 62
     7
 48
0.012506
100
AcDbLine
 10
191.241348
 20
142.457413
 30
0.0
 11
190.741348
 21
142.47316
 31
0.0
210
0.0
220
0.0
230
1.0
  0
LINE
  5
AE
100
AcDbEntity
  8
0
370
    35
390
0
 62
     7
 48
0.086293
100
AcDbLine
 10
190.741348
 20
149.99025
 30
0.0
 11
187.291351
 21
149.881577
 31
0.0
210
0.0
220
0.0
230
1.0
  0
LINE
  5
AF
100
AcDbEntity
  8
0
370
    35
390
0
 62
     7
 48
0.025012
100
AcDbLine
 10
192.241348
 20
150.037491
 30
0.0
 11
191.241348
 21
150.005997
 31
0.0
210
0.0
220
0.0
230
1.0
  0
LINE
  5
B0
100
AcDbEntity
  8
0
370
    35
390
0
 62
     7
 48
0.025012
100
AcDbLine
 10
193.741348
 20
150.084732
 30
0.0
 11
192.741348
 21
150.053238
 31
0.0
210
0.0
220
0.0
230
1.0
  0
LINE
  5
B1
100
AcDbEntity
  8
0
370
    35
390
0
 62
     7
 48
0.025012
100
AcDbLine
 10
195.241348
 20
150.131973
 30
0.0
 11
194.241348
 21
150.100479
 31
0.0
210
0.0
220
0.0
230
1.0
  0
LINE
  5
B2
100
AcDbEntity
  8
0
370
    35
390
0
 62
     7
 48
0.025012
100
AcDbLine
 10
196.741348
 20
150.179214
 30
0.0
 11
195.741348
 21
150.14772
 31
0.0
210
0.0
220
0.0
230
1.0
  0
LINE
  5
B3
100
AcDbEntity
  8
0
370
    35
390
0
 62
     7
 48
0.025012
100
AcDbLine
 10
196.741348
 20
141.783951
 30
0.0
 11
195.741348
 21
141.815445
 31
0.0
210
0.0
220
0.0
230
1.0
  0
LINE
  5
B4
100
AcDbEntity
  8
0
370
    35
390
0
 62
     7
 48
0.025012
100
AcDbLine
 10
195.241348
 20
141.831192
 30
0.0
 11
194.241348
 21
141.862686
 31
0.0
210
0.0
220
0.0
230
1.0
  0
LINE
  5
B5
100
AcDbEntity
  8
0
370
    35
390
0
 62
     7
 48
0.025012
100
AcDbLine
 10
193.741348
 20
141.878433
 30
0.0
 11
192.741348
 21
141.909927
 31
0.0
210
0.0
220
0.0
230
1.0
  0
LINE
  5
B6
100
AcDbEntity
  8
0
370
    35
390
0
 62
     7
 48
0.025012
100
AcDbLine
 10
192.241348
 20
141.925674
 30
0.0
 11
191.241348
 21
141.957169
 31
0.0
210
0.0
220
0.0
230
1.0
  0
LINE
  5
B7
100
AcDbEntity
  8
0
370
    35
390
0
 62
     7
 48
0.086293
100
AcDbLine
 10
190.741348
 20
141.972916
 30
0.0
 11
187.291351
 21
142.081589
 31
0.0
210
0.0
220
0.0
230
1.0
  0
LINE
  5
B8
100
AcDbEntity
  8
0
370
    35
390
0
 62
     7
 48
0.201221
100
AcDbLine
 10
191.241348
 20
150.005997
 30
0.0
 11
191.241348
 21
141.957169
 31
0.0
210
0.0
220
0.0
230
1.0
  0
LINE
  5
B9
100
AcDbEntity
  8
0
370
    35
390
0
 62
     7
 48
0.200433
100
AcDbLine
 10
190.741348
 20
149.99025
 30
0.0
 11
190.741348
 21
141.972916
 31
0.0
210
0.0
220
0.0
230
1.0
  0
LINE
  5
BA
100
AcDbEntity
  8
0
370
    35
390
0
 62
     7
 48
0.202795
100
AcDbLine
 10
192.241348
 20
150.037491
 30
0.0
 11
192.241348
 21
141.925674
 31
0.0
210
0.0
220
0.0
230
1.0
  0
LINE
  5
BB
100
AcDbEntity
  8
0
370
    35
390
0
 62
     7
 48
0.203583
100
AcDbLine
 10
192.741348
 20
150.053238
 30
0.0
 11
192.741348
 21
141.909927
 31
0.0
210
0.0
220
0.0
230
1.0
  0
LINE
  5
BC
100
AcDbEntity
  8
0
370
    35
390
0
 62
     7
 48
0.205945
100
AcDbLine
 10
194.241348
 20
150.100479
 30
0.0
 11
194.241348
 21
141.862686
 31
0.0
210
0.0
220
0.0
230
1.0
  0
LINE
  5
BD
100
AcDbEntity
  8
0
370
    35
390
0
 62
     7
 48
0.205157
100
AcDbLine
 10
193.741348
 20
150.084732
 30
0.0
 11
193.741348
 21
141.878433
 31
0.0
210
0.0
220
0.0
230
1.0
  0
LINE
  5
BE
100
AcDbEntity
  8
0
370
    35
390
0
 62
     7
 48
0.20752
100
AcDbLine
 10
195.241348
 20
150.131973
 30
0.0
 11
195.241348
 21
141.831192
 31
0.0
210
0.0
220
0.0
230
1.0
  0
LINE
  5
BF
100
AcDbEntity
  8
0
370
    35
390
0
 62
     7
 48
0.028764
100
AcDbLine
 10
198.391357
 20
150.231186
 30
0.0
 11
197.241348
 21
150.194962
 31
0.0
210
0.0
220
0.0
230
1.0
  0
LINE
  5
C0
100
AcDbEntity
  8
0
370
    35
390
0
 62
     7
 48
0.210669
100
AcDbLine
 10
197.241348
 20
150.194962
 30
0.0
 11
197.241348
 21
141.768204
 31
0.0
210
0.0
220
0.0
230
1.0
  0
LINE
  5
C1
100
AcDbEntity
  8
0
370
    35
390
0
 62
     7
 48
0.028764
100
AcDbLine
 10
198.391357
 20
141.731979
 30
0.0
 11
197.241348
 21
141.768204
 31
0.0
210
0.0
220
0.0
230
1.0
  0
LINE
  5
C2
100
AcDbEntity
  8
0
370
    35
390
0
 62
     7
 48
0.209882
100
AcDbLine
 10
196.741348
 20
150.179214
 30
0.0
 11
196.741348
 21
141.783951
 31
0.0
210
0.0
220
0.0
230
1.0
  0
LINE
  5
C3
100
AcDbEntity
  8
0
370
    35
390
0
 62
     7
 48
0.208307
100
AcDbLine
 10
195.741348
 20
150.14772
 30
0.0
 11
195.741348
 21
141.815445
 31
0.0
210
0.0
220
0.0
230
1.0
  0
LINE
  5
C4
100
AcDbEntity
  8
0
370
    35
390
0
 62
     7
 48
0.012506
100
AcDbLine
 10
306.541351
 20
142.457413
 30
0.0
 11
307.041351
 21
142.47316
 31
0.0
210
0.0
220
0.0
230
1.0
  0
LINE
  5
C5
100
AcDbEntity
  8
0
370
    35
390
0
 62
     7
 48
0.012506
100
AcDbLine
 10
197.241348
 20
149.694717
 30
0.0
 11
196.741348
 21
149.67897
 31
0.0
210
0.0
220
0.0
230
1.0
  0
LINE
  5
C6
100
AcDbEntity
  8
0
370
    35
390
0
 62
     7
 48
0.012506
100
AcDbLine
 10
305.041351
 20
142.410172
 30
0.0
 11
305.541351
 21
142.425919
 31
0.0
210
0.0
220
0.0
230
1.0
  0
LINE
  5
C7
100
AcDbEntity
  8
0
370
    35
390
0
 62
     7
 48
0.012506
100
AcDbLine
 10
303.541351
 20
142.36293
 30
0.0
 11
304.041351
 21
142.378677
 31
0.0
210
0.0
220
0.0
230
1.0
  0
LINE
  5
C8
100
AcDbEntity
  8
0
370
    35
390
0
 62
     7
 48
0.012506
100
AcDbLine
 10
302.041351
 20
142.315689
 30
0.0
 11
302.541351
 21
142.331436
 31
0.0
210
0.0
220
0.0
230
1.0
  0
LINE
  5
C9
100
AcDbEntity
  8
0
370
    35
390
0
 62
     7
 48
0.025019
100
AcDbLine
 10
211.433075
 20
230.603317
 30
0.0
 11
212.433075
 21
230.563828
 31
0.0
210
0.0
220
0.0
230
1.0
  0
LINE
  5
CA
100
AcDbEntity
  8
0
370
    35
390
0
 62
     7
 48
0.025019
100
AcDbLine
 10
212.933075
 20
230.544113
 30
0.0
 11
213.933075
 21
230.504623
 31
0.0
210
0.0
220
0.0
230
1.0
  0
LINE
  5
CB
100
AcDbEntity
  8
0
370
    35
390
0
 62
     7
 48
0.025019
100
AcDbLine
 10
214.433075
 20
230.484848
 30
0.0
 11
215.433075
 21
230.445419
 31
0.0
210
0.0
220
0.0
230
1.0
  0
LINE
  5
CC
100
AcDbEntity
  8
0
370
    35
390
0
 62
     7
 48
0.025019
100
AcDbLine
 10
215.933075
 20
230.425644
 30
0.0
 11
216.933075
 21
230.386215
 31
0.0
210
0.0
220
0.0
230
1.0
  0
LINE
  5
CD
100
AcDbEntity
  8
0
370
    35
390
0
 62
     7
 48
0.025019
100
AcDbLine
 10
217.433075
 20
230.36644
 30
0.0
 11
218.433075
 21
230.327011
 31
0.0
210
0.0
220
0.0
230
1.0
  0
LINE
  5
CE
100
AcDbEntity
  8
0
370
    35
390
0
 62
     7
 48
0.062549
100
AcDbLine
 10
218.933075
 20
230.307236
 30
0.0
 11
221.433075
 21
230.208542
 31
0.0
210
0.0
220
0.0
230
1.0
  0
LINE
  5
CF
100
AcDbEntity
  8
0
370
    35
390
0
 62
     7
 48
0.025019
100
AcDbLine
 10
221.933075
 20
230.188828
 30
0.0
 11
222.933075
 21
230.149338
 31
0.0
210
0.0
220
0.0
230
1.0
  0
LINE
  5
D0
100
AcDbEntity
  8
0
370
    35
390
0
 62
     7
 48
0.093823
100
AcDbLine
 10
223.433075
 20
230.129623
 30
0.0
 11
227.183075
 21
229.981613
 31
0.0
210
0.0
220
0.0
230
1.0
  0
LINE
  5
D1
100
AcDbEntity
  8
0
370
    35
390
0
 62
     7
 48
0.093823
100
AcDbLine
 10
223.433075
 20
221.833542
 30
0.0
 11
227.18306
 21
221.981613
 31
0.0
210
0.0
220
0.0
230
1.0
  0
LINE
  5
D2
100
AcDbEntity
  8
0
370
    35
390
0
 62
     7
 48
0.025019
100
AcDbLine
 10
221.933075
 20
221.774338
 30
0.0
 11
222.933075
 21
221.813828
 31
0.0
210
0.0
220
0.0
230
1.0
  0
LINE
  5
D3
100
AcDbEntity
  8
0
370
    35
390
0
 62
     7
 48
0.062549
100
AcDbLine
 10
218.933075
 20
221.65593
 30
0.0
 11
221.433075
 21
221.754623
 31
0.0
210
0.0
220
0.0
230
1.0
  0
LINE
  5
D4
100
AcDbEntity
  8
0
370
    35
390
0
 62
     7
 48
0.025019
100
AcDbLine
 10
217.433075
 20
221.596725
 30
0.0
 11
218.433075
 21
221.636215
 31
0.0
210
0.0
220
0.0
230
1.0
  0
LINE
  5
D5
100
AcDbEntity
  8
0
370
    35
390
0
 62
     7
 48
0.025019
100
AcDbLine
 10
215.933075
 20
221.537521
 30
0.0
 11
216.933075
 21
221.577011
 31
0.0
210
0.0
220
0.0
230
1.0
  0
LINE
  5
D6
100
AcDbEntity
  8
0
370
    35
390
0
 62
     7
 48
0.025019
100
AcDbLine
 10
214.433075
 20
221.478317
 30
0.0
 11
215.433075
 21
221.517746
 31
0.0
210
0.0
220
0.0
230
1.0
  0
LINE
  5
D7
100
AcDbEntity
  8
0
370
    35
390
0
 62
     7
 48
0.025019
100
AcDbLine
 10
212.933075
 20
221.419113
 30
0.0
 11
213.933075
 21
221.458542
 31
0.0
210
0.0
220
0.0
230
1.0
  0
LINE
  5
D8
100
AcDbEntity
  8
0
370
    35
390
0
 62
     7
 48
0.025019
100
AcDbLine
 10
211.433075
 20
221.359848
 30
0.0
 11
212.433075
 21
221.399338
 31
0.0
210
0.0
220
0.0
230
1.0
  0
LINE
  5
D9
100
AcDbEntity
  8
0
370
    35
390
0
 62
     7
 48
0.01251
100
AcDbLine
 10
212.433075
 20
230.063461
 30
0.0
 11
212.933075
 21
230.043686
 31
0.0
210
0.0
220
0.0
230
1.0
  0
LINE
  5
DA
100
AcDbEntity
  8
0
370
    35
390
0
 62
     7
 48
0.01251
100
AcDbLine
 10
213.933075
 20
230.004196
 30
0.0
 11
214.433075
 21
229.984482
 31
0.0
210
0.0
220
0.0
230
1.0
  0
LINE
  5
DB
100
AcDbEntity
  8
0
370
    35
390
0
 62
     7
 48
0.01251
100
AcDbLine
 10
215.433075
 20
229.944992
 30
0.0
 11
215.933075
 21
229.925278
 31
0.0
210
0.0
220
0.0
230
1.0
  0
LINE
  5
DC
100
AcDbEntity
  8
0
370
    35
390
0
 62
     7
 48
0.01251
100
AcDbLine
 10
216.933075
 20
229.885788
 30
0.0
 11
217.433075
 21
229.866074
 31
0.0
210
0.0
220
0.0
230
1.0
  0
LINE
  5
DD
100
AcDbEntity
  8
0
370
    35
390
0
 62
     7
 48
0.01251
100
AcDbLine
 10
218.433075
 20
229.826584
 30
0.0
 11
218.933075
 21
229.80687
 31
0.0
210
0.0
220
0.0
230
1.0
  0
LINE
  5
DE
100
AcDbEntity
  8
0
370
    35
390
0
 62
     7
 48
0.01251
100
AcDbLine
 10
221.433075
 20
229.708176
 30
0.0
 11
221.933075
 21
229.688461
 31
0.0
210
0.0
220
0.0
230
1.0
  0
LINE
  5
DF
100
AcDbEntity
  8
0
370
    35
390
0
 62
     7
 48
0.01251
100
AcDbLine
 10
222.933075
 20
229.648972
 30
0.0
 11
223.433075
 21
229.629196
 31
0.0
210
0.0
220
0.0
230
1.0
  0
LINE
  5
E0
100
AcDbEntity
  8
0
370
    35
390
0
 62
     7
 48
0.01251
100
AcDbLine
 10
222.933075
 20
222.314194
 30
0.0
 11
223.433075
 21
222.333969
 31
0.0
210
0.0
220
0.0
230
1.0
  0
LINE
  5
E1
100
AcDbEntity
  8
0
370
    35
390
0
 62
     7
 48
0.01251
100
AcDbLine
 10
221.433075
 20
222.25499
 30
0.0
 11
221.933075
 21
222.274765
 31
0.0
210
0.0
220
0.0
230
1.0
  0
LINE
  5
E2
100
AcDbEntity
  8
0
370
    35
390
0
 62
     7
 48
0.01251
100
AcDbLine
 10
218.433075
 20
222.136581
 30
0.0
 11
218.933075
 21
222.156296
 31
0.0
210
0.0
220
0.0
230
1.0
  0
LINE
  5
E3
100
AcDbEntity
  8
0
370
    35
390
0
 62
     7
 48
0.01251
100
AcDbLine
 10
216.933075
 20
222.077377
 30
0.0
 11
217.433075
 21
222.097092
 31
0.0
210
0.0
220
0.0
230
1.0
  0
LINE
  5
E4
100
AcDbEntity
  8
0
370
    35
390
0
 62
     7
 48
0.01251
100
AcDbLine
 10
215.433075
 20
222.018173
 30
0.0
 11
215.933075
 21
222.037888
 31
0.0
210
0.0
220
0.0
230
1.0
  0
LINE
  5
E5
100
AcDbEntity
  8
0
370
    35
390
0
 62
     7
 48
0.01251
100
AcDbLine
 10
213.933075
 20
221.958969
 30
0.0
 11
214.433075
 21
221.978683
 31
0.0
210
0.0
220
0.0
230
1.0
  0
LINE
  5
E6
100
AcDbEntity
  8
0
370
    35
390
0
 62
     7
 48
0.01251
100
AcDbLine
 10
212.433075
 20
221.899765
 30
0.0
 11
212.933075
 21
221.919479
 31
0.0
210
0.0
220
0.0
230
1.0
  0
LINE
  5
E7
100
AcDbEntity
  8
0
370
    35
390
0
 62
     7
 48
0.194891
100
AcDbLine
 10
223.433075
 20
229.629196
 30
0.0
 11
223.433075
 21
221.833542
 31
0.0
210
0.0
220
0.0
230
1.0
  0
LINE
  5
E8
100
AcDbEntity
  8
0
370
    35
390
0
 62
     7
 48
0.195879
100
AcDbLine
 10
222.933075
 20
229.648972
 30
0.0
 11
222.933075
 21
221.813828
 31
0.0
210
0.0
220
0.0
230
1.0
  0
LINE
  5
E9
100
AcDbEntity
  8
0
370
    35
390
0
 62
     7
 48
0.197853
100
AcDbLine
 10
221.933075
 20
229.688461
 30
0.0
 11
221.933075
 21
221.774338
 31
0.0
210
0.0
220
0.0
230
1.0
  0
LINE
  5
EA
100
AcDbEntity
  8
0
370
    35
390
0
 62
     7
 48
0.198839
100
AcDbLine
 10
221.433075
 20
229.708176
 30
0.0
 11
221.433075
 21
221.754623
 31
0.0
210
0.0
220
0.0
230
1.0
  0
LINE
  5
EB
100
AcDbEntity
  8
0
370
    35
390
0
 62
     7
 48
0.203773
100
AcDbLine
 10
218.933075
 20
229.80687
 30
0.0
 11
218.933075
 21
221.65593
 31
0.0
210
0.0
220
0.0
230
1.0
  0
LINE
  5
EC
100
AcDbEntity
  8
0
370
    35
390
0
 62
     7
 48
0.204759
100
AcDbLine
 10
218.433075
 20
229.826584
 30
0.0
 11
218.433075
 21
221.636215
 31
0.0
210
0.0
220
0.0
230
1.0
  0
LINE
  5
ED
100
AcDbEntity
  8
0
370
    35
390
0
 62
     7
 48
0.206734
100
AcDbLine
 10
217.433075
 20
229.866074
 30
0.0
 11
217.433075
 21
221.596725
 31
0.0
210
0.0
220
0.0
230
1.0
  0
LINE
  5
EE
100
AcDbEntity
  8
0
370
    35
390
0
 62
     7
 48
0.207719
100
AcDbLine
 10
216.933075
 20
229.885788
 30
0.0
 11
216.933075
 21
221.577011
 31
0.0
210
0.0
220
0.0
230
1.0
  0
LINE
  5
EF
100
AcDbEntity
  8
0
370
    35
390
0
 62
     7
 48
0.209694
100
AcDbLine
 10
215.933075
 20
229.925278
 30
0.0
 11
215.933075
 21
221.537521
 31
0.0
210
0.0
220
0.0
230
1.0
  0
LINE
  5
F0
100
AcDbEntity
  8
0
370
    35
390
0
 62
     7
 48
0.210681
100
AcDbLine
 10
215.433075
 20
229.944992
 30
0.0
 11
215.433075
 21
221.517746
 31
0.0
210
0.0
220
0.0
230
1.0
  0
LINE
  5
F1
100
AcDbEntity
  8
0
370
    35
390
0
 62
     7
 48
0.212654
100
AcDbLine
 10
214.433075
 20
229.984482
 30
0.0
 11
214.433075
 21
221.478317
 31
0.0
210
0.0
220
0.0
230
1.0
  0
LINE
  5
F2
100
AcDbEntity
  8
0
370
    35
390
0
 62
     7
 48
0.213641
100
AcDbLine
 10
213.933075
 20
230.004196
 30
0.0
 11
213.933075
 21
221.458542
 31
0.0
210
0.0
220
0.0
230
1.0
  0
LINE
  5
F3
100
AcDbEntity
  8
0
370
    35
390
0
 62
     7
 48
0.215614
100
AcDbLine
 10
212.933075
 20
230.043686
 30
0.0
 11
212.933075
 21
221.419113
 31
0.0
210
0.0
220
0.0
230
1.0
  0
LINE
  5
F4
100
AcDbEntity
  8
0
370
    35
390
0
 62
     7
 48
0.216603
100
AcDbLine
 10
212.433075
 20
230.063461
 30
0.0
 11
212.433075
 21
221.399338
 31
0.0
210
0.0
220
0.0
230
1.0
  0
LINE
  5
F5
100
AcDbEntity
  8
0
370
    35
390
0
 62
     7
 48
0.218576
100
AcDbLine
 10
211.433075
 20
230.10289
 30
0.0
 11
211.433075
 21
221.359848
 31
0.0
210
0.0
220
0.0
230
1.0
  0
LINE
  5
F6
100
AcDbEntity
  8
0
370
    35
390
0
 62
     7
 48
0.219563
100
AcDbLine
 10
210.933075
 20
230.122665
 30
0.0
 11
210.933075
 21
221.340134
 31
0.0
210
0.0
220
0.0
230
1.0
  0
LINE
  5
F7
100
AcDbEntity
  8
0
370
    35
390
0
 62
     7
 48
0.012509
100
AcDbLine
 10
222.933075
 20
230.149338
 30
0.0
 11
222.933075
 21
229.648972
 31
0.0
210
0.0
220
0.0
230
1.0
  0
LINE
  5
F8
100
AcDbEntity
  8
0
370
    35
390
0
 62
     7
 48
0.012511
100
AcDbLine
 10
223.433075
 20
230.129623
 30
0.0
 11
223.433075
 21
229.629196
 31
0.0
210
0.0
220
0.0
230
1.0
  0
LINE
  5
F9
100
AcDbEntity
  8
0
370
    35
390
0
 62
     7
 48
0.012509
100
AcDbLine
 10
221.933075
 20
230.188828
 30
0.0
 11
221.933075
 21
229.688461
 31
0.0
210
0.0
220
0.0
230
1.0
  0
LINE
  5
FA
100
AcDbEntity
  8
0
370
    35
390
0
 62
     7
 48
0.012509
100
AcDbLine
 10
221.433075
 20
230.208542
 30
0.0
 11
221.433075
 21
229.708176
 31
0.0
210
0.0
220
0.0
230
1.0
  0
LINE
  5
FB
100
AcDbEntity
  8
0
370
    35
390
0
 62
     7
 48
0.012511
100
AcDbLine
 10
218.433075
 20
230.327011
 30
0.0
 11
218.433075
 21
229.826584
 31
0.0
210
0.0
220
0.0
230
1.0
  0
LINE
  5
FC
100
AcDbEntity
  8
0
370
    35
390
0
 62
     7
 48
0.012509
100
AcDbLine
 10
218.933075
 20
230.307236
 30
0.0
 11
218.933075
 21
229.80687
 31
0.0
210
0.0
220
0.0
230
1.0
  0
LINE
  5
FD
100
AcDbEntity
  8
0
370
    35
390
0
 62
     7
 48
0.012509
100
AcDbLine
 10
217.433075
 20
230.36644
 30
0.0
 11
217.433075
 21
229.866074
 31
0.0
210
0.0
220
0.0
230
1.0
  0
LINE
  5
FE
100
AcDbEntity
  8
0
370
    35
390
0
 62
     7
 48
0.012511
100
AcDbLine
 10
216.933075
 20
230.386215
 30
0.0
 11
216.933075
 21
229.885788
 31
0.0
210
0.0
220
0.0
230
1.0
  0
LINE
  5
FF
100
AcDbEntity
  8
0
370
    35
390
0
 62
     7
 48
0.012511
100
AcDbLine
 10
215.433075
 20
230.445419
 30
0.0
 11
215.433075
 21
229.944992
 31
0.0
210
0.0
220
0.0
230
1.0
  0
LINE
  5
100
100
AcDbEntity
  8
0
370
    35
390
0
 62
     7
 48
0.012509
100
AcDbLine
 10
215.933075
 20
230.425644
 30
0.0
 11
215.933075
 21
229.925278
 31
0.0
210
0.0
220
0.0
230
1.0
  0
LINE
  5
101
100
AcDbEntity
  8
0
370
    35
390
0
 62
     7
 48
0.012511
100
AcDbLine
 10
211.433075
 20
230.603317
 30
0.0
 11
211.433075
 21
230.10289
 31
0.0
210
0.0
220
0.0
230
1.0
  0
LINE
  5
102
100
AcDbEntity
  8
0
370
    35
390
0
 62
     7
 48
0.012509
100
AcDbLine
 10
214.433075
 20
230.484848
 30
0.0
 11
214.433075
 21
229.984482
 31
0.0
210
0.0
220
0.0
230
1.0
  0
LINE
  5
103
100
AcDbEntity
  8
0
370
    35
390
0
 62
     7
 48
0.012511
100
AcDbLine
 10
213.933075
 20
230.504623
 30
0.0
 11
213.933075
 21
230.004196
 31
0.0
210
0.0
220
0.0
230
1.0
  0
LINE
  5
104
100
AcDbEntity
  8
0
370
    35
390
0
 62
     7
 48
0.012509
100
AcDbLine
 10
212.433075
 20
230.563828
 30
0.0
 11
212.433075
 21
230.063461
 31
0.0
210
0.0
220
0.0
230
1.0
  0
LINE
  5
105
100
AcDbEntity
  8
0
370
    35
390
0
 62
     7
 48
0.012511
100
AcDbLine
 10
212.933075
 20
230.544113
 30
0.0
 11
212.933075
 21
230.043686
 31
0.0
210
0.0
220
0.0
230
1.0
  0
LINE
  5
106
100
AcDbEntity
  8
0
370
    35
390
0
 62
     7
 48
0.012509
100
AcDbLine
 10
210.933075
 20
230.623032
 30
0.0
 11
210.933075
 21
230.122665
 31
0.0
210
0.0
220
0.0
230
1.0
  0
LINE
  5
107
100
AcDbEntity
  8
0
370
    35
390
0
 62
     7
 48
0.01251
100
AcDbLine
 10
210.933075
 20
230.122665
 30
0.0
 11
211.433075
 21
230.10289
 31
0.0
210
0.0
220
0.0
230
1.0
  0
LINE
  5
108
100
AcDbEntity
  8
0
370
    35
390
0
 62
     7
 48
0.012506
100
AcDbLine
 10
306.541351
 20
149.505753
 30
0.0
 11
307.041351
 21
149.490005
 31
0.0
210
0.0
220
0.0
230
1.0
  0
LINE
  5
109
100
AcDbEntity
  8
0
370
    35
390
0
 62
     7
 48
0.020125
100
AcDbLine
 10
298.586365
 20
159.181595
 30
0.0
 11
299.391357
 21
159.181595
 31
0.0
210
0.0
220
0.0
230
1.0
  0
LINE
  5
10A
100
AcDbEntity
  8
0
370
    35
390
0
 62
     7
 48
0.02
100
AcDbLine
 10
298.591339
 20
159.17659
 30
0.0
 11
299.391357
 21
159.17659
 31
0.0
210
0.0
220
0.0
230
1.0
  0
LINE
  5
10B
100
AcDbEntity
  8
0
370
    35
390
0
 62
     7
 48
0.012506
100
AcDbLine
 10
305.041351
 20
149.552994
 30
0.0
 11
305.541351
 21
149.537247
 31
0.0
210
0.0
220
0.0
230
1.0
  0
LINE
  5
10C
100
AcDbEntity
  8
0
370
    35
390
0
 62
     7
 48
0.012506
100
AcDbLine
 10
303.541351
 20
149.600235
 30
0.0
 11
304.041351
 21
149.584488
 31
0.0
210
0.0
220
0.0
230
1.0
  0
LINE
  5
10D
100
AcDbEntity
  8
0
370
    35
390
0
 62
     7
 48
0.012506
100
AcDbLine
 10
197.241348
 20
142.268448
 30
0.0
 11
196.741348
 21
142.284195
 31
0.0
210
0.0
220
0.0
230
1.0
  0
LINE
  5
10E
100
AcDbEntity
  8
0
370
    35
390
0
 62
     7
 48
0.012506
100
AcDbLine
 10
302.041351
 20
149.647476
 30
0.0
 11
302.541351
 21
149.631729
 31
0.0
210
0.0
220
0.0
230
1.0
  0
LINE
  5
10F
100
AcDbEntity
  8
0
370
    35
390
0
 62
     7
100
AcDbLine
 10
199.19635
 20
159.981583
 30
0.0
 11
298.586365
 21
159.981583
 31
0.0
210
0.0
220
0.0
230
1.0
  0
LINE
  5
110
100
AcDbEntity
  8
0
370
    35
390
0
 62
     7
 48
0.01251
100
AcDbLine
 10
210.933075
 20
221.8405
 30
0.0
 11
211.433075
 21
221.860275
 31
0.0
210
0.0
220
0.0
230
1.0
  0
LINE
  5
111
100
AcDbEntity
  8
0
370
    35
390
0
 62
     7
 48
0.020125
100
AcDbLine
 10
298.586365
 20
159.981583
 30
0.0
 11
299.391357
 21
159.981583
 31
0.0
210
0.0
220
0.0
230
1.0
  0
LINE
  5
112
100
AcDbEntity
  8
0
370
    35
390
0
 62
     7
 48
0.020125
100
AcDbLine
 10
198.391357
 20
159.981583
 30
0.0
 11
199.19635
 21
159.981583
 31
0.0
210
0.0
220
0.0
230
1.0
  0
LINE
  5
113
100
AcDbEntity
  8
0
370
    35
390
0
 62
     7
 48
0.000124
100
AcDbLine
 10
298.586365
 20
159.17659
 30
0.0
 11
298.591339
 21
159.17659
 31
0.0
210
0.0
220
0.0
230
1.0
  0
LINE
  5
114
100
AcDbEntity
  8
0
370
    35
390
0
 62
     7
 48
0.195
100
AcDbLine
 10
187.291351
 20
149.881577
 30
0.0
 11
187.291351
 21
142.081589
 31
0.0
210
0.0
220
0.0
230
1.0
  0
LINE
  5
115
100
AcDbEntity
  8
0
370
    35
390
0
 62
     7
 48
0.020125
100
AcDbLine
 10
198.391357
 20
159.181595
 30
0.0
 11
199.19635
 21
159.181595
 31
0.0
210
0.0
220
0.0
230
1.0
  0
LINE
  5
116
100
AcDbEntity
  8
0
370
    35
390
0
 62
     7
 48
0.020125
100
AcDbLine
 10
298.586365
 20
159.17659
 30
0.0
 11
298.586365
 21
159.981583
 31
0.0
210
0.0
220
0.0
230
1.0
  0
LINE
  5
117
100
AcDbEntity
  8
0
370
    35
390
0
 62
     7
 48
0.02
100
AcDbLine
 10
198.391357
 20
159.181595
 30
0.0
 11
198.391357
 21
159.981583
 31
0.0
210
0.0
220
0.0
230
1.0
  0
LINE
  5
118
100
AcDbEntity
  8
0
370
    35
390
0
 62
     7
 48
0.02
100
AcDbLine
 10
299.391357
 20
159.181595
 30
0.0
 11
299.391357
 21
159.981583
 31
0.0
210
0.0
220
0.0
230
1.0
  0
LINE
  5
119
100
AcDbEntity
  8
0
370
    35
390
0
 62
     7
100
AcDbLine
 10
198.391357
 20
131.981583
 30
0.0
 11
299.391357
 21
131.981583
 31
0.0
210
0.0
220
0.0
230
1.0
  0
LINE
  5
11A
100
AcDbEntity
  8
0
370
    35
390
0
 62
     7
 48
0.175
100
AcDbLine
 10
191.391357
 20
159.17659
 30
0.0
 11
198.391357
 21
159.17659
 31
0.0
210
0.0
220
0.0
230
1.0
  0
LINE
  5
11B
100
AcDbEntity
  8
0
370
    35
390
0
 62
     7
 48
0.020125
100
AcDbLine
 10
298.586365
 20
132.781601
 30
0.0
 11
299.391357
 21
132.781601
 31
0.0
210
0.0
220
0.0
230
1.0
  0
LINE
  5
11C
100
AcDbEntity
  8
0
370
    35
390
0
 62
     7
 48
0.222375
100
AcDbLine
 10
198.391357
 20
159.17659
 30
0.0
 11
198.391357
 21
150.281601
 31
0.0
210
0.0
220
0.0
230
1.0
  0
LINE
  5
11D
100
AcDbEntity
  8
0
370
    35
390
0
 62
     7
 48
0.02
100
AcDbLine
 10
198.391357
 20
159.17659
 30
0.0
 11
199.19136
 21
159.17659
 31
0.0
210
0.0
220
0.0
230
1.0
  0
LINE
  5
11E
100
AcDbEntity
  8
0
370
    35
390
0
 62
     7
 48
0.122375
100
AcDbLine
 10
308.391357
 20
134.786575
 30
0.0
 11
308.391357
 21
139.681595
 31
0.0
210
0.0
220
0.0
230
1.0
  0
LINE
  5
11F
100
AcDbEntity
  8
0
370
    35
390
0
 62
     7
 48
0.175
100
AcDbLine
 10
198.391357
 20
150.281601
 30
0.0
 11
191.391357
 21
150.281601
 31
0.0
210
0.0
220
0.0
230
1.0
  0
LINE
  5
120
100
AcDbEntity
  8
0
370
    35
390
0
 62
     7
 48
0.222375
100
AcDbLine
 10
299.391357
 20
141.681595
 30
0.0
 11
299.391357
 21
132.786575
 31
0.0
210
0.0
220
0.0
230
1.0
  0
LINE
  5
121
100
AcDbEntity
  8
0
370
    35
390
0
 62
     7
 48
0.02
100
AcDbLine
 10
298.591339
 20
132.786575
 30
0.0
 11
299.391357
 21
132.786575
 31
0.0
210
0.0
220
0.0
230
1.0
  0
LINE
  5
122
100
AcDbEntity
  8
0
370
    35
390
0
 62
     7
 48
0.175
100
AcDbLine
 10
306.391357
 20
132.786575
 30
0.0
 11
299.391357
 21
132.786575
 31
0.0
210
0.0
220
0.0
230
1.0
  0
LINE
  5
123
100
AcDbEntity
  8
0
370
    35
390
0
 62
     7
 48
0.175
100
AcDbLine
 10
306.391357
 20
141.681595
 30
0.0
 11
299.391357
 21
141.681595
 31
0.0
210
0.0
220
0.0
230
1.0
  0
LINE
  5
124
100
AcDbEntity
  8
0
370
    35
390
0
 62
     7
 48
0.122375
100
AcDbLine
 10
189.391357
 20
157.17659
 30
0.0
 11
189.391357
 21
152.281601
 31
0.0
210
0.0
220
0.0
230
1.0
  0
LINE
  5
125
100
AcDbEntity
  8
0
370
    35
390
0
 62
     7
 48
0.437376
100
AcDbLine
 10
299.391357
 20
132.786575
 30
0.0
 11
299.391357
 21
150.281601
 31
0.0
210
0.0
220
0.0
230
1.0
  0
LINE
  5
126
100
AcDbEntity
  8
0
370
    35
390
0
 62
     7
 48
0.025
100
AcDbLine
 10
198.391357
 20
141.681595
 30
0.0
 11
198.391357
 21
140.681595
 31
0.0
210
0.0
220
0.0
230
1.0
  0
LINE
  5
127
100
AcDbEntity
  8
0
370
    35
390
0
 62
     7
 48
0.197375
100
AcDbLine
 10
198.391357
 20
140.681595
 30
0.0
 11
198.391357
 21
132.786575
 31
0.0
210
0.0
220
0.0
230
1.0
  0
LINE
  5
128
100
AcDbEntity
  8
0
370
    35
390
0
 62
     7
 48
0.025
100
AcDbLine
 10
299.391357
 20
150.281601
 30
0.0
 11
299.391357
 21
151.281601
 31
0.0
210
0.0
220
0.0
230
1.0
  0
LINE
  5
129
100
AcDbEntity
  8
0
370
    35
390
0
 62
     7
 48
0.197375
100
AcDbLine
 10
299.391357
 20
151.281601
 30
0.0
 11
299.391357
 21
159.17659
 31
0.0
210
0.0
220
0.0
230
1.0
  0
LINE
  5
12A
100
AcDbEntity
  8
0
370
    35
390
0
 62
     7
 48
0.000124
100
AcDbLine
 10
298.586365
 20
132.786575
 30
0.0
 11
298.591339
 21
132.786575
 31
0.0
210
0.0
220
0.0
230
1.0
  0
LINE
  5
12B
100
AcDbEntity
  8
0
370
    35
390
0
 62
     7
 48
0.340865
100
AcDbLine
 10
327.550873
 20
148.881577
 30
0.0
 11
341.185486
 21
148.881577
 31
0.0
210
0.0
220
0.0
230
1.0
  0
LINE
  5
12C
100
AcDbEntity
  8
0
370
    35
390
0
 62
     7
100
AcDbLine
 10
187.291351
 20
148.881577
 30
0.0
 11
141.755005
 21
148.881577
 31
0.0
210
0.0
220
0.0
230
1.0
  0
LINE
  5
12D
100
AcDbEntity
  8
0
370
    35
390
0
 62
     7
 48
0.301218
100
AcDbLine
 10
310.491364
 20
143.081589
 30
0.0
 11
322.5401
 21
143.081589
 31
0.0
210
0.0
220
0.0
230
1.0
  0
LINE
  5
12E
100
AcDbEntity
  8
0
370
    35
390
0
 62
     7
 48
0.020125
100
AcDbLine
 10
198.391357
 20
132.781601
 30
0.0
 11
199.19635
 21
132.781601
 31
0.0
210
0.0
220
0.0
230
1.0
  0
LINE
  5
12F
100
AcDbEntity
  8
0
370
    35
390
0
 62
     7
 48
0.02
100
AcDbLine
 10
199.19136
 20
132.786575
 30
0.0
 11
198.391357
 21
132.786575
 31
0.0
210
0.0
220
0.0
230
1.0
  0
LINE
  5
130
100
AcDbEntity
  8
0
370
    35
390
0
 62
     7
 48
0.000125
100
AcDbLine
 10
199.19136
 20
132.786575
 30
0.0
 11
199.19635
 21
132.786575
 31
0.0
210
0.0
220
0.0
230
1.0
  0
LINE
  5
131
100
AcDbEntity
  8
0
370
    35
390
0
 62
     7
 48
0.437375
100
AcDbLine
 10
198.391357
 20
159.17659
 30
0.0
 11
198.391357
 21
141.681595
 31
0.0
210
0.0
220
0.0
230
1.0
  0
LINE
  5
132
100
AcDbEntity
  8
0
370
    35
390
0
 62
     7
 48
0.02
100
AcDbLine
 10
198.391357
 20
131.981583
 30
0.0
 11
198.391357
 21
132.781601
 31
0.0
210
0.0
220
0.0
230
1.0
  0
LINE
  5
133
100
AcDbEntity
  8
0
370
    35
390
0
 62
     7
 48
0.02
100
AcDbLine
 10
299.391357
 20
131.981583
 30
0.0
 11
299.391357
 21
132.781601
 31
0.0
210
0.0
220
0.0
230
1.0
  0
LINE
  5
134
100
AcDbEntity
  8
0
370
    35
390
0
 62
     7
 48
0.020125
100
AcDbLine
 10
298.586365
 20
131.981583
 30
0.0
 11
298.586365
 21
132.786575
 31
0.0
210
0.0
220
0.0
230
1.0
  0
LINE
  5
135
100
AcDbEntity
  8
0
370
    35
390
0
 62
     7
 48
0.000125
100
AcDbLine
 10
199.19136
 20
159.17659
 30
0.0
 11
199.19635
 21
159.17659
 31
0.0
210
0.0
220
0.0
230
1.0
  0
LINE
  5
136
100
AcDbEntity
  8
0
370
    35
390
0
 62
     7
 48
0.020125
100
AcDbLine
 10
199.19635
 20
159.17659
 30
0.0
 11
199.19635
 21
159.981583
 31
0.0
210
0.0
220
0.0
230
1.0
  0
LINE
  5
137
100
AcDbEntity
  8
0
370
    35
390
0
 62
     7
 48
0.020125
100
AcDbLine
 10
199.19635
 20
131.981583
 30
0.0
 11
199.19635
 21
132.786575
 31
0.0
210
0.0
220
0.0
230
1.0
  0
LINE
  5
138
100
AcDbEntity
  8
0
370
    35
390
0
 62
     7
 48
0.340865
100
AcDbLine
 10
327.550873
 20
83.081589
 30
0.0
 11
341.185486
 21
83.081589
 31
0.0
210
0.0
220
0.0
230
1.0
  0
LINE
  5
139
100
AcDbEntity
  8
0
370
    35
390
0
 62
     7
 48
0.199999
100
AcDbLine
 10
355.185486
 20
81.981613
 30
0.0
 11
355.185486
 21
89.981583
 31
0.0
210
0.0
220
0.0
230
1.0
  0
LINE
  5
13A
100
AcDbEntity
  8
0
370
    35
390
0
 62
     7
 48
0.25
100
AcDbLine
 10
390.685486
 20
80.981613
 30
0.0
 11
390.685486
 21
90.981613
 31
0.0
210
0.0
220
0.0
230
1.0
  0
LINE
  5
13B
100
AcDbEntity
  8
0
370
    35
390
0
 62
     7
 48
0.295
100
AcDbLine
 10
384.485474
 20
80.081619
 30
0.0
 11
384.485474
 21
91.881607
 31
0.0
210
0.0
220
0.0
230
1.0
  0
LINE
  5
13C
100
AcDbEntity
  8
0
370
    35
390
0
 62
     7
 48
0.175
100
AcDbLine
 10
341.185486
 20
82.481613
 30
0.0
 11
341.185486
 21
89.481613
 31
0.0
210
0.0
220
0.0
230
1.0
  0
LINE
  5
13D
100
AcDbEntity
  8
0
370
    35
390
0
 62
     7
 48
0.325
100
AcDbLine
 10
360.185486
 20
79.481613
 30
0.0
 11
360.185486
 21
92.481613
 31
0.0
210
0.0
220
0.0
230
1.0
  0
LINE
  5
13E
100
AcDbEntity
  8
0
370
    35
390
0
 62
     7
 48
0.325
100
AcDbLine
 10
379.685486
 20
79.481613
 30
0.0
 11
379.685486
 21
92.481613
 31
0.0
210
0.0
220
0.0
230
1.0
  0
LINE
  5
13F
100
AcDbEntity
  8
0
370
    35
390
0
 62
     7
 48
0.4875
100
AcDbLine
 10
379.685486
 20
79.481613
 30
0.0
 11
360.185486
 21
79.481613
 31
0.0
210
0.0
220
0.0
230
1.0
  0
LINE
  5
140
100
AcDbEntity
  8
0
370
    35
390
0
 62
     7
 48
0.4875
100
AcDbLine
 10
379.685486
 20
92.481613
 30
0.0
 11
360.185486
 21
92.481613
 31
0.0
210
0.0
220
0.0
230
1.0
  0
LINE
  5
141
100
AcDbEntity
  8
0
370
    35
390
0
 62
     7
 48
0.12
100
AcDbLine
 10
384.485474
 20
80.081619
 30
0.0
 11
379.685486
 21
80.081619
 31
0.0
210
0.0
220
0.0
230
1.0
  0
LINE
  5
142
100
AcDbEntity
  8
0
370
    35
390
0
 62
     7
 48
0.12
100
AcDbLine
 10
384.485474
 20
91.881607
 30
0.0
 11
379.685486
 21
91.881607
 31
0.0
210
0.0
220
0.0
230
1.0
  0
LINE
  5
143
100
AcDbEntity
  8
0
370
    35
390
0
 62
     7
 48
0.155
100
AcDbLine
 10
390.685486
 20
80.981613
 30
0.0
 11
384.485474
 21
80.981613
 31
0.0
210
0.0
220
0.0
230
1.0
  0
LINE
  5
144
100
AcDbEntity
  8
0
370
    35
390
0
 62
     7
 48
0.155
100
AcDbLine
 10
390.685486
 20
90.981613
 30
0.0
 11
384.485474
 21
90.981613
 31
0.0
210
0.0
220
0.0
230
1.0
  0
LINE
  5
145
100
AcDbEntity
  8
0
370
    35
390
0
 62
     7
 48
0.350223
100
AcDbLine
 10
341.185516
 20
82.481583
 30
0.0
 11
355.185516
 21
81.981583
 31
0.0
210
0.0
220
0.0
230
1.0
  0
LINE
  5
146
100
AcDbEntity
  8
0
370
    35
390
0
 62
     7
 48
0.13372
100
AcDbLine
 10
360.185516
 20
80.081589
 30
0.0
 11
355.185547
 21
81.981583
 31
0.0
210
0.0
220
0.0
230
1.0
  0
LINE
  5
147
100
AcDbEntity
  8
0
370
    35
390
0
 62
     7
 48
0.350224
100
AcDbLine
 10
341.185455
 20
89.481583
 30
0.0
 11
355.185486
 21
89.981583
 31
0.0
210
0.0
220
0.0
230
1.0
  0
LINE
  5
148
100
AcDbEntity
  8
0
370
    35
390
0
 62
     7
 48
0.13372
100
AcDbLine
 10
360.185516
 20
91.881516
 30
0.0
 11
355.185547
 21
89.981522
 31
0.0
210
0.0
220
0.0
230
1.0
  0
LINE
  5
149
100
AcDbEntity
  8
0
370
    35
390
0
 62
     7
 48
0.051653
100
AcDbLine
 10
354.148468
 20
87.981613
 30
0.0
 11
354.666992
 21
85.981613
 31
0.0
210
0.0
220
0.0
230
1.0
  0
LINE
  5
14A
100
AcDbEntity
  8
0
370
    35
390
0
 62
     7
 48
0.050231
100
AcDbLine
 10
353.644165
 20
82.036667
 30
0.0
 11
354.148438
 21
83.981613
 31
0.0
210
0.0
220
0.0
230
1.0
  0
LINE
  5
14B
100
AcDbEntity
  8
0
370
    35
390
0
 62
     7
 48
0.051653
100
AcDbLine
 10
354.148468
 20
83.981613
 30
0.0
 11
353.629913
 21
85.981613
 31
0.0
210
0.0
220
0.0
230
1.0
  0
LINE
  5
14C
100
AcDbEntity
  8
0
370
    35
390
0
 62
     7
 48
0.051653
100
AcDbLine
 10
353.629913
 20
85.981613
 30
0.0
 11
353.11142
 21
83.981613
 31
0.0
210
0.0
220
0.0
230
1.0
  0
LINE
  5
14D
100
AcDbEntity
  8
0
370
    35
390
0
 62
     7
 48
0.050204
100
AcDbLine
 10
353.111389
 20
83.981613
 30
0.0
 11
353.615326
 21
82.037704
 31
0.0
210
0.0
220
0.0
230
1.0
  0
LINE
  5
14E
100
AcDbEntity
  8
0
370
    35
390
0
 62
     7
 48
0.051653
100
AcDbLine
 10
352.592987
 20
85.981613
 30
0.0
 11
353.111511
 21
87.981613
 31
0.0
210
0.0
220
0.0
230
1.0
  0
LINE
  5
14F
100
AcDbEntity
  8
0
370
    35
390
0
 62
     7
 48
0.049284
100
AcDbLine
 10
353.11142
 20
87.981613
 30
0.0
 11
352.616699
 21
89.889877
 31
0.0
210
0.0
220
0.0
230
1.0
  0
LINE
  5
150
100
AcDbEntity
  8
0
370
    35
390
0
 62
     7
 48
0.049239
100
AcDbLine
 10
352.568695
 20
89.888138
 30
0.0
 11
352.074402
 21
87.981613
 31
0.0
210
0.0
220
0.0
230
1.0
  0
LINE
  5
151
100
AcDbEntity
  8
0
370
    35
390
0
 62
     7
 48
0.051653
100
AcDbLine
 10
352.074371
 20
87.981613
 30
0.0
 11
352.592896
 21
85.981613
 31
0.0
210
0.0
220
0.0
230
1.0
  0
LINE
  5
152
100
AcDbEntity
  8
0
370
    35
390
0
 62
     7
 48
0.048336
100
AcDbLine
 10
351.589233
 20
82.110062
 30
0.0
 11
352.074463
 21
83.981613
 31
0.0
210
0.0
220
0.0
230
1.0
  0
LINE
  5
153
100
AcDbEntity
  8
0
370
    35
390
0
 62
     7
 48
0.051653
100
AcDbLine
 10
352.074402
 20
83.981613
 30
0.0
 11
351.555878
 21
85.981613
 31
0.0
210
0.0
220
0.0
230
1.0
  0
LINE
  5
154
100
AcDbEntity
  8
0
370
    35
390
0
 62
     7
 48
0.051653
100
AcDbLine
 10
351.555878
 20
85.981613
 30
0.0
 11
351.037354
 21
83.981613
 31
0.0
210
0.0
220
0.0
230
1.0
  0
LINE
  5
155
100
AcDbEntity
  8
0
370
    35
390
0
 62
     7
 48
0.048273
100
AcDbLine
 10
351.037354
 20
83.981613
 30
0.0
 11
351.521942
 21
82.112473
 31
0.0
210
0.0
220
0.0
230
1.0
  0
LINE
  5
156
100
AcDbEntity
  8
0
370
    35
390
0
 62
     7
 48
0.051653
100
AcDbLine
 10
350.518799
 20
85.981613
 30
0.0
 11
351.037292
 21
87.981613
 31
0.0
210
0.0
220
0.0
230
1.0
  0
LINE
  5
157
100
AcDbEntity
  8
0
370
    35
390
0
 62
     7
 48
0.05117
100
AcDbLine
 10
354.66214
 20
89.962906
 30
0.0
 11
354.148468
 21
87.981613
 31
0.0
210
0.0
220
0.0
230
1.0
  0
LINE
  5
158
100
AcDbEntity
  8
0
370
    35
390
0
 62
     7
 48
0.051653
100
AcDbLine
 10
354.666962
 20
85.981613
 30
0.0
 11
355.185486
 21
87.981613
 31
0.0
210
0.0
220
0.0
230
1.0
  0
LINE
  5
159
100
AcDbEntity
  8
0
370
    35
390
0
 62
     7
 48
0.051179
100
AcDbLine
 10
355.185577
 20
87.981644
 30
0.0
 11
354.671783
 21
89.963272
 31
0.0
210
0.0
220
0.0
230
1.0
  0
LINE
  5
15A
100
AcDbEntity
  8
0
370
    35
390
0
 62
     7
 48
0.047388
100
AcDbLine
 10
351.037354
 20
87.981613
 30
0.0
 11
350.561676
 21
89.816483
 31
0.0
210
0.0
220
0.0
230
1.0
  0
LINE
  5
15B
100
AcDbEntity
  8
0
370
    35
390
0
 62
     7
 48
0.047309
100
AcDbLine
 10
350.47525
 20
89.8134
 30
0.0
 11
350.000336
 21
87.981613
 31
0.0
210
0.0
220
0.0
230
1.0
  0
LINE
  5
15C
100
AcDbEntity
  8
0
370
    35
390
0
 62
     7
 48
0.051653
100
AcDbLine
 10
350.000366
 20
87.981613
 30
0.0
 11
350.51889
 21
85.981613
 31
0.0
210
0.0
220
0.0
230
1.0
  0
LINE
  5
15D
100
AcDbEntity
  8
0
370
    35
390
0
 62
     7
 48
0.04644
100
AcDbLine
 10
349.534149
 20
82.183456
 30
0.0
 11
350.000366
 21
83.981613
 31
0.0
210
0.0
220
0.0
230
1.0
  0
LINE
  5
15E
100
AcDbEntity
  8
0
370
    35
390
0
 62
     7
 48
0.051652
100
AcDbLine
 10
350.000336
 20
83.981644
 30
0.0
 11
349.481812
 21
85.981613
 31
0.0
210
0.0
220
0.0
230
1.0
  0
LINE
  5
15F
100
AcDbEntity
  8
0
370
    35
390
0
 62
     7
 48
0.051653
100
AcDbLine
 10
349.481812
 20
85.981613
 30
0.0
 11
348.963287
 21
83.981613
 31
0.0
210
0.0
220
0.0
230
1.0
  0
LINE
  5
160
100
AcDbEntity
  8
0
370
    35
390
0
 62
     7
 48
0.046342
100
AcDbLine
 10
348.963257
 20
83.981583
 30
0.0
 11
349.428467
 21
82.18721
 31
0.0
210
0.0
220
0.0
230
1.0
  0
LINE
  5
161
100
AcDbEntity
  8
0
370
    35
390
0
 62
     7
 48
0.051653
100
AcDbLine
 10
348.444763
 20
85.981583
 30
0.0
 11
348.963287
 21
87.981583
 31
0.0
210
0.0
220
0.0
230
1.0
  0
LINE
  5
162
100
AcDbEntity
  8
0
370
    35
390
0
 62
     7
 48
0.045492
100
AcDbLine
 10
348.963287
 20
87.981644
 30
0.0
 11
348.506622
 21
89.743088
 31
0.0
210
0.0
220
0.0
230
1.0
  0
LINE
  5
163
100
AcDbEntity
  8
0
370
    35
390
0
 62
     7
 48
0.045377
100
AcDbLine
 10
348.381714
 20
89.738602
 30
0.0
 11
347.926208
 21
87.981613
 31
0.0
210
0.0
220
0.0
230
1.0
  0
LINE
  5
164
100
AcDbEntity
  8
0
370
    35
390
0
 62
     7
 48
0.051653
100
AcDbLine
 10
347.92627
 20
87.981613
 30
0.0
 11
348.444763
 21
85.981613
 31
0.0
210
0.0
220
0.0
230
1.0
  0
LINE
  5
165
100
AcDbEntity
  8
0
370
    35
390
0
 62
     7
 48
0.044545
100
AcDbLine
 10
347.479126
 20
82.256821
 30
0.0
 11
347.9263
 21
83.981613
 31
0.0
210
0.0
220
0.0
230
1.0
  0
LINE
  5
166
100
AcDbEntity
  8
0
370
    35
390
0
 62
     7
 48
0.301218
100
AcDbLine
 10
310.491364
 20
88.881577
 30
0.0
 11
322.5401
 21
88.881577
 31
0.0
210
0.0
220
0.0
230
1.0
  0
LINE
  5
167
100
AcDbEntity
  8
0
370
    35
390
0
 62
     7
 48
0.195
100
AcDbLine
 10
310.491364
 20
89.881577
 30
0.0
 11
310.491364
 21
82.081589
 31
0.0
210
0.0
220
0.0
230
1.0
  0
LINE
  5
168
100
AcDbEntity
  8
0
370
    35
390
0
 62
     7
 48
0.012506
100
AcDbLine
 10
300.541351
 20
82.268448
 30
0.0
 11
301.041351
 21
82.284195
 31
0.0
210
0.0
220
0.0
230
1.0
  0
LINE
  5
169
100
AcDbEntity
  8
0
370
    35
390
0
 62
     7
 48
0.012506
100
AcDbLine
 10
300.541351
 20
89.694717
 30
0.0
 11
301.041351
 21
89.67897
 31
0.0
210
0.0
220
0.0
230
1.0
  0
LINE
  5
16A
100
AcDbEntity
  8
0
370
    35
390
0
 62
     7
 48
0.208307
100
AcDbLine
 10
302.041351
 20
90.14772
 30
0.0
 11
302.041351
 21
81.815445
 31
0.0
210
0.0
220
0.0
230
1.0
  0
LINE
  5
16B
100
AcDbEntity
  8
0
370
    35
390
0
 62
     7
 48
0.209882
100
AcDbLine
 10
301.041351
 20
90.179214
 30
0.0
 11
301.041351
 21
81.783951
 31
0.0
210
0.0
220
0.0
230
1.0
  0
LINE
  5
16C
100
AcDbEntity
  8
0
370
    35
390
0
 62
     7
 48
0.028764
100
AcDbLine
 10
299.391357
 20
81.731979
 30
0.0
 11
300.541351
 21
81.768204
 31
0.0
210
0.0
220
0.0
230
1.0
  0
LINE
  5
16D
100
AcDbEntity
  8
0
370
    35
390
0
 62
     7
 48
0.210669
100
AcDbLine
 10
300.541351
 20
90.194962
 30
0.0
 11
300.541351
 21
81.768204
 31
0.0
210
0.0
220
0.0
230
1.0
  0
LINE
  5
16E
100
AcDbEntity
  8
0
370
    35
390
0
 62
     7
 48
0.028764
100
AcDbLine
 10
299.391357
 20
90.231186
 30
0.0
 11
300.541351
 21
90.194962
 31
0.0
210
0.0
220
0.0
230
1.0
  0
LINE
  5
16F
100
AcDbEntity
  8
0
370
    35
390
0
 62
     7
 48
0.20752
100
AcDbLine
 10
302.541351
 20
90.131973
 30
0.0
 11
302.541351
 21
81.831192
 31
0.0
210
0.0
220
0.0
230
1.0
  0
LINE
  5
170
100
AcDbEntity
  8
0
370
    35
390
0
 62
     7
 48
0.205157
100
AcDbLine
 10
304.041351
 20
90.084732
 30
0.0
 11
304.041351
 21
81.878433
 31
0.0
210
0.0
220
0.0
230
1.0
  0
LINE
  5
171
100
AcDbEntity
  8
0
370
    35
390
0
 62
     7
 48
0.205945
100
AcDbLine
 10
303.541351
 20
90.100479
 30
0.0
 11
303.541351
 21
81.862686
 31
0.0
210
0.0
220
0.0
230
1.0
  0
LINE
  5
172
100
AcDbEntity
  8
0
370
    35
390
0
 62
     7
 48
0.301219
100
AcDbLine
 10
187.291351
 20
83.081589
 30
0.0
 11
175.242599
 21
83.081589
 31
0.0
210
0.0
220
0.0
230
1.0
  0
LINE
  5
173
100
AcDbEntity
  8
0
370
    35
390
0
 62
     7
 48
0.203583
100
AcDbLine
 10
305.041351
 20
90.053238
 30
0.0
 11
305.041351
 21
81.909927
 31
0.0
210
0.0
220
0.0
230
1.0
  0
LINE
  5
174
100
AcDbEntity
  8
0
370
    35
390
0
 62
     7
 48
0.202795
100
AcDbLine
 10
305.541351
 20
90.037491
 30
0.0
 11
305.541351
 21
81.925674
 31
0.0
210
0.0
220
0.0
230
1.0
  0
LINE
  5
175
100
AcDbEntity
  8
0
370
    35
390
0
 62
     7
 48
0.200433
100
AcDbLine
 10
307.041351
 20
89.99025
 30
0.0
 11
307.041351
 21
81.972916
 31
0.0
210
0.0
220
0.0
230
1.0
  0
LINE
  5
176
100
AcDbEntity
  8
0
370
    35
390
0
 62
     7
 48
0.201221
100
AcDbLine
 10
306.541351
 20
90.005997
 30
0.0
 11
306.541351
 21
81.957169
 31
0.0
210
0.0
220
0.0
230
1.0
  0
LINE
  5
177
100
AcDbEntity
  8
0
370
    35
390
0
 62
     7
 48
0.086293
100
AcDbLine
 10
307.041351
 20
81.972916
 30
0.0
 11
310.491364
 21
82.081589
 31
0.0
210
0.0
220
0.0
230
1.0
  0
LINE
  5
178
100
AcDbEntity
  8
0
370
    35
390
0
 62
     7
 48
0.025012
100
AcDbLine
 10
305.541351
 20
81.925674
 30
0.0
 11
306.541351
 21
81.957169
 31
0.0
210
0.0
220
0.0
230
1.0
  0
LINE
  5
179
100
AcDbEntity
  8
0
370
    35
390
0
 62
     7
 48
0.025012
100
AcDbLine
 10
304.041351
 20
81.878433
 30
0.0
 11
305.041351
 21
81.909927
 31
0.0
210
0.0
220
0.0
230
1.0
  0
LINE
  5
17A
100
AcDbEntity
  8
0
370
    35
390
0
 62
     7
 48
0.025012
100
AcDbLine
 10
302.541351
 20
81.831192
 30
0.0
 11
303.541351
 21
81.862686
 31
0.0
210
0.0
220
0.0
230
1.0
  0
LINE
  5
17B
100
AcDbEntity
  8
0
370
    35
390
0
 62
     7
 48
0.025012
100
AcDbLine
 10
301.041351
 20
81.783951
 30
0.0
 11
302.041351
 21
81.815445
 31
0.0
210
0.0
220
0.0
230
1.0
  0
LINE
  5
17C
100
AcDbEntity
  8
0
370
    35
390
0
 62
     7
 48
0.025012
100
AcDbLine
 10
301.041351
 20
90.179214
 30
0.0
 11
302.041351
 21
90.14772
 31
0.0
210
0.0
220
0.0
230
1.0
  0
LINE
  5
17D
100
AcDbEntity
  8
0
370
    35
390
0
 62
     7
 48
0.025012
100
AcDbLine
 10
302.541351
 20
90.131973
 30
0.0
 11
303.541351
 21
90.100479
 31
0.0
210
0.0
220
0.0
230
1.0
  0
LINE
  5
17E
100
AcDbEntity
  8
0
370
    35
390
0
 62
     7
 48
0.025012
100
AcDbLine
 10
304.041351
 20
90.084732
 30
0.0
 11
305.041351
 21
90.053238
 31
0.0
210
0.0
220
0.0
230
1.0
  0
LINE
  5
17F
100
AcDbEntity
  8
0
370
    35
390
0
 62
     7
 48
0.025012
100
AcDbLine
 10
305.541351
 20
90.037491
 30
0.0
 11
306.541351
 21
90.005997
 31
0.0
210
0.0
220
0.0
230
1.0
  0
LINE
  5
180
100
AcDbEntity
  8
0
370
    35
390
0
 62
     7
 48
0.086293
100
AcDbLine
 10
307.041351
 20
89.99025
 30
0.0
 11
310.491364
 21
89.881577
 31
0.0
210
0.0
220
0.0
230
1.0
  0
LINE
  5
181
100
AcDbEntity
  8
0
370
    35
390
0
 62
     7
 48
0.051653
100
AcDbLine
 10
347.926208
 20
83.981613
 30
0.0
 11
347.407684
 21
85.981613
 31
0.0
210
0.0
220
0.0
230
1.0
  0
LINE
  5
182
100
AcDbEntity
  8
0
370
    35
390
0
 62
     7
 48
0.051653
100
AcDbLine
 10
347.407745
 20
85.981613
 30
0.0
 11
346.889221
 21
83.981613
 31
0.0
210
0.0
220
0.0
230
1.0
  0
LINE
  5
183
100
AcDbEntity
  8
0
370
    35
390
0
 62
     7
 48
0.044411
100
AcDbLine
 10
346.889191
 20
83.981613
 30
0.0
 11
347.335022
 21
82.262009
 31
0.0
210
0.0
220
0.0
230
1.0
  0
LINE
  5
184
100
AcDbEntity
  8
0
370
    35
390
0
 62
     7
 48
0.051653
100
AcDbLine
 10
346.370697
 20
85.981613
 30
0.0
 11
346.889252
 21
87.981613
 31
0.0
210
0.0
220
0.0
230
1.0
  0
LINE
  5
185
100
AcDbEntity
  8
0
370
    35
390
0
 62
     7
 48
0.043597
100
AcDbLine
 10
346.88916
 20
87.981613
 30
0.0
 11
346.451508
 21
89.669662
 31
0.0
210
0.0
220
0.0
230
1.0
  0
LINE
  5
186
100
AcDbEntity
  8
0
370
    35
390
0
 62
     7
 48
0.043447
100
AcDbLine
 10
346.2883
 20
89.663864
 30
0.0
 11
345.852173
 21
87.981613
 31
0.0
210
0.0
220
0.0
230
1.0
  0
LINE
  5
187
100
AcDbEntity
  8
0
370
    35
390
0
 62
     7
 48
0.051653
100
AcDbLine
 10
345.852142
 20
87.981613
 30
0.0
 11
346.370667
 21
85.981613
 31
0.0
210
0.0
220
0.0
230
1.0
  0
LINE
  5
188
100
AcDbEntity
  8
0
370
    35
390
0
 62
     7
 48
0.042649
100
AcDbLine
 10
345.424011
 20
82.330246
 30
0.0
 11
345.852142
 21
83.981613
 31
0.0
210
0.0
220
0.0
230
1.0
  0
LINE
  5
189
100
AcDbEntity
  8
0
370
    35
390
0
 62
     7
 48
0.051653
100
AcDbLine
 10
345.852112
 20
83.981613
 30
0.0
 11
345.333618
 21
85.981613
 31
0.0
210
0.0
220
0.0
230
1.0
  0
LINE
  5
18A
100
AcDbEntity
  8
0
370
    35
390
0
 62
     7
 48
0.051653
100
AcDbLine
 10
345.333649
 20
85.981613
 30
0.0
 11
344.815125
 21
83.981613
 31
0.0
210
0.0
220
0.0
230
1.0
  0
LINE
  5
18B
100
AcDbEntity
  8
0
370
    35
390
0
 62
     7
 48
0.042481
100
AcDbLine
 10
344.815155
 20
83.981613
 30
0.0
 11
345.241608
 21
82.336777
 31
0.0
210
0.0
220
0.0
230
1.0
  0
LINE
  5
18C
100
AcDbEntity
  8
0
370
    35
390
0
 62
     7
 48
0.051653
100
AcDbLine
 10
344.2966
 20
85.981613
 30
0.0
 11
344.815125
 21
87.981613
 31
0.0
210
0.0
220
0.0
230
1.0
  0
LINE
  5
18D
100
AcDbEntity
  8
0
370
    35
390
0
 62
     7
 48
0.041702
100
AcDbLine
 10
344.815155
 20
87.981613
 30
0.0
 11
344.396545
 21
89.596298
 31
0.0
210
0.0
220
0.0
230
1.0
  0
LINE
  5
18E
100
AcDbEntity
  8
0
370
    35
390
0
 62
     7
 48
0.041516
100
AcDbLine
 10
344.194824
 20
89.589096
 30
0.0
 11
343.778076
 21
87.981613
 31
0.0
210
0.0
220
0.0
230
1.0
  0
LINE
  5
18F
100
AcDbEntity
  8
0
370
    35
390
0
 62
     7
 48
0.051653
100
AcDbLine
 10
343.778107
 20
87.981613
 30
0.0
 11
344.296631
 21
85.981613
 31
0.0
210
0.0
220
0.0
230
1.0
  0
LINE
  5
190
100
AcDbEntity
  8
0
370
    35
390
0
 62
     7
 48
0.040754
100
AcDbLine
 10
343.368988
 20
82.40361
 30
0.0
 11
343.778076
 21
83.981613
 31
0.0
210
0.0
220
0.0
230
1.0
  0
LINE
  5
191
100
AcDbEntity
  8
0
370
    35
390
0
 62
     7
 48
0.051653
100
AcDbLine
 10
343.778107
 20
83.981613
 30
0.0
 11
343.259583
 21
85.981613
 31
0.0
210
0.0
220
0.0
230
1.0
  0
LINE
  5
192
100
AcDbEntity
  8
0
370
    35
390
0
 62
     7
 48
0.051653
100
AcDbLine
 10
343.259552
 20
85.981613
 30
0.0
 11
342.741058
 21
83.981613
 31
0.0
210
0.0
220
0.0
230
1.0
  0
LINE
  5
193
100
AcDbEntity
  8
0
370
    35
390
0
 62
     7
 48
0.04055
100
AcDbLine
 10
342.740997
 20
83.981613
 30
0.0
 11
343.148041
 21
82.411514
 31
0.0
210
0.0
220
0.0
230
1.0
  0
LINE
  5
194
100
AcDbEntity
  8
0
370
    35
390
0
 62
     7
 48
0.051652
100
AcDbLine
 10
342.222565
 20
85.981613
 30
0.0
 11
342.741089
 21
87.981583
 31
0.0
210
0.0
220
0.0
230
1.0
  0
LINE
  5
195
100
AcDbEntity
  8
0
370
    35
390
0
 62
     7
 48
0.039806
100
AcDbLine
 10
342.741089
 20
87.981613
 30
0.0
 11
342.341492
 21
89.522903
 31
0.0
210
0.0
220
0.0
230
1.0
  0
LINE
  5
196
100
AcDbEntity
  8
0
370
    35
390
0
 62
     7
 48
0.039585
100
AcDbLine
 10
342.10141
 20
89.514328
 30
0.0
 11
341.704041
 21
87.981613
 31
0.0
210
0.0
220
0.0
230
1.0
  0
LINE
  5
197
100
AcDbEntity
  8
0
370
    35
390
0
 62
     7
 48
0.051652
100
AcDbLine
 10
341.704071
 20
87.981613
 30
0.0
 11
342.222565
 21
85.981644
 31
0.0
210
0.0
220
0.0
230
1.0
  0
LINE
  5
198
100
AcDbEntity
  8
0
370
    35
390
0
 62
     7
 48
0.125
100
AcDbLine
 10
360.185486
 20
86.981583
 30
0.0
 11
365.185486
 21
86.981583
 31
0.0
210
0.0
220
0.0
230
1.0
  0
LINE
  5
199
100
AcDbEntity
  8
0
370
    35
390
0
 62
     7
 48
0.125
100
AcDbLine
 10
360.185486
 20
84.981583
 30
0.0
 11
365.185486
 21
84.981583
 31
0.0
210
0.0
220
0.0
230
1.0
  0
LINE
  5
19A
100
AcDbEntity
  8
0
370
    35
390
0
 62
     7
 48
0.012506
100
AcDbLine
 10
195.741348
 20
89.647476
 30
0.0
 11
195.241348
 21
89.631729
 31
0.0
210
0.0
220
0.0
230
1.0
  0
LINE
  5
19B
100
AcDbEntity
  8
0
370
    35
390
0
 62
     7
 48
0.012506
100
AcDbLine
 10
194.241348
 20
89.600235
 30
0.0
 11
193.741348
 21
89.584488
 31
0.0
210
0.0
220
0.0
230
1.0
  0
LINE
  5
19C
100
AcDbEntity
  8
0
370
    35
390
0
 62
     7
 48
0.012506
100
AcDbLine
 10
192.741348
 20
89.552994
 30
0.0
 11
192.241348
 21
89.537247
 31
0.0
210
0.0
220
0.0
230
1.0
  0
LINE
  5
19D
100
AcDbEntity
  8
0
370
    35
390
0
 62
     7
 48
0.012506
100
AcDbLine
 10
191.241348
 20
89.505753
 30
0.0
 11
190.741348
 21
89.490005
 31
0.0
210
0.0
220
0.0
230
1.0
  0
LINE
  5
19E
100
AcDbEntity
  8
0
370
    35
390
0
 62
     7
 48
0.012506
100
AcDbLine
 10
195.741348
 20
82.315689
 30
0.0
 11
195.241348
 21
82.331436
 31
0.0
210
0.0
220
0.0
230
1.0
  0
LINE
  5
19F
100
AcDbEntity
  8
0
370
    35
390
0
 62
     7
 48
0.012506
100
AcDbLine
 10
194.241348
 20
82.36293
 30
0.0
 11
193.741348
 21
82.378677
 31
0.0
210
0.0
220
0.0
230
1.0
  0
LINE
  5
1A0
100
AcDbEntity
  8
0
370
    35
390
0
 62
     7
 48
0.012506
100
AcDbLine
 10
192.741348
 20
82.410172
 30
0.0
 11
192.241348
 21
82.425919
 31
0.0
210
0.0
220
0.0
230
1.0
  0
LINE
  5
1A1
100
AcDbEntity
  8
0
370
    35
390
0
 62
     7
 48
0.012506
100
AcDbLine
 10
191.241348
 20
82.457413
 30
0.0
 11
190.741348
 21
82.47316
 31
0.0
210
0.0
220
0.0
230
1.0
  0
LINE
  5
1A2
100
AcDbEntity
  8
0
370
    35
390
0
 62
     7
 48
0.086293
100
AcDbLine
 10
190.741348
 20
89.99025
 30
0.0
 11
187.291351
 21
89.881577
 31
0.0
210
0.0
220
0.0
230
1.0
  0
LINE
  5
1A3
100
AcDbEntity
  8
0
370
    35
390
0
 62
     7
 48
0.025012
100
AcDbLine
 10
192.241348
 20
90.037491
 30
0.0
 11
191.241348
 21
90.005997
 31
0.0
210
0.0
220
0.0
230
1.0
  0
LINE
  5
1A4
100
AcDbEntity
  8
0
370
    35
390
0
 62
     7
 48
0.025012
100
AcDbLine
 10
193.741348
 20
90.084732
 30
0.0
 11
192.741348
 21
90.053238
 31
0.0
210
0.0
220
0.0
230
1.0
  0
LINE
  5
1A5
100
AcDbEntity
  8
0
370
    35
390
0
 62
     7
 48
0.025012
100
AcDbLine
 10
195.241348
 20
90.131973
 30
0.0
 11
194.241348
 21
90.100479
 31
0.0
210
0.0
220
0.0
230
1.0
  0
LINE
  5
1A6
100
AcDbEntity
  8
0
370
    35
390
0
 62
     7
 48
0.025012
100
AcDbLine
 10
196.741348
 20
90.179214
 30
0.0
 11
195.741348
 21
90.14772
 31
0.0
210
0.0
220
0.0
230
1.0
  0
LINE
  5
1A7
100
AcDbEntity
  8
0
370
    35
390
0
 62
     7
 48
0.025012
100
AcDbLine
 10
196.741348
 20
81.783951
 30
0.0
 11
195.741348
 21
81.815445
 31
0.0
210
0.0
220
0.0
230
1.0
  0
LINE
  5
1A8
100
AcDbEntity
  8
0
370
    35
390
0
 62
     7
 48
0.025012
100
AcDbLine
 10
195.241348
 20
81.831192
 30
0.0
 11
194.241348
 21
81.862686
 31
0.0
210
0.0
220
0.0
230
1.0
  0
LINE
  5
1A9
100
AcDbEntity
  8
0
370
    35
390
0
 62
     7
 48
0.025012
100
AcDbLine
 10
193.741348
 20
81.878433
 30
0.0
 11
192.741348
 21
81.909927
 31
0.0
210
0.0
220
0.0
230
1.0
  0
LINE
  5
1AA
100
AcDbEntity
  8
0
370
    35
390
0
 62
     7
 48
0.025012
100
AcDbLine
 10
192.241348
 20
81.925674
 30
0.0
 11
191.241348
 21
81.957169
 31
0.0
210
0.0
220
0.0
230
1.0
  0
LINE
  5
1AB
100
AcDbEntity
  8
0
370
    35
390
0
 62
     7
 48
0.086293
100
AcDbLine
 10
190.741348
 20
81.972916
 30
0.0
 11
187.291351
 21
82.081589
 31
0.0
210
0.0
220
0.0
230
1.0
  0
LINE
  5
1AC
100
AcDbEntity
  8
0
370
    35
390
0
 62
     7
 48
0.201221
100
AcDbLine
 10
191.241348
 20
90.005997
 30
0.0
 11
191.241348
 21
81.957169
 31
0.0
210
0.0
220
0.0
230
1.0
  0
LINE
  5
1AD
100
AcDbEntity
  8
0
370
    35
390
0
 62
     7
 48
0.200433
100
AcDbLine
 10
190.741348
 20
89.99025
 30
0.0
 11
190.741348
 21
81.972916
 31
0.0
210
0.0
220
0.0
230
1.0
  0
LINE
  5
1AE
100
AcDbEntity
  8
0
370
    35
390
0
 62
     7
 48
0.202795
100
AcDbLine
 10
192.241348
 20
90.037491
 30
0.0
 11
192.241348
 21
81.925674
 31
0.0
210
0.0
220
0.0
230
1.0
  0
LINE
  5
1AF
100
AcDbEntity
  8
0
370
    35
390
0
 62
     7
 48
0.203583
100
AcDbLine
 10
192.741348
 20
90.053238
 30
0.0
 11
192.741348
 21
81.909927
 31
0.0
210
0.0
220
0.0
230
1.0
  0
LINE
  5
1B0
100
AcDbEntity
  8
0
370
    35
390
0
 62
     7
 48
0.205945
100
AcDbLine
 10
194.241348
 20
90.100479
 30
0.0
 11
194.241348
 21
81.862686
 31
0.0
210
0.0
220
0.0
230
1.0
  0
LINE
  5
1B1
100
AcDbEntity
  8
0
370
    35
390
0
 62
     7
 48
0.205157
100
AcDbLine
 10
193.741348
 20
90.084732
 30
0.0
 11
193.741348
 21
81.878433
 31
0.0
210
0.0
220
0.0
230
1.0
  0
LINE
  5
1B2
100
AcDbEntity
  8
0
370
    35
390
0
 62
     7
 48
0.20752
100
AcDbLine
 10
195.241348
 20
90.131973
 30
0.0
 11
195.241348
 21
81.831192
 31
0.0
210
0.0
220
0.0
230
1.0
  0
LINE
  5
1B3
100
AcDbEntity
  8
0
370
    35
390
0
 62
     7
 48
0.028764
100
AcDbLine
 10
198.391357
 20
90.231186
 30
0.0
 11
197.241348
 21
90.194962
 31
0.0
210
0.0
220
0.0
230
1.0
  0
LINE
  5
1B4
100
AcDbEntity
  8
0
370
    35
390
0
 62
     7
 48
0.210669
100
AcDbLine
 10
197.241348
 20
90.194962
 30
0.0
 11
197.241348
 21
81.768204
 31
0.0
210
0.0
220
0.0
230
1.0
  0
LINE
  5
1B5
100
AcDbEntity
  8
0
370
    35
390
0
 62
     7
 48
0.028764
100
AcDbLine
 10
198.391357
 20
81.731979
 30
0.0
 11
197.241348
 21
81.768204
 31
0.0
210
0.0
220
0.0
230
1.0
  0
LINE
  5
1B6
100
AcDbEntity
  8
0
370
    35
390
0
 62
     7
 48
0.209882
100
AcDbLine
 10
196.741348
 20
90.179214
 30
0.0
 11
196.741348
 21
81.783951
 31
0.0
210
0.0
220
0.0
230
1.0
  0
LINE
  5
1B7
100
AcDbEntity
  8
0
370
    35
390
0
 62
     7
 48
0.208307
100
AcDbLine
 10
195.741348
 20
90.14772
 30
0.0
 11
195.741348
 21
81.815445
 31
0.0
210
0.0
220
0.0
230
1.0
  0
LINE
  5
1B8
100
AcDbEntity
  8
0
370
    35
390
0
 62
     7
 48
0.012506
100
AcDbLine
 10
306.541351
 20
82.457413
 30
0.0
 11
307.041351
 21
82.47316
 31
0.0
210
0.0
220
0.0
230
1.0
  0
LINE
  5
1B9
100
AcDbEntity
  8
0
370
    35
390
0
 62
     7
 48
0.012506
100
AcDbLine
 10
197.241348
 20
89.694717
 30
0.0
 11
196.741348
 21
89.67897
 31
0.0
210
0.0
220
0.0
230
1.0
  0
LINE
  5
1BA
100
AcDbEntity
  8
0
370
    35
390
0
 62
     7
 48
0.012506
100
AcDbLine
 10
305.041351
 20
82.410172
 30
0.0
 11
305.541351
 21
82.425919
 31
0.0
210
0.0
220
0.0
230
1.0
  0
LINE
  5
1BB
100
AcDbEntity
  8
0
370
    35
390
0
 62
     7
 48
0.012506
100
AcDbLine
 10
303.541351
 20
82.36293
 30
0.0
 11
304.041351
 21
82.378677
 31
0.0
210
0.0
220
0.0
230
1.0
  0
LINE
  5
1BC
100
AcDbEntity
  8
0
370
    35
390
0
 62
     7
 48
0.012506
100
AcDbLine
 10
302.041351
 20
82.315689
 30
0.0
 11
302.541351
 21
82.331436
 31
0.0
210
0.0
220
0.0
230
1.0
  0
LINE
  5
1BD
100
AcDbEntity
  8
0
370
    35
390
0
 62
     7
 48
0.012506
100
AcDbLine
 10
306.541351
 20
89.505753
 30
0.0
 11
307.041351
 21
89.490005
 31
0.0
210
0.0
220
0.0
230
1.0
  0
LINE
  5
1BE
100
AcDbEntity
  8
0
370
    35
390
0
 62
     7
 48
0.012506
100
AcDbLine
 10
305.041351
 20
89.552994
 30
0.0
 11
305.541351
 21
89.537247
 31
0.0
210
0.0
220
0.0
230
1.0
  0
LINE
  5
1BF
100
AcDbEntity
  8
0
370
    35
390
0
 62
     7
 48
0.012506
100
AcDbLine
 10
303.541351
 20
89.600235
 30
0.0
 11
304.041351
 21
89.584488
 31
0.0
210
0.0
220
0.0
230
1.0
  0
LINE
  5
1C0
100
AcDbEntity
  8
0
370
    35
390
0
 62
     7
 48
0.012506
100
AcDbLine
 10
197.241348
 20
82.268448
 30
0.0
 11
196.741348
 21
82.284195
 31
0.0
210
0.0
220
0.0
230
1.0
  0
LINE
  5
1C1
100
AcDbEntity
  8
0
370
    35
390
0
 62
     7
 48
0.012506
100
AcDbLine
 10
302.041351
 20
89.647476
 30
0.0
 11
302.541351
 21
89.631729
 31
0.0
210
0.0
220
0.0
230
1.0
  0
LINE
  5
1C2
100
AcDbEntity
  8
0
370
    35
390
0
 62
     7
 48
0.195
100
AcDbLine
 10
187.291351
 20
89.881577
 30
0.0
 11
187.291351
 21
82.081589
 31
0.0
210
0.0
220
0.0
230
1.0
  0
LINE
  5
1C3
100
AcDbEntity
  8
0
370
    35
390
0
 62
     7
 48
0.005
100
AcDbLine
 10
199.19136
 20
78.981583
 30
0.0
 11
199.19136
 21
78.781601
 31
0.0
210
0.0
220
0.0
230
1.0
  0
LINE
  5
1C4
100
AcDbEntity
  8
0
370
    35
390
0
 62
     7
 48
0.340865
100
AcDbLine
 10
327.550873
 20
88.881577
 30
0.0
 11
341.185486
 21
88.881577
 31
0.0
210
0.0
220
0.0
230
1.0
  0
LINE
  5
1C5
100
AcDbEntity
  8
0
370
    35
390
0
 62
     7
 48
0.301219
100
AcDbLine
 10
187.291351
 20
88.881577
 30
0.0
 11
175.242599
 21
88.881577
 31
0.0
210
0.0
220
0.0
230
1.0
  0
LINE
  5
1C6
100
AcDbEntity
  8
0
370
    35
390
0
 62
     7
 48
0.301218
100
AcDbLine
 10
310.491364
 20
83.081589
 30
0.0
 11
322.5401
 21
83.081589
 31
0.0
210
0.0
220
0.0
230
1.0
  0
LINE
  5
1C7
100
AcDbEntity
  8
0
370
    35
390
0
 62
     7
 48
0.000125
100
AcDbLine
 10
199.19136
 20
99.17659
 30
0.0
 11
199.19635
 21
99.17659
 31
0.0
210
0.0
220
0.0
230
1.0
  0
LINE
  5
1C8
100
AcDbEntity
  8
0
370
    35
390
0
 62
     7
 48
0.05
100
AcDbLine
 10
306.391357
 20
78.781601
 30
0.0
 11
308.391357
 21
78.781601
 31
0.0
210
0.0
220
0.0
230
1.0
  0
LINE
  5
1C9
100
AcDbEntity
  8
0
370
    35
390
0
 62
     7
 48
0.05
100
AcDbLine
 10
306.391357
 20
77.981583
 30
0.0
 11
308.391357
 21
77.981583
 31
0.0
210
0.0
220
0.0
230
1.0
  0
LINE
  5
1CA
100
AcDbEntity
  8
0
370
    35
390
0
 62
     7
 48
0.175
100
AcDbLine
 10
191.391357
 20
77.981583
 30
0.0
 11
198.391357
 21
77.981583
 31
0.0
210
0.0
220
0.0
230
1.0
  0
LINE
  5
1CB
100
AcDbEntity
  8
0
370
    35
390
0
 62
     7
 48
0.05
100
AcDbLine
 10
189.391357
 20
78.781601
 30
0.0
 11
191.391357
 21
78.781601
 31
0.0
210
0.0
220
0.0
230
1.0
  0
LINE
  5
1CC
100
AcDbEntity
  8
0
370
    35
390
0
 62
     7
 48
0.000125
100
AcDbLine
 10
299.391357
 20
91.981583
 30
0.0
 11
299.391357
 21
91.976578
 31
0.0
210
0.0
220
0.0
230
1.0
  0
LINE
  5
1CD
100
AcDbEntity
  8
0
370
    35
390
0
 62
     7
 48
0.025
100
AcDbLine
 10
298.591339
 20
77.981583
 30
0.0
 11
298.591339
 21
78.981583
 31
0.0
210
0.0
220
0.0
230
1.0
  0
LINE
  5
1CE
100
AcDbEntity
  8
0
370
    35
390
0
 62
     7
 48
0.025
100
AcDbLine
 10
299.391357
 20
78.981583
 30
0.0
 11
299.391357
 21
77.981583
 31
0.0
210
0.0
220
0.0
230
1.0
  0
LINE
  5
1CF
100
AcDbEntity
  8
0
370
    35
390
0
 62
     7
 48
0.000124
100
AcDbLine
 10
298.586365
 20
92.781601
 30
0.0
 11
298.591339
 21
92.781601
 31
0.0
210
0.0
220
0.0
230
1.0
  0
LINE
  5
1D0
100
AcDbEntity
  8
0
370
    35
390
0
 62
     7
 48
0.000124
100
AcDbLine
 10
298.586365
 20
91.981583
 30
0.0
 11
298.591339
 21
91.981583
 31
0.0
210
0.0
220
0.0
230
1.0
  0
LINE
  5
1D1
100
AcDbEntity
  8
0
370
    35
390
0
 62
     7
 48
0.000125
100
AcDbLine
 10
298.591339
 20
91.976578
 30
0.0
 11
298.591339
 21
91.981583
 31
0.0
210
0.0
220
0.0
230
1.0
  0
LINE
  5
1D2
100
AcDbEntity
  8
0
370
    35
390
0
 62
     7
 48
0.02
100
AcDbLine
 10
298.591339
 20
77.981583
 30
0.0
 11
299.391357
 21
77.981583
 31
0.0
210
0.0
220
0.0
230
1.0
  0
LINE
  5
1D3
100
AcDbEntity
  8
0
370
    35
390
0
 62
     7
 48
0.020125
100
AcDbLine
 10
198.391357
 20
78.981583
 30
0.0
 11
199.19635
 21
78.981583
 31
0.0
210
0.0
220
0.0
230
1.0
  0
LINE
  5
1D4
100
AcDbEntity
  8
0
370
    35
390
0
 62
     7
 48
0.02
100
AcDbLine
 10
298.586365
 20
91.981583
 30
0.0
 11
298.586365
 21
92.781601
 31
0.0
210
0.0
220
0.0
230
1.0
  0
LINE
  5
1D5
100
AcDbEntity
  8
0
370
    35
390
0
 62
     7
 48
0.000125
100
AcDbLine
 10
298.586365
 20
91.981583
 30
0.0
 11
298.586365
 21
91.976578
 31
0.0
210
0.0
220
0.0
230
1.0
  0
LINE
  5
1D6
100
AcDbEntity
  8
0
370
    35
390
0
 62
     7
 48
0.000125
100
AcDbLine
 10
199.19136
 20
92.781601
 30
0.0
 11
199.19635
 21
92.781601
 31
0.0
210
0.0
220
0.0
230
1.0
  0
LINE
  5
1D7
100
AcDbEntity
  8
0
370
    35
390
0
 62
     7
100
AcDbLine
 10
298.586365
 20
92.781601
 30
0.0
 11
199.19635
 21
92.781601
 31
0.0
210
0.0
220
0.0
230
1.0
  0
LINE
  5
1D8
100
AcDbEntity
  8
0
370
    35
390
0
 62
     7
100
AcDbLine
 10
199.19635
 20
78.981583
 30
0.0
 11
298.586365
 21
78.981583
 31
0.0
210
0.0
220
0.0
230
1.0
  0
LINE
  5
1D9
100
AcDbEntity
  8
0
370
    35
390
0
 62
     7
 48
0.324875
100
AcDbLine
 10
198.391357
 20
91.976578
 30
0.0
 11
198.391357
 21
78.981583
 31
0.0
210
0.0
220
0.0
230
1.0
  0
LINE
  5
1DA
100
AcDbEntity
  8
0
370
    35
390
0
 62
     7
 48
0.02
100
AcDbLine
 10
199.19635
 20
91.981583
 30
0.0
 11
199.19635
 21
92.781601
 31
0.0
210
0.0
220
0.0
230
1.0
  0
LINE
  5
1DB
100
AcDbEntity
  8
0
370
    35
390
0
 62
     7
 48
0.020125
100
AcDbLine
 10
199.19635
 20
91.976578
 30
0.0
 11
198.391357
 21
91.976578
 31
0.0
210
0.0
220
0.0
230
1.0
  0
LINE
  5
1DC
100
AcDbEntity
  8
0
370
    35
390
0
 62
     7
 48
0.000125
100
AcDbLine
 10
199.19635
 20
91.981583
 30
0.0
 11
199.19635
 21
91.976578
 31
0.0
210
0.0
220
0.0
230
1.0
  0
LINE
  5
1DD
100
AcDbEntity
  8
0
370
    35
390
0
 62
     7
 48
0.020125
100
AcDbLine
 10
298.586365
 20
91.976578
 30
0.0
 11
299.391357
 21
91.976578
 31
0.0
210
0.0
220
0.0
230
1.0
  0
LINE
  5
1DE
100
AcDbEntity
  8
0
370
    35
390
0
 62
     7
 48
0.324875
100
AcDbLine
 10
299.391357
 20
91.976578
 30
0.0
 11
299.391357
 21
78.981583
 31
0.0
210
0.0
220
0.0
230
1.0
  0
LINE
  5
1DF
100
AcDbEntity
  8
0
370
    35
390
0
 62
     7
 48
0.020125
100
AcDbLine
 10
298.586365
 20
78.981583
 30
0.0
 11
299.391357
 21
78.981583
 31
0.0
210
0.0
220
0.0
230
1.0
  0
LINE
  5
1E0
100
AcDbEntity
  8
0
370
    35
390
0
 62
     7
 48
0.000125
100
AcDbLine
 10
199.19136
 20
91.981583
 30
0.0
 11
199.19635
 21
91.981583
 31
0.0
210
0.0
220
0.0
230
1.0
  0
LINE
  5
1E1
100
AcDbEntity
  8
0
370
    35
390
0
 62
     7
 48
0.175
100
AcDbLine
 10
198.391357
 20
78.781601
 30
0.0
 11
191.391357
 21
78.781601
 31
0.0
210
0.0
220
0.0
230
1.0
  0
LINE
  5
1E2
100
AcDbEntity
  8
0
370
    35
390
0
 62
     7
 48
0.000125
100
AcDbLine
 10
198.391357
 20
91.981583
 30
0.0
 11
198.391357
 21
91.976578
 31
0.0
210
0.0
220
0.0
230
1.0
  0
LINE
  5
1E3
100
AcDbEntity
  8
0
370
    35
390
0
 62
     7
 48
0.005
100
AcDbLine
 10
198.391357
 20
78.981583
 30
0.0
 11
198.391357
 21
78.781601
 31
0.0
210
0.0
220
0.0
230
1.0
  0
LINE
  5
1E4
100
AcDbEntity
  8
0
370
    35
390
0
 62
     7
 48
0.02
100
AcDbLine
 10
199.19136
 20
77.981583
 30
0.0
 11
198.391357
 21
77.981583
 31
0.0
210
0.0
220
0.0
230
1.0
  0
LINE
  5
1E5
100
AcDbEntity
  8
0
370
    35
390
0
 62
     7
 48
0.020123
100
AcDbLine
 10
199.19136
 20
78.786484
 30
0.0
 11
199.19136
 21
77.981583
 31
0.0
210
0.0
220
0.0
230
1.0
  0
LINE
  5
1E6
100
AcDbEntity
  8
0
370
    35
390
0
 62
     7
 48
0.02
100
AcDbLine
 10
189.391357
 20
77.981583
 30
0.0
 11
189.391357
 21
78.781601
 31
0.0
210
0.0
220
0.0
230
1.0
  0
LINE
  5
1E7
100
AcDbEntity
  8
0
370
    35
390
0
 62
     7
 48
0.05
100
AcDbLine
 10
189.391357
 20
77.981583
 30
0.0
 11
191.391357
 21
77.981583
 31
0.0
210
0.0
220
0.0
230
1.0
  0
LINE
  5
1E8
100
AcDbEntity
  8
0
370
    35
390
0
 62
     7
 48
0.02
100
AcDbLine
 10
308.391357
 20
77.981583
 30
0.0
 11
308.391357
 21
78.781601
 31
0.0
210
0.0
220
0.0
230
1.0
  0
LINE
  5
1E9
100
AcDbEntity
  8
0
370
    35
390
0
 62
     7
 48
0.175
100
AcDbLine
 10
306.391357
 20
78.781601
 30
0.0
 11
299.391357
 21
78.781601
 31
0.0
210
0.0
220
0.0
230
1.0
  0
LINE
  5
1EA
100
AcDbEntity
  8
0
370
    35
390
0
 62
     7
 48
0.175
100
AcDbLine
 10
306.391357
 20
77.981583
 30
0.0
 11
299.391357
 21
77.981583
 31
0.0
210
0.0
220
0.0
230
1.0
  0
LINE
  5
1EB
100
AcDbEntity
  8
0
370
    35
390
0
 62
     7
 48
0.01
100
AcDbLine
 10
200.291351
 20
78.981583
 30
0.0
 11
200.291351
 21
78.581589
 31
0.0
210
0.0
220
0.0
230
1.0
  0
LINE
  5
1EC
100
AcDbEntity
  8
0
370
    35
390
0
 62
     7
 48
0.01
100
AcDbLine
 10
199.291351
 20
78.581589
 30
0.0
 11
199.291351
 21
78.981583
 31
0.0
210
0.0
220
0.0
230
1.0
  0
LINE
  5
1ED
100
AcDbEntity
  8
0
370
    35
390
0
 62
     7
 48
0.00125
100
AcDbLine
 10
200.341354
 20
77.581589
 30
0.0
 11
200.291351
 21
77.581589
 31
0.0
210
0.0
220
0.0
230
1.0
  0
LINE
  5
1EE
100
AcDbEntity
  8
0
370
    35
390
0
 62
     7
100
AcDbLine
 10
297.441345
 20
77.581589
 30
0.0
 11
200.341354
 21
77.581589
 31
0.0
210
0.0
220
0.0
230
1.0
  0
LINE
  5
1EF
100
AcDbEntity
  8
0
370
    35
390
0
 62
     7
 48
0.025
100
AcDbLine
 10
200.341354
 20
77.581589
 30
0.0
 11
200.341354
 21
78.581589
 31
0.0
210
0.0
220
0.0
230
1.0
  0
LINE
  5
1F0
100
AcDbEntity
  8
0
370
    35
390
0
 62
     7
 48
0.01
100
AcDbLine
 10
200.341354
 20
78.581589
 30
0.0
 11
200.341354
 21
78.981583
 31
0.0
210
0.0
220
0.0
230
1.0
  0
LINE
  5
1F1
100
AcDbEntity
  8
0
370
    35
390
0
 62
     7
 48
0.00125
100
AcDbLine
 10
297.441345
 20
77.581589
 30
0.0
 11
297.491364
 21
77.581589
 31
0.0
210
0.0
220
0.0
230
1.0
  0
LINE
  5
1F2
100
AcDbEntity
  8
0
370
    35
390
0
 62
     7
 48
0.01
100
AcDbLine
 10
297.441345
 20
78.581589
 30
0.0
 11
297.441345
 21
78.981583
 31
0.0
210
0.0
220
0.0
230
1.0
  0
LINE
  5
1F3
100
AcDbEntity
  8
0
370
    35
390
0
 62
     7
 48
0.025
100
AcDbLine
 10
297.441345
 20
77.581589
 30
0.0
 11
297.441345
 21
78.581589
 31
0.0
210
0.0
220
0.0
230
1.0
  0
LINE
  5
1F4
100
AcDbEntity
  8
0
370
    35
390
0
 62
     7
 48
0.01
100
AcDbLine
 10
297.491364
 20
78.581589
 30
0.0
 11
297.491364
 21
78.981583
 31
0.0
210
0.0
220
0.0
230
1.0
  0
LINE
  5
1F5
100
AcDbEntity
  8
0
370
    35
390
0
 62
     7
 48
0.01
100
AcDbLine
 10
298.491364
 20
78.581589
 30
0.0
 11
298.491364
 21
78.981583
 31
0.0
210
0.0
220
0.0
230
1.0
  0
LINE
  5
1F6
100
AcDbEntity
  8
0
370
    35
390
0
 62
     7
 48
0.00125
100
AcDbLine
 10
200.341354
 20
78.581589
 30
0.0
 11
200.291351
 21
78.581589
 31
0.0
210
0.0
220
0.0
230
1.0
  0
LINE
  5
1F7
100
AcDbEntity
  8
0
370
    35
390
0
 62
     7
 48
0.00125
100
AcDbLine
 10
297.491364
 20
78.581589
 30
0.0
 11
297.441345
 21
78.581589
 31
0.0
210
0.0
220
0.0
230
1.0
  0
LINE
  5
1F8
100
AcDbEntity
  8
0
370
    35
390
0
 62
     7
 48
0.0125
100
AcDbLine
 10
209.472122
 20
82.217972
 30
0.0
 11
209.825668
 21
81.864426
 31
0.0
210
0.0
220
0.0
230
1.0
  0
LINE
  5
1F9
100
AcDbEntity
  8
0
370
    35
390
0
 62
     7
 48
0.0125
100
AcDbLine
 10
209.754959
 20
82.500839
 30
0.0
 11
210.108505
 21
82.147263
 31
0.0
210
0.0
220
0.0
230
1.0
  0
LINE
  5
1FA
100
AcDbEntity
  8
0
370
    35
390
0
 62
     7
 48
0.0125
100
AcDbLine
 10
209.472122
 20
80.945206
 30
0.0
 11
209.825668
 21
81.298752
 31
0.0
210
0.0
220
0.0
230
1.0
  0
LINE
  5
1FB
100
AcDbEntity
  8
0
370
    35
390
0
 62
     7
 48
0.0125
100
AcDbLine
 10
209.754959
 20
80.662338
 30
0.0
 11
210.108505
 21
81.015915
 31
0.0
210
0.0
220
0.0
230
1.0
  0
LINE
  5
1FC
100
AcDbEntity
  8
0
370
    35
390
0
 62
     7
 48
0.012501
100
AcDbLine
 10
210.674194
 20
82.147263
 30
0.0
 11
211.027756
 21
82.500839
 31
0.0
210
0.0
220
0.0
230
1.0
  0
LINE
  5
1FD
100
AcDbEntity
  8
0
370
    35
390
0
 62
     7
 48
0.0125
100
AcDbLine
 10
210.957047
 20
81.864426
 30
0.0
 11
211.310593
 21
82.217972
 31
0.0
210
0.0
220
0.0
230
1.0
  0
LINE
  5
1FE
100
AcDbEntity
  8
0
370
    35
390
0
 62
     7
 48
0.0125
100
AcDbLine
 10
210.957047
 20
81.298752
 30
0.0
 11
211.310593
 21
80.945206
 31
0.0
210
0.0
220
0.0
230
1.0
  0
LINE
  5
1FF
100
AcDbEntity
  8
0
370
    35
390
0
 62
     7
 48
0.012501
100
AcDbLine
 10
210.674194
 20
81.015915
 30
0.0
 11
211.027756
 21
80.662338
 31
0.0
210
0.0
220
0.0
230
1.0
  0
LINE
  5
200
100
AcDbEntity
  8
0
370
    35
390
0
 62
     7
 48
0.01
100
AcDbLine
 10
211.027756
 20
82.500839
 30
0.0
 11
211.310593
 21
82.217972
 31
0.0
210
0.0
220
0.0
230
1.0
  0
LINE
  5
201
100
AcDbEntity
  8
0
370
    35
390
0
 62
     7
 48
0.01
100
AcDbLine
 10
209.472122
 20
80.945206
 30
0.0
 11
209.754959
 21
80.662338
 31
0.0
210
0.0
220
0.0
230
1.0
  0
LINE
  5
202
100
AcDbEntity
  8
0
370
    35
390
0
 62
     7
 48
0.01
100
AcDbLine
 10
209.472122
 20
82.217972
 30
0.0
 11
209.754959
 21
82.500839
 31
0.0
210
0.0
220
0.0
230
1.0
  0
LINE
  5
203
100
AcDbEntity
  8
0
370
    35
390
0
 62
     7
 48
0.01
100
AcDbLine
 10
211.027756
 20
80.662338
 30
0.0
 11
211.310593
 21
80.945206
 31
0.0
210
0.0
220
0.0
230
1.0
  0
LINE
  5
204
100
AcDbEntity
  8
0
370
    35
390
0
 62
     7
 48
0.0125
100
AcDbLine
 10
285.754974
 20
82.500839
 30
0.0
 11
286.108521
 21
82.147263
 31
0.0
210
0.0
220
0.0
230
1.0
  0
LINE
  5
205
100
AcDbEntity
  8
0
370
    35
390
0
 62
     7
 48
0.0125
100
AcDbLine
 10
285.472107
 20
82.217972
 30
0.0
 11
285.825653
 21
81.864426
 31
0.0
210
0.0
220
0.0
230
1.0
  0
LINE
  5
206
100
AcDbEntity
  8
0
370
    35
390
0
 62
     7
 48
0.0125
100
AcDbLine
 10
285.472107
 20
80.945206
 30
0.0
 11
285.825653
 21
81.298752
 31
0.0
210
0.0
220
0.0
230
1.0
  0
LINE
  5
207
100
AcDbEntity
  8
0
370
    35
390
0
 62
     7
 48
0.0125
100
AcDbLine
 10
285.754974
 20
80.662338
 30
0.0
 11
286.108521
 21
81.015915
 31
0.0
210
0.0
220
0.0
230
1.0
  0
LINE
  5
208
100
AcDbEntity
  8
0
370
    35
390
0
 62
     7
 48
0.0125
100
AcDbLine
 10
286.674194
 20
82.147263
 30
0.0
 11
287.02774
 21
82.500839
 31
0.0
210
0.0
220
0.0
230
1.0
  0
LINE
  5
209
100
AcDbEntity
  8
0
370
    35
390
0
 62
     7
 48
0.0125
100
AcDbLine
 10
286.957031
 20
81.864426
 30
0.0
 11
287.310577
 21
82.217972
 31
0.0
210
0.0
220
0.0
230
1.0
  0
LINE
  5
20A
100
AcDbEntity
  8
0
370
    35
390
0
 62
     7
 48
0.0125
100
AcDbLine
 10
286.957031
 20
81.298752
 30
0.0
 11
287.310577
 21
80.945206
 31
0.0
210
0.0
220
0.0
230
1.0
  0
LINE
  5
20B
100
AcDbEntity
  8
0
370
    35
390
0
 62
     7
 48
0.0125
100
AcDbLine
 10
286.674194
 20
81.015915
 30
0.0
 11
287.02774
 21
80.662338
 31
0.0
210
0.0
220
0.0
230
1.0
  0
LINE
  5
20C
100
AcDbEntity
  8
0
370
    35
390
0
 62
     7
 48
0.01
100
AcDbLine
 10
287.02774
 20
82.500839
 30
0.0
 11
287.310577
 21
82.217972
 31
0.0
210
0.0
220
0.0
230
1.0
  0
LINE
  5
20D
100
AcDbEntity
  8
0
370
    35
390
0
 62
     7
 48
0.010001
100
AcDbLine
 10
285.472107
 20
80.945206
 30
0.0
 11
285.754974
 21
80.662338
 31
0.0
210
0.0
220
0.0
230
1.0
  0
LINE
  5
20E
100
AcDbEntity
  8
0
370
    35
390
0
 62
     7
 48
0.010001
100
AcDbLine
 10
285.472107
 20
82.217972
 30
0.0
 11
285.754974
 21
82.500839
 31
0.0
210
0.0
220
0.0
230
1.0
  0
LINE
  5
20F
100
AcDbEntity
  8
0
370
    35
390
0
 62
     7
 48
0.01
100
AcDbLine
 10
287.02774
 20
80.662338
 30
0.0
 11
287.310577
 21
80.945206
 31
0.0
210
0.0
220
0.0
230
1.0
  0
LINE
  5
210
100
AcDbEntity
  8
0
370
    35
390
0
 62
     7
 48
0.495
100
AcDbLine
 10
131.933075
 20
235.881577
 30
0.0
 11
131.933075
 21
216.081589
 31
0.0
210
0.0
220
0.0
230
1.0
  0
LINE
  5
211
100
AcDbEntity
  8
0
370
    35
390
0
 62
     7
 48
0.495
100
AcDbLine
 10
123.933075
 20
216.081589
 30
0.0
 11
123.933075
 21
235.881577
 31
0.0
210
0.0
220
0.0
230
1.0
  0
LINE
  5
212
100
AcDbEntity
  8
0
370
    35
390
0
 62
     7
 48
0.1
100
AcDbLine
 10
35.183075
 20
222.981613
 30
0.0
 11
39.183075
 21
222.981613
 31
0.0
210
0.0
220
0.0
230
1.0
  0
LINE
  5
213
100
AcDbEntity
  8
0
370
    35
390
0
 62
     7
 48
0.1
100
AcDbLine
 10
35.183075
 20
223.481613
 30
0.0
 11
39.183075
 21
223.481613
 31
0.0
210
0.0
220
0.0
230
1.0
  0
LINE
  5
214
100
AcDbEntity
  8
0
370
    35
390
0
 62
     7
 48
0.1
100
AcDbLine
 10
35.183075
 20
223.981613
 30
0.0
 11
39.183075
 21
223.981613
 31
0.0
210
0.0
220
0.0
230
1.0
  0
LINE
  5
215
100
AcDbEntity
  8
0
370
    35
390
0
 62
     7
 48
0.1
100
AcDbLine
 10
35.183075
 20
224.481613
 30
0.0
 11
39.183075
 21
224.481613
 31
0.0
210
0.0
220
0.0
230
1.0
  0
LINE
  5
216
100
AcDbEntity
  8
0
370
    35
390
0
 62
     7
 48
0.1
100
AcDbLine
 10
35.183075
 20
224.981613
 30
0.0
 11
39.183075
 21
224.981613
 31
0.0
210
0.0
220
0.0
230
1.0
  0
LINE
  5
217
100
AcDbEntity
  8
0
370
    35
390
0
 62
     7
 48
0.1
100
AcDbLine
 10
35.183075
 20
225.481613
 30
0.0
 11
39.183075
 21
225.481613
 31
0.0
210
0.0
220
0.0
230
1.0
  0
LINE
  5
218
100
AcDbEntity
  8
0
370
    35
390
0
 62
     7
100
AcDbLine
 10
68.183075
 20
215.981613
 30
0.0
 11
68.183075
 21
235.981613
 31
0.0
210
0.0
220
0.0
230
1.0
  0
LINE
  5
219
100
AcDbEntity
  8
0
370
    35
390
0
 62
     7
 48
0.1
100
AcDbLine
 10
35.183075
 20
225.981613
 30
0.0
 11
39.183075
 21
225.981613
 31
0.0
210
0.0
220
0.0
230
1.0
  0
LINE
  5
21A
100
AcDbEntity
  8
0
370
    35
390
0
 62
     7
 48
0.1
100
AcDbLine
 10
35.183075
 20
226.481613
 30
0.0
 11
39.183075
 21
226.481613
 31
0.0
210
0.0
220
0.0
230
1.0
  0
LINE
  5
21B
100
AcDbEntity
  8
0
370
    35
390
0
 62
     7
 48
0.1
100
AcDbLine
 10
35.183075
 20
226.981613
 30
0.0
 11
39.183075
 21
226.981613
 31
0.0
210
0.0
220
0.0
230
1.0
  0
LINE
  5
21C
100
AcDbEntity
  8
0
370
    35
390
0
 62
     7
 48
0.1
100
AcDbLine
 10
35.183075
 20
227.481613
 30
0.0
 11
39.183075
 21
227.481613
 31
0.0
210
0.0
220
0.0
230
1.0
  0
LINE
  5
21D
100
AcDbEntity
  8
0
370
    35
390
0
 62
     7
 48
0.1
100
AcDbLine
 10
35.183075
 20
227.981613
 30
0.0
 11
39.183075
 21
227.981613
 31
0.0
210
0.0
220
0.0
230
1.0
  0
LINE
  5
21E
100
AcDbEntity
  8
0
370
    35
390
0
 62
     7
 48
0.1
100
AcDbLine
 10
35.183075
 20
228.481613
 30
0.0
 11
39.183075
 21
228.481613
 31
0.0
210
0.0
220
0.0
230
1.0
  0
LINE
  5
21F
100
AcDbEntity
  8
0
370
    35
390
0
 62
     7
 48
0.1
100
AcDbLine
 10
35.183075
 20
228.981613
 30
0.0
 11
39.183075
 21
228.981613
 31
0.0
210
0.0
220
0.0
230
1.0
  0
LINE
  5
220
100
AcDbEntity
  8
0
370
    35
390
0
 62
     7
 48
0.152069
100
AcDbLine
 10
34.683075
 20
228.481552
 30
0.0
 11
28.683075
 21
227.481552
 31
0.0
210
0.0
220
0.0
230
1.0
  0
LINE
  5
221
100
AcDbEntity
  8
0
370
    35
390
0
 62
     7
 48
0.152069
100
AcDbLine
 10
34.683075
 20
223.481613
 30
0.0
 11
28.683075
 21
224.481613
 31
0.0
210
0.0
220
0.0
230
1.0
  0
LINE
  5
222
100
AcDbEntity
  8
0
370
    35
390
0
 62
     7
 48
0.075
100
AcDbLine
 10
28.683075
 20
227.481613
 30
0.0
 11
28.683075
 21
224.481613
 31
0.0
210
0.0
220
0.0
230
1.0
  0
LINE
  5
223
100
AcDbEntity
  8
0
370
    35
390
0
 62
     7
 48
0.017678
100
AcDbLine
 10
39.183075
 20
222.481552
 30
0.0
 11
39.683075
 21
222.981552
 31
0.0
210
0.0
220
0.0
230
1.0
  0
LINE
  5
224
100
AcDbEntity
  8
0
370
    35
390
0
 62
     7
 48
0.017678
100
AcDbLine
 10
39.183075
 20
229.481613
 30
0.0
 11
39.683075
 21
228.981613
 31
0.0
210
0.0
220
0.0
230
1.0
  0
LINE
  5
225
100
AcDbEntity
  8
0
370
    35
390
0
 62
     7
 48
0.017678
100
AcDbLine
 10
34.683075
 20
228.981613
 30
0.0
 11
35.183075
 21
229.481613
 31
0.0
210
0.0
220
0.0
230
1.0
  0
LINE
  5
226
100
AcDbEntity
  8
0
370
    35
390
0
 62
     7
 48
0.017678
100
AcDbLine
 10
34.683075
 20
222.981613
 30
0.0
 11
35.183075
 21
222.481613
 31
0.0
210
0.0
220
0.0
230
1.0
  0
LINE
  5
227
100
AcDbEntity
  8
0
370
    35
390
0
 62
     7
 48
0.175
100
AcDbLine
 10
35.183075
 20
229.481613
 30
0.0
 11
35.183075
 21
222.481613
 31
0.0
210
0.0
220
0.0
230
1.0
  0
LINE
  5
228
100
AcDbEntity
  8
0
370
    35
390
0
 62
     7
 48
0.175
100
AcDbLine
 10
39.183075
 20
229.481613
 30
0.0
 11
39.183075
 21
222.481613
 31
0.0
210
0.0
220
0.0
230
1.0
  0
LINE
  5
229
100
AcDbEntity
  8
0
370
    35
390
0
 62
     7
 48
0.1
100
AcDbLine
 10
35.183075
 20
222.481613
 30
0.0
 11
39.183075
 21
222.481613
 31
0.0
210
0.0
220
0.0
230
1.0
  0
LINE
  5
22A
100
AcDbEntity
  8
0
370
    35
390
0
 62
     7
 48
0.1
100
AcDbLine
 10
35.183075
 20
229.481613
 30
0.0
 11
39.183075
 21
229.481613
 31
0.0
210
0.0
220
0.0
230
1.0
  0
LINE
  5
22B
100
AcDbEntity
  8
0
370
    35
390
0
 62
     7
 48
0.098125
100
AcDbLine
 10
35.258057
 20
229.481613
 30
0.0
 11
39.183075
 21
229.481613
 31
0.0
210
0.0
220
0.0
230
1.0
  0
LINE
  5
22C
100
AcDbEntity
  8
0
370
    35
390
0
 62
     7
 48
0.15
100
AcDbLine
 10
34.683075
 20
228.981613
 30
0.0
 11
34.683075
 21
222.981613
 31
0.0
210
0.0
220
0.0
230
1.0
  0
LINE
  5
22D
100
AcDbEntity
  8
0
370
    35
390
0
 62
     7
 48
0.027951
100
AcDbLine
 10
66.183075
 20
221.481613
 30
0.0
 11
67.183075
 21
220.981613
 31
0.0
210
0.0
220
0.0
230
1.0
  0
LINE
  5
22E
100
AcDbEntity
  8
0
370
    35
390
0
 62
     7
 48
0.027951
100
AcDbLine
 10
66.183075
 20
230.481613
 30
0.0
 11
67.183075
 21
230.981613
 31
0.0
210
0.0
220
0.0
230
1.0
  0
LINE
  5
22F
100
AcDbEntity
  8
0
370
    35
390
0
 62
     7
 48
0.225
100
AcDbLine
 10
66.183075
 20
230.481613
 30
0.0
 11
66.183075
 21
221.481613
 31
0.0
210
0.0
220
0.0
230
1.0
  0
LINE
  5
230
100
AcDbEntity
  8
0
370
    35
390
0
 62
     7
 48
0.425
100
AcDbLine
 10
207.183075
 20
234.481613
 30
0.0
 11
207.183075
 21
217.481613
 31
0.0
210
0.0
220
0.0
230
1.0
  0
LINE
  5
231
100
AcDbEntity
  8
0
370
    35
390
0
 62
     7
 48
0.449998
100
AcDbLine
 10
67.183075
 20
234.981552
 30
0.0
 11
67.183075
 21
216.981613
 31
0.0
210
0.0
220
0.0
230
1.0
  0
LINE
  5
232
100
AcDbEntity
  8
0
370
    35
390
0
 62
     7
 48
0.075
100
AcDbLine
 10
67.183075
 20
227.481613
 30
0.0
 11
67.183075
 21
224.481613
 31
0.0
210
0.0
220
0.0
230
1.0
  0
LINE
  5
233
100
AcDbEntity
  8
0
370
    35
390
0
 62
     7
 48
0.15
100
AcDbLine
 10
66.183075
 20
228.981613
 30
0.0
 11
66.183075
 21
222.981613
 31
0.0
210
0.0
220
0.0
230
1.0
  0
LINE
  5
234
100
AcDbEntity
  8
0
370
    35
390
0
 62
     7
100
AcDbLine
 10
161.433075
 20
235.981613
 30
0.0
 11
161.433075
 21
215.981613
 31
0.0
210
0.0
220
0.0
230
1.0
  0
LINE
  5
235
100
AcDbEntity
  8
0
370
    35
390
0
 62
     7
100
AcDbLine
 10
161.433075
 20
235.981613
 30
0.0
 11
205.683075
 21
235.981613
 31
0.0
210
0.0
220
0.0
230
1.0
  0
LINE
  5
236
100
AcDbEntity
  8
0
370
    35
390
0
 62
     7
100
AcDbLine
 10
161.433075
 20
215.981613
 30
0.0
 11
205.683075
 21
215.981613
 31
0.0
210
0.0
220
0.0
230
1.0
  0
LINE
  5
237
100
AcDbEntity
  8
0
370
    35
390
0
 62
     7
 48
0.04005
100
AcDbLine
 10
207.183075
 20
234.481613
 30
0.0
 11
205.683075
 21
235.044113
 31
0.0
210
0.0
220
0.0
230
1.0
  0
LINE
  5
238
100
AcDbEntity
  8
0
370
    35
390
0
 62
     7
 48
0.04005
100
AcDbLine
 10
207.183075
 20
217.481613
 30
0.0
 11
205.683075
 21
216.919113
 31
0.0
210
0.0
220
0.0
230
1.0
  0
LINE
  5
239
100
AcDbEntity
  8
0
370
    35
390
0
 62
     7
100
AcDbLine
 10
205.683075
 20
235.981613
 30
0.0
 11
205.683075
 21
215.981613
 31
0.0
210
0.0
220
0.0
230
1.0
  0
LINE
  5
23A
100
AcDbEntity
  8
0
370
    35
390
0
 62
     7
100
AcDbLine
 10
131.933075
 20
235.981613
 30
0.0
 11
161.433075
 21
235.981613
 31
0.0
210
0.0
220
0.0
230
1.0
  0
LINE
  5
23B
100
AcDbEntity
  8
0
370
    35
390
0
 62
     7
 48
0.002499
100
AcDbLine
 10
131.933075
 20
216.081589
 30
0.0
 11
131.933075
 21
215.981613
 31
0.0
210
0.0
220
0.0
230
1.0
  0
LINE
  5
23C
100
AcDbEntity
  8
0
370
    35
390
0
 62
     7
 48
0.002499
100
AcDbLine
 10
123.933075
 20
216.081589
 30
0.0
 11
123.933075
 21
215.981613
 31
0.0
210
0.0
220
0.0
230
1.0
  0
LINE
  5
23D
100
AcDbEntity
  8
0
370
    35
390
0
 62
     7
100
AcDbLine
 10
131.933075
 20
215.981613
 30
0.0
 11
161.433075
 21
215.981613
 31
0.0
210
0.0
220
0.0
230
1.0
  0
LINE
  5
23E
100
AcDbEntity
  8
0
370
    35
390
0
 62
     7
 48
0.2
100
AcDbLine
 10
123.933075
 20
235.881577
 30
0.0
 11
131.933075
 21
235.881577
 31
0.0
210
0.0
220
0.0
230
1.0
  0
LINE
  5
23F
100
AcDbEntity
  8
0
370
    35
390
0
 62
     7
 48
0.2
100
AcDbLine
 10
123.933075
 20
216.081589
 30
0.0
 11
131.933075
 21
216.081589
 31
0.0
210
0.0
220
0.0
230
1.0
  0
LINE
  5
240
100
AcDbEntity
  8
0
370
    35
390
0
 62
     7
 48
0.002501
100
AcDbLine
 10
131.933075
 20
235.981613
 30
0.0
 11
131.933075
 21
235.881577
 31
0.0
210
0.0
220
0.0
230
1.0
  0
LINE
  5
241
100
AcDbEntity
  8
0
370
    35
390
0
 62
     7
 48
0.002501
100
AcDbLine
 10
123.933075
 20
235.981613
 30
0.0
 11
123.933075
 21
235.881577
 31
0.0
210
0.0
220
0.0
230
1.0
  0
LINE
  5
242
100
AcDbEntity
  8
0
370
    35
390
0
 62
     7
100
AcDbLine
 10
100.933075
 20
235.981613
 30
0.0
 11
123.933075
 21
235.981613
 31
0.0
210
0.0
220
0.0
230
1.0
  0
LINE
  5
243
100
AcDbEntity
  8
0
370
    35
390
0
 62
     7
100
AcDbLine
 10
100.933075
 20
215.981613
 30
0.0
 11
123.933075
 21
215.981613
 31
0.0
210
0.0
220
0.0
230
1.0
  0
LINE
  5
244
100
AcDbEntity
  8
0
370
    35
390
0
 62
     7
 48
0.035355
100
AcDbLine
 10
67.183075
 20
234.981552
 30
0.0
 11
68.183075
 21
235.981552
 31
0.0
210
0.0
220
0.0
230
1.0
  0
LINE
  5
245
100
AcDbEntity
  8
0
370
    35
390
0
 62
     7
 48
0.025
100
AcDbLine
 10
99.933075
 20
216.081589
 30
0.0
 11
100.933075
 21
216.081589
 31
0.0
210
0.0
220
0.0
230
1.0
  0
LINE
  5
246
100
AcDbEntity
  8
0
370
    35
390
0
 62
     7
 48
0.025
100
AcDbLine
 10
99.933075
 20
235.881577
 30
0.0
 11
100.933075
 21
235.881577
 31
0.0
210
0.0
220
0.0
230
1.0
  0
LINE
  5
247
100
AcDbEntity
  8
0
370
    35
390
0
 62
     7
100
AcDbLine
 10
68.183075
 20
235.981613
 30
0.0
 11
99.933075
 21
235.981613
 31
0.0
210
0.0
220
0.0
230
1.0
  0
LINE
  5
248
100
AcDbEntity
  8
0
370
    35
390
0
 62
     7
100
AcDbLine
 10
68.183075
 20
215.981613
 30
0.0
 11
99.933075
 21
215.981613
 31
0.0
210
0.0
220
0.0
230
1.0
  0
LINE
  5
249
100
AcDbEntity
  8
0
370
    35
390
0
 62
     7
 48
0.427501
100
AcDbLine
 10
100.933075
 20
235.981613
 30
0.0
 11
100.933075
 21
218.881577
 31
0.0
210
0.0
220
0.0
230
1.0
  0
LINE
  5
24A
100
AcDbEntity
  8
0
370
    35
390
0
 62
     7
 48
0.002501
100
AcDbLine
 10
99.933075
 20
235.981613
 30
0.0
 11
99.933075
 21
235.881577
 31
0.0
210
0.0
220
0.0
230
1.0
  0
LINE
  5
24B
100
AcDbEntity
  8
0
370
    35
390
0
 62
     7
 48
0.072499
100
AcDbLine
 10
100.933075
 20
218.881577
 30
0.0
 11
100.933075
 21
215.981613
 31
0.0
210
0.0
220
0.0
230
1.0
  0
LINE
  5
24C
100
AcDbEntity
  8
0
370
    35
390
0
 62
     7
 48
0.497499
100
AcDbLine
 10
99.933075
 20
235.881577
 30
0.0
 11
99.933075
 21
215.981613
 31
0.0
210
0.0
220
0.0
230
1.0
  0
LINE
  5
24D
100
AcDbEntity
  8
0
370
    35
390
0
 62
     7
 48
0.035355
100
AcDbLine
 10
67.183075
 20
216.981613
 30
0.0
 11
68.183075
 21
215.981613
 31
0.0
210
0.0
220
0.0
230
1.0
  0
LINE
  5
24E
100
AcDbEntity
  8
0
370
    35
390
0
 62
     7
 48
0.150002
100
AcDbLine
 10
39.683075
 20
222.981552
 30
0.0
 11
39.683075
 21
228.981613
 31
0.0
210
0.0
220
0.0
230
1.0
  0
LINE
  5
24F
100
AcDbEntity
  8
0
370
    35
390
0
 62
     7
100
AcDbLine
 10
39.683075
 20
228.981613
 30
0.0
 11
66.183075
 21
228.981613
 31
0.0
210
0.0
220
0.0
230
1.0
  0
LINE
  5
250
100
AcDbEntity
  8
0
370
    35
390
0
 62
     7
100
AcDbLine
 10
39.683075
 20
222.981613
 30
0.0
 11
66.183075
 21
222.981613
 31
0.0
210
0.0
220
0.0
230
1.0
  0
ARC
  5
251
100
AcDbEntity
  8
0
370
    35
390
0
 62
     7
100
AcDbCircle
 10
253.150848
 20
205.033554
 30
0.0
 40
18.048027
210
0.0
220
0.0
230
1.0
100
AcDbArc
 50
269.999997
 51
90.000003
  0
ARC
  5
252
100
AcDbEntity
  8
0
370
    35
390
0
 62
     7
100
AcDbCircle
 10
253.124786
 20
205.007492
 30
0.0
 40
23.874069
210
0.0
220
0.0
230
1.0
100
AcDbArc
 50
269.999997
 51
90.000003
  0
ARC
  5
253
100
AcDbEntity
  8
0
370
    35
390
0
 62
     7
100
AcDbCircle
 10
141.755005
 20
165.007523
 30
0.0
 40
16.125931
210
0.0
220
0.0
230
1.0
100
AcDbArc
 50
89.999996
 51
269.999997
  0
ARC
  5
254
100
AcDbEntity
  8
0
370
    35
390
0
 62
     7
100
AcDbCircle
 10
196.558029
 20
185.509506
 30
0.0
 40
1.476042
210
0.0
220
0.0
230
1.0
100
AcDbArc
 50
280.778828
 51
79.221179
  0
ARC
  5
255
100
AcDbEntity
  8
0
370
    35
390
0
 62
     7
100
AcDbCircle
 10
197.110123
 20
182.609482
 30
0.0
 40
1.476042
210
0.0
220
0.0
230
1.0
100
AcDbArc
 50
100.77884
 51
259.221139
  0
ARC
  5
256
100
AcDbEntity
  8
0
370
    35
390
0
 62
     7
100
AcDbCircle
 10
196.558029
 20
182.609482
 30
0.0
 40
1.476042
210
0.0
220
0.0
230
1.0
100
AcDbArc
 50
280.778828
 51
79.221179
  0
ARC
  5
257
100
AcDbEntity
  8
0
370
    35
390
0
 62
     7
100
AcDbCircle
 10
141.781036
 20
165.033554
 30
0.0
 40
21.951973
210
0.0
220
0.0
230
1.0
100
AcDbArc
 50
90.000003
 51
269.999997
  0
ARC
  5
258
100
AcDbEntity
  8
0
370
    35
390
0
 62
     7
100
AcDbCircle
 10
327.274841
 20
147.431595
 30
0.0
 40
1.476042
210
0.0
220
0.0
230
1.0
100
AcDbArc
 50
280.778828
 51
79.221144
  0
ARC
  5
259
100
AcDbEntity
  8
0
370
    35
390
0
 62
     7
100
AcDbCircle
 10
327.826935
 20
147.431595
 30
0.0
 40
1.476042
210
0.0
220
0.0
230
1.0
100
AcDbArc
 50
100.77882
 51
259.221167
  0
ARC
  5
25A
100
AcDbEntity
  8
0
370
    35
390
0
 62
     7
100
AcDbCircle
 10
327.826935
 20
144.531601
 30
0.0
 40
1.476042
210
0.0
220
0.0
230
1.0
100
AcDbArc
 50
100.77882
 51
259.221167
  0
ARC
  5
25B
100
AcDbEntity
  8
0
370
    35
390
0
 62
     7
100
AcDbCircle
 10
322.264069
 20
144.531601
 30
0.0
 40
1.476042
210
0.0
220
0.0
230
1.0
100
AcDbArc
 50
280.778828
 51
79.221179
  0
ARC
  5
25C
100
AcDbEntity
  8
0
370
    35
390
0
 62
     7
100
AcDbCircle
 10
322.816162
 20
144.531601
 30
0.0
 40
1.476042
210
0.0
220
0.0
230
1.0
100
AcDbArc
 50
100.77884
 51
259.221139
  0
ARC
  5
25D
100
AcDbEntity
  8
0
370
    35
390
0
 62
     7
100
AcDbCircle
 10
387.185486
 20
150.881607
 30
0.0
 40
1.0
210
0.0
220
0.0
230
1.0
100
AcDbArc
 50
5.73902
 51
174.260966
  0
ARC
  5
25E
100
AcDbEntity
  8
0
370
    35
390
0
 62
     7
100
AcDbCircle
 10
387.185486
 20
141.081619
 30
0.0
 40
1.0
210
0.0
220
0.0
230
1.0
100
AcDbArc
 50
185.739048
 51
354.260985
  0
CIRCLE
  5
25F
100
AcDbEntity
  8
0
370
    35
390
0
 62
     7
100
AcDbCircle
 10
303.891357
 20
137.286575
 30
0.0
 40
2.1
210
0.0
220
0.0
230
1.0
  0
CIRCLE
  5
260
100
AcDbEntity
  8
0
370
    35
390
0
 62
     7
100
AcDbCircle
 10
193.891357
 20
154.67659
 30
0.0
 40
2.1
210
0.0
220
0.0
230
1.0
  0
ARC
  5
261
100
AcDbEntity
  8
0
370
    35
390
0
 62
     7
100
AcDbCircle
 10
202.110123
 20
182.609482
 30
0.0
 40
1.476042
210
0.0
220
0.0
230
1.0
100
AcDbArc
 50
100.77882
 51
259.221167
  0
ARC
  5
262
100
AcDbEntity
  8
0
370
    35
390
0
 62
     7
100
AcDbCircle
 10
202.110123
 20
185.509506
 30
0.0
 40
1.476042
210
0.0
220
0.0
230
1.0
100
AcDbArc
 50
100.77882
 51
259.221167
  0
ARC
  5
263
100
AcDbEntity
  8
0
370
    35
390
0
 62
     7
100
AcDbCircle
 10
201.558029
 20
185.509506
 30
0.0
 40
1.476042
210
0.0
220
0.0
230
1.0
100
AcDbArc
 50
280.778828
 51
79.221144
  0
ARC
  5
264
100
AcDbEntity
  8
0
370
    35
390
0
 62
     7
100
AcDbCircle
 10
191.391357
 20
157.17659
 30
0.0
 40
2.0
210
0.0
220
0.0
230
1.0
100
AcDbArc
 50
90.000003
 51
180.000009
  0
ARC
  5
265
100
AcDbEntity
  8
0
370
    35
390
0
 62
     7
100
AcDbCircle
 10
322.264069
 20
147.431595
 30
0.0
 40
1.476042
210
0.0
220
0.0
230
1.0
100
AcDbArc
 50
280.778828
 51
79.221179
  0
ARC
  5
266
100
AcDbEntity
  8
0
370
    35
390
0
 62
     7
100
AcDbCircle
 10
306.391357
 20
134.786575
 30
0.0
 40
2.0
210
0.0
220
0.0
230
1.0
100
AcDbArc
 50
269.999997
 51
360.0
  0
ARC
  5
267
100
AcDbEntity
  8
0
370
    35
390
0
 62
     7
100
AcDbCircle
 10
306.391357
 20
139.681595
 30
0.0
 40
2.0
210
0.0
220
0.0
230
1.0
100
AcDbArc
 50
0.0
 51
90.000003
  0
ARC
  5
268
100
AcDbEntity
  8
0
370
    35
390
0
 62
     7
100
AcDbCircle
 10
191.391357
 20
152.281601
 30
0.0
 40
2.0
210
0.0
220
0.0
230
1.0
100
AcDbArc
 50
180.000009
 51
269.999997
  0
ARC
  5
269
100
AcDbEntity
  8
0
370
    35
390
0
 62
     7
100
AcDbCircle
 10
327.274841
 20
87.431595
 30
0.0
 40
1.476042
210
0.0
220
0.0
230
1.0
100
AcDbArc
 50
280.778828
 51
79.221144
  0
ARC
  5
26A
100
AcDbEntity
  8
0
370
    35
390
0
 62
     7
100
AcDbCircle
 10
327.826935
 20
87.431595
 30
0.0
 40
1.476042
210
0.0
220
0.0
230
1.0
100
AcDbArc
 50
100.77882
 51
259.221167
  0
ARC
  5
26B
100
AcDbEntity
  8
0
370
    35
390
0
 62
     7
100
AcDbCircle
 10
327.826935
 20
84.531601
 30
0.0
 40
1.476042
210
0.0
220
0.0
230
1.0
100
AcDbArc
 50
100.77882
 51
259.221167
  0
ARC
  5
26C
100
AcDbEntity
  8
0
370
    35
390
0
 62
     7
100
AcDbCircle
 10
322.264069
 20
84.531601
 30
0.0
 40
1.476042
210
0.0
220
0.0
230
1.0
100
AcDbArc
 50
280.778828
 51
79.221179
  0
ARC
  5
26D
100
AcDbEntity
  8
0
370
    35
390
0
 62
     7
100
AcDbCircle
 10
322.816162
 20
84.531601
 30
0.0
 40
1.476042
210
0.0
220
0.0
230
1.0
100
AcDbArc
 50
100.77884
 51
259.221139
  0
ARC
  5
26E
100
AcDbEntity
  8
0
370
    35
390
0
 62
     7
100
AcDbCircle
 10
365.185486
 20
85.981583
 30
0.0
 40
1.0
210
0.0
220
0.0
230
1.0
100
AcDbArc
 50
269.999997
 51
90.000003
  0
CIRCLE
  5
26F
100
AcDbEntity
  8
0
370
    35
390
0
 62
     7
100
AcDbCircle
 10
387.185486
 20
85.981583
 30
0.0
 40
1.0
210
0.0
220
0.0
230
1.0
  0
ARC
  5
270
100
AcDbEntity
  8
0
370
    35
390
0
 62
     7
100
AcDbCircle
 10
175.518646
 20
84.531601
 30
0.0
 40
1.476042
210
0.0
220
0.0
230
1.0
100
AcDbArc
 50
100.77882
 51
259.221167
  0
ARC
  5
271
100
AcDbEntity
  8
0
370
    35
390
0
 62
     7
100
AcDbCircle
 10
175.518646
 20
87.431595
 30
0.0
 40
1.476042
210
0.0
220
0.0
230
1.0
100
AcDbArc
 50
100.77882
 51
259.221167
  0
ARC
  5
272
100
AcDbEntity
  8
0
370
    35
390
0
 62
     7
100
AcDbCircle
 10
174.966553
 20
87.431595
 30
0.0
 40
1.476042
210
0.0
220
0.0
230
1.0
100
AcDbArc
 50
280.778828
 51
79.221144
  0
ARC
  5
273
100
AcDbEntity
  8
0
370
    35
390
0
 62
     7
100
AcDbCircle
 10
322.264069
 20
87.431595
 30
0.0
 40
1.476042
210
0.0
220
0.0
230
1.0
100
AcDbArc
 50
280.778828
 51
79.221179
  0
CIRCLE
  5
274
100
AcDbEntity
  8
0
370
    35
390
0
 62
     7
100
AcDbCircle
 10
286.391357
 20
81.581589
 30
0.0
 40
1.95
210
0.0
220
0.0
230
1.0
  0
ARC
  5
275
100
AcDbEntity
  8
0
370
    35
390
0
 62
     7
100
AcDbCircle
 10
298.591339
 20
91.981583
 30
0.0
 40
0.8
210
0.0
220
0.0
230
1.0
100
AcDbArc
 50
0.0
 51
90.000003
  0
CIRCLE
  5
276
100
AcDbEntity
  8
0
370
    35
390
0
 62
     7
100
AcDbCircle
 10
210.391357
 20
81.581589
 30
0.0
 40
1.95
210
0.0
220
0.0
230
1.0
  0
ARC
  5
277
100
AcDbEntity
  8
0
370
    35
390
0
 62
     7
100
AcDbCircle
 10
199.19136
 20
91.981583
 30
0.0
 40
0.8
210
0.0
220
0.0
230
1.0
100
AcDbArc
 50
90.000003
 51
180.000009
  0
ARC
  5
278
100
AcDbEntity
  8
0
370
    35
390
0
 62
     7
100
AcDbCircle
 10
198.391357
 20
78.781601
 30
0.0
 40
0.8
210
0.0
220
0.0
230
1.0
100
AcDbArc
 50
269.999997
 51
360.0
  0
ARC
  5
279
100
AcDbEntity
  8
0
370
    35
390
0
 62
     7
100
AcDbCircle
 10
297.491364
 20
78.581589
 30
0.0
 40
1.0
210
0.0
220
0.0
230
1.0
100
AcDbArc
 50
269.999997
 51
360.0
  0
ARC
  5
27A
100
AcDbEntity
  8
0
370
    35
390
0
 62
     7
100
AcDbCircle
 10
200.291351
 20
78.581589
 30
0.0
 40
1.0
210
0.0
220
0.0
230
1.0
100
AcDbArc
 50
180.000009
 51
269.999997
  0
CIRCLE
  5
27B
100
AcDbEntity
  8
0
370
    35
390
0
 62
     7
100
AcDbCircle
 10
210.391357
 20
81.581589
 30
0.0
 40
2.0
210
0.0
220
0.0
230
1.0
  0
ARC
  5
27C
100
AcDbEntity
  8
0
370
    35
390
0
 62
     7
100
AcDbCircle
 10
211.239883
 20
81.581589
 30
0.0
 40
0.4
210
0.0
220
0.0
230
1.0
100
AcDbArc
 50
135.0
 51
224.999986
  0
ARC
  5
27D
100
AcDbEntity
  8
0
370
    35
390
0
 62
     7
100
AcDbCircle
 10
210.391357
 20
82.43013
 30
0.0
 40
0.4
210
0.0
220
0.0
230
1.0
100
AcDbArc
 50
225.0
 51
314.999992
  0
ARC
  5
27E
100
AcDbEntity
  8
0
370
    35
390
0
 62
     7
100
AcDbCircle
 10
209.542831
 20
81.581589
 30
0.0
 40
0.4
210
0.0
220
0.0
230
1.0
100
AcDbArc
 50
314.999992
 51
44.999998
  0
ARC
  5
27F
100
AcDbEntity
  8
0
370
    35
390
0
 62
     7
100
AcDbCircle
 10
210.391357
 20
80.733047
 30
0.0
 40
0.4
210
0.0
220
0.0
230
1.0
100
AcDbArc
 50
45.000001
 51
135.0
  0
CIRCLE
  5
280
100
AcDbEntity
  8
0
370
    35
390
0
 62
     7
100
AcDbCircle
 10
286.391357
 20
81.581589
 30
0.0
 40
2.0
210
0.0
220
0.0
230
1.0
  0
ARC
  5
281
100
AcDbEntity
  8
0
370
    35
390
0
 62
     7
100
AcDbCircle
 10
287.239899
 20
81.581589
 30
0.0
 40
0.4
210
0.0
220
0.0
230
1.0
100
AcDbArc
 50
135.0
 51
224.999986
  0
ARC
  5
282
100
AcDbEntity
  8
0
370
    35
390
0
 62
     7
100
AcDbCircle
 10
286.391357
 20
82.43013
 30
0.0
 40
0.4
210
0.0
220
0.0
230
1.0
100
AcDbArc
 50
225.0
 51
314.999992
  0
ARC
  5
283
100
AcDbEntity
  8
0
370
    35
390
0
 62
     7
100
AcDbCircle
 10
285.542816
 20
81.581589
 30
0.0
 40
0.4
210
0.0
220
0.0
230
1.0
100
AcDbArc
 50
314.999992
 51
44.999998
  0
ARC
  5
284
100
AcDbEntity
  8
0
370
    35
390
0
 62
     7
100
AcDbCircle
 10
286.391357
 20
80.733047
 30
0.0
 40
0.4
210
0.0
220
0.0
230
1.0
100
AcDbArc
 50
45.000001
 51
135.0
  0
ARC
  5
285
100
AcDbEntity
  8
0
370
    35
390
0
 62
     7
100
AcDbCircle
 10
28.903076
 20
225.981613
 30
0.0
 40
1.22
210
0.0
220
0.0
230
1.0
100
AcDbArc
 50
100.388843
 51
259.611143
  0
ENDSEC
  0
SECTION
  2
OBJECTS
  0
DICTIONARY
  5
19
100
AcDbDictionary
280
     0
281
     1
  3
ACAD_GROUP
350
1A
  3
ACAD_MLINESTYLE
350
1B
  3
ACAD_LAYOUT
350
1E
  3
ACAD_PLOTSETTINGS
350
22
  3
ACAD_PLOTSTYLENAME
350
1F
  3
ACAD_WIPEOUT_VARS
350
23
  0
DICTIONARY
  5
1A
102
{ACAD_REACTORS
330
19
102
}
100
AcDbDictionary
280
     0
281
     1
  0
DICTIONARY
  5
1B
102
{ACAD_REACTORS
330
19
102
}
100
AcDbDictionary
280
     0
281
     1
  3
Standard
350
1C
  0
MLINESTYLE
  5
1C
102
{ACAD_REACTORS
330
1B
102
}
100
AcDbMlineStyle
  2
Standard
 70
     0
  3

 62
     0
 51
90.0
 52
90.0
 71
     2
 49
0.5
 62
   256
  6
ByLayer
 49
-0.5
 62
   256
  6
ByLayer
  0
ACDBDICTIONARYWDFLT
  5
1F
102
{ACAD_REACTORS
330
19
102
}
100
AcDbDictionary
281
     1
  3
Normal
350
1D
100
AcDbDictionaryWithDefault
340
1D
  0
ACDBPLACEHOLDER
  5
1D
102
{ACAD_REACTORS
330
1F
102
}
  0
LAYOUT
  5
20
102
{ACAD_REACTORS
330
1E
102
}
100
AcDbPlotSettings
  1

  2

  4

  6

 40
0.0
 41
0.0
 42
0.0
 43
0.0
 44
0.0
 45
0.0
 46
0.0
 47
0.0
 48
0.0
 49
0.0
140
0.0
141
0.0
142
1.0
143
1.0
 70
  1024
 72
     0
 73
     0
 74
     0
  7

 75
     0
147
1.0
148
0.0
149
0.0
100
AcDbLayout
  1
Model
 70
     0
 71
     0
 10
0.0
 20
0.0
 11
0.0
 21
0.0
 12
0.0
 22
0.0
 32
0.0
 14
0.0
 24
0.0
 34
0.0
 15
0.0
 25
0.0
 35
0.0
146
0.0
 13
0.0
 23
0.0
 33
0.0
 16
0.0
 26
0.0
 36
0.0
 17
0.0
 27
0.0
 37
0.0
 76
     0
330
A
331
0
345
0
346
0
  0
LAYOUT
  5
21
102
{ACAD_REACTORS
330
1E
102
}
100
AcDbPlotSettings
  1

  2

  4

  6

 40
0.0
 41
0.0
 42
0.0
 43
0.0
 44
0.0
 45
0.0
 46
0.0
 47
0.0
 48
0.0
 49
0.0
140
0.0
141
0.0
142
1.0
143
1.0
 70
     0
 72
     0
 73
     0
 74
     0
  7

 75
     0
147
1.0
148
0.0
149
0.0
100
AcDbLayout
  1
Layout1
 70
     0
 71
     0
 10
0.0
 20
0.0
 11
0.0
 21
0.0
 12
0.0
 22
0.0
 32
0.0
 14
0.0
 24
0.0
 34
0.0
 15
0.0
 25
0.0
 35
0.0
146
0.0
 13
0.0
 23
0.0
 33
0.0
 16
0.0
 26
0.0
 36
0.0
 17
0.0
 27
0.0
 37
0.0
 76
     0
330
B
331
0
345
0
346
0
  0
DICTIONARY
  5
1E
102
{ACAD_REACTORS
330
19
102
}
100
AcDbDictionary
280
     0
281
     1
  3
Layout1
350
21
  3
Model
350
20
  0
DICTIONARY
  5
22
102
{ACAD_REACTORS
330
19
102
}
100
AcDbDictionary
280
     0
281
     1
  0
WIPEOUTVARIABLES
  5
23
100
AcDbWipeoutVariables
 70
     1
  0
ENDSEC
  0
EOF
