  0
SECTION
  2
HEADER
  9
$ACADVER
  1
AC1015
  9
$ACADMAINTVER
 70
     6
  9
$DWGCODEPAGE
  3
ANSI_1252
  9
$INSBASE
 10
0.0
 20
0.0
 30
0.0
  9
$EXTMIN
 10
0.0
 20
0.0
 30
0.0
  9
$EXTMAX
 10
806.178345
 20
391.684235
 30
2.0
  9
$LIMMIN
 10
0.0
 20
0.0
  9
$LIMMAX
 10
420.0
 20
297.0
  9
$ORTHOMODE
 70
     0
  9
$REGENMODE
 70
     1
  9
$FILLMODE
 70
     1
  9
$QTEXTMODE
 70
     0
  9
$MIRRTEXT
 70
     1
  9
$LTSCALE
 40
1.0
  9
$ATTMODE
 70
     1
  9
$TEXTSIZE
 40
2.5
  9
$TRACEWID
 40
1.0
  9
$TEXTSTYLE
  7
Standard
  9
$CLAYER
  8
0
  9
$CELTYPE
  6
ByLayer
  9
$CECOLOR
 62
   256
  9
$CELTSCALE
 40
1.0
  9
$DISPSILH
 70
     0
  9
$DIMSCALE
 40
1.0
  9
$DIMASZ
 40
2.5
  9
$DIMEXO
 40
0.625
  9
$DIMDLI
 40
3.75
  9
$DIMRND
 40
0.0
  9
$DIMDLE
 40
0.0
  9
$DIMEXE
 40
1.25
  9
$DIMTP
 40
0.0
  9
$DIMTM
 40
0.0
  9
$DIMTXT
 40
2.5
  9
$DIMCEN
 40
2.5
  9
$DIMTSZ
 40
0.0
  9
$DIMTOL
 70
     0
  9
$DIMLIM
 70
     0
  9
$DIMTIH
 70
     0
  9
$DIMTOH
 70
     0
  9
$DIMSE1
 70
     0
  9
$DIMSE2
 70
     0
  9
$DIMTAD
 70
     1
  9
$DIMZIN
 70
     8
  9
$DIMBLK
  1

  9
$DIMASO
 70
     1
  9
$DIMSHO
 70
     1
  9
$DIMPOST
  1

  9
$DIMAPOST
  1

  9
$DIMALT
 70
     0
  9
$DIMALTD
 70
     3
  9
$DIMALTF
 40
0.03937
  9
$DIMLFAC
 40
1.0
  9
$DIMTOFL
 70
     1
  9
$DIMTVP
 40
0.0
  9
$DIMTIX
 70
     0
  9
$DIMSOXD
 70
     0
  9
$DIMSAH
 70
     0
  9
$DIMBLK1
  1

  9
$DIMBLK2
  1

  9
$DIMSTYLE
  2

  9
$DIMCLRD
 70
     0
  9
$DIMCLRE
 70
     0
  9
$DIMCLRT
 70
     0
  9
$DIMTFAC
 40
1.0
  9
$DIMGAP
 40
0.625
  9
$DIMJUST
 70
     0
  9
$DIMSD1
 70
     0
  9
$DIMSD2
 70
     0
  9
$DIMTOLJ
 70
     0
  9
$DIMTZIN
 70
     8
  9
$DIMALTZ
 70
     0
  9
$DIMALTTZ
 70
     0
  9
$DIMUPT
 70
     0
  9
$DIMDEC
 70
     2
  9
$DIMTDEC
 70
     2
  9
$DIMALTU
 70
     2
  9
$DIMALTTD
 70
     3
  9
$DIMTXSTY
  7
Standard
  9
$DIMAUNIT
 70
     0
  9
$DIMADEC
 70
     0
  9
$DIMALTRND
 40
0.0
  9
$DIMAZIN
 70
     0
  9
$DIMDSEP
 70
    44
  9
$DIMATFIT
 70
     0
  9
$DIMFRAC
 70
     0
  9
$DIMLDRBLK
  1

  9
$DIMLUNIT
 70
     2
  9
$DIMLWD
 70
    -2
  9
$DIMLWE
 70
    -2
  9
$DIMTMOVE
 70
     0
  9
$LUNITS
 70
     2
  9
$LUPREC
 70
     4
  9
$SKETCHINC
 40
1.0
  9
$FILLETRAD
 40
2.5
  9
$AUNITS
 70
     0
  9
$AUPREC
 70
     0
  9
$MENU
  1
.
  9
$ELEVATION
 40
0.0
  9
$PELEVATION
 40
0.0
  9
$THICKNESS
 40
0.0
  9
$LIMCHECK
 70
     0
  9
$CHAMFERA
 40
2.5
  9
$CHAMFERB
 40
2.5
  9
$CHAMFERC
 40
0.0
  9
$CHAMFERD
 40
0.0
  9
$SKPOLY
 70
     0
  9
$TDCREATE
 40
0.000000000
  9
$TDUCREATE
 40
0.000000000
  9
$TDUPDATE
 40
0.000000000
  9
$TDUUPDATE
 40
0.000000000
  9
$TDINDWG
 40
0.0000000000
  9
$TDUSRTIMER
 40
0.0000000000
  9
$USRTIMER
 70
     1
  9
$ANGBASE
 50
0.0
  9
$ANGDIR
 70
     0
  9
$PDMODE
 70
     0
  9
$PDSIZE
 40
0.0
  9
$PLINEWID
 40
0.0
  9
$SPLFRAME
 70
     0
  9
$SPLINETYPE
 70
     6
  9
$SPLINESEGS
 70
     8
  9
$HANDSEED
  5
267
  9
$SURFTAB1
 70
     6
  9
$SURFTAB2
 70
     6
  9
$SURFTYPE
 70
     6
  9
$SURFU
 70
     6
  9
$SURFV
 70
     6
  9
$UCSBASE
  2

  9
$UCSNAME
  2

  9
$UCSORG
 10
0.0
 20
0.0
 30
0.0
  9
$UCSXDIR
 10
1.0
 20
0.0
 30
0.0
  9
$UCSYDIR
 10
0.0
 20
1.0
 30
0.0
  9
$UCSORTHOREF
  2

  9
$UCSORTHOVIEW
 70
     1
  9
$UCSORGTOP
 10
0.0
 20
0.0
 30
0.0
  9
$UCSORGBOTTOM
 10
0.0
 20
0.0
 30
0.0
  9
$UCSORGLEFT
 10
0.0
 20
0.0
 30
0.0
  9
$UCSORGRIGHT
 10
0.0
 20
0.0
 30
0.0
  9
$UCSORGFRONT
 10
0.0
 20
0.0
 30
0.0
  9
$UCSORGBACK
 10
0.0
 20
0.0
 30
0.0
  9
$PUCSBASE
  2

  9
$PUCSNAME
  2

  9
$PUCSORG
 10
0.0
 20
0.0
 30
0.0
  9
$PUCSXDIR
 10
1.0
 20
0.0
 30
0.0
  9
$PUCSYDIR
 10
0.0
 20
1.0
 30
0.0
  9
$PUCSORTHOREF
  2

  9
$PUCSORTHOVIEW
 70
     0
  9
$PUCSORGTOP
 10
0.0
 20
0.0
 30
0.0
  9
$PUCSORGBOTTOM
 10
0.0
 20
0.0
 30
0.0
  9
$PUCSORGLEFT
 10
0.0
 20
0.0
 30
0.0
  9
$PUCSORGRIGHT
 10
0.0
 20
0.0
 30
0.0
  9
$PUCSORGFRONT
 10
0.0
 20
0.0
 30
0.0
  9
$PUCSORGBACK
 10
0.0
 20
0.0
 30
0.0
  9
$USERI1
 70
     0
  9
$USERI2
 70
     0
  9
$USERI3
 70
     0
  9
$USERI4
 70
     0
  9
$USERI5
 70
     0
  9
$USERR1
 40
0.0
  9
$USERR2
 40
0.0
  9
$USERR3
 40
0.0
  9
$USERR4
 40
0.0
  9
$USERR5
 40
0.0
  9
$WORLDVIEW
 70
     1
  9
$SHADEDGE
 70
     3
  9
$SHADEDIF
 70
    70
  9
$TILEMODE
 70
     1
  9
$MAXACTVP
 70
    48
  9
$PINSBASE
 10
0.0
 20
0.0
 30
0.0
  9
$PLIMCHECK
 70
     0
  9
$PEXTMIN
 10
0.0
 20
0.0
 30
0.0
  9
$PEXTMAX
 10
806.178345
 20
391.684235
 30
2.0
  9
$PLIMMIN
 10
0.0
 20
0.0
  9
$PLIMMAX
 10
420.0
 20
297.0
  9
$UNITMODE
 70
     0
  9
$VISRETAIN
 70
     0
  9
$PLINEGEN
 70
     0
  9
$PSLTSCALE
 70
     1
  9
$TREEDEPTH
 70
  3020
  9
$CMLSTYLE
  2
Standard
  9
$CMLJUST
 70
     0
  9
$CMLSCALE
 40
20.0
  9
$PROXYGRAPHICS
 70
     1
  9
$MEASUREMENT
 70
     1
  9
$CELWEIGHT
370
    -1
  9
$ENDCAPS
280
     0
  9
$JOINSTYLE
280
     0
  9
$LWDISPLAY
290
     0
  9
$INSUNITS
 70
     0
  9
$HYPERLINKBASE
  1

  9
$STYLESHEET
  1

  9
$XEDIT
290
     1
  9
$CEPSNTYPE
380
     0
  9
$PSTYLEMODE
290
     0
  9
$FINGERPRINTGUID
  2

  9
$VERSIONGUID
  2

  9
$EXTNAMES
290
     0
  9
$PSVPSCALE
 40
0.0
  0
ENDSEC
  0
SECTION
  2
CLASSES
  0
CLASS
  1
LWPOLYLINE
  2
AcDbPolyline
  3
AutoCAD 2000
 90
        0
280
     0
281
     1
  0
CLASS
  1
IMAGE
  2
AcDbRasterImage
  3
ISM
 90
      127
280
     0
281
     1
  0
CLASS
  1
OLE2FRAME
  2
AcDbOle2Frame
  3
AutoCAD 2000
 90
        0
280
     0
281
     1
  0
CLASS
  1
HATCH
  2
AcDbHatch
  3
AutoCAD 2000
 90
        0
280
     0
281
     1
  0
CLASS
  1
DICTIONARYVAR
  2
AcDbDictionaryVar
  3
AutoCAD 2000
 90
        0
280
     0
281
     0
  0
CLASS
  1
RASTERVARIABLES
  2
AcDbRasterVariables
  3
ISM
 90
        0
280
     0
281
     0
  0
CLASS
  1
IMAGEDEF
  2
AcDbRasterImageDef
  3
ISM
 90
        0
280
     0
281
     0
  0
CLASS
  1
IMAGEDEF_REACTOR
  2
AcDbRasterImageDefReactor
  3
ISM
 90
        1
280
     0
281
     0
  0
CLASS
  1
IDBUFFER
  2
AcDbIdBuffer
  3
AutoCAD 2000
 90
        0
280
     0
281
     0
  0
CLASS
  1
SPATIAL_FILTER
  2
AcDbSpatialFilter
  3
AutoCAD 2000
 90
        0
280
     0
281
     0
  0
CLASS
  1
XRECORD
  2
AcDbXrecord
  3
AutoCAD 2000
 90
        0
280
     0
281
     0
  0
CLASS
  1
SORTENTSTABLE
  2
AcDbSortentsTable
  3
AutoCAD 2000
 90
        0
280
     0
281
     0
  0
CLASS
  1
LAYER_INDEX
  2
AcDbLayerIndex
  3
AutoCAD 2000
 90
        0
280
     0
281
     0
  0
CLASS
  1
SPATIAL_INDEX
  2
AcDbSpatialIndex
  3
AutoCAD 2000
 90
        0
280
     0
281
     0
  0
CLASS
  1
OBJECT_PTR
  2
CAseDLPNTableRecord
  3
"ASE-LPNTableRecord"
 90
        1
280
     0
281
     0
  0
CLASS
  1
LAYOUT
  2
AcDbLayout
  3
AutoCAD 2000
 90
        0
280
     0
281
     0
  0
CLASS
  1
PLOTSETTINGS
  2
AcDbPlotSettings
  3
AutoCAD 2000
 90
        0
280
     0
281
     0
  0
CLASS
  1
ACDBDICTIONARYWDFLT
  2
AcDbDictionaryWithDefault
  3
AutoCAD 2000
 90
        0
280
     0
281
     0
  0
CLASS
  1
ACDBPLACEHOLDER
  2
AcDbPlaceHolder
  3
AutoCAD 2000
 90
        0
280
     0
281
     0
  0
CLASS
  1
VBA_PROJECT
  2
AcDbVbaProject
  3
acadvba
 90
        0
280
     0
281
     0
  0
CLASS
  1
WIPEOUT
  2
AcDbWipeout
  3
WipeOut|AutoCAD Express Tool|expresstools@autodesk.com
 90
      127
280
     0
281
     1
  0
CLASS
  1
WIPEOUTVARIABLES
  2
AcDbWipeoutVariables
  3
WipeOut|AutoCAD Express Tool|expresstools@autodesk.com
 90
        0
280
     0
281
     0
  0
CLASS
  1
RTEXT
  2
RText
  3
RText|AutoCAD Express Tool|expresstools@autodesk.com
 90
        0
280
     0
281
     1
  0
CLASS
  1
ARCALIGNEDTEXT
  2
AcDbArcAlignedText
  3
ATEXT|AutoCAD Express Tool|expresstools@autodesk.com
 90
        0
280
     0
281
     1
  0
ENDSEC
  0
SECTION
  2
TABLES
  0
TABLE
  2
VPORT
  5
7
100
AcDbSymbolTable
 70
     1
  0
VPORT
  5
15
100
AcDbSymbolTableRecord
100
AcDbViewportTableRecord
  2
*ACTIVE
 70
     0
 10
0.0
 20
0.0
 11
1.0
 21
1.0
 12
6.591288
 22
4.579184
 13
0.0
 23
0.0
 14
1.0
 24
1.0
 15
0.0
 25
0.0
 16
0.0
 26
0.0
 36
1.0
 17
0.0
 27
0.0
 37
0.0
 40
9.158369
 41
0.688564
 42
50.0
 43
0.0
 44
0.0
 50
0.0
 51
0.0
 71
     0
 72
   100
 73
     1
 74
     1
 75
     0
 76
     0
 77
     0
 78
     0
281
     0
 65
     0
110
0.0
120
0.0
130
0.0
111
1.0
121
0.0
131
0.0
112
0.0
122
1.0
132
0.0
345
0
346
0
 79
     0
146
0.0
  0
ENDTAB
  0
TABLE
  2
LTYPE
  5
4
100
AcDbSymbolTable
 70
     3
  0
LTYPE
  5
11
100
AcDbSymbolTableRecord
100
AcDbLinetypeTableRecord
  2
ByBlock
 70
    64
  3

 72
    65
 73
     0
 40
0.0
  0
LTYPE
  5
12
100
AcDbSymbolTableRecord
100
AcDbLinetypeTableRecord
  2
ByLayer
 70
    64
  3

 72
    65
 73
     0
 40
0.0
  0
LTYPE
  5
13
100
AcDbSymbolTableRecord
100
AcDbLinetypeTableRecord
  2
Continuous
 70
    64
  3
Solid line
 72
    65
 73
     0
 40
0.0
  0
ENDTAB
  0
TABLE
  2
LAYER
  5
2
100
AcDbSymbolTable
 70
     1
  0
LAYER
  5
14
100
AcDbSymbolTableRecord
100
AcDbLayerTableRecord
  2
0
 70
     0
 62
     7
  6
Continuous
290
     1
370
    -3
390
1D
  0
ENDTAB
  0
TABLE
  2
STYLE
  5
3
100
AcDbSymbolTable
 70
     1
  0
STYLE
  5
17
100
AcDbSymbolTableRecord
100
AcDbTextStyleTableRecord
  2
Standard
 70
     0
 40
0.0
 41
1.0
 50
0.0
 71
     0
 42
0.0
  3
txt
  4

  0
ENDTAB
  0
TABLE
  2
VIEW
  5
5
100
AcDbSymbolTable
 70
     0
  0
ENDTAB
  0
TABLE
  2
UCS
  5
6
100
AcDbSymbolTable
 70
     0
  0
ENDTAB
  0
TABLE
  2
APPID
  5
8
100
AcDbSymbolTable
 70
     1
  0
APPID
  5
16
100
AcDbSymbolTableRecord
100
AcDbRegAppTableRecord
  2
ACAD
 70
     0
  0
ENDTAB
  0
TABLE
  2
DIMSTYLE
  5
9
100
AcDbSymbolTable
 70
     1
100
AcDbDimStyleTable
 71
     0
  0
DIMSTYLE
105
18
100
AcDbSymbolTableRecord
100
AcDbDimStyleTableRecord
  2
Standard
 70
     0
  3

  4

 40
1.0
 41
0.18
 42
0.0625
 43
0.38
 44
0.18
 45
0.0
 46
0.0
 47
0.0
 48
0.0
 71
     0
 72
     0
 73
     1
 74
     1
 75
     0
 76
     0
 77
     0
 78
     0
 79
     0
140
0.18
141
0.09
142
0.0
143
25.4
144
1.0
145
0.0
146
1.0
147
0.09
148
0.0
170
     0
171
     2
172
     0
173
     0
174
     0
175
     0
176
     0
177
     0
178
     0
179
     0
271
     4
272
     4
273
     2
274
     2
275
     0
276
     0
277
     2
278
    46
279
     0
280
     0
281
     0
282
     0
283
     1
284
     0
285
     0
286
     0
288
     0
289
     3
340
17
341
0
342
0
343
0
344
0
371
    -2
372
    -2
  0
ENDTAB
  0
TABLE
  2
BLOCK_RECORD
  5
1
100
AcDbSymbolTable
 70
     0
  0
BLOCK_RECORD
  5
A
100
AcDbSymbolTableRecord
100
AcDbBlockTableRecord
  2
*MODEL_SPACE
340
20
  0
BLOCK_RECORD
  5
B
100
AcDbSymbolTableRecord
100
AcDbBlockTableRecord
  2
*PAPER_SPACE
340
21
  0
ENDTAB
  0
ENDSEC
  0
SECTION
  2
BLOCKS
  0
BLOCK
  5
D
100
AcDbEntity
  8
0
390
0
100
AcDbBlockBegin
  2
*MODEL_SPACE
 70
     0
 10
0.0
 20
0.0
 30
0.0
  3
*MODEL_SPACE
  1

  0
ENDBLK
  5
E
100
AcDbEntity
  8
0
390
0
100
AcDbBlockEnd
  0
BLOCK
  5
F
100
AcDbEntity
 67
     1
  8
0
390
0
100
AcDbBlockBegin
  2
*PAPER_SPACE
 70
     0
 10
0.0
 20
0.0
 30
0.0
  3
*PAPER_SPACE
  1

  0
ENDBLK
  5
10
100
AcDbEntity
 67
     1
  8
0
390
0
100
AcDbBlockEnd
  0
ENDSEC
  0
SECTION
  2
ENTITIES
  0
VIEWPORT
  5
266
100
AcDbEntity
 67
     1
  8
0
370
     0
390
0
 62
     0
 48
0.0
100
AcDbViewport
 10
0.0
 20
0.0
 30
0.0
 40
1000.0
 41
1000.0
 68
     1
 69
     1
 12
0.0
 22
0.0
 13
0.0
 23
0.0
 14
1.0
 24
1.0
 15
1.0
 25
1.0
 16
0.0
 26
0.0
 36
1.0
 17
0.0
 27
0.0
 37
0.0
 42
50.0
 43
0.0
 44
0.0
 45
1000.0
 50
0.0
 51
0.0
 72
   100
 90
        0
340
0
  1

281
     0
 71
     0
 74
     1
110
0.0
120
0.0
130
0.0
111
1.0
121
0.0
131
0.0
112
0.0
122
1.0
132
0.0
345
0
346
0
 79
     0
146
0.0
  0
LINE
  5
24
100
AcDbEntity
  8
0
370
    35
390
0
 62
     7
100
AcDbLine
 10
290.997284
 20
359.684235
 30
0.0
 11
330.827942
 21
359.684235
 31
0.0
210
0.0
220
0.0
230
1.0
  0
LINE
  5
25
100
AcDbEntity
  8
0
370
    35
390
0
 62
     7
100
AcDbLine
 10
290.997284
 20
391.684235
 30
0.0
 11
330.827942
 21
391.684235
 31
0.0
210
0.0
220
0.0
230
1.0
  0
LINE
  5
26
100
AcDbEntity
  8
0
370
    35
390
0
 62
     7
100
AcDbLine
 10
58.997284
 20
371.684235
 30
0.0
 11
83.546783
 21
371.684235
 31
0.0
210
0.0
220
0.0
230
1.0
  0
LINE
  5
27
100
AcDbEntity
  8
0
370
    35
390
0
 62
     7
100
AcDbLine
 10
58.997284
 20
379.684235
 30
0.0
 11
83.546783
 21
379.684235
 31
0.0
210
0.0
220
0.0
230
1.0
  0
LINE
  5
28
100
AcDbEntity
  8
0
370
    35
390
0
 62
     7
 48
0.134525
100
AcDbLine
 10
789.997314
 20
372.784241
 30
0.0
 11
795.378296
 21
372.784241
 31
0.0
210
0.0
220
0.0
230
1.0
  0
LINE
  5
29
100
AcDbEntity
  8
0
370
    35
390
0
 62
     7
 48
0.134525
100
AcDbLine
 10
789.997314
 20
378.584229
 30
0.0
 11
795.378296
 21
378.584229
 31
0.0
210
0.0
220
0.0
230
1.0
  0
LINE
  5
2A
100
AcDbEntity
  8
0
370
    35
390
0
 62
     7
 48
0.044545
100
AcDbLine
 10
756.193359
 20
281.959473
 30
0.0
 11
756.640503
 21
283.684235
 31
0.0
210
0.0
220
0.0
230
1.0
  0
LINE
  5
2B
100
AcDbEntity
  8
0
370
    35
390
0
 62
     7
 48
0.051653
100
AcDbLine
 10
756.640503
 20
287.684235
 30
0.0
 11
757.158936
 21
285.684235
 31
0.0
210
0.0
220
0.0
230
1.0
  0
LINE
  5
2C
100
AcDbEntity
  8
0
370
    35
390
0
 62
     7
 48
0.045377
100
AcDbLine
 10
757.095947
 20
289.441254
 30
0.0
 11
756.640381
 21
287.684265
 31
0.0
210
0.0
220
0.0
230
1.0
  0
LINE
  5
2D
100
AcDbEntity
  8
0
370
    35
390
0
 62
     7
 48
0.045493
100
AcDbLine
 10
757.67749
 20
287.684265
 30
0.0
 11
757.220825
 21
289.44574
 31
0.0
210
0.0
220
0.0
230
1.0
  0
LINE
  5
2E
100
AcDbEntity
  8
0
370
    35
390
0
 62
     7
 48
0.051653
100
AcDbLine
 10
757.158936
 20
285.684235
 30
0.0
 11
757.67749
 21
287.684235
 31
0.0
210
0.0
220
0.0
230
1.0
  0
LINE
  5
2F
100
AcDbEntity
  8
0
370
    35
390
0
 62
     7
 48
0.046342
100
AcDbLine
 10
757.67749
 20
283.684235
 30
0.0
 11
758.1427
 21
281.889862
 31
0.0
210
0.0
220
0.0
230
1.0
  0
LINE
  5
30
100
AcDbEntity
  8
0
370
    35
390
0
 62
     7
 48
0.051653
100
AcDbLine
 10
758.196045
 20
285.684265
 30
0.0
 11
757.67749
 21
283.684265
 31
0.0
210
0.0
220
0.0
230
1.0
  0
LINE
  5
31
100
AcDbEntity
  8
0
370
    35
390
0
 62
     7
 48
0.051653
100
AcDbLine
 10
758.7146
 20
283.684265
 30
0.0
 11
758.196045
 21
285.684265
 31
0.0
210
0.0
220
0.0
230
1.0
  0
LINE
  5
32
100
AcDbEntity
  8
0
370
    35
390
0
 62
     7
 48
0.046441
100
AcDbLine
 10
758.248413
 20
281.886078
 30
0.0
 11
758.7146
 21
283.684265
 31
0.0
210
0.0
220
0.0
230
1.0
  0
LINE
  5
33
100
AcDbEntity
  8
0
370
    35
390
0
 62
     7
 48
0.051653
100
AcDbLine
 10
758.7146
 20
287.684265
 30
0.0
 11
759.233154
 21
285.684265
 31
0.0
210
0.0
220
0.0
230
1.0
  0
LINE
  5
34
100
AcDbEntity
  8
0
370
    35
390
0
 62
     7
 48
0.047308
100
AcDbLine
 10
759.189453
 20
289.516022
 30
0.0
 11
758.7146
 21
287.684265
 31
0.0
210
0.0
220
0.0
230
1.0
  0
LINE
  5
35
100
AcDbEntity
  8
0
370
    35
390
0
 62
     7
 48
0.047388
100
AcDbLine
 10
759.751587
 20
287.684235
 30
0.0
 11
759.275879
 21
289.519104
 31
0.0
210
0.0
220
0.0
230
1.0
  0
LINE
  5
36
100
AcDbEntity
  8
0
370
    35
390
0
 62
     7
 48
0.05118
100
AcDbLine
 10
763.89978
 20
287.684265
 30
0.0
 11
763.385986
 21
289.665924
 31
0.0
210
0.0
220
0.0
230
1.0
  0
LINE
  5
37
100
AcDbEntity
  8
0
370
    35
390
0
 62
     7
 48
0.051653
100
AcDbLine
 10
763.381226
 20
285.684265
 30
0.0
 11
763.899658
 21
287.684265
 31
0.0
210
0.0
220
0.0
230
1.0
  0
LINE
  5
38
100
AcDbEntity
  8
0
370
    35
390
0
 62
     7
 48
0.051171
100
AcDbLine
 10
763.376343
 20
289.665558
 30
0.0
 11
762.862671
 21
287.684235
 31
0.0
210
0.0
220
0.0
230
1.0
  0
LINE
  5
39
100
AcDbEntity
  8
0
370
    35
390
0
 62
     7
 48
0.051653
100
AcDbLine
 10
759.233032
 20
285.684265
 30
0.0
 11
759.751465
 21
287.684265
 31
0.0
210
0.0
220
0.0
230
1.0
  0
LINE
  5
3A
100
AcDbEntity
  8
0
370
    35
390
0
 62
     7
 48
0.048274
100
AcDbLine
 10
759.751587
 20
283.684265
 30
0.0
 11
760.236206
 21
281.815125
 31
0.0
210
0.0
220
0.0
230
1.0
  0
LINE
  5
3B
100
AcDbEntity
  8
0
370
    35
390
0
 62
     7
 48
0.051653
100
AcDbLine
 10
760.270142
 20
285.684265
 30
0.0
 11
759.751587
 21
283.684265
 31
0.0
210
0.0
220
0.0
230
1.0
  0
LINE
  5
3C
100
AcDbEntity
  8
0
370
    35
390
0
 62
     7
 48
0.051653
100
AcDbLine
 10
760.788574
 20
283.684235
 30
0.0
 11
760.270142
 21
285.684265
 31
0.0
210
0.0
220
0.0
230
1.0
  0
LINE
  5
3D
100
AcDbEntity
  8
0
370
    35
390
0
 62
     7
 48
0.048336
100
AcDbLine
 10
760.303467
 20
281.812683
 30
0.0
 11
760.788696
 21
283.684235
 31
0.0
210
0.0
220
0.0
230
1.0
  0
LINE
  5
3E
100
AcDbEntity
  8
0
370
    35
390
0
 62
     7
 48
0.051653
100
AcDbLine
 10
760.788574
 20
287.684265
 30
0.0
 11
761.307129
 21
285.684265
 31
0.0
210
0.0
220
0.0
230
1.0
  0
LINE
  5
3F
100
AcDbEntity
  8
0
370
    35
390
0
 62
     7
 48
0.04924
100
AcDbLine
 10
761.282959
 20
289.59079
 30
0.0
 11
760.788574
 21
287.684265
 31
0.0
210
0.0
220
0.0
230
1.0
  0
LINE
  5
40
100
AcDbEntity
  8
0
370
    35
390
0
 62
     7
 48
0.049284
100
AcDbLine
 10
761.825684
 20
287.684265
 30
0.0
 11
761.330933
 21
289.592529
 31
0.0
210
0.0
220
0.0
230
1.0
  0
LINE
  5
41
100
AcDbEntity
  8
0
370
    35
390
0
 62
     7
 48
0.051653
100
AcDbLine
 10
761.307251
 20
285.684235
 30
0.0
 11
761.825684
 21
287.684235
 31
0.0
210
0.0
220
0.0
230
1.0
  0
LINE
  5
42
100
AcDbEntity
  8
0
370
    35
390
0
 62
     7
 48
0.050205
100
AcDbLine
 10
761.825562
 20
283.684265
 30
0.0
 11
762.32959
 21
281.740326
 31
0.0
210
0.0
220
0.0
230
1.0
  0
LINE
  5
43
100
AcDbEntity
  8
0
370
    35
390
0
 62
     7
 48
0.051653
100
AcDbLine
 10
762.344116
 20
285.684265
 30
0.0
 11
761.825684
 21
283.684265
 31
0.0
210
0.0
220
0.0
230
1.0
  0
LINE
  5
44
100
AcDbEntity
  8
0
370
    35
390
0
 62
     7
 48
0.051653
100
AcDbLine
 10
762.862671
 20
283.684265
 30
0.0
 11
762.344116
 21
285.684265
 31
0.0
210
0.0
220
0.0
230
1.0
  0
LINE
  5
45
100
AcDbEntity
  8
0
370
    35
390
0
 62
     7
 48
0.050232
100
AcDbLine
 10
762.358398
 20
281.739288
 30
0.0
 11
762.862671
 21
283.684265
 31
0.0
210
0.0
220
0.0
230
1.0
  0
LINE
  5
46
100
AcDbEntity
  8
0
370
    35
390
0
 62
     7
 48
0.051653
100
AcDbLine
 10
762.862671
 20
287.684265
 30
0.0
 11
763.381226
 21
285.684265
 31
0.0
210
0.0
220
0.0
230
1.0
  0
LINE
  5
47
100
AcDbEntity
  8
0
370
    35
390
0
 62
     7
 48
0.1625
100
AcDbLine
 10
785.199707
 20
288.934265
 30
0.0
 11
778.699707
 21
288.934265
 31
0.0
210
0.0
220
0.0
230
1.0
  0
LINE
  5
48
100
AcDbEntity
  8
0
370
    35
390
0
 62
     7
 48
0.1625
100
AcDbLine
 10
785.199707
 20
282.434265
 30
0.0
 11
778.699707
 21
282.434265
 31
0.0
210
0.0
220
0.0
230
1.0
  0
LINE
  5
49
100
AcDbEntity
  8
0
370
    35
390
0
 62
     7
 48
0.1625
100
AcDbLine
 10
778.699707
 20
282.434265
 30
0.0
 11
778.699707
 21
288.934265
 31
0.0
210
0.0
220
0.0
230
1.0
  0
LINE
  5
4A
100
AcDbEntity
  8
0
370
    35
390
0
 62
     7
 48
0.1625
100
AcDbLine
 10
785.199707
 20
282.434265
 30
0.0
 11
785.199707
 21
288.934265
 31
0.0
210
0.0
220
0.0
230
1.0
  0
LINE
  5
4B
100
AcDbEntity
  8
0
370
    35
390
0
 62
     7
 48
0.133721
100
AcDbLine
 10
768.89978
 20
291.584137
 30
0.0
 11
763.89978
 21
289.684143
 31
0.0
210
0.0
220
0.0
230
1.0
  0
LINE
  5
4C
100
AcDbEntity
  8
0
370
    35
390
0
 62
     7
 48
0.350223
100
AcDbLine
 10
749.899658
 20
289.184235
 30
0.0
 11
763.899658
 21
289.684235
 31
0.0
210
0.0
220
0.0
230
1.0
  0
LINE
  5
4D
100
AcDbEntity
  8
0
370
    35
390
0
 62
     7
 48
0.133721
100
AcDbLine
 10
768.89978
 20
279.784241
 30
0.0
 11
763.89978
 21
281.684235
 31
0.0
210
0.0
220
0.0
230
1.0
  0
LINE
  5
4E
100
AcDbEntity
  8
0
370
    35
390
0
 62
     7
 48
0.350223
100
AcDbLine
 10
749.89978
 20
282.184235
 30
0.0
 11
763.89978
 21
281.684235
 31
0.0
210
0.0
220
0.0
230
1.0
  0
LINE
  5
4F
100
AcDbEntity
  8
0
370
    35
390
0
 62
     7
 48
0.154999
100
AcDbLine
 10
799.399658
 20
290.684265
 30
0.0
 11
793.199707
 21
290.684265
 31
0.0
210
0.0
220
0.0
230
1.0
  0
LINE
  5
50
100
AcDbEntity
  8
0
370
    35
390
0
 62
     7
 48
0.154999
100
AcDbLine
 10
799.399658
 20
280.684265
 30
0.0
 11
793.199707
 21
280.684265
 31
0.0
210
0.0
220
0.0
230
1.0
  0
LINE
  5
51
100
AcDbEntity
  8
0
370
    35
390
0
 62
     7
 48
0.120001
100
AcDbLine
 10
793.199707
 20
291.584259
 30
0.0
 11
788.399658
 21
291.584259
 31
0.0
210
0.0
220
0.0
230
1.0
  0
LINE
  5
52
100
AcDbEntity
  8
0
370
    35
390
0
 62
     7
 48
0.120001
100
AcDbLine
 10
793.199707
 20
279.784271
 30
0.0
 11
788.399658
 21
279.784271
 31
0.0
210
0.0
220
0.0
230
1.0
  0
LINE
  5
53
100
AcDbEntity
  8
0
370
    35
390
0
 62
     7
 48
0.4875
100
AcDbLine
 10
788.399658
 20
292.184265
 30
0.0
 11
768.899658
 21
292.184265
 31
0.0
210
0.0
220
0.0
230
1.0
  0
LINE
  5
54
100
AcDbEntity
  8
0
370
    35
390
0
 62
     7
 48
0.4875
100
AcDbLine
 10
788.399658
 20
279.184265
 30
0.0
 11
768.899658
 21
279.184265
 31
0.0
210
0.0
220
0.0
230
1.0
  0
LINE
  5
55
100
AcDbEntity
  8
0
370
    35
390
0
 62
     7
 48
0.325
100
AcDbLine
 10
788.399658
 20
279.184265
 30
0.0
 11
788.399658
 21
292.184265
 31
0.0
210
0.0
220
0.0
230
1.0
  0
LINE
  5
56
100
AcDbEntity
  8
0
370
    35
390
0
 62
     7
 48
0.325
100
AcDbLine
 10
768.899658
 20
279.184265
 30
0.0
 11
768.899658
 21
292.184265
 31
0.0
210
0.0
220
0.0
230
1.0
  0
LINE
  5
57
100
AcDbEntity
  8
0
370
    35
390
0
 62
     7
 48
0.175
100
AcDbLine
 10
749.899658
 20
282.184265
 30
0.0
 11
749.899658
 21
289.184265
 31
0.0
210
0.0
220
0.0
230
1.0
  0
LINE
  5
58
100
AcDbEntity
  8
0
370
    35
390
0
 62
     7
 48
0.295
100
AcDbLine
 10
793.199707
 20
279.784271
 30
0.0
 11
793.199707
 21
291.584259
 31
0.0
210
0.0
220
0.0
230
1.0
  0
LINE
  5
59
100
AcDbEntity
  8
0
370
    35
390
0
 62
     7
 48
0.25
100
AcDbLine
 10
799.399658
 20
280.684265
 30
0.0
 11
799.399658
 21
290.684265
 31
0.0
210
0.0
220
0.0
230
1.0
  0
LINE
  5
5A
100
AcDbEntity
  8
0
370
    35
390
0
 62
     7
 48
0.199999
100
AcDbLine
 10
763.899658
 20
281.684265
 30
0.0
 11
763.899658
 21
289.684235
 31
0.0
210
0.0
220
0.0
230
1.0
  0
LINE
  5
5B
100
AcDbEntity
  8
0
370
    35
390
0
 62
     7
 48
0.051654
100
AcDbLine
 10
756.640503
 20
283.684235
 30
0.0
 11
756.121948
 21
285.684265
 31
0.0
210
0.0
220
0.0
230
1.0
  0
LINE
  5
5C
100
AcDbEntity
  8
0
370
    35
390
0
 62
     7
 48
0.051653
100
AcDbLine
 10
756.121948
 20
285.684235
 30
0.0
 11
755.603394
 21
283.684235
 31
0.0
210
0.0
220
0.0
230
1.0
  0
LINE
  5
5D
100
AcDbEntity
  8
0
370
    35
390
0
 62
     7
 48
0.044412
100
AcDbLine
 10
755.603394
 20
283.684265
 30
0.0
 11
756.049194
 21
281.96463
 31
0.0
210
0.0
220
0.0
230
1.0
  0
LINE
  5
5E
100
AcDbEntity
  8
0
370
    35
390
0
 62
     7
 48
0.051653
100
AcDbLine
 10
755.084961
 20
285.684265
 30
0.0
 11
755.603394
 21
287.684265
 31
0.0
210
0.0
220
0.0
230
1.0
  0
LINE
  5
5F
100
AcDbEntity
  8
0
370
    35
390
0
 62
     7
 48
0.043596
100
AcDbLine
 10
755.603394
 20
287.684265
 30
0.0
 11
755.165771
 21
289.372314
 31
0.0
210
0.0
220
0.0
230
1.0
  0
LINE
  5
60
100
AcDbEntity
  8
0
370
    35
390
0
 62
     7
 48
0.043446
100
AcDbLine
 10
755.002563
 20
289.366486
 30
0.0
 11
754.566406
 21
287.684265
 31
0.0
210
0.0
220
0.0
230
1.0
  0
LINE
  5
61
100
AcDbEntity
  8
0
370
    35
390
0
 62
     7
 48
0.051653
100
AcDbLine
 10
754.566284
 20
287.684265
 30
0.0
 11
755.084839
 21
285.684265
 31
0.0
210
0.0
220
0.0
230
1.0
  0
LINE
  5
62
100
AcDbEntity
  8
0
370
    35
390
0
 62
     7
 48
0.042648
100
AcDbLine
 10
754.138306
 20
282.032898
 30
0.0
 11
754.566284
 21
283.684265
 31
0.0
210
0.0
220
0.0
230
1.0
  0
LINE
  5
63
100
AcDbEntity
  8
0
370
    35
390
0
 62
     7
 48
0.051653
100
AcDbLine
 10
754.566284
 20
283.684265
 30
0.0
 11
754.047852
 21
285.684265
 31
0.0
210
0.0
220
0.0
230
1.0
  0
LINE
  5
64
100
AcDbEntity
  8
0
370
    35
390
0
 62
     7
 48
0.051653
100
AcDbLine
 10
754.047852
 20
285.684265
 30
0.0
 11
753.529297
 21
283.684265
 31
0.0
210
0.0
220
0.0
230
1.0
  0
LINE
  5
65
100
AcDbEntity
  8
0
370
    35
390
0
 62
     7
 48
0.042481
100
AcDbLine
 10
753.529419
 20
283.684265
 30
0.0
 11
753.955811
 21
282.039398
 31
0.0
210
0.0
220
0.0
230
1.0
  0
LINE
  5
66
100
AcDbEntity
  8
0
370
    35
390
0
 62
     7
 48
0.051653
100
AcDbLine
 10
753.010864
 20
285.684235
 30
0.0
 11
753.529419
 21
287.684235
 31
0.0
210
0.0
220
0.0
230
1.0
  0
LINE
  5
67
100
AcDbEntity
  8
0
370
    35
390
0
 62
     7
 48
0.041702
100
AcDbLine
 10
753.529419
 20
287.684265
 30
0.0
 11
753.110718
 21
289.29895
 31
0.0
210
0.0
220
0.0
230
1.0
  0
LINE
  5
68
100
AcDbEntity
  8
0
370
    35
390
0
 62
     7
 48
0.041516
100
AcDbLine
 10
752.909058
 20
289.291718
 30
0.0
 11
752.49231
 21
287.684235
 31
0.0
210
0.0
220
0.0
230
1.0
  0
LINE
  5
69
100
AcDbEntity
  8
0
370
    35
390
0
 62
     7
 48
0.051653
100
AcDbLine
 10
752.49231
 20
287.684265
 30
0.0
 11
753.010864
 21
285.684265
 31
0.0
210
0.0
220
0.0
230
1.0
  0
LINE
  5
6A
100
AcDbEntity
  8
0
370
    35
390
0
 62
     7
 48
0.040753
100
AcDbLine
 10
752.083252
 20
282.106262
 30
0.0
 11
752.49231
 21
283.684235
 31
0.0
210
0.0
220
0.0
230
1.0
  0
LINE
  5
6B
100
AcDbEntity
  8
0
370
    35
390
0
 62
     7
 48
0.051653
100
AcDbLine
 10
752.49231
 20
283.684265
 30
0.0
 11
751.973755
 21
285.684265
 31
0.0
210
0.0
220
0.0
230
1.0
  0
LINE
  5
6C
100
AcDbEntity
  8
0
370
    35
390
0
 62
     7
 48
0.051653
100
AcDbLine
 10
751.973755
 20
285.684265
 30
0.0
 11
751.4552
 21
283.684265
 31
0.0
210
0.0
220
0.0
230
1.0
  0
LINE
  5
6D
100
AcDbEntity
  8
0
370
    35
390
0
 62
     7
 48
0.04055
100
AcDbLine
 10
751.4552
 20
283.684265
 30
0.0
 11
751.862305
 21
282.114166
 31
0.0
210
0.0
220
0.0
230
1.0
  0
LINE
  5
6E
100
AcDbEntity
  8
0
370
    35
390
0
 62
     7
 48
0.051653
100
AcDbLine
 10
750.936768
 20
285.684235
 30
0.0
 11
751.455322
 21
287.684235
 31
0.0
210
0.0
220
0.0
230
1.0
  0
LINE
  5
6F
100
AcDbEntity
  8
0
370
    35
390
0
 62
     7
 48
0.039807
100
AcDbLine
 10
751.455322
 20
287.684265
 30
0.0
 11
751.055664
 21
289.225555
 31
0.0
210
0.0
220
0.0
230
1.0
  0
LINE
  5
70
100
AcDbEntity
  8
0
370
    35
390
0
 62
     7
 48
0.039585
100
AcDbLine
 10
750.815674
 20
289.216949
 30
0.0
 11
750.418213
 21
287.684265
 31
0.0
210
0.0
220
0.0
230
1.0
  0
LINE
  5
71
100
AcDbEntity
  8
0
370
    35
390
0
 62
     7
 48
0.051653
100
AcDbLine
 10
750.418335
 20
287.684265
 30
0.0
 11
750.936768
 21
285.684265
 31
0.0
210
0.0
220
0.0
230
1.0
  0
LINE
  5
72
100
AcDbEntity
  8
0
370
    35
390
0
 62
     7
 48
0.1625
100
AcDbLine
 10
773.199707
 20
282.434265
 30
0.0
 11
773.199707
 21
288.934265
 31
0.0
210
0.0
220
0.0
230
1.0
  0
LINE
  5
73
100
AcDbEntity
  8
0
370
    35
390
0
 62
     7
 48
0.1625
100
AcDbLine
 10
774.699707
 20
282.434265
 30
0.0
 11
774.699707
 21
288.934265
 31
0.0
210
0.0
220
0.0
230
1.0
  0
LINE
  5
74
100
AcDbEntity
  8
0
370
    35
390
0
 62
     7
 48
0.1625
100
AcDbLine
 10
775.199707
 20
282.434265
 30
0.0
 11
775.199707
 21
288.934265
 31
0.0
210
0.0
220
0.0
230
1.0
  0
LINE
  5
75
100
AcDbEntity
  8
0
370
    35
390
0
 62
     7
 48
0.1625
100
AcDbLine
 10
776.699707
 20
282.434265
 30
0.0
 11
776.699707
 21
288.934265
 31
0.0
210
0.0
220
0.0
230
1.0
  0
LINE
  5
76
100
AcDbEntity
  8
0
370
    35
390
0
 62
     7
 48
0.1625
100
AcDbLine
 10
777.199707
 20
282.434265
 30
0.0
 11
777.199707
 21
288.934265
 31
0.0
210
0.0
220
0.0
230
1.0
  0
LINE
  5
77
100
AcDbEntity
  8
0
370
    35
390
0
 62
     7
 48
0.1625
100
AcDbLine
 10
772.699707
 20
282.434265
 30
0.0
 11
772.699707
 21
288.934265
 31
0.0
210
0.0
220
0.0
230
1.0
  0
LINE
  5
78
100
AcDbEntity
  8
0
370
    35
390
0
 62
     7
 48
0.0125
100
AcDbLine
 10
777.199707
 20
282.434265
 30
0.0
 11
776.699707
 21
282.434265
 31
0.0
210
0.0
220
0.0
230
1.0
  0
LINE
  5
79
100
AcDbEntity
  8
0
370
    35
390
0
 62
     7
 48
0.0125
100
AcDbLine
 10
777.199707
 20
288.934265
 30
0.0
 11
776.699707
 21
288.934265
 31
0.0
210
0.0
220
0.0
230
1.0
  0
LINE
  5
7A
100
AcDbEntity
  8
0
370
    35
390
0
 62
     7
 48
0.0125
100
AcDbLine
 10
775.199707
 20
282.434265
 30
0.0
 11
774.699707
 21
282.434265
 31
0.0
210
0.0
220
0.0
230
1.0
  0
LINE
  5
7B
100
AcDbEntity
  8
0
370
    35
390
0
 62
     7
 48
0.0125
100
AcDbLine
 10
775.199707
 20
288.934265
 30
0.0
 11
774.699707
 21
288.934265
 31
0.0
210
0.0
220
0.0
230
1.0
  0
LINE
  5
7C
100
AcDbEntity
  8
0
370
    35
390
0
 62
     7
 48
0.0125
100
AcDbLine
 10
773.199707
 20
282.434265
 30
0.0
 11
772.699707
 21
282.434265
 31
0.0
210
0.0
220
0.0
230
1.0
  0
LINE
  5
7D
100
AcDbEntity
  8
0
370
    35
390
0
 62
     7
 48
0.0125
100
AcDbLine
 10
773.199707
 20
288.934265
 30
0.0
 11
772.699707
 21
288.934265
 31
0.0
210
0.0
220
0.0
230
1.0
  0
LINE
  5
7E
100
AcDbEntity
  8
0
370
    35
390
0
 62
     7
 48
0.084085
100
AcDbLine
 10
784.199707
 20
285.684265
 30
0.0
 11
781.699707
 21
287.934265
 31
0.0
210
0.0
220
0.0
230
1.0
  0
LINE
  5
7F
100
AcDbEntity
  8
0
370
    35
390
0
 62
     7
 48
0.05
100
AcDbLine
 10
779.699707
 20
284.684265
 30
0.0
 11
779.699707
 21
286.684265
 31
0.0
210
0.0
220
0.0
230
1.0
  0
LINE
  5
80
100
AcDbEntity
  8
0
370
    35
390
0
 62
     7
 48
0.084087
100
AcDbLine
 10
781.699707
 20
283.434174
 30
0.0
 11
784.199829
 21
285.684174
 31
0.0
210
0.0
220
0.0
230
1.0
  0
LINE
  5
81
100
AcDbEntity
  8
0
370
    35
390
0
 62
     7
 48
0.03125
100
AcDbLine
 10
781.699707
 20
286.684265
 30
0.0
 11
781.699707
 21
287.934265
 31
0.0
210
0.0
220
0.0
230
1.0
  0
LINE
  5
82
100
AcDbEntity
  8
0
370
    35
390
0
 62
     7
 48
0.05
100
AcDbLine
 10
781.699707
 20
284.684265
 30
0.0
 11
779.699707
 21
284.684265
 31
0.0
210
0.0
220
0.0
230
1.0
  0
LINE
  5
83
100
AcDbEntity
  8
0
370
    35
390
0
 62
     7
 48
0.05
100
AcDbLine
 10
781.699707
 20
286.684265
 30
0.0
 11
779.699707
 21
286.684265
 31
0.0
210
0.0
220
0.0
230
1.0
  0
LINE
  5
84
100
AcDbEntity
  8
0
370
    35
390
0
 62
     7
 48
0.03125
100
AcDbLine
 10
781.699707
 20
283.434265
 30
0.0
 11
781.699707
 21
284.684265
 31
0.0
210
0.0
220
0.0
230
1.0
  0
LINE
  5
85
100
AcDbEntity
  8
0
370
    35
390
0
 62
     7
 48
0.000125
100
AcDbLine
 10
707.300537
 20
298.879242
 30
0.0
 11
707.305542
 21
298.879242
 31
0.0
210
0.0
220
0.0
230
1.0
  0
LINE
  5
86
100
AcDbEntity
  8
0
370
    35
390
0
 62
     7
 48
0.020001
100
AcDbLine
 10
707.305542
 20
298.879242
 30
0.0
 11
708.105591
 21
298.879242
 31
0.0
210
0.0
220
0.0
230
1.0
  0
LINE
  5
87
100
AcDbEntity
  8
0
370
    35
390
0
 62
     7
 48
0.020125
100
AcDbLine
 10
707.300537
 20
298.879242
 30
0.0
 11
707.300537
 21
299.684235
 31
0.0
210
0.0
220
0.0
230
1.0
  0
LINE
  5
88
100
AcDbEntity
  8
0
370
    35
390
0
 62
     7
100
AcDbLine
 10
607.910522
 20
299.684235
 30
0.0
 11
707.300537
 21
299.684235
 31
0.0
210
0.0
220
0.0
230
1.0
  0
LINE
  5
89
100
AcDbEntity
  8
0
370
    35
390
0
 62
     7
 48
0.020123
100
AcDbLine
 10
607.105591
 20
299.684235
 30
0.0
 11
607.910522
 21
299.684235
 31
0.0
210
0.0
220
0.0
230
1.0
  0
LINE
  5
8A
100
AcDbEntity
  8
0
370
    35
390
0
 62
     7
 48
0.020126
100
AcDbLine
 10
707.300537
 20
299.684235
 30
0.0
 11
708.105591
 21
299.684235
 31
0.0
210
0.0
220
0.0
230
1.0
  0
LINE
  5
8B
100
AcDbEntity
  8
0
370
    35
390
0
 62
     7
 48
0.020123
100
AcDbLine
 10
607.105591
 20
298.884216
 30
0.0
 11
607.910522
 21
298.884216
 31
0.0
210
0.0
220
0.0
230
1.0
  0
LINE
  5
8C
100
AcDbEntity
  8
0
370
    35
390
0
 62
     7
 48
0.020126
100
AcDbLine
 10
707.300537
 20
298.884216
 30
0.0
 11
708.105591
 21
298.884216
 31
0.0
210
0.0
220
0.0
230
1.0
  0
LINE
  5
8D
100
AcDbEntity
  8
0
370
    35
390
0
 62
     7
 48
0.02
100
AcDbLine
 10
607.105591
 20
298.884216
 30
0.0
 11
607.105591
 21
299.684235
 31
0.0
210
0.0
220
0.0
230
1.0
  0
LINE
  5
8E
100
AcDbEntity
  8
0
370
    35
390
0
 62
     7
 48
0.02
100
AcDbLine
 10
708.105591
 20
298.884216
 30
0.0
 11
708.105591
 21
299.684235
 31
0.0
210
0.0
220
0.0
230
1.0
  0
LINE
  5
8F
100
AcDbEntity
  8
0
370
    35
390
0
 62
     7
100
AcDbLine
 10
607.105591
 20
271.684235
 30
0.0
 11
708.105591
 21
271.684235
 31
0.0
210
0.0
220
0.0
230
1.0
  0
LINE
  5
90
100
AcDbEntity
  8
0
370
    35
390
0
 62
     7
 48
0.02
100
AcDbLine
 10
708.105591
 20
271.684235
 30
0.0
 11
708.105591
 21
272.484222
 31
0.0
210
0.0
220
0.0
230
1.0
  0
LINE
  5
91
100
AcDbEntity
  8
0
370
    35
390
0
 62
     7
 48
0.020123
100
AcDbLine
 10
607.105591
 20
272.484222
 30
0.0
 11
607.910522
 21
272.484222
 31
0.0
210
0.0
220
0.0
230
1.0
  0
LINE
  5
92
100
AcDbEntity
  8
0
370
    35
390
0
 62
     7
 48
0.02
100
AcDbLine
 10
607.105591
 20
271.684235
 30
0.0
 11
607.105591
 21
272.484222
 31
0.0
210
0.0
220
0.0
230
1.0
  0
LINE
  5
93
100
AcDbEntity
  8
0
370
    35
390
0
 62
     7
 48
0.437376
100
AcDbLine
 10
607.105591
 20
298.879242
 30
0.0
 11
607.105591
 21
281.384216
 31
0.0
210
0.0
220
0.0
230
1.0
  0
LINE
  5
94
100
AcDbEntity
  8
0
370
    35
390
0
 62
     7
 48
0.000125
100
AcDbLine
 10
607.905518
 20
272.489227
 30
0.0
 11
607.910522
 21
272.489227
 31
0.0
210
0.0
220
0.0
230
1.0
  0
LINE
  5
95
100
AcDbEntity
  8
0
370
    35
390
0
 62
     7
 48
0.019998
100
AcDbLine
 10
607.905518
 20
272.489227
 30
0.0
 11
607.105591
 21
272.489227
 31
0.0
210
0.0
220
0.0
230
1.0
  0
LINE
  5
96
100
AcDbEntity
  8
0
370
    35
390
0
 62
     7
 48
0.020125
100
AcDbLine
 10
607.910522
 20
271.684235
 30
0.0
 11
607.910522
 21
272.489227
 31
0.0
210
0.0
220
0.0
230
1.0
  0
LINE
  5
97
100
AcDbEntity
  8
0
370
    35
390
0
 62
     7
 48
0.020125
100
AcDbLine
 10
707.300537
 20
271.684235
 30
0.0
 11
707.300537
 21
272.489227
 31
0.0
210
0.0
220
0.0
230
1.0
  0
LINE
  5
98
100
AcDbEntity
  8
0
370
    35
390
0
 62
     7
 48
0.020125
100
AcDbLine
 10
607.910522
 20
298.879242
 30
0.0
 11
607.910522
 21
299.684235
 31
0.0
210
0.0
220
0.0
230
1.0
  0
LINE
  5
99
100
AcDbEntity
  8
0
370
    35
390
0
 62
     7
 48
0.000125
100
AcDbLine
 10
607.905518
 20
298.879242
 30
0.0
 11
607.910522
 21
298.879242
 31
0.0
210
0.0
220
0.0
230
1.0
  0
LINE
  5
9A
100
AcDbEntity
  8
0
370
    35
390
0
 62
     7
 48
0.000125
100
AcDbLine
 10
707.300537
 20
272.489227
 30
0.0
 11
707.305542
 21
272.489227
 31
0.0
210
0.0
220
0.0
230
1.0
  0
LINE
  5
9B
100
AcDbEntity
  8
0
370
    35
390
0
 62
     7
 48
0.437375
100
AcDbLine
 10
708.105591
 20
272.489227
 30
0.0
 11
708.105591
 21
289.984222
 31
0.0
210
0.0
220
0.0
230
1.0
  0
LINE
  5
9C
100
AcDbEntity
  8
0
370
    35
390
0
 62
     7
 48
0.197375
100
AcDbLine
 10
708.105591
 20
290.984222
 30
0.0
 11
708.105591
 21
298.879242
 31
0.0
210
0.0
220
0.0
230
1.0
  0
LINE
  5
9D
100
AcDbEntity
  8
0
370
    35
390
0
 62
     7
 48
0.025
100
AcDbLine
 10
708.105591
 20
289.984222
 30
0.0
 11
708.105591
 21
290.984222
 31
0.0
210
0.0
220
0.0
230
1.0
  0
LINE
  5
9E
100
AcDbEntity
  8
0
370
    35
390
0
 62
     7
 48
0.197375
100
AcDbLine
 10
607.105591
 20
280.384216
 30
0.0
 11
607.105591
 21
272.489227
 31
0.0
210
0.0
220
0.0
230
1.0
  0
LINE
  5
9F
100
AcDbEntity
  8
0
370
    35
390
0
 62
     7
 48
0.025
100
AcDbLine
 10
607.105591
 20
281.384216
 30
0.0
 11
607.105591
 21
280.384216
 31
0.0
210
0.0
220
0.0
230
1.0
  0
LINE
  5
A0
100
AcDbEntity
  8
0
370
    35
390
0
 62
     7
 48
0.122375
100
AcDbLine
 10
598.105591
 20
296.879242
 30
0.0
 11
598.105591
 21
291.984222
 31
0.0
210
0.0
220
0.0
230
1.0
  0
LINE
  5
A1
100
AcDbEntity
  8
0
370
    35
390
0
 62
     7
 48
0.122375
100
AcDbLine
 10
717.105591
 20
274.489227
 30
0.0
 11
717.105591
 21
279.384216
 31
0.0
210
0.0
220
0.0
230
1.0
  0
LINE
  5
A2
100
AcDbEntity
  8
0
370
    35
390
0
 62
     7
 48
0.175
100
AcDbLine
 10
715.105591
 20
281.384216
 30
0.0
 11
708.105591
 21
281.384216
 31
0.0
210
0.0
220
0.0
230
1.0
  0
LINE
  5
A3
100
AcDbEntity
  8
0
370
    35
390
0
 62
     7
 48
0.175
100
AcDbLine
 10
715.105591
 20
272.489227
 30
0.0
 11
708.105591
 21
272.489227
 31
0.0
210
0.0
220
0.0
230
1.0
  0
LINE
  5
A4
100
AcDbEntity
  8
0
370
    35
390
0
 62
     7
 48
0.020001
100
AcDbLine
 10
707.305542
 20
272.489227
 30
0.0
 11
708.105591
 21
272.489227
 31
0.0
210
0.0
220
0.0
230
1.0
  0
LINE
  5
A5
100
AcDbEntity
  8
0
370
    35
390
0
 62
     7
 48
0.222375
100
AcDbLine
 10
708.105591
 20
281.384216
 30
0.0
 11
708.105591
 21
272.489227
 31
0.0
210
0.0
220
0.0
230
1.0
  0
LINE
  5
A6
100
AcDbEntity
  8
0
370
    35
390
0
 62
     7
 48
0.175
100
AcDbLine
 10
607.105591
 20
289.984222
 30
0.0
 11
600.105591
 21
289.984222
 31
0.0
210
0.0
220
0.0
230
1.0
  0
LINE
  5
A7
100
AcDbEntity
  8
0
370
    35
390
0
 62
     7
 48
0.019998
100
AcDbLine
 10
607.105591
 20
298.879242
 30
0.0
 11
607.905518
 21
298.879242
 31
0.0
210
0.0
220
0.0
230
1.0
  0
LINE
  5
A8
100
AcDbEntity
  8
0
370
    35
390
0
 62
     7
 48
0.175
100
AcDbLine
 10
600.105591
 20
298.879242
 30
0.0
 11
607.105591
 21
298.879242
 31
0.0
210
0.0
220
0.0
230
1.0
  0
LINE
  5
A9
100
AcDbEntity
  8
0
370
    35
390
0
 62
     7
 48
0.222375
100
AcDbLine
 10
607.105591
 20
298.879242
 30
0.0
 11
607.105591
 21
289.984222
 31
0.0
210
0.0
220
0.0
230
1.0
  0
LINE
  5
AA
100
AcDbEntity
  8
0
370
    35
390
0
 62
     7
 48
0.020126
100
AcDbLine
 10
707.300537
 20
272.484222
 30
0.0
 11
708.105591
 21
272.484222
 31
0.0
210
0.0
220
0.0
230
1.0
  0
LINE
  5
AB
100
AcDbEntity
  8
0
370
    35
390
0
 62
     7
 48
0.195
100
AcDbLine
 10
596.005615
 20
289.584229
 30
0.0
 11
596.005615
 21
281.784241
 31
0.0
210
0.0
220
0.0
230
1.0
  0
LINE
  5
AC
100
AcDbEntity
  8
0
370
    35
390
0
 62
     7
 48
0.028765
100
AcDbLine
 10
607.105591
 20
281.434631
 30
0.0
 11
605.955566
 21
281.470856
 31
0.0
210
0.0
220
0.0
230
1.0
  0
LINE
  5
AD
100
AcDbEntity
  8
0
370
    35
390
0
 62
     7
 48
0.028765
100
AcDbLine
 10
607.105591
 20
289.933838
 30
0.0
 11
605.955566
 21
289.897614
 31
0.0
210
0.0
220
0.0
230
1.0
  0
LINE
  5
AE
100
AcDbEntity
  8
0
370
    35
390
0
 62
     7
 48
0.012506
100
AcDbLine
 10
605.955566
 20
281.9711
 30
0.0
 11
605.455566
 21
281.986847
 31
0.0
210
0.0
220
0.0
230
1.0
  0
LINE
  5
AF
100
AcDbEntity
  8
0
370
    35
390
0
 62
     7
 48
0.012506
100
AcDbLine
 10
605.955566
 20
289.397369
 30
0.0
 11
605.455566
 21
289.381622
 31
0.0
210
0.0
220
0.0
230
1.0
  0
LINE
  5
B0
100
AcDbEntity
  8
0
370
    35
390
0
 62
     7
 48
0.210669
100
AcDbLine
 10
605.955566
 20
289.897614
 30
0.0
 11
605.955566
 21
281.470856
 31
0.0
210
0.0
220
0.0
230
1.0
  0
LINE
  5
B1
100
AcDbEntity
  8
0
370
    35
390
0
 62
     7
 48
0.209882
100
AcDbLine
 10
605.455566
 20
289.881866
 30
0.0
 11
605.455566
 21
281.486603
 31
0.0
210
0.0
220
0.0
230
1.0
  0
LINE
  5
B2
100
AcDbEntity
  8
0
370
    35
390
0
 62
     7
 48
0.208307
100
AcDbLine
 10
604.455566
 20
289.850372
 30
0.0
 11
604.455566
 21
281.518097
 31
0.0
210
0.0
220
0.0
230
1.0
  0
LINE
  5
B3
100
AcDbEntity
  8
0
370
    35
390
0
 62
     7
 48
0.20752
100
AcDbLine
 10
603.955566
 20
289.834625
 30
0.0
 11
603.955566
 21
281.533844
 31
0.0
210
0.0
220
0.0
230
1.0
  0
LINE
  5
B4
100
AcDbEntity
  8
0
370
    35
390
0
 62
     7
 48
0.205157
100
AcDbLine
 10
602.455566
 20
289.787384
 30
0.0
 11
602.455566
 21
281.581085
 31
0.0
210
0.0
220
0.0
230
1.0
  0
LINE
  5
B5
100
AcDbEntity
  8
0
370
    35
390
0
 62
     7
 48
0.205945
100
AcDbLine
 10
602.955566
 20
289.803131
 30
0.0
 11
602.955566
 21
281.565338
 31
0.0
210
0.0
220
0.0
230
1.0
  0
LINE
  5
B6
100
AcDbEntity
  8
0
370
    35
390
0
 62
     7
 48
0.203583
100
AcDbLine
 10
601.455566
 20
289.75589
 30
0.0
 11
601.455566
 21
281.612579
 31
0.0
210
0.0
220
0.0
230
1.0
  0
LINE
  5
B7
100
AcDbEntity
  8
0
370
    35
390
0
 62
     7
 48
0.202795
100
AcDbLine
 10
600.955566
 20
289.740143
 30
0.0
 11
600.955566
 21
281.628326
 31
0.0
210
0.0
220
0.0
230
1.0
  0
LINE
  5
B8
100
AcDbEntity
  8
0
370
    35
390
0
 62
     7
 48
0.200433
100
AcDbLine
 10
599.455566
 20
289.692902
 30
0.0
 11
599.455566
 21
281.675568
 31
0.0
210
0.0
220
0.0
230
1.0
  0
LINE
  5
B9
100
AcDbEntity
  8
0
370
    35
390
0
 62
     7
 48
0.201221
100
AcDbLine
 10
599.955566
 20
289.708649
 30
0.0
 11
599.955566
 21
281.659821
 31
0.0
210
0.0
220
0.0
230
1.0
  0
LINE
  5
BA
100
AcDbEntity
  8
0
370
    35
390
0
 62
     7
 48
0.086292
100
AcDbLine
 10
599.455566
 20
281.675568
 30
0.0
 11
596.005615
 21
281.784241
 31
0.0
210
0.0
220
0.0
230
1.0
  0
LINE
  5
BB
100
AcDbEntity
  8
0
370
    35
390
0
 62
     7
 48
0.025012
100
AcDbLine
 10
600.955566
 20
281.628326
 30
0.0
 11
599.955566
 21
281.659821
 31
0.0
210
0.0
220
0.0
230
1.0
  0
LINE
  5
BC
100
AcDbEntity
  8
0
370
    35
390
0
 62
     7
 48
0.025012
100
AcDbLine
 10
602.455566
 20
281.581085
 30
0.0
 11
601.455566
 21
281.612579
 31
0.0
210
0.0
220
0.0
230
1.0
  0
LINE
  5
BD
100
AcDbEntity
  8
0
370
    35
390
0
 62
     7
 48
0.025012
100
AcDbLine
 10
603.955566
 20
281.533844
 30
0.0
 11
602.955566
 21
281.565338
 31
0.0
210
0.0
220
0.0
230
1.0
  0
LINE
  5
BE
100
AcDbEntity
  8
0
370
    35
390
0
 62
     7
 48
0.025012
100
AcDbLine
 10
605.455566
 20
281.486603
 30
0.0
 11
604.455566
 21
281.518097
 31
0.0
210
0.0
220
0.0
230
1.0
  0
LINE
  5
BF
100
AcDbEntity
  8
0
370
    35
390
0
 62
     7
 48
0.025012
100
AcDbLine
 10
605.455566
 20
289.881866
 30
0.0
 11
604.455566
 21
289.850372
 31
0.0
210
0.0
220
0.0
230
1.0
  0
LINE
  5
C0
100
AcDbEntity
  8
0
370
    35
390
0
 62
     7
 48
0.025012
100
AcDbLine
 10
603.955566
 20
289.834625
 30
0.0
 11
602.955566
 21
289.803131
 31
0.0
210
0.0
220
0.0
230
1.0
  0
LINE
  5
C1
100
AcDbEntity
  8
0
370
    35
390
0
 62
     7
 48
0.025012
100
AcDbLine
 10
602.455566
 20
289.787384
 30
0.0
 11
601.455566
 21
289.75589
 31
0.0
210
0.0
220
0.0
230
1.0
  0
LINE
  5
C2
100
AcDbEntity
  8
0
370
    35
390
0
 62
     7
 48
0.025012
100
AcDbLine
 10
600.955566
 20
289.740143
 30
0.0
 11
599.955566
 21
289.708649
 31
0.0
210
0.0
220
0.0
230
1.0
  0
LINE
  5
C3
100
AcDbEntity
  8
0
370
    35
390
0
 62
     7
 48
0.086292
100
AcDbLine
 10
599.455566
 20
289.692902
 30
0.0
 11
596.005615
 21
289.584229
 31
0.0
210
0.0
220
0.0
230
1.0
  0
LINE
  5
C4
100
AcDbEntity
  8
0
370
    35
390
0
 62
     7
 48
0.012506
100
AcDbLine
 10
599.955566
 20
282.160065
 30
0.0
 11
599.455566
 21
282.175812
 31
0.0
210
0.0
220
0.0
230
1.0
  0
LINE
  5
C5
100
AcDbEntity
  8
0
370
    35
390
0
 62
     7
 48
0.012506
100
AcDbLine
 10
601.455566
 20
282.112823
 30
0.0
 11
600.955566
 21
282.128571
 31
0.0
210
0.0
220
0.0
230
1.0
  0
LINE
  5
C6
100
AcDbEntity
  8
0
370
    35
390
0
 62
     7
 48
0.012506
100
AcDbLine
 10
602.955566
 20
282.065582
 30
0.0
 11
602.455566
 21
282.081329
 31
0.0
210
0.0
220
0.0
230
1.0
  0
LINE
  5
C7
100
AcDbEntity
  8
0
370
    35
390
0
 62
     7
 48
0.012506
100
AcDbLine
 10
604.455566
 20
282.018341
 30
0.0
 11
603.955566
 21
282.034088
 31
0.0
210
0.0
220
0.0
230
1.0
  0
LINE
  5
C8
100
AcDbEntity
  8
0
370
    35
390
0
 62
     7
 48
0.012506
100
AcDbLine
 10
599.955566
 20
289.208405
 30
0.0
 11
599.455566
 21
289.192657
 31
0.0
210
0.0
220
0.0
230
1.0
  0
LINE
  5
C9
100
AcDbEntity
  8
0
370
    35
390
0
 62
     7
 48
0.012506
100
AcDbLine
 10
601.455566
 20
289.255646
 30
0.0
 11
600.955566
 21
289.239899
 31
0.0
210
0.0
220
0.0
230
1.0
  0
LINE
  5
CA
100
AcDbEntity
  8
0
370
    35
390
0
 62
     7
 48
0.012506
100
AcDbLine
 10
602.955566
 20
289.302887
 30
0.0
 11
602.455566
 21
289.28714
 31
0.0
210
0.0
220
0.0
230
1.0
  0
LINE
  5
CB
100
AcDbEntity
  8
0
370
    35
390
0
 62
     7
 48
0.012506
100
AcDbLine
 10
604.455566
 20
289.350128
 30
0.0
 11
603.955566
 21
289.334381
 31
0.0
210
0.0
220
0.0
230
1.0
  0
LINE
  5
CC
100
AcDbEntity
  8
0
370
    35
390
0
 62
     7
100
AcDbLine
 10
596.005615
 20
282.784241
 30
0.0
 11
550.495239
 21
282.784241
 31
0.0
210
0.0
220
0.0
230
1.0
  0
LINE
  5
CD
100
AcDbEntity
  8
0
370
    35
390
0
 62
     7
100
AcDbLine
 10
596.005615
 20
288.584229
 30
0.0
 11
550.469238
 21
288.584229
 31
0.0
210
0.0
220
0.0
230
1.0
  0
LINE
  5
CE
100
AcDbEntity
  8
0
370
    35
390
0
 62
     7
 48
0.301218
100
AcDbLine
 10
719.205566
 20
282.784241
 30
0.0
 11
731.254272
 21
282.784241
 31
0.0
210
0.0
220
0.0
230
1.0
  0
LINE
  5
CF
100
AcDbEntity
  8
0
370
    35
390
0
 62
     7
 48
0.012506
100
AcDbLine
 10
710.755615
 20
289.350128
 30
0.0
 11
711.255615
 21
289.334381
 31
0.0
210
0.0
220
0.0
230
1.0
  0
LINE
  5
D0
100
AcDbEntity
  8
0
370
    35
390
0
 62
     7
 48
0.012506
100
AcDbLine
 10
712.255615
 20
289.302887
 30
0.0
 11
712.755615
 21
289.28714
 31
0.0
210
0.0
220
0.0
230
1.0
  0
LINE
  5
D1
100
AcDbEntity
  8
0
370
    35
390
0
 62
     7
 48
0.012506
100
AcDbLine
 10
713.755615
 20
289.255646
 30
0.0
 11
714.255615
 21
289.239899
 31
0.0
210
0.0
220
0.0
230
1.0
  0
LINE
  5
D2
100
AcDbEntity
  8
0
370
    35
390
0
 62
     7
 48
0.012506
100
AcDbLine
 10
715.255615
 20
289.208405
 30
0.0
 11
715.755615
 21
289.192657
 31
0.0
210
0.0
220
0.0
230
1.0
  0
LINE
  5
D3
100
AcDbEntity
  8
0
370
    35
390
0
 62
     7
 48
0.012506
100
AcDbLine
 10
710.755615
 20
282.018341
 30
0.0
 11
711.255615
 21
282.034088
 31
0.0
210
0.0
220
0.0
230
1.0
  0
LINE
  5
D4
100
AcDbEntity
  8
0
370
    35
390
0
 62
     7
 48
0.012506
100
AcDbLine
 10
712.255615
 20
282.065582
 30
0.0
 11
712.755615
 21
282.081329
 31
0.0
210
0.0
220
0.0
230
1.0
  0
LINE
  5
D5
100
AcDbEntity
  8
0
370
    35
390
0
 62
     7
 48
0.012506
100
AcDbLine
 10
713.755615
 20
282.112823
 30
0.0
 11
714.255615
 21
282.128571
 31
0.0
210
0.0
220
0.0
230
1.0
  0
LINE
  5
D6
100
AcDbEntity
  8
0
370
    35
390
0
 62
     7
 48
0.012506
100
AcDbLine
 10
715.255615
 20
282.160065
 30
0.0
 11
715.755615
 21
282.175812
 31
0.0
210
0.0
220
0.0
230
1.0
  0
LINE
  5
D7
100
AcDbEntity
  8
0
370
    35
390
0
 62
     7
 48
0.086292
100
AcDbLine
 10
715.755615
 20
289.692902
 30
0.0
 11
719.205566
 21
289.584229
 31
0.0
210
0.0
220
0.0
230
1.0
  0
LINE
  5
D8
100
AcDbEntity
  8
0
370
    35
390
0
 62
     7
 48
0.025012
100
AcDbLine
 10
714.255615
 20
289.740143
 30
0.0
 11
715.255615
 21
289.708649
 31
0.0
210
0.0
220
0.0
230
1.0
  0
LINE
  5
D9
100
AcDbEntity
  8
0
370
    35
390
0
 62
     7
 48
0.025012
100
AcDbLine
 10
712.755615
 20
289.787384
 30
0.0
 11
713.755615
 21
289.75589
 31
0.0
210
0.0
220
0.0
230
1.0
  0
LINE
  5
DA
100
AcDbEntity
  8
0
370
    35
390
0
 62
     7
 48
0.025012
100
AcDbLine
 10
711.255615
 20
289.834625
 30
0.0
 11
712.255615
 21
289.803131
 31
0.0
210
0.0
220
0.0
230
1.0
  0
LINE
  5
DB
100
AcDbEntity
  8
0
370
    35
390
0
 62
     7
 48
0.025012
100
AcDbLine
 10
709.755615
 20
289.881866
 30
0.0
 11
710.755615
 21
289.850372
 31
0.0
210
0.0
220
0.0
230
1.0
  0
LINE
  5
DC
100
AcDbEntity
  8
0
370
    35
390
0
 62
     7
 48
0.025012
100
AcDbLine
 10
709.755615
 20
281.486603
 30
0.0
 11
710.755615
 21
281.518097
 31
0.0
210
0.0
220
0.0
230
1.0
  0
LINE
  5
DD
100
AcDbEntity
  8
0
370
    35
390
0
 62
     7
 48
0.025012
100
AcDbLine
 10
711.255615
 20
281.533844
 30
0.0
 11
712.255615
 21
281.565338
 31
0.0
210
0.0
220
0.0
230
1.0
  0
LINE
  5
DE
100
AcDbEntity
  8
0
370
    35
390
0
 62
     7
 48
0.025012
100
AcDbLine
 10
712.755615
 20
281.581085
 30
0.0
 11
713.755615
 21
281.612579
 31
0.0
210
0.0
220
0.0
230
1.0
  0
LINE
  5
DF
100
AcDbEntity
  8
0
370
    35
390
0
 62
     7
 48
0.025012
100
AcDbLine
 10
714.255615
 20
281.628326
 30
0.0
 11
715.255615
 21
281.659821
 31
0.0
210
0.0
220
0.0
230
1.0
  0
LINE
  5
E0
100
AcDbEntity
  8
0
370
    35
390
0
 62
     7
 48
0.086292
100
AcDbLine
 10
715.755615
 20
281.675568
 30
0.0
 11
719.205566
 21
281.784241
 31
0.0
210
0.0
220
0.0
230
1.0
  0
LINE
  5
E1
100
AcDbEntity
  8
0
370
    35
390
0
 62
     7
 48
0.201221
100
AcDbLine
 10
715.255615
 20
289.708649
 30
0.0
 11
715.255615
 21
281.659821
 31
0.0
210
0.0
220
0.0
230
1.0
  0
LINE
  5
E2
100
AcDbEntity
  8
0
370
    35
390
0
 62
     7
 48
0.200433
100
AcDbLine
 10
715.755615
 20
289.692902
 30
0.0
 11
715.755615
 21
281.675568
 31
0.0
210
0.0
220
0.0
230
1.0
  0
LINE
  5
E3
100
AcDbEntity
  8
0
370
    35
390
0
 62
     7
 48
0.202795
100
AcDbLine
 10
714.255615
 20
289.740143
 30
0.0
 11
714.255615
 21
281.628326
 31
0.0
210
0.0
220
0.0
230
1.0
  0
LINE
  5
E4
100
AcDbEntity
  8
0
370
    35
390
0
 62
     7
 48
0.203583
100
AcDbLine
 10
713.755615
 20
289.75589
 30
0.0
 11
713.755615
 21
281.612579
 31
0.0
210
0.0
220
0.0
230
1.0
  0
LINE
  5
E5
100
AcDbEntity
  8
0
370
    35
390
0
 62
     7
 48
0.205945
100
AcDbLine
 10
712.255615
 20
289.803131
 30
0.0
 11
712.255615
 21
281.565338
 31
0.0
210
0.0
220
0.0
230
1.0
  0
LINE
  5
E6
100
AcDbEntity
  8
0
370
    35
390
0
 62
     7
 48
0.205157
100
AcDbLine
 10
712.755615
 20
289.787384
 30
0.0
 11
712.755615
 21
281.581085
 31
0.0
210
0.0
220
0.0
230
1.0
  0
LINE
  5
E7
100
AcDbEntity
  8
0
370
    35
390
0
 62
     7
 48
0.20752
100
AcDbLine
 10
711.255615
 20
289.834625
 30
0.0
 11
711.255615
 21
281.533844
 31
0.0
210
0.0
220
0.0
230
1.0
  0
LINE
  5
E8
100
AcDbEntity
  8
0
370
    35
390
0
 62
     7
 48
0.028765
100
AcDbLine
 10
708.105591
 20
289.933838
 30
0.0
 11
709.255615
 21
289.897614
 31
0.0
210
0.0
220
0.0
230
1.0
  0
LINE
  5
E9
100
AcDbEntity
  8
0
370
    35
390
0
 62
     7
 48
0.210669
100
AcDbLine
 10
709.255615
 20
289.897614
 30
0.0
 11
709.255615
 21
281.470856
 31
0.0
210
0.0
220
0.0
230
1.0
  0
LINE
  5
EA
100
AcDbEntity
  8
0
370
    35
390
0
 62
     7
 48
0.028765
100
AcDbLine
 10
708.105591
 20
281.434631
 30
0.0
 11
709.255615
 21
281.470856
 31
0.0
210
0.0
220
0.0
230
1.0
  0
LINE
  5
EB
100
AcDbEntity
  8
0
370
    35
390
0
 62
     7
 48
0.209882
100
AcDbLine
 10
709.755615
 20
289.881866
 30
0.0
 11
709.755615
 21
281.486603
 31
0.0
210
0.0
220
0.0
230
1.0
  0
LINE
  5
EC
100
AcDbEntity
  8
0
370
    35
390
0
 62
     7
 48
0.208307
100
AcDbLine
 10
710.755615
 20
289.850372
 30
0.0
 11
710.755615
 21
281.518097
 31
0.0
210
0.0
220
0.0
230
1.0
  0
LINE
  5
ED
100
AcDbEntity
  8
0
370
    35
390
0
 62
     7
 48
0.012506
100
AcDbLine
 10
709.255615
 20
289.397369
 30
0.0
 11
709.755615
 21
289.381622
 31
0.0
210
0.0
220
0.0
230
1.0
  0
LINE
  5
EE
100
AcDbEntity
  8
0
370
    35
390
0
 62
     7
 48
0.012506
100
AcDbLine
 10
709.255615
 20
281.9711
 30
0.0
 11
709.755615
 21
281.986847
 31
0.0
210
0.0
220
0.0
230
1.0
  0
LINE
  5
EF
100
AcDbEntity
  8
0
370
    35
390
0
 62
     7
 48
0.195
100
AcDbLine
 10
719.205566
 20
289.584229
 30
0.0
 11
719.205566
 21
281.784241
 31
0.0
210
0.0
220
0.0
230
1.0
  0
LINE
  5
F0
100
AcDbEntity
  8
0
370
    35
390
0
 62
     7
 48
0.301218
100
AcDbLine
 10
719.205566
 20
288.584229
 30
0.0
 11
731.254272
 21
288.584229
 31
0.0
210
0.0
220
0.0
230
1.0
  0
LINE
  5
F1
100
AcDbEntity
  8
0
370
    35
390
0
 62
     7
 48
0.340863
100
AcDbLine
 10
736.265137
 20
282.784241
 30
0.0
 11
749.899658
 21
282.784241
 31
0.0
210
0.0
220
0.0
230
1.0
  0
LINE
  5
F2
100
AcDbEntity
  8
0
370
    35
390
0
 62
     7
 48
0.340863
100
AcDbLine
 10
736.265137
 20
288.584229
 30
0.0
 11
749.899658
 21
288.584229
 31
0.0
210
0.0
220
0.0
230
1.0
  0
LINE
  5
F3
100
AcDbEntity
  8
0
370
    35
390
0
 62
     7
 48
0.340863
100
AcDbLine
 10
736.265137
 20
222.78421
 30
0.0
 11
749.899658
 21
222.78421
 31
0.0
210
0.0
220
0.0
230
1.0
  0
LINE
  5
F4
100
AcDbEntity
  8
0
370
    35
390
0
 62
     7
 48
0.2
100
AcDbLine
 10
763.899658
 20
221.684235
 30
0.0
 11
763.899658
 21
229.684235
 31
0.0
210
0.0
220
0.0
230
1.0
  0
LINE
  5
F5
100
AcDbEntity
  8
0
370
    35
390
0
 62
     7
 48
0.250001
100
AcDbLine
 10
799.399658
 20
220.684235
 30
0.0
 11
799.399658
 21
230.684265
 31
0.0
210
0.0
220
0.0
230
1.0
  0
LINE
  5
F6
100
AcDbEntity
  8
0
370
    35
390
0
 62
     7
 48
0.295
100
AcDbLine
 10
793.199707
 20
219.784241
 30
0.0
 11
793.199707
 21
231.584259
 31
0.0
210
0.0
220
0.0
230
1.0
  0
LINE
  5
F7
100
AcDbEntity
  8
0
370
    35
390
0
 62
     7
 48
0.175
100
AcDbLine
 10
749.899658
 20
222.184235
 30
0.0
 11
749.899658
 21
229.184235
 31
0.0
210
0.0
220
0.0
230
1.0
  0
LINE
  5
F8
100
AcDbEntity
  8
0
370
    35
390
0
 62
     7
 48
0.325001
100
AcDbLine
 10
768.899658
 20
219.184235
 30
0.0
 11
768.899658
 21
232.184265
 31
0.0
210
0.0
220
0.0
230
1.0
  0
LINE
  5
F9
100
AcDbEntity
  8
0
370
    35
390
0
 62
     7
 48
0.325001
100
AcDbLine
 10
788.399658
 20
219.184235
 30
0.0
 11
788.399658
 21
232.184265
 31
0.0
210
0.0
220
0.0
230
1.0
  0
LINE
  5
FA
100
AcDbEntity
  8
0
370
    35
390
0
 62
     7
 48
0.4875
100
AcDbLine
 10
788.399658
 20
219.184235
 30
0.0
 11
768.899658
 21
219.184235
 31
0.0
210
0.0
220
0.0
230
1.0
  0
LINE
  5
FB
100
AcDbEntity
  8
0
370
    35
390
0
 62
     7
 48
0.4875
100
AcDbLine
 10
788.399658
 20
232.184265
 30
0.0
 11
768.899658
 21
232.184265
 31
0.0
210
0.0
220
0.0
230
1.0
  0
LINE
  5
FC
100
AcDbEntity
  8
0
370
    35
390
0
 62
     7
 48
0.120001
100
AcDbLine
 10
793.199707
 20
219.784241
 30
0.0
 11
788.399658
 21
219.784241
 31
0.0
210
0.0
220
0.0
230
1.0
  0
LINE
  5
FD
100
AcDbEntity
  8
0
370
    35
390
0
 62
     7
 48
0.120001
100
AcDbLine
 10
793.199707
 20
231.584259
 30
0.0
 11
788.399658
 21
231.584259
 31
0.0
210
0.0
220
0.0
230
1.0
  0
LINE
  5
FE
100
AcDbEntity
  8
0
370
    35
390
0
 62
     7
 48
0.154999
100
AcDbLine
 10
799.399658
 20
220.684235
 30
0.0
 11
793.199707
 21
220.684235
 31
0.0
210
0.0
220
0.0
230
1.0
  0
LINE
  5
FF
100
AcDbEntity
  8
0
370
    35
390
0
 62
     7
 48
0.154999
100
AcDbLine
 10
799.399658
 20
230.684265
 30
0.0
 11
793.199707
 21
230.684265
 31
0.0
210
0.0
220
0.0
230
1.0
  0
LINE
  5
100
100
AcDbEntity
  8
0
370
    35
390
0
 62
     7
 48
0.350223
100
AcDbLine
 10
749.89978
 20
222.184235
 30
0.0
 11
763.89978
 21
221.684235
 31
0.0
210
0.0
220
0.0
230
1.0
  0
LINE
  5
101
100
AcDbEntity
  8
0
370
    35
390
0
 62
     7
 48
0.133721
100
AcDbLine
 10
768.89978
 20
219.784241
 30
0.0
 11
763.89978
 21
221.684235
 31
0.0
210
0.0
220
0.0
230
1.0
  0
LINE
  5
102
100
AcDbEntity
  8
0
370
    35
390
0
 62
     7
 48
0.350223
100
AcDbLine
 10
749.899658
 20
229.184204
 30
0.0
 11
763.899658
 21
229.684235
 31
0.0
210
0.0
220
0.0
230
1.0
  0
LINE
  5
103
100
AcDbEntity
  8
0
370
    35
390
0
 62
     7
 48
0.133721
100
AcDbLine
 10
768.89978
 20
231.584137
 30
0.0
 11
763.89978
 21
229.684143
 31
0.0
210
0.0
220
0.0
230
1.0
  0
LINE
  5
104
100
AcDbEntity
  8
0
370
    35
390
0
 62
     7
 48
0.051653
100
AcDbLine
 10
762.862671
 20
227.684265
 30
0.0
 11
763.381226
 21
225.684265
 31
0.0
210
0.0
220
0.0
230
1.0
  0
LINE
  5
105
100
AcDbEntity
  8
0
370
    35
390
0
 62
     7
 48
0.050231
100
AcDbLine
 10
762.358398
 20
221.739288
 30
0.0
 11
762.862671
 21
223.684235
 31
0.0
210
0.0
220
0.0
230
1.0
  0
LINE
  5
106
100
AcDbEntity
  8
0
370
    35
390
0
 62
     7
 48
0.051654
100
AcDbLine
 10
762.862671
 20
223.684235
 30
0.0
 11
762.344116
 21
225.684265
 31
0.0
210
0.0
220
0.0
230
1.0
  0
LINE
  5
107
100
AcDbEntity
  8
0
370
    35
390
0
 62
     7
 48
0.051653
100
AcDbLine
 10
762.344116
 20
225.684265
 30
0.0
 11
761.825684
 21
223.684265
 31
0.0
210
0.0
220
0.0
230
1.0
  0
LINE
  5
108
100
AcDbEntity
  8
0
370
    35
390
0
 62
     7
 48
0.050205
100
AcDbLine
 10
761.825562
 20
223.684235
 30
0.0
 11
762.32959
 21
221.740326
 31
0.0
210
0.0
220
0.0
230
1.0
  0
LINE
  5
109
100
AcDbEntity
  8
0
370
    35
390
0
 62
     7
 48
0.051653
100
AcDbLine
 10
761.307251
 20
225.684235
 30
0.0
 11
761.825684
 21
227.684235
 31
0.0
210
0.0
220
0.0
230
1.0
  0
LINE
  5
10A
100
AcDbEntity
  8
0
370
    35
390
0
 62
     7
 48
0.049284
100
AcDbLine
 10
761.825684
 20
227.684265
 30
0.0
 11
761.330933
 21
229.592529
 31
0.0
210
0.0
220
0.0
230
1.0
  0
LINE
  5
10B
100
AcDbEntity
  8
0
370
    35
390
0
 62
     7
 48
0.04924
100
AcDbLine
 10
761.282959
 20
229.59079
 30
0.0
 11
760.788574
 21
227.684235
 31
0.0
210
0.0
220
0.0
230
1.0
  0
LINE
  5
10C
100
AcDbEntity
  8
0
370
    35
390
0
 62
     7
 48
0.051653
100
AcDbLine
 10
760.788574
 20
227.684235
 30
0.0
 11
761.307129
 21
225.684265
 31
0.0
210
0.0
220
0.0
230
1.0
  0
LINE
  5
10D
100
AcDbEntity
  8
0
370
    35
390
0
 62
     7
 48
0.048336
100
AcDbLine
 10
760.303467
 20
221.812683
 30
0.0
 11
760.788696
 21
223.684235
 31
0.0
210
0.0
220
0.0
230
1.0
  0
LINE
  5
10E
100
AcDbEntity
  8
0
370
    35
390
0
 62
     7
 48
0.051653
100
AcDbLine
 10
760.788574
 20
223.684235
 30
0.0
 11
760.270142
 21
225.684235
 31
0.0
210
0.0
220
0.0
230
1.0
  0
LINE
  5
10F
100
AcDbEntity
  8
0
370
    35
390
0
 62
     7
 48
0.051653
100
AcDbLine
 10
760.270142
 20
225.684235
 30
0.0
 11
759.751587
 21
223.684235
 31
0.0
210
0.0
220
0.0
230
1.0
  0
LINE
  5
110
100
AcDbEntity
  8
0
370
    35
390
0
 62
     7
 48
0.048274
100
AcDbLine
 10
759.751587
 20
223.684235
 30
0.0
 11
760.236206
 21
221.815094
 31
0.0
210
0.0
220
0.0
230
1.0
  0
LINE
  5
111
100
AcDbEntity
  8
0
370
    35
390
0
 62
     7
 48
0.051653
100
AcDbLine
 10
759.233032
 20
225.684265
 30
0.0
 11
759.751465
 21
227.684265
 31
0.0
210
0.0
220
0.0
230
1.0
  0
LINE
  5
112
100
AcDbEntity
  8
0
370
    35
390
0
 62
     7
 48
0.051171
100
AcDbLine
 10
763.376343
 20
229.665558
 30
0.0
 11
762.862671
 21
227.684235
 31
0.0
210
0.0
220
0.0
230
1.0
  0
LINE
  5
113
100
AcDbEntity
  8
0
370
    35
390
0
 62
     7
 48
0.051653
100
AcDbLine
 10
763.381226
 20
225.684235
 30
0.0
 11
763.899658
 21
227.684235
 31
0.0
210
0.0
220
0.0
230
1.0
  0
LINE
  5
114
100
AcDbEntity
  8
0
370
    35
390
0
 62
     7
 48
0.05118
100
AcDbLine
 10
763.89978
 20
227.684265
 30
0.0
 11
763.385986
 21
229.665924
 31
0.0
210
0.0
220
0.0
230
1.0
  0
LINE
  5
115
100
AcDbEntity
  8
0
370
    35
390
0
 62
     7
 48
0.047388
100
AcDbLine
 10
759.751587
 20
227.684235
 30
0.0
 11
759.275879
 21
229.519104
 31
0.0
210
0.0
220
0.0
230
1.0
  0
LINE
  5
116
100
AcDbEntity
  8
0
370
    35
390
0
 62
     7
 48
0.047308
100
AcDbLine
 10
759.189453
 20
229.516022
 30
0.0
 11
758.7146
 21
227.684235
 31
0.0
210
0.0
220
0.0
230
1.0
  0
LINE
  5
117
100
AcDbEntity
  8
0
370
    35
390
0
 62
     7
 48
0.051654
100
AcDbLine
 10
758.7146
 20
227.684265
 30
0.0
 11
759.233154
 21
225.684235
 31
0.0
210
0.0
220
0.0
230
1.0
  0
LINE
  5
118
100
AcDbEntity
  8
0
370
    35
390
0
 62
     7
 48
0.04644
100
AcDbLine
 10
758.248413
 20
221.886078
 30
0.0
 11
758.7146
 21
223.684235
 31
0.0
210
0.0
220
0.0
230
1.0
  0
LINE
  5
119
100
AcDbEntity
  8
0
370
    35
390
0
 62
     7
 48
0.051653
100
AcDbLine
 10
758.7146
 20
223.684265
 30
0.0
 11
758.196045
 21
225.684265
 31
0.0
210
0.0
220
0.0
230
1.0
  0
LINE
  5
11A
100
AcDbEntity
  8
0
370
    35
390
0
 62
     7
 48
0.051653
100
AcDbLine
 10
758.196045
 20
225.684235
 30
0.0
 11
757.67749
 21
223.684235
 31
0.0
210
0.0
220
0.0
230
1.0
  0
LINE
  5
11B
100
AcDbEntity
  8
0
370
    35
390
0
 62
     7
 48
0.046343
100
AcDbLine
 10
757.67749
 20
223.684235
 30
0.0
 11
758.1427
 21
221.889832
 31
0.0
210
0.0
220
0.0
230
1.0
  0
LINE
  5
11C
100
AcDbEntity
  8
0
370
    35
390
0
 62
     7
 48
0.051653
100
AcDbLine
 10
757.158936
 20
225.684235
 30
0.0
 11
757.67749
 21
227.684235
 31
0.0
210
0.0
220
0.0
230
1.0
  0
LINE
  5
11D
100
AcDbEntity
  8
0
370
    35
390
0
 62
     7
 48
0.045493
100
AcDbLine
 10
757.67749
 20
227.684265
 30
0.0
 11
757.220825
 21
229.44574
 31
0.0
210
0.0
220
0.0
230
1.0
  0
LINE
  5
11E
100
AcDbEntity
  8
0
370
    35
390
0
 62
     7
 48
0.045378
100
AcDbLine
 10
757.095947
 20
229.441254
 30
0.0
 11
756.640381
 21
227.684235
 31
0.0
210
0.0
220
0.0
230
1.0
  0
LINE
  5
11F
100
AcDbEntity
  8
0
370
    35
390
0
 62
     7
 48
0.051653
100
AcDbLine
 10
756.640503
 20
227.684235
 30
0.0
 11
757.158936
 21
225.684235
 31
0.0
210
0.0
220
0.0
230
1.0
  0
LINE
  5
120
100
AcDbEntity
  8
0
370
    35
390
0
 62
     7
 48
0.044545
100
AcDbLine
 10
756.193359
 20
221.959473
 30
0.0
 11
756.640503
 21
223.684235
 31
0.0
210
0.0
220
0.0
230
1.0
  0
LINE
  5
121
100
AcDbEntity
  8
0
370
    35
390
0
 62
     7
 48
0.301218
100
AcDbLine
 10
719.205566
 20
228.584229
 30
0.0
 11
731.254272
 21
228.584229
 31
0.0
210
0.0
220
0.0
230
1.0
  0
LINE
  5
122
100
AcDbEntity
  8
0
370
    35
390
0
 62
     7
 48
0.195
100
AcDbLine
 10
719.205566
 20
229.584229
 30
0.0
 11
719.205566
 21
221.78421
 31
0.0
210
0.0
220
0.0
230
1.0
  0
LINE
  5
123
100
AcDbEntity
  8
0
370
    35
390
0
 62
     7
 48
0.012506
100
AcDbLine
 10
709.255615
 20
221.971069
 30
0.0
 11
709.755615
 21
221.986847
 31
0.0
210
0.0
220
0.0
230
1.0
  0
LINE
  5
124
100
AcDbEntity
  8
0
370
    35
390
0
 62
     7
 48
0.012506
100
AcDbLine
 10
709.255615
 20
229.397369
 30
0.0
 11
709.755615
 21
229.381622
 31
0.0
210
0.0
220
0.0
230
1.0
  0
LINE
  5
125
100
AcDbEntity
  8
0
370
    35
390
0
 62
     7
 48
0.208308
100
AcDbLine
 10
710.755615
 20
229.850372
 30
0.0
 11
710.755615
 21
221.518066
 31
0.0
210
0.0
220
0.0
230
1.0
  0
LINE
  5
126
100
AcDbEntity
  8
0
370
    35
390
0
 62
     7
 48
0.209882
100
AcDbLine
 10
709.755615
 20
229.881866
 30
0.0
 11
709.755615
 21
221.486572
 31
0.0
210
0.0
220
0.0
230
1.0
  0
LINE
  5
127
100
AcDbEntity
  8
0
370
    35
390
0
 62
     7
 48
0.028765
100
AcDbLine
 10
708.105591
 20
221.434631
 30
0.0
 11
709.255615
 21
221.470825
 31
0.0
210
0.0
220
0.0
230
1.0
  0
LINE
  5
128
100
AcDbEntity
  8
0
370
    35
390
0
 62
     7
 48
0.21067
100
AcDbLine
 10
709.255615
 20
229.897614
 30
0.0
 11
709.255615
 21
221.470825
 31
0.0
210
0.0
220
0.0
230
1.0
  0
LINE
  5
129
100
AcDbEntity
  8
0
370
    35
390
0
 62
     7
 48
0.028765
100
AcDbLine
 10
708.105591
 20
229.933838
 30
0.0
 11
709.255615
 21
229.897614
 31
0.0
210
0.0
220
0.0
230
1.0
  0
LINE
  5
12A
100
AcDbEntity
  8
0
370
    35
390
0
 62
     7
 48
0.20752
100
AcDbLine
 10
711.255615
 20
229.834625
 30
0.0
 11
711.255615
 21
221.533844
 31
0.0
210
0.0
220
0.0
230
1.0
  0
LINE
  5
12B
100
AcDbEntity
  8
0
370
    35
390
0
 62
     7
 48
0.205157
100
AcDbLine
 10
712.755615
 20
229.787384
 30
0.0
 11
712.755615
 21
221.581085
 31
0.0
210
0.0
220
0.0
230
1.0
  0
LINE
  5
12C
100
AcDbEntity
  8
0
370
    35
390
0
 62
     7
 48
0.205945
100
AcDbLine
 10
712.255615
 20
229.803131
 30
0.0
 11
712.255615
 21
221.565338
 31
0.0
210
0.0
220
0.0
230
1.0
  0
LINE
  5
12D
100
AcDbEntity
  8
0
370
    35
390
0
 62
     7
 48
0.301221
100
AcDbLine
 10
596.005615
 20
222.78421
 30
0.0
 11
583.956787
 21
222.78421
 31
0.0
210
0.0
220
0.0
230
1.0
  0
LINE
  5
12E
100
AcDbEntity
  8
0
370
    35
390
0
 62
     7
 48
0.203583
100
AcDbLine
 10
713.755615
 20
229.75589
 30
0.0
 11
713.755615
 21
221.612579
 31
0.0
210
0.0
220
0.0
230
1.0
  0
LINE
  5
12F
100
AcDbEntity
  8
0
370
    35
390
0
 62
     7
 48
0.202795
100
AcDbLine
 10
714.255615
 20
229.740143
 30
0.0
 11
714.255615
 21
221.628326
 31
0.0
210
0.0
220
0.0
230
1.0
  0
LINE
  5
130
100
AcDbEntity
  8
0
370
    35
390
0
 62
     7
 48
0.200433
100
AcDbLine
 10
715.755615
 20
229.692902
 30
0.0
 11
715.755615
 21
221.675568
 31
0.0
210
0.0
220
0.0
230
1.0
  0
LINE
  5
131
100
AcDbEntity
  8
0
370
    35
390
0
 62
     7
 48
0.201221
100
AcDbLine
 10
715.255615
 20
229.708649
 30
0.0
 11
715.255615
 21
221.659821
 31
0.0
210
0.0
220
0.0
230
1.0
  0
LINE
  5
132
100
AcDbEntity
  8
0
370
    35
390
0
 62
     7
 48
0.086292
100
AcDbLine
 10
715.755615
 20
221.675568
 30
0.0
 11
719.205566
 21
221.78421
 31
0.0
210
0.0
220
0.0
230
1.0
  0
LINE
  5
133
100
AcDbEntity
  8
0
370
    35
390
0
 62
     7
 48
0.025012
100
AcDbLine
 10
714.255615
 20
221.628326
 30
0.0
 11
715.255615
 21
221.659821
 31
0.0
210
0.0
220
0.0
230
1.0
  0
LINE
  5
134
100
AcDbEntity
  8
0
370
    35
390
0
 62
     7
 48
0.025012
100
AcDbLine
 10
712.755615
 20
221.581085
 30
0.0
 11
713.755615
 21
221.612579
 31
0.0
210
0.0
220
0.0
230
1.0
  0
LINE
  5
135
100
AcDbEntity
  8
0
370
    35
390
0
 62
     7
 48
0.025012
100
AcDbLine
 10
711.255615
 20
221.533844
 30
0.0
 11
712.255615
 21
221.565338
 31
0.0
210
0.0
220
0.0
230
1.0
  0
LINE
  5
136
100
AcDbEntity
  8
0
370
    35
390
0
 62
     7
 48
0.025012
100
AcDbLine
 10
709.755615
 20
221.486572
 30
0.0
 11
710.755615
 21
221.518066
 31
0.0
210
0.0
220
0.0
230
1.0
  0
LINE
  5
137
100
AcDbEntity
  8
0
370
    35
390
0
 62
     7
 48
0.025012
100
AcDbLine
 10
709.755615
 20
229.881866
 30
0.0
 11
710.755615
 21
229.850372
 31
0.0
210
0.0
220
0.0
230
1.0
  0
LINE
  5
138
100
AcDbEntity
  8
0
370
    35
390
0
 62
     7
 48
0.025012
100
AcDbLine
 10
711.255615
 20
229.834625
 30
0.0
 11
712.255615
 21
229.803131
 31
0.0
210
0.0
220
0.0
230
1.0
  0
LINE
  5
139
100
AcDbEntity
  8
0
370
    35
390
0
 62
     7
 48
0.025012
100
AcDbLine
 10
712.755615
 20
229.787384
 30
0.0
 11
713.755615
 21
229.75589
 31
0.0
210
0.0
220
0.0
230
1.0
  0
LINE
  5
13A
100
AcDbEntity
  8
0
370
    35
390
0
 62
     7
 48
0.025012
100
AcDbLine
 10
714.255615
 20
229.740143
 30
0.0
 11
715.255615
 21
229.708649
 31
0.0
210
0.0
220
0.0
230
1.0
  0
LINE
  5
13B
100
AcDbEntity
  8
0
370
    35
390
0
 62
     7
 48
0.086292
100
AcDbLine
 10
715.755615
 20
229.692902
 30
0.0
 11
719.205566
 21
229.584229
 31
0.0
210
0.0
220
0.0
230
1.0
  0
LINE
  5
13C
100
AcDbEntity
  8
0
370
    35
390
0
 62
     7
 48
0.051653
100
AcDbLine
 10
756.640503
 20
223.684235
 30
0.0
 11
756.121948
 21
225.684235
 31
0.0
210
0.0
220
0.0
230
1.0
  0
LINE
  5
13D
100
AcDbEntity
  8
0
370
    35
390
0
 62
     7
 48
0.051653
100
AcDbLine
 10
756.121948
 20
225.684235
 30
0.0
 11
755.603394
 21
223.684235
 31
0.0
210
0.0
220
0.0
230
1.0
  0
LINE
  5
13E
100
AcDbEntity
  8
0
370
    35
390
0
 62
     7
 48
0.044412
100
AcDbLine
 10
755.603394
 20
223.684265
 30
0.0
 11
756.049194
 21
221.96463
 31
0.0
210
0.0
220
0.0
230
1.0
  0
LINE
  5
13F
100
AcDbEntity
  8
0
370
    35
390
0
 62
     7
 48
0.051653
100
AcDbLine
 10
755.084961
 20
225.684235
 30
0.0
 11
755.603394
 21
227.684235
 31
0.0
210
0.0
220
0.0
230
1.0
  0
LINE
  5
140
100
AcDbEntity
  8
0
370
    35
390
0
 62
     7
 48
0.043597
100
AcDbLine
 10
755.603394
 20
227.684235
 30
0.0
 11
755.165771
 21
229.372314
 31
0.0
210
0.0
220
0.0
230
1.0
  0
LINE
  5
141
100
AcDbEntity
  8
0
370
    35
390
0
 62
     7
 48
0.043446
100
AcDbLine
 10
755.002563
 20
229.366486
 30
0.0
 11
754.566406
 21
227.684265
 31
0.0
210
0.0
220
0.0
230
1.0
  0
LINE
  5
142
100
AcDbEntity
  8
0
370
    35
390
0
 62
     7
 48
0.051653
100
AcDbLine
 10
754.566284
 20
227.684265
 30
0.0
 11
755.084839
 21
225.684265
 31
0.0
210
0.0
220
0.0
230
1.0
  0
LINE
  5
143
100
AcDbEntity
  8
0
370
    35
390
0
 62
     7
 48
0.042649
100
AcDbLine
 10
754.138306
 20
222.032867
 30
0.0
 11
754.566284
 21
223.684265
 31
0.0
210
0.0
220
0.0
230
1.0
  0
LINE
  5
144
100
AcDbEntity
  8
0
370
    35
390
0
 62
     7
 48
0.051653
100
AcDbLine
 10
754.566284
 20
223.684265
 30
0.0
 11
754.047852
 21
225.684265
 31
0.0
210
0.0
220
0.0
230
1.0
  0
LINE
  5
145
100
AcDbEntity
  8
0
370
    35
390
0
 62
     7
 48
0.051653
100
AcDbLine
 10
754.047852
 20
225.684265
 30
0.0
 11
753.529297
 21
223.684265
 31
0.0
210
0.0
220
0.0
230
1.0
  0
LINE
  5
146
100
AcDbEntity
  8
0
370
    35
390
0
 62
     7
 48
0.04248
100
AcDbLine
 10
753.529419
 20
223.684235
 30
0.0
 11
753.955811
 21
222.039398
 31
0.0
210
0.0
220
0.0
230
1.0
  0
LINE
  5
147
100
AcDbEntity
  8
0
370
    35
390
0
 62
     7
 48
0.051653
100
AcDbLine
 10
753.010864
 20
225.684235
 30
0.0
 11
753.529419
 21
227.684235
 31
0.0
210
0.0
220
0.0
230
1.0
  0
LINE
  5
148
100
AcDbEntity
  8
0
370
    35
390
0
 62
     7
 48
0.041702
100
AcDbLine
 10
753.529419
 20
227.684265
 30
0.0
 11
753.110718
 21
229.29895
 31
0.0
210
0.0
220
0.0
230
1.0
  0
LINE
  5
149
100
AcDbEntity
  8
0
370
    35
390
0
 62
     7
 48
0.041516
100
AcDbLine
 10
752.909058
 20
229.291718
 30
0.0
 11
752.49231
 21
227.684235
 31
0.0
210
0.0
220
0.0
230
1.0
  0
LINE
  5
14A
100
AcDbEntity
  8
0
370
    35
390
0
 62
     7
 48
0.051653
100
AcDbLine
 10
752.49231
 20
227.684235
 30
0.0
 11
753.010864
 21
225.684265
 31
0.0
210
0.0
220
0.0
230
1.0
  0
LINE
  5
14B
100
AcDbEntity
  8
0
370
    35
390
0
 62
     7
 48
0.040753
100
AcDbLine
 10
752.083252
 20
222.106262
 30
0.0
 11
752.49231
 21
223.684235
 31
0.0
210
0.0
220
0.0
230
1.0
  0
LINE
  5
14C
100
AcDbEntity
  8
0
370
    35
390
0
 62
     7
 48
0.051653
100
AcDbLine
 10
752.49231
 20
223.684265
 30
0.0
 11
751.973755
 21
225.684265
 31
0.0
210
0.0
220
0.0
230
1.0
  0
LINE
  5
14D
100
AcDbEntity
  8
0
370
    35
390
0
 62
     7
 48
0.051653
100
AcDbLine
 10
751.973755
 20
225.684265
 30
0.0
 11
751.4552
 21
223.684265
 31
0.0
210
0.0
220
0.0
230
1.0
  0
LINE
  5
14E
100
AcDbEntity
  8
0
370
    35
390
0
 62
     7
 48
0.040551
100
AcDbLine
 10
751.4552
 20
223.684265
 30
0.0
 11
751.862305
 21
222.114136
 31
0.0
210
0.0
220
0.0
230
1.0
  0
LINE
  5
14F
100
AcDbEntity
  8
0
370
    35
390
0
 62
     7
 48
0.051653
100
AcDbLine
 10
750.936768
 20
225.684235
 30
0.0
 11
751.455322
 21
227.684235
 31
0.0
210
0.0
220
0.0
230
1.0
  0
LINE
  5
150
100
AcDbEntity
  8
0
370
    35
390
0
 62
     7
 48
0.039807
100
AcDbLine
 10
751.455322
 20
227.684265
 30
0.0
 11
751.055664
 21
229.225555
 31
0.0
210
0.0
220
0.0
230
1.0
  0
LINE
  5
151
100
AcDbEntity
  8
0
370
    35
390
0
 62
     7
 48
0.039585
100
AcDbLine
 10
750.815674
 20
229.216949
 30
0.0
 11
750.418213
 21
227.684235
 31
0.0
210
0.0
220
0.0
230
1.0
  0
LINE
  5
152
100
AcDbEntity
  8
0
370
    35
390
0
 62
     7
 48
0.051653
100
AcDbLine
 10
750.418335
 20
227.684265
 30
0.0
 11
750.936768
 21
225.684265
 31
0.0
210
0.0
220
0.0
230
1.0
  0
LINE
  5
153
100
AcDbEntity
  8
0
370
    35
390
0
 62
     7
 48
0.012506
100
AcDbLine
 10
604.455566
 20
229.350128
 30
0.0
 11
603.955566
 21
229.334381
 31
0.0
210
0.0
220
0.0
230
1.0
  0
LINE
  5
154
100
AcDbEntity
  8
0
370
    35
390
0
 62
     7
 48
0.012506
100
AcDbLine
 10
602.955566
 20
229.302887
 30
0.0
 11
602.455566
 21
229.28714
 31
0.0
210
0.0
220
0.0
230
1.0
  0
LINE
  5
155
100
AcDbEntity
  8
0
370
    35
390
0
 62
     7
 48
0.012506
100
AcDbLine
 10
601.455566
 20
229.255646
 30
0.0
 11
600.955566
 21
229.239899
 31
0.0
210
0.0
220
0.0
230
1.0
  0
LINE
  5
156
100
AcDbEntity
  8
0
370
    35
390
0
 62
     7
 48
0.012506
100
AcDbLine
 10
599.955566
 20
229.208405
 30
0.0
 11
599.455566
 21
229.192627
 31
0.0
210
0.0
220
0.0
230
1.0
  0
LINE
  5
157
100
AcDbEntity
  8
0
370
    35
390
0
 62
     7
 48
0.012506
100
AcDbLine
 10
604.455566
 20
222.018341
 30
0.0
 11
603.955566
 21
222.034088
 31
0.0
210
0.0
220
0.0
230
1.0
  0
LINE
  5
158
100
AcDbEntity
  8
0
370
    35
390
0
 62
     7
 48
0.012506
100
AcDbLine
 10
602.955566
 20
222.065582
 30
0.0
 11
602.455566
 21
222.081329
 31
0.0
210
0.0
220
0.0
230
1.0
  0
LINE
  5
159
100
AcDbEntity
  8
0
370
    35
390
0
 62
     7
 48
0.012506
100
AcDbLine
 10
601.455566
 20
222.112823
 30
0.0
 11
600.955566
 21
222.128571
 31
0.0
210
0.0
220
0.0
230
1.0
  0
LINE
  5
15A
100
AcDbEntity
  8
0
370
    35
390
0
 62
     7
 48
0.012506
100
AcDbLine
 10
599.955566
 20
222.160065
 30
0.0
 11
599.455566
 21
222.175812
 31
0.0
210
0.0
220
0.0
230
1.0
  0
LINE
  5
15B
100
AcDbEntity
  8
0
370
    35
390
0
 62
     7
 48
0.086292
100
AcDbLine
 10
599.455566
 20
229.692902
 30
0.0
 11
596.005615
 21
229.584229
 31
0.0
210
0.0
220
0.0
230
1.0
  0
LINE
  5
15C
100
AcDbEntity
  8
0
370
    35
390
0
 62
     7
 48
0.025012
100
AcDbLine
 10
600.955566
 20
229.740143
 30
0.0
 11
599.955566
 21
229.708649
 31
0.0
210
0.0
220
0.0
230
1.0
  0
LINE
  5
15D
100
AcDbEntity
  8
0
370
    35
390
0
 62
     7
 48
0.025012
100
AcDbLine
 10
602.455566
 20
229.787384
 30
0.0
 11
601.455566
 21
229.75589
 31
0.0
210
0.0
220
0.0
230
1.0
  0
LINE
  5
15E
100
AcDbEntity
  8
0
370
    35
390
0
 62
     7
 48
0.025012
100
AcDbLine
 10
603.955566
 20
229.834625
 30
0.0
 11
602.955566
 21
229.803131
 31
0.0
210
0.0
220
0.0
230
1.0
  0
LINE
  5
15F
100
AcDbEntity
  8
0
370
    35
390
0
 62
     7
 48
0.025012
100
AcDbLine
 10
605.455566
 20
229.881866
 30
0.0
 11
604.455566
 21
229.850372
 31
0.0
210
0.0
220
0.0
230
1.0
  0
LINE
  5
160
100
AcDbEntity
  8
0
370
    35
390
0
 62
     7
 48
0.025012
100
AcDbLine
 10
605.455566
 20
221.486572
 30
0.0
 11
604.455566
 21
221.518066
 31
0.0
210
0.0
220
0.0
230
1.0
  0
LINE
  5
161
100
AcDbEntity
  8
0
370
    35
390
0
 62
     7
 48
0.025012
100
AcDbLine
 10
603.955566
 20
221.533844
 30
0.0
 11
602.955566
 21
221.565338
 31
0.0
210
0.0
220
0.0
230
1.0
  0
LINE
  5
162
100
AcDbEntity
  8
0
370
    35
390
0
 62
     7
 48
0.025012
100
AcDbLine
 10
602.455566
 20
221.581085
 30
0.0
 11
601.455566
 21
221.612579
 31
0.0
210
0.0
220
0.0
230
1.0
  0
LINE
  5
163
100
AcDbEntity
  8
0
370
    35
390
0
 62
     7
 48
0.025012
100
AcDbLine
 10
600.955566
 20
221.628326
 30
0.0
 11
599.955566
 21
221.659821
 31
0.0
210
0.0
220
0.0
230
1.0
  0
LINE
  5
164
100
AcDbEntity
  8
0
370
    35
390
0
 62
     7
 48
0.086292
100
AcDbLine
 10
599.455566
 20
221.675568
 30
0.0
 11
596.005615
 21
221.78421
 31
0.0
210
0.0
220
0.0
230
1.0
  0
LINE
  5
165
100
AcDbEntity
  8
0
370
    35
390
0
 62
     7
 48
0.201221
100
AcDbLine
 10
599.955566
 20
229.708649
 30
0.0
 11
599.955566
 21
221.659821
 31
0.0
210
0.0
220
0.0
230
1.0
  0
LINE
  5
166
100
AcDbEntity
  8
0
370
    35
390
0
 62
     7
 48
0.200433
100
AcDbLine
 10
599.455566
 20
229.692902
 30
0.0
 11
599.455566
 21
221.675568
 31
0.0
210
0.0
220
0.0
230
1.0
  0
LINE
  5
167
100
AcDbEntity
  8
0
370
    35
390
0
 62
     7
 48
0.202795
100
AcDbLine
 10
600.955566
 20
229.740143
 30
0.0
 11
600.955566
 21
221.628326
 31
0.0
210
0.0
220
0.0
230
1.0
  0
LINE
  5
168
100
AcDbEntity
  8
0
370
    35
390
0
 62
     7
 48
0.203583
100
AcDbLine
 10
601.455566
 20
229.75589
 30
0.0
 11
601.455566
 21
221.612579
 31
0.0
210
0.0
220
0.0
230
1.0
  0
LINE
  5
169
100
AcDbEntity
  8
0
370
    35
390
0
 62
     7
 48
0.205945
100
AcDbLine
 10
602.955566
 20
229.803131
 30
0.0
 11
602.955566
 21
221.565338
 31
0.0
210
0.0
220
0.0
230
1.0
  0
LINE
  5
16A
100
AcDbEntity
  8
0
370
    35
390
0
 62
     7
 48
0.205157
100
AcDbLine
 10
602.455566
 20
229.787384
 30
0.0
 11
602.455566
 21
221.581085
 31
0.0
210
0.0
220
0.0
230
1.0
  0
LINE
  5
16B
100
AcDbEntity
  8
0
370
    35
390
0
 62
     7
 48
0.20752
100
AcDbLine
 10
603.955566
 20
229.834625
 30
0.0
 11
603.955566
 21
221.533844
 31
0.0
210
0.0
220
0.0
230
1.0
  0
LINE
  5
16C
100
AcDbEntity
  8
0
370
    35
390
0
 62
     7
 48
0.028765
100
AcDbLine
 10
607.105591
 20
229.933838
 30
0.0
 11
605.955566
 21
229.897614
 31
0.0
210
0.0
220
0.0
230
1.0
  0
LINE
  5
16D
100
AcDbEntity
  8
0
370
    35
390
0
 62
     7
 48
0.21067
100
AcDbLine
 10
605.955566
 20
229.897614
 30
0.0
 11
605.955566
 21
221.470825
 31
0.0
210
0.0
220
0.0
230
1.0
  0
LINE
  5
16E
100
AcDbEntity
  8
0
370
    35
390
0
 62
     7
 48
0.028765
100
AcDbLine
 10
607.105591
 20
221.434631
 30
0.0
 11
605.955566
 21
221.470825
 31
0.0
210
0.0
220
0.0
230
1.0
  0
LINE
  5
16F
100
AcDbEntity
  8
0
370
    35
390
0
 62
     7
 48
0.209882
100
AcDbLine
 10
605.455566
 20
229.881866
 30
0.0
 11
605.455566
 21
221.486572
 31
0.0
210
0.0
220
0.0
230
1.0
  0
LINE
  5
170
100
AcDbEntity
  8
0
370
    35
390
0
 62
     7
 48
0.208308
100
AcDbLine
 10
604.455566
 20
229.850372
 30
0.0
 11
604.455566
 21
221.518066
 31
0.0
210
0.0
220
0.0
230
1.0
  0
LINE
  5
171
100
AcDbEntity
  8
0
370
    35
390
0
 62
     7
 48
0.012506
100
AcDbLine
 10
715.255615
 20
222.160065
 30
0.0
 11
715.755615
 21
222.175812
 31
0.0
210
0.0
220
0.0
230
1.0
  0
LINE
  5
172
100
AcDbEntity
  8
0
370
    35
390
0
 62
     7
 48
0.012506
100
AcDbLine
 10
605.955566
 20
229.397369
 30
0.0
 11
605.455566
 21
229.381622
 31
0.0
210
0.0
220
0.0
230
1.0
  0
LINE
  5
173
100
AcDbEntity
  8
0
370
    35
390
0
 62
     7
 48
0.012506
100
AcDbLine
 10
713.755615
 20
222.112823
 30
0.0
 11
714.255615
 21
222.128571
 31
0.0
210
0.0
220
0.0
230
1.0
  0
LINE
  5
174
100
AcDbEntity
  8
0
370
    35
390
0
 62
     7
 48
0.012506
100
AcDbLine
 10
712.255615
 20
222.065582
 30
0.0
 11
712.755615
 21
222.081329
 31
0.0
210
0.0
220
0.0
230
1.0
  0
LINE
  5
175
100
AcDbEntity
  8
0
370
    35
390
0
 62
     7
 48
0.012506
100
AcDbLine
 10
710.755615
 20
222.018341
 30
0.0
 11
711.255615
 21
222.034088
 31
0.0
210
0.0
220
0.0
230
1.0
  0
LINE
  5
176
100
AcDbEntity
  8
0
370
    35
390
0
 62
     7
 48
0.012506
100
AcDbLine
 10
715.255615
 20
229.208405
 30
0.0
 11
715.755615
 21
229.192627
 31
0.0
210
0.0
220
0.0
230
1.0
  0
LINE
  5
177
100
AcDbEntity
  8
0
370
    35
390
0
 62
     7
 48
0.012506
100
AcDbLine
 10
713.755615
 20
229.255646
 30
0.0
 11
714.255615
 21
229.239899
 31
0.0
210
0.0
220
0.0
230
1.0
  0
LINE
  5
178
100
AcDbEntity
  8
0
370
    35
390
0
 62
     7
 48
0.012506
100
AcDbLine
 10
712.255615
 20
229.302887
 30
0.0
 11
712.755615
 21
229.28714
 31
0.0
210
0.0
220
0.0
230
1.0
  0
LINE
  5
179
100
AcDbEntity
  8
0
370
    35
390
0
 62
     7
 48
0.012506
100
AcDbLine
 10
605.955566
 20
221.971069
 30
0.0
 11
605.455566
 21
221.986847
 31
0.0
210
0.0
220
0.0
230
1.0
  0
LINE
  5
17A
100
AcDbEntity
  8
0
370
    35
390
0
 62
     7
 48
0.012506
100
AcDbLine
 10
710.755615
 20
229.350128
 30
0.0
 11
711.255615
 21
229.334381
 31
0.0
210
0.0
220
0.0
230
1.0
  0
LINE
  5
17B
100
AcDbEntity
  8
0
370
    35
390
0
 62
     7
 48
0.195
100
AcDbLine
 10
596.005615
 20
229.584229
 30
0.0
 11
596.005615
 21
221.78421
 31
0.0
210
0.0
220
0.0
230
1.0
  0
LINE
  5
17C
100
AcDbEntity
  8
0
370
    35
390
0
 62
     7
 48
0.340863
100
AcDbLine
 10
736.265137
 20
228.584229
 30
0.0
 11
749.899658
 21
228.584229
 31
0.0
210
0.0
220
0.0
230
1.0
  0
LINE
  5
17D
100
AcDbEntity
  8
0
370
    35
390
0
 62
     7
 48
0.301221
100
AcDbLine
 10
596.005615
 20
228.584229
 30
0.0
 11
583.956787
 21
228.584229
 31
0.0
210
0.0
220
0.0
230
1.0
  0
LINE
  5
17E
100
AcDbEntity
  8
0
370
    35
390
0
 62
     7
 48
0.301218
100
AcDbLine
 10
719.205566
 20
222.78421
 30
0.0
 11
731.254272
 21
222.78421
 31
0.0
210
0.0
220
0.0
230
1.0
  0
LINE
  5
17F
100
AcDbEntity
  8
0
370
    35
390
0
 62
     7
 48
0.000125
100
AcDbLine
 10
607.905518
 20
238.879242
 30
0.0
 11
607.910522
 21
238.879242
 31
0.0
210
0.0
220
0.0
230
1.0
  0
LINE
  5
180
100
AcDbEntity
  8
0
370
    35
390
0
 62
     7
 48
0.000125
100
AcDbLine
 10
708.105591
 20
231.684235
 30
0.0
 11
708.105591
 21
231.67923
 31
0.0
210
0.0
220
0.0
230
1.0
  0
LINE
  5
181
100
AcDbEntity
  8
0
370
    35
390
0
 62
     7
 48
0.025
100
AcDbLine
 10
708.105591
 20
218.684235
 30
0.0
 11
708.105591
 21
217.684235
 31
0.0
210
0.0
220
0.0
230
1.0
  0
LINE
  5
182
100
AcDbEntity
  8
0
370
    35
390
0
 62
     7
 48
0.000125
100
AcDbLine
 10
707.300537
 20
232.484222
 30
0.0
 11
707.305542
 21
232.484222
 31
0.0
210
0.0
220
0.0
230
1.0
  0
LINE
  5
183
100
AcDbEntity
  8
0
370
    35
390
0
 62
     7
 48
0.000125
100
AcDbLine
 10
707.300537
 20
231.684235
 30
0.0
 11
707.305542
 21
231.684235
 31
0.0
210
0.0
220
0.0
230
1.0
  0
LINE
  5
184
100
AcDbEntity
  8
0
370
    35
390
0
 62
     7
 48
0.000125
100
AcDbLine
 10
707.305542
 20
231.67923
 30
0.0
 11
707.305542
 21
231.684235
 31
0.0
210
0.0
220
0.0
230
1.0
  0
LINE
  5
185
100
AcDbEntity
  8
0
370
    35
390
0
 62
     7
 48
0.025
100
AcDbLine
 10
707.305542
 20
217.684235
 30
0.0
 11
707.305542
 21
218.684235
 31
0.0
210
0.0
220
0.0
230
1.0
  0
LINE
  5
186
100
AcDbEntity
  8
0
370
    35
390
0
 62
     7
 48
0.020001
100
AcDbLine
 10
707.305542
 20
217.684235
 30
0.0
 11
708.105591
 21
217.684235
 31
0.0
210
0.0
220
0.0
230
1.0
  0
LINE
  5
187
100
AcDbEntity
  8
0
370
    35
390
0
 62
     7
 48
0.02
100
AcDbLine
 10
707.300537
 20
231.684235
 30
0.0
 11
707.300537
 21
232.484222
 31
0.0
210
0.0
220
0.0
230
1.0
  0
LINE
  5
188
100
AcDbEntity
  8
0
370
    35
390
0
 62
     7
 48
0.000125
100
AcDbLine
 10
707.300537
 20
231.684235
 30
0.0
 11
707.300537
 21
231.67923
 31
0.0
210
0.0
220
0.0
230
1.0
  0
LINE
  5
189
100
AcDbEntity
  8
0
370
    35
390
0
 62
     7
 48
0.000125
100
AcDbLine
 10
607.905518
 20
232.484222
 30
0.0
 11
607.910522
 21
232.484222
 31
0.0
210
0.0
220
0.0
230
1.0
  0
LINE
  5
18A
100
AcDbEntity
  8
0
370
    35
390
0
 62
     7
100
AcDbLine
 10
707.300537
 20
232.484222
 30
0.0
 11
607.910522
 21
232.484222
 31
0.0
210
0.0
220
0.0
230
1.0
  0
LINE
  5
18B
100
AcDbEntity
  8
0
370
    35
390
0
 62
     7
100
AcDbLine
 10
607.910522
 20
218.684235
 30
0.0
 11
707.300537
 21
218.684235
 31
0.0
210
0.0
220
0.0
230
1.0
  0
LINE
  5
18C
100
AcDbEntity
  8
0
370
    35
390
0
 62
     7
 48
0.020123
100
AcDbLine
 10
607.105591
 20
218.684235
 30
0.0
 11
607.910522
 21
218.684235
 31
0.0
210
0.0
220
0.0
230
1.0
  0
LINE
  5
18D
100
AcDbEntity
  8
0
370
    35
390
0
 62
     7
 48
0.324875
100
AcDbLine
 10
607.105591
 20
231.67923
 30
0.0
 11
607.105591
 21
218.684235
 31
0.0
210
0.0
220
0.0
230
1.0
  0
LINE
  5
18E
100
AcDbEntity
  8
0
370
    35
390
0
 62
     7
 48
0.020123
100
AcDbLine
 10
607.910522
 20
231.67923
 30
0.0
 11
607.105591
 21
231.67923
 31
0.0
210
0.0
220
0.0
230
1.0
  0
LINE
  5
18F
100
AcDbEntity
  8
0
370
    35
390
0
 62
     7
 48
0.000125
100
AcDbLine
 10
607.910522
 20
231.684235
 30
0.0
 11
607.910522
 21
231.67923
 31
0.0
210
0.0
220
0.0
230
1.0
  0
LINE
  5
190
100
AcDbEntity
  8
0
370
    35
390
0
 62
     7
 48
0.020126
100
AcDbLine
 10
707.300537
 20
231.67923
 30
0.0
 11
708.105591
 21
231.67923
 31
0.0
210
0.0
220
0.0
230
1.0
  0
LINE
  5
191
100
AcDbEntity
  8
0
370
    35
390
0
 62
     7
 48
0.324875
100
AcDbLine
 10
708.105591
 20
231.67923
 30
0.0
 11
708.105591
 21
218.684235
 31
0.0
210
0.0
220
0.0
230
1.0
  0
LINE
  5
192
100
AcDbEntity
  8
0
370
    35
390
0
 62
     7
 48
0.020126
100
AcDbLine
 10
707.300537
 20
218.684235
 30
0.0
 11
708.105591
 21
218.684235
 31
0.0
210
0.0
220
0.0
230
1.0
  0
LINE
  5
193
100
AcDbEntity
  8
0
370
    35
390
0
 62
     7
 48
0.02
100
AcDbLine
 10
607.910522
 20
231.684235
 30
0.0
 11
607.910522
 21
232.484222
 31
0.0
210
0.0
220
0.0
230
1.0
  0
LINE
  5
194
100
AcDbEntity
  8
0
370
    35
390
0
 62
     7
 48
0.000125
100
AcDbLine
 10
607.905518
 20
231.684235
 30
0.0
 11
607.910522
 21
231.684235
 31
0.0
210
0.0
220
0.0
230
1.0
  0
LINE
  5
195
100
AcDbEntity
  8
0
370
    35
390
0
 62
     7
 48
0.000125
100
AcDbLine
 10
607.105591
 20
231.684235
 30
0.0
 11
607.105591
 21
231.67923
 31
0.0
210
0.0
220
0.0
230
1.0
  0
LINE
  5
196
100
AcDbEntity
  8
0
370
    35
390
0
 62
     7
 48
0.005
100
AcDbLine
 10
607.105591
 20
218.684235
 30
0.0
 11
607.105591
 21
218.484222
 31
0.0
210
0.0
220
0.0
230
1.0
  0
LINE
  5
197
100
AcDbEntity
  8
0
370
    35
390
0
 62
     7
 48
0.019998
100
AcDbLine
 10
607.905518
 20
217.684235
 30
0.0
 11
607.105591
 21
217.684235
 31
0.0
210
0.0
220
0.0
230
1.0
  0
LINE
  5
198
100
AcDbEntity
  8
0
370
    35
390
0
 62
     7
 48
0.020123
100
AcDbLine
 10
607.905518
 20
218.489136
 30
0.0
 11
607.905518
 21
217.684235
 31
0.0
210
0.0
220
0.0
230
1.0
  0
LINE
  5
199
100
AcDbEntity
  8
0
370
    35
390
0
 62
     7
 48
0.02
100
AcDbLine
 10
598.105591
 20
217.684235
 30
0.0
 11
598.105591
 21
218.484222
 31
0.0
210
0.0
220
0.0
230
1.0
  0
LINE
  5
19A
100
AcDbEntity
  8
0
370
    35
390
0
 62
     7
 48
0.175
100
AcDbLine
 10
607.105591
 20
218.484222
 30
0.0
 11
600.105591
 21
218.484222
 31
0.0
210
0.0
220
0.0
230
1.0
  0
LINE
  5
19B
100
AcDbEntity
  8
0
370
    35
390
0
 62
     7
 48
0.05
100
AcDbLine
 10
598.105591
 20
217.684235
 30
0.0
 11
600.105591
 21
217.684235
 31
0.0
210
0.0
220
0.0
230
1.0
  0
LINE
  5
19C
100
AcDbEntity
  8
0
370
    35
390
0
 62
     7
 48
0.05
100
AcDbLine
 10
715.105591
 20
218.484222
 30
0.0
 11
717.105591
 21
218.484222
 31
0.0
210
0.0
220
0.0
230
1.0
  0
LINE
  5
19D
100
AcDbEntity
  8
0
370
    35
390
0
 62
     7
 48
0.05
100
AcDbLine
 10
715.105591
 20
217.684235
 30
0.0
 11
717.105591
 21
217.684235
 31
0.0
210
0.0
220
0.0
230
1.0
  0
LINE
  5
19E
100
AcDbEntity
  8
0
370
    35
390
0
 62
     7
 48
0.02
100
AcDbLine
 10
717.105591
 20
217.684235
 30
0.0
 11
717.105591
 21
218.484222
 31
0.0
210
0.0
220
0.0
230
1.0
  0
LINE
  5
19F
100
AcDbEntity
  8
0
370
    35
390
0
 62
     7
 48
0.175
100
AcDbLine
 10
715.105591
 20
218.484222
 30
0.0
 11
708.105591
 21
218.484222
 31
0.0
210
0.0
220
0.0
230
1.0
  0
LINE
  5
1A0
100
AcDbEntity
  8
0
370
    35
390
0
 62
     7
 48
0.175
100
AcDbLine
 10
715.105591
 20
217.684235
 30
0.0
 11
708.105591
 21
217.684235
 31
0.0
210
0.0
220
0.0
230
1.0
  0
LINE
  5
1A1
100
AcDbEntity
  8
0
370
    35
390
0
 62
     7
 48
0.005
100
AcDbLine
 10
607.905518
 20
218.684235
 30
0.0
 11
607.905518
 21
218.484222
 31
0.0
210
0.0
220
0.0
230
1.0
  0
LINE
  5
1A2
100
AcDbEntity
  8
0
370
    35
390
0
 62
     7
 48
0.175
100
AcDbLine
 10
600.105591
 20
217.684235
 30
0.0
 11
607.105591
 21
217.684235
 31
0.0
210
0.0
220
0.0
230
1.0
  0
LINE
  5
1A3
100
AcDbEntity
  8
0
370
    35
390
0
 62
     7
 48
0.05
100
AcDbLine
 10
598.105591
 20
218.484222
 30
0.0
 11
600.105591
 21
218.484222
 31
0.0
210
0.0
220
0.0
230
1.0
  0
LINE
  5
1A4
100
AcDbEntity
  8
0
370
    35
390
0
 62
     7
 48
0.001251
100
AcDbLine
 10
706.205566
 20
218.28421
 30
0.0
 11
706.155518
 21
218.28421
 31
0.0
210
0.0
220
0.0
230
1.0
  0
LINE
  5
1A5
100
AcDbEntity
  8
0
370
    35
390
0
 62
     7
 48
0.001248
100
AcDbLine
 10
609.055542
 20
218.28421
 30
0.0
 11
609.005615
 21
218.28421
 31
0.0
210
0.0
220
0.0
230
1.0
  0
LINE
  5
1A6
100
AcDbEntity
  8
0
370
    35
390
0
 62
     7
 48
0.010001
100
AcDbLine
 10
707.205566
 20
218.28421
 30
0.0
 11
707.205566
 21
218.684235
 31
0.0
210
0.0
220
0.0
230
1.0
  0
LINE
  5
1A7
100
AcDbEntity
  8
0
370
    35
390
0
 62
     7
 48
0.001251
100
AcDbLine
 10
706.155518
 20
217.28421
 30
0.0
 11
706.205566
 21
217.28421
 31
0.0
210
0.0
220
0.0
230
1.0
  0
LINE
  5
1A8
100
AcDbEntity
  8
0
370
    35
390
0
 62
     7
 48
0.025
100
AcDbLine
 10
706.155518
 20
217.28421
 30
0.0
 11
706.155518
 21
218.28421
 31
0.0
210
0.0
220
0.0
230
1.0
  0
LINE
  5
1A9
100
AcDbEntity
  8
0
370
    35
390
0
 62
     7
 48
0.010001
100
AcDbLine
 10
706.155518
 20
218.28421
 30
0.0
 11
706.155518
 21
218.684235
 31
0.0
210
0.0
220
0.0
230
1.0
  0
LINE
  5
1AA
100
AcDbEntity
  8
0
370
    35
390
0
 62
     7
 48
0.010001
100
AcDbLine
 10
609.055542
 20
218.28421
 30
0.0
 11
609.055542
 21
218.684235
 31
0.0
210
0.0
220
0.0
230
1.0
  0
LINE
  5
1AB
100
AcDbEntity
  8
0
370
    35
390
0
 62
     7
 48
0.025
100
AcDbLine
 10
609.055542
 20
217.28421
 30
0.0
 11
609.055542
 21
218.28421
 31
0.0
210
0.0
220
0.0
230
1.0
  0
LINE
  5
1AC
100
AcDbEntity
  8
0
370
    35
390
0
 62
     7
100
AcDbLine
 10
706.155518
 20
217.28421
 30
0.0
 11
609.055542
 21
217.28421
 31
0.0
210
0.0
220
0.0
230
1.0
  0
LINE
  5
1AD
100
AcDbEntity
  8
0
370
    35
390
0
 62
     7
 48
0.001248
100
AcDbLine
 10
609.055542
 20
217.28421
 30
0.0
 11
609.005615
 21
217.28421
 31
0.0
210
0.0
220
0.0
230
1.0
  0
LINE
  5
1AE
100
AcDbEntity
  8
0
370
    35
390
0
 62
     7
 48
0.010001
100
AcDbLine
 10
608.005615
 20
218.28421
 30
0.0
 11
608.005615
 21
218.684235
 31
0.0
210
0.0
220
0.0
230
1.0
  0
LINE
  5
1AF
100
AcDbEntity
  8
0
370
    35
390
0
 62
     7
 48
0.010001
100
AcDbLine
 10
609.005615
 20
218.684235
 30
0.0
 11
609.005615
 21
218.28421
 31
0.0
210
0.0
220
0.0
230
1.0
  0
LINE
  5
1B0
100
AcDbEntity
  8
0
370
    35
390
0
 62
     7
 48
0.010001
100
AcDbLine
 10
706.205566
 20
218.28421
 30
0.0
 11
706.205566
 21
218.684235
 31
0.0
210
0.0
220
0.0
230
1.0
  0
LINE
  5
1B1
100
AcDbEntity
  8
0
370
    35
390
0
 62
     7
 48
0.0125
100
AcDbLine
 10
618.469177
 20
222.203461
 30
0.0
 11
618.822754
 21
221.849915
 31
0.0
210
0.0
220
0.0
230
1.0
  0
LINE
  5
1B2
100
AcDbEntity
  8
0
370
    35
390
0
 62
     7
 48
0.012501
100
AcDbLine
 10
618.186279
 20
221.920624
 30
0.0
 11
618.539917
 21
221.567078
 31
0.0
210
0.0
220
0.0
230
1.0
  0
LINE
  5
1B3
100
AcDbEntity
  8
0
370
    35
390
0
 62
     7
 48
0.012501
100
AcDbLine
 10
618.186279
 20
220.647827
 30
0.0
 11
618.539917
 21
221.001373
 31
0.0
210
0.0
220
0.0
230
1.0
  0
LINE
  5
1B4
100
AcDbEntity
  8
0
370
    35
390
0
 62
     7
 48
0.0125
100
AcDbLine
 10
618.469177
 20
220.36499
 30
0.0
 11
618.822754
 21
220.718536
 31
0.0
210
0.0
220
0.0
230
1.0
  0
LINE
  5
1B5
100
AcDbEntity
  8
0
370
    35
390
0
 62
     7
 48
0.012499
100
AcDbLine
 10
619.388428
 20
221.849915
 30
0.0
 11
619.741943
 21
222.203461
 31
0.0
210
0.0
220
0.0
230
1.0
  0
LINE
  5
1B6
100
AcDbEntity
  8
0
370
    35
390
0
 62
     7
 48
0.012499
100
AcDbLine
 10
619.671265
 20
221.567078
 30
0.0
 11
620.02478
 21
221.920624
 31
0.0
210
0.0
220
0.0
230
1.0
  0
LINE
  5
1B7
100
AcDbEntity
  8
0
370
    35
390
0
 62
     7
 48
0.012499
100
AcDbLine
 10
619.671265
 20
221.001373
 30
0.0
 11
620.02478
 21
220.647827
 31
0.0
210
0.0
220
0.0
230
1.0
  0
LINE
  5
1B8
100
AcDbEntity
  8
0
370
    35
390
0
 62
     7
 48
0.012499
100
AcDbLine
 10
619.388428
 20
220.718536
 30
0.0
 11
619.741943
 21
220.36499
 31
0.0
210
0.0
220
0.0
230
1.0
  0
LINE
  5
1B9
100
AcDbEntity
  8
0
370
    35
390
0
 62
     7
 48
0.01
100
AcDbLine
 10
619.741943
 20
222.203461
 30
0.0
 11
620.02478
 21
221.920624
 31
0.0
210
0.0
220
0.0
230
1.0
  0
LINE
  5
1BA
100
AcDbEntity
  8
0
370
    35
390
0
 62
     7
 48
0.010001
100
AcDbLine
 10
618.186279
 20
220.647827
 30
0.0
 11
618.469177
 21
220.36499
 31
0.0
210
0.0
220
0.0
230
1.0
  0
LINE
  5
1BB
100
AcDbEntity
  8
0
370
    35
390
0
 62
     7
 48
0.010001
100
AcDbLine
 10
618.186279
 20
221.920624
 30
0.0
 11
618.469177
 21
222.203461
 31
0.0
210
0.0
220
0.0
230
1.0
  0
LINE
  5
1BC
100
AcDbEntity
  8
0
370
    35
390
0
 62
     7
 48
0.01
100
AcDbLine
 10
619.741943
 20
220.36499
 30
0.0
 11
620.02478
 21
220.647827
 31
0.0
210
0.0
220
0.0
230
1.0
  0
LINE
  5
1BD
100
AcDbEntity
  8
0
370
    35
390
0
 62
     7
 48
0.012501
100
AcDbLine
 10
694.469116
 20
222.203461
 30
0.0
 11
694.822754
 21
221.849915
 31
0.0
210
0.0
220
0.0
230
1.0
  0
LINE
  5
1BE
100
AcDbEntity
  8
0
370
    35
390
0
 62
     7
 48
0.012501
100
AcDbLine
 10
694.186279
 20
221.920624
 30
0.0
 11
694.539917
 21
221.567078
 31
0.0
210
0.0
220
0.0
230
1.0
  0
LINE
  5
1BF
100
AcDbEntity
  8
0
370
    35
390
0
 62
     7
 48
0.012501
100
AcDbLine
 10
694.186279
 20
220.647827
 30
0.0
 11
694.539917
 21
221.001373
 31
0.0
210
0.0
220
0.0
230
1.0
  0
LINE
  5
1C0
100
AcDbEntity
  8
0
370
    35
390
0
 62
     7
 48
0.012501
100
AcDbLine
 10
694.469116
 20
220.36499
 30
0.0
 11
694.822754
 21
220.718536
 31
0.0
210
0.0
220
0.0
230
1.0
  0
LINE
  5
1C1
100
AcDbEntity
  8
0
370
    35
390
0
 62
     7
 48
0.012499
100
AcDbLine
 10
695.388428
 20
221.849915
 30
0.0
 11
695.741943
 21
222.203461
 31
0.0
210
0.0
220
0.0
230
1.0
  0
LINE
  5
1C2
100
AcDbEntity
  8
0
370
    35
390
0
 62
     7
 48
0.012499
100
AcDbLine
 10
695.671265
 20
221.567078
 30
0.0
 11
696.02478
 21
221.920624
 31
0.0
210
0.0
220
0.0
230
1.0
  0
LINE
  5
1C3
100
AcDbEntity
  8
0
370
    35
390
0
 62
     7
 48
0.012499
100
AcDbLine
 10
695.671265
 20
221.001373
 30
0.0
 11
696.02478
 21
220.647827
 31
0.0
210
0.0
220
0.0
230
1.0
  0
LINE
  5
1C4
100
AcDbEntity
  8
0
370
    35
390
0
 62
     7
 48
0.012499
100
AcDbLine
 10
695.388428
 20
220.718536
 30
0.0
 11
695.741943
 21
220.36499
 31
0.0
210
0.0
220
0.0
230
1.0
  0
LINE
  5
1C5
100
AcDbEntity
  8
0
370
    35
390
0
 62
     7
 48
0.01
100
AcDbLine
 10
695.741943
 20
222.203461
 30
0.0
 11
696.02478
 21
221.920624
 31
0.0
210
0.0
220
0.0
230
1.0
  0
LINE
  5
1C6
100
AcDbEntity
  8
0
370
    35
390
0
 62
     7
 48
0.01
100
AcDbLine
 10
694.186279
 20
220.647827
 30
0.0
 11
694.469116
 21
220.36499
 31
0.0
210
0.0
220
0.0
230
1.0
  0
LINE
  5
1C7
100
AcDbEntity
  8
0
370
    35
390
0
 62
     7
 48
0.01
100
AcDbLine
 10
694.186279
 20
221.920624
 30
0.0
 11
694.469116
 21
222.203461
 31
0.0
210
0.0
220
0.0
230
1.0
  0
LINE
  5
1C8
100
AcDbEntity
  8
0
370
    35
390
0
 62
     7
 48
0.01
100
AcDbLine
 10
695.741943
 20
220.36499
 30
0.0
 11
696.02478
 21
220.647827
 31
0.0
210
0.0
220
0.0
230
1.0
  0
LINE
  5
1C9
100
AcDbEntity
  8
0
370
    35
390
0
 62
     7
 48
0.125
100
AcDbLine
 10
768.899658
 20
226.684235
 30
0.0
 11
773.899658
 21
226.684235
 31
0.0
210
0.0
220
0.0
230
1.0
  0
LINE
  5
1CA
100
AcDbEntity
  8
0
370
    35
390
0
 62
     7
 48
0.125
100
AcDbLine
 10
768.899658
 20
224.684235
 30
0.0
 11
773.899658
 21
224.684235
 31
0.0
210
0.0
220
0.0
230
1.0
  0
LINE
  5
1CB
100
AcDbEntity
  8
0
370
    35
390
0
 62
     7
100
AcDbLine
 10
550.495239
 20
326.688171
 30
0.0
 11
633.54834
 21
326.688171
 31
0.0
210
0.0
220
0.0
230
1.0
  0
LINE
  5
1CC
100
AcDbEntity
  8
0
370
    35
390
0
 62
     7
100
AcDbLine
 10
550.469238
 20
320.83609
 30
0.0
 11
633.54834
 21
320.83609
 31
0.0
210
0.0
220
0.0
230
1.0
  0
LINE
  5
1CD
100
AcDbEntity
  8
0
370
    35
390
0
 62
     7
100
AcDbLine
 10
638.54834
 20
326.688171
 30
0.0
 11
795.378296
 21
326.688171
 31
0.0
210
0.0
220
0.0
230
1.0
  0
LINE
  5
1CE
100
AcDbEntity
  8
0
370
    35
390
0
 62
     7
100
AcDbLine
 10
638.54834
 20
320.83609
 30
0.0
 11
795.378296
 21
320.83609
 31
0.0
210
0.0
220
0.0
230
1.0
  0
LINE
  5
1CF
100
AcDbEntity
  8
0
370
    35
390
0
 62
     7
100
AcDbLine
 10
800.378296
 20
367.784241
 30
0.0
 11
800.378296
 21
331.688171
 31
0.0
210
0.0
220
0.0
230
1.0
  0
LINE
  5
1D0
100
AcDbEntity
  8
0
370
    35
390
0
 62
     7
100
AcDbLine
 10
806.178345
 20
367.784241
 30
0.0
 11
806.178345
 21
331.636078
 31
0.0
210
0.0
220
0.0
230
1.0
  0
LINE
  5
1D1
100
AcDbEntity
  8
0
370
    35
390
0
 62
     7
100
AcDbLine
 10
49.997284
 20
386.684235
 30
0.0
 11
49.997284
 21
364.684235
 31
0.0
210
0.0
220
0.0
230
1.0
  0
LINE
  5
1D2
100
AcDbEntity
  8
0
370
    35
390
0
 62
     7
100
AcDbLine
 10
58.997284
 20
385.684235
 30
0.0
 11
58.997284
 21
365.684235
 31
0.0
210
0.0
220
0.0
230
1.0
  0
LINE
  5
1D3
100
AcDbEntity
  8
0
370
    35
390
0
 62
     7
 48
0.225
100
AcDbLine
 10
48.997284
 20
386.684235
 30
0.0
 11
57.997284
 21
386.684235
 31
0.0
210
0.0
220
0.0
230
1.0
  0
LINE
  5
1D4
100
AcDbEntity
  8
0
370
    35
390
0
 62
     7
 48
0.225
100
AcDbLine
 10
48.997284
 20
364.684235
 30
0.0
 11
57.997284
 21
364.684235
 31
0.0
210
0.0
220
0.0
230
1.0
  0
LINE
  5
1D5
100
AcDbEntity
  8
0
370
    35
390
0
 62
     7
100
AcDbLine
 10
48.997284
 20
386.684235
 30
0.0
 11
48.997284
 21
364.684235
 31
0.0
210
0.0
220
0.0
230
1.0
  0
LINE
  5
1D6
100
AcDbEntity
  8
0
370
    35
390
0
 62
     7
100
AcDbLine
 10
57.997284
 20
386.684235
 30
0.0
 11
57.997284
 21
364.684235
 31
0.0
210
0.0
220
0.0
230
1.0
  0
LINE
  5
1D7
100
AcDbEntity
  8
0
370
    35
390
0
 62
     7
 48
0.035355
100
AcDbLine
 10
57.997284
 20
386.684235
 30
0.0
 11
58.997284
 21
385.684235
 31
0.0
210
0.0
220
0.0
230
1.0
  0
LINE
  5
1D8
100
AcDbEntity
  8
0
370
    35
390
0
 62
     7
 48
0.035355
100
AcDbLine
 10
57.997284
 20
364.684235
 30
0.0
 11
58.997284
 21
365.684235
 31
0.0
210
0.0
220
0.0
230
1.0
  0
LINE
  5
1D9
100
AcDbEntity
  8
0
370
    35
390
0
 62
     7
100
AcDbLine
 10
263.997284
 20
388.684235
 30
0.0
 11
263.997284
 21
362.684235
 31
0.0
210
0.0
220
0.0
230
1.0
  0
LINE
  5
1DA
100
AcDbEntity
  8
0
370
    35
390
0
 62
     7
 48
0.05
100
AcDbLine
 10
288.997284
 20
359.734222
 30
0.0
 11
290.997284
 21
359.734222
 31
0.0
210
0.0
220
0.0
230
1.0
  0
LINE
  5
1DB
100
AcDbEntity
  8
0
370
    35
390
0
 62
     7
100
AcDbLine
 10
267.997284
 20
391.684235
 30
0.0
 11
288.997284
 21
391.684235
 31
0.0
210
0.0
220
0.0
230
1.0
  0
LINE
  5
1DC
100
AcDbEntity
  8
0
370
    35
390
0
 62
     7
100
AcDbLine
 10
267.997284
 20
359.684235
 30
0.0
 11
288.997284
 21
359.684235
 31
0.0
210
0.0
220
0.0
230
1.0
  0
LINE
  5
1DD
100
AcDbEntity
  8
0
370
    35
390
0
 62
     7
 48
0.125
100
AcDbLine
 10
263.997284
 20
362.684235
 30
0.0
 11
267.997284
 21
359.684235
 31
0.0
210
0.0
220
0.0
230
1.0
  0
LINE
  5
1DE
100
AcDbEntity
  8
0
370
    35
390
0
 62
     7
 48
0.4
100
AcDbLine
 10
262.997284
 20
383.684235
 30
0.0
 11
262.997284
 21
367.684235
 31
0.0
210
0.0
220
0.0
230
1.0
  0
LINE
  5
1DF
100
AcDbEntity
  8
0
370
    35
390
0
 62
     7
 48
0.035355
100
AcDbLine
 10
262.997284
 20
383.684235
 30
0.0
 11
263.997284
 21
384.684235
 31
0.0
210
0.0
220
0.0
230
1.0
  0
LINE
  5
1E0
100
AcDbEntity
  8
0
370
    35
390
0
 62
     7
 48
0.035355
100
AcDbLine
 10
262.997284
 20
367.684235
 30
0.0
 11
263.997284
 21
366.684235
 31
0.0
210
0.0
220
0.0
230
1.0
  0
LINE
  5
1E1
100
AcDbEntity
  8
0
370
    35
390
0
 62
     7
 48
0.125
100
AcDbLine
 10
263.997284
 20
388.684235
 30
0.0
 11
267.997284
 21
391.684235
 31
0.0
210
0.0
220
0.0
230
1.0
  0
LINE
  5
1E2
100
AcDbEntity
  8
0
370
    35
390
0
 62
     7
100
AcDbLine
 10
290.997284
 20
391.684235
 30
0.0
 11
290.997284
 21
359.684235
 31
0.0
210
0.0
220
0.0
230
1.0
  0
LINE
  5
1E3
100
AcDbEntity
  8
0
370
    35
390
0
 62
     7
100
AcDbLine
 10
515.497314
 20
391.684235
 30
0.0
 11
768.497314
 21
391.684235
 31
0.0
210
0.0
220
0.0
230
1.0
  0
LINE
  5
1E4
100
AcDbEntity
  8
0
370
    35
390
0
 62
     7
100
AcDbLine
 10
267.997284
 20
391.684235
 30
0.0
 11
267.997284
 21
359.684235
 31
0.0
210
0.0
220
0.0
230
1.0
  0
LINE
  5
1E5
100
AcDbEntity
  8
0
370
    35
390
0
 62
     7
 48
0.05
100
AcDbLine
 10
288.997284
 20
391.634216
 30
0.0
 11
290.997284
 21
391.634216
 31
0.0
210
0.0
220
0.0
230
1.0
  0
LINE
  5
1E6
100
AcDbEntity
  8
0
370
    35
390
0
 62
     7
100
AcDbLine
 10
288.997284
 20
391.684235
 30
0.0
 11
288.997284
 21
359.684235
 31
0.0
210
0.0
220
0.0
230
1.0
  0
LINE
  5
1E7
100
AcDbEntity
  8
0
370
    35
390
0
 62
     7
100
AcDbLine
 10
515.497314
 20
359.684235
 30
0.0
 11
768.497314
 21
359.684235
 31
0.0
210
0.0
220
0.0
230
1.0
  0
LINE
  5
1E8
100
AcDbEntity
  8
0
370
    35
390
0
 62
     7
 48
0.046875
100
AcDbLine
 10
768.497314
 20
390.559235
 30
0.0
 11
769.997314
 21
389.434235
 31
0.0
210
0.0
220
0.0
230
1.0
  0
LINE
  5
1E9
100
AcDbEntity
  8
0
370
    35
390
0
 62
     7
100
AcDbLine
 10
769.997314
 20
389.434235
 30
0.0
 11
769.997314
 21
361.934235
 31
0.0
210
0.0
220
0.0
230
1.0
  0
LINE
  5
1EA
100
AcDbEntity
  8
0
370
    35
390
0
 62
     7
 48
0.375001
100
AcDbLine
 10
500.497284
 20
359.734222
 30
0.0
 11
515.497314
 21
359.734222
 31
0.0
210
0.0
220
0.0
230
1.0
  0
LINE
  5
1EB
100
AcDbEntity
  8
0
370
    35
390
0
 62
     7
100
AcDbLine
 10
515.497314
 20
391.684235
 30
0.0
 11
515.497314
 21
359.684235
 31
0.0
210
0.0
220
0.0
230
1.0
  0
LINE
  5
1EC
100
AcDbEntity
  8
0
370
    35
390
0
 62
     7
100
AcDbLine
 10
500.497284
 20
391.684235
 30
0.0
 11
500.497284
 21
359.684235
 31
0.0
210
0.0
220
0.0
230
1.0
  0
LINE
  5
1ED
100
AcDbEntity
  8
0
370
    35
390
0
 62
     7
 48
0.375001
100
AcDbLine
 10
500.497284
 20
391.634216
 30
0.0
 11
515.497314
 21
391.634216
 31
0.0
210
0.0
220
0.0
230
1.0
  0
LINE
  5
1EE
100
AcDbEntity
  8
0
370
    35
390
0
 62
     7
100
AcDbLine
 10
290.997284
 20
359.684235
 30
0.0
 11
500.497284
 21
359.684235
 31
0.0
210
0.0
220
0.0
230
1.0
  0
LINE
  5
1EF
100
AcDbEntity
  8
0
370
    35
390
0
 62
     7
100
AcDbLine
 10
290.997284
 20
391.684235
 30
0.0
 11
500.497284
 21
391.684235
 31
0.0
210
0.0
220
0.0
230
1.0
  0
LINE
  5
1F0
100
AcDbEntity
  8
0
370
    35
390
0
 62
     7
100
AcDbLine
 10
768.497314
 20
391.684235
 30
0.0
 11
768.497314
 21
359.684235
 31
0.0
210
0.0
220
0.0
230
1.0
  0
LINE
  5
1F1
100
AcDbEntity
  8
0
370
    35
390
0
 62
     7
 48
0.046875
100
AcDbLine
 10
768.497314
 20
360.809235
 30
0.0
 11
769.997314
 21
361.934235
 31
0.0
210
0.0
220
0.0
230
1.0
  0
LINE
  5
1F2
100
AcDbEntity
  8
0
370
    35
390
0
 62
     7
 48
0.025
100
AcDbLine
 10
769.997314
 20
370.934235
 30
0.0
 11
770.997314
 21
370.934235
 31
0.0
210
0.0
220
0.0
230
1.0
  0
LINE
  5
1F3
100
AcDbEntity
  8
0
370
    35
390
0
 62
     7
 48
0.2
100
AcDbLine
 10
789.997314
 20
379.684235
 30
0.0
 11
789.997314
 21
371.684235
 31
0.0
210
0.0
220
0.0
230
1.0
  0
LINE
  5
1F4
100
AcDbEntity
  8
0
370
    35
390
0
 62
     7
 48
0.068804
100
AcDbLine
 10
770.997314
 20
380.434235
 30
0.0
 11
773.747314
 21
380.325684
 31
0.0
210
0.0
220
0.0
230
1.0
  0
LINE
  5
1F5
100
AcDbEntity
  8
0
370
    35
390
0
 62
     7
 48
0.068804
100
AcDbLine
 10
770.997314
 20
370.934235
 30
0.0
 11
773.747314
 21
371.042786
 31
0.0
210
0.0
220
0.0
230
1.0
  0
LINE
  5
1F6
100
AcDbEntity
  8
0
370
    35
390
0
 62
     7
 48
0.025
100
AcDbLine
 10
769.997314
 20
380.434235
 30
0.0
 11
770.997314
 21
380.434235
 31
0.0
210
0.0
220
0.0
230
1.0
  0
LINE
  5
1F7
100
AcDbEntity
  8
0
370
    35
390
0
 62
     7
 48
0.232072
100
AcDbLine
 10
773.747314
 20
380.325684
 30
0.0
 11
773.747314
 21
371.042786
 31
0.0
210
0.0
220
0.0
230
1.0
  0
LINE
  5
1F8
100
AcDbEntity
  8
0
370
    35
390
0
 62
     7
 48
0.231085
100
AcDbLine
 10
774.247314
 20
380.305939
 30
0.0
 11
774.247314
 21
371.062531
 31
0.0
210
0.0
220
0.0
230
1.0
  0
LINE
  5
1F9
100
AcDbEntity
  8
0
370
    35
390
0
 62
     7
 48
0.228125
100
AcDbLine
 10
775.747314
 20
380.246735
 30
0.0
 11
775.747314
 21
371.121735
 31
0.0
210
0.0
220
0.0
230
1.0
  0
LINE
  5
1FA
100
AcDbEntity
  8
0
370
    35
390
0
 62
     7
 48
0.229112
100
AcDbLine
 10
775.247314
 20
380.266479
 30
0.0
 11
775.247314
 21
371.10199
 31
0.0
210
0.0
220
0.0
230
1.0
  0
LINE
  5
1FB
100
AcDbEntity
  8
0
370
    35
390
0
 62
     7
 48
0.225165
100
AcDbLine
 10
777.247314
 20
380.187531
 30
0.0
 11
777.247314
 21
371.180939
 31
0.0
210
0.0
220
0.0
230
1.0
  0
LINE
  5
1FC
100
AcDbEntity
  8
0
370
    35
390
0
 62
     7
 48
0.226151
100
AcDbLine
 10
776.747314
 20
380.207245
 30
0.0
 11
776.747314
 21
371.161194
 31
0.0
210
0.0
220
0.0
230
1.0
  0
LINE
  5
1FD
100
AcDbEntity
  8
0
370
    35
390
0
 62
     7
 48
0.222204
100
AcDbLine
 10
778.747314
 20
380.128296
 30
0.0
 11
778.747314
 21
371.240143
 31
0.0
210
0.0
220
0.0
230
1.0
  0
LINE
  5
1FE
100
AcDbEntity
  8
0
370
    35
390
0
 62
     7
 48
0.22319
100
AcDbLine
 10
778.247314
 20
380.148041
 30
0.0
 11
778.247314
 21
371.220428
 31
0.0
210
0.0
220
0.0
230
1.0
  0
LINE
  5
1FF
100
AcDbEntity
  8
0
370
    35
390
0
 62
     7
 48
0.219244
100
AcDbLine
 10
780.247314
 20
380.069092
 30
0.0
 11
780.247314
 21
371.299347
 31
0.0
210
0.0
220
0.0
230
1.0
  0
LINE
  5
200
100
AcDbEntity
  8
0
370
    35
390
0
 62
     7
 48
0.22023
100
AcDbLine
 10
779.747314
 20
380.088837
 30
0.0
 11
779.747314
 21
371.279633
 31
0.0
210
0.0
220
0.0
230
1.0
  0
LINE
  5
201
100
AcDbEntity
  8
0
370
    35
390
0
 62
     7
 48
0.216283
100
AcDbLine
 10
781.747314
 20
380.009888
 30
0.0
 11
781.747314
 21
371.358582
 31
0.0
210
0.0
220
0.0
230
1.0
  0
LINE
  5
202
100
AcDbEntity
  8
0
370
    35
390
0
 62
     7
 48
0.21727
100
AcDbLine
 10
781.247314
 20
380.029633
 30
0.0
 11
781.247314
 21
371.338837
 31
0.0
210
0.0
220
0.0
230
1.0
  0
LINE
  5
203
100
AcDbEntity
  8
0
370
    35
390
0
 62
     7
 48
0.213322
100
AcDbLine
 10
783.247314
 20
379.950684
 30
0.0
 11
783.247314
 21
371.417786
 31
0.0
210
0.0
220
0.0
230
1.0
  0
LINE
  5
204
100
AcDbEntity
  8
0
370
    35
390
0
 62
     7
 48
0.21431
100
AcDbLine
 10
782.747314
 20
379.970428
 30
0.0
 11
782.747314
 21
371.398041
 31
0.0
210
0.0
220
0.0
230
1.0
  0
LINE
  5
205
100
AcDbEntity
  8
0
370
    35
390
0
 62
     7
 48
0.207401
100
AcDbLine
 10
786.247314
 20
379.832245
 30
0.0
 11
786.247314
 21
371.536194
 31
0.0
210
0.0
220
0.0
230
1.0
  0
LINE
  5
206
100
AcDbEntity
  8
0
370
    35
390
0
 62
     7
 48
0.208388
100
AcDbLine
 10
785.747314
 20
379.85199
 30
0.0
 11
785.747314
 21
371.516479
 31
0.0
210
0.0
220
0.0
230
1.0
  0
LINE
  5
207
100
AcDbEntity
  8
0
370
    35
390
0
 62
     7
 48
0.20444
100
AcDbLine
 10
787.747314
 20
379.773041
 30
0.0
 11
787.747314
 21
371.595428
 31
0.0
210
0.0
220
0.0
230
1.0
  0
LINE
  5
208
100
AcDbEntity
  8
0
370
    35
390
0
 62
     7
 48
0.205428
100
AcDbLine
 10
787.247314
 20
379.792786
 30
0.0
 11
787.247314
 21
371.575684
 31
0.0
210
0.0
220
0.0
230
1.0
  0
LINE
  5
209
100
AcDbEntity
  8
0
370
    35
390
0
 62
     7
 48
0.0125
100
AcDbLine
 10
787.247314
 20
379.282928
 30
0.0
 11
787.747314
 21
379.282928
 31
0.0
210
0.0
220
0.0
230
1.0
  0
LINE
  5
20A
100
AcDbEntity
  8
0
370
    35
390
0
 62
     7
 48
0.0125
100
AcDbLine
 10
787.247314
 20
372.085541
 30
0.0
 11
787.747314
 21
372.085541
 31
0.0
210
0.0
220
0.0
230
1.0
  0
LINE
  5
20B
100
AcDbEntity
  8
0
370
    35
390
0
 62
     7
 48
0.056294
100
AcDbLine
 10
787.747314
 20
379.773041
 30
0.0
 11
789.997314
 21
379.684235
 31
0.0
210
0.0
220
0.0
230
1.0
  0
LINE
  5
20C
100
AcDbEntity
  8
0
370
    35
390
0
 62
     7
 48
0.056294
100
AcDbLine
 10
787.747314
 20
371.595428
 30
0.0
 11
789.997314
 21
371.684235
 31
0.0
210
0.0
220
0.0
230
1.0
  0
LINE
  5
20D
100
AcDbEntity
  8
0
370
    35
390
0
 62
     7
 48
0.0125
100
AcDbLine
 10
785.747314
 20
372.026337
 30
0.0
 11
786.247314
 21
372.026337
 31
0.0
210
0.0
220
0.0
230
1.0
  0
LINE
  5
20E
100
AcDbEntity
  8
0
370
    35
390
0
 62
     7
 48
0.0125
100
AcDbLine
 10
785.747314
 20
379.342133
 30
0.0
 11
786.247314
 21
379.342133
 31
0.0
210
0.0
220
0.0
230
1.0
  0
LINE
  5
20F
100
AcDbEntity
  8
0
370
    35
390
0
 62
     7
 48
0.025019
100
AcDbLine
 10
786.247314
 20
371.536194
 30
0.0
 11
787.247314
 21
371.575684
 31
0.0
210
0.0
220
0.0
230
1.0
  0
LINE
  5
210
100
AcDbEntity
  8
0
370
    35
390
0
 62
     7
 48
0.025019
100
AcDbLine
 10
786.247314
 20
379.832245
 30
0.0
 11
787.247314
 21
379.792786
 31
0.0
210
0.0
220
0.0
230
1.0
  0
LINE
  5
211
100
AcDbEntity
  8
0
370
    35
390
0
 62
     7
 48
0.0125
100
AcDbLine
 10
782.747314
 20
379.460541
 30
0.0
 11
783.247314
 21
379.460541
 31
0.0
210
0.0
220
0.0
230
1.0
  0
LINE
  5
212
100
AcDbEntity
  8
0
370
    35
390
0
 62
     7
 48
0.0125
100
AcDbLine
 10
782.747314
 20
371.907928
 30
0.0
 11
783.247314
 21
371.907928
 31
0.0
210
0.0
220
0.0
230
1.0
  0
LINE
  5
213
100
AcDbEntity
  8
0
370
    35
390
0
 62
     7
 48
0.062549
100
AcDbLine
 10
783.247314
 20
379.950684
 30
0.0
 11
785.747314
 21
379.85199
 31
0.0
210
0.0
220
0.0
230
1.0
  0
LINE
  5
214
100
AcDbEntity
  8
0
370
    35
390
0
 62
     7
 48
0.062549
100
AcDbLine
 10
783.247314
 20
371.417786
 30
0.0
 11
785.747314
 21
371.516479
 31
0.0
210
0.0
220
0.0
230
1.0
  0
LINE
  5
215
100
AcDbEntity
  8
0
370
    35
390
0
 62
     7
 48
0.0125
100
AcDbLine
 10
781.247314
 20
379.519745
 30
0.0
 11
781.747314
 21
379.519745
 31
0.0
210
0.0
220
0.0
230
1.0
  0
LINE
  5
216
100
AcDbEntity
  8
0
370
    35
390
0
 62
     7
 48
0.0125
100
AcDbLine
 10
781.247314
 20
371.848694
 30
0.0
 11
781.747314
 21
371.848694
 31
0.0
210
0.0
220
0.0
230
1.0
  0
LINE
  5
217
100
AcDbEntity
  8
0
370
    35
390
0
 62
     7
 48
0.025019
100
AcDbLine
 10
781.747314
 20
371.358582
 30
0.0
 11
782.747314
 21
371.398041
 31
0.0
210
0.0
220
0.0
230
1.0
  0
LINE
  5
218
100
AcDbEntity
  8
0
370
    35
390
0
 62
     7
 48
0.025019
100
AcDbLine
 10
781.747314
 20
380.009888
 30
0.0
 11
782.747314
 21
379.970428
 31
0.0
210
0.0
220
0.0
230
1.0
  0
LINE
  5
219
100
AcDbEntity
  8
0
370
    35
390
0
 62
     7
 48
0.0125
100
AcDbLine
 10
779.747314
 20
379.578979
 30
0.0
 11
780.247314
 21
379.578979
 31
0.0
210
0.0
220
0.0
230
1.0
  0
LINE
  5
21A
100
AcDbEntity
  8
0
370
    35
390
0
 62
     7
 48
0.0125
100
AcDbLine
 10
779.747314
 20
371.78949
 30
0.0
 11
780.247314
 21
371.78949
 31
0.0
210
0.0
220
0.0
230
1.0
  0
LINE
  5
21B
100
AcDbEntity
  8
0
370
    35
390
0
 62
     7
 48
0.025019
100
AcDbLine
 10
780.247314
 20
371.299347
 30
0.0
 11
781.247314
 21
371.338837
 31
0.0
210
0.0
220
0.0
230
1.0
  0
LINE
  5
21C
100
AcDbEntity
  8
0
370
    35
390
0
 62
     7
 48
0.025019
100
AcDbLine
 10
780.247314
 20
380.069092
 30
0.0
 11
781.247314
 21
380.029633
 31
0.0
210
0.0
220
0.0
230
1.0
  0
LINE
  5
21D
100
AcDbEntity
  8
0
370
    35
390
0
 62
     7
 48
0.0125
100
AcDbLine
 10
778.247314
 20
371.730286
 30
0.0
 11
778.747314
 21
371.730286
 31
0.0
210
0.0
220
0.0
230
1.0
  0
LINE
  5
21E
100
AcDbEntity
  8
0
370
    35
390
0
 62
     7
 48
0.0125
100
AcDbLine
 10
778.247314
 20
379.638184
 30
0.0
 11
778.747314
 21
379.638184
 31
0.0
210
0.0
220
0.0
230
1.0
  0
LINE
  5
21F
100
AcDbEntity
  8
0
370
    35
390
0
 62
     7
 48
0.025019
100
AcDbLine
 10
778.747314
 20
371.240143
 30
0.0
 11
779.747314
 21
371.279633
 31
0.0
210
0.0
220
0.0
230
1.0
  0
LINE
  5
220
100
AcDbEntity
  8
0
370
    35
390
0
 62
     7
 48
0.025019
100
AcDbLine
 10
778.747314
 20
380.128296
 30
0.0
 11
779.747314
 21
380.088837
 31
0.0
210
0.0
220
0.0
230
1.0
  0
LINE
  5
221
100
AcDbEntity
  8
0
370
    35
390
0
 62
     7
 48
0.0125
100
AcDbLine
 10
776.747314
 20
379.697388
 30
0.0
 11
777.247314
 21
379.697388
 31
0.0
210
0.0
220
0.0
230
1.0
  0
LINE
  5
222
100
AcDbEntity
  8
0
370
    35
390
0
 62
     7
 48
0.0125
100
AcDbLine
 10
776.747314
 20
371.671082
 30
0.0
 11
777.247314
 21
371.671082
 31
0.0
210
0.0
220
0.0
230
1.0
  0
LINE
  5
223
100
AcDbEntity
  8
0
370
    35
390
0
 62
     7
 48
0.025019
100
AcDbLine
 10
777.247314
 20
371.180939
 30
0.0
 11
778.247314
 21
371.220428
 31
0.0
210
0.0
220
0.0
230
1.0
  0
LINE
  5
224
100
AcDbEntity
  8
0
370
    35
390
0
 62
     7
 48
0.025019
100
AcDbLine
 10
777.247314
 20
380.187531
 30
0.0
 11
778.247314
 21
380.148041
 31
0.0
210
0.0
220
0.0
230
1.0
  0
LINE
  5
225
100
AcDbEntity
  8
0
370
    35
390
0
 62
     7
 48
0.0125
100
AcDbLine
 10
775.247314
 20
379.756592
 30
0.0
 11
775.747314
 21
379.756592
 31
0.0
210
0.0
220
0.0
230
1.0
  0
LINE
  5
226
100
AcDbEntity
  8
0
370
    35
390
0
 62
     7
 48
0.0125
100
AcDbLine
 10
775.247314
 20
371.611847
 30
0.0
 11
775.747314
 21
371.611847
 31
0.0
210
0.0
220
0.0
230
1.0
  0
LINE
  5
227
100
AcDbEntity
  8
0
370
    35
390
0
 62
     7
 48
0.025019
100
AcDbLine
 10
775.747314
 20
380.246735
 30
0.0
 11
776.747314
 21
380.207245
 31
0.0
210
0.0
220
0.0
230
1.0
  0
LINE
  5
228
100
AcDbEntity
  8
0
370
    35
390
0
 62
     7
 48
0.025019
100
AcDbLine
 10
775.747314
 20
371.121735
 30
0.0
 11
776.747314
 21
371.161194
 31
0.0
210
0.0
220
0.0
230
1.0
  0
LINE
  5
229
100
AcDbEntity
  8
0
370
    35
390
0
 62
     7
 48
0.0125
100
AcDbLine
 10
773.747314
 20
379.815796
 30
0.0
 11
774.247314
 21
379.815796
 31
0.0
210
0.0
220
0.0
230
1.0
  0
LINE
  5
22A
100
AcDbEntity
  8
0
370
    35
390
0
 62
     7
 48
0.0125
100
AcDbLine
 10
773.747314
 20
371.552643
 30
0.0
 11
774.247314
 21
371.552643
 31
0.0
210
0.0
220
0.0
230
1.0
  0
LINE
  5
22B
100
AcDbEntity
  8
0
370
    35
390
0
 62
     7
 48
0.025019
100
AcDbLine
 10
774.247314
 20
380.305939
 30
0.0
 11
775.247314
 21
380.266479
 31
0.0
210
0.0
220
0.0
230
1.0
  0
LINE
  5
22C
100
AcDbEntity
  8
0
370
    35
390
0
 62
     7
 48
0.025019
100
AcDbLine
 10
774.247314
 20
371.062531
 30
0.0
 11
775.247314
 21
371.10199
 31
0.0
210
0.0
220
0.0
230
1.0
  0
LINE
  5
22D
100
AcDbEntity
  8
0
370
    35
390
0
 62
     7
100
AcDbLine
 10
58.997284
 20
379.684235
 30
0.0
 11
262.997284
 21
379.684235
 31
0.0
210
0.0
220
0.0
230
1.0
  0
LINE
  5
22E
100
AcDbEntity
  8
0
370
    35
390
0
 62
     7
100
AcDbLine
 10
58.997284
 20
371.684235
 30
0.0
 11
262.997284
 21
371.684235
 31
0.0
210
0.0
220
0.0
230
1.0
  0
ARC
  5
22F
100
AcDbEntity
  8
0
370
    35
390
0
 62
     7
100
AcDbCircle
 10
633.272217
 20
325.212128
 30
0.0
 40
1.476042
210
0.0
220
0.0
230
1.0
100
AcDbArc
 50
280.778828
 51
79.221179
  0
ARC
  5
230
100
AcDbEntity
  8
0
370
    35
390
0
 62
     7
100
AcDbCircle
 10
633.824341
 20
322.312134
 30
0.0
 40
1.476042
210
0.0
220
0.0
230
1.0
100
AcDbArc
 50
100.77884
 51
259.221139
  0
ARC
  5
231
100
AcDbEntity
  8
0
370
    35
390
0
 62
     7
100
AcDbCircle
 10
633.272217
 20
322.312134
 30
0.0
 40
1.476042
210
0.0
220
0.0
230
1.0
100
AcDbArc
 50
280.778828
 51
79.221179
  0
ARC
  5
232
100
AcDbEntity
  8
0
370
    35
390
0
 62
     7
100
AcDbCircle
 10
795.899658
 20
290.584259
 30
0.0
 40
1.0
210
0.0
220
0.0
230
1.0
100
AcDbArc
 50
5.73902
 51
174.260966
  0
ARC
  5
233
100
AcDbEntity
  8
0
370
    35
390
0
 62
     7
100
AcDbCircle
 10
795.899658
 20
280.784271
 30
0.0
 40
1.0
210
0.0
220
0.0
230
1.0
100
AcDbArc
 50
185.739048
 51
354.260985
  0
CIRCLE
  5
234
100
AcDbEntity
  8
0
370
    35
390
0
 62
     7
100
AcDbCircle
 10
602.605591
 20
294.379242
 30
0.0
 40
2.1
210
0.0
220
0.0
230
1.0
  0
CIRCLE
  5
235
100
AcDbEntity
  8
0
370
    35
390
0
 62
     7
100
AcDbCircle
 10
712.605591
 20
276.989227
 30
0.0
 40
2.1
210
0.0
220
0.0
230
1.0
  0
ARC
  5
236
100
AcDbEntity
  8
0
370
    35
390
0
 62
     7
100
AcDbCircle
 10
600.105591
 20
291.984222
 30
0.0
 40
2.0
210
0.0
220
0.0
230
1.0
100
AcDbArc
 50
180.000009
 51
269.999997
  0
ARC
  5
237
100
AcDbEntity
  8
0
370
    35
390
0
 62
     7
100
AcDbCircle
 10
600.105591
 20
296.879242
 30
0.0
 40
2.0
210
0.0
220
0.0
230
1.0
100
AcDbArc
 50
90.000003
 51
180.000009
  0
ARC
  5
238
100
AcDbEntity
  8
0
370
    35
390
0
 62
     7
100
AcDbCircle
 10
715.105591
 20
279.384216
 30
0.0
 40
2.0
210
0.0
220
0.0
230
1.0
100
AcDbArc
 50
0.0
 51
90.000003
  0
ARC
  5
239
100
AcDbEntity
  8
0
370
    35
390
0
 62
     7
100
AcDbCircle
 10
715.105591
 20
274.489227
 30
0.0
 40
2.0
210
0.0
220
0.0
230
1.0
100
AcDbArc
 50
269.999997
 51
360.0
  0
ARC
  5
23A
100
AcDbEntity
  8
0
370
    35
390
0
 62
     7
100
AcDbCircle
 10
638.824341
 20
322.312134
 30
0.0
 40
1.476042
210
0.0
220
0.0
230
1.0
100
AcDbArc
 50
100.77882
 51
259.221167
  0
ARC
  5
23B
100
AcDbEntity
  8
0
370
    35
390
0
 62
     7
100
AcDbCircle
 10
638.272217
 20
325.212128
 30
0.0
 40
1.476042
210
0.0
220
0.0
230
1.0
100
AcDbArc
 50
280.778828
 51
79.221144
  0
ARC
  5
23C
100
AcDbEntity
  8
0
370
    35
390
0
 62
     7
100
AcDbCircle
 10
638.824341
 20
325.212128
 30
0.0
 40
1.476042
210
0.0
220
0.0
230
1.0
100
AcDbArc
 50
100.77882
 51
259.221167
  0
ARC
  5
23D
100
AcDbEntity
  8
0
370
    35
390
0
 62
     7
100
AcDbCircle
 10
730.978271
 20
287.134216
 30
0.0
 40
1.476042
210
0.0
220
0.0
230
1.0
100
AcDbArc
 50
280.778828
 51
79.221179
  0
ARC
  5
23E
100
AcDbEntity
  8
0
370
    35
390
0
 62
     7
100
AcDbCircle
 10
731.530396
 20
284.234222
 30
0.0
 40
1.476042
210
0.0
220
0.0
230
1.0
100
AcDbArc
 50
100.77884
 51
259.221139
  0
ARC
  5
23F
100
AcDbEntity
  8
0
370
    35
390
0
 62
     7
100
AcDbCircle
 10
730.978271
 20
284.234222
 30
0.0
 40
1.476042
210
0.0
220
0.0
230
1.0
100
AcDbArc
 50
280.778828
 51
79.221179
  0
ARC
  5
240
100
AcDbEntity
  8
0
370
    35
390
0
 62
     7
100
AcDbCircle
 10
736.541138
 20
284.234222
 30
0.0
 40
1.476042
210
0.0
220
0.0
230
1.0
100
AcDbArc
 50
100.77882
 51
259.221167
  0
ARC
  5
241
100
AcDbEntity
  8
0
370
    35
390
0
 62
     7
100
AcDbCircle
 10
736.541138
 20
287.134216
 30
0.0
 40
1.476042
210
0.0
220
0.0
230
1.0
100
AcDbArc
 50
100.77882
 51
259.221167
  0
ARC
  5
242
100
AcDbEntity
  8
0
370
    35
390
0
 62
     7
100
AcDbCircle
 10
735.989014
 20
287.134216
 30
0.0
 40
1.476042
210
0.0
220
0.0
230
1.0
100
AcDbArc
 50
280.778828
 51
79.221144
  0
ARC
  5
243
100
AcDbEntity
  8
0
370
    35
390
0
 62
     7
100
AcDbCircle
 10
735.989014
 20
227.134216
 30
0.0
 40
1.476042
210
0.0
220
0.0
230
1.0
100
AcDbArc
 50
280.778828
 51
79.221144
  0
ARC
  5
244
100
AcDbEntity
  8
0
370
    35
390
0
 62
     7
100
AcDbCircle
 10
736.541138
 20
227.134216
 30
0.0
 40
1.476042
210
0.0
220
0.0
230
1.0
100
AcDbArc
 50
100.77882
 51
259.221167
  0
ARC
  5
245
100
AcDbEntity
  8
0
370
    35
390
0
 62
     7
100
AcDbCircle
 10
736.541138
 20
224.234222
 30
0.0
 40
1.476042
210
0.0
220
0.0
230
1.0
100
AcDbArc
 50
100.77882
 51
259.221167
  0
ARC
  5
246
100
AcDbEntity
  8
0
370
    35
390
0
 62
     7
100
AcDbCircle
 10
730.978271
 20
224.234222
 30
0.0
 40
1.476042
210
0.0
220
0.0
230
1.0
100
AcDbArc
 50
280.778828
 51
79.221179
  0
ARC
  5
247
100
AcDbEntity
  8
0
370
    35
390
0
 62
     7
100
AcDbCircle
 10
731.530396
 20
224.234222
 30
0.0
 40
1.476042
210
0.0
220
0.0
230
1.0
100
AcDbArc
 50
100.77884
 51
259.221139
  0
CIRCLE
  5
248
100
AcDbEntity
  8
0
370
    35
390
0
 62
     7
100
AcDbCircle
 10
795.899658
 20
225.684235
 30
0.0
 40
1.0
210
0.0
220
0.0
230
1.0
  0
ARC
  5
249
100
AcDbEntity
  8
0
370
    35
390
0
 62
     7
100
AcDbCircle
 10
584.23291
 20
224.234222
 30
0.0
 40
1.476042
210
0.0
220
0.0
230
1.0
100
AcDbArc
 50
100.77882
 51
259.221167
  0
ARC
  5
24A
100
AcDbEntity
  8
0
370
    35
390
0
 62
     7
100
AcDbCircle
 10
584.23291
 20
227.134216
 30
0.0
 40
1.476042
210
0.0
220
0.0
230
1.0
100
AcDbArc
 50
100.77882
 51
259.221167
  0
ARC
  5
24B
100
AcDbEntity
  8
0
370
    35
390
0
 62
     7
100
AcDbCircle
 10
583.680786
 20
227.134216
 30
0.0
 40
1.476042
210
0.0
220
0.0
230
1.0
100
AcDbArc
 50
280.778828
 51
79.221144
  0
ARC
  5
24C
100
AcDbEntity
  8
0
370
    35
390
0
 62
     7
100
AcDbCircle
 10
730.978271
 20
227.134216
 30
0.0
 40
1.476042
210
0.0
220
0.0
230
1.0
100
AcDbArc
 50
280.778828
 51
79.221179
  0
ARC
  5
24D
100
AcDbEntity
  8
0
370
    35
390
0
 62
     7
100
AcDbCircle
 10
707.305542
 20
231.684235
 30
0.0
 40
0.8
210
0.0
220
0.0
230
1.0
100
AcDbArc
 50
0.0
 51
90.000003
  0
CIRCLE
  5
24E
100
AcDbEntity
  8
0
370
    35
390
0
 62
     7
100
AcDbCircle
 10
619.105591
 20
221.28421
 30
0.0
 40
1.95
210
0.0
220
0.0
230
1.0
  0
CIRCLE
  5
24F
100
AcDbEntity
  8
0
370
    35
390
0
 62
     7
100
AcDbCircle
 10
695.105591
 20
221.28421
 30
0.0
 40
1.95
210
0.0
220
0.0
230
1.0
  0
ARC
  5
250
100
AcDbEntity
  8
0
370
    35
390
0
 62
     7
100
AcDbCircle
 10
607.905518
 20
231.684235
 30
0.0
 40
0.8
210
0.0
220
0.0
230
1.0
100
AcDbArc
 50
90.000003
 51
180.000009
  0
ARC
  5
251
100
AcDbEntity
  8
0
370
    35
390
0
 62
     7
100
AcDbCircle
 10
607.105591
 20
218.484222
 30
0.0
 40
0.8
210
0.0
220
0.0
230
1.0
100
AcDbArc
 50
269.999997
 51
360.0
  0
ARC
  5
252
100
AcDbEntity
  8
0
370
    35
390
0
 62
     7
100
AcDbCircle
 10
609.005615
 20
218.28421
 30
0.0
 40
1.0
210
0.0
220
0.0
230
1.0
100
AcDbArc
 50
180.000009
 51
269.999997
  0
ARC
  5
253
100
AcDbEntity
  8
0
370
    35
390
0
 62
     7
100
AcDbCircle
 10
706.205566
 20
218.28421
 30
0.0
 40
1.0
210
0.0
220
0.0
230
1.0
100
AcDbArc
 50
269.999997
 51
360.0
  0
CIRCLE
  5
254
100
AcDbEntity
  8
0
370
    35
390
0
 62
     7
100
AcDbCircle
 10
619.105591
 20
221.28421
 30
0.0
 40
2.0
210
0.0
220
0.0
230
1.0
  0
ARC
  5
255
100
AcDbEntity
  8
0
370
    35
390
0
 62
     7
100
AcDbCircle
 10
619.954102
 20
221.28421
 30
0.0
 40
0.4
210
0.0
220
0.0
230
1.0
100
AcDbArc
 50
135.0
 51
224.999986
  0
ARC
  5
256
100
AcDbEntity
  8
0
370
    35
390
0
 62
     7
100
AcDbCircle
 10
619.105591
 20
222.132751
 30
0.0
 40
0.4
210
0.0
220
0.0
230
1.0
100
AcDbArc
 50
225.0
 51
314.999992
  0
ARC
  5
257
100
AcDbEntity
  8
0
370
    35
390
0
 62
     7
100
AcDbCircle
 10
618.25708
 20
221.28421
 30
0.0
 40
0.4
210
0.0
220
0.0
230
1.0
100
AcDbArc
 50
314.999992
 51
44.999998
  0
ARC
  5
258
100
AcDbEntity
  8
0
370
    35
390
0
 62
     7
100
AcDbCircle
 10
619.105591
 20
220.435699
 30
0.0
 40
0.4
210
0.0
220
0.0
230
1.0
100
AcDbArc
 50
45.000001
 51
135.0
  0
CIRCLE
  5
259
100
AcDbEntity
  8
0
370
    35
390
0
 62
     7
100
AcDbCircle
 10
695.105591
 20
221.28421
 30
0.0
 40
2.0
210
0.0
220
0.0
230
1.0
  0
ARC
  5
25A
100
AcDbEntity
  8
0
370
    35
390
0
 62
     7
100
AcDbCircle
 10
695.954102
 20
221.28421
 30
0.0
 40
0.4
210
0.0
220
0.0
230
1.0
100
AcDbArc
 50
135.0
 51
224.999986
  0
ARC
  5
25B
100
AcDbEntity
  8
0
370
    35
390
0
 62
     7
100
AcDbCircle
 10
695.105591
 20
222.132751
 30
0.0
 40
0.4
210
0.0
220
0.0
230
1.0
100
AcDbArc
 50
225.0
 51
314.999992
  0
ARC
  5
25C
100
AcDbEntity
  8
0
370
    35
390
0
 62
     7
100
AcDbCircle
 10
694.25708
 20
221.28421
 30
0.0
 40
0.4
210
0.0
220
0.0
230
1.0
100
AcDbArc
 50
314.999992
 51
44.999998
  0
ARC
  5
25D
100
AcDbEntity
  8
0
370
    35
390
0
 62
     7
100
AcDbCircle
 10
695.105591
 20
220.435699
 30
0.0
 40
0.4
210
0.0
220
0.0
230
1.0
100
AcDbArc
 50
45.000001
 51
135.0
  0
ARC
  5
25E
100
AcDbEntity
  8
0
370
    35
390
0
 62
     7
100
AcDbCircle
 10
773.899658
 20
225.684235
 30
0.0
 40
1.0
210
0.0
220
0.0
230
1.0
100
AcDbArc
 50
269.999997
 51
90.000003
  0
ARC
  5
25F
100
AcDbEntity
  8
0
370
    35
390
0
 62
     7
100
AcDbCircle
 10
550.495239
 20
304.736206
 30
0.0
 40
21.951973
210
0.0
220
0.0
230
1.0
100
AcDbArc
 50
90.000003
 51
269.999997
  0
ARC
  5
260
100
AcDbEntity
  8
0
370
    35
390
0
 62
     7
100
AcDbCircle
 10
550.469238
 20
304.710175
 30
0.0
 40
16.125931
210
0.0
220
0.0
230
1.0
100
AcDbArc
 50
89.999996
 51
269.999997
  0
CIRCLE
  5
261
100
AcDbEntity
  8
0
370
    35
390
0
 62
     7
100
AcDbCircle
 10
800.557251
 20
377.091644
 30
0.0
 40
0.05
210
0.0
220
0.0
230
1.0
  0
ARC
  5
262
100
AcDbEntity
  8
0
370
    35
390
0
 62
     7
100
AcDbCircle
 10
795.378296
 20
367.784241
 30
0.0
 40
5.0
210
0.0
220
0.0
230
1.0
100
AcDbArc
 50
0.0
 51
90.000003
  0
ARC
  5
263
100
AcDbEntity
  8
0
370
    35
390
0
 62
     7
100
AcDbCircle
 10
795.378296
 20
367.784241
 30
0.0
 40
10.8
210
0.0
220
0.0
230
1.0
100
AcDbArc
 50
0.0
 51
90.000003
  0
ARC
  5
264
100
AcDbEntity
  8
0
370
    35
390
0
 62
     7
100
AcDbCircle
 10
795.378296
 20
331.688171
 30
0.0
 40
5.0
210
0.0
220
0.0
230
1.0
100
AcDbArc
 50
269.999997
 51
360.0
  0
ARC
  5
265
100
AcDbEntity
  8
0
370
    35
390
0
 62
     7
100
AcDbCircle
 10
795.378296
 20
331.636078
 30
0.0
 40
10.8
210
0.0
220
0.0
230
1.0
100
AcDbArc
 50
269.999997
 51
360.0
  0
ENDSEC
  0
SECTION
  2
OBJECTS
  0
DICTIONARY
  5
19
100
AcDbDictionary
280
     0
281
     1
  3
ACAD_GROUP
350
1A
  3
ACAD_MLINESTYLE
350
1B
  3
ACAD_LAYOUT
350
1E
  3
ACAD_PLOTSETTINGS
350
22
  3
ACAD_PLOTSTYLENAME
350
1F
  3
ACAD_WIPEOUT_VARS
350
23
  0
DICTIONARY
  5
1A
102
{ACAD_REACTORS
330
19
102
}
100
AcDbDictionary
280
     0
281
     1
  0
DICTIONARY
  5
1B
102
{ACAD_REACTORS
330
19
102
}
100
AcDbDictionary
280
     0
281
     1
  3
Standard
350
1C
  0
MLINESTYLE
  5
1C
102
{ACAD_REACTORS
330
1B
102
}
100
AcDbMlineStyle
  2
Standard
 70
     0
  3

 62
     0
 51
90.0
 52
90.0
 71
     2
 49
0.5
 62
   256
  6
ByLayer
 49
-0.5
 62
   256
  6
ByLayer
  0
ACDBDICTIONARYWDFLT
  5
1F
102
{ACAD_REACTORS
330
19
102
}
100
AcDbDictionary
281
     1
  3
Normal
350
1D
100
AcDbDictionaryWithDefault
340
1D
  0
ACDBPLACEHOLDER
  5
1D
102
{ACAD_REACTORS
330
1F
102
}
  0
LAYOUT
  5
20
102
{ACAD_REACTORS
330
1E
102
}
100
AcDbPlotSettings
  1

  2

  4

  6

 40
0.0
 41
0.0
 42
0.0
 43
0.0
 44
0.0
 45
0.0
 46
0.0
 47
0.0
 48
0.0
 49
0.0
140
0.0
141
0.0
142
1.0
143
1.0
 70
  1024
 72
     0
 73
     0
 74
     0
  7

 75
     0
147
1.0
148
0.0
149
0.0
100
AcDbLayout
  1
Model
 70
     0
 71
     0
 10
0.0
 20
0.0
 11
0.0
 21
0.0
 12
0.0
 22
0.0
 32
0.0
 14
0.0
 24
0.0
 34
0.0
 15
0.0
 25
0.0
 35
0.0
146
0.0
 13
0.0
 23
0.0
 33
0.0
 16
0.0
 26
0.0
 36
0.0
 17
0.0
 27
0.0
 37
0.0
 76
     0
330
A
331
0
345
0
346
0
  0
LAYOUT
  5
21
102
{ACAD_REACTORS
330
1E
102
}
100
AcDbPlotSettings
  1

  2

  4

  6

 40
0.0
 41
0.0
 42
0.0
 43
0.0
 44
0.0
 45
0.0
 46
0.0
 47
0.0
 48
0.0
 49
0.0
140
0.0
141
0.0
142
1.0
143
1.0
 70
     0
 72
     0
 73
     0
 74
     0
  7

 75
     0
147
1.0
148
0.0
149
0.0
100
AcDbLayout
  1
Layout1
 70
     0
 71
     0
 10
0.0
 20
0.0
 11
0.0
 21
0.0
 12
0.0
 22
0.0
 32
0.0
 14
0.0
 24
0.0
 34
0.0
 15
0.0
 25
0.0
 35
0.0
146
0.0
 13
0.0
 23
0.0
 33
0.0
 16
0.0
 26
0.0
 36
0.0
 17
0.0
 27
0.0
 37
0.0
 76
     0
330
B
331
0
345
0
346
0
  0
DICTIONARY
  5
1E
102
{ACAD_REACTORS
330
19
102
}
100
AcDbDictionary
280
     0
281
     1
  3
Layout1
350
21
  3
Model
350
20
  0
DICTIONARY
  5
22
102
{ACAD_REACTORS
330
19
102
}
100
AcDbDictionary
280
     0
281
     1
  0
WIPEOUTVARIABLES
  5
23
100
AcDbWipeoutVariables
 70
     1
  0
ENDSEC
  0
EOF
