  0
SECTION
  2
HEADER
  9
$ACADVER
  1
AC1015
  9
$ACADMAINTVER
 70
     6
  9
$DWGCODEPAGE
  3
ANSI_1252
  9
$INSBASE
 10
0.0
 20
0.0
 30
0.0
  9
$EXTMIN
 10
0.0
 20
0.0
 30
0.0
  9
$EXTMAX
 10
338.916931
 20
201.992065
 30
2.0
  9
$LIMMIN
 10
0.0
 20
0.0
  9
$LIMMAX
 10
420.0
 20
297.0
  9
$ORTHOMODE
 70
     0
  9
$REGENMODE
 70
     1
  9
$FILLMODE
 70
     1
  9
$QTEXTMODE
 70
     0
  9
$MIRRTEXT
 70
     1
  9
$LTSCALE
 40
1.0
  9
$ATTMODE
 70
     1
  9
$TEXTSIZE
 40
2.5
  9
$TRACEWID
 40
1.0
  9
$TEXTSTYLE
  7
Standard
  9
$CLAYER
  8
0
  9
$CELTYPE
  6
ByLayer
  9
$CECOLOR
 62
   256
  9
$CELTSCALE
 40
1.0
  9
$DISPSILH
 70
     0
  9
$DIMSCALE
 40
1.0
  9
$DIMASZ
 40
2.5
  9
$DIMEXO
 40
0.625
  9
$DIMDLI
 40
3.75
  9
$DIMRND
 40
0.0
  9
$DIMDLE
 40
0.0
  9
$DIMEXE
 40
1.25
  9
$DIMTP
 40
0.0
  9
$DIMTM
 40
0.0
  9
$DIMTXT
 40
2.5
  9
$DIMCEN
 40
2.5
  9
$DIMTSZ
 40
0.0
  9
$DIMTOL
 70
     0
  9
$DIMLIM
 70
     0
  9
$DIMTIH
 70
     0
  9
$DIMTOH
 70
     0
  9
$DIMSE1
 70
     0
  9
$DIMSE2
 70
     0
  9
$DIMTAD
 70
     1
  9
$DIMZIN
 70
     8
  9
$DIMBLK
  1

  9
$DIMASO
 70
     1
  9
$DIMSHO
 70
     1
  9
$DIMPOST
  1

  9
$DIMAPOST
  1

  9
$DIMALT
 70
     0
  9
$DIMALTD
 70
     3
  9
$DIMALTF
 40
0.03937
  9
$DIMLFAC
 40
1.0
  9
$DIMTOFL
 70
     1
  9
$DIMTVP
 40
0.0
  9
$DIMTIX
 70
     0
  9
$DIMSOXD
 70
     0
  9
$DIMSAH
 70
     0
  9
$DIMBLK1
  1

  9
$DIMBLK2
  1

  9
$DIMSTYLE
  2

  9
$DIMCLRD
 70
     0
  9
$DIMCLRE
 70
     0
  9
$DIMCLRT
 70
     0
  9
$DIMTFAC
 40
1.0
  9
$DIMGAP
 40
0.625
  9
$DIMJUST
 70
     0
  9
$DIMSD1
 70
     0
  9
$DIMSD2
 70
     0
  9
$DIMTOLJ
 70
     0
  9
$DIMTZIN
 70
     8
  9
$DIMALTZ
 70
     0
  9
$DIMALTTZ
 70
     0
  9
$DIMUPT
 70
     0
  9
$DIMDEC
 70
     2
  9
$DIMTDEC
 70
     2
  9
$DIMALTU
 70
     2
  9
$DIMALTTD
 70
     3
  9
$DIMTXSTY
  7
Standard
  9
$DIMAUNIT
 70
     0
  9
$DIMADEC
 70
     0
  9
$DIMALTRND
 40
0.0
  9
$DIMAZIN
 70
     0
  9
$DIMDSEP
 70
    44
  9
$DIMATFIT
 70
     0
  9
$DIMFRAC
 70
     0
  9
$DIMLDRBLK
  1

  9
$DIMLUNIT
 70
     2
  9
$DIMLWD
 70
    -2
  9
$DIMLWE
 70
    -2
  9
$DIMTMOVE
 70
     0
  9
$LUNITS
 70
     2
  9
$LUPREC
 70
     4
  9
$SKETCHINC
 40
1.0
  9
$FILLETRAD
 40
2.5
  9
$AUNITS
 70
     0
  9
$AUPREC
 70
     0
  9
$MENU
  1
.
  9
$ELEVATION
 40
0.0
  9
$PELEVATION
 40
0.0
  9
$THICKNESS
 40
0.0
  9
$LIMCHECK
 70
     0
  9
$CHAMFERA
 40
2.5
  9
$CHAMFERB
 40
2.5
  9
$CHAMFERC
 40
0.0
  9
$CHAMFERD
 40
0.0
  9
$SKPOLY
 70
     0
  9
$TDCREATE
 40
0.000000000
  9
$TDUCREATE
 40
0.000000000
  9
$TDUPDATE
 40
0.000000000
  9
$TDUUPDATE
 40
0.000000000
  9
$TDINDWG
 40
0.0000000000
  9
$TDUSRTIMER
 40
0.0000000000
  9
$USRTIMER
 70
     1
  9
$ANGBASE
 50
0.0
  9
$ANGDIR
 70
     0
  9
$PDMODE
 70
     0
  9
$PDSIZE
 40
0.0
  9
$PLINEWID
 40
0.0
  9
$SPLFRAME
 70
     0
  9
$SPLINETYPE
 70
     6
  9
$SPLINESEGS
 70
     8
  9
$HANDSEED
  5
287
  9
$SURFTAB1
 70
     6
  9
$SURFTAB2
 70
     6
  9
$SURFTYPE
 70
     6
  9
$SURFU
 70
     6
  9
$SURFV
 70
     6
  9
$UCSBASE
  2

  9
$UCSNAME
  2

  9
$UCSORG
 10
0.0
 20
0.0
 30
0.0
  9
$UCSXDIR
 10
1.0
 20
0.0
 30
0.0
  9
$UCSYDIR
 10
0.0
 20
1.0
 30
0.0
  9
$UCSORTHOREF
  2

  9
$UCSORTHOVIEW
 70
     1
  9
$UCSORGTOP
 10
0.0
 20
0.0
 30
0.0
  9
$UCSORGBOTTOM
 10
0.0
 20
0.0
 30
0.0
  9
$UCSORGLEFT
 10
0.0
 20
0.0
 30
0.0
  9
$UCSORGRIGHT
 10
0.0
 20
0.0
 30
0.0
  9
$UCSORGFRONT
 10
0.0
 20
0.0
 30
0.0
  9
$UCSORGBACK
 10
0.0
 20
0.0
 30
0.0
  9
$PUCSBASE
  2

  9
$PUCSNAME
  2

  9
$PUCSORG
 10
0.0
 20
0.0
 30
0.0
  9
$PUCSXDIR
 10
1.0
 20
0.0
 30
0.0
  9
$PUCSYDIR
 10
0.0
 20
1.0
 30
0.0
  9
$PUCSORTHOREF
  2

  9
$PUCSORTHOVIEW
 70
     0
  9
$PUCSORGTOP
 10
0.0
 20
0.0
 30
0.0
  9
$PUCSORGBOTTOM
 10
0.0
 20
0.0
 30
0.0
  9
$PUCSORGLEFT
 10
0.0
 20
0.0
 30
0.0
  9
$PUCSORGRIGHT
 10
0.0
 20
0.0
 30
0.0
  9
$PUCSORGFRONT
 10
0.0
 20
0.0
 30
0.0
  9
$PUCSORGBACK
 10
0.0
 20
0.0
 30
0.0
  9
$USERI1
 70
     0
  9
$USERI2
 70
     0
  9
$USERI3
 70
     0
  9
$USERI4
 70
     0
  9
$USERI5
 70
     0
  9
$USERR1
 40
0.0
  9
$USERR2
 40
0.0
  9
$USERR3
 40
0.0
  9
$USERR4
 40
0.0
  9
$USERR5
 40
0.0
  9
$WORLDVIEW
 70
     1
  9
$SHADEDGE
 70
     3
  9
$SHADEDIF
 70
    70
  9
$TILEMODE
 70
     1
  9
$MAXACTVP
 70
    48
  9
$PINSBASE
 10
0.0
 20
0.0
 30
0.0
  9
$PLIMCHECK
 70
     0
  9
$PEXTMIN
 10
0.0
 20
0.0
 30
0.0
  9
$PEXTMAX
 10
338.916931
 20
201.992065
 30
2.0
  9
$PLIMMIN
 10
0.0
 20
0.0
  9
$PLIMMAX
 10
420.0
 20
297.0
  9
$UNITMODE
 70
     0
  9
$VISRETAIN
 70
     0
  9
$PLINEGEN
 70
     0
  9
$PSLTSCALE
 70
     1
  9
$TREEDEPTH
 70
  3020
  9
$CMLSTYLE
  2
Standard
  9
$CMLJUST
 70
     0
  9
$CMLSCALE
 40
20.0
  9
$PROXYGRAPHICS
 70
     1
  9
$MEASUREMENT
 70
     1
  9
$CELWEIGHT
370
    -1
  9
$ENDCAPS
280
     0
  9
$JOINSTYLE
280
     0
  9
$LWDISPLAY
290
     0
  9
$INSUNITS
 70
     0
  9
$HYPERLINKBASE
  1

  9
$STYLESHEET
  1

  9
$XEDIT
290
     1
  9
$CEPSNTYPE
380
     0
  9
$PSTYLEMODE
290
     0
  9
$FINGERPRINTGUID
  2

  9
$VERSIONGUID
  2

  9
$EXTNAMES
290
     0
  9
$PSVPSCALE
 40
0.0
  0
ENDSEC
  0
SECTION
  2
CLASSES
  0
CLASS
  1
LWPOLYLINE
  2
AcDbPolyline
  3
AutoCAD 2000
 90
        0
280
     0
281
     1
  0
CLASS
  1
IMAGE
  2
AcDbRasterImage
  3
ISM
 90
      127
280
     0
281
     1
  0
CLASS
  1
OLE2FRAME
  2
AcDbOle2Frame
  3
AutoCAD 2000
 90
        0
280
     0
281
     1
  0
CLASS
  1
HATCH
  2
AcDbHatch
  3
AutoCAD 2000
 90
        0
280
     0
281
     1
  0
CLASS
  1
DICTIONARYVAR
  2
AcDbDictionaryVar
  3
AutoCAD 2000
 90
        0
280
     0
281
     0
  0
CLASS
  1
RASTERVARIABLES
  2
AcDbRasterVariables
  3
ISM
 90
        0
280
     0
281
     0
  0
CLASS
  1
IMAGEDEF
  2
AcDbRasterImageDef
  3
ISM
 90
        0
280
     0
281
     0
  0
CLASS
  1
IMAGEDEF_REACTOR
  2
AcDbRasterImageDefReactor
  3
ISM
 90
        1
280
     0
281
     0
  0
CLASS
  1
IDBUFFER
  2
AcDbIdBuffer
  3
AutoCAD 2000
 90
        0
280
     0
281
     0
  0
CLASS
  1
SPATIAL_FILTER
  2
AcDbSpatialFilter
  3
AutoCAD 2000
 90
        0
280
     0
281
     0
  0
CLASS
  1
XRECORD
  2
AcDbXrecord
  3
AutoCAD 2000
 90
        0
280
     0
281
     0
  0
CLASS
  1
SORTENTSTABLE
  2
AcDbSortentsTable
  3
AutoCAD 2000
 90
        0
280
     0
281
     0
  0
CLASS
  1
LAYER_INDEX
  2
AcDbLayerIndex
  3
AutoCAD 2000
 90
        0
280
     0
281
     0
  0
CLASS
  1
SPATIAL_INDEX
  2
AcDbSpatialIndex
  3
AutoCAD 2000
 90
        0
280
     0
281
     0
  0
CLASS
  1
OBJECT_PTR
  2
CAseDLPNTableRecord
  3
"ASE-LPNTableRecord"
 90
        1
280
     0
281
     0
  0
CLASS
  1
LAYOUT
  2
AcDbLayout
  3
AutoCAD 2000
 90
        0
280
     0
281
     0
  0
CLASS
  1
PLOTSETTINGS
  2
AcDbPlotSettings
  3
AutoCAD 2000
 90
        0
280
     0
281
     0
  0
CLASS
  1
ACDBDICTIONARYWDFLT
  2
AcDbDictionaryWithDefault
  3
AutoCAD 2000
 90
        0
280
     0
281
     0
  0
CLASS
  1
ACDBPLACEHOLDER
  2
AcDbPlaceHolder
  3
AutoCAD 2000
 90
        0
280
     0
281
     0
  0
CLASS
  1
VBA_PROJECT
  2
AcDbVbaProject
  3
acadvba
 90
        0
280
     0
281
     0
  0
CLASS
  1
WIPEOUT
  2
AcDbWipeout
  3
WipeOut|AutoCAD Express Tool|expresstools@autodesk.com
 90
      127
280
     0
281
     1
  0
CLASS
  1
WIPEOUTVARIABLES
  2
AcDbWipeoutVariables
  3
WipeOut|AutoCAD Express Tool|expresstools@autodesk.com
 90
        0
280
     0
281
     0
  0
CLASS
  1
RTEXT
  2
RText
  3
RText|AutoCAD Express Tool|expresstools@autodesk.com
 90
        0
280
     0
281
     1
  0
CLASS
  1
ARCALIGNEDTEXT
  2
AcDbArcAlignedText
  3
ATEXT|AutoCAD Express Tool|expresstools@autodesk.com
 90
        0
280
     0
281
     1
  0
ENDSEC
  0
SECTION
  2
TABLES
  0
TABLE
  2
VPORT
  5
7
100
AcDbSymbolTable
 70
     1
  0
VPORT
  5
15
100
AcDbSymbolTableRecord
100
AcDbViewportTableRecord
  2
*ACTIVE
 70
     0
 10
0.0
 20
0.0
 11
1.0
 21
1.0
 12
6.591288
 22
4.579184
 13
0.0
 23
0.0
 14
1.0
 24
1.0
 15
0.0
 25
0.0
 16
0.0
 26
0.0
 36
1.0
 17
0.0
 27
0.0
 37
0.0
 40
9.158369
 41
0.688564
 42
50.0
 43
0.0
 44
0.0
 50
0.0
 51
0.0
 71
     0
 72
   100
 73
     1
 74
     1
 75
     0
 76
     0
 77
     0
 78
     0
281
     0
 65
     0
110
0.0
120
0.0
130
0.0
111
1.0
121
0.0
131
0.0
112
0.0
122
1.0
132
0.0
345
0
346
0
 79
     0
146
0.0
  0
ENDTAB
  0
TABLE
  2
LTYPE
  5
4
100
AcDbSymbolTable
 70
     3
  0
LTYPE
  5
11
100
AcDbSymbolTableRecord
100
AcDbLinetypeTableRecord
  2
ByBlock
 70
    64
  3

 72
    65
 73
     0
 40
0.0
  0
LTYPE
  5
12
100
AcDbSymbolTableRecord
100
AcDbLinetypeTableRecord
  2
ByLayer
 70
    64
  3

 72
    65
 73
     0
 40
0.0
  0
LTYPE
  5
13
100
AcDbSymbolTableRecord
100
AcDbLinetypeTableRecord
  2
Continuous
 70
    64
  3
Solid line
 72
    65
 73
     0
 40
0.0
  0
ENDTAB
  0
TABLE
  2
LAYER
  5
2
100
AcDbSymbolTable
 70
     1
  0
LAYER
  5
14
100
AcDbSymbolTableRecord
100
AcDbLayerTableRecord
  2
0
 70
     0
 62
     7
  6
Continuous
290
     1
370
    -3
390
1D
  0
ENDTAB
  0
TABLE
  2
STYLE
  5
3
100
AcDbSymbolTable
 70
     1
  0
STYLE
  5
17
100
AcDbSymbolTableRecord
100
AcDbTextStyleTableRecord
  2
Standard
 70
     0
 40
0.0
 41
1.0
 50
0.0
 71
     0
 42
0.0
  3
txt
  4

  0
ENDTAB
  0
TABLE
  2
VIEW
  5
5
100
AcDbSymbolTable
 70
     0
  0
ENDTAB
  0
TABLE
  2
UCS
  5
6
100
AcDbSymbolTable
 70
     0
  0
ENDTAB
  0
TABLE
  2
APPID
  5
8
100
AcDbSymbolTable
 70
     1
  0
APPID
  5
16
100
AcDbSymbolTableRecord
100
AcDbRegAppTableRecord
  2
ACAD
 70
     0
  0
ENDTAB
  0
TABLE
  2
DIMSTYLE
  5
9
100
AcDbSymbolTable
 70
     1
100
AcDbDimStyleTable
 71
     0
  0
DIMSTYLE
105
18
100
AcDbSymbolTableRecord
100
AcDbDimStyleTableRecord
  2
Standard
 70
     0
  3

  4

 40
1.0
 41
0.18
 42
0.0625
 43
0.38
 44
0.18
 45
0.0
 46
0.0
 47
0.0
 48
0.0
 71
     0
 72
     0
 73
     1
 74
     1
 75
     0
 76
     0
 77
     0
 78
     0
 79
     0
140
0.18
141
0.09
142
0.0
143
25.4
144
1.0
145
0.0
146
1.0
147
0.09
148
0.0
170
     0
171
     2
172
     0
173
     0
174
     0
175
     0
176
     0
177
     0
178
     0
179
     0
271
     4
272
     4
273
     2
274
     2
275
     0
276
     0
277
     2
278
    46
279
     0
280
     0
281
     0
282
     0
283
     1
284
     0
285
     0
286
     0
288
     0
289
     3
340
17
341
0
342
0
343
0
344
0
371
    -2
372
    -2
  0
ENDTAB
  0
TABLE
  2
BLOCK_RECORD
  5
1
100
AcDbSymbolTable
 70
     0
  0
BLOCK_RECORD
  5
A
100
AcDbSymbolTableRecord
100
AcDbBlockTableRecord
  2
*MODEL_SPACE
340
20
  0
BLOCK_RECORD
  5
B
100
AcDbSymbolTableRecord
100
AcDbBlockTableRecord
  2
*PAPER_SPACE
340
21
  0
ENDTAB
  0
ENDSEC
  0
SECTION
  2
BLOCKS
  0
BLOCK
  5
D
100
AcDbEntity
  8
0
390
0
100
AcDbBlockBegin
  2
*MODEL_SPACE
 70
     0
 10
0.0
 20
0.0
 30
0.0
  3
*MODEL_SPACE
  1

  0
ENDBLK
  5
E
100
AcDbEntity
  8
0
390
0
100
AcDbBlockEnd
  0
BLOCK
  5
F
100
AcDbEntity
 67
     1
  8
0
390
0
100
AcDbBlockBegin
  2
*PAPER_SPACE
 70
     0
 10
0.0
 20
0.0
 30
0.0
  3
*PAPER_SPACE
  1

  0
ENDBLK
  5
10
100
AcDbEntity
 67
     1
  8
0
390
0
100
AcDbBlockEnd
  0
ENDSEC
  0
SECTION
  2
ENTITIES
  0
VIEWPORT
  5
286
100
AcDbEntity
 67
     1
  8
0
370
     0
390
0
 62
     0
 48
0.0
100
AcDbViewport
 10
0.0
 20
0.0
 30
0.0
 40
1000.0
 41
1000.0
 68
     1
 69
     1
 12
0.0
 22
0.0
 13
0.0
 23
0.0
 14
1.0
 24
1.0
 15
1.0
 25
1.0
 16
0.0
 26
0.0
 36
1.0
 17
0.0
 27
0.0
 37
0.0
 42
50.0
 43
0.0
 44
0.0
 45
1000.0
 50
0.0
 51
0.0
 72
   100
 90
        0
340
0
  1

281
     0
 71
     0
 74
     1
110
0.0
120
0.0
130
0.0
111
1.0
121
0.0
131
0.0
112
0.0
122
1.0
132
0.0
345
0
346
0
 79
     0
146
0.0
  0
LINE
  5
24
100
AcDbEntity
  8
0
370
    35
390
0
 62
     7
 48
0.301219
100
AcDbLine
 10
106.414536
 20
185.092041
 30
0.0
 11
118.463303
 21
185.092041
 31
0.0
210
0.0
220
0.0
230
1.0
  0
LINE
  5
25
100
AcDbEntity
  8
0
370
    35
390
0
 62
     7
 48
0.301218
100
AcDbLine
 10
106.414536
 20
190.892029
 30
0.0
 11
118.463272
 21
190.892029
 31
0.0
210
0.0
220
0.0
230
1.0
  0
LINE
  5
26
100
AcDbEntity
  8
0
370
    35
390
0
 62
     7
 48
0.340865
100
AcDbLine
 10
275.782349
 20
185.092041
 30
0.0
 11
289.416931
 21
185.092041
 31
0.0
210
0.0
220
0.0
230
1.0
  0
LINE
  5
27
100
AcDbEntity
  8
0
370
    35
390
0
 62
     7
 48
0.2
100
AcDbLine
 10
303.416931
 20
183.992065
 30
0.0
 11
303.416931
 21
191.992065
 31
0.0
210
0.0
220
0.0
230
1.0
  0
LINE
  5
28
100
AcDbEntity
  8
0
370
    35
390
0
 62
     7
 48
0.25
100
AcDbLine
 10
338.916931
 20
182.992065
 30
0.0
 11
338.916931
 21
192.992065
 31
0.0
210
0.0
220
0.0
230
1.0
  0
LINE
  5
29
100
AcDbEntity
  8
0
370
    35
390
0
 62
     7
 48
0.295
100
AcDbLine
 10
332.716919
 20
182.092102
 30
0.0
 11
332.716919
 21
193.89209
 31
0.0
210
0.0
220
0.0
230
1.0
  0
LINE
  5
2A
100
AcDbEntity
  8
0
370
    35
390
0
 62
     7
 48
0.175
100
AcDbLine
 10
289.416931
 20
184.492065
 30
0.0
 11
289.416931
 21
191.492065
 31
0.0
210
0.0
220
0.0
230
1.0
  0
LINE
  5
2B
100
AcDbEntity
  8
0
370
    35
390
0
 62
     7
 48
0.325
100
AcDbLine
 10
308.416931
 20
181.492065
 30
0.0
 11
308.416931
 21
194.492065
 31
0.0
210
0.0
220
0.0
230
1.0
  0
LINE
  5
2C
100
AcDbEntity
  8
0
370
    35
390
0
 62
     7
 48
0.325
100
AcDbLine
 10
327.916931
 20
181.492065
 30
0.0
 11
327.916931
 21
194.492065
 31
0.0
210
0.0
220
0.0
230
1.0
  0
LINE
  5
2D
100
AcDbEntity
  8
0
370
    35
390
0
 62
     7
 48
0.4875
100
AcDbLine
 10
327.916931
 20
181.492065
 30
0.0
 11
308.416931
 21
181.492065
 31
0.0
210
0.0
220
0.0
230
1.0
  0
LINE
  5
2E
100
AcDbEntity
  8
0
370
    35
390
0
 62
     7
 48
0.4875
100
AcDbLine
 10
327.916931
 20
194.492065
 30
0.0
 11
308.416931
 21
194.492065
 31
0.0
210
0.0
220
0.0
230
1.0
  0
LINE
  5
2F
100
AcDbEntity
  8
0
370
    35
390
0
 62
     7
 48
0.12
100
AcDbLine
 10
332.716919
 20
182.092102
 30
0.0
 11
327.916931
 21
182.092102
 31
0.0
210
0.0
220
0.0
230
1.0
  0
LINE
  5
30
100
AcDbEntity
  8
0
370
    35
390
0
 62
     7
 48
0.12
100
AcDbLine
 10
332.716919
 20
193.89209
 30
0.0
 11
327.916931
 21
193.89209
 31
0.0
210
0.0
220
0.0
230
1.0
  0
LINE
  5
31
100
AcDbEntity
  8
0
370
    35
390
0
 62
     7
 48
0.155
100
AcDbLine
 10
338.916931
 20
182.992065
 30
0.0
 11
332.716919
 21
182.992065
 31
0.0
210
0.0
220
0.0
230
1.0
  0
LINE
  5
32
100
AcDbEntity
  8
0
370
    35
390
0
 62
     7
 48
0.155
100
AcDbLine
 10
338.916931
 20
192.992065
 30
0.0
 11
332.716919
 21
192.992065
 31
0.0
210
0.0
220
0.0
230
1.0
  0
LINE
  5
33
100
AcDbEntity
  8
0
370
    35
390
0
 62
     7
 48
0.350223
100
AcDbLine
 10
289.416992
 20
184.492065
 30
0.0
 11
303.416992
 21
183.992065
 31
0.0
210
0.0
220
0.0
230
1.0
  0
LINE
  5
34
100
AcDbEntity
  8
0
370
    35
390
0
 62
     7
 48
0.133721
100
AcDbLine
 10
308.416992
 20
182.092041
 30
0.0
 11
303.416992
 21
183.992065
 31
0.0
210
0.0
220
0.0
230
1.0
  0
LINE
  5
35
100
AcDbEntity
  8
0
370
    35
390
0
 62
     7
 48
0.350223
100
AcDbLine
 10
289.416931
 20
191.492065
 30
0.0
 11
303.416931
 21
191.992065
 31
0.0
210
0.0
220
0.0
230
1.0
  0
LINE
  5
36
100
AcDbEntity
  8
0
370
    35
390
0
 62
     7
 48
0.133721
100
AcDbLine
 10
308.416992
 20
193.891968
 30
0.0
 11
303.416992
 21
191.991943
 31
0.0
210
0.0
220
0.0
230
1.0
  0
LINE
  5
37
100
AcDbEntity
  8
0
370
    35
390
0
 62
     7
 48
0.1625
100
AcDbLine
 10
324.716919
 20
184.742065
 30
0.0
 11
324.716919
 21
191.242065
 31
0.0
210
0.0
220
0.0
230
1.0
  0
LINE
  5
38
100
AcDbEntity
  8
0
370
    35
390
0
 62
     7
 48
0.1625
100
AcDbLine
 10
318.216919
 20
184.742065
 30
0.0
 11
318.216919
 21
191.242065
 31
0.0
210
0.0
220
0.0
230
1.0
  0
LINE
  5
39
100
AcDbEntity
  8
0
370
    35
390
0
 62
     7
 48
0.1625
100
AcDbLine
 10
324.716919
 20
184.742065
 30
0.0
 11
318.216919
 21
184.742065
 31
0.0
210
0.0
220
0.0
230
1.0
  0
LINE
  5
3A
100
AcDbEntity
  8
0
370
    35
390
0
 62
     7
 48
0.1625
100
AcDbLine
 10
324.716919
 20
191.242065
 30
0.0
 11
318.216919
 21
191.242065
 31
0.0
210
0.0
220
0.0
230
1.0
  0
LINE
  5
3B
100
AcDbEntity
  8
0
370
    35
390
0
 62
     7
 48
0.051653
100
AcDbLine
 10
302.379944
 20
189.992065
 30
0.0
 11
302.898438
 21
187.992065
 31
0.0
210
0.0
220
0.0
230
1.0
  0
LINE
  5
3C
100
AcDbEntity
  8
0
370
    35
390
0
 62
     7
 48
0.050231
100
AcDbLine
 10
301.875671
 20
184.047119
 30
0.0
 11
302.379883
 21
185.992065
 31
0.0
210
0.0
220
0.0
230
1.0
  0
LINE
  5
3D
100
AcDbEntity
  8
0
370
    35
390
0
 62
     7
 48
0.051653
100
AcDbLine
 10
302.379944
 20
185.992065
 30
0.0
 11
301.861389
 21
187.992065
 31
0.0
210
0.0
220
0.0
230
1.0
  0
LINE
  5
3E
100
AcDbEntity
  8
0
370
    35
390
0
 62
     7
 48
0.051653
100
AcDbLine
 10
301.861389
 20
187.992065
 30
0.0
 11
301.342896
 21
185.992065
 31
0.0
210
0.0
220
0.0
230
1.0
  0
LINE
  5
3F
100
AcDbEntity
  8
0
370
    35
390
0
 62
     7
 48
0.050204
100
AcDbLine
 10
301.342834
 20
185.992065
 30
0.0
 11
301.846802
 21
184.048157
 31
0.0
210
0.0
220
0.0
230
1.0
  0
LINE
  5
40
100
AcDbEntity
  8
0
370
    35
390
0
 62
     7
 48
0.051653
100
AcDbLine
 10
300.824463
 20
187.992065
 30
0.0
 11
301.342957
 21
189.992065
 31
0.0
210
0.0
220
0.0
230
1.0
  0
LINE
  5
41
100
AcDbEntity
  8
0
370
    35
390
0
 62
     7
 48
0.049284
100
AcDbLine
 10
301.342896
 20
189.992065
 30
0.0
 11
300.848145
 21
191.90033
 31
0.0
210
0.0
220
0.0
230
1.0
  0
LINE
  5
42
100
AcDbEntity
  8
0
370
    35
390
0
 62
     7
 48
0.04924
100
AcDbLine
 10
300.800171
 20
191.898621
 30
0.0
 11
300.305847
 21
189.992065
 31
0.0
210
0.0
220
0.0
230
1.0
  0
LINE
  5
43
100
AcDbEntity
  8
0
370
    35
390
0
 62
     7
 48
0.051653
100
AcDbLine
 10
300.305847
 20
189.992065
 30
0.0
 11
300.824341
 21
187.992065
 31
0.0
210
0.0
220
0.0
230
1.0
  0
LINE
  5
44
100
AcDbEntity
  8
0
370
    35
390
0
 62
     7
 48
0.048336
100
AcDbLine
 10
299.820679
 20
184.120483
 30
0.0
 11
300.305908
 21
185.992065
 31
0.0
210
0.0
220
0.0
230
1.0
  0
LINE
  5
45
100
AcDbEntity
  8
0
370
    35
390
0
 62
     7
 48
0.051653
100
AcDbLine
 10
300.305847
 20
185.992065
 30
0.0
 11
299.787354
 21
187.992065
 31
0.0
210
0.0
220
0.0
230
1.0
  0
LINE
  5
46
100
AcDbEntity
  8
0
370
    35
390
0
 62
     7
 48
0.051653
100
AcDbLine
 10
299.787354
 20
187.992065
 30
0.0
 11
299.268799
 21
185.992065
 31
0.0
210
0.0
220
0.0
230
1.0
  0
LINE
  5
47
100
AcDbEntity
  8
0
370
    35
390
0
 62
     7
 48
0.048274
100
AcDbLine
 10
299.268799
 20
185.992065
 30
0.0
 11
299.753418
 21
184.122925
 31
0.0
210
0.0
220
0.0
230
1.0
  0
LINE
  5
48
100
AcDbEntity
  8
0
370
    35
390
0
 62
     7
 48
0.051653
100
AcDbLine
 10
298.750305
 20
187.992065
 30
0.0
 11
299.268799
 21
189.992065
 31
0.0
210
0.0
220
0.0
230
1.0
  0
LINE
  5
49
100
AcDbEntity
  8
0
370
    35
390
0
 62
     7
 48
0.051171
100
AcDbLine
 10
302.893616
 20
191.973389
 30
0.0
 11
302.379944
 21
189.992065
 31
0.0
210
0.0
220
0.0
230
1.0
  0
LINE
  5
4A
100
AcDbEntity
  8
0
370
    35
390
0
 62
     7
 48
0.051653
100
AcDbLine
 10
302.898438
 20
187.992065
 30
0.0
 11
303.416931
 21
189.992065
 31
0.0
210
0.0
220
0.0
230
1.0
  0
LINE
  5
4B
100
AcDbEntity
  8
0
370
    35
390
0
 62
     7
 48
0.05118
100
AcDbLine
 10
303.417053
 20
189.992065
 30
0.0
 11
302.903259
 21
191.973755
 31
0.0
210
0.0
220
0.0
230
1.0
  0
LINE
  5
4C
100
AcDbEntity
  8
0
370
    35
390
0
 62
     7
 48
0.047387
100
AcDbLine
 10
299.268799
 20
189.992065
 30
0.0
 11
298.793152
 21
191.826904
 31
0.0
210
0.0
220
0.0
230
1.0
  0
LINE
  5
4D
100
AcDbEntity
  8
0
370
    35
390
0
 62
     7
 48
0.047309
100
AcDbLine
 10
298.706726
 20
191.823853
 30
0.0
 11
298.231812
 21
189.992065
 31
0.0
210
0.0
220
0.0
230
1.0
  0
LINE
  5
4E
100
AcDbEntity
  8
0
370
    35
390
0
 62
     7
 48
0.051653
100
AcDbLine
 10
298.231812
 20
189.992065
 30
0.0
 11
298.750366
 21
187.992065
 31
0.0
210
0.0
220
0.0
230
1.0
  0
LINE
  5
4F
100
AcDbEntity
  8
0
370
    35
390
0
 62
     7
 48
0.04644
100
AcDbLine
 10
297.765625
 20
184.193909
 30
0.0
 11
298.231812
 21
185.992065
 31
0.0
210
0.0
220
0.0
230
1.0
  0
LINE
  5
50
100
AcDbEntity
  8
0
370
    35
390
0
 62
     7
 48
0.051653
100
AcDbLine
 10
298.231812
 20
185.992065
 30
0.0
 11
297.713318
 21
187.992065
 31
0.0
210
0.0
220
0.0
230
1.0
  0
LINE
  5
51
100
AcDbEntity
  8
0
370
    35
390
0
 62
     7
 48
0.051653
100
AcDbLine
 10
297.713257
 20
187.992065
 30
0.0
 11
297.194763
 21
185.992065
 31
0.0
210
0.0
220
0.0
230
1.0
  0
LINE
  5
52
100
AcDbEntity
  8
0
370
    35
390
0
 62
     7
 48
0.046342
100
AcDbLine
 10
297.194702
 20
185.992065
 30
0.0
 11
297.659912
 21
184.197693
 31
0.0
210
0.0
220
0.0
230
1.0
  0
LINE
  5
53
100
AcDbEntity
  8
0
370
    35
390
0
 62
     7
 48
0.051653
100
AcDbLine
 10
296.67627
 20
187.992065
 30
0.0
 11
297.194763
 21
189.992065
 31
0.0
210
0.0
220
0.0
230
1.0
  0
LINE
  5
54
100
AcDbEntity
  8
0
370
    35
390
0
 62
     7
 48
0.045493
100
AcDbLine
 10
297.194763
 20
189.992065
 30
0.0
 11
296.738098
 21
191.75354
 31
0.0
210
0.0
220
0.0
230
1.0
  0
LINE
  5
55
100
AcDbEntity
  8
0
370
    35
390
0
 62
     7
 48
0.045378
100
AcDbLine
 10
296.613159
 20
191.749084
 30
0.0
 11
296.157654
 21
189.992065
 31
0.0
210
0.0
220
0.0
230
1.0
  0
LINE
  5
56
100
AcDbEntity
  8
0
370
    35
390
0
 62
     7
 48
0.051653
100
AcDbLine
 10
296.157715
 20
189.992065
 30
0.0
 11
296.676208
 21
187.992065
 31
0.0
210
0.0
220
0.0
230
1.0
  0
LINE
  5
57
100
AcDbEntity
  8
0
370
    35
390
0
 62
     7
 48
0.044546
100
AcDbLine
 10
295.710571
 20
184.267273
 30
0.0
 11
296.157776
 21
185.992065
 31
0.0
210
0.0
220
0.0
230
1.0
  0
LINE
  5
58
100
AcDbEntity
  8
0
370
    35
390
0
 62
     7
 48
0.301218
100
AcDbLine
 10
258.722839
 20
190.892029
 30
0.0
 11
270.771545
 21
190.892029
 31
0.0
210
0.0
220
0.0
230
1.0
  0
LINE
  5
59
100
AcDbEntity
  8
0
370
    35
390
0
 62
     7
 48
0.195
100
AcDbLine
 10
258.722839
 20
191.892029
 30
0.0
 11
258.722839
 21
184.092041
 31
0.0
210
0.0
220
0.0
230
1.0
  0
LINE
  5
5A
100
AcDbEntity
  8
0
370
    35
390
0
 62
     7
 48
0.012506
100
AcDbLine
 10
248.772812
 20
184.278931
 30
0.0
 11
249.272812
 21
184.294678
 31
0.0
210
0.0
220
0.0
230
1.0
  0
LINE
  5
5B
100
AcDbEntity
  8
0
370
    35
390
0
 62
     7
 48
0.012506
100
AcDbLine
 10
248.772812
 20
191.7052
 30
0.0
 11
249.272812
 21
191.689453
 31
0.0
210
0.0
220
0.0
230
1.0
  0
LINE
  5
5C
100
AcDbEntity
  8
0
370
    35
390
0
 62
     7
 48
0.208307
100
AcDbLine
 10
250.272812
 20
192.158203
 30
0.0
 11
250.272812
 21
183.825928
 31
0.0
210
0.0
220
0.0
230
1.0
  0
LINE
  5
5D
100
AcDbEntity
  8
0
370
    35
390
0
 62
     7
 48
0.209882
100
AcDbLine
 10
249.272812
 20
192.189697
 30
0.0
 11
249.272812
 21
183.794434
 31
0.0
210
0.0
220
0.0
230
1.0
  0
LINE
  5
5E
100
AcDbEntity
  8
0
370
    35
390
0
 62
     7
 48
0.028764
100
AcDbLine
 10
247.622818
 20
183.742432
 30
0.0
 11
248.772812
 21
183.778687
 31
0.0
210
0.0
220
0.0
230
1.0
  0
LINE
  5
5F
100
AcDbEntity
  8
0
370
    35
390
0
 62
     7
 48
0.210669
100
AcDbLine
 10
248.772812
 20
192.205444
 30
0.0
 11
248.772812
 21
183.778687
 31
0.0
210
0.0
220
0.0
230
1.0
  0
LINE
  5
60
100
AcDbEntity
  8
0
370
    35
390
0
 62
     7
 48
0.028764
100
AcDbLine
 10
247.622818
 20
192.241638
 30
0.0
 11
248.772812
 21
192.205444
 31
0.0
210
0.0
220
0.0
230
1.0
  0
LINE
  5
61
100
AcDbEntity
  8
0
370
    35
390
0
 62
     7
 48
0.20752
100
AcDbLine
 10
250.772812
 20
192.142456
 30
0.0
 11
250.772812
 21
183.841675
 31
0.0
210
0.0
220
0.0
230
1.0
  0
LINE
  5
62
100
AcDbEntity
  8
0
370
    35
390
0
 62
     7
 48
0.205157
100
AcDbLine
 10
252.272812
 20
192.095215
 30
0.0
 11
252.272812
 21
183.888916
 31
0.0
210
0.0
220
0.0
230
1.0
  0
LINE
  5
63
100
AcDbEntity
  8
0
370
    35
390
0
 62
     7
 48
0.205945
100
AcDbLine
 10
251.772812
 20
192.110962
 30
0.0
 11
251.772812
 21
183.873169
 31
0.0
210
0.0
220
0.0
230
1.0
  0
LINE
  5
64
100
AcDbEntity
  8
0
370
    35
390
0
 62
     7
 48
0.301218
100
AcDbLine
 10
135.522812
 20
185.092041
 30
0.0
 11
123.474075
 21
185.092041
 31
0.0
210
0.0
220
0.0
230
1.0
  0
LINE
  5
65
100
AcDbEntity
  8
0
370
    35
390
0
 62
     7
 48
0.203583
100
AcDbLine
 10
253.272812
 20
192.063721
 30
0.0
 11
253.272812
 21
183.92041
 31
0.0
210
0.0
220
0.0
230
1.0
  0
LINE
  5
66
100
AcDbEntity
  8
0
370
    35
390
0
 62
     7
 48
0.202795
100
AcDbLine
 10
253.772812
 20
192.047974
 30
0.0
 11
253.772812
 21
183.936157
 31
0.0
210
0.0
220
0.0
230
1.0
  0
LINE
  5
67
100
AcDbEntity
  8
0
370
    35
390
0
 62
     7
 48
0.200433
100
AcDbLine
 10
255.272812
 20
192.000732
 30
0.0
 11
255.272812
 21
183.983398
 31
0.0
210
0.0
220
0.0
230
1.0
  0
LINE
  5
68
100
AcDbEntity
  8
0
370
    35
390
0
 62
     7
 48
0.201221
100
AcDbLine
 10
254.772812
 20
192.016479
 30
0.0
 11
254.772812
 21
183.967651
 31
0.0
210
0.0
220
0.0
230
1.0
  0
LINE
  5
69
100
AcDbEntity
  8
0
370
    35
390
0
 62
     7
 48
0.086293
100
AcDbLine
 10
255.272812
 20
183.983398
 30
0.0
 11
258.722839
 21
184.092041
 31
0.0
210
0.0
220
0.0
230
1.0
  0
LINE
  5
6A
100
AcDbEntity
  8
0
370
    35
390
0
 62
     7
 48
0.025012
100
AcDbLine
 10
253.772812
 20
183.936157
 30
0.0
 11
254.772812
 21
183.967651
 31
0.0
210
0.0
220
0.0
230
1.0
  0
LINE
  5
6B
100
AcDbEntity
  8
0
370
    35
390
0
 62
     7
 48
0.025012
100
AcDbLine
 10
252.272812
 20
183.888916
 30
0.0
 11
253.272812
 21
183.92041
 31
0.0
210
0.0
220
0.0
230
1.0
  0
LINE
  5
6C
100
AcDbEntity
  8
0
370
    35
390
0
 62
     7
 48
0.025012
100
AcDbLine
 10
250.772812
 20
183.841675
 30
0.0
 11
251.772812
 21
183.873169
 31
0.0
210
0.0
220
0.0
230
1.0
  0
LINE
  5
6D
100
AcDbEntity
  8
0
370
    35
390
0
 62
     7
 48
0.025012
100
AcDbLine
 10
249.272812
 20
183.794434
 30
0.0
 11
250.272812
 21
183.825928
 31
0.0
210
0.0
220
0.0
230
1.0
  0
LINE
  5
6E
100
AcDbEntity
  8
0
370
    35
390
0
 62
     7
 48
0.025012
100
AcDbLine
 10
249.272812
 20
192.189697
 30
0.0
 11
250.272812
 21
192.158203
 31
0.0
210
0.0
220
0.0
230
1.0
  0
LINE
  5
6F
100
AcDbEntity
  8
0
370
    35
390
0
 62
     7
 48
0.025012
100
AcDbLine
 10
250.772812
 20
192.142456
 30
0.0
 11
251.772812
 21
192.110962
 31
0.0
210
0.0
220
0.0
230
1.0
  0
LINE
  5
70
100
AcDbEntity
  8
0
370
    35
390
0
 62
     7
 48
0.025012
100
AcDbLine
 10
252.272812
 20
192.095215
 30
0.0
 11
253.272812
 21
192.063721
 31
0.0
210
0.0
220
0.0
230
1.0
  0
LINE
  5
71
100
AcDbEntity
  8
0
370
    35
390
0
 62
     7
 48
0.025012
100
AcDbLine
 10
253.772812
 20
192.047974
 30
0.0
 11
254.772812
 21
192.016479
 31
0.0
210
0.0
220
0.0
230
1.0
  0
LINE
  5
72
100
AcDbEntity
  8
0
370
    35
390
0
 62
     7
 48
0.086293
100
AcDbLine
 10
255.272812
 20
192.000732
 30
0.0
 11
258.722839
 21
191.892029
 31
0.0
210
0.0
220
0.0
230
1.0
  0
LINE
  5
73
100
AcDbEntity
  8
0
370
    35
390
0
 62
     7
 48
0.051653
100
AcDbLine
 10
296.157715
 20
185.992065
 30
0.0
 11
295.63916
 21
187.992065
 31
0.0
210
0.0
220
0.0
230
1.0
  0
LINE
  5
74
100
AcDbEntity
  8
0
370
    35
390
0
 62
     7
 48
0.051653
100
AcDbLine
 10
295.639221
 20
187.992065
 30
0.0
 11
295.120667
 21
185.992065
 31
0.0
210
0.0
220
0.0
230
1.0
  0
LINE
  5
75
100
AcDbEntity
  8
0
370
    35
390
0
 62
     7
 48
0.044411
100
AcDbLine
 10
295.120667
 20
185.992065
 30
0.0
 11
295.566467
 21
184.272461
 31
0.0
210
0.0
220
0.0
230
1.0
  0
LINE
  5
76
100
AcDbEntity
  8
0
370
    35
390
0
 62
     7
 48
0.051653
100
AcDbLine
 10
294.602173
 20
187.992065
 30
0.0
 11
295.120728
 21
189.992065
 31
0.0
210
0.0
220
0.0
230
1.0
  0
LINE
  5
77
100
AcDbEntity
  8
0
370
    35
390
0
 62
     7
 48
0.043597
100
AcDbLine
 10
295.120667
 20
189.992065
 30
0.0
 11
294.682983
 21
191.680115
 31
0.0
210
0.0
220
0.0
230
1.0
  0
LINE
  5
78
100
AcDbEntity
  8
0
370
    35
390
0
 62
     7
 48
0.043447
100
AcDbLine
 10
294.519775
 20
191.674316
 30
0.0
 11
294.083618
 21
189.992065
 31
0.0
210
0.0
220
0.0
230
1.0
  0
LINE
  5
79
100
AcDbEntity
  8
0
370
    35
390
0
 62
     7
 48
0.051653
100
AcDbLine
 10
294.083618
 20
189.992065
 30
0.0
 11
294.602112
 21
187.992065
 31
0.0
210
0.0
220
0.0
230
1.0
  0
LINE
  5
7A
100
AcDbEntity
  8
0
370
    35
390
0
 62
     7
 48
0.042649
100
AcDbLine
 10
293.655457
 20
184.340698
 30
0.0
 11
294.083618
 21
185.992065
 31
0.0
210
0.0
220
0.0
230
1.0
  0
LINE
  5
7B
100
AcDbEntity
  8
0
370
    35
390
0
 62
     7
 48
0.051653
100
AcDbLine
 10
294.083557
 20
185.992065
 30
0.0
 11
293.565063
 21
187.992065
 31
0.0
210
0.0
220
0.0
230
1.0
  0
LINE
  5
7C
100
AcDbEntity
  8
0
370
    35
390
0
 62
     7
 48
0.051653
100
AcDbLine
 10
293.565125
 20
187.992065
 30
0.0
 11
293.04657
 21
185.992065
 31
0.0
210
0.0
220
0.0
230
1.0
  0
LINE
  5
7D
100
AcDbEntity
  8
0
370
    35
390
0
 62
     7
 48
0.042481
100
AcDbLine
 10
293.046631
 20
185.992065
 30
0.0
 11
293.473083
 21
184.347229
 31
0.0
210
0.0
220
0.0
230
1.0
  0
LINE
  5
7E
100
AcDbEntity
  8
0
370
    35
390
0
 62
     7
 48
0.051653
100
AcDbLine
 10
292.528076
 20
187.992065
 30
0.0
 11
293.046631
 21
189.992065
 31
0.0
210
0.0
220
0.0
230
1.0
  0
LINE
  5
7F
100
AcDbEntity
  8
0
370
    35
390
0
 62
     7
 48
0.041702
100
AcDbLine
 10
293.046631
 20
189.992065
 30
0.0
 11
292.627991
 21
191.60675
 31
0.0
210
0.0
220
0.0
230
1.0
  0
LINE
  5
80
100
AcDbEntity
  8
0
370
    35
390
0
 62
     7
 48
0.041516
100
AcDbLine
 10
292.42627
 20
191.599548
 30
0.0
 11
292.009521
 21
189.992065
 31
0.0
210
0.0
220
0.0
230
1.0
  0
LINE
  5
81
100
AcDbEntity
  8
0
370
    35
390
0
 62
     7
 48
0.051653
100
AcDbLine
 10
292.009583
 20
189.992065
 30
0.0
 11
292.528076
 21
187.992065
 31
0.0
210
0.0
220
0.0
230
1.0
  0
LINE
  5
82
100
AcDbEntity
  8
0
370
    35
390
0
 62
     7
 48
0.040754
100
AcDbLine
 10
291.600464
 20
184.414063
 30
0.0
 11
292.009583
 21
185.992065
 31
0.0
210
0.0
220
0.0
230
1.0
  0
LINE
  5
83
100
AcDbEntity
  8
0
370
    35
390
0
 62
     7
 48
0.051653
100
AcDbLine
 10
292.009583
 20
185.992065
 30
0.0
 11
291.491028
 21
187.992065
 31
0.0
210
0.0
220
0.0
230
1.0
  0
LINE
  5
84
100
AcDbEntity
  8
0
370
    35
390
0
 62
     7
 48
0.051653
100
AcDbLine
 10
291.491028
 20
187.992065
 30
0.0
 11
290.972534
 21
185.992065
 31
0.0
210
0.0
220
0.0
230
1.0
  0
LINE
  5
85
100
AcDbEntity
  8
0
370
    35
390
0
 62
     7
 48
0.040549
100
AcDbLine
 10
290.972473
 20
185.992065
 30
0.0
 11
291.379517
 21
184.421997
 31
0.0
210
0.0
220
0.0
230
1.0
  0
LINE
  5
86
100
AcDbEntity
  8
0
370
    35
390
0
 62
     7
 48
0.051653
100
AcDbLine
 10
290.454041
 20
187.992065
 30
0.0
 11
290.972534
 21
189.992065
 31
0.0
210
0.0
220
0.0
230
1.0
  0
LINE
  5
87
100
AcDbEntity
  8
0
370
    35
390
0
 62
     7
 48
0.039807
100
AcDbLine
 10
290.972534
 20
189.992065
 30
0.0
 11
290.572937
 21
191.533386
 31
0.0
210
0.0
220
0.0
230
1.0
  0
LINE
  5
88
100
AcDbEntity
  8
0
370
    35
390
0
 62
     7
 48
0.039585
100
AcDbLine
 10
290.332886
 20
191.52478
 30
0.0
 11
289.935486
 21
189.992065
 31
0.0
210
0.0
220
0.0
230
1.0
  0
LINE
  5
89
100
AcDbEntity
  8
0
370
    35
390
0
 62
     7
 48
0.051653
100
AcDbLine
 10
289.935547
 20
189.992065
 30
0.0
 11
290.454041
 21
187.992065
 31
0.0
210
0.0
220
0.0
230
1.0
  0
LINE
  5
8A
100
AcDbEntity
  8
0
370
    35
390
0
 62
     7
 48
0.1625
100
AcDbLine
 10
312.716919
 20
184.742065
 30
0.0
 11
312.716919
 21
191.242065
 31
0.0
210
0.0
220
0.0
230
1.0
  0
LINE
  5
8B
100
AcDbEntity
  8
0
370
    35
390
0
 62
     7
 48
0.1625
100
AcDbLine
 10
314.216919
 20
184.742065
 30
0.0
 11
314.216919
 21
191.242065
 31
0.0
210
0.0
220
0.0
230
1.0
  0
LINE
  5
8C
100
AcDbEntity
  8
0
370
    35
390
0
 62
     7
 48
0.1625
100
AcDbLine
 10
314.716919
 20
184.742065
 30
0.0
 11
314.716919
 21
191.242065
 31
0.0
210
0.0
220
0.0
230
1.0
  0
LINE
  5
8D
100
AcDbEntity
  8
0
370
    35
390
0
 62
     7
 48
0.1625
100
AcDbLine
 10
316.216919
 20
184.742065
 30
0.0
 11
316.216919
 21
191.242065
 31
0.0
210
0.0
220
0.0
230
1.0
  0
LINE
  5
8E
100
AcDbEntity
  8
0
370
    35
390
0
 62
     7
 48
0.1625
100
AcDbLine
 10
316.716919
 20
184.742065
 30
0.0
 11
316.716919
 21
191.242065
 31
0.0
210
0.0
220
0.0
230
1.0
  0
LINE
  5
8F
100
AcDbEntity
  8
0
370
    35
390
0
 62
     7
 48
0.1625
100
AcDbLine
 10
312.216919
 20
184.742065
 30
0.0
 11
312.216919
 21
191.242065
 31
0.0
210
0.0
220
0.0
230
1.0
  0
LINE
  5
90
100
AcDbEntity
  8
0
370
    35
390
0
 62
     7
 48
0.0125
100
AcDbLine
 10
316.716919
 20
184.742065
 30
0.0
 11
316.216919
 21
184.742065
 31
0.0
210
0.0
220
0.0
230
1.0
  0
LINE
  5
91
100
AcDbEntity
  8
0
370
    35
390
0
 62
     7
 48
0.0125
100
AcDbLine
 10
316.716919
 20
191.242065
 30
0.0
 11
316.216919
 21
191.242065
 31
0.0
210
0.0
220
0.0
230
1.0
  0
LINE
  5
92
100
AcDbEntity
  8
0
370
    35
390
0
 62
     7
 48
0.0125
100
AcDbLine
 10
314.716919
 20
184.742065
 30
0.0
 11
314.216919
 21
184.742065
 31
0.0
210
0.0
220
0.0
230
1.0
  0
LINE
  5
93
100
AcDbEntity
  8
0
370
    35
390
0
 62
     7
 48
0.0125
100
AcDbLine
 10
314.716919
 20
191.242065
 30
0.0
 11
314.216919
 21
191.242065
 31
0.0
210
0.0
220
0.0
230
1.0
  0
LINE
  5
94
100
AcDbEntity
  8
0
370
    35
390
0
 62
     7
 48
0.0125
100
AcDbLine
 10
312.716919
 20
184.742065
 30
0.0
 11
312.216919
 21
184.742065
 31
0.0
210
0.0
220
0.0
230
1.0
  0
LINE
  5
95
100
AcDbEntity
  8
0
370
    35
390
0
 62
     7
 48
0.0125
100
AcDbLine
 10
312.716919
 20
191.242065
 30
0.0
 11
312.216919
 21
191.242065
 31
0.0
210
0.0
220
0.0
230
1.0
  0
LINE
  5
96
100
AcDbEntity
  8
0
370
    35
390
0
 62
     7
 48
0.084085
100
AcDbLine
 10
323.71698
 20
187.992065
 30
0.0
 11
321.21698
 21
190.242065
 31
0.0
210
0.0
220
0.0
230
1.0
  0
LINE
  5
97
100
AcDbEntity
  8
0
370
    35
390
0
 62
     7
 48
0.05
100
AcDbLine
 10
319.216919
 20
186.992065
 30
0.0
 11
319.216919
 21
188.992065
 31
0.0
210
0.0
220
0.0
230
1.0
  0
LINE
  5
98
100
AcDbEntity
  8
0
370
    35
390
0
 62
     7
 48
0.084085
100
AcDbLine
 10
321.217041
 20
185.742004
 30
0.0
 11
323.717041
 21
187.992004
 31
0.0
210
0.0
220
0.0
230
1.0
  0
LINE
  5
99
100
AcDbEntity
  8
0
370
    35
390
0
 62
     7
 48
0.03125
100
AcDbLine
 10
321.216919
 20
188.992065
 30
0.0
 11
321.216919
 21
190.242065
 31
0.0
210
0.0
220
0.0
230
1.0
  0
LINE
  5
9A
100
AcDbEntity
  8
0
370
    35
390
0
 62
     7
 48
0.05
100
AcDbLine
 10
321.216919
 20
186.992065
 30
0.0
 11
319.216919
 21
186.992065
 31
0.0
210
0.0
220
0.0
230
1.0
  0
LINE
  5
9B
100
AcDbEntity
  8
0
370
    35
390
0
 62
     7
 48
0.05
100
AcDbLine
 10
321.216919
 20
188.992065
 30
0.0
 11
319.216919
 21
188.992065
 31
0.0
210
0.0
220
0.0
230
1.0
  0
LINE
  5
9C
100
AcDbEntity
  8
0
370
    35
390
0
 62
     7
 48
0.03125
100
AcDbLine
 10
321.216919
 20
185.742065
 30
0.0
 11
321.216919
 21
186.992065
 31
0.0
210
0.0
220
0.0
230
1.0
  0
LINE
  5
9D
100
AcDbEntity
  8
0
370
    35
390
0
 62
     7
 48
0.012506
100
AcDbLine
 10
143.972824
 20
191.657959
 30
0.0
 11
143.472824
 21
191.642212
 31
0.0
210
0.0
220
0.0
230
1.0
  0
LINE
  5
9E
100
AcDbEntity
  8
0
370
    35
390
0
 62
     7
 48
0.012506
100
AcDbLine
 10
142.472824
 20
191.610718
 30
0.0
 11
141.972824
 21
191.594971
 31
0.0
210
0.0
220
0.0
230
1.0
  0
LINE
  5
9F
100
AcDbEntity
  8
0
370
    35
390
0
 62
     7
 48
0.012506
100
AcDbLine
 10
140.972824
 20
191.563477
 30
0.0
 11
140.472824
 21
191.547729
 31
0.0
210
0.0
220
0.0
230
1.0
  0
LINE
  5
A0
100
AcDbEntity
  8
0
370
    35
390
0
 62
     7
 48
0.012506
100
AcDbLine
 10
139.472824
 20
191.516235
 30
0.0
 11
138.972824
 21
191.500488
 31
0.0
210
0.0
220
0.0
230
1.0
  0
LINE
  5
A1
100
AcDbEntity
  8
0
370
    35
390
0
 62
     7
 48
0.012506
100
AcDbLine
 10
143.972824
 20
184.326172
 30
0.0
 11
143.472824
 21
184.341919
 31
0.0
210
0.0
220
0.0
230
1.0
  0
LINE
  5
A2
100
AcDbEntity
  8
0
370
    35
390
0
 62
     7
 48
0.012506
100
AcDbLine
 10
142.472824
 20
184.373413
 30
0.0
 11
141.972824
 21
184.38916
 31
0.0
210
0.0
220
0.0
230
1.0
  0
LINE
  5
A3
100
AcDbEntity
  8
0
370
    35
390
0
 62
     7
 48
0.012506
100
AcDbLine
 10
140.972824
 20
184.420654
 30
0.0
 11
140.472824
 21
184.436401
 31
0.0
210
0.0
220
0.0
230
1.0
  0
LINE
  5
A4
100
AcDbEntity
  8
0
370
    35
390
0
 62
     7
 48
0.012506
100
AcDbLine
 10
139.472824
 20
184.467896
 30
0.0
 11
138.972824
 21
184.483643
 31
0.0
210
0.0
220
0.0
230
1.0
  0
LINE
  5
A5
100
AcDbEntity
  8
0
370
    35
390
0
 62
     7
 48
0.086293
100
AcDbLine
 10
138.972824
 20
192.000732
 30
0.0
 11
135.522812
 21
191.892029
 31
0.0
210
0.0
220
0.0
230
1.0
  0
LINE
  5
A6
100
AcDbEntity
  8
0
370
    35
390
0
 62
     7
 48
0.025012
100
AcDbLine
 10
140.472824
 20
192.047974
 30
0.0
 11
139.472824
 21
192.016479
 31
0.0
210
0.0
220
0.0
230
1.0
  0
LINE
  5
A7
100
AcDbEntity
  8
0
370
    35
390
0
 62
     7
 48
0.025012
100
AcDbLine
 10
141.972824
 20
192.095215
 30
0.0
 11
140.972824
 21
192.063721
 31
0.0
210
0.0
220
0.0
230
1.0
  0
LINE
  5
A8
100
AcDbEntity
  8
0
370
    35
390
0
 62
     7
 48
0.025012
100
AcDbLine
 10
143.472824
 20
192.142456
 30
0.0
 11
142.472824
 21
192.110962
 31
0.0
210
0.0
220
0.0
230
1.0
  0
LINE
  5
A9
100
AcDbEntity
  8
0
370
    35
390
0
 62
     7
 48
0.025012
100
AcDbLine
 10
144.972824
 20
192.189697
 30
0.0
 11
143.972824
 21
192.158203
 31
0.0
210
0.0
220
0.0
230
1.0
  0
LINE
  5
AA
100
AcDbEntity
  8
0
370
    35
390
0
 62
     7
 48
0.025012
100
AcDbLine
 10
144.972824
 20
183.794434
 30
0.0
 11
143.972824
 21
183.825928
 31
0.0
210
0.0
220
0.0
230
1.0
  0
LINE
  5
AB
100
AcDbEntity
  8
0
370
    35
390
0
 62
     7
 48
0.025012
100
AcDbLine
 10
143.472824
 20
183.841675
 30
0.0
 11
142.472824
 21
183.873169
 31
0.0
210
0.0
220
0.0
230
1.0
  0
LINE
  5
AC
100
AcDbEntity
  8
0
370
    35
390
0
 62
     7
 48
0.025012
100
AcDbLine
 10
141.972824
 20
183.888916
 30
0.0
 11
140.972824
 21
183.92041
 31
0.0
210
0.0
220
0.0
230
1.0
  0
LINE
  5
AD
100
AcDbEntity
  8
0
370
    35
390
0
 62
     7
 48
0.025012
100
AcDbLine
 10
140.472824
 20
183.936157
 30
0.0
 11
139.472824
 21
183.967651
 31
0.0
210
0.0
220
0.0
230
1.0
  0
LINE
  5
AE
100
AcDbEntity
  8
0
370
    35
390
0
 62
     7
 48
0.086293
100
AcDbLine
 10
138.972824
 20
183.983398
 30
0.0
 11
135.522812
 21
184.092041
 31
0.0
210
0.0
220
0.0
230
1.0
  0
LINE
  5
AF
100
AcDbEntity
  8
0
370
    35
390
0
 62
     7
 48
0.201221
100
AcDbLine
 10
139.472824
 20
192.016479
 30
0.0
 11
139.472824
 21
183.967651
 31
0.0
210
0.0
220
0.0
230
1.0
  0
LINE
  5
B0
100
AcDbEntity
  8
0
370
    35
390
0
 62
     7
 48
0.200433
100
AcDbLine
 10
138.972824
 20
192.000732
 30
0.0
 11
138.972824
 21
183.983398
 31
0.0
210
0.0
220
0.0
230
1.0
  0
LINE
  5
B1
100
AcDbEntity
  8
0
370
    35
390
0
 62
     7
 48
0.202795
100
AcDbLine
 10
140.472824
 20
192.047974
 30
0.0
 11
140.472824
 21
183.936157
 31
0.0
210
0.0
220
0.0
230
1.0
  0
LINE
  5
B2
100
AcDbEntity
  8
0
370
    35
390
0
 62
     7
 48
0.203583
100
AcDbLine
 10
140.972824
 20
192.063721
 30
0.0
 11
140.972824
 21
183.92041
 31
0.0
210
0.0
220
0.0
230
1.0
  0
LINE
  5
B3
100
AcDbEntity
  8
0
370
    35
390
0
 62
     7
 48
0.205945
100
AcDbLine
 10
142.472824
 20
192.110962
 30
0.0
 11
142.472824
 21
183.873169
 31
0.0
210
0.0
220
0.0
230
1.0
  0
LINE
  5
B4
100
AcDbEntity
  8
0
370
    35
390
0
 62
     7
 48
0.205157
100
AcDbLine
 10
141.972824
 20
192.095215
 30
0.0
 11
141.972824
 21
183.888916
 31
0.0
210
0.0
220
0.0
230
1.0
  0
LINE
  5
B5
100
AcDbEntity
  8
0
370
    35
390
0
 62
     7
 48
0.20752
100
AcDbLine
 10
143.472824
 20
192.142456
 30
0.0
 11
143.472824
 21
183.841675
 31
0.0
210
0.0
220
0.0
230
1.0
  0
LINE
  5
B6
100
AcDbEntity
  8
0
370
    35
390
0
 62
     7
 48
0.028764
100
AcDbLine
 10
146.622818
 20
192.241638
 30
0.0
 11
145.472824
 21
192.205444
 31
0.0
210
0.0
220
0.0
230
1.0
  0
LINE
  5
B7
100
AcDbEntity
  8
0
370
    35
390
0
 62
     7
 48
0.210669
100
AcDbLine
 10
145.472824
 20
192.205444
 30
0.0
 11
145.472824
 21
183.778687
 31
0.0
210
0.0
220
0.0
230
1.0
  0
LINE
  5
B8
100
AcDbEntity
  8
0
370
    35
390
0
 62
     7
 48
0.028764
100
AcDbLine
 10
146.622818
 20
183.742432
 30
0.0
 11
145.472824
 21
183.778687
 31
0.0
210
0.0
220
0.0
230
1.0
  0
LINE
  5
B9
100
AcDbEntity
  8
0
370
    35
390
0
 62
     7
 48
0.209882
100
AcDbLine
 10
144.972824
 20
192.189697
 30
0.0
 11
144.972824
 21
183.794434
 31
0.0
210
0.0
220
0.0
230
1.0
  0
LINE
  5
BA
100
AcDbEntity
  8
0
370
    35
390
0
 62
     7
 48
0.208307
100
AcDbLine
 10
143.972824
 20
192.158203
 30
0.0
 11
143.972824
 21
183.825928
 31
0.0
210
0.0
220
0.0
230
1.0
  0
LINE
  5
BB
100
AcDbEntity
  8
0
370
    35
390
0
 62
     7
 48
0.012506
100
AcDbLine
 10
254.772812
 20
184.467896
 30
0.0
 11
255.272812
 21
184.483643
 31
0.0
210
0.0
220
0.0
230
1.0
  0
LINE
  5
BC
100
AcDbEntity
  8
0
370
    35
390
0
 62
     7
 48
0.012506
100
AcDbLine
 10
145.472824
 20
191.7052
 30
0.0
 11
144.972824
 21
191.689453
 31
0.0
210
0.0
220
0.0
230
1.0
  0
LINE
  5
BD
100
AcDbEntity
  8
0
370
    35
390
0
 62
     7
 48
0.012506
100
AcDbLine
 10
253.272812
 20
184.420654
 30
0.0
 11
253.772812
 21
184.436401
 31
0.0
210
0.0
220
0.0
230
1.0
  0
LINE
  5
BE
100
AcDbEntity
  8
0
370
    35
390
0
 62
     7
 48
0.012506
100
AcDbLine
 10
251.772812
 20
184.373413
 30
0.0
 11
252.272812
 21
184.38916
 31
0.0
210
0.0
220
0.0
230
1.0
  0
LINE
  5
BF
100
AcDbEntity
  8
0
370
    35
390
0
 62
     7
 48
0.012506
100
AcDbLine
 10
250.272812
 20
184.326172
 30
0.0
 11
250.772812
 21
184.341919
 31
0.0
210
0.0
220
0.0
230
1.0
  0
LINE
  5
C0
100
AcDbEntity
  8
0
370
    35
390
0
 62
     7
 48
0.012506
100
AcDbLine
 10
254.772812
 20
191.516235
 30
0.0
 11
255.272812
 21
191.500488
 31
0.0
210
0.0
220
0.0
230
1.0
  0
LINE
  5
C1
100
AcDbEntity
  8
0
370
    35
390
0
 62
     7
 48
0.020126
100
AcDbLine
 10
246.817795
 20
201.192017
 30
0.0
 11
247.622818
 21
201.192017
 31
0.0
210
0.0
220
0.0
230
1.0
  0
LINE
  5
C2
100
AcDbEntity
  8
0
370
    35
390
0
 62
     7
 48
0.02
100
AcDbLine
 10
246.8228
 20
201.187073
 30
0.0
 11
247.622818
 21
201.187073
 31
0.0
210
0.0
220
0.0
230
1.0
  0
LINE
  5
C3
100
AcDbEntity
  8
0
370
    35
390
0
 62
     7
 48
0.012506
100
AcDbLine
 10
253.272812
 20
191.563477
 30
0.0
 11
253.772812
 21
191.547729
 31
0.0
210
0.0
220
0.0
230
1.0
  0
LINE
  5
C4
100
AcDbEntity
  8
0
370
    35
390
0
 62
     7
 48
0.012506
100
AcDbLine
 10
251.772812
 20
191.610718
 30
0.0
 11
252.272812
 21
191.594971
 31
0.0
210
0.0
220
0.0
230
1.0
  0
LINE
  5
C5
100
AcDbEntity
  8
0
370
    35
390
0
 62
     7
 48
0.012506
100
AcDbLine
 10
145.472824
 20
184.278931
 30
0.0
 11
144.972824
 21
184.294678
 31
0.0
210
0.0
220
0.0
230
1.0
  0
LINE
  5
C6
100
AcDbEntity
  8
0
370
    35
390
0
 62
     7
 48
0.012506
100
AcDbLine
 10
250.272812
 20
191.657959
 30
0.0
 11
250.772812
 21
191.642212
 31
0.0
210
0.0
220
0.0
230
1.0
  0
LINE
  5
C7
100
AcDbEntity
  8
0
370
    35
390
0
 62
     7
100
AcDbLine
 10
147.427811
 20
201.992065
 30
0.0
 11
246.817795
 21
201.992065
 31
0.0
210
0.0
220
0.0
230
1.0
  0
LINE
  5
C8
100
AcDbEntity
  8
0
370
    35
390
0
 62
     7
 48
0.020126
100
AcDbLine
 10
246.817795
 20
201.992065
 30
0.0
 11
247.622818
 21
201.992065
 31
0.0
210
0.0
220
0.0
230
1.0
  0
LINE
  5
C9
100
AcDbEntity
  8
0
370
    35
390
0
 62
     7
 48
0.020125
100
AcDbLine
 10
146.622818
 20
201.992065
 30
0.0
 11
147.427811
 21
201.992065
 31
0.0
210
0.0
220
0.0
230
1.0
  0
LINE
  5
CA
100
AcDbEntity
  8
0
370
    35
390
0
 62
     7
 48
0.000125
100
AcDbLine
 10
246.817795
 20
201.187073
 30
0.0
 11
246.8228
 21
201.187073
 31
0.0
210
0.0
220
0.0
230
1.0
  0
LINE
  5
CB
100
AcDbEntity
  8
0
370
    35
390
0
 62
     7
 48
0.195
100
AcDbLine
 10
135.522812
 20
191.892029
 30
0.0
 11
135.522812
 21
184.092041
 31
0.0
210
0.0
220
0.0
230
1.0
  0
LINE
  5
CC
100
AcDbEntity
  8
0
370
    35
390
0
 62
     7
 48
0.020125
100
AcDbLine
 10
146.622818
 20
201.192017
 30
0.0
 11
147.427811
 21
201.192017
 31
0.0
210
0.0
220
0.0
230
1.0
  0
LINE
  5
CD
100
AcDbEntity
  8
0
370
    35
390
0
 62
     7
 48
0.020125
100
AcDbLine
 10
246.817795
 20
201.187073
 30
0.0
 11
246.817795
 21
201.992065
 31
0.0
210
0.0
220
0.0
230
1.0
  0
LINE
  5
CE
100
AcDbEntity
  8
0
370
    35
390
0
 62
     7
 48
0.020001
100
AcDbLine
 10
146.622818
 20
201.192017
 30
0.0
 11
146.622818
 21
201.992065
 31
0.0
210
0.0
220
0.0
230
1.0
  0
LINE
  5
CF
100
AcDbEntity
  8
0
370
    35
390
0
 62
     7
 48
0.020001
100
AcDbLine
 10
247.622818
 20
201.192017
 30
0.0
 11
247.622818
 21
201.992065
 31
0.0
210
0.0
220
0.0
230
1.0
  0
LINE
  5
D0
100
AcDbEntity
  8
0
370
    35
390
0
 62
     7
100
AcDbLine
 10
146.622818
 20
173.992065
 30
0.0
 11
247.622818
 21
173.992065
 31
0.0
210
0.0
220
0.0
230
1.0
  0
LINE
  5
D1
100
AcDbEntity
  8
0
370
    35
390
0
 62
     7
 48
0.175
100
AcDbLine
 10
139.622818
 20
201.187073
 30
0.0
 11
146.622818
 21
201.187073
 31
0.0
210
0.0
220
0.0
230
1.0
  0
LINE
  5
D2
100
AcDbEntity
  8
0
370
    35
390
0
 62
     7
 48
0.020126
100
AcDbLine
 10
246.817795
 20
174.792053
 30
0.0
 11
247.622818
 21
174.792053
 31
0.0
210
0.0
220
0.0
230
1.0
  0
LINE
  5
D3
100
AcDbEntity
  8
0
370
    35
390
0
 62
     7
 48
0.222375
100
AcDbLine
 10
146.622818
 20
201.187073
 30
0.0
 11
146.622818
 21
192.292053
 31
0.0
210
0.0
220
0.0
230
1.0
  0
LINE
  5
D4
100
AcDbEntity
  8
0
370
    35
390
0
 62
     7
 48
0.02
100
AcDbLine
 10
146.622818
 20
201.187073
 30
0.0
 11
147.422821
 21
201.187073
 31
0.0
210
0.0
220
0.0
230
1.0
  0
LINE
  5
D5
100
AcDbEntity
  8
0
370
    35
390
0
 62
     7
 48
0.122374
100
AcDbLine
 10
256.622803
 20
176.797058
 30
0.0
 11
256.622803
 21
181.692017
 31
0.0
210
0.0
220
0.0
230
1.0
  0
LINE
  5
D6
100
AcDbEntity
  8
0
370
    35
390
0
 62
     7
 48
0.175
100
AcDbLine
 10
146.622818
 20
192.292053
 30
0.0
 11
139.622818
 21
192.292053
 31
0.0
210
0.0
220
0.0
230
1.0
  0
LINE
  5
D7
100
AcDbEntity
  8
0
370
    35
390
0
 62
     7
 48
0.222374
100
AcDbLine
 10
247.622818
 20
183.692017
 30
0.0
 11
247.622818
 21
174.797058
 31
0.0
210
0.0
220
0.0
230
1.0
  0
LINE
  5
D8
100
AcDbEntity
  8
0
370
    35
390
0
 62
     7
 48
0.02
100
AcDbLine
 10
246.8228
 20
174.797058
 30
0.0
 11
247.622818
 21
174.797058
 31
0.0
210
0.0
220
0.0
230
1.0
  0
LINE
  5
D9
100
AcDbEntity
  8
0
370
    35
390
0
 62
     7
 48
0.175
100
AcDbLine
 10
254.622818
 20
174.797058
 30
0.0
 11
247.622818
 21
174.797058
 31
0.0
210
0.0
220
0.0
230
1.0
  0
LINE
  5
DA
100
AcDbEntity
  8
0
370
    35
390
0
 62
     7
 48
0.175
100
AcDbLine
 10
254.622818
 20
183.692017
 30
0.0
 11
247.622818
 21
183.692017
 31
0.0
210
0.0
220
0.0
230
1.0
  0
LINE
  5
DB
100
AcDbEntity
  8
0
370
    35
390
0
 62
     7
 48
0.122375
100
AcDbLine
 10
137.622818
 20
199.187073
 30
0.0
 11
137.622818
 21
194.292053
 31
0.0
210
0.0
220
0.0
230
1.0
  0
LINE
  5
DC
100
AcDbEntity
  8
0
370
    35
390
0
 62
     7
 48
0.437375
100
AcDbLine
 10
247.622818
 20
174.797058
 30
0.0
 11
247.622818
 21
192.292053
 31
0.0
210
0.0
220
0.0
230
1.0
  0
LINE
  5
DD
100
AcDbEntity
  8
0
370
    35
390
0
 62
     7
 48
0.025
100
AcDbLine
 10
146.622818
 20
183.692017
 30
0.0
 11
146.622818
 21
182.692017
 31
0.0
210
0.0
220
0.0
230
1.0
  0
LINE
  5
DE
100
AcDbEntity
  8
0
370
    35
390
0
 62
     7
 48
0.197374
100
AcDbLine
 10
146.622818
 20
182.692017
 30
0.0
 11
146.622818
 21
174.797058
 31
0.0
210
0.0
220
0.0
230
1.0
  0
LINE
  5
DF
100
AcDbEntity
  8
0
370
    35
390
0
 62
     7
 48
0.025
100
AcDbLine
 10
247.622818
 20
192.292053
 30
0.0
 11
247.622818
 21
193.292053
 31
0.0
210
0.0
220
0.0
230
1.0
  0
LINE
  5
E0
100
AcDbEntity
  8
0
370
    35
390
0
 62
     7
 48
0.197375
100
AcDbLine
 10
247.622818
 20
193.292053
 30
0.0
 11
247.622818
 21
201.187073
 31
0.0
210
0.0
220
0.0
230
1.0
  0
LINE
  5
E1
100
AcDbEntity
  8
0
370
    35
390
0
 62
     7
 48
0.000125
100
AcDbLine
 10
246.817795
 20
174.797058
 30
0.0
 11
246.8228
 21
174.797058
 31
0.0
210
0.0
220
0.0
230
1.0
  0
LINE
  5
E2
100
AcDbEntity
  8
0
370
    35
390
0
 62
     7
 48
0.340865
100
AcDbLine
 10
275.782349
 20
190.892029
 30
0.0
 11
289.416931
 21
190.892029
 31
0.0
210
0.0
220
0.0
230
1.0
  0
LINE
  5
E3
100
AcDbEntity
  8
0
370
    35
390
0
 62
     7
 48
0.301219
100
AcDbLine
 10
135.522812
 20
190.892029
 30
0.0
 11
123.47406
 21
190.892029
 31
0.0
210
0.0
220
0.0
230
1.0
  0
LINE
  5
E4
100
AcDbEntity
  8
0
370
    35
390
0
 62
     7
 48
0.301218
100
AcDbLine
 10
258.722839
 20
185.092041
 30
0.0
 11
270.771545
 21
185.092041
 31
0.0
210
0.0
220
0.0
230
1.0
  0
LINE
  5
E5
100
AcDbEntity
  8
0
370
    35
390
0
 62
     7
 48
0.020125
100
AcDbLine
 10
146.622818
 20
174.792053
 30
0.0
 11
147.427811
 21
174.792053
 31
0.0
210
0.0
220
0.0
230
1.0
  0
LINE
  5
E6
100
AcDbEntity
  8
0
370
    35
390
0
 62
     7
 48
0.02
100
AcDbLine
 10
147.422821
 20
174.797058
 30
0.0
 11
146.622818
 21
174.797058
 31
0.0
210
0.0
220
0.0
230
1.0
  0
LINE
  5
E7
100
AcDbEntity
  8
0
370
    35
390
0
 62
     7
 48
0.000125
100
AcDbLine
 10
147.422821
 20
174.797058
 30
0.0
 11
147.427811
 21
174.797058
 31
0.0
210
0.0
220
0.0
230
1.0
  0
LINE
  5
E8
100
AcDbEntity
  8
0
370
    35
390
0
 62
     7
 48
0.437376
100
AcDbLine
 10
146.622818
 20
201.187073
 30
0.0
 11
146.622818
 21
183.692017
 31
0.0
210
0.0
220
0.0
230
1.0
  0
LINE
  5
E9
100
AcDbEntity
  8
0
370
    35
390
0
 62
     7
 48
0.02
100
AcDbLine
 10
146.622818
 20
173.992065
 30
0.0
 11
146.622818
 21
174.792053
 31
0.0
210
0.0
220
0.0
230
1.0
  0
LINE
  5
EA
100
AcDbEntity
  8
0
370
    35
390
0
 62
     7
 48
0.02
100
AcDbLine
 10
247.622818
 20
173.992065
 30
0.0
 11
247.622818
 21
174.792053
 31
0.0
210
0.0
220
0.0
230
1.0
  0
LINE
  5
EB
100
AcDbEntity
  8
0
370
    35
390
0
 62
     7
 48
0.020125
100
AcDbLine
 10
246.817795
 20
173.992065
 30
0.0
 11
246.817795
 21
174.797058
 31
0.0
210
0.0
220
0.0
230
1.0
  0
LINE
  5
EC
100
AcDbEntity
  8
0
370
    35
390
0
 62
     7
 48
0.000125
100
AcDbLine
 10
147.422821
 20
201.187073
 30
0.0
 11
147.427811
 21
201.187073
 31
0.0
210
0.0
220
0.0
230
1.0
  0
LINE
  5
ED
100
AcDbEntity
  8
0
370
    35
390
0
 62
     7
 48
0.020125
100
AcDbLine
 10
147.427811
 20
201.187073
 30
0.0
 11
147.427811
 21
201.992065
 31
0.0
210
0.0
220
0.0
230
1.0
  0
LINE
  5
EE
100
AcDbEntity
  8
0
370
    35
390
0
 62
     7
 48
0.020125
100
AcDbLine
 10
147.427811
 20
173.992065
 30
0.0
 11
147.427811
 21
174.797058
 31
0.0
210
0.0
220
0.0
230
1.0
  0
LINE
  5
EF
100
AcDbEntity
  8
0
370
    35
390
0
 62
     7
 48
0.340865
100
AcDbLine
 10
275.782349
 20
125.092041
 30
0.0
 11
289.416931
 21
125.092041
 31
0.0
210
0.0
220
0.0
230
1.0
  0
LINE
  5
F0
100
AcDbEntity
  8
0
370
    35
390
0
 62
     7
 48
0.199999
100
AcDbLine
 10
303.416931
 20
123.992065
 30
0.0
 11
303.416931
 21
131.992035
 31
0.0
210
0.0
220
0.0
230
1.0
  0
LINE
  5
F1
100
AcDbEntity
  8
0
370
    35
390
0
 62
     7
 48
0.25
100
AcDbLine
 10
338.916931
 20
122.992065
 30
0.0
 11
338.916931
 21
132.992065
 31
0.0
210
0.0
220
0.0
230
1.0
  0
LINE
  5
F2
100
AcDbEntity
  8
0
370
    35
390
0
 62
     7
 48
0.295
100
AcDbLine
 10
332.716919
 20
122.092072
 30
0.0
 11
332.716919
 21
133.89209
 31
0.0
210
0.0
220
0.0
230
1.0
  0
LINE
  5
F3
100
AcDbEntity
  8
0
370
    35
390
0
 62
     7
 48
0.175
100
AcDbLine
 10
289.416931
 20
124.492065
 30
0.0
 11
289.416931
 21
131.492065
 31
0.0
210
0.0
220
0.0
230
1.0
  0
LINE
  5
F4
100
AcDbEntity
  8
0
370
    35
390
0
 62
     7
 48
0.325
100
AcDbLine
 10
308.416931
 20
121.492065
 30
0.0
 11
308.416931
 21
134.492065
 31
0.0
210
0.0
220
0.0
230
1.0
  0
LINE
  5
F5
100
AcDbEntity
  8
0
370
    35
390
0
 62
     7
 48
0.325
100
AcDbLine
 10
327.916931
 20
121.492065
 30
0.0
 11
327.916931
 21
134.492065
 31
0.0
210
0.0
220
0.0
230
1.0
  0
LINE
  5
F6
100
AcDbEntity
  8
0
370
    35
390
0
 62
     7
 48
0.4875
100
AcDbLine
 10
327.916931
 20
121.492065
 30
0.0
 11
308.416931
 21
121.492065
 31
0.0
210
0.0
220
0.0
230
1.0
  0
LINE
  5
F7
100
AcDbEntity
  8
0
370
    35
390
0
 62
     7
 48
0.4875
100
AcDbLine
 10
327.916931
 20
134.492065
 30
0.0
 11
308.416931
 21
134.492065
 31
0.0
210
0.0
220
0.0
230
1.0
  0
LINE
  5
F8
100
AcDbEntity
  8
0
370
    35
390
0
 62
     7
 48
0.12
100
AcDbLine
 10
332.716919
 20
122.092072
 30
0.0
 11
327.916931
 21
122.092072
 31
0.0
210
0.0
220
0.0
230
1.0
  0
LINE
  5
F9
100
AcDbEntity
  8
0
370
    35
390
0
 62
     7
 48
0.12
100
AcDbLine
 10
332.716919
 20
133.89209
 30
0.0
 11
327.916931
 21
133.89209
 31
0.0
210
0.0
220
0.0
230
1.0
  0
LINE
  5
FA
100
AcDbEntity
  8
0
370
    35
390
0
 62
     7
 48
0.155
100
AcDbLine
 10
338.916931
 20
122.992065
 30
0.0
 11
332.716919
 21
122.992065
 31
0.0
210
0.0
220
0.0
230
1.0
  0
LINE
  5
FB
100
AcDbEntity
  8
0
370
    35
390
0
 62
     7
 48
0.155
100
AcDbLine
 10
338.916931
 20
132.992065
 30
0.0
 11
332.716919
 21
132.992065
 31
0.0
210
0.0
220
0.0
230
1.0
  0
LINE
  5
FC
100
AcDbEntity
  8
0
370
    35
390
0
 62
     7
 48
0.350223
100
AcDbLine
 10
289.416992
 20
124.492035
 30
0.0
 11
303.416992
 21
123.992035
 31
0.0
210
0.0
220
0.0
230
1.0
  0
LINE
  5
FD
100
AcDbEntity
  8
0
370
    35
390
0
 62
     7
 48
0.133721
100
AcDbLine
 10
308.416992
 20
122.092072
 30
0.0
 11
303.416992
 21
123.992065
 31
0.0
210
0.0
220
0.0
230
1.0
  0
LINE
  5
FE
100
AcDbEntity
  8
0
370
    35
390
0
 62
     7
 48
0.350223
100
AcDbLine
 10
289.416931
 20
131.492035
 30
0.0
 11
303.416931
 21
131.992035
 31
0.0
210
0.0
220
0.0
230
1.0
  0
LINE
  5
FF
100
AcDbEntity
  8
0
370
    35
390
0
 62
     7
 48
0.133721
100
AcDbLine
 10
308.416992
 20
133.891968
 30
0.0
 11
303.416992
 21
131.991974
 31
0.0
210
0.0
220
0.0
230
1.0
  0
LINE
  5
100
100
AcDbEntity
  8
0
370
    35
390
0
 62
     7
 48
0.051654
100
AcDbLine
 10
302.379944
 20
129.992096
 30
0.0
 11
302.898438
 21
127.992065
 31
0.0
210
0.0
220
0.0
230
1.0
  0
LINE
  5
101
100
AcDbEntity
  8
0
370
    35
390
0
 62
     7
 48
0.050231
100
AcDbLine
 10
301.875671
 20
124.047119
 30
0.0
 11
302.379883
 21
125.992065
 31
0.0
210
0.0
220
0.0
230
1.0
  0
LINE
  5
102
100
AcDbEntity
  8
0
370
    35
390
0
 62
     7
 48
0.051654
100
AcDbLine
 10
302.379944
 20
125.992065
 30
0.0
 11
301.861389
 21
127.992096
 31
0.0
210
0.0
220
0.0
230
1.0
  0
LINE
  5
103
100
AcDbEntity
  8
0
370
    35
390
0
 62
     7
 48
0.051653
100
AcDbLine
 10
301.861389
 20
127.992065
 30
0.0
 11
301.342896
 21
125.992065
 31
0.0
210
0.0
220
0.0
230
1.0
  0
LINE
  5
104
100
AcDbEntity
  8
0
370
    35
390
0
 62
     7
 48
0.050204
100
AcDbLine
 10
301.342834
 20
125.992065
 30
0.0
 11
301.846802
 21
124.048157
 31
0.0
210
0.0
220
0.0
230
1.0
  0
LINE
  5
105
100
AcDbEntity
  8
0
370
    35
390
0
 62
     7
 48
0.051653
100
AcDbLine
 10
300.824463
 20
127.992065
 30
0.0
 11
301.342957
 21
129.992065
 31
0.0
210
0.0
220
0.0
230
1.0
  0
LINE
  5
106
100
AcDbEntity
  8
0
370
    35
390
0
 62
     7
 48
0.049283
100
AcDbLine
 10
301.342896
 20
129.992096
 30
0.0
 11
300.848145
 21
131.90033
 31
0.0
210
0.0
220
0.0
230
1.0
  0
LINE
  5
107
100
AcDbEntity
  8
0
370
    35
390
0
 62
     7
 48
0.04924
100
AcDbLine
 10
300.800171
 20
131.898621
 30
0.0
 11
300.305847
 21
129.992065
 31
0.0
210
0.0
220
0.0
230
1.0
  0
LINE
  5
108
100
AcDbEntity
  8
0
370
    35
390
0
 62
     7
 48
0.051653
100
AcDbLine
 10
300.305847
 20
129.992065
 30
0.0
 11
300.824341
 21
127.992065
 31
0.0
210
0.0
220
0.0
230
1.0
  0
LINE
  5
109
100
AcDbEntity
  8
0
370
    35
390
0
 62
     7
 48
0.048336
100
AcDbLine
 10
299.820679
 20
124.120514
 30
0.0
 11
300.305908
 21
125.992065
 31
0.0
210
0.0
220
0.0
230
1.0
  0
LINE
  5
10A
100
AcDbEntity
  8
0
370
    35
390
0
 62
     7
 48
0.051653
100
AcDbLine
 10
300.305847
 20
125.992065
 30
0.0
 11
299.787354
 21
127.992065
 31
0.0
210
0.0
220
0.0
230
1.0
  0
LINE
  5
10B
100
AcDbEntity
  8
0
370
    35
390
0
 62
     7
 48
0.051653
100
AcDbLine
 10
299.787354
 20
127.992065
 30
0.0
 11
299.268799
 21
125.992065
 31
0.0
210
0.0
220
0.0
230
1.0
  0
LINE
  5
10C
100
AcDbEntity
  8
0
370
    35
390
0
 62
     7
 48
0.048274
100
AcDbLine
 10
299.268799
 20
125.992065
 30
0.0
 11
299.753418
 21
124.122925
 31
0.0
210
0.0
220
0.0
230
1.0
  0
LINE
  5
10D
100
AcDbEntity
  8
0
370
    35
390
0
 62
     7
 48
0.051653
100
AcDbLine
 10
298.750305
 20
127.992065
 30
0.0
 11
299.268799
 21
129.992065
 31
0.0
210
0.0
220
0.0
230
1.0
  0
LINE
  5
10E
100
AcDbEntity
  8
0
370
    35
390
0
 62
     7
 48
0.05117
100
AcDbLine
 10
302.893616
 20
131.973358
 30
0.0
 11
302.379944
 21
129.992065
 31
0.0
210
0.0
220
0.0
230
1.0
  0
LINE
  5
10F
100
AcDbEntity
  8
0
370
    35
390
0
 62
     7
 48
0.051653
100
AcDbLine
 10
302.898438
 20
127.992065
 30
0.0
 11
303.416931
 21
129.992065
 31
0.0
210
0.0
220
0.0
230
1.0
  0
LINE
  5
110
100
AcDbEntity
  8
0
370
    35
390
0
 62
     7
 48
0.05118
100
AcDbLine
 10
303.417053
 20
129.992096
 30
0.0
 11
302.903259
 21
131.973755
 31
0.0
210
0.0
220
0.0
230
1.0
  0
LINE
  5
111
100
AcDbEntity
  8
0
370
    35
390
0
 62
     7
 48
0.047388
100
AcDbLine
 10
299.268799
 20
129.992065
 30
0.0
 11
298.793152
 21
131.826935
 31
0.0
210
0.0
220
0.0
230
1.0
  0
LINE
  5
112
100
AcDbEntity
  8
0
370
    35
390
0
 62
     7
 48
0.047309
100
AcDbLine
 10
298.706726
 20
131.823853
 30
0.0
 11
298.231812
 21
129.992065
 31
0.0
210
0.0
220
0.0
230
1.0
  0
LINE
  5
113
100
AcDbEntity
  8
0
370
    35
390
0
 62
     7
 48
0.051653
100
AcDbLine
 10
298.231812
 20
129.992065
 30
0.0
 11
298.750366
 21
127.992065
 31
0.0
210
0.0
220
0.0
230
1.0
  0
LINE
  5
114
100
AcDbEntity
  8
0
370
    35
390
0
 62
     7
 48
0.04644
100
AcDbLine
 10
297.765625
 20
124.193909
 30
0.0
 11
298.231812
 21
125.992065
 31
0.0
210
0.0
220
0.0
230
1.0
  0
LINE
  5
115
100
AcDbEntity
  8
0
370
    35
390
0
 62
     7
 48
0.051653
100
AcDbLine
 10
298.231812
 20
125.992096
 30
0.0
 11
297.713318
 21
127.992096
 31
0.0
210
0.0
220
0.0
230
1.0
  0
LINE
  5
116
100
AcDbEntity
  8
0
370
    35
390
0
 62
     7
 48
0.051653
100
AcDbLine
 10
297.713257
 20
127.992065
 30
0.0
 11
297.194763
 21
125.992065
 31
0.0
210
0.0
220
0.0
230
1.0
  0
LINE
  5
117
100
AcDbEntity
  8
0
370
    35
390
0
 62
     7
 48
0.046343
100
AcDbLine
 10
297.194702
 20
125.992065
 30
0.0
 11
297.659912
 21
124.197662
 31
0.0
210
0.0
220
0.0
230
1.0
  0
LINE
  5
118
100
AcDbEntity
  8
0
370
    35
390
0
 62
     7
 48
0.051653
100
AcDbLine
 10
296.67627
 20
127.992065
 30
0.0
 11
297.194763
 21
129.992065
 31
0.0
210
0.0
220
0.0
230
1.0
  0
LINE
  5
119
100
AcDbEntity
  8
0
370
    35
390
0
 62
     7
 48
0.045493
100
AcDbLine
 10
297.194763
 20
129.992096
 30
0.0
 11
296.738098
 21
131.753571
 31
0.0
210
0.0
220
0.0
230
1.0
  0
LINE
  5
11A
100
AcDbEntity
  8
0
370
    35
390
0
 62
     7
 48
0.045378
100
AcDbLine
 10
296.613159
 20
131.749084
 30
0.0
 11
296.157654
 21
129.992065
 31
0.0
210
0.0
220
0.0
230
1.0
  0
LINE
  5
11B
100
AcDbEntity
  8
0
370
    35
390
0
 62
     7
 48
0.051653
100
AcDbLine
 10
296.157715
 20
129.992065
 30
0.0
 11
296.676208
 21
127.992065
 31
0.0
210
0.0
220
0.0
230
1.0
  0
LINE
  5
11C
100
AcDbEntity
  8
0
370
    35
390
0
 62
     7
 48
0.044545
100
AcDbLine
 10
295.710571
 20
124.267303
 30
0.0
 11
296.157776
 21
125.992065
 31
0.0
210
0.0
220
0.0
230
1.0
  0
LINE
  5
11D
100
AcDbEntity
  8
0
370
    35
390
0
 62
     7
 48
0.301218
100
AcDbLine
 10
258.722839
 20
130.892059
 30
0.0
 11
270.771545
 21
130.892059
 31
0.0
210
0.0
220
0.0
230
1.0
  0
LINE
  5
11E
100
AcDbEntity
  8
0
370
    35
390
0
 62
     7
 48
0.195
100
AcDbLine
 10
258.722839
 20
131.892059
 30
0.0
 11
258.722839
 21
124.092041
 31
0.0
210
0.0
220
0.0
230
1.0
  0
LINE
  5
11F
100
AcDbEntity
  8
0
370
    35
390
0
 62
     7
 48
0.012506
100
AcDbLine
 10
248.772812
 20
124.2789
 30
0.0
 11
249.272812
 21
124.294647
 31
0.0
210
0.0
220
0.0
230
1.0
  0
LINE
  5
120
100
AcDbEntity
  8
0
370
    35
390
0
 62
     7
 48
0.012506
100
AcDbLine
 10
248.772812
 20
131.70517
 30
0.0
 11
249.272812
 21
131.689423
 31
0.0
210
0.0
220
0.0
230
1.0
  0
LINE
  5
121
100
AcDbEntity
  8
0
370
    35
390
0
 62
     7
 48
0.208308
100
AcDbLine
 10
250.272812
 20
132.158203
 30
0.0
 11
250.272812
 21
123.825897
 31
0.0
210
0.0
220
0.0
230
1.0
  0
LINE
  5
122
100
AcDbEntity
  8
0
370
    35
390
0
 62
     7
 48
0.209882
100
AcDbLine
 10
249.272812
 20
132.189697
 30
0.0
 11
249.272812
 21
123.794403
 31
0.0
210
0.0
220
0.0
230
1.0
  0
LINE
  5
123
100
AcDbEntity
  8
0
370
    35
390
0
 62
     7
 48
0.028764
100
AcDbLine
 10
247.622818
 20
123.742432
 30
0.0
 11
248.772812
 21
123.778656
 31
0.0
210
0.0
220
0.0
230
1.0
  0
LINE
  5
124
100
AcDbEntity
  8
0
370
    35
390
0
 62
     7
 48
0.21067
100
AcDbLine
 10
248.772812
 20
132.205444
 30
0.0
 11
248.772812
 21
123.778656
 31
0.0
210
0.0
220
0.0
230
1.0
  0
LINE
  5
125
100
AcDbEntity
  8
0
370
    35
390
0
 62
     7
 48
0.028764
100
AcDbLine
 10
247.622818
 20
132.241638
 30
0.0
 11
248.772812
 21
132.205444
 31
0.0
210
0.0
220
0.0
230
1.0
  0
LINE
  5
126
100
AcDbEntity
  8
0
370
    35
390
0
 62
     7
 48
0.20752
100
AcDbLine
 10
250.772812
 20
132.142426
 30
0.0
 11
250.772812
 21
123.841644
 31
0.0
210
0.0
220
0.0
230
1.0
  0
LINE
  5
127
100
AcDbEntity
  8
0
370
    35
390
0
 62
     7
 48
0.205157
100
AcDbLine
 10
252.272812
 20
132.095184
 30
0.0
 11
252.272812
 21
123.888885
 31
0.0
210
0.0
220
0.0
230
1.0
  0
LINE
  5
128
100
AcDbEntity
  8
0
370
    35
390
0
 62
     7
 48
0.205945
100
AcDbLine
 10
251.772812
 20
132.110931
 30
0.0
 11
251.772812
 21
123.873138
 31
0.0
210
0.0
220
0.0
230
1.0
  0
LINE
  5
129
100
AcDbEntity
  8
0
370
    35
390
0
 62
     7
 48
0.301218
100
AcDbLine
 10
135.522812
 20
125.092041
 30
0.0
 11
123.474075
 21
125.092041
 31
0.0
210
0.0
220
0.0
230
1.0
  0
LINE
  5
12A
100
AcDbEntity
  8
0
370
    35
390
0
 62
     7
 48
0.203583
100
AcDbLine
 10
253.272812
 20
132.06369
 30
0.0
 11
253.272812
 21
123.92038
 31
0.0
210
0.0
220
0.0
230
1.0
  0
LINE
  5
12B
100
AcDbEntity
  8
0
370
    35
390
0
 62
     7
 48
0.202795
100
AcDbLine
 10
253.772812
 20
132.047943
 30
0.0
 11
253.772812
 21
123.936127
 31
0.0
210
0.0
220
0.0
230
1.0
  0
LINE
  5
12C
100
AcDbEntity
  8
0
370
    35
390
0
 62
     7
 48
0.200433
100
AcDbLine
 10
255.272812
 20
132.000702
 30
0.0
 11
255.272812
 21
123.983398
 31
0.0
210
0.0
220
0.0
230
1.0
  0
LINE
  5
12D
100
AcDbEntity
  8
0
370
    35
390
0
 62
     7
 48
0.20122
100
AcDbLine
 10
254.772812
 20
132.016449
 30
0.0
 11
254.772812
 21
123.967651
 31
0.0
210
0.0
220
0.0
230
1.0
  0
LINE
  5
12E
100
AcDbEntity
  8
0
370
    35
390
0
 62
     7
 48
0.086293
100
AcDbLine
 10
255.272812
 20
123.983398
 30
0.0
 11
258.722839
 21
124.092041
 31
0.0
210
0.0
220
0.0
230
1.0
  0
LINE
  5
12F
100
AcDbEntity
  8
0
370
    35
390
0
 62
     7
 48
0.025012
100
AcDbLine
 10
253.772812
 20
123.936127
 30
0.0
 11
254.772812
 21
123.967651
 31
0.0
210
0.0
220
0.0
230
1.0
  0
LINE
  5
130
100
AcDbEntity
  8
0
370
    35
390
0
 62
     7
 48
0.025012
100
AcDbLine
 10
252.272812
 20
123.888885
 30
0.0
 11
253.272812
 21
123.92038
 31
0.0
210
0.0
220
0.0
230
1.0
  0
LINE
  5
131
100
AcDbEntity
  8
0
370
    35
390
0
 62
     7
 48
0.025012
100
AcDbLine
 10
250.772812
 20
123.841644
 30
0.0
 11
251.772812
 21
123.873138
 31
0.0
210
0.0
220
0.0
230
1.0
  0
LINE
  5
132
100
AcDbEntity
  8
0
370
    35
390
0
 62
     7
 48
0.025012
100
AcDbLine
 10
249.272812
 20
123.794403
 30
0.0
 11
250.272812
 21
123.825897
 31
0.0
210
0.0
220
0.0
230
1.0
  0
LINE
  5
133
100
AcDbEntity
  8
0
370
    35
390
0
 62
     7
 48
0.025012
100
AcDbLine
 10
249.272812
 20
132.189697
 30
0.0
 11
250.272812
 21
132.158203
 31
0.0
210
0.0
220
0.0
230
1.0
  0
LINE
  5
134
100
AcDbEntity
  8
0
370
    35
390
0
 62
     7
 48
0.025012
100
AcDbLine
 10
250.772812
 20
132.142426
 30
0.0
 11
251.772812
 21
132.110931
 31
0.0
210
0.0
220
0.0
230
1.0
  0
LINE
  5
135
100
AcDbEntity
  8
0
370
    35
390
0
 62
     7
 48
0.025012
100
AcDbLine
 10
252.272812
 20
132.095184
 30
0.0
 11
253.272812
 21
132.06369
 31
0.0
210
0.0
220
0.0
230
1.0
  0
LINE
  5
136
100
AcDbEntity
  8
0
370
    35
390
0
 62
     7
 48
0.025012
100
AcDbLine
 10
253.772812
 20
132.047943
 30
0.0
 11
254.772812
 21
132.016449
 31
0.0
210
0.0
220
0.0
230
1.0
  0
LINE
  5
137
100
AcDbEntity
  8
0
370
    35
390
0
 62
     7
 48
0.086293
100
AcDbLine
 10
255.272812
 20
132.000702
 30
0.0
 11
258.722839
 21
131.892059
 31
0.0
210
0.0
220
0.0
230
1.0
  0
LINE
  5
138
100
AcDbEntity
  8
0
370
    35
390
0
 62
     7
 48
0.051653
100
AcDbLine
 10
296.157715
 20
125.992065
 30
0.0
 11
295.63916
 21
127.992065
 31
0.0
210
0.0
220
0.0
230
1.0
  0
LINE
  5
139
100
AcDbEntity
  8
0
370
    35
390
0
 62
     7
 48
0.051653
100
AcDbLine
 10
295.639221
 20
127.992065
 30
0.0
 11
295.120667
 21
125.992065
 31
0.0
210
0.0
220
0.0
230
1.0
  0
LINE
  5
13A
100
AcDbEntity
  8
0
370
    35
390
0
 62
     7
 48
0.044411
100
AcDbLine
 10
295.120667
 20
125.992065
 30
0.0
 11
295.566467
 21
124.272461
 31
0.0
210
0.0
220
0.0
230
1.0
  0
LINE
  5
13B
100
AcDbEntity
  8
0
370
    35
390
0
 62
     7
 48
0.051653
100
AcDbLine
 10
294.602173
 20
127.992065
 30
0.0
 11
295.120728
 21
129.992065
 31
0.0
210
0.0
220
0.0
230
1.0
  0
LINE
  5
13C
100
AcDbEntity
  8
0
370
    35
390
0
 62
     7
 48
0.043597
100
AcDbLine
 10
295.120667
 20
129.992065
 30
0.0
 11
294.682983
 21
131.680145
 31
0.0
210
0.0
220
0.0
230
1.0
  0
LINE
  5
13D
100
AcDbEntity
  8
0
370
    35
390
0
 62
     7
 48
0.043447
100
AcDbLine
 10
294.519775
 20
131.674316
 30
0.0
 11
294.083618
 21
129.992065
 31
0.0
210
0.0
220
0.0
230
1.0
  0
LINE
  5
13E
100
AcDbEntity
  8
0
370
    35
390
0
 62
     7
 48
0.051652
100
AcDbLine
 10
294.083618
 20
129.992065
 30
0.0
 11
294.602112
 21
127.992096
 31
0.0
210
0.0
220
0.0
230
1.0
  0
LINE
  5
13F
100
AcDbEntity
  8
0
370
    35
390
0
 62
     7
 48
0.042649
100
AcDbLine
 10
293.655457
 20
124.340698
 30
0.0
 11
294.083618
 21
125.992065
 31
0.0
210
0.0
220
0.0
230
1.0
  0
LINE
  5
140
100
AcDbEntity
  8
0
370
    35
390
0
 62
     7
 48
0.051653
100
AcDbLine
 10
294.083557
 20
125.992065
 30
0.0
 11
293.565063
 21
127.992065
 31
0.0
210
0.0
220
0.0
230
1.0
  0
LINE
  5
141
100
AcDbEntity
  8
0
370
    35
390
0
 62
     7
 48
0.051653
100
AcDbLine
 10
293.565125
 20
127.992065
 30
0.0
 11
293.04657
 21
125.992065
 31
0.0
210
0.0
220
0.0
230
1.0
  0
LINE
  5
142
100
AcDbEntity
  8
0
370
    35
390
0
 62
     7
 48
0.042481
100
AcDbLine
 10
293.046631
 20
125.992065
 30
0.0
 11
293.473083
 21
124.347229
 31
0.0
210
0.0
220
0.0
230
1.0
  0
LINE
  5
143
100
AcDbEntity
  8
0
370
    35
390
0
 62
     7
 48
0.051653
100
AcDbLine
 10
292.528076
 20
127.992065
 30
0.0
 11
293.046631
 21
129.992065
 31
0.0
210
0.0
220
0.0
230
1.0
  0
LINE
  5
144
100
AcDbEntity
  8
0
370
    35
390
0
 62
     7
 48
0.041701
100
AcDbLine
 10
293.046631
 20
129.992096
 30
0.0
 11
292.627991
 21
131.60675
 31
0.0
210
0.0
220
0.0
230
1.0
  0
LINE
  5
145
100
AcDbEntity
  8
0
370
    35
390
0
 62
     7
 48
0.041516
100
AcDbLine
 10
292.42627
 20
131.599548
 30
0.0
 11
292.009521
 21
129.992065
 31
0.0
210
0.0
220
0.0
230
1.0
  0
LINE
  5
146
100
AcDbEntity
  8
0
370
    35
390
0
 62
     7
 48
0.051652
100
AcDbLine
 10
292.009583
 20
129.992065
 30
0.0
 11
292.528076
 21
127.992096
 31
0.0
210
0.0
220
0.0
230
1.0
  0
LINE
  5
147
100
AcDbEntity
  8
0
370
    35
390
0
 62
     7
 48
0.040754
100
AcDbLine
 10
291.600464
 20
124.414093
 30
0.0
 11
292.009583
 21
125.992065
 31
0.0
210
0.0
220
0.0
230
1.0
  0
LINE
  5
148
100
AcDbEntity
  8
0
370
    35
390
0
 62
     7
 48
0.051653
100
AcDbLine
 10
292.009583
 20
125.992096
 30
0.0
 11
291.491028
 21
127.992065
 31
0.0
210
0.0
220
0.0
230
1.0
  0
LINE
  5
149
100
AcDbEntity
  8
0
370
    35
390
0
 62
     7
 48
0.051653
100
AcDbLine
 10
291.491028
 20
127.992096
 30
0.0
 11
290.972534
 21
125.992096
 31
0.0
210
0.0
220
0.0
230
1.0
  0
LINE
  5
14A
100
AcDbEntity
  8
0
370
    35
390
0
 62
     7
 48
0.04055
100
AcDbLine
 10
290.972473
 20
125.992065
 30
0.0
 11
291.379517
 21
124.421967
 31
0.0
210
0.0
220
0.0
230
1.0
  0
LINE
  5
14B
100
AcDbEntity
  8
0
370
    35
390
0
 62
     7
 48
0.051653
100
AcDbLine
 10
290.454041
 20
127.992065
 30
0.0
 11
290.972534
 21
129.992065
 31
0.0
210
0.0
220
0.0
230
1.0
  0
LINE
  5
14C
100
AcDbEntity
  8
0
370
    35
390
0
 62
     7
 48
0.039807
100
AcDbLine
 10
290.972534
 20
129.992065
 30
0.0
 11
290.572937
 21
131.533386
 31
0.0
210
0.0
220
0.0
230
1.0
  0
LINE
  5
14D
100
AcDbEntity
  8
0
370
    35
390
0
 62
     7
 48
0.039585
100
AcDbLine
 10
290.332886
 20
131.52478
 30
0.0
 11
289.935486
 21
129.992065
 31
0.0
210
0.0
220
0.0
230
1.0
  0
LINE
  5
14E
100
AcDbEntity
  8
0
370
    35
390
0
 62
     7
 48
0.051653
100
AcDbLine
 10
289.935547
 20
129.992096
 30
0.0
 11
290.454041
 21
127.992096
 31
0.0
210
0.0
220
0.0
230
1.0
  0
LINE
  5
14F
100
AcDbEntity
  8
0
370
    35
390
0
 62
     7
 48
0.125
100
AcDbLine
 10
308.416931
 20
128.992035
 30
0.0
 11
313.416931
 21
128.992035
 31
0.0
210
0.0
220
0.0
230
1.0
  0
LINE
  5
150
100
AcDbEntity
  8
0
370
    35
390
0
 62
     7
 48
0.125
100
AcDbLine
 10
308.416931
 20
126.992035
 30
0.0
 11
313.416931
 21
126.992035
 31
0.0
210
0.0
220
0.0
230
1.0
  0
LINE
  5
151
100
AcDbEntity
  8
0
370
    35
390
0
 62
     7
 48
0.012506
100
AcDbLine
 10
143.972824
 20
131.657928
 30
0.0
 11
143.472824
 21
131.642181
 31
0.0
210
0.0
220
0.0
230
1.0
  0
LINE
  5
152
100
AcDbEntity
  8
0
370
    35
390
0
 62
     7
 48
0.012506
100
AcDbLine
 10
142.472824
 20
131.610687
 30
0.0
 11
141.972824
 21
131.59494
 31
0.0
210
0.0
220
0.0
230
1.0
  0
LINE
  5
153
100
AcDbEntity
  8
0
370
    35
390
0
 62
     7
 48
0.012506
100
AcDbLine
 10
140.972824
 20
131.563446
 30
0.0
 11
140.472824
 21
131.547699
 31
0.0
210
0.0
220
0.0
230
1.0
  0
LINE
  5
154
100
AcDbEntity
  8
0
370
    35
390
0
 62
     7
 48
0.012506
100
AcDbLine
 10
139.472824
 20
131.516205
 30
0.0
 11
138.972824
 21
131.500458
 31
0.0
210
0.0
220
0.0
230
1.0
  0
LINE
  5
155
100
AcDbEntity
  8
0
370
    35
390
0
 62
     7
 48
0.012506
100
AcDbLine
 10
143.972824
 20
124.326141
 30
0.0
 11
143.472824
 21
124.341888
 31
0.0
210
0.0
220
0.0
230
1.0
  0
LINE
  5
156
100
AcDbEntity
  8
0
370
    35
390
0
 62
     7
 48
0.012506
100
AcDbLine
 10
142.472824
 20
124.373383
 30
0.0
 11
141.972824
 21
124.38916
 31
0.0
210
0.0
220
0.0
230
1.0
  0
LINE
  5
157
100
AcDbEntity
  8
0
370
    35
390
0
 62
     7
 48
0.012506
100
AcDbLine
 10
140.972824
 20
124.420654
 30
0.0
 11
140.472824
 21
124.436401
 31
0.0
210
0.0
220
0.0
230
1.0
  0
LINE
  5
158
100
AcDbEntity
  8
0
370
    35
390
0
 62
     7
 48
0.012506
100
AcDbLine
 10
139.472824
 20
124.467896
 30
0.0
 11
138.972824
 21
124.483643
 31
0.0
210
0.0
220
0.0
230
1.0
  0
LINE
  5
159
100
AcDbEntity
  8
0
370
    35
390
0
 62
     7
 48
0.086293
100
AcDbLine
 10
138.972824
 20
132.000702
 30
0.0
 11
135.522812
 21
131.892059
 31
0.0
210
0.0
220
0.0
230
1.0
  0
LINE
  5
15A
100
AcDbEntity
  8
0
370
    35
390
0
 62
     7
 48
0.025012
100
AcDbLine
 10
140.472824
 20
132.047943
 30
0.0
 11
139.472824
 21
132.016449
 31
0.0
210
0.0
220
0.0
230
1.0
  0
LINE
  5
15B
100
AcDbEntity
  8
0
370
    35
390
0
 62
     7
 48
0.025012
100
AcDbLine
 10
141.972824
 20
132.095184
 30
0.0
 11
140.972824
 21
132.06369
 31
0.0
210
0.0
220
0.0
230
1.0
  0
LINE
  5
15C
100
AcDbEntity
  8
0
370
    35
390
0
 62
     7
 48
0.025012
100
AcDbLine
 10
143.472824
 20
132.142426
 30
0.0
 11
142.472824
 21
132.110931
 31
0.0
210
0.0
220
0.0
230
1.0
  0
LINE
  5
15D
100
AcDbEntity
  8
0
370
    35
390
0
 62
     7
 48
0.025012
100
AcDbLine
 10
144.972824
 20
132.189697
 30
0.0
 11
143.972824
 21
132.158203
 31
0.0
210
0.0
220
0.0
230
1.0
  0
LINE
  5
15E
100
AcDbEntity
  8
0
370
    35
390
0
 62
     7
 48
0.025012
100
AcDbLine
 10
144.972824
 20
123.794403
 30
0.0
 11
143.972824
 21
123.825897
 31
0.0
210
0.0
220
0.0
230
1.0
  0
LINE
  5
15F
100
AcDbEntity
  8
0
370
    35
390
0
 62
     7
 48
0.025012
100
AcDbLine
 10
143.472824
 20
123.841644
 30
0.0
 11
142.472824
 21
123.873138
 31
0.0
210
0.0
220
0.0
230
1.0
  0
LINE
  5
160
100
AcDbEntity
  8
0
370
    35
390
0
 62
     7
 48
0.025012
100
AcDbLine
 10
141.972824
 20
123.888885
 30
0.0
 11
140.972824
 21
123.92038
 31
0.0
210
0.0
220
0.0
230
1.0
  0
LINE
  5
161
100
AcDbEntity
  8
0
370
    35
390
0
 62
     7
 48
0.025012
100
AcDbLine
 10
140.472824
 20
123.936127
 30
0.0
 11
139.472824
 21
123.967651
 31
0.0
210
0.0
220
0.0
230
1.0
  0
LINE
  5
162
100
AcDbEntity
  8
0
370
    35
390
0
 62
     7
 48
0.086293
100
AcDbLine
 10
138.972824
 20
123.983398
 30
0.0
 11
135.522812
 21
124.092041
 31
0.0
210
0.0
220
0.0
230
1.0
  0
LINE
  5
163
100
AcDbEntity
  8
0
370
    35
390
0
 62
     7
 48
0.20122
100
AcDbLine
 10
139.472824
 20
132.016449
 30
0.0
 11
139.472824
 21
123.967651
 31
0.0
210
0.0
220
0.0
230
1.0
  0
LINE
  5
164
100
AcDbEntity
  8
0
370
    35
390
0
 62
     7
 48
0.200433
100
AcDbLine
 10
138.972824
 20
132.000702
 30
0.0
 11
138.972824
 21
123.983398
 31
0.0
210
0.0
220
0.0
230
1.0
  0
LINE
  5
165
100
AcDbEntity
  8
0
370
    35
390
0
 62
     7
 48
0.202795
100
AcDbLine
 10
140.472824
 20
132.047943
 30
0.0
 11
140.472824
 21
123.936127
 31
0.0
210
0.0
220
0.0
230
1.0
  0
LINE
  5
166
100
AcDbEntity
  8
0
370
    35
390
0
 62
     7
 48
0.203583
100
AcDbLine
 10
140.972824
 20
132.06369
 30
0.0
 11
140.972824
 21
123.92038
 31
0.0
210
0.0
220
0.0
230
1.0
  0
LINE
  5
167
100
AcDbEntity
  8
0
370
    35
390
0
 62
     7
 48
0.205945
100
AcDbLine
 10
142.472824
 20
132.110931
 30
0.0
 11
142.472824
 21
123.873138
 31
0.0
210
0.0
220
0.0
230
1.0
  0
LINE
  5
168
100
AcDbEntity
  8
0
370
    35
390
0
 62
     7
 48
0.205157
100
AcDbLine
 10
141.972824
 20
132.095184
 30
0.0
 11
141.972824
 21
123.888885
 31
0.0
210
0.0
220
0.0
230
1.0
  0
LINE
  5
169
100
AcDbEntity
  8
0
370
    35
390
0
 62
     7
 48
0.20752
100
AcDbLine
 10
143.472824
 20
132.142426
 30
0.0
 11
143.472824
 21
123.841644
 31
0.0
210
0.0
220
0.0
230
1.0
  0
LINE
  5
16A
100
AcDbEntity
  8
0
370
    35
390
0
 62
     7
 48
0.028764
100
AcDbLine
 10
146.622818
 20
132.241638
 30
0.0
 11
145.472824
 21
132.205444
 31
0.0
210
0.0
220
0.0
230
1.0
  0
LINE
  5
16B
100
AcDbEntity
  8
0
370
    35
390
0
 62
     7
 48
0.21067
100
AcDbLine
 10
145.472824
 20
132.205444
 30
0.0
 11
145.472824
 21
123.778656
 31
0.0
210
0.0
220
0.0
230
1.0
  0
LINE
  5
16C
100
AcDbEntity
  8
0
370
    35
390
0
 62
     7
 48
0.028764
100
AcDbLine
 10
146.622818
 20
123.742432
 30
0.0
 11
145.472824
 21
123.778656
 31
0.0
210
0.0
220
0.0
230
1.0
  0
LINE
  5
16D
100
AcDbEntity
  8
0
370
    35
390
0
 62
     7
 48
0.209882
100
AcDbLine
 10
144.972824
 20
132.189697
 30
0.0
 11
144.972824
 21
123.794403
 31
0.0
210
0.0
220
0.0
230
1.0
  0
LINE
  5
16E
100
AcDbEntity
  8
0
370
    35
390
0
 62
     7
 48
0.208308
100
AcDbLine
 10
143.972824
 20
132.158203
 30
0.0
 11
143.972824
 21
123.825897
 31
0.0
210
0.0
220
0.0
230
1.0
  0
LINE
  5
16F
100
AcDbEntity
  8
0
370
    35
390
0
 62
     7
 48
0.012506
100
AcDbLine
 10
254.772812
 20
124.467896
 30
0.0
 11
255.272812
 21
124.483643
 31
0.0
210
0.0
220
0.0
230
1.0
  0
LINE
  5
170
100
AcDbEntity
  8
0
370
    35
390
0
 62
     7
 48
0.012506
100
AcDbLine
 10
145.472824
 20
131.70517
 30
0.0
 11
144.972824
 21
131.689423
 31
0.0
210
0.0
220
0.0
230
1.0
  0
LINE
  5
171
100
AcDbEntity
  8
0
370
    35
390
0
 62
     7
 48
0.012506
100
AcDbLine
 10
253.272812
 20
124.420654
 30
0.0
 11
253.772812
 21
124.436401
 31
0.0
210
0.0
220
0.0
230
1.0
  0
LINE
  5
172
100
AcDbEntity
  8
0
370
    35
390
0
 62
     7
 48
0.012506
100
AcDbLine
 10
251.772812
 20
124.373383
 30
0.0
 11
252.272812
 21
124.38916
 31
0.0
210
0.0
220
0.0
230
1.0
  0
LINE
  5
173
100
AcDbEntity
  8
0
370
    35
390
0
 62
     7
 48
0.012506
100
AcDbLine
 10
250.272812
 20
124.326141
 30
0.0
 11
250.772812
 21
124.341888
 31
0.0
210
0.0
220
0.0
230
1.0
  0
LINE
  5
174
100
AcDbEntity
  8
0
370
    35
390
0
 62
     7
 48
0.012506
100
AcDbLine
 10
254.772812
 20
131.516205
 30
0.0
 11
255.272812
 21
131.500458
 31
0.0
210
0.0
220
0.0
230
1.0
  0
LINE
  5
175
100
AcDbEntity
  8
0
370
    35
390
0
 62
     7
 48
0.012506
100
AcDbLine
 10
253.272812
 20
131.563446
 30
0.0
 11
253.772812
 21
131.547699
 31
0.0
210
0.0
220
0.0
230
1.0
  0
LINE
  5
176
100
AcDbEntity
  8
0
370
    35
390
0
 62
     7
 48
0.012506
100
AcDbLine
 10
251.772812
 20
131.610687
 30
0.0
 11
252.272812
 21
131.59494
 31
0.0
210
0.0
220
0.0
230
1.0
  0
LINE
  5
177
100
AcDbEntity
  8
0
370
    35
390
0
 62
     7
 48
0.012506
100
AcDbLine
 10
145.472824
 20
124.2789
 30
0.0
 11
144.972824
 21
124.294647
 31
0.0
210
0.0
220
0.0
230
1.0
  0
LINE
  5
178
100
AcDbEntity
  8
0
370
    35
390
0
 62
     7
 48
0.012506
100
AcDbLine
 10
250.272812
 20
131.657928
 30
0.0
 11
250.772812
 21
131.642181
 31
0.0
210
0.0
220
0.0
230
1.0
  0
LINE
  5
179
100
AcDbEntity
  8
0
370
    35
390
0
 62
     7
 48
0.195
100
AcDbLine
 10
135.522812
 20
131.892059
 30
0.0
 11
135.522812
 21
124.092041
 31
0.0
210
0.0
220
0.0
230
1.0
  0
LINE
  5
17A
100
AcDbEntity
  8
0
370
    35
390
0
 62
     7
 48
0.005
100
AcDbLine
 10
147.422821
 20
120.992035
 30
0.0
 11
147.422821
 21
120.792053
 31
0.0
210
0.0
220
0.0
230
1.0
  0
LINE
  5
17B
100
AcDbEntity
  8
0
370
    35
390
0
 62
     7
 48
0.340865
100
AcDbLine
 10
275.782349
 20
130.892059
 30
0.0
 11
289.416931
 21
130.892059
 31
0.0
210
0.0
220
0.0
230
1.0
  0
LINE
  5
17C
100
AcDbEntity
  8
0
370
    35
390
0
 62
     7
 48
0.301219
100
AcDbLine
 10
135.522812
 20
130.892059
 30
0.0
 11
123.47406
 21
130.892059
 31
0.0
210
0.0
220
0.0
230
1.0
  0
LINE
  5
17D
100
AcDbEntity
  8
0
370
    35
390
0
 62
     7
 48
0.301218
100
AcDbLine
 10
258.722839
 20
125.092041
 30
0.0
 11
270.771545
 21
125.092041
 31
0.0
210
0.0
220
0.0
230
1.0
  0
LINE
  5
17E
100
AcDbEntity
  8
0
370
    35
390
0
 62
     7
 48
0.05
100
AcDbLine
 10
254.622818
 20
120.792053
 30
0.0
 11
256.622803
 21
120.792053
 31
0.0
210
0.0
220
0.0
230
1.0
  0
LINE
  5
17F
100
AcDbEntity
  8
0
370
    35
390
0
 62
     7
 48
0.05
100
AcDbLine
 10
254.622818
 20
119.992035
 30
0.0
 11
256.622803
 21
119.992035
 31
0.0
210
0.0
220
0.0
230
1.0
  0
LINE
  5
180
100
AcDbEntity
  8
0
370
    35
390
0
 62
     7
 48
0.175
100
AcDbLine
 10
139.622818
 20
119.992035
 30
0.0
 11
146.622818
 21
119.992035
 31
0.0
210
0.0
220
0.0
230
1.0
  0
LINE
  5
181
100
AcDbEntity
  8
0
370
    35
390
0
 62
     7
 48
0.05
100
AcDbLine
 10
137.622818
 20
120.792053
 30
0.0
 11
139.622818
 21
120.792053
 31
0.0
210
0.0
220
0.0
230
1.0
  0
LINE
  5
182
100
AcDbEntity
  8
0
370
    35
390
0
 62
     7
 48
0.000124
100
AcDbLine
 10
247.622818
 20
133.992035
 30
0.0
 11
247.622818
 21
133.987061
 31
0.0
210
0.0
220
0.0
230
1.0
  0
LINE
  5
183
100
AcDbEntity
  8
0
370
    35
390
0
 62
     7
 48
0.025
100
AcDbLine
 10
246.8228
 20
119.992035
 30
0.0
 11
246.8228
 21
120.992035
 31
0.0
210
0.0
220
0.0
230
1.0
  0
LINE
  5
184
100
AcDbEntity
  8
0
370
    35
390
0
 62
     7
 48
0.025
100
AcDbLine
 10
247.622818
 20
120.992035
 30
0.0
 11
247.622818
 21
119.992035
 31
0.0
210
0.0
220
0.0
230
1.0
  0
LINE
  5
185
100
AcDbEntity
  8
0
370
    35
390
0
 62
     7
 48
0.000125
100
AcDbLine
 10
246.817795
 20
134.792053
 30
0.0
 11
246.8228
 21
134.792053
 31
0.0
210
0.0
220
0.0
230
1.0
  0
LINE
  5
186
100
AcDbEntity
  8
0
370
    35
390
0
 62
     7
 48
0.000125
100
AcDbLine
 10
246.817795
 20
133.992035
 30
0.0
 11
246.8228
 21
133.992035
 31
0.0
210
0.0
220
0.0
230
1.0
  0
LINE
  5
187
100
AcDbEntity
  8
0
370
    35
390
0
 62
     7
 48
0.000124
100
AcDbLine
 10
246.8228
 20
133.987061
 30
0.0
 11
246.8228
 21
133.992035
 31
0.0
210
0.0
220
0.0
230
1.0
  0
LINE
  5
188
100
AcDbEntity
  8
0
370
    35
390
0
 62
     7
 48
0.02
100
AcDbLine
 10
246.8228
 20
119.992035
 30
0.0
 11
247.622818
 21
119.992035
 31
0.0
210
0.0
220
0.0
230
1.0
  0
LINE
  5
189
100
AcDbEntity
  8
0
370
    35
390
0
 62
     7
 48
0.020125
100
AcDbLine
 10
146.622818
 20
120.992035
 30
0.0
 11
147.427811
 21
120.992035
 31
0.0
210
0.0
220
0.0
230
1.0
  0
LINE
  5
18A
100
AcDbEntity
  8
0
370
    35
390
0
 62
     7
 48
0.02
100
AcDbLine
 10
246.817795
 20
133.992035
 30
0.0
 11
246.817795
 21
134.792053
 31
0.0
210
0.0
220
0.0
230
1.0
  0
LINE
  5
18B
100
AcDbEntity
  8
0
370
    35
390
0
 62
     7
 48
0.000124
100
AcDbLine
 10
246.817795
 20
133.992035
 30
0.0
 11
246.817795
 21
133.987061
 31
0.0
210
0.0
220
0.0
230
1.0
  0
LINE
  5
18C
100
AcDbEntity
  8
0
370
    35
390
0
 62
     7
 48
0.000125
100
AcDbLine
 10
147.422821
 20
134.792053
 30
0.0
 11
147.427811
 21
134.792053
 31
0.0
210
0.0
220
0.0
230
1.0
  0
LINE
  5
18D
100
AcDbEntity
  8
0
370
    35
390
0
 62
     7
100
AcDbLine
 10
246.817795
 20
134.792053
 30
0.0
 11
147.427811
 21
134.792053
 31
0.0
210
0.0
220
0.0
230
1.0
  0
LINE
  5
18E
100
AcDbEntity
  8
0
370
    35
390
0
 62
     7
100
AcDbLine
 10
147.427811
 20
120.992035
 30
0.0
 11
246.817795
 21
120.992035
 31
0.0
210
0.0
220
0.0
230
1.0
  0
LINE
  5
18F
100
AcDbEntity
  8
0
370
    35
390
0
 62
     7
 48
0.324876
100
AcDbLine
 10
146.622818
 20
133.987061
 30
0.0
 11
146.622818
 21
120.992035
 31
0.0
210
0.0
220
0.0
230
1.0
  0
LINE
  5
190
100
AcDbEntity
  8
0
370
    35
390
0
 62
     7
 48
0.02
100
AcDbLine
 10
147.427811
 20
133.992035
 30
0.0
 11
147.427811
 21
134.792053
 31
0.0
210
0.0
220
0.0
230
1.0
  0
LINE
  5
191
100
AcDbEntity
  8
0
370
    35
390
0
 62
     7
 48
0.020125
100
AcDbLine
 10
147.427811
 20
133.987061
 30
0.0
 11
146.622818
 21
133.987061
 31
0.0
210
0.0
220
0.0
230
1.0
  0
LINE
  5
192
100
AcDbEntity
  8
0
370
    35
390
0
 62
     7
 48
0.000124
100
AcDbLine
 10
147.427811
 20
133.992035
 30
0.0
 11
147.427811
 21
133.987061
 31
0.0
210
0.0
220
0.0
230
1.0
  0
LINE
  5
193
100
AcDbEntity
  8
0
370
    35
390
0
 62
     7
 48
0.020126
100
AcDbLine
 10
246.817795
 20
133.987061
 30
0.0
 11
247.622818
 21
133.987061
 31
0.0
210
0.0
220
0.0
230
1.0
  0
LINE
  5
194
100
AcDbEntity
  8
0
370
    35
390
0
 62
     7
 48
0.324876
100
AcDbLine
 10
247.622818
 20
133.987061
 30
0.0
 11
247.622818
 21
120.992035
 31
0.0
210
0.0
220
0.0
230
1.0
  0
LINE
  5
195
100
AcDbEntity
  8
0
370
    35
390
0
 62
     7
 48
0.020126
100
AcDbLine
 10
246.817795
 20
120.992035
 30
0.0
 11
247.622818
 21
120.992035
 31
0.0
210
0.0
220
0.0
230
1.0
  0
LINE
  5
196
100
AcDbEntity
  8
0
370
    35
390
0
 62
     7
 48
0.000125
100
AcDbLine
 10
147.422821
 20
133.992035
 30
0.0
 11
147.427811
 21
133.992035
 31
0.0
210
0.0
220
0.0
230
1.0
  0
LINE
  5
197
100
AcDbEntity
  8
0
370
    35
390
0
 62
     7
 48
0.175
100
AcDbLine
 10
146.622818
 20
120.792053
 30
0.0
 11
139.622818
 21
120.792053
 31
0.0
210
0.0
220
0.0
230
1.0
  0
LINE
  5
198
100
AcDbEntity
  8
0
370
    35
390
0
 62
     7
 48
0.000124
100
AcDbLine
 10
146.622818
 20
133.992035
 30
0.0
 11
146.622818
 21
133.987061
 31
0.0
210
0.0
220
0.0
230
1.0
  0
LINE
  5
199
100
AcDbEntity
  8
0
370
    35
390
0
 62
     7
 48
0.005
100
AcDbLine
 10
146.622818
 20
120.992035
 30
0.0
 11
146.622818
 21
120.792053
 31
0.0
210
0.0
220
0.0
230
1.0
  0
LINE
  5
19A
100
AcDbEntity
  8
0
370
    35
390
0
 62
     7
 48
0.02
100
AcDbLine
 10
147.422821
 20
119.992035
 30
0.0
 11
146.622818
 21
119.992035
 31
0.0
210
0.0
220
0.0
230
1.0
  0
LINE
  5
19B
100
AcDbEntity
  8
0
370
    35
390
0
 62
     7
 48
0.020123
100
AcDbLine
 10
147.422821
 20
120.796967
 30
0.0
 11
147.422821
 21
119.992035
 31
0.0
210
0.0
220
0.0
230
1.0
  0
LINE
  5
19C
100
AcDbEntity
  8
0
370
    35
390
0
 62
     7
 48
0.02
100
AcDbLine
 10
137.622818
 20
119.992035
 30
0.0
 11
137.622818
 21
120.792053
 31
0.0
210
0.0
220
0.0
230
1.0
  0
LINE
  5
19D
100
AcDbEntity
  8
0
370
    35
390
0
 62
     7
 48
0.05
100
AcDbLine
 10
137.622818
 20
119.992035
 30
0.0
 11
139.622818
 21
119.992035
 31
0.0
210
0.0
220
0.0
230
1.0
  0
LINE
  5
19E
100
AcDbEntity
  8
0
370
    35
390
0
 62
     7
 48
0.02
100
AcDbLine
 10
256.622803
 20
119.992035
 30
0.0
 11
256.622803
 21
120.792053
 31
0.0
210
0.0
220
0.0
230
1.0
  0
LINE
  5
19F
100
AcDbEntity
  8
0
370
    35
390
0
 62
     7
 48
0.175
100
AcDbLine
 10
254.622818
 20
120.792053
 30
0.0
 11
247.622818
 21
120.792053
 31
0.0
210
0.0
220
0.0
230
1.0
  0
LINE
  5
1A0
100
AcDbEntity
  8
0
370
    35
390
0
 62
     7
 48
0.175
100
AcDbLine
 10
254.622818
 20
119.992035
 30
0.0
 11
247.622818
 21
119.992035
 31
0.0
210
0.0
220
0.0
230
1.0
  0
LINE
  5
1A1
100
AcDbEntity
  8
0
370
    35
390
0
 62
     7
 48
0.01
100
AcDbLine
 10
148.522812
 20
120.992035
 30
0.0
 11
148.522812
 21
120.592041
 31
0.0
210
0.0
220
0.0
230
1.0
  0
LINE
  5
1A2
100
AcDbEntity
  8
0
370
    35
390
0
 62
     7
 48
0.01
100
AcDbLine
 10
147.522812
 20
120.592041
 30
0.0
 11
147.522812
 21
120.992035
 31
0.0
210
0.0
220
0.0
230
1.0
  0
LINE
  5
1A3
100
AcDbEntity
  8
0
370
    35
390
0
 62
     7
 48
0.00125
100
AcDbLine
 10
148.572815
 20
119.592041
 30
0.0
 11
148.522812
 21
119.592041
 31
0.0
210
0.0
220
0.0
230
1.0
  0
LINE
  5
1A4
100
AcDbEntity
  8
0
370
    35
390
0
 62
     7
100
AcDbLine
 10
245.672836
 20
119.592041
 30
0.0
 11
148.572815
 21
119.592041
 31
0.0
210
0.0
220
0.0
230
1.0
  0
LINE
  5
1A5
100
AcDbEntity
  8
0
370
    35
390
0
 62
     7
 48
0.025
100
AcDbLine
 10
148.572815
 20
119.592041
 30
0.0
 11
148.572815
 21
120.592041
 31
0.0
210
0.0
220
0.0
230
1.0
  0
LINE
  5
1A6
100
AcDbEntity
  8
0
370
    35
390
0
 62
     7
 48
0.01
100
AcDbLine
 10
148.572815
 20
120.592041
 30
0.0
 11
148.572815
 21
120.992035
 31
0.0
210
0.0
220
0.0
230
1.0
  0
LINE
  5
1A7
100
AcDbEntity
  8
0
370
    35
390
0
 62
     7
 48
0.00125
100
AcDbLine
 10
245.672836
 20
119.592041
 30
0.0
 11
245.722824
 21
119.592041
 31
0.0
210
0.0
220
0.0
230
1.0
  0
LINE
  5
1A8
100
AcDbEntity
  8
0
370
    35
390
0
 62
     7
 48
0.01
100
AcDbLine
 10
245.672836
 20
120.592041
 30
0.0
 11
245.672836
 21
120.992035
 31
0.0
210
0.0
220
0.0
230
1.0
  0
LINE
  5
1A9
100
AcDbEntity
  8
0
370
    35
390
0
 62
     7
 48
0.025
100
AcDbLine
 10
245.672836
 20
119.592041
 30
0.0
 11
245.672836
 21
120.592041
 31
0.0
210
0.0
220
0.0
230
1.0
  0
LINE
  5
1AA
100
AcDbEntity
  8
0
370
    35
390
0
 62
     7
 48
0.01
100
AcDbLine
 10
245.722824
 20
120.592041
 30
0.0
 11
245.722824
 21
120.992035
 31
0.0
210
0.0
220
0.0
230
1.0
  0
LINE
  5
1AB
100
AcDbEntity
  8
0
370
    35
390
0
 62
     7
 48
0.01
100
AcDbLine
 10
246.722824
 20
120.592041
 30
0.0
 11
246.722824
 21
120.992035
 31
0.0
210
0.0
220
0.0
230
1.0
  0
LINE
  5
1AC
100
AcDbEntity
  8
0
370
    35
390
0
 62
     7
 48
0.00125
100
AcDbLine
 10
148.572815
 20
120.592041
 30
0.0
 11
148.522812
 21
120.592041
 31
0.0
210
0.0
220
0.0
230
1.0
  0
LINE
  5
1AD
100
AcDbEntity
  8
0
370
    35
390
0
 62
     7
 48
0.00125
100
AcDbLine
 10
245.722824
 20
120.592041
 30
0.0
 11
245.672836
 21
120.592041
 31
0.0
210
0.0
220
0.0
230
1.0
  0
LINE
  5
1AE
100
AcDbEntity
  8
0
370
    35
390
0
 62
     7
 48
0.0125
100
AcDbLine
 10
157.703583
 20
124.228455
 30
0.0
 11
158.057129
 21
123.874878
 31
0.0
210
0.0
220
0.0
230
1.0
  0
LINE
  5
1AF
100
AcDbEntity
  8
0
370
    35
390
0
 62
     7
 48
0.0125
100
AcDbLine
 10
157.98642
 20
124.511292
 30
0.0
 11
158.339981
 21
124.157745
 31
0.0
210
0.0
220
0.0
230
1.0
  0
LINE
  5
1B0
100
AcDbEntity
  8
0
370
    35
390
0
 62
     7
 48
0.0125
100
AcDbLine
 10
157.703583
 20
122.955658
 30
0.0
 11
158.057129
 21
123.309204
 31
0.0
210
0.0
220
0.0
230
1.0
  0
LINE
  5
1B1
100
AcDbEntity
  8
0
370
    35
390
0
 62
     7
 48
0.0125
100
AcDbLine
 10
157.98642
 20
122.672821
 30
0.0
 11
158.339981
 21
123.026367
 31
0.0
210
0.0
220
0.0
230
1.0
  0
LINE
  5
1B2
100
AcDbEntity
  8
0
370
    35
390
0
 62
     7
 48
0.0125
100
AcDbLine
 10
158.905655
 20
124.157745
 30
0.0
 11
159.259216
 21
124.511292
 31
0.0
210
0.0
220
0.0
230
1.0
  0
LINE
  5
1B3
100
AcDbEntity
  8
0
370
    35
390
0
 62
     7
 48
0.0125
100
AcDbLine
 10
159.188507
 20
123.874878
 30
0.0
 11
159.542053
 21
124.228455
 31
0.0
210
0.0
220
0.0
230
1.0
  0
LINE
  5
1B4
100
AcDbEntity
  8
0
370
    35
390
0
 62
     7
 48
0.0125
100
AcDbLine
 10
159.188507
 20
123.309204
 30
0.0
 11
159.542053
 21
122.955658
 31
0.0
210
0.0
220
0.0
230
1.0
  0
LINE
  5
1B5
100
AcDbEntity
  8
0
370
    35
390
0
 62
     7
 48
0.0125
100
AcDbLine
 10
158.905655
 20
123.026367
 30
0.0
 11
159.259216
 21
122.672821
 31
0.0
210
0.0
220
0.0
230
1.0
  0
LINE
  5
1B6
100
AcDbEntity
  8
0
370
    35
390
0
 62
     7
 48
0.01
100
AcDbLine
 10
159.259216
 20
124.511292
 30
0.0
 11
159.542053
 21
124.228455
 31
0.0
210
0.0
220
0.0
230
1.0
  0
LINE
  5
1B7
100
AcDbEntity
  8
0
370
    35
390
0
 62
     7
 48
0.01
100
AcDbLine
 10
157.703583
 20
122.955658
 30
0.0
 11
157.98642
 21
122.672821
 31
0.0
210
0.0
220
0.0
230
1.0
  0
LINE
  5
1B8
100
AcDbEntity
  8
0
370
    35
390
0
 62
     7
 48
0.01
100
AcDbLine
 10
157.703583
 20
124.228455
 30
0.0
 11
157.98642
 21
124.511292
 31
0.0
210
0.0
220
0.0
230
1.0
  0
LINE
  5
1B9
100
AcDbEntity
  8
0
370
    35
390
0
 62
     7
 48
0.01
100
AcDbLine
 10
159.259216
 20
122.672821
 30
0.0
 11
159.542053
 21
122.955658
 31
0.0
210
0.0
220
0.0
230
1.0
  0
LINE
  5
1BA
100
AcDbEntity
  8
0
370
    35
390
0
 62
     7
 48
0.0125
100
AcDbLine
 10
233.986435
 20
124.511292
 30
0.0
 11
234.339981
 21
124.157745
 31
0.0
210
0.0
220
0.0
230
1.0
  0
LINE
  5
1BB
100
AcDbEntity
  8
0
370
    35
390
0
 62
     7
 48
0.0125
100
AcDbLine
 10
233.703598
 20
124.228455
 30
0.0
 11
234.057114
 21
123.874878
 31
0.0
210
0.0
220
0.0
230
1.0
  0
LINE
  5
1BC
100
AcDbEntity
  8
0
370
    35
390
0
 62
     7
 48
0.012499
100
AcDbLine
 10
233.703598
 20
122.955658
 30
0.0
 11
234.057114
 21
123.309204
 31
0.0
210
0.0
220
0.0
230
1.0
  0
LINE
  5
1BD
100
AcDbEntity
  8
0
370
    35
390
0
 62
     7
 48
0.0125
100
AcDbLine
 10
233.986435
 20
122.672821
 30
0.0
 11
234.339981
 21
123.026367
 31
0.0
210
0.0
220
0.0
230
1.0
  0
LINE
  5
1BE
100
AcDbEntity
  8
0
370
    35
390
0
 62
     7
 48
0.0125
100
AcDbLine
 10
234.905655
 20
124.157745
 30
0.0
 11
235.259201
 21
124.511292
 31
0.0
210
0.0
220
0.0
230
1.0
  0
LINE
  5
1BF
100
AcDbEntity
  8
0
370
    35
390
0
 62
     7
 48
0.0125
100
AcDbLine
 10
235.188522
 20
123.874878
 30
0.0
 11
235.542038
 21
124.228455
 31
0.0
210
0.0
220
0.0
230
1.0
  0
LINE
  5
1C0
100
AcDbEntity
  8
0
370
    35
390
0
 62
     7
 48
0.012499
100
AcDbLine
 10
235.188522
 20
123.309204
 30
0.0
 11
235.542038
 21
122.955658
 31
0.0
210
0.0
220
0.0
230
1.0
  0
LINE
  5
1C1
100
AcDbEntity
  8
0
370
    35
390
0
 62
     7
 48
0.0125
100
AcDbLine
 10
234.905655
 20
123.026367
 30
0.0
 11
235.259201
 21
122.672821
 31
0.0
210
0.0
220
0.0
230
1.0
  0
LINE
  5
1C2
100
AcDbEntity
  8
0
370
    35
390
0
 62
     7
 48
0.01
100
AcDbLine
 10
235.259201
 20
124.511292
 30
0.0
 11
235.542038
 21
124.228455
 31
0.0
210
0.0
220
0.0
230
1.0
  0
LINE
  5
1C3
100
AcDbEntity
  8
0
370
    35
390
0
 62
     7
 48
0.01
100
AcDbLine
 10
233.703598
 20
122.955658
 30
0.0
 11
233.986435
 21
122.672821
 31
0.0
210
0.0
220
0.0
230
1.0
  0
LINE
  5
1C4
100
AcDbEntity
  8
0
370
    35
390
0
 62
     7
 48
0.01
100
AcDbLine
 10
233.703598
 20
124.228455
 30
0.0
 11
233.986435
 21
124.511292
 31
0.0
210
0.0
220
0.0
230
1.0
  0
LINE
  5
1C5
100
AcDbEntity
  8
0
370
    35
390
0
 62
     7
 48
0.01
100
AcDbLine
 10
235.259201
 20
122.672821
 30
0.0
 11
235.542038
 21
122.955658
 31
0.0
210
0.0
220
0.0
230
1.0
  0
LINE
  5
1C6
100
AcDbEntity
  8
0
370
    35
390
0
 62
     7
 48
0.15
100
AcDbLine
 10
46.414536
 20
109.742035
 30
0.0
 11
52.414536
 21
109.742035
 31
0.0
210
0.0
220
0.0
230
1.0
  0
LINE
  5
1C7
100
AcDbEntity
  8
0
370
    35
390
0
 62
     7
 48
0.2875
100
AcDbLine
 10
52.414536
 20
121.242035
 30
0.0
 11
52.414536
 21
109.742035
 31
0.0
210
0.0
220
0.0
230
1.0
  0
LINE
  5
1C8
100
AcDbEntity
  8
0
370
    35
390
0
 62
     7
 48
0.2875
100
AcDbLine
 10
46.414536
 20
121.242035
 30
0.0
 11
46.414536
 21
109.742035
 31
0.0
210
0.0
220
0.0
230
1.0
  0
LINE
  5
1C9
100
AcDbEntity
  8
0
370
    35
390
0
 62
     7
100
AcDbLine
 10
39.414536
 20
143.492035
 30
0.0
 11
59.414536
 21
143.492035
 31
0.0
210
0.0
220
0.0
230
1.0
  0
LINE
  5
1CA
100
AcDbEntity
  8
0
370
    35
390
0
 62
     7
 48
0.48125
100
AcDbLine
 10
59.414536
 20
123.242035
 30
0.0
 11
59.414536
 21
142.492035
 31
0.0
210
0.0
220
0.0
230
1.0
  0
LINE
  5
1CB
100
AcDbEntity
  8
0
370
    35
390
0
 62
     7
 48
0.48125
100
AcDbLine
 10
39.414536
 20
123.242035
 30
0.0
 11
39.414536
 21
142.492035
 31
0.0
210
0.0
220
0.0
230
1.0
  0
LINE
  5
1CC
100
AcDbEntity
  8
0
370
    35
390
0
 62
     7
 48
0.025
100
AcDbLine
 10
39.514542
 20
142.492035
 30
0.0
 11
39.514542
 21
143.492035
 31
0.0
210
0.0
220
0.0
230
1.0
  0
LINE
  5
1CD
100
AcDbEntity
  8
0
370
    35
390
0
 62
     7
 48
0.025
100
AcDbLine
 10
59.314529
 20
142.492035
 30
0.0
 11
59.314529
 21
143.492035
 31
0.0
210
0.0
220
0.0
230
1.0
  0
LINE
  5
1CE
100
AcDbEntity
  8
0
370
    35
390
0
 62
     7
100
AcDbLine
 10
39.414536
 20
142.492035
 30
0.0
 11
59.414536
 21
142.492035
 31
0.0
210
0.0
220
0.0
230
1.0
  0
LINE
  5
1CF
100
AcDbEntity
  8
0
370
    35
390
0
 62
     7
 48
0.035355
100
AcDbLine
 10
58.414536
 20
122.242035
 30
0.0
 11
59.414536
 21
123.242035
 31
0.0
210
0.0
220
0.0
230
1.0
  0
LINE
  5
1D0
100
AcDbEntity
  8
0
370
    35
390
0
 62
     7
 48
0.035355
100
AcDbLine
 10
40.414536
 20
122.242035
 30
0.0
 11
39.414536
 21
123.242035
 31
0.0
210
0.0
220
0.0
230
1.0
  0
LINE
  5
1D1
100
AcDbEntity
  8
0
370
    35
390
0
 62
     7
 48
0.325
100
AcDbLine
 10
59.414536
 20
143.492035
 30
0.0
 11
59.414536
 21
156.492035
 31
0.0
210
0.0
220
0.0
230
1.0
  0
LINE
  5
1D2
100
AcDbEntity
  8
0
370
    35
390
0
 62
     7
 48
0.325
100
AcDbLine
 10
39.414536
 20
143.492035
 30
0.0
 11
39.414536
 21
156.492035
 31
0.0
210
0.0
220
0.0
230
1.0
  0
LINE
  5
1D3
100
AcDbEntity
  8
0
370
    35
390
0
 62
     7
 48
0.200001
100
AcDbLine
 10
59.314529
 20
156.492035
 30
0.0
 11
59.314529
 21
164.492065
 31
0.0
210
0.0
220
0.0
230
1.0
  0
LINE
  5
1D4
100
AcDbEntity
  8
0
370
    35
390
0
 62
     7
 48
0.200001
100
AcDbLine
 10
39.514542
 20
156.492035
 30
0.0
 11
39.514542
 21
164.492065
 31
0.0
210
0.0
220
0.0
230
1.0
  0
LINE
  5
1D5
100
AcDbEntity
  8
0
370
    35
390
0
 62
     7
 48
0.2375
100
AcDbLine
 10
59.414536
 20
164.492065
 30
0.0
 11
59.414536
 21
173.992065
 31
0.0
210
0.0
220
0.0
230
1.0
  0
LINE
  5
1D6
100
AcDbEntity
  8
0
370
    35
390
0
 62
     7
100
AcDbLine
 10
39.414536
 20
156.492035
 30
0.0
 11
59.414536
 21
156.492035
 31
0.0
210
0.0
220
0.0
230
1.0
  0
LINE
  5
1D7
100
AcDbEntity
  8
0
370
    35
390
0
 62
     7
100
AcDbLine
 10
39.414536
 20
164.492065
 30
0.0
 11
59.414536
 21
164.492065
 31
0.0
210
0.0
220
0.0
230
1.0
  0
LINE
  5
1D8
100
AcDbEntity
  8
0
370
    35
390
0
 62
     7
 48
0.2375
100
AcDbLine
 10
39.414536
 20
164.492065
 30
0.0
 11
39.414536
 21
173.992065
 31
0.0
210
0.0
220
0.0
230
1.0
  0
LINE
  5
1D9
100
AcDbEntity
  8
0
370
    35
390
0
 62
     7
 48
0.45
100
AcDbLine
 10
40.414536
 20
122.242035
 30
0.0
 11
58.414536
 21
122.242035
 31
0.0
210
0.0
220
0.0
230
1.0
  0
LINE
  5
1DA
100
AcDbEntity
  8
0
370
    35
390
0
 62
     7
 48
0.025
100
AcDbLine
 10
86.414536
 20
192.742065
 30
0.0
 11
87.414536
 21
192.742065
 31
0.0
210
0.0
220
0.0
230
1.0
  0
LINE
  5
1DB
100
AcDbEntity
  8
0
370
    35
390
0
 62
     7
 48
0.025
100
AcDbLine
 10
86.414536
 20
183.242065
 30
0.0
 11
87.414536
 21
183.242065
 31
0.0
210
0.0
220
0.0
230
1.0
  0
LINE
  5
1DC
100
AcDbEntity
  8
0
370
    35
390
0
 62
     7
 48
0.2
100
AcDbLine
 10
106.414536
 20
191.992065
 30
0.0
 11
106.414536
 21
183.992065
 31
0.0
210
0.0
220
0.0
230
1.0
  0
LINE
  5
1DD
100
AcDbEntity
  8
0
370
    35
390
0
 62
     7
 48
0.068804
100
AcDbLine
 10
87.414536
 20
192.742065
 30
0.0
 11
90.164536
 21
192.633484
 31
0.0
210
0.0
220
0.0
230
1.0
  0
LINE
  5
1DE
100
AcDbEntity
  8
0
370
    35
390
0
 62
     7
 48
0.068804
100
AcDbLine
 10
87.414536
 20
183.242065
 30
0.0
 11
90.164536
 21
183.350586
 31
0.0
210
0.0
220
0.0
230
1.0
  0
LINE
  5
1DF
100
AcDbEntity
  8
0
370
    35
390
0
 62
     7
 48
0.225
100
AcDbLine
 10
44.914536
 20
121.242035
 30
0.0
 11
53.914536
 21
121.242035
 31
0.0
210
0.0
220
0.0
230
1.0
  0
LINE
  5
1E0
100
AcDbEntity
  8
0
370
    35
390
0
 62
     7
 48
0.027951
100
AcDbLine
 10
44.914536
 20
121.242035
 30
0.0
 11
44.414536
 21
122.242035
 31
0.0
210
0.0
220
0.0
230
1.0
  0
LINE
  5
1E1
100
AcDbEntity
  8
0
370
    35
390
0
 62
     7
 48
0.027951
100
AcDbLine
 10
53.914536
 20
121.242035
 30
0.0
 11
54.414536
 21
122.242035
 31
0.0
210
0.0
220
0.0
230
1.0
  0
LINE
  5
1E2
100
AcDbEntity
  8
0
370
    35
390
0
 62
     7
 48
0.15
100
AcDbLine
 10
46.414536
 20
104.742035
 30
0.0
 11
52.414536
 21
104.742035
 31
0.0
210
0.0
220
0.0
230
1.0
  0
LINE
  5
1E3
100
AcDbEntity
  8
0
370
    35
390
0
 62
     7
 48
0.098125
100
AcDbLine
 10
45.914536
 20
105.317047
 30
0.0
 11
45.914536
 21
109.242035
 31
0.0
210
0.0
220
0.0
230
1.0
  0
LINE
  5
1E4
100
AcDbEntity
  8
0
370
    35
390
0
 62
     7
 48
0.1
100
AcDbLine
 10
45.914536
 20
105.242035
 30
0.0
 11
45.914536
 21
109.242035
 31
0.0
210
0.0
220
0.0
230
1.0
  0
LINE
  5
1E5
100
AcDbEntity
  8
0
370
    35
390
0
 62
     7
 48
0.1
100
AcDbLine
 10
52.914536
 20
105.242035
 30
0.0
 11
52.914536
 21
109.242035
 31
0.0
210
0.0
220
0.0
230
1.0
  0
LINE
  5
1E6
100
AcDbEntity
  8
0
370
    35
390
0
 62
     7
 48
0.175
100
AcDbLine
 10
45.914536
 20
109.242035
 30
0.0
 11
52.914536
 21
109.242035
 31
0.0
210
0.0
220
0.0
230
1.0
  0
LINE
  5
1E7
100
AcDbEntity
  8
0
370
    35
390
0
 62
     7
 48
0.175
100
AcDbLine
 10
45.914536
 20
105.242035
 30
0.0
 11
52.914536
 21
105.242035
 31
0.0
210
0.0
220
0.0
230
1.0
  0
LINE
  5
1E8
100
AcDbEntity
  8
0
370
    35
390
0
 62
     7
 48
0.017678
100
AcDbLine
 10
52.414536
 20
104.742035
 30
0.0
 11
52.914536
 21
105.242035
 31
0.0
210
0.0
220
0.0
230
1.0
  0
LINE
  5
1E9
100
AcDbEntity
  8
0
370
    35
390
0
 62
     7
 48
0.017678
100
AcDbLine
 10
46.414536
 20
104.742035
 30
0.0
 11
45.914536
 21
105.242035
 31
0.0
210
0.0
220
0.0
230
1.0
  0
LINE
  5
1EA
100
AcDbEntity
  8
0
370
    35
390
0
 62
     7
 48
0.017678
100
AcDbLine
 10
45.914536
 20
109.242035
 30
0.0
 11
46.414536
 21
109.742035
 31
0.0
210
0.0
220
0.0
230
1.0
  0
LINE
  5
1EB
100
AcDbEntity
  8
0
370
    35
390
0
 62
     7
 48
0.017678
100
AcDbLine
 10
52.914536
 20
109.242035
 30
0.0
 11
52.414536
 21
109.742035
 31
0.0
210
0.0
220
0.0
230
1.0
  0
LINE
  5
1EC
100
AcDbEntity
  8
0
370
    35
390
0
 62
     7
 48
0.075
100
AcDbLine
 10
47.914536
 20
98.742035
 30
0.0
 11
50.914536
 21
98.742035
 31
0.0
210
0.0
220
0.0
230
1.0
  0
LINE
  5
1ED
100
AcDbEntity
  8
0
370
    35
390
0
 62
     7
 48
0.152069
100
AcDbLine
 10
51.914536
 20
104.742035
 30
0.0
 11
50.914536
 21
98.742035
 31
0.0
210
0.0
220
0.0
230
1.0
  0
LINE
  5
1EE
100
AcDbEntity
  8
0
370
    35
390
0
 62
     7
 48
0.152069
100
AcDbLine
 10
46.914536
 20
104.742035
 30
0.0
 11
47.914536
 21
98.742035
 31
0.0
210
0.0
220
0.0
230
1.0
  0
LINE
  5
1EF
100
AcDbEntity
  8
0
370
    35
390
0
 62
     7
 48
0.1
100
AcDbLine
 10
46.414536
 20
105.242035
 30
0.0
 11
46.414536
 21
109.242035
 31
0.0
210
0.0
220
0.0
230
1.0
  0
LINE
  5
1F0
100
AcDbEntity
  8
0
370
    35
390
0
 62
     7
 48
0.1
100
AcDbLine
 10
46.914536
 20
105.242035
 30
0.0
 11
46.914536
 21
109.242035
 31
0.0
210
0.0
220
0.0
230
1.0
  0
LINE
  5
1F1
100
AcDbEntity
  8
0
370
    35
390
0
 62
     7
 48
0.1
100
AcDbLine
 10
47.414536
 20
105.242035
 30
0.0
 11
47.414536
 21
109.242035
 31
0.0
210
0.0
220
0.0
230
1.0
  0
LINE
  5
1F2
100
AcDbEntity
  8
0
370
    35
390
0
 62
     7
 48
0.1
100
AcDbLine
 10
47.914536
 20
105.242035
 30
0.0
 11
47.914536
 21
109.242035
 31
0.0
210
0.0
220
0.0
230
1.0
  0
LINE
  5
1F3
100
AcDbEntity
  8
0
370
    35
390
0
 62
     7
 48
0.1
100
AcDbLine
 10
48.414536
 20
105.242035
 30
0.0
 11
48.414536
 21
109.242035
 31
0.0
210
0.0
220
0.0
230
1.0
  0
LINE
  5
1F4
100
AcDbEntity
  8
0
370
    35
390
0
 62
     7
 48
0.1
100
AcDbLine
 10
48.914536
 20
105.242035
 30
0.0
 11
48.914536
 21
109.242035
 31
0.0
210
0.0
220
0.0
230
1.0
  0
LINE
  5
1F5
100
AcDbEntity
  8
0
370
    35
390
0
 62
     7
 48
0.1
100
AcDbLine
 10
49.414536
 20
105.242035
 30
0.0
 11
49.414536
 21
109.242035
 31
0.0
210
0.0
220
0.0
230
1.0
  0
LINE
  5
1F6
100
AcDbEntity
  8
0
370
    35
390
0
 62
     7
 48
0.1
100
AcDbLine
 10
49.914536
 20
105.242035
 30
0.0
 11
49.914536
 21
109.242035
 31
0.0
210
0.0
220
0.0
230
1.0
  0
LINE
  5
1F7
100
AcDbEntity
  8
0
370
    35
390
0
 62
     7
 48
0.1
100
AcDbLine
 10
50.414536
 20
105.242035
 30
0.0
 11
50.414536
 21
109.242035
 31
0.0
210
0.0
220
0.0
230
1.0
  0
LINE
  5
1F8
100
AcDbEntity
  8
0
370
    35
390
0
 62
     7
 48
0.1
100
AcDbLine
 10
50.914536
 20
105.242035
 30
0.0
 11
50.914536
 21
109.242035
 31
0.0
210
0.0
220
0.0
230
1.0
  0
LINE
  5
1F9
100
AcDbEntity
  8
0
370
    35
390
0
 62
     7
 48
0.1
100
AcDbLine
 10
51.414536
 20
105.242035
 30
0.0
 11
51.414536
 21
109.242035
 31
0.0
210
0.0
220
0.0
230
1.0
  0
LINE
  5
1FA
100
AcDbEntity
  8
0
370
    35
390
0
 62
     7
 48
0.1
100
AcDbLine
 10
51.914536
 20
105.242035
 30
0.0
 11
51.914536
 21
109.242035
 31
0.0
210
0.0
220
0.0
230
1.0
  0
LINE
  5
1FB
100
AcDbEntity
  8
0
370
    35
390
0
 62
     7
 48
0.1
100
AcDbLine
 10
52.414536
 20
105.242035
 30
0.0
 11
52.414536
 21
109.242035
 31
0.0
210
0.0
220
0.0
230
1.0
  0
LINE
  5
1FC
100
AcDbEntity
  8
0
370
    35
390
0
 62
     7
100
AcDbLine
 10
59.414536
 20
123.242035
 30
0.0
 11
39.414536
 21
123.242035
 31
0.0
210
0.0
220
0.0
230
1.0
  0
LINE
  5
1FD
100
AcDbEntity
  8
0
370
    35
390
0
 62
     7
 48
0.012509
100
AcDbLine
 10
90.164536
 20
192.633484
 30
0.0
 11
90.164536
 21
192.133118
 31
0.0
210
0.0
220
0.0
230
1.0
  0
LINE
  5
1FE
100
AcDbEntity
  8
0
370
    35
390
0
 62
     7
 48
0.012511
100
AcDbLine
 10
90.664536
 20
192.61377
 30
0.0
 11
90.664536
 21
192.113342
 31
0.0
210
0.0
220
0.0
230
1.0
  0
LINE
  5
1FF
100
AcDbEntity
  8
0
370
    35
390
0
 62
     7
 48
0.012511
100
AcDbLine
 10
92.164536
 20
192.554565
 30
0.0
 11
92.164536
 21
192.054138
 31
0.0
210
0.0
220
0.0
230
1.0
  0
LINE
  5
200
100
AcDbEntity
  8
0
370
    35
390
0
 62
     7
 48
0.012509
100
AcDbLine
 10
91.664536
 20
192.57428
 30
0.0
 11
91.664536
 21
192.073914
 31
0.0
210
0.0
220
0.0
230
1.0
  0
LINE
  5
201
100
AcDbEntity
  8
0
370
    35
390
0
 62
     7
 48
0.012509
100
AcDbLine
 10
93.164536
 20
192.515076
 30
0.0
 11
93.164536
 21
192.014709
 31
0.0
210
0.0
220
0.0
230
1.0
  0
LINE
  5
202
100
AcDbEntity
  8
0
370
    35
390
0
 62
     7
 48
0.012511
100
AcDbLine
 10
93.664536
 20
192.495361
 30
0.0
 11
93.664536
 21
191.994934
 31
0.0
210
0.0
220
0.0
230
1.0
  0
LINE
  5
203
100
AcDbEntity
  8
0
370
    35
390
0
 62
     7
 48
0.012509
100
AcDbLine
 10
95.164536
 20
192.436096
 30
0.0
 11
95.164536
 21
191.93573
 31
0.0
210
0.0
220
0.0
230
1.0
  0
LINE
  5
204
100
AcDbEntity
  8
0
370
    35
390
0
 62
     7
 48
0.012511
100
AcDbLine
 10
94.664536
 20
192.455872
 30
0.0
 11
94.664536
 21
191.955444
 31
0.0
210
0.0
220
0.0
230
1.0
  0
LINE
  5
205
100
AcDbEntity
  8
0
370
    35
390
0
 62
     7
 48
0.012511
100
AcDbLine
 10
96.164536
 20
192.396667
 30
0.0
 11
96.164536
 21
191.89624
 31
0.0
210
0.0
220
0.0
230
1.0
  0
LINE
  5
206
100
AcDbEntity
  8
0
370
    35
390
0
 62
     7
 48
0.012509
100
AcDbLine
 10
96.664536
 20
192.376892
 30
0.0
 11
96.664536
 21
191.876526
 31
0.0
210
0.0
220
0.0
230
1.0
  0
LINE
  5
207
100
AcDbEntity
  8
0
370
    35
390
0
 62
     7
 48
0.012509
100
AcDbLine
 10
98.164536
 20
192.317688
 30
0.0
 11
98.164536
 21
191.817322
 31
0.0
210
0.0
220
0.0
230
1.0
  0
LINE
  5
208
100
AcDbEntity
  8
0
370
    35
390
0
 62
     7
 48
0.012511
100
AcDbLine
 10
97.664536
 20
192.337463
 30
0.0
 11
97.664536
 21
191.837036
 31
0.0
210
0.0
220
0.0
230
1.0
  0
LINE
  5
209
100
AcDbEntity
  8
0
370
    35
390
0
 62
     7
 48
0.012509
100
AcDbLine
 10
100.664536
 20
192.218994
 30
0.0
 11
100.664536
 21
191.718628
 31
0.0
210
0.0
220
0.0
230
1.0
  0
LINE
  5
20A
100
AcDbEntity
  8
0
370
    35
390
0
 62
     7
 48
0.012509
100
AcDbLine
 10
101.164536
 20
192.19928
 30
0.0
 11
101.164536
 21
191.698914
 31
0.0
210
0.0
220
0.0
230
1.0
  0
LINE
  5
20B
100
AcDbEntity
  8
0
370
    35
390
0
 62
     7
 48
0.012509
100
AcDbLine
 10
102.664536
 20
192.140076
 30
0.0
 11
102.664536
 21
191.639709
 31
0.0
210
0.0
220
0.0
230
1.0
  0
LINE
  5
20C
100
AcDbEntity
  8
0
370
    35
390
0
 62
     7
 48
0.012509
100
AcDbLine
 10
102.164536
 20
192.15979
 30
0.0
 11
102.164536
 21
191.659424
 31
0.0
210
0.0
220
0.0
230
1.0
  0
LINE
  5
20D
100
AcDbEntity
  8
0
370
    35
390
0
 62
     7
 48
0.01251
100
AcDbLine
 10
90.164536
 20
183.851013
 30
0.0
 11
90.664536
 21
183.870728
 31
0.0
210
0.0
220
0.0
230
1.0
  0
LINE
  5
20E
100
AcDbEntity
  8
0
370
    35
390
0
 62
     7
 48
0.01251
100
AcDbLine
 10
90.164536
 20
192.133118
 30
0.0
 11
90.664536
 21
192.113342
 31
0.0
210
0.0
220
0.0
230
1.0
  0
LINE
  5
20F
100
AcDbEntity
  8
0
370
    35
390
0
 62
     7
 48
0.219563
100
AcDbLine
 10
90.164536
 20
192.133118
 30
0.0
 11
90.164536
 21
183.350586
 31
0.0
210
0.0
220
0.0
230
1.0
  0
LINE
  5
210
100
AcDbEntity
  8
0
370
    35
390
0
 62
     7
 48
0.218575
100
AcDbLine
 10
90.664536
 20
192.113342
 30
0.0
 11
90.664536
 21
183.370361
 31
0.0
210
0.0
220
0.0
230
1.0
  0
LINE
  5
211
100
AcDbEntity
  8
0
370
    35
390
0
 62
     7
 48
0.216603
100
AcDbLine
 10
91.664536
 20
192.073914
 30
0.0
 11
91.664536
 21
183.40979
 31
0.0
210
0.0
220
0.0
230
1.0
  0
LINE
  5
212
100
AcDbEntity
  8
0
370
    35
390
0
 62
     7
 48
0.215614
100
AcDbLine
 10
92.164536
 20
192.054138
 30
0.0
 11
92.164536
 21
183.429565
 31
0.0
210
0.0
220
0.0
230
1.0
  0
LINE
  5
213
100
AcDbEntity
  8
0
370
    35
390
0
 62
     7
 48
0.213643
100
AcDbLine
 10
93.164536
 20
192.014709
 30
0.0
 11
93.164536
 21
183.468994
 31
0.0
210
0.0
220
0.0
230
1.0
  0
LINE
  5
214
100
AcDbEntity
  8
0
370
    35
390
0
 62
     7
 48
0.212654
100
AcDbLine
 10
93.664536
 20
191.994934
 30
0.0
 11
93.664536
 21
183.48877
 31
0.0
210
0.0
220
0.0
230
1.0
  0
LINE
  5
215
100
AcDbEntity
  8
0
370
    35
390
0
 62
     7
 48
0.21068
100
AcDbLine
 10
94.664536
 20
191.955444
 30
0.0
 11
94.664536
 21
183.528259
 31
0.0
210
0.0
220
0.0
230
1.0
  0
LINE
  5
216
100
AcDbEntity
  8
0
370
    35
390
0
 62
     7
 48
0.209694
100
AcDbLine
 10
95.164536
 20
191.93573
 30
0.0
 11
95.164536
 21
183.547974
 31
0.0
210
0.0
220
0.0
230
1.0
  0
LINE
  5
217
100
AcDbEntity
  8
0
370
    35
390
0
 62
     7
 48
0.207719
100
AcDbLine
 10
96.164536
 20
191.89624
 30
0.0
 11
96.164536
 21
183.587463
 31
0.0
210
0.0
220
0.0
230
1.0
  0
LINE
  5
218
100
AcDbEntity
  8
0
370
    35
390
0
 62
     7
 48
0.206734
100
AcDbLine
 10
96.664536
 20
191.876526
 30
0.0
 11
96.664536
 21
183.607178
 31
0.0
210
0.0
220
0.0
230
1.0
  0
LINE
  5
219
100
AcDbEntity
  8
0
370
    35
390
0
 62
     7
 48
0.204759
100
AcDbLine
 10
97.664536
 20
191.837036
 30
0.0
 11
97.664536
 21
183.646667
 31
0.0
210
0.0
220
0.0
230
1.0
  0
LINE
  5
21A
100
AcDbEntity
  8
0
370
    35
390
0
 62
     7
 48
0.203773
100
AcDbLine
 10
98.164536
 20
191.817322
 30
0.0
 11
98.164536
 21
183.666382
 31
0.0
210
0.0
220
0.0
230
1.0
  0
LINE
  5
21B
100
AcDbEntity
  8
0
370
    35
390
0
 62
     7
 48
0.198839
100
AcDbLine
 10
100.664536
 20
191.718628
 30
0.0
 11
100.664536
 21
183.765076
 31
0.0
210
0.0
220
0.0
230
1.0
  0
LINE
  5
21C
100
AcDbEntity
  8
0
370
    35
390
0
 62
     7
 48
0.197853
100
AcDbLine
 10
101.164536
 20
191.698914
 30
0.0
 11
101.164536
 21
183.78479
 31
0.0
210
0.0
220
0.0
230
1.0
  0
LINE
  5
21D
100
AcDbEntity
  8
0
370
    35
390
0
 62
     7
 48
0.195879
100
AcDbLine
 10
102.164536
 20
191.659424
 30
0.0
 11
102.164536
 21
183.82428
 31
0.0
210
0.0
220
0.0
230
1.0
  0
LINE
  5
21E
100
AcDbEntity
  8
0
370
    35
390
0
 62
     7
 48
0.194893
100
AcDbLine
 10
102.664536
 20
191.639709
 30
0.0
 11
102.664536
 21
183.843994
 31
0.0
210
0.0
220
0.0
230
1.0
  0
LINE
  5
21F
100
AcDbEntity
  8
0
370
    35
390
0
 62
     7
 48
0.01251
100
AcDbLine
 10
91.664536
 20
183.910217
 30
0.0
 11
92.164536
 21
183.929932
 31
0.0
210
0.0
220
0.0
230
1.0
  0
LINE
  5
220
100
AcDbEntity
  8
0
370
    35
390
0
 62
     7
 48
0.01251
100
AcDbLine
 10
93.164536
 20
183.969421
 30
0.0
 11
93.664536
 21
183.989136
 31
0.0
210
0.0
220
0.0
230
1.0
  0
LINE
  5
221
100
AcDbEntity
  8
0
370
    35
390
0
 62
     7
 48
0.01251
100
AcDbLine
 10
94.664536
 20
184.028625
 30
0.0
 11
95.164536
 21
184.04834
 31
0.0
210
0.0
220
0.0
230
1.0
  0
LINE
  5
222
100
AcDbEntity
  8
0
370
    35
390
0
 62
     7
 48
0.01251
100
AcDbLine
 10
96.164536
 20
184.08783
 30
0.0
 11
96.664536
 21
184.107544
 31
0.0
210
0.0
220
0.0
230
1.0
  0
LINE
  5
223
100
AcDbEntity
  8
0
370
    35
390
0
 62
     7
 48
0.01251
100
AcDbLine
 10
97.664536
 20
184.147034
 30
0.0
 11
98.164536
 21
184.166748
 31
0.0
210
0.0
220
0.0
230
1.0
  0
LINE
  5
224
100
AcDbEntity
  8
0
370
    35
390
0
 62
     7
 48
0.01251
100
AcDbLine
 10
100.664536
 20
184.265442
 30
0.0
 11
101.164536
 21
184.285217
 31
0.0
210
0.0
220
0.0
230
1.0
  0
LINE
  5
225
100
AcDbEntity
  8
0
370
    35
390
0
 62
     7
 48
0.01251
100
AcDbLine
 10
102.164536
 20
184.324646
 30
0.0
 11
102.664536
 21
184.344421
 31
0.0
210
0.0
220
0.0
230
1.0
  0
LINE
  5
226
100
AcDbEntity
  8
0
370
    35
390
0
 62
     7
 48
0.01251
100
AcDbLine
 10
102.164536
 20
191.659424
 30
0.0
 11
102.664536
 21
191.639709
 31
0.0
210
0.0
220
0.0
230
1.0
  0
LINE
  5
227
100
AcDbEntity
  8
0
370
    35
390
0
 62
     7
 48
0.01251
100
AcDbLine
 10
100.664536
 20
191.718628
 30
0.0
 11
101.164536
 21
191.698914
 31
0.0
210
0.0
220
0.0
230
1.0
  0
LINE
  5
228
100
AcDbEntity
  8
0
370
    35
390
0
 62
     7
 48
0.01251
100
AcDbLine
 10
97.664536
 20
191.837036
 30
0.0
 11
98.164536
 21
191.817322
 31
0.0
210
0.0
220
0.0
230
1.0
  0
LINE
  5
229
100
AcDbEntity
  8
0
370
    35
390
0
 62
     7
 48
0.01251
100
AcDbLine
 10
96.164536
 20
191.89624
 30
0.0
 11
96.664536
 21
191.876526
 31
0.0
210
0.0
220
0.0
230
1.0
  0
LINE
  5
22A
100
AcDbEntity
  8
0
370
    35
390
0
 62
     7
 48
0.01251
100
AcDbLine
 10
94.664536
 20
191.955444
 30
0.0
 11
95.164536
 21
191.93573
 31
0.0
210
0.0
220
0.0
230
1.0
  0
LINE
  5
22B
100
AcDbEntity
  8
0
370
    35
390
0
 62
     7
 48
0.01251
100
AcDbLine
 10
93.164536
 20
192.014709
 30
0.0
 11
93.664536
 21
191.994934
 31
0.0
210
0.0
220
0.0
230
1.0
  0
LINE
  5
22C
100
AcDbEntity
  8
0
370
    35
390
0
 62
     7
 48
0.01251
100
AcDbLine
 10
91.664536
 20
192.073914
 30
0.0
 11
92.164536
 21
192.054138
 31
0.0
210
0.0
220
0.0
230
1.0
  0
LINE
  5
22D
100
AcDbEntity
  8
0
370
    35
390
0
 62
     7
 48
0.025019
100
AcDbLine
 10
90.664536
 20
183.370361
 30
0.0
 11
91.664536
 21
183.40979
 31
0.0
210
0.0
220
0.0
230
1.0
  0
LINE
  5
22E
100
AcDbEntity
  8
0
370
    35
390
0
 62
     7
 48
0.025019
100
AcDbLine
 10
92.164536
 20
183.429565
 30
0.0
 11
93.164536
 21
183.468994
 31
0.0
210
0.0
220
0.0
230
1.0
  0
LINE
  5
22F
100
AcDbEntity
  8
0
370
    35
390
0
 62
     7
 48
0.025019
100
AcDbLine
 10
93.664536
 20
183.48877
 30
0.0
 11
94.664536
 21
183.528259
 31
0.0
210
0.0
220
0.0
230
1.0
  0
LINE
  5
230
100
AcDbEntity
  8
0
370
    35
390
0
 62
     7
 48
0.025019
100
AcDbLine
 10
95.164536
 20
183.547974
 30
0.0
 11
96.164536
 21
183.587463
 31
0.0
210
0.0
220
0.0
230
1.0
  0
LINE
  5
231
100
AcDbEntity
  8
0
370
    35
390
0
 62
     7
 48
0.025019
100
AcDbLine
 10
96.664536
 20
183.607178
 30
0.0
 11
97.664536
 21
183.646667
 31
0.0
210
0.0
220
0.0
230
1.0
  0
LINE
  5
232
100
AcDbEntity
  8
0
370
    35
390
0
 62
     7
 48
0.062549
100
AcDbLine
 10
98.164536
 20
183.666382
 30
0.0
 11
100.664536
 21
183.765076
 31
0.0
210
0.0
220
0.0
230
1.0
  0
LINE
  5
233
100
AcDbEntity
  8
0
370
    35
390
0
 62
     7
 48
0.025019
100
AcDbLine
 10
101.164536
 20
183.78479
 30
0.0
 11
102.164536
 21
183.82428
 31
0.0
210
0.0
220
0.0
230
1.0
  0
LINE
  5
234
100
AcDbEntity
  8
0
370
    35
390
0
 62
     7
 48
0.093823
100
AcDbLine
 10
102.664536
 20
183.843994
 30
0.0
 11
106.414536
 21
183.992065
 31
0.0
210
0.0
220
0.0
230
1.0
  0
LINE
  5
235
100
AcDbEntity
  8
0
370
    35
390
0
 62
     7
 48
0.093823
100
AcDbLine
 10
102.664536
 20
192.140076
 30
0.0
 11
106.414536
 21
191.992065
 31
0.0
210
0.0
220
0.0
230
1.0
  0
LINE
  5
236
100
AcDbEntity
  8
0
370
    35
390
0
 62
     7
 48
0.025019
100
AcDbLine
 10
101.164536
 20
192.19928
 30
0.0
 11
102.164536
 21
192.15979
 31
0.0
210
0.0
220
0.0
230
1.0
  0
LINE
  5
237
100
AcDbEntity
  8
0
370
    35
390
0
 62
     7
 48
0.062549
100
AcDbLine
 10
98.164536
 20
192.317688
 30
0.0
 11
100.664536
 21
192.218994
 31
0.0
210
0.0
220
0.0
230
1.0
  0
LINE
  5
238
100
AcDbEntity
  8
0
370
    35
390
0
 62
     7
 48
0.025019
100
AcDbLine
 10
96.664536
 20
192.376892
 30
0.0
 11
97.664536
 21
192.337463
 31
0.0
210
0.0
220
0.0
230
1.0
  0
LINE
  5
239
100
AcDbEntity
  8
0
370
    35
390
0
 62
     7
 48
0.025019
100
AcDbLine
 10
95.164536
 20
192.436096
 30
0.0
 11
96.164536
 21
192.396667
 31
0.0
210
0.0
220
0.0
230
1.0
  0
LINE
  5
23A
100
AcDbEntity
  8
0
370
    35
390
0
 62
     7
 48
0.025019
100
AcDbLine
 10
93.664536
 20
192.495361
 30
0.0
 11
94.664536
 21
192.455872
 31
0.0
210
0.0
220
0.0
230
1.0
  0
LINE
  5
23B
100
AcDbEntity
  8
0
370
    35
390
0
 62
     7
 48
0.025019
100
AcDbLine
 10
92.164536
 20
192.554565
 30
0.0
 11
93.164536
 21
192.515076
 31
0.0
210
0.0
220
0.0
230
1.0
  0
LINE
  5
23C
100
AcDbEntity
  8
0
370
    35
390
0
 62
     7
 48
0.025019
100
AcDbLine
 10
90.664536
 20
192.61377
 30
0.0
 11
91.664536
 21
192.57428
 31
0.0
210
0.0
220
0.0
230
1.0
  0
LINE
  5
23D
100
AcDbEntity
  8
0
370
    35
390
0
 62
     7
100
AcDbLine
 10
61.914536
 20
198.992065
 30
0.0
 11
84.414536
 21
198.992065
 31
0.0
210
0.0
220
0.0
230
1.0
  0
LINE
  5
23E
100
AcDbEntity
  8
0
370
    35
390
0
 62
     7
100
AcDbLine
 10
61.914536
 20
176.992065
 30
0.0
 11
84.414536
 21
176.992065
 31
0.0
210
0.0
220
0.0
230
1.0
  0
LINE
  5
23F
100
AcDbEntity
  8
0
370
    35
390
0
 62
     7
100
AcDbLine
 10
36.914536
 20
198.992065
 30
0.0
 11
36.914536
 21
174.492065
 31
0.0
210
0.0
220
0.0
230
1.0
  0
LINE
  5
240
100
AcDbEntity
  8
0
370
    35
390
0
 62
     7
100
AcDbLine
 10
37.414536
 20
173.992065
 30
0.0
 11
61.414536
 21
173.992065
 31
0.0
210
0.0
220
0.0
230
1.0
  0
LINE
  5
241
100
AcDbEntity
  8
0
370
    35
390
0
 62
     7
100
AcDbLine
 10
37.414536
 20
199.492065
 30
0.0
 11
61.414536
 21
199.492065
 31
0.0
210
0.0
220
0.0
230
1.0
  0
LINE
  5
242
100
AcDbEntity
  8
0
370
    35
390
0
 62
     7
100
AcDbLine
 10
84.914536
 20
198.492065
 30
0.0
 11
84.914536
 21
177.492065
 31
0.0
210
0.0
220
0.0
230
1.0
  0
LINE
  5
243
100
AcDbEntity
  8
0
370
    35
390
0
 62
     7
 48
0.0625
100
AcDbLine
 10
61.914536
 20
176.992065
 30
0.0
 11
61.914536
 21
174.492065
 31
0.0
210
0.0
220
0.0
230
1.0
  0
LINE
  5
244
100
AcDbEntity
  8
0
370
    35
390
0
 62
     7
 48
0.425
100
AcDbLine
 10
86.414536
 20
196.492065
 30
0.0
 11
86.414536
 21
179.492065
 31
0.0
210
0.0
220
0.0
230
1.0
  0
LINE
  5
245
100
AcDbEntity
  8
0
370
    35
390
0
 62
     7
 48
0.04005
100
AcDbLine
 10
86.414536
 20
179.492065
 30
0.0
 11
84.914536
 21
178.929565
 31
0.0
210
0.0
220
0.0
230
1.0
  0
LINE
  5
246
100
AcDbEntity
  8
0
370
    35
390
0
 62
     7
 48
0.04005
100
AcDbLine
 10
86.414536
 20
196.492065
 30
0.0
 11
84.914536
 21
197.054565
 31
0.0
210
0.0
220
0.0
230
1.0
  0
LINE
  5
247
100
AcDbEntity
  8
0
370
    35
390
0
 62
     7
 48
0.010607
100
AcDbLine
 10
37.414536
 20
199.941956
 30
0.0
 11
37.714523
 21
200.242004
 31
0.0
210
0.0
220
0.0
230
1.0
  0
LINE
  5
248
100
AcDbEntity
  8
0
370
    35
390
0
 62
     7
 48
0.010608
100
AcDbLine
 10
61.414383
 20
199.942017
 30
0.0
 11
61.114334
 21
200.242065
 31
0.0
210
0.0
220
0.0
230
1.0
  0
LINE
  5
249
100
AcDbEntity
  8
0
370
    35
390
0
 62
     7
 48
0.011249
100
AcDbLine
 10
37.414536
 20
199.492065
 30
0.0
 11
37.414536
 21
199.942017
 31
0.0
210
0.0
220
0.0
230
1.0
  0
LINE
  5
24A
100
AcDbEntity
  8
0
370
    35
390
0
 62
     7
 48
0.011249
100
AcDbLine
 10
61.414536
 20
199.492065
 30
0.0
 11
61.414536
 21
199.942017
 31
0.0
210
0.0
220
0.0
230
1.0
  0
LINE
  5
24B
100
AcDbEntity
  8
0
370
    35
390
0
 62
     7
100
AcDbLine
 10
37.71434
 20
200.242065
 30
0.0
 11
61.114487
 21
200.242065
 31
0.0
210
0.0
220
0.0
230
1.0
  0
LINE
  5
24C
100
AcDbEntity
  8
0
370
    35
390
0
 62
     7
100
AcDbLine
 10
37.414536
 20
199.942017
 30
0.0
 11
61.414536
 21
199.942017
 31
0.0
210
0.0
220
0.0
230
1.0
  0
ARC
  5
24D
100
AcDbEntity
  8
0
370
    35
390
0
 62
     7
100
AcDbCircle
 10
118.187241
 20
189.442017
 30
0.0
 40
1.476042
210
0.0
220
0.0
230
1.0
100
AcDbArc
 50
280.778828
 51
79.221179
  0
ARC
  5
24E
100
AcDbEntity
  8
0
370
    35
390
0
 62
     7
100
AcDbCircle
 10
118.739334
 20
186.542053
 30
0.0
 40
1.476042
210
0.0
220
0.0
230
1.0
100
AcDbArc
 50
100.77884
 51
259.221139
  0
ARC
  5
24F
100
AcDbEntity
  8
0
370
    35
390
0
 62
     7
100
AcDbCircle
 10
118.187241
 20
186.542053
 30
0.0
 40
1.476042
210
0.0
220
0.0
230
1.0
100
AcDbArc
 50
280.778828
 51
79.221179
  0
ARC
  5
250
100
AcDbEntity
  8
0
370
    35
390
0
 62
     7
100
AcDbCircle
 10
275.506287
 20
189.442017
 30
0.0
 40
1.476042
210
0.0
220
0.0
230
1.0
100
AcDbArc
 50
280.778828
 51
79.221144
  0
ARC
  5
251
100
AcDbEntity
  8
0
370
    35
390
0
 62
     7
100
AcDbCircle
 10
276.058411
 20
189.442017
 30
0.0
 40
1.476042
210
0.0
220
0.0
230
1.0
100
AcDbArc
 50
100.77882
 51
259.221167
  0
ARC
  5
252
100
AcDbEntity
  8
0
370
    35
390
0
 62
     7
100
AcDbCircle
 10
276.058411
 20
186.542053
 30
0.0
 40
1.476042
210
0.0
220
0.0
230
1.0
100
AcDbArc
 50
100.77882
 51
259.221167
  0
ARC
  5
253
100
AcDbEntity
  8
0
370
    35
390
0
 62
     7
100
AcDbCircle
 10
270.495544
 20
186.542053
 30
0.0
 40
1.476042
210
0.0
220
0.0
230
1.0
100
AcDbArc
 50
280.778828
 51
79.221179
  0
ARC
  5
254
100
AcDbEntity
  8
0
370
    35
390
0
 62
     7
100
AcDbCircle
 10
271.047607
 20
186.542053
 30
0.0
 40
1.476042
210
0.0
220
0.0
230
1.0
100
AcDbArc
 50
100.77884
 51
259.221139
  0
ARC
  5
255
100
AcDbEntity
  8
0
370
    35
390
0
 62
     7
100
AcDbCircle
 10
335.416931
 20
192.89209
 30
0.0
 40
1.0
210
0.0
220
0.0
230
1.0
100
AcDbArc
 50
5.73902
 51
174.260966
  0
ARC
  5
256
100
AcDbEntity
  8
0
370
    35
390
0
 62
     7
100
AcDbCircle
 10
335.416931
 20
183.092102
 30
0.0
 40
1.0
210
0.0
220
0.0
230
1.0
100
AcDbArc
 50
185.739048
 51
354.260985
  0
CIRCLE
  5
257
100
AcDbEntity
  8
0
370
    35
390
0
 62
     7
100
AcDbCircle
 10
252.122818
 20
179.297058
 30
0.0
 40
2.1
210
0.0
220
0.0
230
1.0
  0
CIRCLE
  5
258
100
AcDbEntity
  8
0
370
    35
390
0
 62
     7
100
AcDbCircle
 10
142.122818
 20
196.687073
 30
0.0
 40
2.1
210
0.0
220
0.0
230
1.0
  0
ARC
  5
259
100
AcDbEntity
  8
0
370
    35
390
0
 62
     7
100
AcDbCircle
 10
123.750107
 20
186.542053
 30
0.0
 40
1.476042
210
0.0
220
0.0
230
1.0
100
AcDbArc
 50
100.77882
 51
259.221167
  0
ARC
  5
25A
100
AcDbEntity
  8
0
370
    35
390
0
 62
     7
100
AcDbCircle
 10
123.750107
 20
189.442017
 30
0.0
 40
1.476042
210
0.0
220
0.0
230
1.0
100
AcDbArc
 50
100.77882
 51
259.221167
  0
ARC
  5
25B
100
AcDbEntity
  8
0
370
    35
390
0
 62
     7
100
AcDbCircle
 10
123.198013
 20
189.442017
 30
0.0
 40
1.476042
210
0.0
220
0.0
230
1.0
100
AcDbArc
 50
280.778828
 51
79.221144
  0
ARC
  5
25C
100
AcDbEntity
  8
0
370
    35
390
0
 62
     7
100
AcDbCircle
 10
139.622818
 20
199.187073
 30
0.0
 40
2.0
210
0.0
220
0.0
230
1.0
100
AcDbArc
 50
90.000003
 51
180.000009
  0
ARC
  5
25D
100
AcDbEntity
  8
0
370
    35
390
0
 62
     7
100
AcDbCircle
 10
270.495544
 20
189.442017
 30
0.0
 40
1.476042
210
0.0
220
0.0
230
1.0
100
AcDbArc
 50
280.778828
 51
79.221179
  0
ARC
  5
25E
100
AcDbEntity
  8
0
370
    35
390
0
 62
     7
100
AcDbCircle
 10
254.622818
 20
176.797058
 30
0.0
 40
2.0
210
0.0
220
0.0
230
1.0
100
AcDbArc
 50
269.999997
 51
360.0
  0
ARC
  5
25F
100
AcDbEntity
  8
0
370
    35
390
0
 62
     7
100
AcDbCircle
 10
254.622818
 20
181.692017
 30
0.0
 40
2.0
210
0.0
220
0.0
230
1.0
100
AcDbArc
 50
0.0
 51
90.000003
  0
ARC
  5
260
100
AcDbEntity
  8
0
370
    35
390
0
 62
     7
100
AcDbCircle
 10
139.622818
 20
194.292053
 30
0.0
 40
2.0
210
0.0
220
0.0
230
1.0
100
AcDbArc
 50
180.000009
 51
269.999997
  0
ARC
  5
261
100
AcDbEntity
  8
0
370
    35
390
0
 62
     7
100
AcDbCircle
 10
275.506287
 20
129.442047
 30
0.0
 40
1.476042
210
0.0
220
0.0
230
1.0
100
AcDbArc
 50
280.778828
 51
79.221144
  0
ARC
  5
262
100
AcDbEntity
  8
0
370
    35
390
0
 62
     7
100
AcDbCircle
 10
276.058411
 20
129.442047
 30
0.0
 40
1.476042
210
0.0
220
0.0
230
1.0
100
AcDbArc
 50
100.77882
 51
259.221167
  0
ARC
  5
263
100
AcDbEntity
  8
0
370
    35
390
0
 62
     7
100
AcDbCircle
 10
276.058411
 20
126.542053
 30
0.0
 40
1.476042
210
0.0
220
0.0
230
1.0
100
AcDbArc
 50
100.77882
 51
259.221167
  0
ARC
  5
264
100
AcDbEntity
  8
0
370
    35
390
0
 62
     7
100
AcDbCircle
 10
270.495544
 20
126.542053
 30
0.0
 40
1.476042
210
0.0
220
0.0
230
1.0
100
AcDbArc
 50
280.778828
 51
79.221179
  0
ARC
  5
265
100
AcDbEntity
  8
0
370
    35
390
0
 62
     7
100
AcDbCircle
 10
271.047607
 20
126.542053
 30
0.0
 40
1.476042
210
0.0
220
0.0
230
1.0
100
AcDbArc
 50
100.77884
 51
259.221139
  0
ARC
  5
266
100
AcDbEntity
  8
0
370
    35
390
0
 62
     7
100
AcDbCircle
 10
313.416931
 20
127.992035
 30
0.0
 40
1.0
210
0.0
220
0.0
230
1.0
100
AcDbArc
 50
269.999997
 51
90.000003
  0
CIRCLE
  5
267
100
AcDbEntity
  8
0
370
    35
390
0
 62
     7
100
AcDbCircle
 10
335.416931
 20
127.992035
 30
0.0
 40
1.0
210
0.0
220
0.0
230
1.0
  0
ARC
  5
268
100
AcDbEntity
  8
0
370
    35
390
0
 62
     7
100
AcDbCircle
 10
123.750107
 20
126.542053
 30
0.0
 40
1.476042
210
0.0
220
0.0
230
1.0
100
AcDbArc
 50
100.77882
 51
259.221167
  0
ARC
  5
269
100
AcDbEntity
  8
0
370
    35
390
0
 62
     7
100
AcDbCircle
 10
123.750107
 20
129.442047
 30
0.0
 40
1.476042
210
0.0
220
0.0
230
1.0
100
AcDbArc
 50
100.77882
 51
259.221167
  0
ARC
  5
26A
100
AcDbEntity
  8
0
370
    35
390
0
 62
     7
100
AcDbCircle
 10
123.198013
 20
129.442047
 30
0.0
 40
1.476042
210
0.0
220
0.0
230
1.0
100
AcDbArc
 50
280.778828
 51
79.221144
  0
ARC
  5
26B
100
AcDbEntity
  8
0
370
    35
390
0
 62
     7
100
AcDbCircle
 10
270.495544
 20
129.442047
 30
0.0
 40
1.476042
210
0.0
220
0.0
230
1.0
100
AcDbArc
 50
280.778828
 51
79.221179
  0
CIRCLE
  5
26C
100
AcDbEntity
  8
0
370
    35
390
0
 62
     7
100
AcDbCircle
 10
234.622818
 20
123.592041
 30
0.0
 40
1.95
210
0.0
220
0.0
230
1.0
  0
ARC
  5
26D
100
AcDbEntity
  8
0
370
    35
390
0
 62
     7
100
AcDbCircle
 10
246.8228
 20
133.992035
 30
0.0
 40
0.8
210
0.0
220
0.0
230
1.0
100
AcDbArc
 50
0.0
 51
90.000003
  0
CIRCLE
  5
26E
100
AcDbEntity
  8
0
370
    35
390
0
 62
     7
100
AcDbCircle
 10
158.622818
 20
123.592041
 30
0.0
 40
1.95
210
0.0
220
0.0
230
1.0
  0
ARC
  5
26F
100
AcDbEntity
  8
0
370
    35
390
0
 62
     7
100
AcDbCircle
 10
147.422821
 20
133.992035
 30
0.0
 40
0.8
210
0.0
220
0.0
230
1.0
100
AcDbArc
 50
90.000003
 51
180.000009
  0
ARC
  5
270
100
AcDbEntity
  8
0
370
    35
390
0
 62
     7
100
AcDbCircle
 10
146.622818
 20
120.792053
 30
0.0
 40
0.8
210
0.0
220
0.0
230
1.0
100
AcDbArc
 50
269.999997
 51
360.0
  0
ARC
  5
271
100
AcDbEntity
  8
0
370
    35
390
0
 62
     7
100
AcDbCircle
 10
245.722824
 20
120.592041
 30
0.0
 40
1.0
210
0.0
220
0.0
230
1.0
100
AcDbArc
 50
269.999997
 51
360.0
  0
ARC
  5
272
100
AcDbEntity
  8
0
370
    35
390
0
 62
     7
100
AcDbCircle
 10
148.522812
 20
120.592041
 30
0.0
 40
1.0
210
0.0
220
0.0
230
1.0
100
AcDbArc
 50
180.000009
 51
269.999997
  0
CIRCLE
  5
273
100
AcDbEntity
  8
0
370
    35
390
0
 62
     7
100
AcDbCircle
 10
158.622818
 20
123.592041
 30
0.0
 40
2.0
210
0.0
220
0.0
230
1.0
  0
ARC
  5
274
100
AcDbEntity
  8
0
370
    35
390
0
 62
     7
100
AcDbCircle
 10
159.471344
 20
123.592041
 30
0.0
 40
0.4
210
0.0
220
0.0
230
1.0
100
AcDbArc
 50
135.0
 51
224.999986
  0
ARC
  5
275
100
AcDbEntity
  8
0
370
    35
390
0
 62
     7
100
AcDbCircle
 10
158.622818
 20
124.440582
 30
0.0
 40
0.4
210
0.0
220
0.0
230
1.0
100
AcDbArc
 50
225.0
 51
314.999992
  0
ARC
  5
276
100
AcDbEntity
  8
0
370
    35
390
0
 62
     7
100
AcDbCircle
 10
157.774292
 20
123.592041
 30
0.0
 40
0.4
210
0.0
220
0.0
230
1.0
100
AcDbArc
 50
314.999992
 51
44.999998
  0
ARC
  5
277
100
AcDbEntity
  8
0
370
    35
390
0
 62
     7
100
AcDbCircle
 10
158.622818
 20
122.74353
 30
0.0
 40
0.4
210
0.0
220
0.0
230
1.0
100
AcDbArc
 50
45.000001
 51
135.0
  0
CIRCLE
  5
278
100
AcDbEntity
  8
0
370
    35
390
0
 62
     7
100
AcDbCircle
 10
234.622818
 20
123.592041
 30
0.0
 40
2.0
210
0.0
220
0.0
230
1.0
  0
ARC
  5
279
100
AcDbEntity
  8
0
370
    35
390
0
 62
     7
100
AcDbCircle
 10
235.471359
 20
123.592041
 30
0.0
 40
0.4
210
0.0
220
0.0
230
1.0
100
AcDbArc
 50
135.0
 51
224.999986
  0
ARC
  5
27A
100
AcDbEntity
  8
0
370
    35
390
0
 62
     7
100
AcDbCircle
 10
234.622818
 20
124.440582
 30
0.0
 40
0.4
210
0.0
220
0.0
230
1.0
100
AcDbArc
 50
225.0
 51
314.999992
  0
ARC
  5
27B
100
AcDbEntity
  8
0
370
    35
390
0
 62
     7
100
AcDbCircle
 10
233.774277
 20
123.592041
 30
0.0
 40
0.4
210
0.0
220
0.0
230
1.0
100
AcDbArc
 50
314.999992
 51
44.999998
  0
ARC
  5
27C
100
AcDbEntity
  8
0
370
    35
390
0
 62
     7
100
AcDbCircle
 10
234.622818
 20
122.74353
 30
0.0
 40
0.4
210
0.0
220
0.0
230
1.0
100
AcDbArc
 50
45.000001
 51
135.0
  0
ARC
  5
27D
100
AcDbEntity
  8
0
370
    35
390
0
 62
     7
100
AcDbCircle
 10
49.414536
 20
98.962036
 30
0.0
 40
1.22
210
0.0
220
0.0
230
1.0
100
AcDbArc
 50
190.388849
 51
349.611155
  0
ARC
  5
27E
100
AcDbEntity
  8
0
370
    35
390
0
 62
     7
100
AcDbCircle
 10
37.414536
 20
174.492065
 30
0.0
 40
0.5
210
0.0
220
0.0
230
1.0
100
AcDbArc
 50
180.000009
 51
269.999997
  0
ARC
  5
27F
100
AcDbEntity
  8
0
370
    35
390
0
 62
     7
100
AcDbCircle
 10
61.414536
 20
174.492065
 30
0.0
 40
0.5
210
0.0
220
0.0
230
1.0
100
AcDbArc
 50
269.999997
 51
360.0
  0
ARC
  5
280
100
AcDbEntity
  8
0
370
    35
390
0
 62
     7
100
AcDbCircle
 10
37.414536
 20
198.992065
 30
0.0
 40
0.5
210
0.0
220
0.0
230
1.0
100
AcDbArc
 50
90.000003
 51
180.000009
  0
ARC
  5
281
100
AcDbEntity
  8
0
370
    35
390
0
 62
     7
100
AcDbCircle
 10
61.414536
 20
198.992065
 30
0.0
 40
0.5
210
0.0
220
0.0
230
1.0
100
AcDbArc
 50
0.0
 51
90.000003
  0
ARC
  5
282
100
AcDbEntity
  8
0
370
    35
390
0
 62
     7
100
AcDbCircle
 10
84.414536
 20
198.492065
 30
0.0
 40
0.5
210
0.0
220
0.0
230
1.0
100
AcDbArc
 50
0.0
 51
90.000003
  0
ARC
  5
283
100
AcDbEntity
  8
0
370
    35
390
0
 62
     7
100
AcDbCircle
 10
84.414536
 20
177.492065
 30
0.0
 40
0.5
210
0.0
220
0.0
230
1.0
100
AcDbArc
 50
269.999997
 51
360.0
  0
ARC
  5
284
100
AcDbEntity
  8
0
370
    35
390
0
 62
     7
100
AcDbCircle
 10
61.914536
 20
178.992065
 30
0.0
 40
2.0
210
0.0
220
0.0
230
1.0
100
AcDbArc
 50
214.783662
 51
269.999997
  0
ARC
  5
285
100
AcDbEntity
  8
0
370
    35
390
0
 62
     7
100
AcDbCircle
 10
61.914536
 20
196.992065
 30
0.0
 40
2.0
210
0.0
220
0.0
230
1.0
100
AcDbArc
 50
90.000003
 51
155.813527
  0
ENDSEC
  0
SECTION
  2
OBJECTS
  0
DICTIONARY
  5
19
100
AcDbDictionary
280
     0
281
     1
  3
ACAD_GROUP
350
1A
  3
ACAD_MLINESTYLE
350
1B
  3
ACAD_LAYOUT
350
1E
  3
ACAD_PLOTSETTINGS
350
22
  3
ACAD_PLOTSTYLENAME
350
1F
  3
ACAD_WIPEOUT_VARS
350
23
  0
DICTIONARY
  5
1A
102
{ACAD_REACTORS
330
19
102
}
100
AcDbDictionary
280
     0
281
     1
  0
DICTIONARY
  5
1B
102
{ACAD_REACTORS
330
19
102
}
100
AcDbDictionary
280
     0
281
     1
  3
Standard
350
1C
  0
MLINESTYLE
  5
1C
102
{ACAD_REACTORS
330
1B
102
}
100
AcDbMlineStyle
  2
Standard
 70
     0
  3

 62
     0
 51
90.0
 52
90.0
 71
     2
 49
0.5
 62
   256
  6
ByLayer
 49
-0.5
 62
   256
  6
ByLayer
  0
ACDBDICTIONARYWDFLT
  5
1F
102
{ACAD_REACTORS
330
19
102
}
100
AcDbDictionary
281
     1
  3
Normal
350
1D
100
AcDbDictionaryWithDefault
340
1D
  0
ACDBPLACEHOLDER
  5
1D
102
{ACAD_REACTORS
330
1F
102
}
  0
LAYOUT
  5
20
102
{ACAD_REACTORS
330
1E
102
}
100
AcDbPlotSettings
  1

  2

  4

  6

 40
0.0
 41
0.0
 42
0.0
 43
0.0
 44
0.0
 45
0.0
 46
0.0
 47
0.0
 48
0.0
 49
0.0
140
0.0
141
0.0
142
1.0
143
1.0
 70
  1024
 72
     0
 73
     0
 74
     0
  7

 75
     0
147
1.0
148
0.0
149
0.0
100
AcDbLayout
  1
Model
 70
     0
 71
     0
 10
0.0
 20
0.0
 11
0.0
 21
0.0
 12
0.0
 22
0.0
 32
0.0
 14
0.0
 24
0.0
 34
0.0
 15
0.0
 25
0.0
 35
0.0
146
0.0
 13
0.0
 23
0.0
 33
0.0
 16
0.0
 26
0.0
 36
0.0
 17
0.0
 27
0.0
 37
0.0
 76
     0
330
A
331
0
345
0
346
0
  0
LAYOUT
  5
21
102
{ACAD_REACTORS
330
1E
102
}
100
AcDbPlotSettings
  1

  2

  4

  6

 40
0.0
 41
0.0
 42
0.0
 43
0.0
 44
0.0
 45
0.0
 46
0.0
 47
0.0
 48
0.0
 49
0.0
140
0.0
141
0.0
142
1.0
143
1.0
 70
     0
 72
     0
 73
     0
 74
     0
  7

 75
     0
147
1.0
148
0.0
149
0.0
100
AcDbLayout
  1
Layout1
 70
     0
 71
     0
 10
0.0
 20
0.0
 11
0.0
 21
0.0
 12
0.0
 22
0.0
 32
0.0
 14
0.0
 24
0.0
 34
0.0
 15
0.0
 25
0.0
 35
0.0
146
0.0
 13
0.0
 23
0.0
 33
0.0
 16
0.0
 26
0.0
 36
0.0
 17
0.0
 27
0.0
 37
0.0
 76
     0
330
B
331
0
345
0
346
0
  0
DICTIONARY
  5
1E
102
{ACAD_REACTORS
330
19
102
}
100
AcDbDictionary
280
     0
281
     1
  3
Layout1
350
21
  3
Model
350
20
  0
DICTIONARY
  5
22
102
{ACAD_REACTORS
330
19
102
}
100
AcDbDictionary
280
     0
281
     1
  0
WIPEOUTVARIABLES
  5
23
100
AcDbWipeoutVariables
 70
     1
  0
ENDSEC
  0
EOF
