  0
SECTION
  2
HEADER
  9
$ACADVER
  1
AC1015
  9
$ACADMAINTVER
 70
     6
  9
$DWGCODEPAGE
  3
ANSI_1252
  9
$INSBASE
 10
0.0
 20
0.0
 30
0.0
  9
$EXTMIN
 10
0.0
 20
0.0
 30
0.0
  9
$EXTMAX
 10
293.267731
 20
175.926788
 30
2.0
  9
$LIMMIN
 10
0.0
 20
0.0
  9
$LIMMAX
 10
420.0
 20
297.0
  9
$ORTHOMODE
 70
     0
  9
$REGENMODE
 70
     1
  9
$FILLMODE
 70
     1
  9
$QTEXTMODE
 70
     0
  9
$MIRRTEXT
 70
     1
  9
$LTSCALE
 40
1.0
  9
$ATTMODE
 70
     1
  9
$TEXTSIZE
 40
2.5
  9
$TRACEWID
 40
1.0
  9
$TEXTSTYLE
  7
Standard
  9
$CLAYER
  8
0
  9
$CELTYPE
  6
ByLayer
  9
$CECOLOR
 62
   256
  9
$CELTSCALE
 40
1.0
  9
$DISPSILH
 70
     0
  9
$DIMSCALE
 40
1.0
  9
$DIMASZ
 40
2.5
  9
$DIMEXO
 40
0.625
  9
$DIMDLI
 40
3.75
  9
$DIMRND
 40
0.0
  9
$DIMDLE
 40
0.0
  9
$DIMEXE
 40
1.25
  9
$DIMTP
 40
0.0
  9
$DIMTM
 40
0.0
  9
$DIMTXT
 40
2.5
  9
$DIMCEN
 40
2.5
  9
$DIMTSZ
 40
0.0
  9
$DIMTOL
 70
     0
  9
$DIMLIM
 70
     0
  9
$DIMTIH
 70
     0
  9
$DIMTOH
 70
     0
  9
$DIMSE1
 70
     0
  9
$DIMSE2
 70
     0
  9
$DIMTAD
 70
     1
  9
$DIMZIN
 70
     8
  9
$DIMBLK
  1

  9
$DIMASO
 70
     1
  9
$DIMSHO
 70
     1
  9
$DIMPOST
  1

  9
$DIMAPOST
  1

  9
$DIMALT
 70
     0
  9
$DIMALTD
 70
     3
  9
$DIMALTF
 40
0.03937
  9
$DIMLFAC
 40
1.0
  9
$DIMTOFL
 70
     1
  9
$DIMTVP
 40
0.0
  9
$DIMTIX
 70
     0
  9
$DIMSOXD
 70
     0
  9
$DIMSAH
 70
     0
  9
$DIMBLK1
  1

  9
$DIMBLK2
  1

  9
$DIMSTYLE
  2

  9
$DIMCLRD
 70
     0
  9
$DIMCLRE
 70
     0
  9
$DIMCLRT
 70
     0
  9
$DIMTFAC
 40
1.0
  9
$DIMGAP
 40
0.625
  9
$DIMJUST
 70
     0
  9
$DIMSD1
 70
     0
  9
$DIMSD2
 70
     0
  9
$DIMTOLJ
 70
     0
  9
$DIMTZIN
 70
     8
  9
$DIMALTZ
 70
     0
  9
$DIMALTTZ
 70
     0
  9
$DIMUPT
 70
     0
  9
$DIMDEC
 70
     2
  9
$DIMTDEC
 70
     2
  9
$DIMALTU
 70
     2
  9
$DIMALTTD
 70
     3
  9
$DIMTXSTY
  7
Standard
  9
$DIMAUNIT
 70
     0
  9
$DIMADEC
 70
     0
  9
$DIMALTRND
 40
0.0
  9
$DIMAZIN
 70
     0
  9
$DIMDSEP
 70
    44
  9
$DIMATFIT
 70
     0
  9
$DIMFRAC
 70
     0
  9
$DIMLDRBLK
  1

  9
$DIMLUNIT
 70
     2
  9
$DIMLWD
 70
    -2
  9
$DIMLWE
 70
    -2
  9
$DIMTMOVE
 70
     0
  9
$LUNITS
 70
     2
  9
$LUPREC
 70
     4
  9
$SKETCHINC
 40
1.0
  9
$FILLETRAD
 40
2.5
  9
$AUNITS
 70
     0
  9
$AUPREC
 70
     0
  9
$MENU
  1
.
  9
$ELEVATION
 40
0.0
  9
$PELEVATION
 40
0.0
  9
$THICKNESS
 40
0.0
  9
$LIMCHECK
 70
     0
  9
$CHAMFERA
 40
2.5
  9
$CHAMFERB
 40
2.5
  9
$CHAMFERC
 40
0.0
  9
$CHAMFERD
 40
0.0
  9
$SKPOLY
 70
     0
  9
$TDCREATE
 40
0.000000000
  9
$TDUCREATE
 40
0.000000000
  9
$TDUPDATE
 40
0.000000000
  9
$TDUUPDATE
 40
0.000000000
  9
$TDINDWG
 40
0.0000000000
  9
$TDUSRTIMER
 40
0.0000000000
  9
$USRTIMER
 70
     1
  9
$ANGBASE
 50
0.0
  9
$ANGDIR
 70
     0
  9
$PDMODE
 70
     0
  9
$PDSIZE
 40
0.0
  9
$PLINEWID
 40
0.0
  9
$SPLFRAME
 70
     0
  9
$SPLINETYPE
 70
     6
  9
$SPLINESEGS
 70
     8
  9
$HANDSEED
  5
295
  9
$SURFTAB1
 70
     6
  9
$SURFTAB2
 70
     6
  9
$SURFTYPE
 70
     6
  9
$SURFU
 70
     6
  9
$SURFV
 70
     6
  9
$UCSBASE
  2

  9
$UCSNAME
  2

  9
$UCSORG
 10
0.0
 20
0.0
 30
0.0
  9
$UCSXDIR
 10
1.0
 20
0.0
 30
0.0
  9
$UCSYDIR
 10
0.0
 20
1.0
 30
0.0
  9
$UCSORTHOREF
  2

  9
$UCSORTHOVIEW
 70
     1
  9
$UCSORGTOP
 10
0.0
 20
0.0
 30
0.0
  9
$UCSORGBOTTOM
 10
0.0
 20
0.0
 30
0.0
  9
$UCSORGLEFT
 10
0.0
 20
0.0
 30
0.0
  9
$UCSORGRIGHT
 10
0.0
 20
0.0
 30
0.0
  9
$UCSORGFRONT
 10
0.0
 20
0.0
 30
0.0
  9
$UCSORGBACK
 10
0.0
 20
0.0
 30
0.0
  9
$PUCSBASE
  2

  9
$PUCSNAME
  2

  9
$PUCSORG
 10
0.0
 20
0.0
 30
0.0
  9
$PUCSXDIR
 10
1.0
 20
0.0
 30
0.0
  9
$PUCSYDIR
 10
0.0
 20
1.0
 30
0.0
  9
$PUCSORTHOREF
  2

  9
$PUCSORTHOVIEW
 70
     0
  9
$PUCSORGTOP
 10
0.0
 20
0.0
 30
0.0
  9
$PUCSORGBOTTOM
 10
0.0
 20
0.0
 30
0.0
  9
$PUCSORGLEFT
 10
0.0
 20
0.0
 30
0.0
  9
$PUCSORGRIGHT
 10
0.0
 20
0.0
 30
0.0
  9
$PUCSORGFRONT
 10
0.0
 20
0.0
 30
0.0
  9
$PUCSORGBACK
 10
0.0
 20
0.0
 30
0.0
  9
$USERI1
 70
     0
  9
$USERI2
 70
     0
  9
$USERI3
 70
     0
  9
$USERI4
 70
     0
  9
$USERI5
 70
     0
  9
$USERR1
 40
0.0
  9
$USERR2
 40
0.0
  9
$USERR3
 40
0.0
  9
$USERR4
 40
0.0
  9
$USERR5
 40
0.0
  9
$WORLDVIEW
 70
     1
  9
$SHADEDGE
 70
     3
  9
$SHADEDIF
 70
    70
  9
$TILEMODE
 70
     1
  9
$MAXACTVP
 70
    48
  9
$PINSBASE
 10
0.0
 20
0.0
 30
0.0
  9
$PLIMCHECK
 70
     0
  9
$PEXTMIN
 10
0.0
 20
0.0
 30
0.0
  9
$PEXTMAX
 10
293.267731
 20
175.926788
 30
2.0
  9
$PLIMMIN
 10
0.0
 20
0.0
  9
$PLIMMAX
 10
420.0
 20
297.0
  9
$UNITMODE
 70
     0
  9
$VISRETAIN
 70
     0
  9
$PLINEGEN
 70
     0
  9
$PSLTSCALE
 70
     1
  9
$TREEDEPTH
 70
  3020
  9
$CMLSTYLE
  2
Standard
  9
$CMLJUST
 70
     0
  9
$CMLSCALE
 40
20.0
  9
$PROXYGRAPHICS
 70
     1
  9
$MEASUREMENT
 70
     1
  9
$CELWEIGHT
370
    -1
  9
$ENDCAPS
280
     0
  9
$JOINSTYLE
280
     0
  9
$LWDISPLAY
290
     0
  9
$INSUNITS
 70
     0
  9
$HYPERLINKBASE
  1

  9
$STYLESHEET
  1

  9
$XEDIT
290
     1
  9
$CEPSNTYPE
380
     0
  9
$PSTYLEMODE
290
     0
  9
$FINGERPRINTGUID
  2

  9
$VERSIONGUID
  2

  9
$EXTNAMES
290
     0
  9
$PSVPSCALE
 40
0.0
  0
ENDSEC
  0
SECTION
  2
CLASSES
  0
CLASS
  1
LWPOLYLINE
  2
AcDbPolyline
  3
AutoCAD 2000
 90
        0
280
     0
281
     1
  0
CLASS
  1
IMAGE
  2
AcDbRasterImage
  3
ISM
 90
      127
280
     0
281
     1
  0
CLASS
  1
OLE2FRAME
  2
AcDbOle2Frame
  3
AutoCAD 2000
 90
        0
280
     0
281
     1
  0
CLASS
  1
HATCH
  2
AcDbHatch
  3
AutoCAD 2000
 90
        0
280
     0
281
     1
  0
CLASS
  1
DICTIONARYVAR
  2
AcDbDictionaryVar
  3
AutoCAD 2000
 90
        0
280
     0
281
     0
  0
CLASS
  1
RASTERVARIABLES
  2
AcDbRasterVariables
  3
ISM
 90
        0
280
     0
281
     0
  0
CLASS
  1
IMAGEDEF
  2
AcDbRasterImageDef
  3
ISM
 90
        0
280
     0
281
     0
  0
CLASS
  1
IMAGEDEF_REACTOR
  2
AcDbRasterImageDefReactor
  3
ISM
 90
        1
280
     0
281
     0
  0
CLASS
  1
IDBUFFER
  2
AcDbIdBuffer
  3
AutoCAD 2000
 90
        0
280
     0
281
     0
  0
CLASS
  1
SPATIAL_FILTER
  2
AcDbSpatialFilter
  3
AutoCAD 2000
 90
        0
280
     0
281
     0
  0
CLASS
  1
XRECORD
  2
AcDbXrecord
  3
AutoCAD 2000
 90
        0
280
     0
281
     0
  0
CLASS
  1
SORTENTSTABLE
  2
AcDbSortentsTable
  3
AutoCAD 2000
 90
        0
280
     0
281
     0
  0
CLASS
  1
LAYER_INDEX
  2
AcDbLayerIndex
  3
AutoCAD 2000
 90
        0
280
     0
281
     0
  0
CLASS
  1
SPATIAL_INDEX
  2
AcDbSpatialIndex
  3
AutoCAD 2000
 90
        0
280
     0
281
     0
  0
CLASS
  1
OBJECT_PTR
  2
CAseDLPNTableRecord
  3
"ASE-LPNTableRecord"
 90
        1
280
     0
281
     0
  0
CLASS
  1
LAYOUT
  2
AcDbLayout
  3
AutoCAD 2000
 90
        0
280
     0
281
     0
  0
CLASS
  1
PLOTSETTINGS
  2
AcDbPlotSettings
  3
AutoCAD 2000
 90
        0
280
     0
281
     0
  0
CLASS
  1
ACDBDICTIONARYWDFLT
  2
AcDbDictionaryWithDefault
  3
AutoCAD 2000
 90
        0
280
     0
281
     0
  0
CLASS
  1
ACDBPLACEHOLDER
  2
AcDbPlaceHolder
  3
AutoCAD 2000
 90
        0
280
     0
281
     0
  0
CLASS
  1
VBA_PROJECT
  2
AcDbVbaProject
  3
acadvba
 90
        0
280
     0
281
     0
  0
CLASS
  1
WIPEOUT
  2
AcDbWipeout
  3
WipeOut|AutoCAD Express Tool|expresstools@autodesk.com
 90
      127
280
     0
281
     1
  0
CLASS
  1
WIPEOUTVARIABLES
  2
AcDbWipeoutVariables
  3
WipeOut|AutoCAD Express Tool|expresstools@autodesk.com
 90
        0
280
     0
281
     0
  0
CLASS
  1
RTEXT
  2
RText
  3
RText|AutoCAD Express Tool|expresstools@autodesk.com
 90
        0
280
     0
281
     1
  0
CLASS
  1
ARCALIGNEDTEXT
  2
AcDbArcAlignedText
  3
ATEXT|AutoCAD Express Tool|expresstools@autodesk.com
 90
        0
280
     0
281
     1
  0
ENDSEC
  0
SECTION
  2
TABLES
  0
TABLE
  2
VPORT
  5
7
100
AcDbSymbolTable
 70
     1
  0
VPORT
  5
15
100
AcDbSymbolTableRecord
100
AcDbViewportTableRecord
  2
*ACTIVE
 70
     0
 10
0.0
 20
0.0
 11
1.0
 21
1.0
 12
6.591288
 22
4.579184
 13
0.0
 23
0.0
 14
1.0
 24
1.0
 15
0.0
 25
0.0
 16
0.0
 26
0.0
 36
1.0
 17
0.0
 27
0.0
 37
0.0
 40
9.158369
 41
0.688564
 42
50.0
 43
0.0
 44
0.0
 50
0.0
 51
0.0
 71
     0
 72
   100
 73
     1
 74
     1
 75
     0
 76
     0
 77
     0
 78
     0
281
     0
 65
     0
110
0.0
120
0.0
130
0.0
111
1.0
121
0.0
131
0.0
112
0.0
122
1.0
132
0.0
345
0
346
0
 79
     0
146
0.0
  0
ENDTAB
  0
TABLE
  2
LTYPE
  5
4
100
AcDbSymbolTable
 70
     3
  0
LTYPE
  5
11
100
AcDbSymbolTableRecord
100
AcDbLinetypeTableRecord
  2
ByBlock
 70
    64
  3

 72
    65
 73
     0
 40
0.0
  0
LTYPE
  5
12
100
AcDbSymbolTableRecord
100
AcDbLinetypeTableRecord
  2
ByLayer
 70
    64
  3

 72
    65
 73
     0
 40
0.0
  0
LTYPE
  5
13
100
AcDbSymbolTableRecord
100
AcDbLinetypeTableRecord
  2
Continuous
 70
    64
  3
Solid line
 72
    65
 73
     0
 40
0.0
  0
ENDTAB
  0
TABLE
  2
LAYER
  5
2
100
AcDbSymbolTable
 70
     1
  0
LAYER
  5
14
100
AcDbSymbolTableRecord
100
AcDbLayerTableRecord
  2
0
 70
     0
 62
     7
  6
Continuous
290
     1
370
    -3
390
1D
  0
ENDTAB
  0
TABLE
  2
STYLE
  5
3
100
AcDbSymbolTable
 70
     1
  0
STYLE
  5
17
100
AcDbSymbolTableRecord
100
AcDbTextStyleTableRecord
  2
Standard
 70
     0
 40
0.0
 41
1.0
 50
0.0
 71
     0
 42
0.0
  3
txt
  4

  0
ENDTAB
  0
TABLE
  2
VIEW
  5
5
100
AcDbSymbolTable
 70
     0
  0
ENDTAB
  0
TABLE
  2
UCS
  5
6
100
AcDbSymbolTable
 70
     0
  0
ENDTAB
  0
TABLE
  2
APPID
  5
8
100
AcDbSymbolTable
 70
     1
  0
APPID
  5
16
100
AcDbSymbolTableRecord
100
AcDbRegAppTableRecord
  2
ACAD
 70
     0
  0
ENDTAB
  0
TABLE
  2
DIMSTYLE
  5
9
100
AcDbSymbolTable
 70
     1
100
AcDbDimStyleTable
 71
     0
  0
DIMSTYLE
105
18
100
AcDbSymbolTableRecord
100
AcDbDimStyleTableRecord
  2
Standard
 70
     0
  3

  4

 40
1.0
 41
0.18
 42
0.0625
 43
0.38
 44
0.18
 45
0.0
 46
0.0
 47
0.0
 48
0.0
 71
     0
 72
     0
 73
     1
 74
     1
 75
     0
 76
     0
 77
     0
 78
     0
 79
     0
140
0.18
141
0.09
142
0.0
143
25.4
144
1.0
145
0.0
146
1.0
147
0.09
148
0.0
170
     0
171
     2
172
     0
173
     0
174
     0
175
     0
176
     0
177
     0
178
     0
179
     0
271
     4
272
     4
273
     2
274
     2
275
     0
276
     0
277
     2
278
    46
279
     0
280
     0
281
     0
282
     0
283
     1
284
     0
285
     0
286
     0
288
     0
289
     3
340
17
341
0
342
0
343
0
344
0
371
    -2
372
    -2
  0
ENDTAB
  0
TABLE
  2
BLOCK_RECORD
  5
1
100
AcDbSymbolTable
 70
     0
  0
BLOCK_RECORD
  5
A
100
AcDbSymbolTableRecord
100
AcDbBlockTableRecord
  2
*MODEL_SPACE
340
20
  0
BLOCK_RECORD
  5
B
100
AcDbSymbolTableRecord
100
AcDbBlockTableRecord
  2
*PAPER_SPACE
340
21
  0
ENDTAB
  0
ENDSEC
  0
SECTION
  2
BLOCKS
  0
BLOCK
  5
D
100
AcDbEntity
  8
0
390
0
100
AcDbBlockBegin
  2
*MODEL_SPACE
 70
     0
 10
0.0
 20
0.0
 30
0.0
  3
*MODEL_SPACE
  1

  0
ENDBLK
  5
E
100
AcDbEntity
  8
0
390
0
100
AcDbBlockEnd
  0
BLOCK
  5
F
100
AcDbEntity
 67
     1
  8
0
390
0
100
AcDbBlockBegin
  2
*PAPER_SPACE
 70
     0
 10
0.0
 20
0.0
 30
0.0
  3
*PAPER_SPACE
  1

  0
ENDBLK
  5
10
100
AcDbEntity
 67
     1
  8
0
390
0
100
AcDbBlockEnd
  0
ENDSEC
  0
SECTION
  2
ENTITIES
  0
VIEWPORT
  5
294
100
AcDbEntity
 67
     1
  8
0
370
     0
390
0
 62
     0
 48
0.0
100
AcDbViewport
 10
0.0
 20
0.0
 30
0.0
 40
1000.0
 41
1000.0
 68
     1
 69
     1
 12
0.0
 22
0.0
 13
0.0
 23
0.0
 14
1.0
 24
1.0
 15
1.0
 25
1.0
 16
0.0
 26
0.0
 36
1.0
 17
0.0
 27
0.0
 37
0.0
 42
50.0
 43
0.0
 44
0.0
 45
1000.0
 50
0.0
 51
0.0
 72
   100
 90
        0
340
0
  1

281
     0
 71
     0
 74
     1
110
0.0
120
0.0
130
0.0
111
1.0
121
0.0
131
0.0
112
0.0
122
1.0
132
0.0
345
0
346
0
 79
     0
146
0.0
  0
LINE
  5
24
100
AcDbEntity
  8
0
370
    35
390
0
 62
     7
100
AcDbLine
 10
178.811859
 20
125.713783
 30
0.0
 11
270.561218
 21
125.713783
 31
0.0
210
0.0
220
0.0
230
1.0
  0
LINE
  5
25
100
AcDbEntity
  8
0
370
    35
390
0
 62
     7
100
AcDbLine
 10
178.811859
 20
128.639832
 30
0.0
 11
270.574219
 21
128.639832
 31
0.0
210
0.0
220
0.0
230
1.0
  0
LINE
  5
26
100
AcDbEntity
  8
0
370
    35
390
0
 62
     7
 48
0.1
100
AcDbLine
 10
239.536377
 20
171.676788
 30
0.0
 11
239.536377
 21
167.676788
 31
0.0
210
0.0
220
0.0
230
1.0
  0
LINE
  5
27
100
AcDbEntity
  8
0
370
    35
390
0
 62
     7
 48
0.0125
100
AcDbLine
 10
229.536377
 20
172.051788
 30
0.0
 11
230.036377
 21
172.051788
 31
0.0
210
0.0
220
0.0
230
1.0
  0
LINE
  5
28
100
AcDbEntity
  8
0
370
    35
390
0
 62
     7
 48
0.0125
100
AcDbLine
 10
229.536377
 20
167.301788
 30
0.0
 11
230.036377
 21
167.301788
 31
0.0
210
0.0
220
0.0
230
1.0
  0
LINE
  5
29
100
AcDbEntity
  8
0
370
    35
390
0
 62
     7
 48
0.034402
100
AcDbLine
 10
230.036377
 20
172.051788
 30
0.0
 11
231.411377
 21
171.997528
 31
0.0
210
0.0
220
0.0
230
1.0
  0
LINE
  5
2A
100
AcDbEntity
  8
0
370
    35
390
0
 62
     7
 48
0.034402
100
AcDbLine
 10
230.036377
 20
167.301788
 30
0.0
 11
231.411377
 21
167.356079
 31
0.0
210
0.0
220
0.0
230
1.0
  0
LINE
  5
2B
100
AcDbEntity
  8
0
370
    35
390
0
 62
     7
100
AcDbLine
 10
239.536377
 20
168.226807
 30
0.0
 11
270.574219
 21
168.226807
 31
0.0
210
0.0
220
0.0
230
1.0
  0
LINE
  5
2C
100
AcDbEntity
  8
0
370
    35
390
0
 62
     7
100
AcDbLine
 10
239.536377
 20
171.126801
 30
0.0
 11
270.561218
 21
171.126801
 31
0.0
210
0.0
220
0.0
230
1.0
  0
LINE
  5
2D
100
AcDbEntity
  8
0
370
    35
390
0
 62
     7
100
AcDbLine
 10
104.654518
 20
128.639832
 30
0.0
 11
176.173859
 21
128.639832
 31
0.0
210
0.0
220
0.0
230
1.0
  0
LINE
  5
2E
100
AcDbEntity
  8
0
370
    35
390
0
 62
     7
 48
0.420432
100
AcDbLine
 10
222.670288
 20
83.226799
 30
0.0
 11
239.487579
 21
83.226799
 31
0.0
210
0.0
220
0.0
230
1.0
  0
LINE
  5
2F
100
AcDbEntity
  8
0
370
    35
390
0
 62
     7
100
AcDbLine
 10
104.641502
 20
125.713783
 30
0.0
 11
176.173859
 21
125.713783
 31
0.0
210
0.0
220
0.0
230
1.0
  0
LINE
  5
30
100
AcDbEntity
  8
0
370
    35
390
0
 62
     7
 48
0.1
100
AcDbLine
 10
246.487579
 20
82.676811
 30
0.0
 11
246.487579
 21
86.676811
 31
0.0
210
0.0
220
0.0
230
1.0
  0
LINE
  5
31
100
AcDbEntity
  8
0
370
    35
390
0
 62
     7
 48
0.125
100
AcDbLine
 10
264.237579
 20
82.176811
 30
0.0
 11
264.237579
 21
87.176811
 31
0.0
210
0.0
220
0.0
230
1.0
  0
LINE
  5
32
100
AcDbEntity
  8
0
370
    35
390
0
 62
     7
 48
0.1475
100
AcDbLine
 10
261.137573
 20
81.726814
 30
0.0
 11
261.137573
 21
87.626823
 31
0.0
210
0.0
220
0.0
230
1.0
  0
LINE
  5
33
100
AcDbEntity
  8
0
370
    35
390
0
 62
     7
 48
0.0875
100
AcDbLine
 10
239.487579
 20
82.926811
 30
0.0
 11
239.487579
 21
86.426811
 31
0.0
210
0.0
220
0.0
230
1.0
  0
LINE
  5
34
100
AcDbEntity
  8
0
370
    35
390
0
 62
     7
 48
0.1625
100
AcDbLine
 10
248.987579
 20
81.426811
 30
0.0
 11
248.987579
 21
87.926811
 31
0.0
210
0.0
220
0.0
230
1.0
  0
LINE
  5
35
100
AcDbEntity
  8
0
370
    35
390
0
 62
     7
 48
0.1625
100
AcDbLine
 10
258.737579
 20
81.426811
 30
0.0
 11
258.737579
 21
87.926811
 31
0.0
210
0.0
220
0.0
230
1.0
  0
LINE
  5
36
100
AcDbEntity
  8
0
370
    35
390
0
 62
     7
 48
0.24375
100
AcDbLine
 10
258.737579
 20
81.426811
 30
0.0
 11
248.987579
 21
81.426811
 31
0.0
210
0.0
220
0.0
230
1.0
  0
LINE
  5
37
100
AcDbEntity
  8
0
370
    35
390
0
 62
     7
 48
0.24375
100
AcDbLine
 10
258.737579
 20
87.926811
 30
0.0
 11
248.987579
 21
87.926811
 31
0.0
210
0.0
220
0.0
230
1.0
  0
LINE
  5
38
100
AcDbEntity
  8
0
370
    35
390
0
 62
     7
 48
0.06
100
AcDbLine
 10
261.137573
 20
81.726814
 30
0.0
 11
258.737579
 21
81.726814
 31
0.0
210
0.0
220
0.0
230
1.0
  0
LINE
  5
39
100
AcDbEntity
  8
0
370
    35
390
0
 62
     7
 48
0.06
100
AcDbLine
 10
261.137573
 20
87.626823
 30
0.0
 11
258.737579
 21
87.626823
 31
0.0
210
0.0
220
0.0
230
1.0
  0
LINE
  5
3A
100
AcDbEntity
  8
0
370
    35
390
0
 62
     7
 48
0.0775
100
AcDbLine
 10
264.237579
 20
82.176811
 30
0.0
 11
261.137573
 21
82.176811
 31
0.0
210
0.0
220
0.0
230
1.0
  0
LINE
  5
3B
100
AcDbEntity
  8
0
370
    35
390
0
 62
     7
 48
0.0775
100
AcDbLine
 10
264.237579
 20
87.176811
 30
0.0
 11
261.137573
 21
87.176811
 31
0.0
210
0.0
220
0.0
230
1.0
  0
LINE
  5
3C
100
AcDbEntity
  8
0
370
    35
390
0
 62
     7
 48
0.175112
100
AcDbLine
 10
239.48761
 20
82.926811
 30
0.0
 11
246.48761
 21
82.676811
 31
0.0
210
0.0
220
0.0
230
1.0
  0
LINE
  5
3D
100
AcDbEntity
  8
0
370
    35
390
0
 62
     7
 48
0.06686
100
AcDbLine
 10
248.98761
 20
81.726814
 30
0.0
 11
246.48761
 21
82.676811
 31
0.0
210
0.0
220
0.0
230
1.0
  0
LINE
  5
3E
100
AcDbEntity
  8
0
370
    35
390
0
 62
     7
 48
0.175112
100
AcDbLine
 10
239.487579
 20
86.426811
 30
0.0
 11
246.487579
 21
86.676811
 31
0.0
210
0.0
220
0.0
230
1.0
  0
LINE
  5
3F
100
AcDbEntity
  8
0
370
    35
390
0
 62
     7
 48
0.06686
100
AcDbLine
 10
248.98761
 20
87.626762
 30
0.0
 11
246.48761
 21
86.676765
 31
0.0
210
0.0
220
0.0
230
1.0
  0
LINE
  5
40
100
AcDbEntity
  8
0
370
    35
390
0
 62
     7
 48
0.08125
100
AcDbLine
 10
257.137573
 20
83.051811
 30
0.0
 11
257.137573
 21
86.301811
 31
0.0
210
0.0
220
0.0
230
1.0
  0
LINE
  5
41
100
AcDbEntity
  8
0
370
    35
390
0
 62
     7
 48
0.08125
100
AcDbLine
 10
253.887573
 20
83.051811
 30
0.0
 11
253.887573
 21
86.301811
 31
0.0
210
0.0
220
0.0
230
1.0
  0
LINE
  5
42
100
AcDbEntity
  8
0
370
    35
390
0
 62
     7
 48
0.08125
100
AcDbLine
 10
257.137573
 20
83.051811
 30
0.0
 11
253.887573
 21
83.051811
 31
0.0
210
0.0
220
0.0
230
1.0
  0
LINE
  5
43
100
AcDbEntity
  8
0
370
    35
390
0
 62
     7
 48
0.08125
100
AcDbLine
 10
257.137573
 20
86.301811
 30
0.0
 11
253.887573
 21
86.301811
 31
0.0
210
0.0
220
0.0
230
1.0
  0
LINE
  5
44
100
AcDbEntity
  8
0
370
    35
390
0
 62
     7
 48
0.025826
100
AcDbLine
 10
245.969086
 20
85.676826
 30
0.0
 11
246.228333
 21
84.676826
 31
0.0
210
0.0
220
0.0
230
1.0
  0
LINE
  5
45
100
AcDbEntity
  8
0
370
    35
390
0
 62
     7
 48
0.025116
100
AcDbLine
 10
245.716919
 20
82.704338
 30
0.0
 11
245.969055
 21
83.676811
 31
0.0
210
0.0
220
0.0
230
1.0
  0
LINE
  5
46
100
AcDbEntity
  8
0
370
    35
390
0
 62
     7
 48
0.025826
100
AcDbLine
 10
245.969055
 20
83.676826
 30
0.0
 11
245.709808
 21
84.676826
 31
0.0
210
0.0
220
0.0
230
1.0
  0
LINE
  5
47
100
AcDbEntity
  8
0
370
    35
390
0
 62
     7
 48
0.025826
100
AcDbLine
 10
245.709778
 20
84.676826
 30
0.0
 11
245.450562
 21
83.676826
 31
0.0
210
0.0
220
0.0
230
1.0
  0
LINE
  5
48
100
AcDbEntity
  8
0
370
    35
390
0
 62
     7
 48
0.025102
100
AcDbLine
 10
245.450531
 20
83.676811
 30
0.0
 11
245.702515
 21
82.704857
 31
0.0
210
0.0
220
0.0
230
1.0
  0
LINE
  5
49
100
AcDbEntity
  8
0
370
    35
390
0
 62
     7
 48
0.025826
100
AcDbLine
 10
245.191345
 20
84.676811
 30
0.0
 11
245.450592
 21
85.676811
 31
0.0
210
0.0
220
0.0
230
1.0
  0
LINE
  5
4A
100
AcDbEntity
  8
0
370
    35
390
0
 62
     7
 48
0.024642
100
AcDbLine
 10
245.450562
 20
85.676826
 30
0.0
 11
245.203186
 21
86.630943
 31
0.0
210
0.0
220
0.0
230
1.0
  0
LINE
  5
4B
100
AcDbEntity
  8
0
370
    35
390
0
 62
     7
 48
0.02462
100
AcDbLine
 10
245.179199
 20
86.630089
 30
0.0
 11
244.932037
 21
85.676811
 31
0.0
210
0.0
220
0.0
230
1.0
  0
LINE
  5
4C
100
AcDbEntity
  8
0
370
    35
390
0
 62
     7
 48
0.025826
100
AcDbLine
 10
244.932037
 20
85.676811
 30
0.0
 11
245.191284
 21
84.676826
 31
0.0
210
0.0
220
0.0
230
1.0
  0
LINE
  5
4D
100
AcDbEntity
  8
0
370
    35
390
0
 62
     7
 48
0.024168
100
AcDbLine
 10
244.689453
 20
82.741035
 30
0.0
 11
244.932068
 21
83.676811
 31
0.0
210
0.0
220
0.0
230
1.0
  0
LINE
  5
4E
100
AcDbEntity
  8
0
370
    35
390
0
 62
     7
 48
0.025827
100
AcDbLine
 10
244.932037
 20
83.676811
 30
0.0
 11
244.672791
 21
84.676826
 31
0.0
210
0.0
220
0.0
230
1.0
  0
LINE
  5
4F
100
AcDbEntity
  8
0
370
    35
390
0
 62
     7
 48
0.025827
100
AcDbLine
 10
244.672791
 20
84.676811
 30
0.0
 11
244.413513
 21
83.676811
 31
0.0
210
0.0
220
0.0
230
1.0
  0
LINE
  5
50
100
AcDbEntity
  8
0
370
    35
390
0
 62
     7
 48
0.024137
100
AcDbLine
 10
244.413513
 20
83.676826
 30
0.0
 11
244.655823
 21
82.742256
 31
0.0
210
0.0
220
0.0
230
1.0
  0
LINE
  5
51
100
AcDbEntity
  8
0
370
    35
390
0
 62
     7
 48
0.025827
100
AcDbLine
 10
244.154236
 20
84.676826
 30
0.0
 11
244.413513
 21
85.676826
 31
0.0
210
0.0
220
0.0
230
1.0
  0
LINE
  5
52
100
AcDbEntity
  8
0
370
    35
390
0
 62
     7
 48
0.025585
100
AcDbLine
 10
246.225922
 20
86.667473
 30
0.0
 11
245.969086
 21
85.676811
 31
0.0
210
0.0
220
0.0
230
1.0
  0
LINE
  5
53
100
AcDbEntity
  8
0
370
    35
390
0
 62
     7
 48
0.025826
100
AcDbLine
 10
246.228333
 20
84.676811
 30
0.0
 11
246.487579
 21
85.676811
 31
0.0
210
0.0
220
0.0
230
1.0
  0
LINE
  5
54
100
AcDbEntity
  8
0
370
    35
390
0
 62
     7
 48
0.02559
100
AcDbLine
 10
246.48761
 20
85.676826
 30
0.0
 11
246.230743
 21
86.667656
 31
0.0
210
0.0
220
0.0
230
1.0
  0
LINE
  5
55
100
AcDbEntity
  8
0
370
    35
390
0
 62
     7
 48
0.023694
100
AcDbLine
 10
244.413513
 20
85.676811
 30
0.0
 11
244.17569
 21
86.594246
 31
0.0
210
0.0
220
0.0
230
1.0
  0
LINE
  5
56
100
AcDbEntity
  8
0
370
    35
390
0
 62
     7
 48
0.023654
100
AcDbLine
 10
244.132477
 20
86.592705
 30
0.0
 11
243.89502
 21
85.676826
 31
0.0
210
0.0
220
0.0
230
1.0
  0
LINE
  5
57
100
AcDbEntity
  8
0
370
    35
390
0
 62
     7
 48
0.025827
100
AcDbLine
 10
243.89502
 20
85.676826
 30
0.0
 11
244.154297
 21
84.676811
 31
0.0
210
0.0
220
0.0
230
1.0
  0
LINE
  5
58
100
AcDbEntity
  8
0
370
    35
390
0
 62
     7
 48
0.02322
100
AcDbLine
 10
243.661926
 20
82.777733
 30
0.0
 11
243.89502
 21
83.676811
 31
0.0
210
0.0
220
0.0
230
1.0
  0
LINE
  5
59
100
AcDbEntity
  8
0
370
    35
390
0
 62
     7
 48
0.025827
100
AcDbLine
 10
243.89502
 20
83.676826
 30
0.0
 11
243.635742
 21
84.676826
 31
0.0
210
0.0
220
0.0
230
1.0
  0
LINE
  5
5A
100
AcDbEntity
  8
0
370
    35
390
0
 62
     7
 48
0.025826
100
AcDbLine
 10
243.635742
 20
84.676826
 30
0.0
 11
243.376495
 21
83.676826
 31
0.0
210
0.0
220
0.0
230
1.0
  0
LINE
  5
5B
100
AcDbEntity
  8
0
370
    35
390
0
 62
     7
 48
0.023172
100
AcDbLine
 10
243.376465
 20
83.676811
 30
0.0
 11
243.60907
 21
82.77961
 31
0.0
210
0.0
220
0.0
230
1.0
  0
LINE
  5
5C
100
AcDbEntity
  8
0
370
    35
390
0
 62
     7
 48
0.025826
100
AcDbLine
 10
243.117249
 20
84.676811
 30
0.0
 11
243.376495
 21
85.676811
 31
0.0
210
0.0
220
0.0
230
1.0
  0
LINE
  5
5D
100
AcDbEntity
  8
0
370
    35
390
0
 62
     7
 48
0.022747
100
AcDbLine
 10
243.376495
 20
85.676826
 30
0.0
 11
243.148132
 21
86.557564
 31
0.0
210
0.0
220
0.0
230
1.0
  0
LINE
  5
5E
100
AcDbEntity
  8
0
370
    35
390
0
 62
     7
 48
0.022688
100
AcDbLine
 10
243.085693
 20
86.555321
 30
0.0
 11
242.857941
 21
85.676826
 31
0.0
210
0.0
220
0.0
230
1.0
  0
LINE
  5
5F
100
AcDbEntity
  8
0
370
    35
390
0
 62
     7
 48
0.025826
100
AcDbLine
 10
242.857971
 20
85.676811
 30
0.0
 11
243.117218
 21
84.676811
 31
0.0
210
0.0
220
0.0
230
1.0
  0
LINE
  5
60
100
AcDbEntity
  8
0
370
    35
390
0
 62
     7
 48
0.022272
100
AcDbLine
 10
242.634399
 20
82.81443
 30
0.0
 11
242.857971
 21
83.676811
 31
0.0
210
0.0
220
0.0
230
1.0
  0
LINE
  5
61
100
AcDbEntity
  8
0
370
    35
390
0
 62
     7
 48
0.40061
100
AcDbLine
 10
204.140503
 20
86.126808
 30
0.0
 11
220.164917
 21
86.126808
 31
0.0
210
0.0
220
0.0
230
1.0
  0
LINE
  5
62
100
AcDbEntity
  8
0
370
    35
390
0
 62
     7
 48
0.0975
100
AcDbLine
 10
204.140503
 20
86.626808
 30
0.0
 11
204.140503
 21
82.726799
 31
0.0
210
0.0
220
0.0
230
1.0
  0
LINE
  5
63
100
AcDbEntity
  8
0
370
    35
390
0
 62
     7
 48
0.006253
100
AcDbLine
 10
199.165527
 20
82.820244
 30
0.0
 11
199.415527
 21
82.828117
 31
0.0
210
0.0
220
0.0
230
1.0
  0
LINE
  5
64
100
AcDbEntity
  8
0
370
    35
390
0
 62
     7
 48
0.006253
100
AcDbLine
 10
199.165527
 20
86.533379
 30
0.0
 11
199.415527
 21
86.525505
 31
0.0
210
0.0
220
0.0
230
1.0
  0
LINE
  5
65
100
AcDbEntity
  8
0
370
    35
390
0
 62
     7
 48
0.104153
100
AcDbLine
 10
199.915527
 20
86.75988
 30
0.0
 11
199.915527
 21
82.593742
 31
0.0
210
0.0
220
0.0
230
1.0
  0
LINE
  5
66
100
AcDbEntity
  8
0
370
    35
390
0
 62
     7
 48
0.104941
100
AcDbLine
 10
199.415527
 20
86.775627
 30
0.0
 11
199.415527
 21
82.57798
 31
0.0
210
0.0
220
0.0
230
1.0
  0
LINE
  5
67
100
AcDbEntity
  8
0
370
    35
390
0
 62
     7
 48
0.014382
100
AcDbLine
 10
198.590515
 20
82.55201
 30
0.0
 11
199.165527
 21
82.570107
 31
0.0
210
0.0
220
0.0
230
1.0
  0
LINE
  5
68
100
AcDbEntity
  8
0
370
    35
390
0
 62
     7
 48
0.105335
100
AcDbLine
 10
199.165527
 20
86.783501
 30
0.0
 11
199.165527
 21
82.570107
 31
0.0
210
0.0
220
0.0
230
1.0
  0
LINE
  5
69
100
AcDbEntity
  8
0
370
    35
390
0
 62
     7
 48
0.014382
100
AcDbLine
 10
198.590515
 20
86.801613
 30
0.0
 11
199.165527
 21
86.783501
 31
0.0
210
0.0
220
0.0
230
1.0
  0
LINE
  5
6A
100
AcDbEntity
  8
0
370
    35
390
0
 62
     7
 48
0.10376
100
AcDbLine
 10
200.165527
 20
86.752007
 30
0.0
 11
200.165527
 21
82.601616
 31
0.0
210
0.0
220
0.0
230
1.0
  0
LINE
  5
6B
100
AcDbEntity
  8
0
370
    35
390
0
 62
     7
 48
0.102579
100
AcDbLine
 10
200.915527
 20
86.728386
 30
0.0
 11
200.915527
 21
82.625237
 31
0.0
210
0.0
220
0.0
230
1.0
  0
LINE
  5
6C
100
AcDbEntity
  8
0
370
    35
390
0
 62
     7
 48
0.102972
100
AcDbLine
 10
200.665527
 20
86.736259
 30
0.0
 11
200.665527
 21
82.617363
 31
0.0
210
0.0
220
0.0
230
1.0
  0
LINE
  5
6D
100
AcDbEntity
  8
0
370
    35
390
0
 62
     7
100
AcDbLine
 10
142.540497
 20
83.226799
 30
0.0
 11
102.924004
 21
83.226799
 31
0.0
210
0.0
220
0.0
230
1.0
  0
LINE
  5
6E
100
AcDbEntity
  8
0
370
    35
390
0
 62
     7
 48
0.101791
100
AcDbLine
 10
201.415527
 20
86.712639
 30
0.0
 11
201.415527
 21
82.640984
 31
0.0
210
0.0
220
0.0
230
1.0
  0
LINE
  5
6F
100
AcDbEntity
  8
0
370
    35
390
0
 62
     7
 48
0.101398
100
AcDbLine
 10
201.665527
 20
86.704765
 30
0.0
 11
201.665527
 21
82.648857
 31
0.0
210
0.0
220
0.0
230
1.0
  0
LINE
  5
70
100
AcDbEntity
  8
0
370
    35
390
0
 62
     7
 48
0.100217
100
AcDbLine
 10
202.415527
 20
86.681145
 30
0.0
 11
202.415527
 21
82.672478
 31
0.0
210
0.0
220
0.0
230
1.0
  0
LINE
  5
71
100
AcDbEntity
  8
0
370
    35
390
0
 62
     7
 48
0.10061
100
AcDbLine
 10
202.165527
 20
86.689018
 30
0.0
 11
202.165527
 21
82.664604
 31
0.0
210
0.0
220
0.0
230
1.0
  0
LINE
  5
72
100
AcDbEntity
  8
0
370
    35
390
0
 62
     7
 48
0.043146
100
AcDbLine
 10
202.415527
 20
82.672478
 30
0.0
 11
204.140503
 21
82.726799
 31
0.0
210
0.0
220
0.0
230
1.0
  0
LINE
  5
73
100
AcDbEntity
  8
0
370
    35
390
0
 62
     7
 48
0.012506
100
AcDbLine
 10
201.665527
 20
82.648857
 30
0.0
 11
202.165527
 21
82.664604
 31
0.0
210
0.0
220
0.0
230
1.0
  0
LINE
  5
74
100
AcDbEntity
  8
0
370
    35
390
0
 62
     7
 48
0.012506
100
AcDbLine
 10
200.915527
 20
82.625237
 30
0.0
 11
201.415527
 21
82.640984
 31
0.0
210
0.0
220
0.0
230
1.0
  0
LINE
  5
75
100
AcDbEntity
  8
0
370
    35
390
0
 62
     7
 48
0.012506
100
AcDbLine
 10
200.165527
 20
82.601616
 30
0.0
 11
200.665527
 21
82.617363
 31
0.0
210
0.0
220
0.0
230
1.0
  0
LINE
  5
76
100
AcDbEntity
  8
0
370
    35
390
0
 62
     7
 48
0.012506
100
AcDbLine
 10
199.415527
 20
82.57798
 30
0.0
 11
199.915527
 21
82.593742
 31
0.0
210
0.0
220
0.0
230
1.0
  0
LINE
  5
77
100
AcDbEntity
  8
0
370
    35
390
0
 62
     7
 48
0.012506
100
AcDbLine
 10
199.415527
 20
86.775627
 30
0.0
 11
199.915527
 21
86.75988
 31
0.0
210
0.0
220
0.0
230
1.0
  0
LINE
  5
78
100
AcDbEntity
  8
0
370
    35
390
0
 62
     7
 48
0.012506
100
AcDbLine
 10
200.165527
 20
86.752007
 30
0.0
 11
200.665527
 21
86.736259
 31
0.0
210
0.0
220
0.0
230
1.0
  0
LINE
  5
79
100
AcDbEntity
  8
0
370
    35
390
0
 62
     7
 48
0.012506
100
AcDbLine
 10
200.915527
 20
86.728386
 30
0.0
 11
201.415527
 21
86.712639
 31
0.0
210
0.0
220
0.0
230
1.0
  0
LINE
  5
7A
100
AcDbEntity
  8
0
370
    35
390
0
 62
     7
 48
0.012506
100
AcDbLine
 10
201.665527
 20
86.704765
 30
0.0
 11
202.165527
 21
86.689018
 31
0.0
210
0.0
220
0.0
230
1.0
  0
LINE
  5
7B
100
AcDbEntity
  8
0
370
    35
390
0
 62
     7
 48
0.043146
100
AcDbLine
 10
202.415527
 20
86.681145
 30
0.0
 11
204.140503
 21
86.626808
 31
0.0
210
0.0
220
0.0
230
1.0
  0
LINE
  5
7C
100
AcDbEntity
  8
0
370
    35
390
0
 62
     7
 48
0.025827
100
AcDbLine
 10
242.857971
 20
83.676811
 30
0.0
 11
242.598694
 21
84.676826
 31
0.0
210
0.0
220
0.0
230
1.0
  0
LINE
  5
7D
100
AcDbEntity
  8
0
370
    35
390
0
 62
     7
 48
0.025827
100
AcDbLine
 10
242.598724
 20
84.676811
 30
0.0
 11
242.339447
 21
83.676811
 31
0.0
210
0.0
220
0.0
230
1.0
  0
LINE
  5
7E
100
AcDbEntity
  8
0
370
    35
390
0
 62
     7
 48
0.022206
100
AcDbLine
 10
242.339417
 20
83.676826
 30
0.0
 11
242.562347
 21
82.817009
 31
0.0
210
0.0
220
0.0
230
1.0
  0
LINE
  5
7F
100
AcDbEntity
  8
0
370
    35
390
0
 62
     7
 48
0.025827
100
AcDbLine
 10
242.0802
 20
84.676826
 30
0.0
 11
242.339478
 21
85.676826
 31
0.0
210
0.0
220
0.0
230
1.0
  0
LINE
  5
80
100
AcDbEntity
  8
0
370
    35
390
0
 62
     7
 48
0.021799
100
AcDbLine
 10
242.339417
 20
85.676811
 30
0.0
 11
242.120605
 21
86.520851
 31
0.0
210
0.0
220
0.0
230
1.0
  0
LINE
  5
81
100
AcDbEntity
  8
0
370
    35
390
0
 62
     7
 48
0.021723
100
AcDbLine
 10
242.039001
 20
86.517937
 30
0.0
 11
241.820923
 21
85.676826
 31
0.0
210
0.0
220
0.0
230
1.0
  0
LINE
  5
82
100
AcDbEntity
  8
0
370
    35
390
0
 62
     7
 48
0.025826
100
AcDbLine
 10
241.820923
 20
85.676826
 30
0.0
 11
242.08017
 21
84.676826
 31
0.0
210
0.0
220
0.0
230
1.0
  0
LINE
  5
83
100
AcDbEntity
  8
0
370
    35
390
0
 62
     7
 48
0.021325
100
AcDbLine
 10
241.606842
 20
82.851128
 30
0.0
 11
241.820923
 21
83.676826
 31
0.0
210
0.0
220
0.0
230
1.0
  0
LINE
  5
84
100
AcDbEntity
  8
0
370
    35
390
0
 62
     7
 48
0.025826
100
AcDbLine
 10
241.820892
 20
83.676826
 30
0.0
 11
241.561646
 21
84.676826
 31
0.0
210
0.0
220
0.0
230
1.0
  0
LINE
  5
85
100
AcDbEntity
  8
0
370
    35
390
0
 62
     7
 48
0.025827
100
AcDbLine
 10
241.561676
 20
84.676826
 30
0.0
 11
241.302399
 21
83.676826
 31
0.0
210
0.0
220
0.0
230
1.0
  0
LINE
  5
86
100
AcDbEntity
  8
0
370
    35
390
0
 62
     7
 48
0.02124
100
AcDbLine
 10
241.302429
 20
83.676826
 30
0.0
 11
241.515625
 21
82.854393
 31
0.0
210
0.0
220
0.0
230
1.0
  0
LINE
  5
87
100
AcDbEntity
  8
0
370
    35
390
0
 62
     7
 48
0.025826
100
AcDbLine
 10
241.043152
 20
84.676811
 30
0.0
 11
241.302399
 21
85.676811
 31
0.0
210
0.0
220
0.0
230
1.0
  0
LINE
  5
88
100
AcDbEntity
  8
0
370
    35
390
0
 62
     7
 48
0.020851
100
AcDbLine
 10
241.302429
 20
85.676826
 30
0.0
 11
241.093109
 21
86.484169
 31
0.0
210
0.0
220
0.0
230
1.0
  0
LINE
  5
89
100
AcDbEntity
  8
0
370
    35
390
0
 62
     7
 48
0.020758
100
AcDbLine
 10
240.992249
 20
86.480553
 30
0.0
 11
240.783875
 21
85.676811
 31
0.0
210
0.0
220
0.0
230
1.0
  0
LINE
  5
8A
100
AcDbEntity
  8
0
370
    35
390
0
 62
     7
 48
0.025827
100
AcDbLine
 10
240.783875
 20
85.676826
 30
0.0
 11
241.043152
 21
84.676826
 31
0.0
210
0.0
220
0.0
230
1.0
  0
LINE
  5
8B
100
AcDbEntity
  8
0
370
    35
390
0
 62
     7
 48
0.020377
100
AcDbLine
 10
240.579346
 20
82.887825
 30
0.0
 11
240.783875
 21
83.676811
 31
0.0
210
0.0
220
0.0
230
1.0
  0
LINE
  5
8C
100
AcDbEntity
  8
0
370
    35
390
0
 62
     7
 48
0.025827
100
AcDbLine
 10
240.783905
 20
83.676826
 30
0.0
 11
240.524628
 21
84.676826
 31
0.0
210
0.0
220
0.0
230
1.0
  0
LINE
  5
8D
100
AcDbEntity
  8
0
370
    35
390
0
 62
     7
 48
0.025826
100
AcDbLine
 10
240.524597
 20
84.676826
 30
0.0
 11
240.265381
 21
83.676826
 31
0.0
210
0.0
220
0.0
230
1.0
  0
LINE
  5
8E
100
AcDbEntity
  8
0
370
    35
390
0
 62
     7
 48
0.020275
100
AcDbLine
 10
240.26535
 20
83.676826
 30
0.0
 11
240.468872
 21
82.891777
 31
0.0
210
0.0
220
0.0
230
1.0
  0
LINE
  5
8F
100
AcDbEntity
  8
0
370
    35
390
0
 62
     7
 48
0.025826
100
AcDbLine
 10
240.006134
 20
84.676811
 30
0.0
 11
240.265381
 21
85.676811
 31
0.0
210
0.0
220
0.0
230
1.0
  0
LINE
  5
90
100
AcDbEntity
  8
0
370
    35
390
0
 62
     7
 48
0.019903
100
AcDbLine
 10
240.265381
 20
85.676826
 30
0.0
 11
240.065582
 21
86.447472
 31
0.0
210
0.0
220
0.0
230
1.0
  0
LINE
  5
91
100
AcDbEntity
  8
0
370
    35
390
0
 62
     7
 48
0.019792
100
AcDbLine
 10
239.945557
 20
86.443169
 30
0.0
 11
239.746857
 21
85.676811
 31
0.0
210
0.0
220
0.0
230
1.0
  0
LINE
  5
92
100
AcDbEntity
  8
0
370
    35
390
0
 62
     7
 48
0.025826
100
AcDbLine
 10
239.746887
 20
85.676826
 30
0.0
 11
240.006134
 21
84.676826
 31
0.0
210
0.0
220
0.0
230
1.0
  0
LINE
  5
93
100
AcDbEntity
  8
0
370
    35
390
0
 62
     7
 48
0.08125
100
AcDbLine
 10
251.137573
 20
83.051811
 30
0.0
 11
251.137573
 21
86.301811
 31
0.0
210
0.0
220
0.0
230
1.0
  0
LINE
  5
94
100
AcDbEntity
  8
0
370
    35
390
0
 62
     7
 48
0.08125
100
AcDbLine
 10
251.887573
 20
83.051811
 30
0.0
 11
251.887573
 21
86.301811
 31
0.0
210
0.0
220
0.0
230
1.0
  0
LINE
  5
95
100
AcDbEntity
  8
0
370
    35
390
0
 62
     7
 48
0.08125
100
AcDbLine
 10
252.137573
 20
83.051811
 30
0.0
 11
252.137573
 21
86.301811
 31
0.0
210
0.0
220
0.0
230
1.0
  0
LINE
  5
96
100
AcDbEntity
  8
0
370
    35
390
0
 62
     7
 48
0.08125
100
AcDbLine
 10
252.887573
 20
83.051811
 30
0.0
 11
252.887573
 21
86.301811
 31
0.0
210
0.0
220
0.0
230
1.0
  0
LINE
  5
97
100
AcDbEntity
  8
0
370
    35
390
0
 62
     7
 48
0.08125
100
AcDbLine
 10
253.137573
 20
83.051811
 30
0.0
 11
253.137573
 21
86.301811
 31
0.0
210
0.0
220
0.0
230
1.0
  0
LINE
  5
98
100
AcDbEntity
  8
0
370
    35
390
0
 62
     7
 48
0.08125
100
AcDbLine
 10
250.887573
 20
83.051811
 30
0.0
 11
250.887573
 21
86.301811
 31
0.0
210
0.0
220
0.0
230
1.0
  0
LINE
  5
99
100
AcDbEntity
  8
0
370
    35
390
0
 62
     7
 48
0.00625
100
AcDbLine
 10
253.137573
 20
83.051811
 30
0.0
 11
252.887573
 21
83.051811
 31
0.0
210
0.0
220
0.0
230
1.0
  0
LINE
  5
9A
100
AcDbEntity
  8
0
370
    35
390
0
 62
     7
 48
0.00625
100
AcDbLine
 10
253.137573
 20
86.301811
 30
0.0
 11
252.887573
 21
86.301811
 31
0.0
210
0.0
220
0.0
230
1.0
  0
LINE
  5
9B
100
AcDbEntity
  8
0
370
    35
390
0
 62
     7
 48
0.00625
100
AcDbLine
 10
252.137573
 20
83.051811
 30
0.0
 11
251.887573
 21
83.051811
 31
0.0
210
0.0
220
0.0
230
1.0
  0
LINE
  5
9C
100
AcDbEntity
  8
0
370
    35
390
0
 62
     7
 48
0.00625
100
AcDbLine
 10
252.137573
 20
86.301811
 30
0.0
 11
251.887573
 21
86.301811
 31
0.0
210
0.0
220
0.0
230
1.0
  0
LINE
  5
9D
100
AcDbEntity
  8
0
370
    35
390
0
 62
     7
 48
0.00625
100
AcDbLine
 10
251.137573
 20
83.051811
 30
0.0
 11
250.887573
 21
83.051811
 31
0.0
210
0.0
220
0.0
230
1.0
  0
LINE
  5
9E
100
AcDbEntity
  8
0
370
    35
390
0
 62
     7
 48
0.00625
100
AcDbLine
 10
251.137573
 20
86.301811
 30
0.0
 11
250.887573
 21
86.301811
 31
0.0
210
0.0
220
0.0
230
1.0
  0
LINE
  5
9F
100
AcDbEntity
  8
0
370
    35
390
0
 62
     7
 48
0.042043
100
AcDbLine
 10
256.637604
 20
84.676826
 30
0.0
 11
255.387604
 21
85.801826
 31
0.0
210
0.0
220
0.0
230
1.0
  0
LINE
  5
A0
100
AcDbEntity
  8
0
370
    35
390
0
 62
     7
 48
0.025
100
AcDbLine
 10
254.387573
 20
84.176811
 30
0.0
 11
254.387573
 21
85.176811
 31
0.0
210
0.0
220
0.0
230
1.0
  0
LINE
  5
A1
100
AcDbEntity
  8
0
370
    35
390
0
 62
     7
 48
0.042043
100
AcDbLine
 10
255.387634
 20
83.551781
 30
0.0
 11
256.637634
 21
84.676781
 31
0.0
210
0.0
220
0.0
230
1.0
  0
LINE
  5
A2
100
AcDbEntity
  8
0
370
    35
390
0
 62
     7
 48
0.015625
100
AcDbLine
 10
255.387573
 20
85.176811
 30
0.0
 11
255.387573
 21
85.801811
 31
0.0
210
0.0
220
0.0
230
1.0
  0
LINE
  5
A3
100
AcDbEntity
  8
0
370
    35
390
0
 62
     7
 48
0.025
100
AcDbLine
 10
255.387573
 20
84.176811
 30
0.0
 11
254.387573
 21
84.176811
 31
0.0
210
0.0
220
0.0
230
1.0
  0
LINE
  5
A4
100
AcDbEntity
  8
0
370
    35
390
0
 62
     7
 48
0.025
100
AcDbLine
 10
255.387573
 20
85.176811
 30
0.0
 11
254.387573
 21
85.176811
 31
0.0
210
0.0
220
0.0
230
1.0
  0
LINE
  5
A5
100
AcDbEntity
  8
0
370
    35
390
0
 62
     7
 48
0.015625
100
AcDbLine
 10
255.387573
 20
83.551811
 30
0.0
 11
255.387573
 21
84.176811
 31
0.0
210
0.0
220
0.0
230
1.0
  0
LINE
  5
A6
100
AcDbEntity
  8
0
370
    35
390
0
 62
     7
 48
0.006253
100
AcDbLine
 10
146.765503
 20
86.509758
 30
0.0
 11
146.515503
 21
86.501884
 31
0.0
210
0.0
220
0.0
230
1.0
  0
LINE
  5
A7
100
AcDbEntity
  8
0
370
    35
390
0
 62
     7
 48
0.006253
100
AcDbLine
 10
146.015503
 20
86.486137
 30
0.0
 11
145.765503
 21
86.478264
 31
0.0
210
0.0
220
0.0
230
1.0
  0
LINE
  5
A8
100
AcDbEntity
  8
0
370
    35
390
0
 62
     7
 48
0.006253
100
AcDbLine
 10
145.265503
 20
86.462517
 30
0.0
 11
145.015503
 21
86.454628
 31
0.0
210
0.0
220
0.0
230
1.0
  0
LINE
  5
A9
100
AcDbEntity
  8
0
370
    35
390
0
 62
     7
 48
0.006253
100
AcDbLine
 10
144.515503
 20
86.438881
 30
0.0
 11
144.265503
 21
86.431007
 31
0.0
210
0.0
220
0.0
230
1.0
  0
LINE
  5
AA
100
AcDbEntity
  8
0
370
    35
390
0
 62
     7
 48
0.006253
100
AcDbLine
 10
146.765503
 20
82.843864
 30
0.0
 11
146.515503
 21
82.851738
 31
0.0
210
0.0
220
0.0
230
1.0
  0
LINE
  5
AB
100
AcDbEntity
  8
0
370
    35
390
0
 62
     7
 48
0.006253
100
AcDbLine
 10
146.015503
 20
82.867485
 30
0.0
 11
145.765503
 21
82.875359
 31
0.0
210
0.0
220
0.0
230
1.0
  0
LINE
  5
AC
100
AcDbEntity
  8
0
370
    35
390
0
 62
     7
 48
0.006253
100
AcDbLine
 10
145.265503
 20
82.891106
 30
0.0
 11
145.015503
 21
82.898979
 31
0.0
210
0.0
220
0.0
230
1.0
  0
LINE
  5
AD
100
AcDbEntity
  8
0
370
    35
390
0
 62
     7
 48
0.006253
100
AcDbLine
 10
144.515503
 20
82.914726
 30
0.0
 11
144.265503
 21
82.9226
 31
0.0
210
0.0
220
0.0
230
1.0
  0
LINE
  5
AE
100
AcDbEntity
  8
0
370
    35
390
0
 62
     7
 48
0.043147
100
AcDbLine
 10
144.265503
 20
86.681145
 30
0.0
 11
142.540497
 21
86.626808
 31
0.0
210
0.0
220
0.0
230
1.0
  0
LINE
  5
AF
100
AcDbEntity
  8
0
370
    35
390
0
 62
     7
 48
0.012506
100
AcDbLine
 10
145.015503
 20
86.704765
 30
0.0
 11
144.515503
 21
86.689018
 31
0.0
210
0.0
220
0.0
230
1.0
  0
LINE
  5
B0
100
AcDbEntity
  8
0
370
    35
390
0
 62
     7
 48
0.012506
100
AcDbLine
 10
145.765503
 20
86.728386
 30
0.0
 11
145.265503
 21
86.712639
 31
0.0
210
0.0
220
0.0
230
1.0
  0
LINE
  5
B1
100
AcDbEntity
  8
0
370
    35
390
0
 62
     7
 48
0.012506
100
AcDbLine
 10
146.515503
 20
86.752007
 30
0.0
 11
146.015503
 21
86.736259
 31
0.0
210
0.0
220
0.0
230
1.0
  0
LINE
  5
B2
100
AcDbEntity
  8
0
370
    35
390
0
 62
     7
 48
0.012506
100
AcDbLine
 10
147.265503
 20
86.775627
 30
0.0
 11
146.765503
 21
86.75988
 31
0.0
210
0.0
220
0.0
230
1.0
  0
LINE
  5
B3
100
AcDbEntity
  8
0
370
    35
390
0
 62
     7
 48
0.012506
100
AcDbLine
 10
147.265503
 20
82.57798
 30
0.0
 11
146.765503
 21
82.593742
 31
0.0
210
0.0
220
0.0
230
1.0
  0
LINE
  5
B4
100
AcDbEntity
  8
0
370
    35
390
0
 62
     7
 48
0.012506
100
AcDbLine
 10
146.515503
 20
82.601616
 30
0.0
 11
146.015503
 21
82.617363
 31
0.0
210
0.0
220
0.0
230
1.0
  0
LINE
  5
B5
100
AcDbEntity
  8
0
370
    35
390
0
 62
     7
 48
0.012506
100
AcDbLine
 10
145.765503
 20
82.625237
 30
0.0
 11
145.265503
 21
82.640984
 31
0.0
210
0.0
220
0.0
230
1.0
  0
LINE
  5
B6
100
AcDbEntity
  8
0
370
    35
390
0
 62
     7
 48
0.012506
100
AcDbLine
 10
145.015503
 20
82.648857
 30
0.0
 11
144.515503
 21
82.664604
 31
0.0
210
0.0
220
0.0
230
1.0
  0
LINE
  5
B7
100
AcDbEntity
  8
0
370
    35
390
0
 62
     7
 48
0.043147
100
AcDbLine
 10
144.265503
 20
82.672478
 30
0.0
 11
142.540497
 21
82.726799
 31
0.0
210
0.0
220
0.0
230
1.0
  0
LINE
  5
B8
100
AcDbEntity
  8
0
370
    35
390
0
 62
     7
 48
0.10061
100
AcDbLine
 10
144.515503
 20
86.689018
 30
0.0
 11
144.515503
 21
82.664604
 31
0.0
210
0.0
220
0.0
230
1.0
  0
LINE
  5
B9
100
AcDbEntity
  8
0
370
    35
390
0
 62
     7
 48
0.100217
100
AcDbLine
 10
144.265503
 20
86.681145
 30
0.0
 11
144.265503
 21
82.672478
 31
0.0
210
0.0
220
0.0
230
1.0
  0
LINE
  5
BA
100
AcDbEntity
  8
0
370
    35
390
0
 62
     7
 48
0.101398
100
AcDbLine
 10
145.015503
 20
86.704765
 30
0.0
 11
145.015503
 21
82.648857
 31
0.0
210
0.0
220
0.0
230
1.0
  0
LINE
  5
BB
100
AcDbEntity
  8
0
370
    35
390
0
 62
     7
 48
0.101791
100
AcDbLine
 10
145.265503
 20
86.712639
 30
0.0
 11
145.265503
 21
82.640984
 31
0.0
210
0.0
220
0.0
230
1.0
  0
LINE
  5
BC
100
AcDbEntity
  8
0
370
    35
390
0
 62
     7
 48
0.102972
100
AcDbLine
 10
146.015503
 20
86.736259
 30
0.0
 11
146.015503
 21
82.617363
 31
0.0
210
0.0
220
0.0
230
1.0
  0
LINE
  5
BD
100
AcDbEntity
  8
0
370
    35
390
0
 62
     7
 48
0.102579
100
AcDbLine
 10
145.765503
 20
86.728386
 30
0.0
 11
145.765503
 21
82.625237
 31
0.0
210
0.0
220
0.0
230
1.0
  0
LINE
  5
BE
100
AcDbEntity
  8
0
370
    35
390
0
 62
     7
 48
0.10376
100
AcDbLine
 10
146.515503
 20
86.752007
 30
0.0
 11
146.515503
 21
82.601616
 31
0.0
210
0.0
220
0.0
230
1.0
  0
LINE
  5
BF
100
AcDbEntity
  8
0
370
    35
390
0
 62
     7
 48
0.014382
100
AcDbLine
 10
148.090515
 20
86.801613
 30
0.0
 11
147.515503
 21
86.783501
 31
0.0
210
0.0
220
0.0
230
1.0
  0
LINE
  5
C0
100
AcDbEntity
  8
0
370
    35
390
0
 62
     7
 48
0.105335
100
AcDbLine
 10
147.515503
 20
86.783501
 30
0.0
 11
147.515503
 21
82.570107
 31
0.0
210
0.0
220
0.0
230
1.0
  0
LINE
  5
C1
100
AcDbEntity
  8
0
370
    35
390
0
 62
     7
 48
0.014382
100
AcDbLine
 10
148.090515
 20
82.55201
 30
0.0
 11
147.515503
 21
82.570107
 31
0.0
210
0.0
220
0.0
230
1.0
  0
LINE
  5
C2
100
AcDbEntity
  8
0
370
    35
390
0
 62
     7
 48
0.104941
100
AcDbLine
 10
147.265503
 20
86.775627
 30
0.0
 11
147.265503
 21
82.57798
 31
0.0
210
0.0
220
0.0
230
1.0
  0
LINE
  5
C3
100
AcDbEntity
  8
0
370
    35
390
0
 62
     7
 48
0.104153
100
AcDbLine
 10
146.765503
 20
86.75988
 30
0.0
 11
146.765503
 21
82.593742
 31
0.0
210
0.0
220
0.0
230
1.0
  0
LINE
  5
C4
100
AcDbEntity
  8
0
370
    35
390
0
 62
     7
 48
0.006253
100
AcDbLine
 10
202.165527
 20
82.914726
 30
0.0
 11
202.415527
 21
82.9226
 31
0.0
210
0.0
220
0.0
230
1.0
  0
LINE
  5
C5
100
AcDbEntity
  8
0
370
    35
390
0
 62
     7
 48
0.006253
100
AcDbLine
 10
147.515503
 20
86.533379
 30
0.0
 11
147.265503
 21
86.525505
 31
0.0
210
0.0
220
0.0
230
1.0
  0
LINE
  5
C6
100
AcDbEntity
  8
0
370
    35
390
0
 62
     7
 48
0.006253
100
AcDbLine
 10
201.415527
 20
82.891106
 30
0.0
 11
201.665527
 21
82.898979
 31
0.0
210
0.0
220
0.0
230
1.0
  0
LINE
  5
C7
100
AcDbEntity
  8
0
370
    35
390
0
 62
     7
 48
0.006253
100
AcDbLine
 10
200.665527
 20
82.867485
 30
0.0
 11
200.915527
 21
82.875359
 31
0.0
210
0.0
220
0.0
230
1.0
  0
LINE
  5
C8
100
AcDbEntity
  8
0
370
    35
390
0
 62
     7
 48
0.006253
100
AcDbLine
 10
199.915527
 20
82.843864
 30
0.0
 11
200.165527
 21
82.851738
 31
0.0
210
0.0
220
0.0
230
1.0
  0
LINE
  5
C9
100
AcDbEntity
  8
0
370
    35
390
0
 62
     7
 48
0.01251
100
AcDbLine
 10
231.661377
 20
171.98764
 30
0.0
 11
232.161377
 21
171.967926
 31
0.0
210
0.0
220
0.0
230
1.0
  0
LINE
  5
CA
100
AcDbEntity
  8
0
370
    35
390
0
 62
     7
 48
0.01251
100
AcDbLine
 10
232.411377
 20
171.958038
 30
0.0
 11
232.911377
 21
171.938324
 31
0.0
210
0.0
220
0.0
230
1.0
  0
LINE
  5
CB
100
AcDbEntity
  8
0
370
    35
390
0
 62
     7
 48
0.01251
100
AcDbLine
 10
233.161377
 20
171.928436
 30
0.0
 11
233.661377
 21
171.908691
 31
0.0
210
0.0
220
0.0
230
1.0
  0
LINE
  5
CC
100
AcDbEntity
  8
0
370
    35
390
0
 62
     7
 48
0.01251
100
AcDbLine
 10
233.911377
 20
171.898834
 30
0.0
 11
234.411377
 21
171.879089
 31
0.0
210
0.0
220
0.0
230
1.0
  0
LINE
  5
CD
100
AcDbEntity
  8
0
370
    35
390
0
 62
     7
 48
0.01251
100
AcDbLine
 10
234.661377
 20
171.869232
 30
0.0
 11
235.161377
 21
171.849487
 31
0.0
210
0.0
220
0.0
230
1.0
  0
LINE
  5
CE
100
AcDbEntity
  8
0
370
    35
390
0
 62
     7
 48
0.031274
100
AcDbLine
 10
235.411377
 20
171.83963
 30
0.0
 11
236.661377
 21
171.790283
 31
0.0
210
0.0
220
0.0
230
1.0
  0
LINE
  5
CF
100
AcDbEntity
  8
0
370
    35
390
0
 62
     7
 48
0.01251
100
AcDbLine
 10
236.911377
 20
171.780426
 30
0.0
 11
237.411377
 21
171.760681
 31
0.0
210
0.0
220
0.0
230
1.0
  0
LINE
  5
D0
100
AcDbEntity
  8
0
370
    35
390
0
 62
     7
 48
0.046912
100
AcDbLine
 10
237.661377
 20
171.750824
 30
0.0
 11
239.536377
 21
171.676788
 31
0.0
210
0.0
220
0.0
230
1.0
  0
LINE
  5
D1
100
AcDbEntity
  8
0
370
    35
390
0
 62
     7
 48
0.046911
100
AcDbLine
 10
237.661377
 20
167.602783
 30
0.0
 11
239.536377
 21
167.676788
 31
0.0
210
0.0
220
0.0
230
1.0
  0
LINE
  5
D2
100
AcDbEntity
  8
0
370
    35
390
0
 62
     7
 48
0.01251
100
AcDbLine
 10
236.911377
 20
167.573181
 30
0.0
 11
237.411377
 21
167.592926
 31
0.0
210
0.0
220
0.0
230
1.0
  0
LINE
  5
D3
100
AcDbEntity
  8
0
370
    35
390
0
 62
     7
 48
0.031274
100
AcDbLine
 10
235.411377
 20
167.513977
 30
0.0
 11
236.661377
 21
167.563324
 31
0.0
210
0.0
220
0.0
230
1.0
  0
LINE
  5
D4
100
AcDbEntity
  8
0
370
    35
390
0
 62
     7
 48
0.01251
100
AcDbLine
 10
234.661377
 20
167.484375
 30
0.0
 11
235.161377
 21
167.504089
 31
0.0
210
0.0
220
0.0
230
1.0
  0
LINE
  5
D5
100
AcDbEntity
  8
0
370
    35
390
0
 62
     7
 48
0.01251
100
AcDbLine
 10
233.911377
 20
167.454773
 30
0.0
 11
234.411377
 21
167.474487
 31
0.0
210
0.0
220
0.0
230
1.0
  0
LINE
  5
D6
100
AcDbEntity
  8
0
370
    35
390
0
 62
     7
 48
0.01251
100
AcDbLine
 10
233.161377
 20
167.42514
 30
0.0
 11
233.661377
 21
167.444885
 31
0.0
210
0.0
220
0.0
230
1.0
  0
LINE
  5
D7
100
AcDbEntity
  8
0
370
    35
390
0
 62
     7
 48
0.01251
100
AcDbLine
 10
232.411377
 20
167.395538
 30
0.0
 11
232.911377
 21
167.415283
 31
0.0
210
0.0
220
0.0
230
1.0
  0
LINE
  5
D8
100
AcDbEntity
  8
0
370
    35
390
0
 62
     7
 48
0.01251
100
AcDbLine
 10
231.661377
 20
167.365936
 30
0.0
 11
232.161377
 21
167.385681
 31
0.0
210
0.0
220
0.0
230
1.0
  0
LINE
  5
D9
100
AcDbEntity
  8
0
370
    35
390
0
 62
     7
 48
0.006255
100
AcDbLine
 10
232.161377
 20
171.717712
 30
0.0
 11
232.411377
 21
171.707855
 31
0.0
210
0.0
220
0.0
230
1.0
  0
LINE
  5
DA
100
AcDbEntity
  8
0
370
    35
390
0
 62
     7
 48
0.006255
100
AcDbLine
 10
232.911377
 20
171.68811
 30
0.0
 11
233.161377
 21
171.678253
 31
0.0
210
0.0
220
0.0
230
1.0
  0
LINE
  5
DB
100
AcDbEntity
  8
0
370
    35
390
0
 62
     7
 48
0.006255
100
AcDbLine
 10
233.661377
 20
171.658508
 30
0.0
 11
233.911377
 21
171.648651
 31
0.0
210
0.0
220
0.0
230
1.0
  0
LINE
  5
DC
100
AcDbEntity
  8
0
370
    35
390
0
 62
     7
 48
0.006255
100
AcDbLine
 10
234.411377
 20
171.628906
 30
0.0
 11
234.661377
 21
171.619049
 31
0.0
210
0.0
220
0.0
230
1.0
  0
LINE
  5
DD
100
AcDbEntity
  8
0
370
    35
390
0
 62
     7
 48
0.006255
100
AcDbLine
 10
235.161377
 20
171.599304
 30
0.0
 11
235.411377
 21
171.589447
 31
0.0
210
0.0
220
0.0
230
1.0
  0
LINE
  5
DE
100
AcDbEntity
  8
0
370
    35
390
0
 62
     7
 48
0.006255
100
AcDbLine
 10
236.661377
 20
171.5401
 30
0.0
 11
236.911377
 21
171.530212
 31
0.0
210
0.0
220
0.0
230
1.0
  0
LINE
  5
DF
100
AcDbEntity
  8
0
370
    35
390
0
 62
     7
 48
0.006255
100
AcDbLine
 10
237.411377
 20
171.510498
 30
0.0
 11
237.661377
 21
171.50061
 31
0.0
210
0.0
220
0.0
230
1.0
  0
LINE
  5
E0
100
AcDbEntity
  8
0
370
    35
390
0
 62
     7
 48
0.006255
100
AcDbLine
 10
237.411377
 20
167.843109
 30
0.0
 11
237.661377
 21
167.852966
 31
0.0
210
0.0
220
0.0
230
1.0
  0
LINE
  5
E1
100
AcDbEntity
  8
0
370
    35
390
0
 62
     7
 48
0.006255
100
AcDbLine
 10
236.661377
 20
167.813507
 30
0.0
 11
236.911377
 21
167.823364
 31
0.0
210
0.0
220
0.0
230
1.0
  0
LINE
  5
E2
100
AcDbEntity
  8
0
370
    35
390
0
 62
     7
 48
0.006255
100
AcDbLine
 10
235.161377
 20
167.754303
 30
0.0
 11
235.411377
 21
167.76416
 31
0.0
210
0.0
220
0.0
230
1.0
  0
LINE
  5
E3
100
AcDbEntity
  8
0
370
    35
390
0
 62
     7
 48
0.006255
100
AcDbLine
 10
234.411377
 20
167.724701
 30
0.0
 11
234.661377
 21
167.734558
 31
0.0
210
0.0
220
0.0
230
1.0
  0
LINE
  5
E4
100
AcDbEntity
  8
0
370
    35
390
0
 62
     7
 48
0.006255
100
AcDbLine
 10
233.661377
 20
167.695099
 30
0.0
 11
233.911377
 21
167.704956
 31
0.0
210
0.0
220
0.0
230
1.0
  0
LINE
  5
E5
100
AcDbEntity
  8
0
370
    35
390
0
 62
     7
 48
0.006255
100
AcDbLine
 10
232.911377
 20
167.665466
 30
0.0
 11
233.161377
 21
167.675354
 31
0.0
210
0.0
220
0.0
230
1.0
  0
LINE
  5
E6
100
AcDbEntity
  8
0
370
    35
390
0
 62
     7
 48
0.006255
100
AcDbLine
 10
232.161377
 20
167.635864
 30
0.0
 11
232.411377
 21
167.645752
 31
0.0
210
0.0
220
0.0
230
1.0
  0
LINE
  5
E7
100
AcDbEntity
  8
0
370
    35
390
0
 62
     7
 48
0.097446
100
AcDbLine
 10
237.661377
 20
171.50061
 30
0.0
 11
237.661377
 21
167.602783
 31
0.0
210
0.0
220
0.0
230
1.0
  0
LINE
  5
E8
100
AcDbEntity
  8
0
370
    35
390
0
 62
     7
 48
0.097939
100
AcDbLine
 10
237.411377
 20
171.510498
 30
0.0
 11
237.411377
 21
167.592926
 31
0.0
210
0.0
220
0.0
230
1.0
  0
LINE
  5
E9
100
AcDbEntity
  8
0
370
    35
390
0
 62
     7
 48
0.098926
100
AcDbLine
 10
236.911377
 20
171.530212
 30
0.0
 11
236.911377
 21
167.573181
 31
0.0
210
0.0
220
0.0
230
1.0
  0
LINE
  5
EA
100
AcDbEntity
  8
0
370
    35
390
0
 62
     7
 48
0.099419
100
AcDbLine
 10
236.661377
 20
171.5401
 30
0.0
 11
236.661377
 21
167.563324
 31
0.0
210
0.0
220
0.0
230
1.0
  0
LINE
  5
EB
100
AcDbEntity
  8
0
370
    35
390
0
 62
     7
 48
0.101887
100
AcDbLine
 10
235.411377
 20
171.589447
 30
0.0
 11
235.411377
 21
167.513977
 31
0.0
210
0.0
220
0.0
230
1.0
  0
LINE
  5
EC
100
AcDbEntity
  8
0
370
    35
390
0
 62
     7
 48
0.10238
100
AcDbLine
 10
235.161377
 20
171.599304
 30
0.0
 11
235.161377
 21
167.504089
 31
0.0
210
0.0
220
0.0
230
1.0
  0
LINE
  5
ED
100
AcDbEntity
  8
0
370
    35
390
0
 62
     7
 48
0.103367
100
AcDbLine
 10
234.661377
 20
171.619049
 30
0.0
 11
234.661377
 21
167.484375
 31
0.0
210
0.0
220
0.0
230
1.0
  0
LINE
  5
EE
100
AcDbEntity
  8
0
370
    35
390
0
 62
     7
 48
0.10386
100
AcDbLine
 10
234.411377
 20
171.628906
 30
0.0
 11
234.411377
 21
167.474487
 31
0.0
210
0.0
220
0.0
230
1.0
  0
LINE
  5
EF
100
AcDbEntity
  8
0
370
    35
390
0
 62
     7
 48
0.104847
100
AcDbLine
 10
233.911377
 20
171.648651
 30
0.0
 11
233.911377
 21
167.454773
 31
0.0
210
0.0
220
0.0
230
1.0
  0
LINE
  5
F0
100
AcDbEntity
  8
0
370
    35
390
0
 62
     7
 48
0.105341
100
AcDbLine
 10
233.661377
 20
171.658508
 30
0.0
 11
233.661377
 21
167.444885
 31
0.0
210
0.0
220
0.0
230
1.0
  0
LINE
  5
F1
100
AcDbEntity
  8
0
370
    35
390
0
 62
     7
 48
0.106328
100
AcDbLine
 10
233.161377
 20
171.678253
 30
0.0
 11
233.161377
 21
167.42514
 31
0.0
210
0.0
220
0.0
230
1.0
  0
LINE
  5
F2
100
AcDbEntity
  8
0
370
    35
390
0
 62
     7
 48
0.106821
100
AcDbLine
 10
232.911377
 20
171.68811
 30
0.0
 11
232.911377
 21
167.415283
 31
0.0
210
0.0
220
0.0
230
1.0
  0
LINE
  5
F3
100
AcDbEntity
  8
0
370
    35
390
0
 62
     7
 48
0.107808
100
AcDbLine
 10
232.411377
 20
171.707855
 30
0.0
 11
232.411377
 21
167.395538
 31
0.0
210
0.0
220
0.0
230
1.0
  0
LINE
  5
F4
100
AcDbEntity
  8
0
370
    35
390
0
 62
     7
 48
0.108301
100
AcDbLine
 10
232.161377
 20
171.717712
 30
0.0
 11
232.161377
 21
167.385681
 31
0.0
210
0.0
220
0.0
230
1.0
  0
LINE
  5
F5
100
AcDbEntity
  8
0
370
    35
390
0
 62
     7
 48
0.109288
100
AcDbLine
 10
231.661377
 20
171.737457
 30
0.0
 11
231.661377
 21
167.365936
 31
0.0
210
0.0
220
0.0
230
1.0
  0
LINE
  5
F6
100
AcDbEntity
  8
0
370
    35
390
0
 62
     7
 48
0.109781
100
AcDbLine
 10
231.411377
 20
171.747314
 30
0.0
 11
231.411377
 21
167.356079
 31
0.0
210
0.0
220
0.0
230
1.0
  0
LINE
  5
F7
100
AcDbEntity
  8
0
370
    35
390
0
 62
     7
 48
0.006255
100
AcDbLine
 10
237.411377
 20
171.760681
 30
0.0
 11
237.411377
 21
171.510498
 31
0.0
210
0.0
220
0.0
230
1.0
  0
LINE
  5
F8
100
AcDbEntity
  8
0
370
    35
390
0
 62
     7
 48
0.006255
100
AcDbLine
 10
237.661377
 20
171.750824
 30
0.0
 11
237.661377
 21
171.50061
 31
0.0
210
0.0
220
0.0
230
1.0
  0
LINE
  5
F9
100
AcDbEntity
  8
0
370
    35
390
0
 62
     7
 48
0.006255
100
AcDbLine
 10
236.911377
 20
171.780426
 30
0.0
 11
236.911377
 21
171.530212
 31
0.0
210
0.0
220
0.0
230
1.0
  0
LINE
  5
FA
100
AcDbEntity
  8
0
370
    35
390
0
 62
     7
 48
0.006255
100
AcDbLine
 10
236.661377
 20
171.790283
 30
0.0
 11
236.661377
 21
171.5401
 31
0.0
210
0.0
220
0.0
230
1.0
  0
LINE
  5
FB
100
AcDbEntity
  8
0
370
    35
390
0
 62
     7
 48
0.006255
100
AcDbLine
 10
235.161377
 20
171.849487
 30
0.0
 11
235.161377
 21
171.599304
 31
0.0
210
0.0
220
0.0
230
1.0
  0
LINE
  5
FC
100
AcDbEntity
  8
0
370
    35
390
0
 62
     7
 48
0.006255
100
AcDbLine
 10
235.411377
 20
171.83963
 30
0.0
 11
235.411377
 21
171.589447
 31
0.0
210
0.0
220
0.0
230
1.0
  0
LINE
  5
FD
100
AcDbEntity
  8
0
370
    35
390
0
 62
     7
 48
0.006255
100
AcDbLine
 10
234.661377
 20
171.869232
 30
0.0
 11
234.661377
 21
171.619049
 31
0.0
210
0.0
220
0.0
230
1.0
  0
LINE
  5
FE
100
AcDbEntity
  8
0
370
    35
390
0
 62
     7
 48
0.006255
100
AcDbLine
 10
234.411377
 20
171.879089
 30
0.0
 11
234.411377
 21
171.628906
 31
0.0
210
0.0
220
0.0
230
1.0
  0
LINE
  5
FF
100
AcDbEntity
  8
0
370
    35
390
0
 62
     7
 48
0.006255
100
AcDbLine
 10
233.661377
 20
171.908691
 30
0.0
 11
233.661377
 21
171.658508
 31
0.0
210
0.0
220
0.0
230
1.0
  0
LINE
  5
100
100
AcDbEntity
  8
0
370
    35
390
0
 62
     7
 48
0.006255
100
AcDbLine
 10
233.911377
 20
171.898834
 30
0.0
 11
233.911377
 21
171.648651
 31
0.0
210
0.0
220
0.0
230
1.0
  0
LINE
  5
101
100
AcDbEntity
  8
0
370
    35
390
0
 62
     7
 48
0.006255
100
AcDbLine
 10
231.661377
 20
171.98764
 30
0.0
 11
231.661377
 21
171.737457
 31
0.0
210
0.0
220
0.0
230
1.0
  0
LINE
  5
102
100
AcDbEntity
  8
0
370
    35
390
0
 62
     7
 48
0.006255
100
AcDbLine
 10
233.161377
 20
171.928436
 30
0.0
 11
233.161377
 21
171.678253
 31
0.0
210
0.0
220
0.0
230
1.0
  0
LINE
  5
103
100
AcDbEntity
  8
0
370
    35
390
0
 62
     7
 48
0.006255
100
AcDbLine
 10
232.911377
 20
171.938324
 30
0.0
 11
232.911377
 21
171.68811
 31
0.0
210
0.0
220
0.0
230
1.0
  0
LINE
  5
104
100
AcDbEntity
  8
0
370
    35
390
0
 62
     7
 48
0.006255
100
AcDbLine
 10
232.161377
 20
171.967926
 30
0.0
 11
232.161377
 21
171.717712
 31
0.0
210
0.0
220
0.0
230
1.0
  0
LINE
  5
105
100
AcDbEntity
  8
0
370
    35
390
0
 62
     7
 48
0.006255
100
AcDbLine
 10
232.411377
 20
171.958038
 30
0.0
 11
232.411377
 21
171.707855
 31
0.0
210
0.0
220
0.0
230
1.0
  0
LINE
  5
106
100
AcDbEntity
  8
0
370
    35
390
0
 62
     7
 48
0.006255
100
AcDbLine
 10
231.411377
 20
171.997528
 30
0.0
 11
231.411377
 21
171.747314
 31
0.0
210
0.0
220
0.0
230
1.0
  0
LINE
  5
107
100
AcDbEntity
  8
0
370
    35
390
0
 62
     7
 48
0.006255
100
AcDbLine
 10
231.411377
 20
171.747314
 30
0.0
 11
231.661377
 21
171.737457
 31
0.0
210
0.0
220
0.0
230
1.0
  0
LINE
  5
108
100
AcDbEntity
  8
0
370
    35
390
0
 62
     7
 48
0.006253
100
AcDbLine
 10
202.165527
 20
86.438881
 30
0.0
 11
202.415527
 21
86.431007
 31
0.0
210
0.0
220
0.0
230
1.0
  0
LINE
  5
109
100
AcDbEntity
  8
0
370
    35
390
0
 62
     7
 48
0.010062
100
AcDbLine
 10
198.188019
 20
91.276802
 30
0.0
 11
198.590515
 21
91.276802
 31
0.0
210
0.0
220
0.0
230
1.0
  0
LINE
  5
10A
100
AcDbEntity
  8
0
370
    35
390
0
 62
     7
 48
0.01
100
AcDbLine
 10
198.190521
 20
91.2743
 30
0.0
 11
198.590515
 21
91.2743
 31
0.0
210
0.0
220
0.0
230
1.0
  0
LINE
  5
10B
100
AcDbEntity
  8
0
370
    35
390
0
 62
     7
 48
0.006253
100
AcDbLine
 10
201.415527
 20
86.462517
 30
0.0
 11
201.665527
 21
86.454628
 31
0.0
210
0.0
220
0.0
230
1.0
  0
LINE
  5
10C
100
AcDbEntity
  8
0
370
    35
390
0
 62
     7
 48
0.006253
100
AcDbLine
 10
200.665527
 20
86.486137
 30
0.0
 11
200.915527
 21
86.478264
 31
0.0
210
0.0
220
0.0
230
1.0
  0
LINE
  5
10D
100
AcDbEntity
  8
0
370
    35
390
0
 62
     7
 48
0.006253
100
AcDbLine
 10
147.515503
 20
82.820244
 30
0.0
 11
147.265503
 21
82.828117
 31
0.0
210
0.0
220
0.0
230
1.0
  0
LINE
  5
10E
100
AcDbEntity
  8
0
370
    35
390
0
 62
     7
 48
0.006253
100
AcDbLine
 10
199.915527
 20
86.509758
 30
0.0
 11
200.165527
 21
86.501884
 31
0.0
210
0.0
220
0.0
230
1.0
  0
LINE
  5
10F
100
AcDbEntity
  8
0
370
    35
390
0
 62
     7
100
AcDbLine
 10
148.493011
 20
91.676811
 30
0.0
 11
198.188019
 21
91.676811
 31
0.0
210
0.0
220
0.0
230
1.0
  0
LINE
  5
110
100
AcDbEntity
  8
0
370
    35
390
0
 62
     7
 48
0.006255
100
AcDbLine
 10
231.411377
 20
167.606262
 30
0.0
 11
231.661377
 21
167.61615
 31
0.0
210
0.0
220
0.0
230
1.0
  0
LINE
  5
111
100
AcDbEntity
  8
0
370
    35
390
0
 62
     7
 48
0.010062
100
AcDbLine
 10
198.188019
 20
91.676811
 30
0.0
 11
198.590515
 21
91.676811
 31
0.0
210
0.0
220
0.0
230
1.0
  0
LINE
  5
112
100
AcDbEntity
  8
0
370
    35
390
0
 62
     7
 48
0.010062
100
AcDbLine
 10
148.090515
 20
91.676811
 30
0.0
 11
148.493011
 21
91.676811
 31
0.0
210
0.0
220
0.0
230
1.0
  0
LINE
  5
113
100
AcDbEntity
  8
0
370
    35
390
0
 62
     7
 48
0.000063
100
AcDbLine
 10
198.188019
 20
91.2743
 30
0.0
 11
198.190521
 21
91.2743
 31
0.0
210
0.0
220
0.0
230
1.0
  0
LINE
  5
114
100
AcDbEntity
  8
0
370
    35
390
0
 62
     7
 48
0.0975
100
AcDbLine
 10
142.540497
 20
86.626808
 30
0.0
 11
142.540497
 21
82.726799
 31
0.0
210
0.0
220
0.0
230
1.0
  0
LINE
  5
115
100
AcDbEntity
  8
0
370
    35
390
0
 62
     7
 48
0.010062
100
AcDbLine
 10
148.090515
 20
91.276802
 30
0.0
 11
148.493011
 21
91.276802
 31
0.0
210
0.0
220
0.0
230
1.0
  0
LINE
  5
116
100
AcDbEntity
  8
0
370
    35
390
0
 62
     7
 48
0.010063
100
AcDbLine
 10
198.188019
 20
91.2743
 30
0.0
 11
198.188019
 21
91.676811
 31
0.0
210
0.0
220
0.0
230
1.0
  0
LINE
  5
117
100
AcDbEntity
  8
0
370
    35
390
0
 62
     7
 48
0.01
100
AcDbLine
 10
148.090515
 20
91.276802
 30
0.0
 11
148.090515
 21
91.676811
 31
0.0
210
0.0
220
0.0
230
1.0
  0
LINE
  5
118
100
AcDbEntity
  8
0
370
    35
390
0
 62
     7
 48
0.01
100
AcDbLine
 10
198.590515
 20
91.276802
 30
0.0
 11
198.590515
 21
91.676811
 31
0.0
210
0.0
220
0.0
230
1.0
  0
LINE
  5
119
100
AcDbEntity
  8
0
370
    35
390
0
 62
     7
100
AcDbLine
 10
148.090515
 20
77.676811
 30
0.0
 11
198.590515
 21
77.676811
 31
0.0
210
0.0
220
0.0
230
1.0
  0
LINE
  5
11A
100
AcDbEntity
  8
0
370
    35
390
0
 62
     7
 48
0.0875
100
AcDbLine
 10
144.590515
 20
91.2743
 30
0.0
 11
148.090515
 21
91.2743
 31
0.0
210
0.0
220
0.0
230
1.0
  0
LINE
  5
11B
100
AcDbEntity
  8
0
370
    35
390
0
 62
     7
 48
0.010062
100
AcDbLine
 10
198.188019
 20
78.076805
 30
0.0
 11
198.590515
 21
78.076805
 31
0.0
210
0.0
220
0.0
230
1.0
  0
LINE
  5
11C
100
AcDbEntity
  8
0
370
    35
390
0
 62
     7
 48
0.111187
100
AcDbLine
 10
148.090515
 20
91.2743
 30
0.0
 11
148.090515
 21
86.826805
 31
0.0
210
0.0
220
0.0
230
1.0
  0
LINE
  5
11D
100
AcDbEntity
  8
0
370
    35
390
0
 62
     7
 48
0.01
100
AcDbLine
 10
148.090515
 20
91.2743
 30
0.0
 11
148.490509
 21
91.2743
 31
0.0
210
0.0
220
0.0
230
1.0
  0
LINE
  5
11E
100
AcDbEntity
  8
0
370
    35
390
0
 62
     7
 48
0.061187
100
AcDbLine
 10
203.090515
 20
79.079308
 30
0.0
 11
203.090515
 21
81.526802
 31
0.0
210
0.0
220
0.0
230
1.0
  0
LINE
  5
11F
100
AcDbEntity
  8
0
370
    35
390
0
 62
     7
 48
0.0875
100
AcDbLine
 10
148.090515
 20
86.826805
 30
0.0
 11
144.590515
 21
86.826805
 31
0.0
210
0.0
220
0.0
230
1.0
  0
LINE
  5
120
100
AcDbEntity
  8
0
370
    35
390
0
 62
     7
 48
0.111187
100
AcDbLine
 10
198.590515
 20
82.526802
 30
0.0
 11
198.590515
 21
78.079308
 31
0.0
210
0.0
220
0.0
230
1.0
  0
LINE
  5
121
100
AcDbEntity
  8
0
370
    35
390
0
 62
     7
 48
0.01
100
AcDbLine
 10
198.190521
 20
78.079308
 30
0.0
 11
198.590515
 21
78.079308
 31
0.0
210
0.0
220
0.0
230
1.0
  0
LINE
  5
122
100
AcDbEntity
  8
0
370
    35
390
0
 62
     7
 48
0.0875
100
AcDbLine
 10
202.090515
 20
78.079308
 30
0.0
 11
198.590515
 21
78.079308
 31
0.0
210
0.0
220
0.0
230
1.0
  0
LINE
  5
123
100
AcDbEntity
  8
0
370
    35
390
0
 62
     7
 48
0.0875
100
AcDbLine
 10
202.090515
 20
82.526802
 30
0.0
 11
198.590515
 21
82.526802
 31
0.0
210
0.0
220
0.0
230
1.0
  0
LINE
  5
124
100
AcDbEntity
  8
0
370
    35
390
0
 62
     7
 48
0.061187
100
AcDbLine
 10
143.590515
 20
90.2743
 30
0.0
 11
143.590515
 21
87.826805
 31
0.0
210
0.0
220
0.0
230
1.0
  0
LINE
  5
125
100
AcDbEntity
  8
0
370
    35
390
0
 62
     7
 48
0.218687
100
AcDbLine
 10
198.590515
 20
78.079308
 30
0.0
 11
198.590515
 21
86.826805
 31
0.0
210
0.0
220
0.0
230
1.0
  0
LINE
  5
126
100
AcDbEntity
  8
0
370
    35
390
0
 62
     7
 48
0.0125
100
AcDbLine
 10
148.090515
 20
82.526802
 30
0.0
 11
148.090515
 21
82.026802
 31
0.0
210
0.0
220
0.0
230
1.0
  0
LINE
  5
127
100
AcDbEntity
  8
0
370
    35
390
0
 62
     7
 48
0.098687
100
AcDbLine
 10
148.090515
 20
82.026802
 30
0.0
 11
148.090515
 21
78.079308
 31
0.0
210
0.0
220
0.0
230
1.0
  0
LINE
  5
128
100
AcDbEntity
  8
0
370
    35
390
0
 62
     7
 48
0.0125
100
AcDbLine
 10
198.590515
 20
86.826805
 30
0.0
 11
198.590515
 21
87.326805
 31
0.0
210
0.0
220
0.0
230
1.0
  0
LINE
  5
129
100
AcDbEntity
  8
0
370
    35
390
0
 62
     7
 48
0.098687
100
AcDbLine
 10
198.590515
 20
87.326805
 30
0.0
 11
198.590515
 21
91.2743
 31
0.0
210
0.0
220
0.0
230
1.0
  0
LINE
  5
12A
100
AcDbEntity
  8
0
370
    35
390
0
 62
     7
 48
0.000063
100
AcDbLine
 10
198.188019
 20
78.079308
 30
0.0
 11
198.190521
 21
78.079308
 31
0.0
210
0.0
220
0.0
230
1.0
  0
LINE
  5
12B
100
AcDbEntity
  8
0
370
    35
390
0
 62
     7
 48
0.420432
100
AcDbLine
 10
222.670288
 20
86.126808
 30
0.0
 11
239.487579
 21
86.126808
 31
0.0
210
0.0
220
0.0
230
1.0
  0
LINE
  5
12C
100
AcDbEntity
  8
0
370
    35
390
0
 62
     7
100
AcDbLine
 10
142.540497
 20
86.126808
 30
0.0
 11
102.910973
 21
86.126808
 31
0.0
210
0.0
220
0.0
230
1.0
  0
LINE
  5
12D
100
AcDbEntity
  8
0
370
    35
390
0
 62
     7
 48
0.40061
100
AcDbLine
 10
204.140503
 20
83.226799
 30
0.0
 11
220.164917
 21
83.226799
 31
0.0
210
0.0
220
0.0
230
1.0
  0
LINE
  5
12E
100
AcDbEntity
  8
0
370
    35
390
0
 62
     7
 48
0.010062
100
AcDbLine
 10
148.090515
 20
78.076805
 30
0.0
 11
148.493011
 21
78.076805
 31
0.0
210
0.0
220
0.0
230
1.0
  0
LINE
  5
12F
100
AcDbEntity
  8
0
370
    35
390
0
 62
     7
 48
0.01
100
AcDbLine
 10
148.490509
 20
78.079308
 30
0.0
 11
148.090515
 21
78.079308
 31
0.0
210
0.0
220
0.0
230
1.0
  0
LINE
  5
130
100
AcDbEntity
  8
0
370
    35
390
0
 62
     7
 48
0.000063
100
AcDbLine
 10
148.490509
 20
78.079308
 30
0.0
 11
148.493011
 21
78.079308
 31
0.0
210
0.0
220
0.0
230
1.0
  0
LINE
  5
131
100
AcDbEntity
  8
0
370
    35
390
0
 62
     7
 48
0.218687
100
AcDbLine
 10
148.090515
 20
91.2743
 30
0.0
 11
148.090515
 21
82.526802
 31
0.0
210
0.0
220
0.0
230
1.0
  0
LINE
  5
132
100
AcDbEntity
  8
0
370
    35
390
0
 62
     7
 48
0.01
100
AcDbLine
 10
148.090515
 20
77.676811
 30
0.0
 11
148.090515
 21
78.076805
 31
0.0
210
0.0
220
0.0
230
1.0
  0
LINE
  5
133
100
AcDbEntity
  8
0
370
    35
390
0
 62
     7
 48
0.01
100
AcDbLine
 10
198.590515
 20
77.676811
 30
0.0
 11
198.590515
 21
78.076805
 31
0.0
210
0.0
220
0.0
230
1.0
  0
LINE
  5
134
100
AcDbEntity
  8
0
370
    35
390
0
 62
     7
 48
0.010062
100
AcDbLine
 10
198.188019
 20
77.676811
 30
0.0
 11
198.188019
 21
78.079308
 31
0.0
210
0.0
220
0.0
230
1.0
  0
LINE
  5
135
100
AcDbEntity
  8
0
370
    35
390
0
 62
     7
 48
0.000063
100
AcDbLine
 10
148.490509
 20
91.2743
 30
0.0
 11
148.493011
 21
91.2743
 31
0.0
210
0.0
220
0.0
230
1.0
  0
LINE
  5
136
100
AcDbEntity
  8
0
370
    35
390
0
 62
     7
 48
0.010063
100
AcDbLine
 10
148.493011
 20
91.2743
 30
0.0
 11
148.493011
 21
91.676811
 31
0.0
210
0.0
220
0.0
230
1.0
  0
LINE
  5
137
100
AcDbEntity
  8
0
370
    35
390
0
 62
     7
 48
0.010062
100
AcDbLine
 10
148.493011
 20
77.676811
 30
0.0
 11
148.493011
 21
78.079308
 31
0.0
210
0.0
220
0.0
230
1.0
  0
LINE
  5
138
100
AcDbEntity
  8
0
370
    35
390
0
 62
     7
 48
0.420432
100
AcDbLine
 10
222.670288
 20
33.226799
 30
0.0
 11
239.487579
 21
33.226799
 31
0.0
210
0.0
220
0.0
230
1.0
  0
LINE
  5
139
100
AcDbEntity
  8
0
370
    35
390
0
 62
     7
 48
0.1
100
AcDbLine
 10
246.487579
 20
32.676819
 30
0.0
 11
246.487579
 21
36.676811
 31
0.0
210
0.0
220
0.0
230
1.0
  0
LINE
  5
13A
100
AcDbEntity
  8
0
370
    35
390
0
 62
     7
 48
0.125
100
AcDbLine
 10
264.237579
 20
32.176819
 30
0.0
 11
264.237579
 21
37.176811
 31
0.0
210
0.0
220
0.0
230
1.0
  0
LINE
  5
13B
100
AcDbEntity
  8
0
370
    35
390
0
 62
     7
 48
0.1475
100
AcDbLine
 10
261.137573
 20
31.726822
 30
0.0
 11
261.137573
 21
37.626823
 31
0.0
210
0.0
220
0.0
230
1.0
  0
LINE
  5
13C
100
AcDbEntity
  8
0
370
    35
390
0
 62
     7
 48
0.0875
100
AcDbLine
 10
239.487579
 20
32.926819
 30
0.0
 11
239.487579
 21
36.426811
 31
0.0
210
0.0
220
0.0
230
1.0
  0
LINE
  5
13D
100
AcDbEntity
  8
0
370
    35
390
0
 62
     7
 48
0.1625
100
AcDbLine
 10
248.987579
 20
31.426819
 30
0.0
 11
248.987579
 21
37.926811
 31
0.0
210
0.0
220
0.0
230
1.0
  0
LINE
  5
13E
100
AcDbEntity
  8
0
370
    35
390
0
 62
     7
 48
0.1625
100
AcDbLine
 10
258.737579
 20
31.426819
 30
0.0
 11
258.737579
 21
37.926811
 31
0.0
210
0.0
220
0.0
230
1.0
  0
LINE
  5
13F
100
AcDbEntity
  8
0
370
    35
390
0
 62
     7
 48
0.24375
100
AcDbLine
 10
258.737579
 20
31.426819
 30
0.0
 11
248.987579
 21
31.426819
 31
0.0
210
0.0
220
0.0
230
1.0
  0
LINE
  5
140
100
AcDbEntity
  8
0
370
    35
390
0
 62
     7
 48
0.24375
100
AcDbLine
 10
258.737579
 20
37.926811
 30
0.0
 11
248.987579
 21
37.926811
 31
0.0
210
0.0
220
0.0
230
1.0
  0
LINE
  5
141
100
AcDbEntity
  8
0
370
    35
390
0
 62
     7
 48
0.06
100
AcDbLine
 10
261.137573
 20
31.726822
 30
0.0
 11
258.737579
 21
31.726822
 31
0.0
210
0.0
220
0.0
230
1.0
  0
LINE
  5
142
100
AcDbEntity
  8
0
370
    35
390
0
 62
     7
 48
0.06
100
AcDbLine
 10
261.137573
 20
37.626823
 30
0.0
 11
258.737579
 21
37.626823
 31
0.0
210
0.0
220
0.0
230
1.0
  0
LINE
  5
143
100
AcDbEntity
  8
0
370
    35
390
0
 62
     7
 48
0.0775
100
AcDbLine
 10
264.237579
 20
32.176819
 30
0.0
 11
261.137573
 21
32.176819
 31
0.0
210
0.0
220
0.0
230
1.0
  0
LINE
  5
144
100
AcDbEntity
  8
0
370
    35
390
0
 62
     7
 48
0.0775
100
AcDbLine
 10
264.237579
 20
37.176811
 30
0.0
 11
261.137573
 21
37.176811
 31
0.0
210
0.0
220
0.0
230
1.0
  0
LINE
  5
145
100
AcDbEntity
  8
0
370
    35
390
0
 62
     7
 48
0.175112
100
AcDbLine
 10
239.48761
 20
32.926811
 30
0.0
 11
246.48761
 21
32.676811
 31
0.0
210
0.0
220
0.0
230
1.0
  0
LINE
  5
146
100
AcDbEntity
  8
0
370
    35
390
0
 62
     7
 48
0.06686
100
AcDbLine
 10
248.98761
 20
31.726814
 30
0.0
 11
246.48761
 21
32.676811
 31
0.0
210
0.0
220
0.0
230
1.0
  0
LINE
  5
147
100
AcDbEntity
  8
0
370
    35
390
0
 62
     7
 48
0.175112
100
AcDbLine
 10
239.487579
 20
36.426811
 30
0.0
 11
246.487579
 21
36.676811
 31
0.0
210
0.0
220
0.0
230
1.0
  0
LINE
  5
148
100
AcDbEntity
  8
0
370
    35
390
0
 62
     7
 48
0.06686
100
AcDbLine
 10
248.98761
 20
37.626762
 30
0.0
 11
246.48761
 21
36.676765
 31
0.0
210
0.0
220
0.0
230
1.0
  0
LINE
  5
149
100
AcDbEntity
  8
0
370
    35
390
0
 62
     7
 48
0.025826
100
AcDbLine
 10
245.969086
 20
35.676826
 30
0.0
 11
246.228333
 21
34.676826
 31
0.0
210
0.0
220
0.0
230
1.0
  0
LINE
  5
14A
100
AcDbEntity
  8
0
370
    35
390
0
 62
     7
 48
0.025116
100
AcDbLine
 10
245.716919
 20
32.704338
 30
0.0
 11
245.969055
 21
33.676811
 31
0.0
210
0.0
220
0.0
230
1.0
  0
LINE
  5
14B
100
AcDbEntity
  8
0
370
    35
390
0
 62
     7
 48
0.025826
100
AcDbLine
 10
245.969055
 20
33.676826
 30
0.0
 11
245.709808
 21
34.676826
 31
0.0
210
0.0
220
0.0
230
1.0
  0
LINE
  5
14C
100
AcDbEntity
  8
0
370
    35
390
0
 62
     7
 48
0.025826
100
AcDbLine
 10
245.709778
 20
34.676826
 30
0.0
 11
245.450562
 21
33.676826
 31
0.0
210
0.0
220
0.0
230
1.0
  0
LINE
  5
14D
100
AcDbEntity
  8
0
370
    35
390
0
 62
     7
 48
0.025102
100
AcDbLine
 10
245.450531
 20
33.676811
 30
0.0
 11
245.702515
 21
32.704857
 31
0.0
210
0.0
220
0.0
230
1.0
  0
LINE
  5
14E
100
AcDbEntity
  8
0
370
    35
390
0
 62
     7
 48
0.025826
100
AcDbLine
 10
245.191345
 20
34.676811
 30
0.0
 11
245.450592
 21
35.676811
 31
0.0
210
0.0
220
0.0
230
1.0
  0
LINE
  5
14F
100
AcDbEntity
  8
0
370
    35
390
0
 62
     7
 48
0.024642
100
AcDbLine
 10
245.450562
 20
35.676826
 30
0.0
 11
245.203186
 21
36.630943
 31
0.0
210
0.0
220
0.0
230
1.0
  0
LINE
  5
150
100
AcDbEntity
  8
0
370
    35
390
0
 62
     7
 48
0.02462
100
AcDbLine
 10
245.179199
 20
36.630089
 30
0.0
 11
244.932037
 21
35.676811
 31
0.0
210
0.0
220
0.0
230
1.0
  0
LINE
  5
151
100
AcDbEntity
  8
0
370
    35
390
0
 62
     7
 48
0.025826
100
AcDbLine
 10
244.932037
 20
35.676811
 30
0.0
 11
245.191284
 21
34.676826
 31
0.0
210
0.0
220
0.0
230
1.0
  0
LINE
  5
152
100
AcDbEntity
  8
0
370
    35
390
0
 62
     7
 48
0.024168
100
AcDbLine
 10
244.689453
 20
32.741035
 30
0.0
 11
244.932068
 21
33.676811
 31
0.0
210
0.0
220
0.0
230
1.0
  0
LINE
  5
153
100
AcDbEntity
  8
0
370
    35
390
0
 62
     7
 48
0.025827
100
AcDbLine
 10
244.932037
 20
33.676811
 30
0.0
 11
244.672791
 21
34.676826
 31
0.0
210
0.0
220
0.0
230
1.0
  0
LINE
  5
154
100
AcDbEntity
  8
0
370
    35
390
0
 62
     7
 48
0.025827
100
AcDbLine
 10
244.672791
 20
34.676811
 30
0.0
 11
244.413513
 21
33.676811
 31
0.0
210
0.0
220
0.0
230
1.0
  0
LINE
  5
155
100
AcDbEntity
  8
0
370
    35
390
0
 62
     7
 48
0.024137
100
AcDbLine
 10
244.413513
 20
33.676826
 30
0.0
 11
244.655823
 21
32.742249
 31
0.0
210
0.0
220
0.0
230
1.0
  0
LINE
  5
156
100
AcDbEntity
  8
0
370
    35
390
0
 62
     7
 48
0.025827
100
AcDbLine
 10
244.154236
 20
34.676826
 30
0.0
 11
244.413513
 21
35.676826
 31
0.0
210
0.0
220
0.0
230
1.0
  0
LINE
  5
157
100
AcDbEntity
  8
0
370
    35
390
0
 62
     7
 48
0.025585
100
AcDbLine
 10
246.225922
 20
36.667473
 30
0.0
 11
245.969086
 21
35.676811
 31
0.0
210
0.0
220
0.0
230
1.0
  0
LINE
  5
158
100
AcDbEntity
  8
0
370
    35
390
0
 62
     7
 48
0.025826
100
AcDbLine
 10
246.228333
 20
34.676811
 30
0.0
 11
246.487579
 21
35.676811
 31
0.0
210
0.0
220
0.0
230
1.0
  0
LINE
  5
159
100
AcDbEntity
  8
0
370
    35
390
0
 62
     7
 48
0.02559
100
AcDbLine
 10
246.48761
 20
35.676826
 30
0.0
 11
246.230743
 21
36.667656
 31
0.0
210
0.0
220
0.0
230
1.0
  0
LINE
  5
15A
100
AcDbEntity
  8
0
370
    35
390
0
 62
     7
 48
0.023694
100
AcDbLine
 10
244.413513
 20
35.676811
 30
0.0
 11
244.17569
 21
36.594246
 31
0.0
210
0.0
220
0.0
230
1.0
  0
LINE
  5
15B
100
AcDbEntity
  8
0
370
    35
390
0
 62
     7
 48
0.023654
100
AcDbLine
 10
244.132477
 20
36.592705
 30
0.0
 11
243.89502
 21
35.676826
 31
0.0
210
0.0
220
0.0
230
1.0
  0
LINE
  5
15C
100
AcDbEntity
  8
0
370
    35
390
0
 62
     7
 48
0.025827
100
AcDbLine
 10
243.89502
 20
35.676826
 30
0.0
 11
244.154297
 21
34.676811
 31
0.0
210
0.0
220
0.0
230
1.0
  0
LINE
  5
15D
100
AcDbEntity
  8
0
370
    35
390
0
 62
     7
 48
0.02322
100
AcDbLine
 10
243.661926
 20
32.77774
 30
0.0
 11
243.89502
 21
33.676811
 31
0.0
210
0.0
220
0.0
230
1.0
  0
LINE
  5
15E
100
AcDbEntity
  8
0
370
    35
390
0
 62
     7
 48
0.025827
100
AcDbLine
 10
243.89502
 20
33.676826
 30
0.0
 11
243.635742
 21
34.676826
 31
0.0
210
0.0
220
0.0
230
1.0
  0
LINE
  5
15F
100
AcDbEntity
  8
0
370
    35
390
0
 62
     7
 48
0.025826
100
AcDbLine
 10
243.635742
 20
34.676826
 30
0.0
 11
243.376495
 21
33.676826
 31
0.0
210
0.0
220
0.0
230
1.0
  0
LINE
  5
160
100
AcDbEntity
  8
0
370
    35
390
0
 62
     7
 48
0.023171
100
AcDbLine
 10
243.376465
 20
33.676811
 30
0.0
 11
243.60907
 21
32.779617
 31
0.0
210
0.0
220
0.0
230
1.0
  0
LINE
  5
161
100
AcDbEntity
  8
0
370
    35
390
0
 62
     7
 48
0.025826
100
AcDbLine
 10
243.117249
 20
34.676811
 30
0.0
 11
243.376495
 21
35.676811
 31
0.0
210
0.0
220
0.0
230
1.0
  0
LINE
  5
162
100
AcDbEntity
  8
0
370
    35
390
0
 62
     7
 48
0.022747
100
AcDbLine
 10
243.376495
 20
35.676826
 30
0.0
 11
243.148132
 21
36.557564
 31
0.0
210
0.0
220
0.0
230
1.0
  0
LINE
  5
163
100
AcDbEntity
  8
0
370
    35
390
0
 62
     7
 48
0.022688
100
AcDbLine
 10
243.085693
 20
36.555321
 30
0.0
 11
242.857941
 21
35.676826
 31
0.0
210
0.0
220
0.0
230
1.0
  0
LINE
  5
164
100
AcDbEntity
  8
0
370
    35
390
0
 62
     7
 48
0.025826
100
AcDbLine
 10
242.857971
 20
35.676811
 30
0.0
 11
243.117218
 21
34.676811
 31
0.0
210
0.0
220
0.0
230
1.0
  0
LINE
  5
165
100
AcDbEntity
  8
0
370
    35
390
0
 62
     7
 48
0.022272
100
AcDbLine
 10
242.634399
 20
32.81443
 30
0.0
 11
242.857971
 21
33.676811
 31
0.0
210
0.0
220
0.0
230
1.0
  0
LINE
  5
166
100
AcDbEntity
  8
0
370
    35
390
0
 62
     7
 48
0.40061
100
AcDbLine
 10
204.140503
 20
36.126808
 30
0.0
 11
220.164917
 21
36.126808
 31
0.0
210
0.0
220
0.0
230
1.0
  0
LINE
  5
167
100
AcDbEntity
  8
0
370
    35
390
0
 62
     7
 48
0.0975
100
AcDbLine
 10
204.140503
 20
36.626808
 30
0.0
 11
204.140503
 21
32.726807
 31
0.0
210
0.0
220
0.0
230
1.0
  0
LINE
  5
168
100
AcDbEntity
  8
0
370
    35
390
0
 62
     7
 48
0.006253
100
AcDbLine
 10
199.165527
 20
32.820236
 30
0.0
 11
199.415527
 21
32.82811
 31
0.0
210
0.0
220
0.0
230
1.0
  0
LINE
  5
169
100
AcDbEntity
  8
0
370
    35
390
0
 62
     7
 48
0.006253
100
AcDbLine
 10
199.165527
 20
36.533379
 30
0.0
 11
199.415527
 21
36.525505
 31
0.0
210
0.0
220
0.0
230
1.0
  0
LINE
  5
16A
100
AcDbEntity
  8
0
370
    35
390
0
 62
     7
 48
0.104154
100
AcDbLine
 10
199.915527
 20
36.75988
 30
0.0
 11
199.915527
 21
32.593735
 31
0.0
210
0.0
220
0.0
230
1.0
  0
LINE
  5
16B
100
AcDbEntity
  8
0
370
    35
390
0
 62
     7
 48
0.104941
100
AcDbLine
 10
199.415527
 20
36.775627
 30
0.0
 11
199.415527
 21
32.577988
 31
0.0
210
0.0
220
0.0
230
1.0
  0
LINE
  5
16C
100
AcDbEntity
  8
0
370
    35
390
0
 62
     7
 48
0.014382
100
AcDbLine
 10
198.590515
 20
32.552002
 30
0.0
 11
199.165527
 21
32.570114
 31
0.0
210
0.0
220
0.0
230
1.0
  0
LINE
  5
16D
100
AcDbEntity
  8
0
370
    35
390
0
 62
     7
 48
0.105335
100
AcDbLine
 10
199.165527
 20
36.783501
 30
0.0
 11
199.165527
 21
32.570114
 31
0.0
210
0.0
220
0.0
230
1.0
  0
LINE
  5
16E
100
AcDbEntity
  8
0
370
    35
390
0
 62
     7
 48
0.014382
100
AcDbLine
 10
198.590515
 20
36.801613
 30
0.0
 11
199.165527
 21
36.783501
 31
0.0
210
0.0
220
0.0
230
1.0
  0
LINE
  5
16F
100
AcDbEntity
  8
0
370
    35
390
0
 62
     7
 48
0.10376
100
AcDbLine
 10
200.165527
 20
36.752007
 30
0.0
 11
200.165527
 21
32.601608
 31
0.0
210
0.0
220
0.0
230
1.0
  0
LINE
  5
170
100
AcDbEntity
  8
0
370
    35
390
0
 62
     7
 48
0.102579
100
AcDbLine
 10
200.915527
 20
36.728386
 30
0.0
 11
200.915527
 21
32.625229
 31
0.0
210
0.0
220
0.0
230
1.0
  0
LINE
  5
171
100
AcDbEntity
  8
0
370
    35
390
0
 62
     7
 48
0.102973
100
AcDbLine
 10
200.665527
 20
36.736259
 30
0.0
 11
200.665527
 21
32.617355
 31
0.0
210
0.0
220
0.0
230
1.0
  0
LINE
  5
172
100
AcDbEntity
  8
0
370
    35
390
0
 62
     7
 48
0.150609
100
AcDbLine
 10
142.540497
 20
33.226799
 30
0.0
 11
136.516144
 21
33.226799
 31
0.0
210
0.0
220
0.0
230
1.0
  0
LINE
  5
173
100
AcDbEntity
  8
0
370
    35
390
0
 62
     7
 48
0.101792
100
AcDbLine
 10
201.415527
 20
36.712639
 30
0.0
 11
201.415527
 21
32.640976
 31
0.0
210
0.0
220
0.0
230
1.0
  0
LINE
  5
174
100
AcDbEntity
  8
0
370
    35
390
0
 62
     7
 48
0.101398
100
AcDbLine
 10
201.665527
 20
36.704765
 30
0.0
 11
201.665527
 21
32.648857
 31
0.0
210
0.0
220
0.0
230
1.0
  0
LINE
  5
175
100
AcDbEntity
  8
0
370
    35
390
0
 62
     7
 48
0.100217
100
AcDbLine
 10
202.415527
 20
36.681145
 30
0.0
 11
202.415527
 21
32.672478
 31
0.0
210
0.0
220
0.0
230
1.0
  0
LINE
  5
176
100
AcDbEntity
  8
0
370
    35
390
0
 62
     7
 48
0.10061
100
AcDbLine
 10
202.165527
 20
36.689018
 30
0.0
 11
202.165527
 21
32.664604
 31
0.0
210
0.0
220
0.0
230
1.0
  0
LINE
  5
177
100
AcDbEntity
  8
0
370
    35
390
0
 62
     7
 48
0.043146
100
AcDbLine
 10
202.415527
 20
32.672478
 30
0.0
 11
204.140503
 21
32.726807
 31
0.0
210
0.0
220
0.0
230
1.0
  0
LINE
  5
178
100
AcDbEntity
  8
0
370
    35
390
0
 62
     7
 48
0.012506
100
AcDbLine
 10
201.665527
 20
32.648857
 30
0.0
 11
202.165527
 21
32.664604
 31
0.0
210
0.0
220
0.0
230
1.0
  0
LINE
  5
179
100
AcDbEntity
  8
0
370
    35
390
0
 62
     7
 48
0.012506
100
AcDbLine
 10
200.915527
 20
32.625229
 30
0.0
 11
201.415527
 21
32.640976
 31
0.0
210
0.0
220
0.0
230
1.0
  0
LINE
  5
17A
100
AcDbEntity
  8
0
370
    35
390
0
 62
     7
 48
0.012506
100
AcDbLine
 10
200.165527
 20
32.601608
 30
0.0
 11
200.665527
 21
32.617355
 31
0.0
210
0.0
220
0.0
230
1.0
  0
LINE
  5
17B
100
AcDbEntity
  8
0
370
    35
390
0
 62
     7
 48
0.012506
100
AcDbLine
 10
199.415527
 20
32.577988
 30
0.0
 11
199.915527
 21
32.593735
 31
0.0
210
0.0
220
0.0
230
1.0
  0
LINE
  5
17C
100
AcDbEntity
  8
0
370
    35
390
0
 62
     7
 48
0.012506
100
AcDbLine
 10
199.415527
 20
36.775627
 30
0.0
 11
199.915527
 21
36.75988
 31
0.0
210
0.0
220
0.0
230
1.0
  0
LINE
  5
17D
100
AcDbEntity
  8
0
370
    35
390
0
 62
     7
 48
0.012506
100
AcDbLine
 10
200.165527
 20
36.752007
 30
0.0
 11
200.665527
 21
36.736259
 31
0.0
210
0.0
220
0.0
230
1.0
  0
LINE
  5
17E
100
AcDbEntity
  8
0
370
    35
390
0
 62
     7
 48
0.012506
100
AcDbLine
 10
200.915527
 20
36.728386
 30
0.0
 11
201.415527
 21
36.712639
 31
0.0
210
0.0
220
0.0
230
1.0
  0
LINE
  5
17F
100
AcDbEntity
  8
0
370
    35
390
0
 62
     7
 48
0.012506
100
AcDbLine
 10
201.665527
 20
36.704765
 30
0.0
 11
202.165527
 21
36.689018
 31
0.0
210
0.0
220
0.0
230
1.0
  0
LINE
  5
180
100
AcDbEntity
  8
0
370
    35
390
0
 62
     7
 48
0.043146
100
AcDbLine
 10
202.415527
 20
36.681145
 30
0.0
 11
204.140503
 21
36.626808
 31
0.0
210
0.0
220
0.0
230
1.0
  0
LINE
  5
181
100
AcDbEntity
  8
0
370
    35
390
0
 62
     7
 48
0.025827
100
AcDbLine
 10
242.857971
 20
33.676811
 30
0.0
 11
242.598694
 21
34.676826
 31
0.0
210
0.0
220
0.0
230
1.0
  0
LINE
  5
182
100
AcDbEntity
  8
0
370
    35
390
0
 62
     7
 48
0.025827
100
AcDbLine
 10
242.598724
 20
34.676811
 30
0.0
 11
242.339447
 21
33.676811
 31
0.0
210
0.0
220
0.0
230
1.0
  0
LINE
  5
183
100
AcDbEntity
  8
0
370
    35
390
0
 62
     7
 48
0.022206
100
AcDbLine
 10
242.339417
 20
33.676826
 30
0.0
 11
242.562347
 21
32.817009
 31
0.0
210
0.0
220
0.0
230
1.0
  0
LINE
  5
184
100
AcDbEntity
  8
0
370
    35
390
0
 62
     7
 48
0.025827
100
AcDbLine
 10
242.0802
 20
34.676826
 30
0.0
 11
242.339478
 21
35.676826
 31
0.0
210
0.0
220
0.0
230
1.0
  0
LINE
  5
185
100
AcDbEntity
  8
0
370
    35
390
0
 62
     7
 48
0.021799
100
AcDbLine
 10
242.339417
 20
35.676811
 30
0.0
 11
242.120605
 21
36.520851
 31
0.0
210
0.0
220
0.0
230
1.0
  0
LINE
  5
186
100
AcDbEntity
  8
0
370
    35
390
0
 62
     7
 48
0.021723
100
AcDbLine
 10
242.039001
 20
36.517937
 30
0.0
 11
241.820923
 21
35.676826
 31
0.0
210
0.0
220
0.0
230
1.0
  0
LINE
  5
187
100
AcDbEntity
  8
0
370
    35
390
0
 62
     7
 48
0.025826
100
AcDbLine
 10
241.820923
 20
35.676826
 30
0.0
 11
242.08017
 21
34.676826
 31
0.0
210
0.0
220
0.0
230
1.0
  0
LINE
  5
188
100
AcDbEntity
  8
0
370
    35
390
0
 62
     7
 48
0.021325
100
AcDbLine
 10
241.606842
 20
32.851135
 30
0.0
 11
241.820923
 21
33.676826
 31
0.0
210
0.0
220
0.0
230
1.0
  0
LINE
  5
189
100
AcDbEntity
  8
0
370
    35
390
0
 62
     7
 48
0.025826
100
AcDbLine
 10
241.820892
 20
33.676826
 30
0.0
 11
241.561646
 21
34.676826
 31
0.0
210
0.0
220
0.0
230
1.0
  0
LINE
  5
18A
100
AcDbEntity
  8
0
370
    35
390
0
 62
     7
 48
0.025827
100
AcDbLine
 10
241.561676
 20
34.676826
 30
0.0
 11
241.302399
 21
33.676826
 31
0.0
210
0.0
220
0.0
230
1.0
  0
LINE
  5
18B
100
AcDbEntity
  8
0
370
    35
390
0
 62
     7
 48
0.02124
100
AcDbLine
 10
241.302429
 20
33.676826
 30
0.0
 11
241.515625
 21
32.854393
 31
0.0
210
0.0
220
0.0
230
1.0
  0
LINE
  5
18C
100
AcDbEntity
  8
0
370
    35
390
0
 62
     7
 48
0.025826
100
AcDbLine
 10
241.043152
 20
34.676811
 30
0.0
 11
241.302399
 21
35.676811
 31
0.0
210
0.0
220
0.0
230
1.0
  0
LINE
  5
18D
100
AcDbEntity
  8
0
370
    35
390
0
 62
     7
 48
0.020851
100
AcDbLine
 10
241.302429
 20
35.676826
 30
0.0
 11
241.093109
 21
36.484169
 31
0.0
210
0.0
220
0.0
230
1.0
  0
LINE
  5
18E
100
AcDbEntity
  8
0
370
    35
390
0
 62
     7
 48
0.020758
100
AcDbLine
 10
240.992249
 20
36.480553
 30
0.0
 11
240.783875
 21
35.676811
 31
0.0
210
0.0
220
0.0
230
1.0
  0
LINE
  5
18F
100
AcDbEntity
  8
0
370
    35
390
0
 62
     7
 48
0.025827
100
AcDbLine
 10
240.783875
 20
35.676826
 30
0.0
 11
241.043152
 21
34.676826
 31
0.0
210
0.0
220
0.0
230
1.0
  0
LINE
  5
190
100
AcDbEntity
  8
0
370
    35
390
0
 62
     7
 48
0.020377
100
AcDbLine
 10
240.579346
 20
32.887825
 30
0.0
 11
240.783875
 21
33.676811
 31
0.0
210
0.0
220
0.0
230
1.0
  0
LINE
  5
191
100
AcDbEntity
  8
0
370
    35
390
0
 62
     7
 48
0.025827
100
AcDbLine
 10
240.783905
 20
33.676826
 30
0.0
 11
240.524628
 21
34.676826
 31
0.0
210
0.0
220
0.0
230
1.0
  0
LINE
  5
192
100
AcDbEntity
  8
0
370
    35
390
0
 62
     7
 48
0.025826
100
AcDbLine
 10
240.524597
 20
34.676826
 30
0.0
 11
240.265381
 21
33.676826
 31
0.0
210
0.0
220
0.0
230
1.0
  0
LINE
  5
193
100
AcDbEntity
  8
0
370
    35
390
0
 62
     7
 48
0.020275
100
AcDbLine
 10
240.26535
 20
33.676826
 30
0.0
 11
240.468872
 21
32.891769
 31
0.0
210
0.0
220
0.0
230
1.0
  0
LINE
  5
194
100
AcDbEntity
  8
0
370
    35
390
0
 62
     7
 48
0.025826
100
AcDbLine
 10
240.006134
 20
34.676811
 30
0.0
 11
240.265381
 21
35.676811
 31
0.0
210
0.0
220
0.0
230
1.0
  0
LINE
  5
195
100
AcDbEntity
  8
0
370
    35
390
0
 62
     7
 48
0.019903
100
AcDbLine
 10
240.265381
 20
35.676826
 30
0.0
 11
240.065582
 21
36.447472
 31
0.0
210
0.0
220
0.0
230
1.0
  0
LINE
  5
196
100
AcDbEntity
  8
0
370
    35
390
0
 62
     7
 48
0.019792
100
AcDbLine
 10
239.945557
 20
36.443169
 30
0.0
 11
239.746857
 21
35.676811
 31
0.0
210
0.0
220
0.0
230
1.0
  0
LINE
  5
197
100
AcDbEntity
  8
0
370
    35
390
0
 62
     7
 48
0.025826
100
AcDbLine
 10
239.746887
 20
35.676826
 30
0.0
 11
240.006134
 21
34.676826
 31
0.0
210
0.0
220
0.0
230
1.0
  0
LINE
  5
198
100
AcDbEntity
  8
0
370
    35
390
0
 62
     7
 48
0.0625
100
AcDbLine
 10
248.987579
 20
35.176811
 30
0.0
 11
251.487579
 21
35.176811
 31
0.0
210
0.0
220
0.0
230
1.0
  0
LINE
  5
199
100
AcDbEntity
  8
0
370
    35
390
0
 62
     7
 48
0.0625
100
AcDbLine
 10
248.987579
 20
34.176811
 30
0.0
 11
251.487579
 21
34.176811
 31
0.0
210
0.0
220
0.0
230
1.0
  0
LINE
  5
19A
100
AcDbEntity
  8
0
370
    35
390
0
 62
     7
 48
0.006253
100
AcDbLine
 10
146.765503
 20
36.509758
 30
0.0
 11
146.515503
 21
36.501884
 31
0.0
210
0.0
220
0.0
230
1.0
  0
LINE
  5
19B
100
AcDbEntity
  8
0
370
    35
390
0
 62
     7
 48
0.006253
100
AcDbLine
 10
146.015503
 20
36.486137
 30
0.0
 11
145.765503
 21
36.478264
 31
0.0
210
0.0
220
0.0
230
1.0
  0
LINE
  5
19C
100
AcDbEntity
  8
0
370
    35
390
0
 62
     7
 48
0.006253
100
AcDbLine
 10
145.265503
 20
36.462517
 30
0.0
 11
145.015503
 21
36.454628
 31
0.0
210
0.0
220
0.0
230
1.0
  0
LINE
  5
19D
100
AcDbEntity
  8
0
370
    35
390
0
 62
     7
 48
0.006253
100
AcDbLine
 10
144.515503
 20
36.438881
 30
0.0
 11
144.265503
 21
36.431007
 31
0.0
210
0.0
220
0.0
230
1.0
  0
LINE
  5
19E
100
AcDbEntity
  8
0
370
    35
390
0
 62
     7
 48
0.006253
100
AcDbLine
 10
146.765503
 20
32.843857
 30
0.0
 11
146.515503
 21
32.85173
 31
0.0
210
0.0
220
0.0
230
1.0
  0
LINE
  5
19F
100
AcDbEntity
  8
0
370
    35
390
0
 62
     7
 48
0.006253
100
AcDbLine
 10
146.015503
 20
32.867485
 30
0.0
 11
145.765503
 21
32.875359
 31
0.0
210
0.0
220
0.0
230
1.0
  0
LINE
  5
1A0
100
AcDbEntity
  8
0
370
    35
390
0
 62
     7
 48
0.006253
100
AcDbLine
 10
145.265503
 20
32.891106
 30
0.0
 11
145.015503
 21
32.898979
 31
0.0
210
0.0
220
0.0
230
1.0
  0
LINE
  5
1A1
100
AcDbEntity
  8
0
370
    35
390
0
 62
     7
 48
0.006253
100
AcDbLine
 10
144.515503
 20
32.914726
 30
0.0
 11
144.265503
 21
32.9226
 31
0.0
210
0.0
220
0.0
230
1.0
  0
LINE
  5
1A2
100
AcDbEntity
  8
0
370
    35
390
0
 62
     7
 48
0.043147
100
AcDbLine
 10
144.265503
 20
36.681145
 30
0.0
 11
142.540497
 21
36.626808
 31
0.0
210
0.0
220
0.0
230
1.0
  0
LINE
  5
1A3
100
AcDbEntity
  8
0
370
    35
390
0
 62
     7
 48
0.012506
100
AcDbLine
 10
145.015503
 20
36.704765
 30
0.0
 11
144.515503
 21
36.689018
 31
0.0
210
0.0
220
0.0
230
1.0
  0
LINE
  5
1A4
100
AcDbEntity
  8
0
370
    35
390
0
 62
     7
 48
0.012506
100
AcDbLine
 10
145.765503
 20
36.728386
 30
0.0
 11
145.265503
 21
36.712639
 31
0.0
210
0.0
220
0.0
230
1.0
  0
LINE
  5
1A5
100
AcDbEntity
  8
0
370
    35
390
0
 62
     7
 48
0.012506
100
AcDbLine
 10
146.515503
 20
36.752007
 30
0.0
 11
146.015503
 21
36.736259
 31
0.0
210
0.0
220
0.0
230
1.0
  0
LINE
  5
1A6
100
AcDbEntity
  8
0
370
    35
390
0
 62
     7
 48
0.012506
100
AcDbLine
 10
147.265503
 20
36.775627
 30
0.0
 11
146.765503
 21
36.75988
 31
0.0
210
0.0
220
0.0
230
1.0
  0
LINE
  5
1A7
100
AcDbEntity
  8
0
370
    35
390
0
 62
     7
 48
0.012506
100
AcDbLine
 10
147.265503
 20
32.577988
 30
0.0
 11
146.765503
 21
32.593735
 31
0.0
210
0.0
220
0.0
230
1.0
  0
LINE
  5
1A8
100
AcDbEntity
  8
0
370
    35
390
0
 62
     7
 48
0.012506
100
AcDbLine
 10
146.515503
 20
32.601608
 30
0.0
 11
146.015503
 21
32.617355
 31
0.0
210
0.0
220
0.0
230
1.0
  0
LINE
  5
1A9
100
AcDbEntity
  8
0
370
    35
390
0
 62
     7
 48
0.012506
100
AcDbLine
 10
145.765503
 20
32.625229
 30
0.0
 11
145.265503
 21
32.640976
 31
0.0
210
0.0
220
0.0
230
1.0
  0
LINE
  5
1AA
100
AcDbEntity
  8
0
370
    35
390
0
 62
     7
 48
0.012506
100
AcDbLine
 10
145.015503
 20
32.648857
 30
0.0
 11
144.515503
 21
32.664604
 31
0.0
210
0.0
220
0.0
230
1.0
  0
LINE
  5
1AB
100
AcDbEntity
  8
0
370
    35
390
0
 62
     7
 48
0.043147
100
AcDbLine
 10
144.265503
 20
32.672478
 30
0.0
 11
142.540497
 21
32.726807
 31
0.0
210
0.0
220
0.0
230
1.0
  0
LINE
  5
1AC
100
AcDbEntity
  8
0
370
    35
390
0
 62
     7
 48
0.10061
100
AcDbLine
 10
144.515503
 20
36.689018
 30
0.0
 11
144.515503
 21
32.664604
 31
0.0
210
0.0
220
0.0
230
1.0
  0
LINE
  5
1AD
100
AcDbEntity
  8
0
370
    35
390
0
 62
     7
 48
0.100217
100
AcDbLine
 10
144.265503
 20
36.681145
 30
0.0
 11
144.265503
 21
32.672478
 31
0.0
210
0.0
220
0.0
230
1.0
  0
LINE
  5
1AE
100
AcDbEntity
  8
0
370
    35
390
0
 62
     7
 48
0.101398
100
AcDbLine
 10
145.015503
 20
36.704765
 30
0.0
 11
145.015503
 21
32.648857
 31
0.0
210
0.0
220
0.0
230
1.0
  0
LINE
  5
1AF
100
AcDbEntity
  8
0
370
    35
390
0
 62
     7
 48
0.101792
100
AcDbLine
 10
145.265503
 20
36.712639
 30
0.0
 11
145.265503
 21
32.640976
 31
0.0
210
0.0
220
0.0
230
1.0
  0
LINE
  5
1B0
100
AcDbEntity
  8
0
370
    35
390
0
 62
     7
 48
0.102973
100
AcDbLine
 10
146.015503
 20
36.736259
 30
0.0
 11
146.015503
 21
32.617355
 31
0.0
210
0.0
220
0.0
230
1.0
  0
LINE
  5
1B1
100
AcDbEntity
  8
0
370
    35
390
0
 62
     7
 48
0.102579
100
AcDbLine
 10
145.765503
 20
36.728386
 30
0.0
 11
145.765503
 21
32.625229
 31
0.0
210
0.0
220
0.0
230
1.0
  0
LINE
  5
1B2
100
AcDbEntity
  8
0
370
    35
390
0
 62
     7
 48
0.10376
100
AcDbLine
 10
146.515503
 20
36.752007
 30
0.0
 11
146.515503
 21
32.601608
 31
0.0
210
0.0
220
0.0
230
1.0
  0
LINE
  5
1B3
100
AcDbEntity
  8
0
370
    35
390
0
 62
     7
 48
0.014382
100
AcDbLine
 10
148.090515
 20
36.801613
 30
0.0
 11
147.515503
 21
36.783501
 31
0.0
210
0.0
220
0.0
230
1.0
  0
LINE
  5
1B4
100
AcDbEntity
  8
0
370
    35
390
0
 62
     7
 48
0.105335
100
AcDbLine
 10
147.515503
 20
36.783501
 30
0.0
 11
147.515503
 21
32.570114
 31
0.0
210
0.0
220
0.0
230
1.0
  0
LINE
  5
1B5
100
AcDbEntity
  8
0
370
    35
390
0
 62
     7
 48
0.014382
100
AcDbLine
 10
148.090515
 20
32.552002
 30
0.0
 11
147.515503
 21
32.570114
 31
0.0
210
0.0
220
0.0
230
1.0
  0
LINE
  5
1B6
100
AcDbEntity
  8
0
370
    35
390
0
 62
     7
 48
0.104941
100
AcDbLine
 10
147.265503
 20
36.775627
 30
0.0
 11
147.265503
 21
32.577988
 31
0.0
210
0.0
220
0.0
230
1.0
  0
LINE
  5
1B7
100
AcDbEntity
  8
0
370
    35
390
0
 62
     7
 48
0.104154
100
AcDbLine
 10
146.765503
 20
36.75988
 30
0.0
 11
146.765503
 21
32.593735
 31
0.0
210
0.0
220
0.0
230
1.0
  0
LINE
  5
1B8
100
AcDbEntity
  8
0
370
    35
390
0
 62
     7
 48
0.006253
100
AcDbLine
 10
202.165527
 20
32.914726
 30
0.0
 11
202.415527
 21
32.9226
 31
0.0
210
0.0
220
0.0
230
1.0
  0
LINE
  5
1B9
100
AcDbEntity
  8
0
370
    35
390
0
 62
     7
 48
0.006253
100
AcDbLine
 10
147.515503
 20
36.533379
 30
0.0
 11
147.265503
 21
36.525505
 31
0.0
210
0.0
220
0.0
230
1.0
  0
LINE
  5
1BA
100
AcDbEntity
  8
0
370
    35
390
0
 62
     7
 48
0.006253
100
AcDbLine
 10
201.415527
 20
32.891106
 30
0.0
 11
201.665527
 21
32.898979
 31
0.0
210
0.0
220
0.0
230
1.0
  0
LINE
  5
1BB
100
AcDbEntity
  8
0
370
    35
390
0
 62
     7
 48
0.006253
100
AcDbLine
 10
200.665527
 20
32.867485
 30
0.0
 11
200.915527
 21
32.875359
 31
0.0
210
0.0
220
0.0
230
1.0
  0
LINE
  5
1BC
100
AcDbEntity
  8
0
370
    35
390
0
 62
     7
 48
0.006253
100
AcDbLine
 10
199.915527
 20
32.843857
 30
0.0
 11
200.165527
 21
32.85173
 31
0.0
210
0.0
220
0.0
230
1.0
  0
LINE
  5
1BD
100
AcDbEntity
  8
0
370
    35
390
0
 62
     7
 48
0.006253
100
AcDbLine
 10
202.165527
 20
36.438881
 30
0.0
 11
202.415527
 21
36.431007
 31
0.0
210
0.0
220
0.0
230
1.0
  0
LINE
  5
1BE
100
AcDbEntity
  8
0
370
    35
390
0
 62
     7
 48
0.006253
100
AcDbLine
 10
201.415527
 20
36.462517
 30
0.0
 11
201.665527
 21
36.454628
 31
0.0
210
0.0
220
0.0
230
1.0
  0
LINE
  5
1BF
100
AcDbEntity
  8
0
370
    35
390
0
 62
     7
 48
0.006253
100
AcDbLine
 10
200.665527
 20
36.486137
 30
0.0
 11
200.915527
 21
36.478264
 31
0.0
210
0.0
220
0.0
230
1.0
  0
LINE
  5
1C0
100
AcDbEntity
  8
0
370
    35
390
0
 62
     7
 48
0.006253
100
AcDbLine
 10
147.515503
 20
32.820236
 30
0.0
 11
147.265503
 21
32.82811
 31
0.0
210
0.0
220
0.0
230
1.0
  0
LINE
  5
1C1
100
AcDbEntity
  8
0
370
    35
390
0
 62
     7
 48
0.006253
100
AcDbLine
 10
199.915527
 20
36.509758
 30
0.0
 11
200.165527
 21
36.501884
 31
0.0
210
0.0
220
0.0
230
1.0
  0
LINE
  5
1C2
100
AcDbEntity
  8
0
370
    35
390
0
 62
     7
 48
0.0975
100
AcDbLine
 10
142.540497
 20
36.626808
 30
0.0
 11
142.540497
 21
32.726807
 31
0.0
210
0.0
220
0.0
230
1.0
  0
LINE
  5
1C3
100
AcDbEntity
  8
0
370
    35
390
0
 62
     7
 48
0.0025
100
AcDbLine
 10
148.490509
 20
31.176804
 30
0.0
 11
148.490509
 21
31.076805
 31
0.0
210
0.0
220
0.0
230
1.0
  0
LINE
  5
1C4
100
AcDbEntity
  8
0
370
    35
390
0
 62
     7
 48
0.420432
100
AcDbLine
 10
222.670288
 20
36.126808
 30
0.0
 11
239.487579
 21
36.126808
 31
0.0
210
0.0
220
0.0
230
1.0
  0
LINE
  5
1C5
100
AcDbEntity
  8
0
370
    35
390
0
 62
     7
 48
0.150609
100
AcDbLine
 10
142.540497
 20
36.126808
 30
0.0
 11
136.516144
 21
36.126808
 31
0.0
210
0.0
220
0.0
230
1.0
  0
LINE
  5
1C6
100
AcDbEntity
  8
0
370
    35
390
0
 62
     7
 48
0.40061
100
AcDbLine
 10
204.140503
 20
33.226799
 30
0.0
 11
220.164917
 21
33.226799
 31
0.0
210
0.0
220
0.0
230
1.0
  0
LINE
  5
1C7
100
AcDbEntity
  8
0
370
    35
390
0
 62
     7
 48
0.000063
100
AcDbLine
 10
148.490509
 20
41.2743
 30
0.0
 11
148.493011
 21
41.2743
 31
0.0
210
0.0
220
0.0
230
1.0
  0
LINE
  5
1C8
100
AcDbEntity
  8
0
370
    35
390
0
 62
     7
 48
0.025
100
AcDbLine
 10
202.090515
 20
31.076805
 30
0.0
 11
203.090515
 21
31.076805
 31
0.0
210
0.0
220
0.0
230
1.0
  0
LINE
  5
1C9
100
AcDbEntity
  8
0
370
    35
390
0
 62
     7
 48
0.025
100
AcDbLine
 10
202.090515
 20
30.676804
 30
0.0
 11
203.090515
 21
30.676804
 31
0.0
210
0.0
220
0.0
230
1.0
  0
LINE
  5
1CA
100
AcDbEntity
  8
0
370
    35
390
0
 62
     7
 48
0.0875
100
AcDbLine
 10
144.590515
 20
30.676804
 30
0.0
 11
148.090515
 21
30.676804
 31
0.0
210
0.0
220
0.0
230
1.0
  0
LINE
  5
1CB
100
AcDbEntity
  8
0
370
    35
390
0
 62
     7
 48
0.025
100
AcDbLine
 10
143.590515
 20
31.076805
 30
0.0
 11
144.590515
 21
31.076805
 31
0.0
210
0.0
220
0.0
230
1.0
  0
LINE
  5
1CC
100
AcDbEntity
  8
0
370
    35
390
0
 62
     7
 48
0.000063
100
AcDbLine
 10
198.590515
 20
37.676811
 30
0.0
 11
198.590515
 21
37.674309
 31
0.0
210
0.0
220
0.0
230
1.0
  0
LINE
  5
1CD
100
AcDbEntity
  8
0
370
    35
390
0
 62
     7
 48
0.0125
100
AcDbLine
 10
198.190521
 20
30.676804
 30
0.0
 11
198.190521
 21
31.176804
 31
0.0
210
0.0
220
0.0
230
1.0
  0
LINE
  5
1CE
100
AcDbEntity
  8
0
370
    35
390
0
 62
     7
 48
0.0125
100
AcDbLine
 10
198.590515
 20
31.176804
 30
0.0
 11
198.590515
 21
30.676804
 31
0.0
210
0.0
220
0.0
230
1.0
  0
LINE
  5
1CF
100
AcDbEntity
  8
0
370
    35
390
0
 62
     7
 48
0.000063
100
AcDbLine
 10
198.188019
 20
38.076805
 30
0.0
 11
198.190521
 21
38.076805
 31
0.0
210
0.0
220
0.0
230
1.0
  0
LINE
  5
1D0
100
AcDbEntity
  8
0
370
    35
390
0
 62
     7
 48
0.000063
100
AcDbLine
 10
198.188019
 20
37.676811
 30
0.0
 11
198.190521
 21
37.676811
 31
0.0
210
0.0
220
0.0
230
1.0
  0
LINE
  5
1D1
100
AcDbEntity
  8
0
370
    35
390
0
 62
     7
 48
0.000063
100
AcDbLine
 10
198.190521
 20
37.674309
 30
0.0
 11
198.190521
 21
37.676811
 31
0.0
210
0.0
220
0.0
230
1.0
  0
LINE
  5
1D2
100
AcDbEntity
  8
0
370
    35
390
0
 62
     7
 48
0.01
100
AcDbLine
 10
198.190521
 20
30.676804
 30
0.0
 11
198.590515
 21
30.676804
 31
0.0
210
0.0
220
0.0
230
1.0
  0
LINE
  5
1D3
100
AcDbEntity
  8
0
370
    35
390
0
 62
     7
 48
0.010062
100
AcDbLine
 10
148.090515
 20
31.176804
 30
0.0
 11
148.493011
 21
31.176804
 31
0.0
210
0.0
220
0.0
230
1.0
  0
LINE
  5
1D4
100
AcDbEntity
  8
0
370
    35
390
0
 62
     7
 48
0.01
100
AcDbLine
 10
198.188019
 20
37.676811
 30
0.0
 11
198.188019
 21
38.076805
 31
0.0
210
0.0
220
0.0
230
1.0
  0
LINE
  5
1D5
100
AcDbEntity
  8
0
370
    35
390
0
 62
     7
 48
0.000063
100
AcDbLine
 10
198.188019
 20
37.676811
 30
0.0
 11
198.188019
 21
37.674309
 31
0.0
210
0.0
220
0.0
230
1.0
  0
LINE
  5
1D6
100
AcDbEntity
  8
0
370
    35
390
0
 62
     7
 48
0.000063
100
AcDbLine
 10
148.490509
 20
38.076805
 30
0.0
 11
148.493011
 21
38.076805
 31
0.0
210
0.0
220
0.0
230
1.0
  0
LINE
  5
1D7
100
AcDbEntity
  8
0
370
    35
390
0
 62
     7
100
AcDbLine
 10
198.188019
 20
38.076805
 30
0.0
 11
148.493011
 21
38.076805
 31
0.0
210
0.0
220
0.0
230
1.0
  0
LINE
  5
1D8
100
AcDbEntity
  8
0
370
    35
390
0
 62
     7
100
AcDbLine
 10
148.493011
 20
31.176804
 30
0.0
 11
198.188019
 21
31.176804
 31
0.0
210
0.0
220
0.0
230
1.0
  0
LINE
  5
1D9
100
AcDbEntity
  8
0
370
    35
390
0
 62
     7
 48
0.162438
100
AcDbLine
 10
148.090515
 20
37.674309
 30
0.0
 11
148.090515
 21
31.176804
 31
0.0
210
0.0
220
0.0
230
1.0
  0
LINE
  5
1DA
100
AcDbEntity
  8
0
370
    35
390
0
 62
     7
 48
0.01
100
AcDbLine
 10
148.493011
 20
37.676811
 30
0.0
 11
148.493011
 21
38.076805
 31
0.0
210
0.0
220
0.0
230
1.0
  0
LINE
  5
1DB
100
AcDbEntity
  8
0
370
    35
390
0
 62
     7
 48
0.010062
100
AcDbLine
 10
148.493011
 20
37.674309
 30
0.0
 11
148.090515
 21
37.674309
 31
0.0
210
0.0
220
0.0
230
1.0
  0
LINE
  5
1DC
100
AcDbEntity
  8
0
370
    35
390
0
 62
     7
 48
0.000063
100
AcDbLine
 10
148.493011
 20
37.676811
 30
0.0
 11
148.493011
 21
37.674309
 31
0.0
210
0.0
220
0.0
230
1.0
  0
LINE
  5
1DD
100
AcDbEntity
  8
0
370
    35
390
0
 62
     7
 48
0.010062
100
AcDbLine
 10
198.188019
 20
37.674309
 30
0.0
 11
198.590515
 21
37.674309
 31
0.0
210
0.0
220
0.0
230
1.0
  0
LINE
  5
1DE
100
AcDbEntity
  8
0
370
    35
390
0
 62
     7
 48
0.162438
100
AcDbLine
 10
198.590515
 20
37.674309
 30
0.0
 11
198.590515
 21
31.176804
 31
0.0
210
0.0
220
0.0
230
1.0
  0
LINE
  5
1DF
100
AcDbEntity
  8
0
370
    35
390
0
 62
     7
 48
0.010062
100
AcDbLine
 10
198.188019
 20
31.176804
 30
0.0
 11
198.590515
 21
31.176804
 31
0.0
210
0.0
220
0.0
230
1.0
  0
LINE
  5
1E0
100
AcDbEntity
  8
0
370
    35
390
0
 62
     7
 48
0.000063
100
AcDbLine
 10
148.490509
 20
37.676811
 30
0.0
 11
148.493011
 21
37.676811
 31
0.0
210
0.0
220
0.0
230
1.0
  0
LINE
  5
1E1
100
AcDbEntity
  8
0
370
    35
390
0
 62
     7
 48
0.0875
100
AcDbLine
 10
148.090515
 20
31.076805
 30
0.0
 11
144.590515
 21
31.076805
 31
0.0
210
0.0
220
0.0
230
1.0
  0
LINE
  5
1E2
100
AcDbEntity
  8
0
370
    35
390
0
 62
     7
 48
0.000063
100
AcDbLine
 10
148.090515
 20
37.676811
 30
0.0
 11
148.090515
 21
37.674309
 31
0.0
210
0.0
220
0.0
230
1.0
  0
LINE
  5
1E3
100
AcDbEntity
  8
0
370
    35
390
0
 62
     7
 48
0.0025
100
AcDbLine
 10
148.090515
 20
31.176804
 30
0.0
 11
148.090515
 21
31.076805
 31
0.0
210
0.0
220
0.0
230
1.0
  0
LINE
  5
1E4
100
AcDbEntity
  8
0
370
    35
390
0
 62
     7
 48
0.01
100
AcDbLine
 10
148.490509
 20
30.676804
 30
0.0
 11
148.090515
 21
30.676804
 31
0.0
210
0.0
220
0.0
230
1.0
  0
LINE
  5
1E5
100
AcDbEntity
  8
0
370
    35
390
0
 62
     7
 48
0.010061
100
AcDbLine
 10
148.490509
 20
31.079262
 30
0.0
 11
148.490509
 21
30.676804
 31
0.0
210
0.0
220
0.0
230
1.0
  0
LINE
  5
1E6
100
AcDbEntity
  8
0
370
    35
390
0
 62
     7
 48
0.01
100
AcDbLine
 10
143.590515
 20
30.676804
 30
0.0
 11
143.590515
 21
31.076805
 31
0.0
210
0.0
220
0.0
230
1.0
  0
LINE
  5
1E7
100
AcDbEntity
  8
0
370
    35
390
0
 62
     7
 48
0.025
100
AcDbLine
 10
143.590515
 20
30.676804
 30
0.0
 11
144.590515
 21
30.676804
 31
0.0
210
0.0
220
0.0
230
1.0
  0
LINE
  5
1E8
100
AcDbEntity
  8
0
370
    35
390
0
 62
     7
 48
0.01
100
AcDbLine
 10
203.090515
 20
30.676804
 30
0.0
 11
203.090515
 21
31.076805
 31
0.0
210
0.0
220
0.0
230
1.0
  0
LINE
  5
1E9
100
AcDbEntity
  8
0
370
    35
390
0
 62
     7
 48
0.0875
100
AcDbLine
 10
202.090515
 20
31.076805
 30
0.0
 11
198.590515
 21
31.076805
 31
0.0
210
0.0
220
0.0
230
1.0
  0
LINE
  5
1EA
100
AcDbEntity
  8
0
370
    35
390
0
 62
     7
 48
0.0875
100
AcDbLine
 10
202.090515
 20
30.676804
 30
0.0
 11
198.590515
 21
30.676804
 31
0.0
210
0.0
220
0.0
230
1.0
  0
LINE
  5
1EB
100
AcDbEntity
  8
0
370
    35
390
0
 62
     7
 48
0.005
100
AcDbLine
 10
149.040497
 20
31.176804
 30
0.0
 11
149.040497
 21
30.976807
 31
0.0
210
0.0
220
0.0
230
1.0
  0
LINE
  5
1EC
100
AcDbEntity
  8
0
370
    35
390
0
 62
     7
 48
0.005
100
AcDbLine
 10
148.540497
 20
30.976807
 30
0.0
 11
148.540497
 21
31.176804
 31
0.0
210
0.0
220
0.0
230
1.0
  0
LINE
  5
1ED
100
AcDbEntity
  8
0
370
    35
390
0
 62
     7
 48
0.000626
100
AcDbLine
 10
149.065521
 20
30.476807
 30
0.0
 11
149.040497
 21
30.476807
 31
0.0
210
0.0
220
0.0
230
1.0
  0
LINE
  5
1EE
100
AcDbEntity
  8
0
370
    35
390
0
 62
     7
100
AcDbLine
 10
197.61554
 20
30.476807
 30
0.0
 11
149.065521
 21
30.476807
 31
0.0
210
0.0
220
0.0
230
1.0
  0
LINE
  5
1EF
100
AcDbEntity
  8
0
370
    35
390
0
 62
     7
 48
0.0125
100
AcDbLine
 10
149.065521
 20
30.476807
 30
0.0
 11
149.065521
 21
30.976807
 31
0.0
210
0.0
220
0.0
230
1.0
  0
LINE
  5
1F0
100
AcDbEntity
  8
0
370
    35
390
0
 62
     7
 48
0.005
100
AcDbLine
 10
149.065521
 20
30.976807
 30
0.0
 11
149.065521
 21
31.176804
 31
0.0
210
0.0
220
0.0
230
1.0
  0
LINE
  5
1F1
100
AcDbEntity
  8
0
370
    35
390
0
 62
     7
 48
0.000624
100
AcDbLine
 10
197.61554
 20
30.476807
 30
0.0
 11
197.640503
 21
30.476807
 31
0.0
210
0.0
220
0.0
230
1.0
  0
LINE
  5
1F2
100
AcDbEntity
  8
0
370
    35
390
0
 62
     7
 48
0.005
100
AcDbLine
 10
197.61554
 20
30.976807
 30
0.0
 11
197.61554
 21
31.176804
 31
0.0
210
0.0
220
0.0
230
1.0
  0
LINE
  5
1F3
100
AcDbEntity
  8
0
370
    35
390
0
 62
     7
 48
0.0125
100
AcDbLine
 10
197.61554
 20
30.476807
 30
0.0
 11
197.61554
 21
30.976807
 31
0.0
210
0.0
220
0.0
230
1.0
  0
LINE
  5
1F4
100
AcDbEntity
  8
0
370
    35
390
0
 62
     7
 48
0.005
100
AcDbLine
 10
197.640503
 20
30.976807
 30
0.0
 11
197.640503
 21
31.176804
 31
0.0
210
0.0
220
0.0
230
1.0
  0
LINE
  5
1F5
100
AcDbEntity
  8
0
370
    35
390
0
 62
     7
 48
0.005
100
AcDbLine
 10
198.140503
 20
30.976807
 30
0.0
 11
198.140503
 21
31.176804
 31
0.0
210
0.0
220
0.0
230
1.0
  0
LINE
  5
1F6
100
AcDbEntity
  8
0
370
    35
390
0
 62
     7
 48
0.000626
100
AcDbLine
 10
149.065521
 20
30.976807
 30
0.0
 11
149.040497
 21
30.976807
 31
0.0
210
0.0
220
0.0
230
1.0
  0
LINE
  5
1F7
100
AcDbEntity
  8
0
370
    35
390
0
 62
     7
 48
0.000624
100
AcDbLine
 10
197.640503
 20
30.976807
 30
0.0
 11
197.61554
 21
30.976807
 31
0.0
210
0.0
220
0.0
230
1.0
  0
LINE
  5
1F8
100
AcDbEntity
  8
0
370
    35
390
0
 62
     7
 48
0.00625
100
AcDbLine
 10
153.63089
 20
32.795006
 30
0.0
 11
153.807678
 21
32.618225
 31
0.0
210
0.0
220
0.0
230
1.0
  0
LINE
  5
1F9
100
AcDbEntity
  8
0
370
    35
390
0
 62
     7
 48
0.00625
100
AcDbLine
 10
153.772308
 20
32.936424
 30
0.0
 11
153.949097
 21
32.759651
 31
0.0
210
0.0
220
0.0
230
1.0
  0
LINE
  5
1FA
100
AcDbEntity
  8
0
370
    35
390
0
 62
     7
 48
0.00625
100
AcDbLine
 10
153.63089
 20
32.158607
 30
0.0
 11
153.807678
 21
32.335388
 31
0.0
210
0.0
220
0.0
230
1.0
  0
LINE
  5
1FB
100
AcDbEntity
  8
0
370
    35
390
0
 62
     7
 48
0.00625
100
AcDbLine
 10
153.772308
 20
32.017189
 30
0.0
 11
153.949097
 21
32.193962
 31
0.0
210
0.0
220
0.0
230
1.0
  0
LINE
  5
1FC
100
AcDbEntity
  8
0
370
    35
390
0
 62
     7
 48
0.00625
100
AcDbLine
 10
154.231934
 20
32.759651
 30
0.0
 11
154.408722
 21
32.936424
 31
0.0
210
0.0
220
0.0
230
1.0
  0
LINE
  5
1FD
100
AcDbEntity
  8
0
370
    35
390
0
 62
     7
 48
0.00625
100
AcDbLine
 10
154.373352
 20
32.618225
 30
0.0
 11
154.55014
 21
32.795006
 31
0.0
210
0.0
220
0.0
230
1.0
  0
LINE
  5
1FE
100
AcDbEntity
  8
0
370
    35
390
0
 62
     7
 48
0.00625
100
AcDbLine
 10
154.373352
 20
32.335388
 30
0.0
 11
154.55014
 21
32.158607
 31
0.0
210
0.0
220
0.0
230
1.0
  0
LINE
  5
1FF
100
AcDbEntity
  8
0
370
    35
390
0
 62
     7
 48
0.00625
100
AcDbLine
 10
154.231934
 20
32.193962
 30
0.0
 11
154.408722
 21
32.017189
 31
0.0
210
0.0
220
0.0
230
1.0
  0
LINE
  5
200
100
AcDbEntity
  8
0
370
    35
390
0
 62
     7
 48
0.005
100
AcDbLine
 10
154.408722
 20
32.936424
 30
0.0
 11
154.55014
 21
32.795006
 31
0.0
210
0.0
220
0.0
230
1.0
  0
LINE
  5
201
100
AcDbEntity
  8
0
370
    35
390
0
 62
     7
 48
0.005
100
AcDbLine
 10
153.63089
 20
32.158607
 30
0.0
 11
153.772308
 21
32.017189
 31
0.0
210
0.0
220
0.0
230
1.0
  0
LINE
  5
202
100
AcDbEntity
  8
0
370
    35
390
0
 62
     7
 48
0.005
100
AcDbLine
 10
153.63089
 20
32.795006
 30
0.0
 11
153.772308
 21
32.936424
 31
0.0
210
0.0
220
0.0
230
1.0
  0
LINE
  5
203
100
AcDbEntity
  8
0
370
    35
390
0
 62
     7
 48
0.005
100
AcDbLine
 10
154.408722
 20
32.017189
 30
0.0
 11
154.55014
 21
32.158607
 31
0.0
210
0.0
220
0.0
230
1.0
  0
LINE
  5
204
100
AcDbEntity
  8
0
370
    35
390
0
 62
     7
 48
0.00625
100
AcDbLine
 10
191.772339
 20
32.936424
 30
0.0
 11
191.949097
 21
32.759651
 31
0.0
210
0.0
220
0.0
230
1.0
  0
LINE
  5
205
100
AcDbEntity
  8
0
370
    35
390
0
 62
     7
 48
0.00625
100
AcDbLine
 10
191.63092
 20
32.795006
 30
0.0
 11
191.807678
 21
32.618225
 31
0.0
210
0.0
220
0.0
230
1.0
  0
LINE
  5
206
100
AcDbEntity
  8
0
370
    35
390
0
 62
     7
 48
0.00625
100
AcDbLine
 10
191.63092
 20
32.158607
 30
0.0
 11
191.807678
 21
32.335388
 31
0.0
210
0.0
220
0.0
230
1.0
  0
LINE
  5
207
100
AcDbEntity
  8
0
370
    35
390
0
 62
     7
 48
0.00625
100
AcDbLine
 10
191.772339
 20
32.017189
 30
0.0
 11
191.949097
 21
32.193962
 31
0.0
210
0.0
220
0.0
230
1.0
  0
LINE
  5
208
100
AcDbEntity
  8
0
370
    35
390
0
 62
     7
 48
0.00625
100
AcDbLine
 10
192.231934
 20
32.759651
 30
0.0
 11
192.408722
 21
32.936424
 31
0.0
210
0.0
220
0.0
230
1.0
  0
LINE
  5
209
100
AcDbEntity
  8
0
370
    35
390
0
 62
     7
 48
0.00625
100
AcDbLine
 10
192.373352
 20
32.618225
 30
0.0
 11
192.55014
 21
32.795006
 31
0.0
210
0.0
220
0.0
230
1.0
  0
LINE
  5
20A
100
AcDbEntity
  8
0
370
    35
390
0
 62
     7
 48
0.00625
100
AcDbLine
 10
192.373352
 20
32.335388
 30
0.0
 11
192.55014
 21
32.158607
 31
0.0
210
0.0
220
0.0
230
1.0
  0
LINE
  5
20B
100
AcDbEntity
  8
0
370
    35
390
0
 62
     7
 48
0.00625
100
AcDbLine
 10
192.231934
 20
32.193962
 30
0.0
 11
192.408722
 21
32.017189
 31
0.0
210
0.0
220
0.0
230
1.0
  0
LINE
  5
20C
100
AcDbEntity
  8
0
370
    35
390
0
 62
     7
 48
0.005
100
AcDbLine
 10
192.408722
 20
32.936424
 30
0.0
 11
192.55014
 21
32.795006
 31
0.0
210
0.0
220
0.0
230
1.0
  0
LINE
  5
20D
100
AcDbEntity
  8
0
370
    35
390
0
 62
     7
 48
0.005
100
AcDbLine
 10
191.63092
 20
32.158607
 30
0.0
 11
191.772339
 21
32.017189
 31
0.0
210
0.0
220
0.0
230
1.0
  0
LINE
  5
20E
100
AcDbEntity
  8
0
370
    35
390
0
 62
     7
 48
0.005
100
AcDbLine
 10
191.63092
 20
32.795006
 30
0.0
 11
191.772339
 21
32.936424
 31
0.0
210
0.0
220
0.0
230
1.0
  0
LINE
  5
20F
100
AcDbEntity
  8
0
370
    35
390
0
 62
     7
 48
0.005
100
AcDbLine
 10
192.408722
 20
32.017189
 30
0.0
 11
192.55014
 21
32.158607
 31
0.0
210
0.0
220
0.0
230
1.0
  0
LINE
  5
210
100
AcDbEntity
  8
0
370
    35
390
0
 62
     7
 48
0.212498
100
AcDbLine
 10
229.536377
 20
173.926758
 30
0.0
 11
229.536377
 21
165.426819
 31
0.0
210
0.0
220
0.0
230
1.0
  0
LINE
  5
211
100
AcDbEntity
  8
0
370
    35
390
0
 62
     7
 48
0.003751
100
AcDbLine
 10
160.236359
 20
163.576813
 30
0.0
 11
160.236359
 21
163.426788
 31
0.0
210
0.0
220
0.0
230
1.0
  0
LINE
  5
212
100
AcDbEntity
  8
0
370
    35
390
0
 62
     7
 48
0.00625
100
AcDbLine
 10
12.736382
 20
169.676788
 30
0.0
 11
12.986382
 21
169.676788
 31
0.0
210
0.0
220
0.0
230
1.0
  0
LINE
  5
213
100
AcDbEntity
  8
0
370
    35
390
0
 62
     7
100
AcDbLine
 10
166.236359
 20
175.926788
 30
0.0
 11
228.736389
 21
175.926788
 31
0.0
210
0.0
220
0.0
230
1.0
  0
LINE
  5
214
100
AcDbEntity
  8
0
370
    35
390
0
 62
     7
 48
0.15
100
AcDbLine
 10
160.236359
 20
163.576813
 30
0.0
 11
166.236359
 21
163.576813
 31
0.0
210
0.0
220
0.0
230
1.0
  0
LINE
  5
215
100
AcDbEntity
  8
0
370
    35
390
0
 62
     7
 48
0.040625
100
AcDbLine
 10
228.736389
 20
175.926788
 30
0.0
 11
228.736389
 21
174.301788
 31
0.0
210
0.0
220
0.0
230
1.0
  0
LINE
  5
216
100
AcDbEntity
  8
0
370
    35
390
0
 62
     7
 48
0.15
100
AcDbLine
 10
160.236359
 20
175.776794
 30
0.0
 11
166.236359
 21
175.776794
 31
0.0
210
0.0
220
0.0
230
1.0
  0
LINE
  5
217
100
AcDbEntity
  8
0
370
    35
390
0
 62
     7
 48
0.003751
100
AcDbLine
 10
166.236359
 20
163.576813
 30
0.0
 11
166.236359
 21
163.426788
 31
0.0
210
0.0
220
0.0
230
1.0
  0
LINE
  5
218
100
AcDbEntity
  8
0
370
    35
390
0
 62
     7
 48
0.020962
100
AcDbLine
 10
229.536377
 20
165.426788
 30
0.0
 11
228.786407
 21
165.051788
 31
0.0
210
0.0
220
0.0
230
1.0
  0
LINE
  5
219
100
AcDbEntity
  8
0
370
    35
390
0
 62
     7
100
AcDbLine
 10
87.736382
 20
163.426788
 30
0.0
 11
160.236359
 21
163.426788
 31
0.0
210
0.0
220
0.0
230
1.0
  0
LINE
  5
21A
100
AcDbEntity
  8
0
370
    35
390
0
 62
     7
 48
0.005303
100
AcDbLine
 10
65.736351
 20
164.826843
 30
0.0
 11
65.886345
 21
164.676849
 31
0.0
210
0.0
220
0.0
230
1.0
  0
LINE
  5
21B
100
AcDbEntity
  8
0
370
    35
390
0
 62
     7
 48
0.05
100
AcDbLine
 10
11.486382
 20
167.426788
 30
0.0
 11
13.486382
 21
167.426788
 31
0.0
210
0.0
220
0.0
230
1.0
  0
LINE
  5
21C
100
AcDbEntity
  8
0
370
    35
390
0
 62
     7
 48
0.075584
100
AcDbLine
 10
8.23632
 20
168.801758
 30
0.0
 11
11.23632
 21
168.426758
 31
0.0
210
0.0
220
0.0
230
1.0
  0
LINE
  5
21D
100
AcDbEntity
  8
0
370
    35
390
0
 62
     7
 48
0.008839
100
AcDbLine
 10
11.486473
 20
171.926727
 30
0.0
 11
11.236473
 21
171.676727
 31
0.0
210
0.0
220
0.0
230
1.0
  0
LINE
  5
21E
100
AcDbEntity
  8
0
370
    35
390
0
 62
     7
 48
0.075584
100
AcDbLine
 10
11.236473
 20
170.926727
 30
0.0
 11
8.236473
 21
170.551727
 31
0.0
210
0.0
220
0.0
230
1.0
  0
LINE
  5
21F
100
AcDbEntity
  8
0
370
    35
390
0
 62
     7
 48
0.05
100
AcDbLine
 10
11.486382
 20
171.926788
 30
0.0
 11
13.486382
 21
171.926788
 31
0.0
210
0.0
220
0.0
230
1.0
  0
LINE
  5
220
100
AcDbEntity
  8
0
370
    35
390
0
 62
     7
 48
0.00375
100
AcDbLine
 10
160.236359
 20
175.926788
 30
0.0
 11
160.236359
 21
175.776794
 31
0.0
210
0.0
220
0.0
230
1.0
  0
LINE
  5
221
100
AcDbEntity
  8
0
370
    35
390
0
 62
     7
 48
0.1125
100
AcDbLine
 10
11.486534
 20
171.926788
 30
0.0
 11
11.486443
 21
167.426788
 31
0.0
210
0.0
220
0.0
230
1.0
  0
LINE
  5
222
100
AcDbEntity
  8
0
370
    35
390
0
 62
     7
 48
0.00125
100
AcDbLine
 10
228.736389
 20
165.051788
 30
0.0
 11
228.786377
 21
165.051788
 31
0.0
210
0.0
220
0.0
230
1.0
  0
LINE
  5
223
100
AcDbEntity
  8
0
370
    35
390
0
 62
     7
 48
0.01875
100
AcDbLine
 10
11.236382
 20
171.676788
 30
0.0
 11
11.236382
 21
170.926788
 31
0.0
210
0.0
220
0.0
230
1.0
  0
LINE
  5
224
100
AcDbEntity
  8
0
370
    35
390
0
 62
     7
 48
0.008839
100
AcDbLine
 10
13.736534
 20
167.676666
 30
0.0
 11
13.486534
 21
167.426666
 31
0.0
210
0.0
220
0.0
230
1.0
  0
LINE
  5
225
100
AcDbEntity
  8
0
370
    35
390
0
 62
     7
 48
0.0375
100
AcDbLine
 10
8.236382
 20
170.551788
 30
0.0
 11
8.236382
 21
169.051788
 31
0.0
210
0.0
220
0.0
230
1.0
  0
LINE
  5
226
100
AcDbEntity
  8
0
370
    35
390
0
 62
     7
 48
0.271875
100
AcDbLine
 10
228.736389
 20
174.301788
 30
0.0
 11
228.736389
 21
163.426788
 31
0.0
210
0.0
220
0.0
230
1.0
  0
LINE
  5
227
100
AcDbEntity
  8
0
370
    35
390
0
 62
     7
100
AcDbLine
 10
166.236359
 20
163.426788
 30
0.0
 11
228.736389
 21
163.426788
 31
0.0
210
0.0
220
0.0
230
1.0
  0
LINE
  5
228
100
AcDbEntity
  8
0
370
    35
390
0
 62
     7
 48
0.00625
100
AcDbLine
 10
8.236382
 20
169.051788
 30
0.0
 11
8.236382
 21
168.801788
 31
0.0
210
0.0
220
0.0
230
1.0
  0
LINE
  5
229
100
AcDbEntity
  8
0
370
    35
390
0
 62
     7
 48
0.0025
100
AcDbLine
 10
84.236382
 20
164.776794
 30
0.0
 11
84.236382
 21
164.676788
 31
0.0
210
0.0
220
0.0
230
1.0
  0
LINE
  5
22A
100
AcDbEntity
  8
0
370
    35
390
0
 62
     7
 48
0.008838
100
AcDbLine
 10
11.236443
 20
167.676819
 30
0.0
 11
11.486412
 21
167.426819
 31
0.0
210
0.0
220
0.0
230
1.0
  0
LINE
  5
22B
100
AcDbEntity
  8
0
370
    35
390
0
 62
     7
 48
0.05
100
AcDbLine
 10
11.486351
 20
171.176788
 30
0.0
 11
13.486351
 21
171.176788
 31
0.0
210
0.0
220
0.0
230
1.0
  0
LINE
  5
22C
100
AcDbEntity
  8
0
370
    35
390
0
 62
     7
 48
0.008839
100
AcDbLine
 10
13.486412
 20
171.926788
 30
0.0
 11
13.736412
 21
171.676788
 31
0.0
210
0.0
220
0.0
230
1.0
  0
LINE
  5
22D
100
AcDbEntity
  8
0
370
    35
390
0
 62
     7
 48
0.00125
100
AcDbLine
 10
228.736389
 20
174.301788
 30
0.0
 11
228.786407
 21
174.301788
 31
0.0
210
0.0
220
0.0
230
1.0
  0
LINE
  5
22E
100
AcDbEntity
  8
0
370
    35
390
0
 62
     7
 48
0.025
100
AcDbLine
 10
84.236382
 20
164.776794
 30
0.0
 11
85.236382
 21
164.776794
 31
0.0
210
0.0
220
0.0
230
1.0
  0
LINE
  5
22F
100
AcDbEntity
  8
0
370
    35
390
0
 62
     7
 48
0.0375
100
AcDbLine
 10
86.236382
 20
163.476807
 30
0.0
 11
87.736382
 21
163.476807
 31
0.0
210
0.0
220
0.0
230
1.0
  0
LINE
  5
230
100
AcDbEntity
  8
0
370
    35
390
0
 62
     7
 48
0.0625
100
AcDbLine
 10
11.236382
 20
168.426788
 30
0.0
 11
11.236382
 21
170.926788
 31
0.0
210
0.0
220
0.0
230
1.0
  0
LINE
  5
231
100
AcDbEntity
  8
0
370
    35
390
0
 62
     7
 48
0.05
100
AcDbLine
 10
11.486351
 20
171.551788
 30
0.0
 11
13.486351
 21
171.551788
 31
0.0
210
0.0
220
0.0
230
1.0
  0
LINE
  5
232
100
AcDbEntity
  8
0
370
    35
390
0
 62
     7
 48
0.025
100
AcDbLine
 10
84.236382
 20
174.576813
 30
0.0
 11
85.236382
 21
174.576813
 31
0.0
210
0.0
220
0.0
230
1.0
  0
LINE
  5
233
100
AcDbEntity
  8
0
370
    35
390
0
 62
     7
 48
0.00375
100
AcDbLine
 10
166.236359
 20
175.926788
 30
0.0
 11
166.236359
 21
175.776794
 31
0.0
210
0.0
220
0.0
230
1.0
  0
LINE
  5
234
100
AcDbEntity
  8
0
370
    35
390
0
 62
     7
 48
0.034056
100
AcDbLine
 10
64.736351
 20
165.926819
 30
0.0
 11
65.736382
 21
165.001801
 31
0.0
210
0.0
220
0.0
230
1.0
  0
LINE
  5
235
100
AcDbEntity
  8
0
370
    35
390
0
 62
     7
 48
0.020963
100
AcDbLine
 10
228.786407
 20
174.301727
 30
0.0
 11
229.536407
 21
173.926727
 31
0.0
210
0.0
220
0.0
230
1.0
  0
LINE
  5
236
100
AcDbEntity
  8
0
370
    35
390
0
 62
     7
 48
0.041003
100
AcDbLine
 10
85.236412
 20
164.776917
 30
0.0
 11
86.236412
 21
163.476898
 31
0.0
210
0.0
220
0.0
230
1.0
  0
LINE
  5
237
100
AcDbEntity
  8
0
370
    35
390
0
 62
     7
100
AcDbLine
 10
87.736382
 20
175.926788
 30
0.0
 11
160.236359
 21
175.926788
 31
0.0
210
0.0
220
0.0
230
1.0
  0
LINE
  5
238
100
AcDbEntity
  8
0
370
    35
390
0
 62
     7
 48
0.034052
100
AcDbLine
 10
64.736473
 20
173.426697
 30
0.0
 11
65.736382
 21
174.351624
 31
0.0
210
0.0
220
0.0
230
1.0
  0
LINE
  5
239
100
AcDbEntity
  8
0
370
    35
390
0
 62
     7
 48
0.45875
100
AcDbLine
 10
65.886375
 20
174.676788
 30
0.0
 11
84.236382
 21
174.676788
 31
0.0
210
0.0
220
0.0
230
1.0
  0
LINE
  5
23A
100
AcDbEntity
  8
0
370
    35
390
0
 62
     7
 48
0.187499
100
AcDbLine
 10
64.736382
 20
173.426788
 30
0.0
 11
64.736382
 21
165.926819
 31
0.0
210
0.0
220
0.0
230
1.0
  0
LINE
  5
23B
100
AcDbEntity
  8
0
370
    35
390
0
 62
     7
 48
0.005303
100
AcDbLine
 10
65.886467
 20
174.676697
 30
0.0
 11
65.736473
 21
174.526703
 31
0.0
210
0.0
220
0.0
230
1.0
  0
LINE
  5
23C
100
AcDbEntity
  8
0
370
    35
390
0
 62
     7
 48
0.010625
100
AcDbLine
 10
65.736382
 20
174.526794
 30
0.0
 11
65.736382
 21
174.101807
 31
0.0
210
0.0
220
0.0
230
1.0
  0
LINE
  5
23D
100
AcDbEntity
  8
0
370
    35
390
0
 62
     7
 48
0.010625
100
AcDbLine
 10
65.736382
 20
165.251801
 30
0.0
 11
65.736382
 21
164.826813
 31
0.0
210
0.0
220
0.0
230
1.0
  0
LINE
  5
23E
100
AcDbEntity
  8
0
370
    35
390
0
 62
     7
 48
0.038126
100
AcDbLine
 10
64.736382
 20
169.201813
 30
0.0
 11
64.736382
 21
167.676788
 31
0.0
210
0.0
220
0.0
230
1.0
  0
LINE
  5
23F
100
AcDbEntity
  8
0
370
    35
390
0
 62
     7
 48
0.02375
100
AcDbLine
 10
64.736382
 20
170.151794
 30
0.0
 11
64.736382
 21
169.201813
 31
0.0
210
0.0
220
0.0
230
1.0
  0
LINE
  5
240
100
AcDbEntity
  8
0
370
    35
390
0
 62
     7
 48
0.038125
100
AcDbLine
 10
64.736382
 20
171.676788
 30
0.0
 11
64.736382
 21
170.151794
 31
0.0
210
0.0
220
0.0
230
1.0
  0
LINE
  5
241
100
AcDbEntity
  8
0
370
    35
390
0
 62
     7
 48
0.002499
100
AcDbLine
 10
84.236382
 20
174.676788
 30
0.0
 11
84.236382
 21
174.576813
 31
0.0
210
0.0
220
0.0
230
1.0
  0
LINE
  5
242
100
AcDbEntity
  8
0
370
    35
390
0
 62
     7
 48
0.0375
100
AcDbLine
 10
86.236382
 20
175.876801
 30
0.0
 11
87.736382
 21
175.876801
 31
0.0
210
0.0
220
0.0
230
1.0
  0
LINE
  5
243
100
AcDbEntity
  8
0
370
    35
390
0
 62
     7
 48
0.45875
100
AcDbLine
 10
65.886375
 20
164.676788
 30
0.0
 11
84.236382
 21
164.676788
 31
0.0
210
0.0
220
0.0
230
1.0
  0
LINE
  5
244
100
AcDbEntity
  8
0
370
    35
390
0
 62
     7
 48
0.03625
100
AcDbLine
 10
87.736382
 20
164.876801
 30
0.0
 11
87.736382
 21
163.426788
 31
0.0
210
0.0
220
0.0
230
1.0
  0
LINE
  5
245
100
AcDbEntity
  8
0
370
    35
390
0
 62
     7
 48
0.041003
100
AcDbLine
 10
86.236259
 20
175.876892
 30
0.0
 11
85.236259
 21
174.576904
 31
0.0
210
0.0
220
0.0
230
1.0
  0
LINE
  5
246
100
AcDbEntity
  8
0
370
    35
390
0
 62
     7
 48
0.1125
100
AcDbLine
 10
13.486656
 20
167.426788
 30
0.0
 11
13.486412
 21
171.926788
 31
0.0
210
0.0
220
0.0
230
1.0
  0
LINE
  5
247
100
AcDbEntity
  8
0
370
    35
390
0
 62
     7
 48
0.01875
100
AcDbLine
 10
11.236382
 20
168.426788
 30
0.0
 11
11.236382
 21
167.676788
 31
0.0
210
0.0
220
0.0
230
1.0
  0
LINE
  5
248
100
AcDbEntity
  8
0
370
    35
390
0
 62
     7
 48
0.03625
100
AcDbLine
 10
87.736382
 20
175.926788
 30
0.0
 11
87.736382
 21
174.476807
 31
0.0
210
0.0
220
0.0
230
1.0
  0
LINE
  5
249
100
AcDbEntity
  8
0
370
    35
390
0
 62
     7
 48
0.305
100
AcDbLine
 10
166.236359
 20
175.776794
 30
0.0
 11
166.236359
 21
163.576813
 31
0.0
210
0.0
220
0.0
230
1.0
  0
LINE
  5
24A
100
AcDbEntity
  8
0
370
    35
390
0
 62
     7
 48
0.305
100
AcDbLine
 10
160.236359
 20
175.776794
 30
0.0
 11
160.236359
 21
163.576813
 31
0.0
210
0.0
220
0.0
230
1.0
  0
LINE
  5
24B
100
AcDbEntity
  8
0
370
    35
390
0
 62
     7
 48
0.24
100
AcDbLine
 10
87.736382
 20
164.876801
 30
0.0
 11
87.736382
 21
174.476807
 31
0.0
210
0.0
220
0.0
230
1.0
  0
LINE
  5
24C
100
AcDbEntity
  8
0
370
    35
390
0
 62
     7
 48
0.309998
100
AcDbLine
 10
86.236198
 20
175.876801
 30
0.0
 11
86.236412
 21
163.476898
 31
0.0
210
0.0
220
0.0
230
1.0
  0
LINE
  5
24D
100
AcDbEntity
  8
0
370
    35
390
0
 62
     7
 48
0.245
100
AcDbLine
 10
85.236382
 20
174.576813
 30
0.0
 11
85.236504
 21
164.776794
 31
0.0
210
0.0
220
0.0
230
1.0
  0
LINE
  5
24E
100
AcDbEntity
  8
0
370
    35
390
0
 62
     7
 48
0.245
100
AcDbLine
 10
84.236382
 20
164.776794
 30
0.0
 11
84.236382
 21
174.576813
 31
0.0
210
0.0
220
0.0
230
1.0
  0
LINE
  5
24F
100
AcDbEntity
  8
0
370
    35
390
0
 62
     7
 48
0.25
100
AcDbLine
 10
65.886589
 20
174.676788
 30
0.0
 11
65.886406
 21
164.676788
 31
0.0
210
0.0
220
0.0
230
1.0
  0
LINE
  5
250
100
AcDbEntity
  8
0
370
    35
390
0
 62
     7
 48
0.22125
100
AcDbLine
 10
65.736382
 20
165.251801
 30
0.0
 11
65.736382
 21
174.101807
 31
0.0
210
0.0
220
0.0
230
1.0
  0
LINE
  5
251
100
AcDbEntity
  8
0
370
    35
390
0
 62
     7
 48
0.05
100
AcDbLine
 10
11.486259
 20
167.801788
 30
0.0
 11
13.486259
 21
167.801788
 31
0.0
210
0.0
220
0.0
230
1.0
  0
LINE
  5
252
100
AcDbEntity
  8
0
370
    35
390
0
 62
     7
 48
0.05
100
AcDbLine
 10
11.48629
 20
168.176788
 30
0.0
 11
13.48629
 21
168.176788
 31
0.0
210
0.0
220
0.0
230
1.0
  0
LINE
  5
253
100
AcDbEntity
  8
0
370
    35
390
0
 62
     7
 48
0.05
100
AcDbLine
 10
11.48629
 20
168.551788
 30
0.0
 11
13.48629
 21
168.551788
 31
0.0
210
0.0
220
0.0
230
1.0
  0
LINE
  5
254
100
AcDbEntity
  8
0
370
    35
390
0
 62
     7
 48
0.05
100
AcDbLine
 10
11.48629
 20
168.926788
 30
0.0
 11
13.48629
 21
168.926788
 31
0.0
210
0.0
220
0.0
230
1.0
  0
LINE
  5
255
100
AcDbEntity
  8
0
370
    35
390
0
 62
     7
 48
0.05
100
AcDbLine
 10
11.48632
 20
169.301788
 30
0.0
 11
13.48632
 21
169.301788
 31
0.0
210
0.0
220
0.0
230
1.0
  0
LINE
  5
256
100
AcDbEntity
  8
0
370
    35
390
0
 62
     7
 48
0.05
100
AcDbLine
 10
11.48632
 20
170.051788
 30
0.0
 11
13.48632
 21
170.051788
 31
0.0
210
0.0
220
0.0
230
1.0
  0
LINE
  5
257
100
AcDbEntity
  8
0
370
    35
390
0
 62
     7
 48
0.05
100
AcDbLine
 10
11.486351
 20
170.801788
 30
0.0
 11
13.486351
 21
170.801788
 31
0.0
210
0.0
220
0.0
230
1.0
  0
LINE
  5
258
100
AcDbEntity
  8
0
370
    35
390
0
 62
     7
 48
0.05
100
AcDbLine
 10
11.48632
 20
170.426788
 30
0.0
 11
13.48632
 21
170.426788
 31
0.0
210
0.0
220
0.0
230
1.0
  0
LINE
  5
259
100
AcDbEntity
  8
0
370
    35
390
0
 62
     7
100
AcDbLine
 10
13.736412
 20
171.676788
 30
0.0
 11
64.736382
 21
171.676788
 31
0.0
210
0.0
220
0.0
230
1.0
  0
LINE
  5
25A
100
AcDbEntity
  8
0
370
    35
390
0
 62
     7
100
AcDbLine
 10
13.736656
 20
167.676788
 30
0.0
 11
64.736382
 21
167.676788
 31
0.0
210
0.0
220
0.0
230
1.0
  0
LINE
  5
25B
100
AcDbEntity
  8
0
370
    35
390
0
 62
     7
 48
0.1
100
AcDbLine
 10
13.736412
 20
171.676788
 30
0.0
 11
13.736656
 21
167.676788
 31
0.0
210
0.0
220
0.0
230
1.0
  0
ARC
  5
25C
100
AcDbEntity
  8
0
370
    35
390
0
 62
     7
100
AcDbCircle
 10
176.173859
 20
127.901802
 30
0.0
 40
0.738021
210
0.0
220
0.0
230
1.0
100
AcDbArc
 50
280.778828
 51
79.221179
  0
ARC
  5
25D
100
AcDbEntity
  8
0
370
    35
390
0
 62
     7
100
AcDbCircle
 10
176.44989
 20
126.451805
 30
0.0
 40
0.738021
210
0.0
220
0.0
230
1.0
100
AcDbArc
 50
100.77884
 51
259.221139
  0
ARC
  5
25E
100
AcDbEntity
  8
0
370
    35
390
0
 62
     7
100
AcDbCircle
 10
176.173859
 20
126.451805
 30
0.0
 40
0.738021
210
0.0
220
0.0
230
1.0
100
AcDbArc
 50
280.778828
 51
79.221179
  0
ARC
  5
25F
100
AcDbEntity
  8
0
370
    35
390
0
 62
     7
100
AcDbCircle
 10
222.532257
 20
85.401802
 30
0.0
 40
0.738021
210
0.0
220
0.0
230
1.0
100
AcDbArc
 50
280.778828
 51
79.221144
  0
ARC
  5
260
100
AcDbEntity
  8
0
370
    35
390
0
 62
     7
100
AcDbCircle
 10
222.808289
 20
85.401802
 30
0.0
 40
0.738021
210
0.0
220
0.0
230
1.0
100
AcDbArc
 50
100.77882
 51
259.221167
  0
ARC
  5
261
100
AcDbEntity
  8
0
370
    35
390
0
 62
     7
100
AcDbCircle
 10
222.808289
 20
83.951805
 30
0.0
 40
0.738021
210
0.0
220
0.0
230
1.0
100
AcDbArc
 50
100.77882
 51
259.221167
  0
ARC
  5
262
100
AcDbEntity
  8
0
370
    35
390
0
 62
     7
100
AcDbCircle
 10
220.026855
 20
83.951805
 30
0.0
 40
0.738021
210
0.0
220
0.0
230
1.0
100
AcDbArc
 50
280.778828
 51
79.221179
  0
ARC
  5
263
100
AcDbEntity
  8
0
370
    35
390
0
 62
     7
100
AcDbCircle
 10
220.302917
 20
83.951805
 30
0.0
 40
0.738021
210
0.0
220
0.0
230
1.0
100
AcDbArc
 50
100.77884
 51
259.221139
  0
ARC
  5
264
100
AcDbEntity
  8
0
370
    35
390
0
 62
     7
100
AcDbCircle
 10
262.487579
 20
87.126823
 30
0.0
 40
0.5
210
0.0
220
0.0
230
1.0
100
AcDbArc
 50
5.73902
 51
174.260966
  0
ARC
  5
265
100
AcDbEntity
  8
0
370
    35
390
0
 62
     7
100
AcDbCircle
 10
262.487579
 20
82.226814
 30
0.0
 40
0.5
210
0.0
220
0.0
230
1.0
100
AcDbArc
 50
185.739048
 51
354.260985
  0
CIRCLE
  5
266
100
AcDbEntity
  8
0
370
    35
390
0
 62
     7
100
AcDbCircle
 10
200.840515
 20
80.329308
 30
0.0
 40
1.05
210
0.0
220
0.0
230
1.0
  0
CIRCLE
  5
267
100
AcDbEntity
  8
0
370
    35
390
0
 62
     7
100
AcDbCircle
 10
145.840515
 20
89.0243
 30
0.0
 40
1.05
210
0.0
220
0.0
230
1.0
  0
ARC
  5
268
100
AcDbEntity
  8
0
370
    35
390
0
 62
     7
100
AcDbCircle
 10
178.94989
 20
126.451805
 30
0.0
 40
0.738021
210
0.0
220
0.0
230
1.0
100
AcDbArc
 50
100.77882
 51
259.221167
  0
ARC
  5
269
100
AcDbEntity
  8
0
370
    35
390
0
 62
     7
100
AcDbCircle
 10
178.94989
 20
127.901802
 30
0.0
 40
0.738021
210
0.0
220
0.0
230
1.0
100
AcDbArc
 50
100.77882
 51
259.221167
  0
ARC
  5
26A
100
AcDbEntity
  8
0
370
    35
390
0
 62
     7
100
AcDbCircle
 10
178.673859
 20
127.901802
 30
0.0
 40
0.738021
210
0.0
220
0.0
230
1.0
100
AcDbArc
 50
280.778828
 51
79.221144
  0
ARC
  5
26B
100
AcDbEntity
  8
0
370
    35
390
0
 62
     7
100
AcDbCircle
 10
144.590515
 20
90.2743
 30
0.0
 40
1.0
210
0.0
220
0.0
230
1.0
100
AcDbArc
 50
90.000003
 51
180.000009
  0
ARC
  5
26C
100
AcDbEntity
  8
0
370
    35
390
0
 62
     7
100
AcDbCircle
 10
220.026855
 20
85.401802
 30
0.0
 40
0.738021
210
0.0
220
0.0
230
1.0
100
AcDbArc
 50
280.778828
 51
79.221179
  0
ARC
  5
26D
100
AcDbEntity
  8
0
370
    35
390
0
 62
     7
100
AcDbCircle
 10
202.090515
 20
79.079308
 30
0.0
 40
1.0
210
0.0
220
0.0
230
1.0
100
AcDbArc
 50
269.999997
 51
360.0
  0
ARC
  5
26E
100
AcDbEntity
  8
0
370
    35
390
0
 62
     7
100
AcDbCircle
 10
202.090515
 20
81.526802
 30
0.0
 40
1.0
210
0.0
220
0.0
230
1.0
100
AcDbArc
 50
0.0
 51
90.000003
  0
ARC
  5
26F
100
AcDbEntity
  8
0
370
    35
390
0
 62
     7
100
AcDbCircle
 10
144.590515
 20
87.826805
 30
0.0
 40
1.0
210
0.0
220
0.0
230
1.0
100
AcDbArc
 50
180.000009
 51
269.999997
  0
ARC
  5
270
100
AcDbEntity
  8
0
370
    35
390
0
 62
     7
100
AcDbCircle
 10
222.532257
 20
35.401802
 30
0.0
 40
0.738021
210
0.0
220
0.0
230
1.0
100
AcDbArc
 50
280.778828
 51
79.221144
  0
ARC
  5
271
100
AcDbEntity
  8
0
370
    35
390
0
 62
     7
100
AcDbCircle
 10
222.808289
 20
35.401802
 30
0.0
 40
0.738021
210
0.0
220
0.0
230
1.0
100
AcDbArc
 50
100.77882
 51
259.221167
  0
ARC
  5
272
100
AcDbEntity
  8
0
370
    35
390
0
 62
     7
100
AcDbCircle
 10
222.808289
 20
33.951805
 30
0.0
 40
0.738021
210
0.0
220
0.0
230
1.0
100
AcDbArc
 50
100.77882
 51
259.221167
  0
ARC
  5
273
100
AcDbEntity
  8
0
370
    35
390
0
 62
     7
100
AcDbCircle
 10
220.026855
 20
33.951805
 30
0.0
 40
0.738021
210
0.0
220
0.0
230
1.0
100
AcDbArc
 50
280.778828
 51
79.221179
  0
ARC
  5
274
100
AcDbEntity
  8
0
370
    35
390
0
 62
     7
100
AcDbCircle
 10
220.302917
 20
33.951805
 30
0.0
 40
0.738021
210
0.0
220
0.0
230
1.0
100
AcDbArc
 50
100.77884
 51
259.221139
  0
ARC
  5
275
100
AcDbEntity
  8
0
370
    35
390
0
 62
     7
100
AcDbCircle
 10
251.487579
 20
34.676811
 30
0.0
 40
0.5
210
0.0
220
0.0
230
1.0
100
AcDbArc
 50
269.999997
 51
90.000003
  0
CIRCLE
  5
276
100
AcDbEntity
  8
0
370
    35
390
0
 62
     7
100
AcDbCircle
 10
262.487579
 20
34.676811
 30
0.0
 40
0.5
210
0.0
220
0.0
230
1.0
  0
ARC
  5
277
100
AcDbEntity
  8
0
370
    35
390
0
 62
     7
100
AcDbCircle
 10
136.654144
 20
33.951805
 30
0.0
 40
0.738021
210
0.0
220
0.0
230
1.0
100
AcDbArc
 50
100.77882
 51
259.221167
  0
ARC
  5
278
100
AcDbEntity
  8
0
370
    35
390
0
 62
     7
100
AcDbCircle
 10
136.654144
 20
35.401802
 30
0.0
 40
0.738021
210
0.0
220
0.0
230
1.0
100
AcDbArc
 50
100.77882
 51
259.221167
  0
ARC
  5
279
100
AcDbEntity
  8
0
370
    35
390
0
 62
     7
100
AcDbCircle
 10
136.378113
 20
35.401802
 30
0.0
 40
0.738021
210
0.0
220
0.0
230
1.0
100
AcDbArc
 50
280.778828
 51
79.221144
  0
ARC
  5
27A
100
AcDbEntity
  8
0
370
    35
390
0
 62
     7
100
AcDbCircle
 10
220.026855
 20
35.401802
 30
0.0
 40
0.738021
210
0.0
220
0.0
230
1.0
100
AcDbArc
 50
280.778828
 51
79.221179
  0
CIRCLE
  5
27B
100
AcDbEntity
  8
0
370
    35
390
0
 62
     7
100
AcDbCircle
 10
192.090515
 20
32.476807
 30
0.0
 40
0.975
210
0.0
220
0.0
230
1.0
  0
ARC
  5
27C
100
AcDbEntity
  8
0
370
    35
390
0
 62
     7
100
AcDbCircle
 10
198.190521
 20
37.676811
 30
0.0
 40
0.4
210
0.0
220
0.0
230
1.0
100
AcDbArc
 50
0.0
 51
90.000003
  0
CIRCLE
  5
27D
100
AcDbEntity
  8
0
370
    35
390
0
 62
     7
100
AcDbCircle
 10
154.090515
 20
32.476807
 30
0.0
 40
0.975
210
0.0
220
0.0
230
1.0
  0
ARC
  5
27E
100
AcDbEntity
  8
0
370
    35
390
0
 62
     7
100
AcDbCircle
 10
148.490509
 20
37.676811
 30
0.0
 40
0.4
210
0.0
220
0.0
230
1.0
100
AcDbArc
 50
90.000003
 51
180.000009
  0
ARC
  5
27F
100
AcDbEntity
  8
0
370
    35
390
0
 62
     7
100
AcDbCircle
 10
148.090515
 20
31.076805
 30
0.0
 40
0.4
210
0.0
220
0.0
230
1.0
100
AcDbArc
 50
269.999997
 51
360.0
  0
ARC
  5
280
100
AcDbEntity
  8
0
370
    35
390
0
 62
     7
100
AcDbCircle
 10
197.640503
 20
30.976807
 30
0.0
 40
0.5
210
0.0
220
0.0
230
1.0
100
AcDbArc
 50
269.999997
 51
360.0
  0
ARC
  5
281
100
AcDbEntity
  8
0
370
    35
390
0
 62
     7
100
AcDbCircle
 10
149.040497
 20
30.976807
 30
0.0
 40
0.5
210
0.0
220
0.0
230
1.0
100
AcDbArc
 50
180.000009
 51
269.999997
  0
CIRCLE
  5
282
100
AcDbEntity
  8
0
370
    35
390
0
 62
     7
100
AcDbCircle
 10
154.090515
 20
32.476807
 30
0.0
 40
1.0
210
0.0
220
0.0
230
1.0
  0
ARC
  5
283
100
AcDbEntity
  8
0
370
    35
390
0
 62
     7
100
AcDbCircle
 10
154.514771
 20
32.476807
 30
0.0
 40
0.2
210
0.0
220
0.0
230
1.0
100
AcDbArc
 50
135.0
 51
224.999986
  0
ARC
  5
284
100
AcDbEntity
  8
0
370
    35
390
0
 62
     7
100
AcDbCircle
 10
154.090515
 20
32.90107
 30
0.0
 40
0.2
210
0.0
220
0.0
230
1.0
100
AcDbArc
 50
225.0
 51
314.999992
  0
ARC
  5
285
100
AcDbEntity
  8
0
370
    35
390
0
 62
     7
100
AcDbCircle
 10
153.66626
 20
32.476807
 30
0.0
 40
0.2
210
0.0
220
0.0
230
1.0
100
AcDbArc
 50
314.999992
 51
44.999998
  0
ARC
  5
286
100
AcDbEntity
  8
0
370
    35
390
0
 62
     7
100
AcDbCircle
 10
154.090515
 20
32.052544
 30
0.0
 40
0.2
210
0.0
220
0.0
230
1.0
100
AcDbArc
 50
45.000001
 51
135.0
  0
CIRCLE
  5
287
100
AcDbEntity
  8
0
370
    35
390
0
 62
     7
100
AcDbCircle
 10
192.090515
 20
32.476807
 30
0.0
 40
1.0
210
0.0
220
0.0
230
1.0
  0
ARC
  5
288
100
AcDbEntity
  8
0
370
    35
390
0
 62
     7
100
AcDbCircle
 10
192.514771
 20
32.476807
 30
0.0
 40
0.2
210
0.0
220
0.0
230
1.0
100
AcDbArc
 50
135.0
 51
224.999986
  0
ARC
  5
289
100
AcDbEntity
  8
0
370
    35
390
0
 62
     7
100
AcDbCircle
 10
192.090515
 20
32.90107
 30
0.0
 40
0.2
210
0.0
220
0.0
230
1.0
100
AcDbArc
 50
225.0
 51
314.999992
  0
ARC
  5
28A
100
AcDbEntity
  8
0
370
    35
390
0
 62
     7
100
AcDbCircle
 10
191.66626
 20
32.476807
 30
0.0
 40
0.2
210
0.0
220
0.0
230
1.0
100
AcDbArc
 50
314.999992
 51
44.999998
  0
ARC
  5
28B
100
AcDbEntity
  8
0
370
    35
390
0
 62
     7
100
AcDbCircle
 10
192.090515
 20
32.052544
 30
0.0
 40
0.2
210
0.0
220
0.0
230
1.0
100
AcDbArc
 50
45.000001
 51
135.0
  0
CIRCLE
  5
28C
100
AcDbEntity
  8
0
370
    35
390
0
 62
     7
100
AcDbCircle
 10
163.118134
 20
163.564301
 30
0.0
 40
0.025
210
0.0
220
0.0
230
1.0
  0
CIRCLE
  5
28D
100
AcDbEntity
  8
0
370
    35
390
0
 62
     7
100
AcDbCircle
 10
229.02298
 20
173.837402
 30
0.0
 40
0.025
210
0.0
220
0.0
230
1.0
  0
CIRCLE
  5
28E
100
AcDbEntity
  8
0
370
    35
390
0
 62
     7
100
AcDbCircle
 10
65.611931
 20
173.418152
 30
0.0
 40
0.025
210
0.0
220
0.0
230
1.0
  0
ARC
  5
28F
100
AcDbEntity
  8
0
370
    35
390
0
 62
     7
100
AcDbCircle
 10
8.361382
 20
169.676788
 30
0.0
 40
0.625
210
0.0
220
0.0
230
1.0
100
AcDbArc
 50
101.536957
 51
258.463043
  0
ARC
  5
290
100
AcDbEntity
  8
0
370
    35
390
0
 62
     7
100
AcDbCircle
 10
104.654518
 20
105.933311
 30
0.0
 40
22.706511
210
0.0
220
0.0
230
1.0
100
AcDbArc
 50
90.000003
 51
269.999997
  0
ARC
  5
291
100
AcDbEntity
  8
0
370
    35
390
0
 62
     7
100
AcDbCircle
 10
104.641502
 20
105.920296
 30
0.0
 40
19.793489
210
0.0
220
0.0
230
1.0
100
AcDbArc
 50
90.000003
 51
269.999997
  0
ARC
  5
292
100
AcDbEntity
  8
0
370
    35
390
0
 62
     7
100
AcDbCircle
 10
270.561218
 20
148.420288
 30
0.0
 40
22.706511
210
0.0
220
0.0
230
1.0
100
AcDbArc
 50
269.999997
 51
90.000003
  0
ARC
  5
293
100
AcDbEntity
  8
0
370
    35
390
0
 62
     7
100
AcDbCircle
 10
270.574219
 20
148.433319
 30
0.0
 40
19.793489
210
0.0
220
0.0
230
1.0
100
AcDbArc
 50
269.999997
 51
90.000003
  0
ENDSEC
  0
SECTION
  2
OBJECTS
  0
DICTIONARY
  5
19
100
AcDbDictionary
280
     0
281
     1
  3
ACAD_GROUP
350
1A
  3
ACAD_MLINESTYLE
350
1B
  3
ACAD_LAYOUT
350
1E
  3
ACAD_PLOTSETTINGS
350
22
  3
ACAD_PLOTSTYLENAME
350
1F
  3
ACAD_WIPEOUT_VARS
350
23
  0
DICTIONARY
  5
1A
102
{ACAD_REACTORS
330
19
102
}
100
AcDbDictionary
280
     0
281
     1
  0
DICTIONARY
  5
1B
102
{ACAD_REACTORS
330
19
102
}
100
AcDbDictionary
280
     0
281
     1
  3
Standard
350
1C
  0
MLINESTYLE
  5
1C
102
{ACAD_REACTORS
330
1B
102
}
100
AcDbMlineStyle
  2
Standard
 70
     0
  3

 62
     0
 51
90.0
 52
90.0
 71
     2
 49
0.5
 62
   256
  6
ByLayer
 49
-0.5
 62
   256
  6
ByLayer
  0
ACDBDICTIONARYWDFLT
  5
1F
102
{ACAD_REACTORS
330
19
102
}
100
AcDbDictionary
281
     1
  3
Normal
350
1D
100
AcDbDictionaryWithDefault
340
1D
  0
ACDBPLACEHOLDER
  5
1D
102
{ACAD_REACTORS
330
1F
102
}
  0
LAYOUT
  5
20
102
{ACAD_REACTORS
330
1E
102
}
100
AcDbPlotSettings
  1

  2

  4

  6

 40
0.0
 41
0.0
 42
0.0
 43
0.0
 44
0.0
 45
0.0
 46
0.0
 47
0.0
 48
0.0
 49
0.0
140
0.0
141
0.0
142
1.0
143
1.0
 70
  1024
 72
     0
 73
     0
 74
     0
  7

 75
     0
147
1.0
148
0.0
149
0.0
100
AcDbLayout
  1
Model
 70
     0
 71
     0
 10
0.0
 20
0.0
 11
0.0
 21
0.0
 12
0.0
 22
0.0
 32
0.0
 14
0.0
 24
0.0
 34
0.0
 15
0.0
 25
0.0
 35
0.0
146
0.0
 13
0.0
 23
0.0
 33
0.0
 16
0.0
 26
0.0
 36
0.0
 17
0.0
 27
0.0
 37
0.0
 76
     0
330
A
331
0
345
0
346
0
  0
LAYOUT
  5
21
102
{ACAD_REACTORS
330
1E
102
}
100
AcDbPlotSettings
  1

  2

  4

  6

 40
0.0
 41
0.0
 42
0.0
 43
0.0
 44
0.0
 45
0.0
 46
0.0
 47
0.0
 48
0.0
 49
0.0
140
0.0
141
0.0
142
1.0
143
1.0
 70
     0
 72
     0
 73
     0
 74
     0
  7

 75
     0
147
1.0
148
0.0
149
0.0
100
AcDbLayout
  1
Layout1
 70
     0
 71
     0
 10
0.0
 20
0.0
 11
0.0
 21
0.0
 12
0.0
 22
0.0
 32
0.0
 14
0.0
 24
0.0
 34
0.0
 15
0.0
 25
0.0
 35
0.0
146
0.0
 13
0.0
 23
0.0
 33
0.0
 16
0.0
 26
0.0
 36
0.0
 17
0.0
 27
0.0
 37
0.0
 76
     0
330
B
331
0
345
0
346
0
  0
DICTIONARY
  5
1E
102
{ACAD_REACTORS
330
19
102
}
100
AcDbDictionary
280
     0
281
     1
  3
Layout1
350
21
  3
Model
350
20
  0
DICTIONARY
  5
22
102
{ACAD_REACTORS
330
19
102
}
100
AcDbDictionary
280
     0
281
     1
  0
WIPEOUTVARIABLES
  5
23
100
AcDbWipeoutVariables
 70
     1
  0
ENDSEC
  0
EOF
