  0
SECTION
  2
HEADER
  9
$EXTMAX
 10
420.5
 20
607
 30
0
  9
$EXTMIN
 10
-420.5
 20
13
 30
0
  9
$LIMMAX
 10
420.5
 20
607
  9
$LIMMIN
 10
-420.5
 20
13
  9
$PLIMMAX
 10
420.5
 20
607
  9
$PLIMMIN
 10
-420.5
 20
13
  9
$TEXTSIZE
 40
3.2
  9
$DIMSHO
 70
     0
  9
$DIMASZ
 40
1.0
  9
$DIMTAD
 70
     1
  9
$DIMTIH
 70
     0
  9
$DIMTOH
 70
     0
  9
$DIMEXE
 40
2.54
  9
$DIMEXO
 40
2.54
  9
$DIMTVP
 40
1.0
  9
$DIMSAH
 70
     1
  9
$DIMDLE
 40
0.0
  9
$DIMTXT
 40
3.200000047683716
  9
$DIMGAP
 40
1.600000023841858
  0
ENDSEC
  0
SECTION
  2
TABLES
  0
TABLE
  2
LTYPE
 70
     6
  0
LTYPE
  2
CONTINUOUS
 70
    64
  3
Solid line
 72
    65
 73
     0
 40
0.0
  0
LTYPE
  2
DASHED
 70
    64
  3
__ __ __ __ __ __ __ __ __ __ __ __ __ __ __
 72
    65
 73
     2
 40
3.5
 49
2.0
 49
-1.5
  0
LTYPE
  2
CENTER
 70
    64
  3
____ _ ____ _ ____ _ ____ _ ____ _ ____ _ ____
 72
    65
 73
     4
 40
17.5
 49
13.0
 49
-1.5
 49
1.5
 49
-1.5
  0
LTYPE
  2
PHANTOM
 70
    64
  3
_____ _ _ _____ _ _ _____ _ _ _____ _ _ ____  
 72
    65
 73
     6
 40
15.5
 49
8.0
 49
-1.5
 49
1.5
 49
-1.5
 49
1.5
 49
-1.5
  0
LTYPE
  2
DOT
 70
    64
  3
. . . . . . . . . . . . . . . . . . . . . . . .
 72
    65
 73
     2
 40
0.25
 49
0.0
 49
-0.25
  0
LTYPE
  2
HIDDEN
 70
    64
  3
__ __ __ __ __ __ __ __ __ __ __ __ __ __ __
 72
    65
 73
     2
 40
3.5
 49
2.0
 49
-1.5
  0
ENDTAB
  0
TABLE
  2
LAYER
 70
     1
  0
LAYER
  2
0
 70
     0
 62
     7
  6
CONTINUOUS
  0
ENDTAB
  0
TABLE
  2
STYLE
 70
     1
  0
STYLE
  2
STANDARD
 70
     0
 40
0.0
 41
1.0
 50
0.0
 71
     0
 42
0.2
  3
txt
  4
BIGFONT
  0
ENDTAB
  0
TABLE
  2
DIMSTYLE
 70
     0
  0
ENDTAB
  0
ENDSEC
  0
SECTION
  2
BLOCKS
  0
BLOCK
  8
0
  2
KOZU0001
 70
    64
 10
0
 20
0
  0
POLYLINE
  8
0
  6
CONTINUOUS
 62
     7
 66
     1
 10
0
 20
0
 70
     1
  0
VERTEX
  8
0
  6
CONTINUOUS
 62
     7
 10
0
 20
0
  0
VERTEX
  8
0
  6
CONTINUOUS
 62
     7
 10
8
 20
0
  0
VERTEX
  8
0
  6
CONTINUOUS
 62
     7
 10
4.000000000000001
 20
6.928203230275509
  0
SEQEND
  8
0
  6
CONTINUOUS
 62
     7
  0
ENDBLK
  8
0
  0
BLOCK
  8
0
  2
KOZU0002
 70
    64
 10
0
 20
0
  0
POLYLINE
  8
0
  6
CONTINUOUS
 62
     7
 66
     1
 10
0
 20
0
 70
     1
  0
VERTEX
  8
0
  6
CONTINUOUS
 62
     7
 10
0
 20
0
  0
VERTEX
  8
0
  6
CONTINUOUS
 62
     7
 10
8
 20
0
  0
VERTEX
  8
0
  6
CONTINUOUS
 62
     7
 10
4.000000000000001
 20
6.928203230275509
  0
SEQEND
  8
0
  6
CONTINUOUS
 62
     7
  0
ENDBLK
  8
0
  0
BLOCK
  8
0
  2
KOZU0003
 70
    64
 10
0
 20
0
  0
POLYLINE
  8
0
  6
CONTINUOUS
 62
     7
 66
     1
 10
0
 20
0
 70
     1
  0
VERTEX
  8
0
  6
CONTINUOUS
 62
     7
 10
0
 20
0
  0
VERTEX
  8
0
  6
CONTINUOUS
 62
     7
 10
8
 20
0
  0
VERTEX
  8
0
  6
CONTINUOUS
 62
     7
 10
4.000000000000001
 20
6.928203230275509
  0
SEQEND
  8
0
  6
CONTINUOUS
 62
     7
  0
ENDBLK
  8
0
  0
BLOCK
  8
0
  2
KOZU0004
 70
    64
 10
0
 20
0
  0
POLYLINE
  8
0
  6
CONTINUOUS
 62
     7
 66
     1
 10
0
 20
0
 70
     1
  0
VERTEX
  8
0
  6
CONTINUOUS
 62
     7
 10
0
 20
0
  0
VERTEX
  8
0
  6
CONTINUOUS
 62
     7
 10
8
 20
0
  0
VERTEX
  8
0
  6
CONTINUOUS
 62
     7
 10
4.000000000000001
 20
6.928203230275509
  0
SEQEND
  8
0
  6
CONTINUOUS
 62
     7
  0
ENDBLK
  8
0
  0
BLOCK
  8
0
  2
KOZU0005
 70
    64
 10
0
 20
0
  0
POLYLINE
  8
0
  6
CONTINUOUS
 62
     7
 66
     1
 10
0
 20
0
 70
     1
  0
VERTEX
  8
0
  6
CONTINUOUS
 62
     7
 10
0
 20
0
  0
VERTEX
  8
0
  6
CONTINUOUS
 62
     7
 10
8
 20
0
  0
VERTEX
  8
0
  6
CONTINUOUS
 62
     7
 10
4.000000000000001
 20
6.928203230275509
  0
SEQEND
  8
0
  6
CONTINUOUS
 62
     7
  0
ENDBLK
  8
0
  0
BLOCK
  8
0
  2
KOZU0006
 70
    64
 10
0
 20
0
  0
POLYLINE
  8
0
  6
CONTINUOUS
 62
     7
 66
     1
 10
0
 20
0
 70
     1
  0
VERTEX
  8
0
  6
CONTINUOUS
 62
     7
 10
0
 20
0
  0
VERTEX
  8
0
  6
CONTINUOUS
 62
     7
 10
8
 20
0
  0
VERTEX
  8
0
  6
CONTINUOUS
 62
     7
 10
4.000000000000001
 20
6.928203230275509
  0
SEQEND
  8
0
  6
CONTINUOUS
 62
     7
  0
ENDBLK
  8
0
  0
BLOCK
  8
0
  2
KOZU0007
 70
    64
 10
0
 20
0
  0
POLYLINE
  8
0
  6
CONTINUOUS
 62
     7
 66
     1
 10
0
 20
0
 70
     1
  0
VERTEX
  8
0
  6
CONTINUOUS
 62
     7
 10
0
 20
0
  0
VERTEX
  8
0
  6
CONTINUOUS
 62
     7
 10
8
 20
0
  0
VERTEX
  8
0
  6
CONTINUOUS
 62
     7
 10
4.000000000000001
 20
6.928203230275509
  0
SEQEND
  8
0
  6
CONTINUOUS
 62
     7
  0
ENDBLK
  8
0
  0
BLOCK
  8
0
  2
KOZU0008
 70
    64
 10
0
 20
0
  0
POLYLINE
  8
0
  6
CONTINUOUS
 62
     7
 66
     1
 10
0
 20
0
 70
     1
  0
VERTEX
  8
0
  6
CONTINUOUS
 62
     7
 10
0
 20
0
  0
VERTEX
  8
0
  6
CONTINUOUS
 62
     7
 10
8
 20
0
  0
VERTEX
  8
0
  6
CONTINUOUS
 62
     7
 10
4.000000000000001
 20
6.928203230275509
  0
SEQEND
  8
0
  6
CONTINUOUS
 62
     7
  0
ENDBLK
  8
0
  0
BLOCK
  8
0
  2
KOZU0009
 70
    64
 10
0
 20
0
  0
POLYLINE
  8
0
  6
CONTINUOUS
 62
     7
 66
     1
 10
0
 20
0
 70
     1
  0
VERTEX
  8
0
  6
CONTINUOUS
 62
     7
 10
0
 20
0
  0
VERTEX
  8
0
  6
CONTINUOUS
 62
     7
 10
8
 20
0
  0
VERTEX
  8
0
  6
CONTINUOUS
 62
     7
 10
4.000000000000001
 20
6.928203230275509
  0
SEQEND
  8
0
  6
CONTINUOUS
 62
     7
  0
ENDBLK
  8
0
  0
BLOCK
  8
0
  2
KOZU0010
 70
    64
 10
0
 20
0
  0
POLYLINE
  8
0
  6
CONTINUOUS
 62
     7
 66
     1
 10
0
 20
0
 70
     1
  0
VERTEX
  8
0
  6
CONTINUOUS
 62
     7
 10
0
 20
0
  0
VERTEX
  8
0
  6
CONTINUOUS
 62
     7
 10
8
 20
0
  0
VERTEX
  8
0
  6
CONTINUOUS
 62
     7
 10
4.000000000000001
 20
6.928203230275509
  0
SEQEND
  8
0
  6
CONTINUOUS
 62
     7
  0
ENDBLK
  8
0
  0
BLOCK
  8
0
  2
KOZU0011
 70
    64
 10
0
 20
0
  0
POLYLINE
  8
0
  6
CONTINUOUS
 62
     7
 66
     1
 10
0
 20
0
 70
     1
  0
VERTEX
  8
0
  6
CONTINUOUS
 62
     7
 10
0
 20
0
  0
VERTEX
  8
0
  6
CONTINUOUS
 62
     7
 10
8
 20
0
  0
VERTEX
  8
0
  6
CONTINUOUS
 62
     7
 10
4.000000000000001
 20
6.928203230275509
  0
SEQEND
  8
0
  6
CONTINUOUS
 62
     7
  0
ENDBLK
  8
0
  0
BLOCK
  8
0
  2
KOZU0012
 70
    64
 10
0
 20
0
  0
POLYLINE
  8
0
  6
CONTINUOUS
 62
     7
 66
     1
 10
0
 20
0
 70
     1
  0
VERTEX
  8
0
  6
CONTINUOUS
 62
     7
 10
0
 20
0
  0
VERTEX
  8
0
  6
CONTINUOUS
 62
     7
 10
8
 20
0
  0
VERTEX
  8
0
  6
CONTINUOUS
 62
     7
 10
4.000000000000001
 20
6.928203230275509
  0
SEQEND
  8
0
  6
CONTINUOUS
 62
     7
  0
ENDBLK
  8
0
  0
BLOCK
  8
0
  2
KOZU0013
 70
    64
 10
0
 20
0
  0
LINE
  8
0
  6
CONTINUOUS
 62
     7
 10
0
 20
0
 11
-51.35092163085938
 21
0
  0
LINE
  8
0
  6
CONTINUOUS
 62
     7
 10
0
 20
0
 11
-2.999999954944514
 21
-0.9999999849815249
  0
LINE
  8
0
  6
CONTINUOUS
 62
     7
 10
0
 20
0
 11
-2.999999954944526
 21
0.9999999849814883
  0
ENDBLK
  8
0
  0
BLOCK
  8
0
  2
KOZU0014
 70
    64
 10
0
 20
0
  0
LINE
  8
0
  6
CONTINUOUS
 62
     7
 10
0
 20
0
 11
-23.00000190734863
 21
0
  0
LINE
  8
0
  6
CONTINUOUS
 62
     7
 10
0
 20
0
 11
-2.999999954944514
 21
-0.9999999849815249
  0
LINE
  8
0
  6
CONTINUOUS
 62
     7
 10
0
 20
0
 11
-2.999999954944526
 21
0.9999999849814883
  0
ENDBLK
  8
0
  0
BLOCK
  8
0
  2
KOZU0015
 70
    64
 10
0
 20
0
  0
LINE
  8
0
  6
CONTINUOUS
 62
     7
 10
0
 20
0
 11
-8.039840698242188
 21
17.63580322265625
  0
LINE
  8
0
  6
CONTINUOUS
 62
     7
 10
-8.039840698242188
 20
17.63580322265625
 11
-30.88388061523438
 21
17.63580322265625
  0
LINE
  8
0
  6
CONTINUOUS
 62
     7
 10
0
 20
0
 11
-2.154339006262398
 21
2.314913204793321
  0
LINE
  8
0
  6
CONTINUOUS
 62
     7
 10
0
 20
0
 11
-0.334523282133926
 21
3.144533967592095
  0
TEXT
  8
0
  6
CONTINUOUS
 62
     7
 10
-29.05531644821167
 20
18.43580323457718
 40
3.200000047683716
 41
0.8473978299945093
  1
２－%%C５，穴
  0
ENDBLK
  8
0
  0
BLOCK
  8
0
  2
KOZU0016
 70
    64
 10
0
 20
0
  0
LINE
  8
0
  6
CONTINUOUS
 62
     7
 10
0
 20
0
 11
15.13834381103516
 21
24.93232727050781
  0
LINE
  8
0
  6
CONTINUOUS
 62
     7
 10
0
 20
0
 11
0.7022245304294205
 21
3.083322949107556
  0
LINE
  8
0
  6
CONTINUOUS
 62
     7
 10
0
 20
0
 11
2.41177339380807
 21
2.045323641028393
  0
ENDBLK
  8
0
  0
BLOCK
  8
0
  2
KOZU0017
 70
    64
 10
0
 20
0
  0
LINE
  8
0
  6
CONTINUOUS
 62
     7
 10
0
 20
0
 11
22.01029586791992
 21
38.12300109863281
  0
LINE
  8
0
  6
CONTINUOUS
 62
     7
 10
0
 20
0
 11
0.6339728143775966
 21
3.098076527502232
  0
LINE
  8
0
  6
CONTINUOUS
 62
     7
 10
0
 20
0
 11
2.366024168003416
 21
2.098077533375228
  0
ENDBLK
  8
0
  0
BLOCK
  8
0
  2
KOZU0018
 70
    64
 10
0
 20
0
  0
LINE
  8
0
  6
CONTINUOUS
 62
     7
 10
0
 20
0
 11
25.12265014648438
 21
-35.35418701171875
  0
LINE
  8
0
  6
CONTINUOUS
 62
     7
 10
25.12265014648438
 20
-35.35418701171875
 11
54.03005981445313
 21
-35.35418701171875
  0
LINE
  8
0
  6
CONTINUOUS
 62
     7
 10
0
 20
0
 11
2.552891911815543
 21
-1.866210756108999
  0
LINE
  8
0
  6
CONTINUOUS
 62
     7
 10
0
 20
0
 11
0.9225870757870355
 21
-3.024703751976524
  0
ENDBLK
  8
0
  0
BLOCK
  8
0
  2
KOZU0019
 70
    64
 10
0
 20
0
  0
LINE
  8
0
  6
CONTINUOUS
 62
     7
 10
0
 20
0
 11
20.23030090332031
 21
-44.57524108886719
  0
LINE
  8
0
  6
CONTINUOUS
 62
     7
 10
20.23030090332031
 20
-44.57524108886719
 11
47.66915893554688
 21
-44.57524108886719
  0
LINE
  8
0
  6
CONTINUOUS
 62
     7
 10
0
 20
0
 11
1.804485217731855
 21
-2.616115592936751
  0
LINE
  8
0
  6
CONTINUOUS
 62
     7
 10
0
 20
0
 11
0.7809638457204203
 21
-3.080636812137576
  0
TEXT
  8
0
  6
CONTINUOUS
 62
     7
 10
25.03915524482727
 20
-43.77524107694626
 40
3.200000047683716
 41
0.9532562631250975
  1
原点検出位置
  0
ENDBLK
  8
0
  0
BLOCK
  8
0
  2
KOZU0020
 70
    64
 10
0
 20
0
  0
LINE
  8
0
  6
CONTINUOUS
 62
     7
 10
0
 20
0
 11
-13.57940673828125
 21
31.0172119140625
  0
LINE
  8
0
  6
CONTINUOUS
 62
     7
 10
-13.57940673828125
 20
31.0172119140625
 11
-54.43766784667969
 21
31.0172119140625
  0
LINE
  8
0
  6
CONTINUOUS
 62
     7
 10
0
 20
0
 11
-1.769311557707387
 21
2.64003111882846
  0
LINE
  8
0
  6
CONTINUOUS
 62
     7
 10
0
 20
0
 11
-0.7396650616993045
 21
3.090812723721862
  0
TEXT
  8
0
  6
CONTINUOUS
 62
     7
 10
-52.37767887115479
 20
31.81721192598343
 40
3.200000047683716
 41
0.9532562631250975
  1
Ｎ－スペーサ
  0
ENDBLK
  8
0
  0
BLOCK
  8
0
  2
KOZU0021
 70
    64
 10
0
 20
0
  0
LINE
  8
0
  6
CONTINUOUS
 62
     7
 10
0
 20
0
 11
-17.08265686035156
 21
40.57180786132813
  0
LINE
  8
0
  6
CONTINUOUS
 62
     7
 10
-17.08265686035156
 20
40.57180786132813
 11
-66.795654296875
 21
40.57180786132813
  0
LINE
  8
0
  6
CONTINUOUS
 62
     7
 10
0
 20
0
 11
-1.731789656952385
 21
2.664794979110463
  0
LINE
  8
0
  6
CONTINUOUS
 62
     7
 10
0
 20
0
 11
-0.695869596769982
 21
3.10096649464498
  0
TEXT
  8
0
  6
CONTINUOUS
 62
     7
 10
-64.73565578460693
 20
41.37180787324905
 40
3.200000047683716
 41
0.9499963385751142
  1
Ｍ－スケールクランプ
  0
ENDBLK
  8
0
  0
BLOCK
  8
0
  2
KOZU0022
 70
    64
 10
0
 20
0
  0
LINE
  8
0
  6
CONTINUOUS
 62
     7
 10
0
 20
0
 11
188.0000214576721
 21
0
  0
LINE
  8
0
  6
CONTINUOUS
 62
     7
 10
0
 20
0
 11
3.127999953022153
 21
0.5619999915596069
  0
LINE
  8
0
  6
CONTINUOUS
 62
     7
 10
0
 20
0
 11
3.127999953022153
 21
-0.5619999915596069
  0
ENDBLK
  8
0
  0
BLOCK
  8
0
  2
KOZU0023
 70
    64
 10
0
 20
0
  0
LINE
  8
0
  6
CONTINUOUS
 62
     7
 10
0
 20
0
 11
-187.9999785423279
 21
0
  0
LINE
  8
0
  6
CONTINUOUS
 62
     7
 10
0
 20
0
 11
-3.12799995302215
 21
-0.5619999915596265
  0
LINE
  8
0
  6
CONTINUOUS
 62
     7
 10
0
 20
0
 11
-3.127999953022157
 21
0.5619999915595884
  0
ENDBLK
  8
0
  0
BLOCK
  8
0
  2
KOZU0024
 70
    64
 10
0
 20
0
  0
LINE
  8
0
  6
CONTINUOUS
 62
     7
 10
0
 20
0
 11
-37.50000381469727
 21
0
  0
LINE
  8
0
  6
CONTINUOUS
 62
     7
 10
0
 20
0
 11
-3.12799995302215
 21
-0.5619999915596265
  0
LINE
  8
0
  6
CONTINUOUS
 62
     7
 10
0
 20
0
 11
-3.127999953022157
 21
0.5619999915595884
  0
ENDBLK
  8
0
  0
BLOCK
  8
0
  2
KOZU0025
 70
    64
 10
0
 20
0
  0
LINE
  8
0
  6
CONTINUOUS
 62
     7
 10
0
 20
0
 11
37.50000524520874
 21
0
  0
LINE
  8
0
  6
CONTINUOUS
 62
     7
 10
0
 20
0
 11
3.127999953022153
 21
0.5619999915596069
  0
LINE
  8
0
  6
CONTINUOUS
 62
     7
 10
0
 20
0
 11
3.127999953022153
 21
-0.5619999915596069
  0
ENDBLK
  8
0
  0
BLOCK
  8
0
  2
KOZU0026
 70
    64
 10
0
 20
0
  0
LINE
  8
0
  6
CONTINUOUS
 62
     7
 10
0
 20
0
 11
-37.49999094009399
 21
0
  0
LINE
  8
0
  6
CONTINUOUS
 62
     7
 10
0
 20
0
 11
-3.12799995302215
 21
-0.5619999915596265
  0
LINE
  8
0
  6
CONTINUOUS
 62
     7
 10
0
 20
0
 11
-3.127999953022157
 21
0.5619999915595884
  0
ENDBLK
  8
0
  0
BLOCK
  8
0
  2
KOZU0027
 70
    64
 10
0
 20
0
  0
LINE
  8
0
  6
CONTINUOUS
 62
     7
 10
0
 20
0
 11
37.49999237060547
 21
0
  0
LINE
  8
0
  6
CONTINUOUS
 62
     7
 10
0
 20
0
 11
3.127999953022153
 21
0.5619999915596069
  0
LINE
  8
0
  6
CONTINUOUS
 62
     7
 10
0
 20
0
 11
3.127999953022153
 21
-0.5619999915596069
  0
ENDBLK
  8
0
  0
BLOCK
  8
0
  2
KOZU0028
 70
    64
 10
0
 20
0
  0
LINE
  8
0
  6
CONTINUOUS
 62
     7
 10
0
 20
0
 11
45.00000762939453
 21
0
  0
LINE
  8
0
  6
CONTINUOUS
 62
     7
 10
0
 20
0
 11
3.127999953022153
 21
0.5619999915596069
  0
LINE
  8
0
  6
CONTINUOUS
 62
     7
 10
0
 20
0
 11
3.127999953022153
 21
-0.5619999915596069
  0
ENDBLK
  8
0
  0
BLOCK
  8
0
  2
KOZU0029
 70
    64
 10
0
 20
0
  0
LINE
  8
0
  6
CONTINUOUS
 62
     7
 10
0
 20
0
 11
-45.00001525878906
 21
0
  0
LINE
  8
0
  6
CONTINUOUS
 62
     7
 10
0
 20
0
 11
-3.12799995302215
 21
-0.5619999915596265
  0
LINE
  8
0
  6
CONTINUOUS
 62
     7
 10
0
 20
0
 11
-3.127999953022157
 21
0.5619999915595884
  0
ENDBLK
  8
0
  0
BLOCK
  8
0
  2
KOZU0030
 70
    64
 10
0
 20
0
  0
LINE
  8
0
  6
CONTINUOUS
 62
     7
 10
0
 20
0
 11
22.5
 21
0
  0
LINE
  8
0
  6
CONTINUOUS
 62
     7
 10
0
 20
0
 11
3.127999953022153
 21
0.5619999915596069
  0
LINE
  8
0
  6
CONTINUOUS
 62
     7
 10
0
 20
0
 11
3.127999953022153
 21
-0.5619999915596069
  0
ENDBLK
  8
0
  0
BLOCK
  8
0
  2
KOZU0031
 70
    64
 10
0
 20
0
  0
LINE
  8
0
  6
CONTINUOUS
 62
     7
 10
0
 20
0
 11
-22.50000762939453
 21
0
  0
LINE
  8
0
  6
CONTINUOUS
 62
     7
 10
0
 20
0
 11
-3.12799995302215
 21
-0.5619999915596265
  0
LINE
  8
0
  6
CONTINUOUS
 62
     7
 10
0
 20
0
 11
-3.127999953022157
 21
0.5619999915595884
  0
ENDBLK
  8
0
  0
BLOCK
  8
0
  2
KOZU0032
 70
    64
 10
0
 20
0
  0
LINE
  8
0
  6
CONTINUOUS
 62
     7
 10
0
 20
0
 11
22.50000762939453
 21
0
  0
LINE
  8
0
  6
CONTINUOUS
 62
     7
 10
0
 20
0
 11
3.127999953022153
 21
0.5619999915596069
  0
LINE
  8
0
  6
CONTINUOUS
 62
     7
 10
0
 20
0
 11
3.127999953022153
 21
-0.5619999915596069
  0
ENDBLK
  8
0
  0
BLOCK
  8
0
  2
KOZU0033
 70
    64
 10
0
 20
0
  0
LINE
  8
0
  6
CONTINUOUS
 62
     7
 10
0
 20
0
 11
-22.50000762939453
 21
0
  0
LINE
  8
0
  6
CONTINUOUS
 62
     7
 10
0
 20
0
 11
-3.12799995302215
 21
-0.5619999915596265
  0
LINE
  8
0
  6
CONTINUOUS
 62
     7
 10
0
 20
0
 11
-3.127999953022157
 21
0.5619999915595884
  0
ENDBLK
  8
0
  0
BLOCK
  8
0
  2
KOZU0034
 70
    64
 10
0
 20
0
  0
LINE
  8
0
  6
CONTINUOUS
 62
     7
 10
0
 20
0
 11
22.5
 21
0
  0
LINE
  8
0
  6
CONTINUOUS
 62
     7
 10
0
 20
0
 11
3.127999953022153
 21
0.5619999915596069
  0
LINE
  8
0
  6
CONTINUOUS
 62
     7
 10
0
 20
0
 11
3.127999953022153
 21
-0.5619999915596069
  0
ENDBLK
  8
0
  0
BLOCK
  8
0
  2
KOZU0035
 70
    64
 10
0
 20
0
  0
LINE
  8
0
  6
CONTINUOUS
 62
     7
 10
0
 20
0
 11
-22.5
 21
0
  0
LINE
  8
0
  6
CONTINUOUS
 62
     7
 10
0
 20
0
 11
-3.12799995302215
 21
-0.5619999915596265
  0
LINE
  8
0
  6
CONTINUOUS
 62
     7
 10
0
 20
0
 11
-3.127999953022157
 21
0.5619999915595884
  0
ENDBLK
  8
0
  0
BLOCK
  8
0
  2
KOZU0036
 70
    64
 10
0
 20
0
  0
LINE
  8
0
  6
CONTINUOUS
 62
     7
 10
0
 20
0
 11
22.5
 21
0
  0
LINE
  8
0
  6
CONTINUOUS
 62
     7
 10
0
 20
0
 11
3.127999953022153
 21
0.5619999915596069
  0
LINE
  8
0
  6
CONTINUOUS
 62
     7
 10
0
 20
0
 11
3.127999953022153
 21
-0.5619999915596069
  0
ENDBLK
  8
0
  0
BLOCK
  8
0
  2
KOZU0037
 70
    64
 10
0
 20
0
  0
LINE
  8
0
  6
CONTINUOUS
 62
     7
 10
0
 20
0
 11
-22.5
 21
0
  0
LINE
  8
0
  6
CONTINUOUS
 62
     7
 10
0
 20
0
 11
-3.12799995302215
 21
-0.5619999915596265
  0
LINE
  8
0
  6
CONTINUOUS
 62
     7
 10
0
 20
0
 11
-3.127999953022157
 21
0.5619999915595884
  0
ENDBLK
  8
0
  0
BLOCK
  8
0
  2
KOZU0038
 70
    64
 10
0
 20
0
  0
LINE
  8
0
  6
CONTINUOUS
 62
     7
 10
0
 20
0
 11
45
 21
0
  0
LINE
  8
0
  6
CONTINUOUS
 62
     7
 10
0
 20
0
 11
3.127999953022153
 21
0.5619999915596069
  0
LINE
  8
0
  6
CONTINUOUS
 62
     7
 10
0
 20
0
 11
3.127999953022153
 21
-0.5619999915596069
  0
ENDBLK
  8
0
  0
BLOCK
  8
0
  2
KOZU0039
 70
    64
 10
0
 20
0
  0
LINE
  8
0
  6
CONTINUOUS
 62
     7
 10
0
 20
0
 11
-45
 21
0
  0
LINE
  8
0
  6
CONTINUOUS
 62
     7
 10
0
 20
0
 11
-3.12799995302215
 21
-0.5619999915596265
  0
LINE
  8
0
  6
CONTINUOUS
 62
     7
 10
0
 20
0
 11
-3.127999953022157
 21
0.5619999915595884
  0
ENDBLK
  8
0
  0
BLOCK
  8
0
  2
KOZU0040
 70
    64
 10
0
 20
0
  0
LINE
  8
0
  6
CONTINUOUS
 62
     7
 10
0
 20
0
 11
-9.451799392700195
 21
12.35824584960938
  0
LINE
  8
0
  6
CONTINUOUS
 62
     7
 10
-9.451799392700195
 20
12.35824584960938
 11
-25.74192428588867
 21
12.35824584960938
  0
LINE
  8
0
  6
CONTINUOUS
 62
     7
 10
0
 20
0
 11
-2.616832863152021
 21
1.775439513460748
  0
LINE
  8
0
  6
CONTINUOUS
 62
     7
 10
0
 20
0
 11
-1.028202582445168
 21
2.99045132865981
  0
TEXT
  8
0
  6
CONTINUOUS
 62
     7
 10
-25.51335754990578
 20
13.1582458615303
 40
3.200000047683716
 41
0.9233138421524093
  1
%%C4
  0
TEXT
  8
0
  6
CONTINUOUS
 62
     7
 10
-19.11335745453835
 20
16.75824600458145
 40
2.400000035762787
 41
1.285714372798993
  1
+0.05
  0
TEXT
  8
0
  6
CONTINUOUS
 62
     7
 10
-19.11335745453835
 20
13.1582458615303
 40
2.400000035762787
 41
1.928571787795845
  1
 0
  0
ENDBLK
  8
0
  0
BLOCK
  8
0
  2
KOZU0041
 70
    64
 10
0
 20
0
  0
LINE
  8
0
  6
CONTINUOUS
 62
     7
 10
0
 20
0
 11
5.678199768066406
 21
9.834991455078125
  0
LINE
  8
0
  6
CONTINUOUS
 62
     7
 10
5.678199768066406
 20
9.834991455078125
 11
24.82652282714844
 21
9.834991455078125
  0
LINE
  8
0
  6
CONTINUOUS
 62
     7
 10
0
 20
0
 11
0.6339662714793531
 21
3.098077866396632
  0
LINE
  8
0
  6
CONTINUOUS
 62
     7
 10
0
 20
0
 11
2.366019737021461
 21
2.098082530229694
  0
TEXT
  8
0
  6
CONTINUOUS
 62
     7
 10
11.11223697662354
 20
10.63499146699905
 40
3.200000047683716
 41
0.9630819447527157
  1
5-%%C5
  0
ENDBLK
  8
0
  0
BLOCK
  8
0
  2
KOZU0042
 70
    64
 10
0
 20
0
  0
LINE
  8
0
  6
CONTINUOUS
 62
     7
 10
0
 20
0
 11
-5.928237915039063
 21
10.26791381835938
  0
LINE
  8
0
  6
CONTINUOUS
 62
     7
 10
-5.928237915039063
 20
10.26791381835938
 11
-21.919921875
 21
10.26791381835938
  0
LINE
  8
0
  6
CONTINUOUS
 62
     7
 10
0
 20
0
 11
-2.366033813507965
 21
2.098066655987624
  0
LINE
  8
0
  6
CONTINUOUS
 62
     7
 10
0
 20
0
 11
-0.6339870572137981
 21
3.098073612894879
  0
TEXT
  8
0
  6
CONTINUOUS
 62
     7
 10
-21.69135132431984
 20
11.0679138302803
 40
3.200000047683716
 41
0.9233138421524093
  1
%%C4
  0
TEXT
  8
0
  6
CONTINUOUS
 62
     7
 10
-15.29135122895241
 20
14.66791397333145
 40
2.400000035762787
 41
1.285714372798993
  1
+0.05
  0
TEXT
  8
0
  6
CONTINUOUS
 62
     7
 10
-15.29135122895241
 20
11.0679138302803
 40
2.400000035762787
 41
1.928571787795845
  1
 0
  0
ENDBLK
  8
0
  0
BLOCK
  8
0
  2
KOZU0043
 70
    64
 10
0
 20
0
  0
LINE
  8
0
  6
CONTINUOUS
 62
     7
 10
0
 20
0
 11
22.77004432678223
 21
-31.84176635742188
  0
LINE
  8
0
  6
CONTINUOUS
 62
     7
 10
22.77004432678223
 20
-31.84176635742188
 11
41.20153617858887
 21
-31.84176635742188
  0
LINE
  8
0
  6
CONTINUOUS
 62
     7
 10
0
 20
0
 11
2.558450019793175
 21
-1.858583653175298
  0
LINE
  8
0
  6
CONTINUOUS
 62
     7
 10
0
 20
0
 11
0.9316098239293617
 21
-3.021936934416144
  0
ENDBLK
  8
0
  0
BLOCK
  8
0
  2
KOZU0044
 70
    64
 10
0
 20
0
  0
LINE
  8
0
  6
CONTINUOUS
 62
     7
 10
0
 20
0
 11
-51.35092163085938
 21
0
  0
LINE
  8
0
  6
CONTINUOUS
 62
     7
 10
0
 20
0
 11
-2.999999954944514
 21
-0.9999999849815249
  0
LINE
  8
0
  6
CONTINUOUS
 62
     7
 10
0
 20
0
 11
-2.999999954944526
 21
0.9999999849814883
  0
ENDBLK
  8
0
  0
BLOCK
  8
0
  2
KOZU0045
 70
    64
 10
0
 20
0
  0
LINE
  8
0
  6
CONTINUOUS
 62
     7
 10
0
 20
0
 11
-23.00000381469727
 21
0
  0
LINE
  8
0
  6
CONTINUOUS
 62
     7
 10
0
 20
0
 11
-2.999999954944514
 21
-0.9999999849815249
  0
LINE
  8
0
  6
CONTINUOUS
 62
     7
 10
0
 20
0
 11
-2.999999954944526
 21
0.9999999849814883
  0
ENDBLK
  8
0
  0
BLOCK
  8
0
  2
KOZU0046
 70
    64
 10
0
 20
0
  0
LINE
  8
0
  6
CONTINUOUS
 62
     7
 10
0
 20
0
 11
41.40855216979981
 21
39.24588012695313
  0
LINE
  8
0
  6
CONTINUOUS
 62
     7
 10
0
 20
0
 11
1.489519747374647
 21
2.789503651514209
  0
LINE
  8
0
  6
CONTINUOUS
 62
     7
 10
0
 20
0
 11
2.865317988808243
 21
1.337891072786579
  0
ENDBLK
  8
0
  0
BLOCK
  8
0
  2
KOZU0047
 70
    64
 10
0
 20
0
  0
LINE
  8
0
  6
CONTINUOUS
 62
     7
 10
0
 20
0
 11
26.89167213439941
 21
24.2445068359375
  0
LINE
  8
0
  6
CONTINUOUS
 62
     7
 10
0
 20
0
 11
1.558545741607895
 21
2.751533185506952
  0
LINE
  8
0
  6
CONTINUOUS
 62
     7
 10
0
 20
0
 11
2.897756504590487
 21
1.266099103440825
  0
ENDBLK
  8
0
  0
BLOCK
  8
0
  2
KOZU0048
 70
    64
 10
0
 20
0
  0
LINE
  8
0
  6
CONTINUOUS
 62
     7
 10
0
 20
0
 11
22.77009582519531
 21
-31.84176635742188
  0
LINE
  8
0
  6
CONTINUOUS
 62
     7
 10
22.77009582519531
 20
-31.84176635742188
 11
51.29683685302734
 21
-31.84176635742188
  0
LINE
  8
0
  6
CONTINUOUS
 62
     7
 10
0
 20
0
 11
2.558452008670363
 21
-1.858580915365464
  0
LINE
  8
0
  6
CONTINUOUS
 62
     7
 10
0
 20
0
 11
0.931613057717012
 21
-3.021935937494588
  0
ENDBLK
  8
0
  0
BLOCK
  8
0
  2
KOZU0049
 70
    64
 10
0
 20
0
  0
LINE
  8
0
  6
CONTINUOUS
 62
     7
 10
0
 20
0
 11
23.21244812011719
 21
-42.75979614257813
  0
LINE
  8
0
  6
CONTINUOUS
 62
     7
 10
23.21244812011719
 20
-42.75979614257813
 11
50.65132141113281
 21
-42.75979614257813
  0
LINE
  8
0
  6
CONTINUOUS
 62
     7
 10
0
 20
0
 11
1.986258379349593
 21
-2.480928323648855
  0
LINE
  8
0
  6
CONTINUOUS
 62
     7
 10
0
 20
0
 11
0.998427014527084
 21
-3.017179343904191
  0
TEXT
  8
0
  6
CONTINUOUS
 62
     7
 10
28.02131772041321
 20
-41.9597961306572
 40
3.200000047683716
 41
0.9532562631250975
  1
原点検出位置
  0
ENDBLK
  8
0
  0
BLOCK
  8
0
  2
KOZU0050
 70
    64
 10
0
 20
0
  0
LINE
  8
0
  6
CONTINUOUS
 62
     7
 10
0
 20
0
 11
-10.29190063476563
 21
27.82040405273438
  0
LINE
  8
0
  6
CONTINUOUS
 62
     7
 10
-10.29190063476563
 20
27.82040405273438
 11
-43.22598266601563
 21
27.82040405273438
  0
LINE
  8
0
  6
CONTINUOUS
 62
     7
 10
0
 20
0
 11
-1.612379340968115
 21
2.738696872134414
  0
LINE
  8
0
  6
CONTINUOUS
 62
     7
 10
0
 20
0
 11
-0.5582023134433469
 21
3.128679893163583
  0
TEXT
  8
0
  6
CONTINUOUS
 62
     7
 10
-41.16597843170166
 20
28.6204040646553
 40
3.200000047683716
 41
0.9532562631250975
  1
Ｎ－スペーサ
  0
ENDBLK
  8
0
  0
BLOCK
  8
0
  2
KOZU0051
 70
    64
 10
0
 20
0
  0
LINE
  8
0
  6
CONTINUOUS
 62
     7
 10
0
 20
0
 11
-15.37710571289063
 21
38.8953857421875
  0
LINE
  8
0
  6
CONTINUOUS
 62
     7
 10
-15.37710571289063
 20
38.8953857421875
 11
-65.09010314941406
 21
38.8953857421875
  0
LINE
  8
0
  6
CONTINUOUS
 62
     7
 10
0
 20
0
 11
-1.672666504930539
 21
2.702297996132745
  0
LINE
  8
0
  6
CONTINUOUS
 62
     7
 10
0
 20
0
 11
-0.6273893864906597
 21
3.115543332123382
  0
TEXT
  8
0
  6
CONTINUOUS
 62
     7
 10
-63.030104637146
 20
39.69538575410843
 40
3.200000047683716
 41
0.9499963385751142
  1
Ｍ－スケールクランプ
  0
ENDBLK
  8
0
  0
BLOCK
  8
0
  2
KOZU0052
 70
    64
 10
0
 20
0
  0
LINE
  8
0
  6
CONTINUOUS
 62
     7
 10
0
 20
0
 11
13.77253723144531
 21
16.6922607421875
  0
LINE
  8
0
  6
CONTINUOUS
 62
     7
 10
13.77253723144531
 20
16.6922607421875
 11
33.59959411621094
 21
16.6922607421875
  0
LINE
  8
0
  6
CONTINUOUS
 62
     7
 10
0
 20
0
 11
1.557234514549347
 21
2.770423859866185
  0
LINE
  8
0
  6
CONTINUOUS
 62
     7
 10
0
 20
0
 11
2.424221806421253
 21
2.055085479947554
  0
TEXT
  8
0
  6
CONTINUOUS
 62
     7
 10
18.16960263252258
 20
17.49226075410843
 40
3.200000047683716
 41
0.9575534363955299
  1
スペーサ
  0
ENDBLK
  8
0
  0
BLOCK
  8
0
  2
KOZU0053
 70
    64
 10
0
 20
0
  0
LINE
  8
0
  6
CONTINUOUS
 62
     7
 10
0
 20
0
 11
188.0000214576721
 21
0
  0
LINE
  8
0
  6
CONTINUOUS
 62
     7
 10
0
 20
0
 11
3.127999953022153
 21
0.5619999915596069
  0
LINE
  8
0
  6
CONTINUOUS
 62
     7
 10
0
 20
0
 11
3.127999953022153
 21
-0.5619999915596069
  0
ENDBLK
  8
0
  0
BLOCK
  8
0
  2
KOZU0054
 70
    64
 10
0
 20
0
  0
LINE
  8
0
  6
CONTINUOUS
 62
     7
 10
0
 20
0
 11
-187.9999785423279
 21
0
  0
LINE
  8
0
  6
CONTINUOUS
 62
     7
 10
0
 20
0
 11
-3.12799995302215
 21
-0.5619999915596265
  0
LINE
  8
0
  6
CONTINUOUS
 62
     7
 10
0
 20
0
 11
-3.127999953022157
 21
0.5619999915595884
  0
ENDBLK
  8
0
  0
BLOCK
  8
0
  2
KOZU0055
 70
    64
 10
0
 20
0
  0
LINE
  8
0
  6
CONTINUOUS
 62
     7
 10
0
 20
0
 11
37.49999237060547
 21
0
  0
LINE
  8
0
  6
CONTINUOUS
 62
     7
 10
0
 20
0
 11
3.127999953022153
 21
0.5619999915596069
  0
LINE
  8
0
  6
CONTINUOUS
 62
     7
 10
0
 20
0
 11
3.127999953022153
 21
-0.5619999915596069
  0
ENDBLK
  8
0
  0
BLOCK
  8
0
  2
KOZU0056
 70
    64
 10
0
 20
0
  0
LINE
  8
0
  6
CONTINUOUS
 62
     7
 10
0
 20
0
 11
-37.49999094009399
 21
0
  0
LINE
  8
0
  6
CONTINUOUS
 62
     7
 10
0
 20
0
 11
-3.12799995302215
 21
-0.5619999915596265
  0
LINE
  8
0
  6
CONTINUOUS
 62
     7
 10
0
 20
0
 11
-3.127999953022157
 21
0.5619999915595884
  0
ENDBLK
  8
0
  0
BLOCK
  8
0
  2
KOZU0057
 70
    64
 10
0
 20
0
  0
LINE
  8
0
  6
CONTINUOUS
 62
     7
 10
0
 20
0
 11
37.50000524520874
 21
0
  0
LINE
  8
0
  6
CONTINUOUS
 62
     7
 10
0
 20
0
 11
3.127999953022153
 21
0.5619999915596069
  0
LINE
  8
0
  6
CONTINUOUS
 62
     7
 10
0
 20
0
 11
3.127999953022153
 21
-0.5619999915596069
  0
ENDBLK
  8
0
  0
BLOCK
  8
0
  2
KOZU0058
 70
    64
 10
0
 20
0
  0
LINE
  8
0
  6
CONTINUOUS
 62
     7
 10
0
 20
0
 11
-37.50000381469727
 21
0
  0
LINE
  8
0
  6
CONTINUOUS
 62
     7
 10
0
 20
0
 11
-3.12799995302215
 21
-0.5619999915596265
  0
LINE
  8
0
  6
CONTINUOUS
 62
     7
 10
0
 20
0
 11
-3.127999953022157
 21
0.5619999915595884
  0
ENDBLK
  8
0
  0
BLOCK
  8
0
  2
KOZU0059
 70
    64
 10
0
 20
0
  0
LINE
  8
0
  6
CONTINUOUS
 62
     7
 10
0
 20
0
 11
45.00000762939453
 21
0
  0
LINE
  8
0
  6
CONTINUOUS
 62
     7
 10
0
 20
0
 11
3.127999953022153
 21
0.5619999915596069
  0
LINE
  8
0
  6
CONTINUOUS
 62
     7
 10
0
 20
0
 11
3.127999953022153
 21
-0.5619999915596069
  0
ENDBLK
  8
0
  0
BLOCK
  8
0
  2
KOZU0060
 70
    64
 10
0
 20
0
  0
LINE
  8
0
  6
CONTINUOUS
 62
     7
 10
0
 20
0
 11
-45.00001525878906
 21
0
  0
LINE
  8
0
  6
CONTINUOUS
 62
     7
 10
0
 20
0
 11
-3.12799995302215
 21
-0.5619999915596265
  0
LINE
  8
0
  6
CONTINUOUS
 62
     7
 10
0
 20
0
 11
-3.127999953022157
 21
0.5619999915595884
  0
ENDBLK
  8
0
  0
BLOCK
  8
0
  2
KOZU0061
 70
    64
 10
0
 20
0
  0
LINE
  8
0
  6
CONTINUOUS
 62
     7
 10
0
 20
0
 11
22.5
 21
0
  0
LINE
  8
0
  6
CONTINUOUS
 62
     7
 10
0
 20
0
 11
3.127999953022153
 21
0.5619999915596069
  0
LINE
  8
0
  6
CONTINUOUS
 62
     7
 10
0
 20
0
 11
3.127999953022153
 21
-0.5619999915596069
  0
ENDBLK
  8
0
  0
BLOCK
  8
0
  2
KOZU0062
 70
    64
 10
0
 20
0
  0
LINE
  8
0
  6
CONTINUOUS
 62
     7
 10
0
 20
0
 11
-22.50000762939453
 21
0
  0
LINE
  8
0
  6
CONTINUOUS
 62
     7
 10
0
 20
0
 11
-3.12799995302215
 21
-0.5619999915596265
  0
LINE
  8
0
  6
CONTINUOUS
 62
     7
 10
0
 20
0
 11
-3.127999953022157
 21
0.5619999915595884
  0
ENDBLK
  8
0
  0
BLOCK
  8
0
  2
KOZU0063
 70
    64
 10
0
 20
0
  0
LINE
  8
0
  6
CONTINUOUS
 62
     7
 10
0
 20
0
 11
22.50000762939453
 21
0
  0
LINE
  8
0
  6
CONTINUOUS
 62
     7
 10
0
 20
0
 11
3.127999953022153
 21
0.5619999915596069
  0
LINE
  8
0
  6
CONTINUOUS
 62
     7
 10
0
 20
0
 11
3.127999953022153
 21
-0.5619999915596069
  0
ENDBLK
  8
0
  0
BLOCK
  8
0
  2
KOZU0064
 70
    64
 10
0
 20
0
  0
LINE
  8
0
  6
CONTINUOUS
 62
     7
 10
0
 20
0
 11
-22.50000762939453
 21
0
  0
LINE
  8
0
  6
CONTINUOUS
 62
     7
 10
0
 20
0
 11
-3.12799995302215
 21
-0.5619999915596265
  0
LINE
  8
0
  6
CONTINUOUS
 62
     7
 10
0
 20
0
 11
-3.127999953022157
 21
0.5619999915595884
  0
ENDBLK
  8
0
  0
BLOCK
  8
0
  2
KOZU0065
 70
    64
 10
0
 20
0
  0
LINE
  8
0
  6
CONTINUOUS
 62
     7
 10
0
 20
0
 11
45
 21
0
  0
LINE
  8
0
  6
CONTINUOUS
 62
     7
 10
0
 20
0
 11
3.127999953022153
 21
0.5619999915596069
  0
LINE
  8
0
  6
CONTINUOUS
 62
     7
 10
0
 20
0
 11
3.127999953022153
 21
-0.5619999915596069
  0
ENDBLK
  8
0
  0
BLOCK
  8
0
  2
KOZU0066
 70
    64
 10
0
 20
0
  0
LINE
  8
0
  6
CONTINUOUS
 62
     7
 10
0
 20
0
 11
-45
 21
0
  0
LINE
  8
0
  6
CONTINUOUS
 62
     7
 10
0
 20
0
 11
-3.12799995302215
 21
-0.5619999915596265
  0
LINE
  8
0
  6
CONTINUOUS
 62
     7
 10
0
 20
0
 11
-3.127999953022157
 21
0.5619999915595884
  0
ENDBLK
  8
0
  0
BLOCK
  8
0
  2
KOZU0067
 70
    64
 10
0
 20
0
  0
LINE
  8
0
  6
CONTINUOUS
 62
     7
 10
0
 20
0
 11
22.5
 21
0
  0
LINE
  8
0
  6
CONTINUOUS
 62
     7
 10
0
 20
0
 11
3.127999953022153
 21
0.5619999915596069
  0
LINE
  8
0
  6
CONTINUOUS
 62
     7
 10
0
 20
0
 11
3.127999953022153
 21
-0.5619999915596069
  0
ENDBLK
  8
0
  0
BLOCK
  8
0
  2
KOZU0068
 70
    64
 10
0
 20
0
  0
LINE
  8
0
  6
CONTINUOUS
 62
     7
 10
0
 20
0
 11
-22.5
 21
0
  0
LINE
  8
0
  6
CONTINUOUS
 62
     7
 10
0
 20
0
 11
-3.12799995302215
 21
-0.5619999915596265
  0
LINE
  8
0
  6
CONTINUOUS
 62
     7
 10
0
 20
0
 11
-3.127999953022157
 21
0.5619999915595884
  0
ENDBLK
  8
0
  0
BLOCK
  8
0
  2
KOZU0069
 70
    64
 10
0
 20
0
  0
LINE
  8
0
  6
CONTINUOUS
 62
     7
 10
0
 20
0
 11
22.5
 21
0
  0
LINE
  8
0
  6
CONTINUOUS
 62
     7
 10
0
 20
0
 11
3.127999953022153
 21
0.5619999915596069
  0
LINE
  8
0
  6
CONTINUOUS
 62
     7
 10
0
 20
0
 11
3.127999953022153
 21
-0.5619999915596069
  0
ENDBLK
  8
0
  0
BLOCK
  8
0
  2
KOZU0070
 70
    64
 10
0
 20
0
  0
LINE
  8
0
  6
CONTINUOUS
 62
     7
 10
0
 20
0
 11
-22.5
 21
0
  0
LINE
  8
0
  6
CONTINUOUS
 62
     7
 10
0
 20
0
 11
-3.12799995302215
 21
-0.5619999915596265
  0
LINE
  8
0
  6
CONTINUOUS
 62
     7
 10
0
 20
0
 11
-3.127999953022157
 21
0.5619999915595884
  0
ENDBLK
  8
0
  0
BLOCK
  8
0
  2
KOZU0071
 70
    64
 10
0
 20
0
  0
LINE
  8
0
  6
CONTINUOUS
 62
     7
 10
0
 20
0
 11
75.00000143051148
 21
0
  0
LINE
  8
0
  6
CONTINUOUS
 62
     7
 10
0
 20
0
 11
3.127999953022153
 21
0.5619999915596069
  0
LINE
  8
0
  6
CONTINUOUS
 62
     7
 10
0
 20
0
 11
3.127999953022153
 21
-0.5619999915596069
  0
ENDBLK
  8
0
  0
BLOCK
  8
0
  2
KOZU0072
 70
    64
 10
0
 20
0
  0
LINE
  8
0
  6
CONTINUOUS
 62
     7
 10
0
 20
0
 11
-74.99999237060547
 21
0
  0
LINE
  8
0
  6
CONTINUOUS
 62
     7
 10
0
 20
0
 11
-3.12799995302215
 21
-0.5619999915596265
  0
LINE
  8
0
  6
CONTINUOUS
 62
     7
 10
0
 20
0
 11
-3.127999953022157
 21
0.5619999915595884
  0
ENDBLK
  8
0
  0
BLOCK
  8
0
  2
KOZU0073
 70
    64
 10
0
 20
0
  0
LINE
  8
0
  6
CONTINUOUS
 62
     7
 10
0
 20
0
 11
75.00000762939453
 21
0
  0
LINE
  8
0
  6
CONTINUOUS
 62
     7
 10
0
 20
0
 11
3.127999953022153
 21
0.5619999915596069
  0
LINE
  8
0
  6
CONTINUOUS
 62
     7
 10
0
 20
0
 11
3.127999953022153
 21
-0.5619999915596069
  0
ENDBLK
  8
0
  0
BLOCK
  8
0
  2
KOZU0074
 70
    64
 10
0
 20
0
  0
LINE
  8
0
  6
CONTINUOUS
 62
     7
 10
0
 20
0
 11
-74.99999856948853
 21
0
  0
LINE
  8
0
  6
CONTINUOUS
 62
     7
 10
0
 20
0
 11
-3.12799995302215
 21
-0.5619999915596265
  0
LINE
  8
0
  6
CONTINUOUS
 62
     7
 10
0
 20
0
 11
-3.127999953022157
 21
0.5619999915595884
  0
ENDBLK
  8
0
  0
BLOCK
  8
0
  2
KOZU0075
 70
    64
 10
0
 20
0
  0
LINE
  8
0
  6
CONTINUOUS
 62
     7
 10
0
 20
0
 11
-8.039840698242188
 21
17.63580322265625
  0
LINE
  8
0
  6
CONTINUOUS
 62
     7
 10
-8.039840698242188
 20
17.63580322265625
 11
-30.88388061523438
 21
17.63580322265625
  0
LINE
  8
0
  6
CONTINUOUS
 62
     7
 10
0
 20
0
 11
-2.154339006262398
 21
2.314913204793321
  0
LINE
  8
0
  6
CONTINUOUS
 62
     7
 10
0
 20
0
 11
-0.334523282133926
 21
3.144533967592095
  0
TEXT
  8
0
  6
CONTINUOUS
 62
     7
 10
-29.05531644821167
 20
18.43580323457718
 40
3.200000047683716
 41
0.8473978299945093
  1
２－%%C５，穴
  0
ENDBLK
  8
0
  0
BLOCK
  8
0
  2
KOZU0076
 70
    64
 10
0
 20
0
  0
LINE
  8
0
  6
CONTINUOUS
 62
     7
 10
0
 20
0
 11
-9.451797485351563
 21
12.35824584960938
  0
LINE
  8
0
  6
CONTINUOUS
 62
     7
 10
-9.451797485351563
 20
12.35824584960938
 11
-25.74192428588867
 21
12.35824584960938
  0
LINE
  8
0
  6
CONTINUOUS
 62
     7
 10
0
 20
0
 11
-2.616832690264004
 21
1.775439768281591
  0
LINE
  8
0
  6
CONTINUOUS
 62
     7
 10
0
 20
0
 11
-1.028202291242249
 21
2.990451428783675
  0
TEXT
  8
0
  6
CONTINUOUS
 62
     7
 10
-25.51335754990578
 20
13.1582458615303
 40
3.200000047683716
 41
0.9233138421524093
  1
%%C4
  0
TEXT
  8
0
  6
CONTINUOUS
 62
     7
 10
-19.11335745453835
 20
16.75824600458145
 40
2.400000035762787
 41
1.285714372798993
  1
+0.05
  0
TEXT
  8
0
  6
CONTINUOUS
 62
     7
 10
-19.11335745453835
 20
13.1582458615303
 40
2.400000035762787
 41
1.928571787795845
  1
 0
  0
ENDBLK
  8
0
  0
BLOCK
  8
0
  2
KOZU0077
 70
    64
 10
0
 20
0
  0
LINE
  8
0
  6
CONTINUOUS
 62
     7
 10
0
 20
0
 11
5.678176879882813
 21
9.834945678710938
  0
LINE
  8
0
  6
CONTINUOUS
 62
     7
 10
5.678176879882813
 20
9.834945678710938
 11
24.82651519775391
 21
9.834945678710938
  0
LINE
  8
0
  6
CONTINUOUS
 62
     7
 10
0
 20
0
 11
0.633967107979369
 21
3.098077695221734
  0
LINE
  8
0
  6
CONTINUOUS
 62
     7
 10
0
 20
0
 11
2.366020303516535
 21
2.098081891389767
  0
TEXT
  8
0
  6
CONTINUOUS
 62
     7
 10
11.112229347229
 20
10.63494569063187
 40
3.200000047683716
 41
0.9630819447527157
  1
3-%%C5
  0
ENDBLK
  8
0
  0
BLOCK
  8
0
  2
KOZU0078
 70
    64
 10
0
 20
0
  0
LINE
  8
0
  6
CONTINUOUS
 62
     7
 10
0
 20
0
 11
-5.92822265625
 21
10.26805877685547
  0
LINE
  8
0
  6
CONTINUOUS
 62
     7
 10
-5.92822265625
 20
10.26805877685547
 11
-21.91983032226563
 21
10.26805877685547
  0
LINE
  8
0
  6
CONTINUOUS
 62
     7
 10
0
 20
0
 11
-2.366018649441526
 21
2.098083756699202
  0
LINE
  8
0
  6
CONTINUOUS
 62
     7
 10
0
 20
0
 11
-0.6339646655337
 21
3.098078195024277
  0
TEXT
  8
0
  6
CONTINUOUS
 62
     7
 10
-21.69125977158546
 20
11.0680587887764
 40
3.200000047683716
 41
0.9233138421524093
  1
%%C4
  0
TEXT
  8
0
  6
CONTINUOUS
 62
     7
 10
-15.29125967621803
 20
14.66805893182755
 40
2.400000035762787
 41
1.285714372798993
  1
+0.05
  0
TEXT
  8
0
  6
CONTINUOUS
 62
     7
 10
-15.29125967621803
 20
11.0680587887764
 40
2.400000035762787
 41
1.928571787795845
  1
 0
  0
ENDBLK
  8
0
  0
BLOCK
  8
0
  2
KOZU0079
 70
    64
 10
0
 20
0
  0
LINE
  8
0
  6
CONTINUOUS
 62
     7
 10
0
 20
0
 11
-2.876953125
 21
5.975189208984375
  0
LINE
  8
0
  6
CONTINUOUS
 62
     7
 10
-2.876953125
 20
5.975189208984375
 11
-27.75411987304688
 21
5.975189208984375
  0
LINE
  8
0
  6
CONTINUOUS
 62
     7
 10
0
 20
0
 11
-1.863341724102665
 21
2.574526231336107
  0
LINE
  8
0
  6
CONTINUOUS
 62
     7
 10
0
 20
0
 11
-0.8506165364103562
 21
3.062136379164854
  0
TEXT
  8
0
  6
CONTINUOUS
 62
     7
 10
-25.69411563873291
 20
6.775189220905304
 40
3.200000047683716
 41
1.790624926059641
  1
11.5
  0
TEXT
  8
0
  6
CONTINUOUS
 62
     7
 10
-11.29411602020264
 20
8.125189244747162
 40
1.600000023841858
 41
1.38195970037679
  1
%%P0.2
  0
ENDBLK
  8
0
  0
BLOCK
  8
0
  2
KOZU0080
 70
    64
 10
0
 20
0
  0
LINE
  8
0
  6
CONTINUOUS
 62
     7
 10
0
 20
0
 11
75.00000143051148
 21
0
  0
LINE
  8
0
  6
CONTINUOUS
 62
     7
 10
0
 20
0
 11
3.127999953022153
 21
0.5619999915596069
  0
LINE
  8
0
  6
CONTINUOUS
 62
     7
 10
0
 20
0
 11
3.127999953022153
 21
-0.5619999915596069
  0
ENDBLK
  8
0
  0
BLOCK
  8
0
  2
KOZU0081
 70
    64
 10
0
 20
0
  0
LINE
  8
0
  6
CONTINUOUS
 62
     7
 10
0
 20
0
 11
-74.99999237060547
 21
0
  0
LINE
  8
0
  6
CONTINUOUS
 62
     7
 10
0
 20
0
 11
-3.12799995302215
 21
-0.5619999915596265
  0
LINE
  8
0
  6
CONTINUOUS
 62
     7
 10
0
 20
0
 11
-3.127999953022157
 21
0.5619999915595884
  0
ENDBLK
  8
0
  0
BLOCK
  8
0
  2
KOZU0082
 70
    64
 10
0
 20
0
  0
LINE
  8
0
  6
CONTINUOUS
 62
     7
 10
0
 20
0
 11
75.00000762939453
 21
0
  0
LINE
  8
0
  6
CONTINUOUS
 62
     7
 10
0
 20
0
 11
3.127999953022153
 21
0.5619999915596069
  0
LINE
  8
0
  6
CONTINUOUS
 62
     7
 10
0
 20
0
 11
3.127999953022153
 21
-0.5619999915596069
  0
ENDBLK
  8
0
  0
BLOCK
  8
0
  2
KOZU0083
 70
    64
 10
0
 20
0
  0
LINE
  8
0
  6
CONTINUOUS
 62
     7
 10
0
 20
0
 11
-74.99999856948853
 21
0
  0
LINE
  8
0
  6
CONTINUOUS
 62
     7
 10
0
 20
0
 11
-3.12799995302215
 21
-0.5619999915596265
  0
LINE
  8
0
  6
CONTINUOUS
 62
     7
 10
0
 20
0
 11
-3.127999953022157
 21
0.5619999915595884
  0
ENDBLK
  8
0
  0
BLOCK
  8
0
  2
KOZU0084
 70
    64
 10
0
 20
0
  0
LINE
  8
0
  6
CONTINUOUS
 62
     7
 10
0
 20
0
 11
-28.0592041015625
 21
43.86508178710938
  0
LINE
  8
0
  6
CONTINUOUS
 62
     7
 10
-28.0592041015625
 20
43.86508178710938
 11
13.13986206054688
 21
43.86508178710938
  0
LINE
  8
0
  6
CONTINUOUS
 62
     7
 10
0
 20
0
 11
-2.158971477287699
 21
2.332181351627219
  0
LINE
  8
0
  6
CONTINUOUS
 62
     7
 10
0
 20
0
 11
-1.212116862950952
 21
2.937856430659867
  0
TEXT
  8
0
  6
CONTINUOUS
 62
     7
 10
-23.8901355266571
 20
44.6650817990303
 40
3.200000047683716
 41
0.9499963385751142
  1
スケール信号検出位置
  0
ENDBLK
  8
0
  0
BLOCK
  8
0
  2
KOZU0085
 70
    64
 10
0
 20
0
  0
LINE
  8
0
  6
CONTINUOUS
 62
     7
 10
0
 20
0
 11
-28.0592041015625
 21
43.86508178710938
  0
LINE
  8
0
  6
CONTINUOUS
 62
     7
 10
-28.0592041015625
 20
43.86508178710938
 11
13.13986206054688
 21
43.86508178710938
  0
LINE
  8
0
  6
CONTINUOUS
 62
     7
 10
0
 20
0
 11
-2.158971477287699
 21
2.332181351627219
  0
LINE
  8
0
  6
CONTINUOUS
 62
     7
 10
0
 20
0
 11
-1.212116862950952
 21
2.937856430659867
  0
TEXT
  8
0
  6
CONTINUOUS
 62
     7
 10
-23.8901355266571
 20
44.6650817990303
 40
3.200000047683716
 41
0.9499963385751142
  1
スケール信号検出位置
  0
ENDBLK
  8
0
  0
BLOCK
  8
0
  2
KOZU0086
 70
    64
 10
0
 20
0
  0
LINE
  8
0
  6
CONTINUOUS
 62
     7
 10
0
 20
0
 11
13.77252197265625
 21
16.6922607421875
  0
LINE
  8
0
  6
CONTINUOUS
 62
     7
 10
13.77252197265625
 20
16.6922607421875
 11
33.59957885742188
 21
16.6922607421875
  0
LINE
  8
0
  6
CONTINUOUS
 62
     7
 10
0
 20
0
 11
1.557233007788788
 21
2.770424706804477
  0
LINE
  8
0
  6
CONTINUOUS
 62
     7
 10
0
 20
0
 11
2.424220688714208
 21
2.055086798417431
  0
TEXT
  8
0
  6
CONTINUOUS
 62
     7
 10
18.16958737373352
 20
17.49226075410843
 40
3.200000047683716
 41
0.9575534363955299
  1
スペーサ
  0
ENDBLK
  8
0
  0
BLOCK
  8
0
  2
KOZU0087
 70
    64
 10
0
 20
0
  0
LINE
  8
0
  6
CONTINUOUS
 62
     7
 10
0
 20
0
 11
-2.876922607421875
 21
5.975173950195313
  0
LINE
  8
0
  6
CONTINUOUS
 62
     7
 10
-2.876922607421875
 20
5.975173950195313
 11
-27.75408935546875
 21
5.975173950195313
  0
LINE
  8
0
  6
CONTINUOUS
 62
     7
 10
0
 20
0
 11
-1.86333361937904
 21
2.574532097199684
  0
LINE
  8
0
  6
CONTINUOUS
 62
     7
 10
0
 20
0
 11
-0.8506068966749625
 21
3.062139056925498
  0
TEXT
  8
0
  6
CONTINUOUS
 62
     7
 10
-25.69408512115479
 20
6.775173962116242
 40
3.200000047683716
 41
1.790624926059641
  1
11.5
  0
TEXT
  8
0
  6
CONTINUOUS
 62
     7
 10
-11.29408550262451
 20
8.125173985958099
 40
1.600000023841858
 41
1.38195970037679
  1
%%P0.2
  0
ENDBLK
  8
0
  0
BLOCK
  8
0
  2
KOZU0088
 70
    64
 10
0
 20
0
  0
LINE
  8
0
  6
CONTINUOUS
 62
     7
 10
0
 20
0
 11
5.935821533203125
 21
0
  0
LINE
  8
0
  6
CONTINUOUS
 62
     7
 10
0
 20
0
 11
3.127999953022153
 21
0.5619999915596069
  0
LINE
  8
0
  6
CONTINUOUS
 62
     7
 10
0
 20
0
 11
3.127999953022153
 21
-0.5619999915596069
  0
ENDBLK
  8
0
  0
BLOCK
  8
0
  2
KOZU0089
 70
    64
 10
0
 20
0
  0
LINE
  8
0
  6
CONTINUOUS
 62
     7
 10
0
 20
0
 11
-5.564178466796875
 21
0
  0
LINE
  8
0
  6
CONTINUOUS
 62
     7
 10
0
 20
0
 11
-3.12799995302215
 21
-0.5619999915596265
  0
LINE
  8
0
  6
CONTINUOUS
 62
     7
 10
0
 20
0
 11
-3.127999953022157
 21
0.5619999915595884
  0
ENDBLK
  8
0
  0
BLOCK
  8
0
  2
KOZU0090
 70
    64
 10
0
 20
0
  0
LINE
  8
0
  6
CONTINUOUS
 62
     7
 10
0
 20
0
 11
5.75
 21
-1.52587890625e-005
  0
LINE
  8
0
  6
CONTINUOUS
 62
     7
 10
0
 20
0
 11
3.128001444391884
 21
0.561991690776541
  0
LINE
  8
0
  6
CONTINUOUS
 62
     7
 10
0
 20
0
 11
3.127998461630395
 21
-0.5620082923387134
  0
ENDBLK
  8
0
  0
BLOCK
  8
0
  2
KOZU0091
 70
    64
 10
0
 20
0
  0
LINE
  8
0
  6
CONTINUOUS
 62
     7
 10
0
 20
0
 11
-5.75
 21
0
  0
LINE
  8
0
  6
CONTINUOUS
 62
     7
 10
0
 20
0
 11
-3.12799995302215
 21
-0.5619999915596265
  0
LINE
  8
0
  6
CONTINUOUS
 62
     7
 10
0
 20
0
 11
-3.127999953022157
 21
0.5619999915595884
  0
ENDBLK
  8
0
  0
ENDSEC
  0
SECTION
  2
ENTITIES
  0
LINE
  8
0
  6
CENTER
 62
     7
 10
-23.31024742126465
 20
-248.4637756347656
 11
-23.31024742126465
 21
-262.4637756347656
  0
LINE
  8
0
  6
CENTER
 62
     7
 10
31.68975067138672
 20
-248.4637756347656
 11
31.68975067138672
 21
-262.4637756347656
  0
LINE
  8
0
  6
CENTER
 62
     7
 10
-29.37088584899902
 20
-255.4637603759766
 11
-16.31023979187012
 21
-255.4637603759766
  0
LINE
  8
0
  6
CENTER
 62
     7
 10
24.68978118896484
 20
-255.4637603759766
 11
38.68978500366211
 21
-255.4637603759766
  0
LINE
  8
0
  6
CENTER
 62
     7
 10
-135.0908813476563
 20
-280.4637756347656
 11
-135.0908813476563
 21
-362.5932922363281
  0
LINE
  8
0
  6
CONTINUOUS
 62
     7
 10
-6.907405376434326
 20
-364.5932922363281
 11
-14.90738487243652
 21
-364.5932922363281
  0
LINE
  8
0
  6
CONTINUOUS
 62
     7
 10
-6.907405376434326
 20
-391.0933532714844
 11
-14.90738487243652
 21
-391.0933532714844
  0
LINE
  8
0
  6
CONTINUOUS
 62
     7
 10
-16.40740013122559
 20
-392.8432922363281
 11
-25.90739440917969
 21
-392.8432922363281
  0
LINE
  8
0
  6
CONTINUOUS
 62
     7
 10
-16.40740013122559
 20
-362.8433227539063
 11
-25.90739440917969
 21
-362.8433227539063
  0
LINE
  8
0
  6
CONTINUOUS
 62
     7
 10
-15.40741539001465
 20
-391.8433227539063
 11
-15.40741539001465
 21
-391.5932922363281
  0
LINE
  8
0
  6
CONTINUOUS
 62
     7
 10
-15.40741539001465
 20
-364.0933227539063
 11
-15.40741539001465
 21
-363.8432922363281
  0
LINE
  8
0
  6
CENTER
 62
     7
 10
-8.407421112060547
 20
-389.0046691894531
 11
-8.407421112060547
 21
-383.9010925292969
  0
LINE
  8
0
  6
CENTER
 62
     7
 10
-5.578505039215088
 20
-386.5932922363281
 11
-10.99453544616699
 21
-386.5932922363281
  0
LINE
  8
0
  6
CENTER
 62
     7
 10
-4.88125467300415
 20
-386.5932922363281
 11
-11.52532577514648
 21
-386.5932922363281
  0
LINE
  8
0
  6
CENTER
 62
     7
 10
-8.407421112060547
 20
-389.8874816894531
 11
-8.407421112060547
 21
-383.4447021484375
  0
LINE
  8
0
  6
CONTINUOUS
 62
     7
 10
-26.40740013122559
 20
-392.3432922363281
 11
-26.40740013122559
 21
-362.8433227539063
  0
LINE
  8
0
  6
CENTER
 62
     7
 10
20.87671279907227
 20
-361.1833190917969
 11
-10.99453544616699
 21
-361.1833190917969
  0
LINE
  8
0
  6
CENTER
 62
     7
 10
21.60578918457031
 20
-394.5032958984375
 11
-12.03606224060059
 21
-394.5032958984375
  0
LINE
  8
0
  6
CONTINUOUS
 62
     7
 10
-6.407400608062744
 20
-397.5933227539063
 11
-6.407400608062744
 21
-391.5932922363281
  0
LINE
  8
0
  6
CONTINUOUS
 62
     7
 10
12.09258365631104
 20
-398.0933227539063
 11
-5.907395362854004
 21
-398.0933227539063
  0
LINE
  8
0
  6
CONTINUOUS
 62
     7
 10
12.09258365631104
 20
-357.5932922363281
 11
-5.907395362854004
 21
-357.5932922363281
  0
LINE
  8
0
  6
CONTINUOUS
 62
     7
 10
12.59256267547607
 20
-397.5933227539063
 11
12.59256267547607
 21
-391.5932922363281
  0
LINE
  8
0
  6
CONTINUOUS
 62
     7
 10
-6.407400608062744
 20
-364.0933227539063
 11
-6.407400608062744
 21
-358.0933227539063
  0
LINE
  8
0
  6
CONTINUOUS
 62
     7
 10
19.49258804321289
 20
-390.5932922363281
 11
19.49258804321289
 21
-365.0932922363281
  0
LINE
  8
0
  6
CONTINUOUS
 62
     7
 10
13.59257316589356
 20
-364.5933227539063
 11
13.59257316589356
 21
-358.2933044433594
  0
LINE
  8
0
  6
CONTINUOUS
 62
     7
 10
16.59257888793945
 20
-390.5932922363281
 11
16.59257888793945
 21
-365.0933227539063
  0
LINE
  8
0
  6
CONTINUOUS
 62
     7
 10
12.59256267547607
 20
-364.0933227539063
 11
12.59256267547607
 21
-358.0933227539063
  0
LINE
  8
0
  6
CONTINUOUS
 62
     7
 10
-8.107407569885254
 20
-388.3173828125
 11
-8.107407569885254
 21
-387.893310546875
  0
LINE
  8
0
  6
CONTINUOUS
 62
     7
 10
-8.707408905029297
 20
-388.3173828125
 11
-8.707408905029297
 21
-387.893310546875
  0
LINE
  8
0
  6
CONTINUOUS
 62
     7
 10
-6.6833176612854
 20
-386.893310546875
 11
-7.107397556304932
 21
-386.893310546875
  0
LINE
  8
0
  6
CONTINUOUS
 62
     7
 10
-6.6833176612854
 20
-386.2933044433594
 11
-7.107397556304932
 21
-386.2933044433594
  0
LINE
  8
0
  6
CONTINUOUS
 62
     7
 10
-9.707393646240234
 20
-386.893310546875
 11
-10.13149833679199
 21
-386.893310546875
  0
LINE
  8
0
  6
CONTINUOUS
 62
     7
 10
-8.107407569885254
 20
-385.2933044433594
 11
-8.107407569885254
 21
-384.8692016601563
  0
LINE
  8
0
  6
CONTINUOUS
 62
     7
 10
-9.707393646240234
 20
-386.2933044433594
 11
-10.13149833679199
 21
-386.2933044433594
  0
LINE
  8
0
  6
CONTINUOUS
 62
     7
 10
-8.707408905029297
 20
-385.2933044433594
 11
-8.707408905029297
 21
-384.8692016601563
  0
LINE
  8
0
  6
CONTINUOUS
 62
     7
 10
13.59257316589356
 20
-397.393310546875
 11
13.59257316589356
 21
-391.0932922363281
  0
LINE
  8
0
  6
CONTINUOUS
 62
     7
 10
13.5925989151001
 20
-397.393310546875
 11
12.5925760269165
 21
-397.393310546875
  0
LINE
  8
0
  6
CONTINUOUS
 62
     7
 10
13.5925989151001
 20
-358.2933044433594
 11
12.5925760269165
 21
-358.2933044433594
  0
LINE
  8
0
  6
CONTINUOUS
 62
     7
 10
18.49260330200195
 20
-391.5932922363281
 11
13.5925989151001
 21
-391.5932922363281
  0
LINE
  8
0
  6
CONTINUOUS
 62
     7
 10
18.49260330200195
 20
-364.0933227539063
 11
13.5925989151001
 21
-364.0933227539063
  0
LINE
  8
0
  6
CONTINUOUS
 62
     7
 10
16.09258651733398
 20
-391.0933532714844
 11
13.09258079528809
 21
-391.0933532714844
  0
LINE
  8
0
  6
CONTINUOUS
 62
     7
 10
16.09258651733398
 20
-364.5932922363281
 11
13.09258079528809
 21
-364.5932922363281
  0
LINE
  8
0
  6
CONTINUOUS
 62
     7
 10
-7.407385349273682
 20
-358.9332885742188
 11
-8.101125717163086
 21
-358.9332885742188
  0
LINE
  8
0
  6
CONTINUOUS
 62
     7
 10
-7.407385349273682
 20
-363.4332885742188
 11
-8.101125717163086
 21
-363.4332885742188
  0
LINE
  8
0
  6
CONTINUOUS
 62
     7
 10
-6.907405376434326
 20
-363.6833190917969
 11
-6.907405376434326
 21
-358.6833190917969
  0
LINE
  8
0
  6
CONTINUOUS
 62
     7
 10
-7.407410621643066
 20
-363.6833190917969
 11
-7.407410621643066
 21
-358.6833190917969
  0
LINE
  8
0
  6
CONTINUOUS
 62
     7
 10
-6.407400608062744
 20
-358.6833190917969
 11
-7.407385349273682
 21
-358.6833190917969
  0
LINE
  8
0
  6
CONTINUOUS
 62
     7
 10
-6.407400608062744
 20
-363.6833190917969
 11
-7.407385349273682
 21
-363.6833190917969
  0
LINE
  8
0
  6
CONTINUOUS
 62
     7
 10
-7.407385349273682
 20
-392.2533264160156
 11
-8.101125717163086
 21
-392.2533264160156
  0
LINE
  8
0
  6
CONTINUOUS
 62
     7
 10
-7.407385349273682
 20
-396.7533264160156
 11
-8.101125717163086
 21
-396.7533264160156
  0
LINE
  8
0
  6
CONTINUOUS
 62
     7
 10
-6.907405376434326
 20
-397.0032958984375
 11
-6.907405376434326
 21
-392.0032958984375
  0
LINE
  8
0
  6
CONTINUOUS
 62
     7
 10
-7.407410621643066
 20
-397.0032958984375
 11
-7.407410621643066
 21
-392.0032958984375
  0
LINE
  8
0
  6
CONTINUOUS
 62
     7
 10
-6.407400608062744
 20
-392.0032958984375
 11
-7.407385349273682
 21
-392.0032958984375
  0
LINE
  8
0
  6
CONTINUOUS
 62
     7
 10
-6.407400608062744
 20
-397.0032958984375
 11
-7.407385349273682
 21
-397.0032958984375
  0
LINE
  8
0
  6
CONTINUOUS
 62
     7
 10
16.59259033203125
 20
-359.88330078125
 11
13.5925989151001
 21
-359.88330078125
  0
LINE
  8
0
  6
CONTINUOUS
 62
     7
 10
16.59259033203125
 20
-362.4833068847656
 11
13.5925989151001
 21
-362.4833068847656
  0
LINE
  8
0
  6
CONTINUOUS
 62
     7
 10
16.59259033203125
 20
-393.2033386230469
 11
13.5925989151001
 21
-393.2033386230469
  0
LINE
  8
0
  6
CONTINUOUS
 62
     7
 10
16.59259033203125
 20
-395.8033142089844
 11
13.5925989151001
 21
-395.8033142089844
  0
LINE
  8
0
  6
CONTINUOUS
 62
     7
 10
16.59257888793945
 20
-362.4833068847656
 11
16.59257888793945
 21
-359.8833312988281
  0
LINE
  8
0
  6
CONTINUOUS
 62
     7
 10
16.59257888793945
 20
-395.8033142089844
 11
16.59257888793945
 21
-393.2033081054688
  0
LINE
  8
0
  6
CONTINUOUS
 62
     7
 10
16.59259033203125
 20
-395.5033264160156
 11
13.5925989151001
 21
-395.5033264160156
  0
LINE
  8
0
  6
CONTINUOUS
 62
     7
 10
16.59259033203125
 20
-393.5033264160156
 11
13.5925989151001
 21
-393.5033264160156
  0
LINE
  8
0
  6
CONTINUOUS
 62
     7
 10
16.59259033203125
 20
-362.1832885742188
 11
13.5925989151001
 21
-362.1832885742188
  0
LINE
  8
0
  6
CONTINUOUS
 62
     7
 10
16.59259033203125
 20
-360.1832885742188
 11
13.5925989151001
 21
-360.1832885742188
  0
LINE
  8
0
  6
CENTER
 62
     7
 10
25.1837215423584
 20
-377.8432922363281
 11
-119.8408737182617
 21
-377.8432922363281
  0
LINE
  8
0
  6
CONTINUOUS
 62
     7
 10
-98.16115570068359
 20
-325.5400695800781
 11
-98.16115570068359
 21
-328.6725158691406
  0
LINE
  8
0
  6
CONTINUOUS
 62
     7
 10
-183.8102569580078
 20
-242.9637756347656
 11
-30.81022071838379
 21
-242.9637756347656
  0
LINE
  8
0
  6
CONTINUOUS
 62
     7
 10
39.18977737426758
 20
-242.9637756347656
 11
192.1897430419922
 21
-242.9637756347656
  0
LINE
  8
0
  6
CONTINUOUS
 62
     7
 10
3.189805269241333
 20
-219.9637451171875
 11
5.189723968505859
 21
-219.9637451171875
  0
LINE
  8
0
  6
CONTINUOUS
 62
     7
 10
-82.16115570068359
 20
-344.6725158691406
 11
-38.40740585327148
 21
-344.6725158691406
  0
LINE
  8
0
  6
CONTINUOUS
 62
     7
 10
-183.8102569580078
 20
-219.9637451171875
 11
-179.8102569580078
 21
-219.9637451171875
  0
LINE
  8
0
  6
CENTER
 62
     7
 10
176.5032806396484
 20
-210.9637756347656
 11
191.7329559326172
 21
-210.9637756347656
  0
LINE
  8
0
  6
CONTINUOUS
 62
     7
 10
-141.8102569580078
 20
-219.9637451171875
 11
-134.8102416992188
 21
-219.9637451171875
  0
LINE
  8
0
  6
CONTINUOUS
 62
     7
 10
-51.81023025512695
 20
-219.9637451171875
 11
-34.81027603149414
 21
-219.9637451171875
  0
LINE
  8
0
  6
CONTINUOUS
 62
     7
 10
-76.81022644042969
 20
-219.9637451171875
 11
-64.81023406982422
 21
-219.9637451171875
  0
LINE
  8
0
  6
CONTINUOUS
 62
     7
 10
188.1897583007813
 20
-219.9637451171875
 11
192.1897430419922
 21
-219.9637451171875
  0
LINE
  8
0
  6
CONTINUOUS
 62
     7
 10
49.64059448242188
 20
-395.3441162109375
 11
49.64059448242188
 21
-391.0441284179688
  0
LINE
  8
0
  6
CONTINUOUS
 62
     7
 10
62.24064254760742
 20
-395.3441162109375
 11
62.24064254760742
 21
-391.0441284179688
  0
LINE
  8
0
  6
CENTER
 62
     7
 10
70.26633453369141
 20
-377.7941284179688
 11
42.81417083740234
 21
-377.7941284179688
  0
LINE
  8
0
  6
CONTINUOUS
 62
     7
 10
60.24064636230469
 20
-397.3441162109375
 11
51.64064025878906
 21
-397.3441162109375
  0
LINE
  8
0
  6
CONTINUOUS
 62
     7
 10
60.24064636230469
 20
-358.2441101074219
 11
51.64064025878906
 21
-358.2441101074219
  0
LINE
  8
0
  6
CENTER
 62
     7
 10
60.42273712158203
 20
-361.1341247558594
 11
51.96097564697266
 21
-361.1341247558594
  0
LINE
  8
0
  6
CENTER
 62
     7
 10
59.07782745361328
 20
-394.4541320800781
 11
52.52135467529297
 21
-394.4541320800781
  0
LINE
  8
0
  6
CENTER
 62
     7
 10
55.94064331054688
 20
-399.3597717285156
 11
55.94064331054688
 21
-391.4140625
  0
LINE
  8
0
  6
CONTINUOUS
 62
     7
 10
60.11064147949219
 20
-387.9725341796875
 11
60.11064147949219
 21
-367.61572265625
  0
LINE
  8
0
  6
CONTINUOUS
 62
     7
 10
51.77064514160156
 20
-388.9141235351563
 11
51.77064514160156
 21
-366.6741333007813
  0
LINE
  8
0
  6
CONTINUOUS
 62
     7
 10
59.61063766479492
 20
-387.9725341796875
 11
59.61063766479492
 21
-367.61572265625
  0
LINE
  8
0
  6
CONTINUOUS
 62
     7
 10
52.27059936523438
 20
-388.9141235351563
 11
52.27059936523438
 21
-366.6741333007813
  0
LINE
  8
0
  6
CONTINUOUS
 62
     7
 10
58.87112045288086
 20
-389.4495849609375
 11
53.53115844726563
 21
-390.3911743164063
  0
LINE
  8
0
  6
CONTINUOUS
 62
     7
 10
58.87107849121094
 20
-366.1385498046875
 11
53.53109359741211
 21
-365.1969604492188
  0
LINE
  8
0
  6
CONTINUOUS
 62
     7
 10
58.78425979614258
 20
-388.9571838378906
 11
53.44427490234375
 21
-389.8987731933594
  0
LINE
  8
0
  6
CONTINUOUS
 62
     7
 10
58.78424835205078
 20
-366.6309814453125
 11
53.44426345825195
 21
-365.6894226074219
  0
LINE
  8
0
  6
CONTINUOUS
 62
     7
 10
63.94065093994141
 20
-391.0441284179688
 11
63.94065093994141
 21
-364.5441284179688
  0
LINE
  8
0
  6
CONTINUOUS
 62
     7
 10
47.94061660766602
 20
-391.0441284179688
 11
47.94061660766602
 21
-364.5441284179688
  0
LINE
  8
0
  6
CONTINUOUS
 62
     7
 10
62.24066925048828
 20
-357.5441284179688
 11
49.64064788818359
 21
-357.5441284179688
  0
LINE
  8
0
  6
CONTINUOUS
 62
     7
 10
62.24066925048828
 20
-398.0440979003906
 11
49.64064788818359
 21
-398.0440979003906
  0
LINE
  8
0
  6
CONTINUOUS
 62
     7
 10
63.94053268432617
 20
-364.5441284179688
 11
62.24054336547852
 21
-357.5440979003906
  0
LINE
  8
0
  6
CONTINUOUS
 62
     7
 10
47.94052124023438
 20
-364.5440979003906
 11
49.64051055908203
 21
-357.5440673828125
  0
LINE
  8
0
  6
CONTINUOUS
 62
     7
 10
47.94068908691406
 20
-391.0441589355469
 11
49.64065933227539
 21
-398.0441284179688
  0
LINE
  8
0
  6
CONTINUOUS
 62
     7
 10
62.24079513549805
 20
-398.0441589355469
 11
63.94077682495117
 21
-391.044189453125
  0
LINE
  8
0
  6
CENTER
 62
     7
 10
55.94064331054688
 20
-364.1961669921875
 11
55.94064331054688
 21
-356.9591369628906
  0
LINE
  8
0
  6
CONTINUOUS
 62
     7
 10
50.7406005859375
 20
-391.0441284179688
 11
50.7406005859375
 21
-364.5441284179688
  0
LINE
  8
0
  6
CONTINUOUS
 62
     7
 10
61.1406364440918
 20
-391.0441284179688
 11
61.1406364440918
 21
-364.5441284179688
  0
LINE
  8
0
  6
CONTINUOUS
 62
     7
 10
63.94065093994141
 20
-391.0441284179688
 11
61.14066314697266
 21
-391.0441284179688
  0
LINE
  8
0
  6
CONTINUOUS
 62
     7
 10
63.94065093994141
 20
-364.5441284179688
 11
61.14066314697266
 21
-364.5441284179688
  0
LINE
  8
0
  6
CONTINUOUS
 62
     7
 10
62.24064254760742
 20
-364.5441284179688
 11
62.24064254760742
 21
-360.244140625
  0
LINE
  8
0
  6
CONTINUOUS
 62
     7
 10
49.64059448242188
 20
-364.5441284179688
 11
49.64059448242188
 21
-360.244140625
  0
LINE
  8
0
  6
CONTINUOUS
 62
     7
 10
50.74065399169922
 20
-391.0441284179688
 11
47.94066619873047
 21
-391.0441284179688
  0
LINE
  8
0
  6
CONTINUOUS
 62
     7
 10
50.74065399169922
 20
-364.5441284179688
 11
47.94066619873047
 21
-364.5441284179688
  0
LINE
  8
0
  6
CENTER
 62
     7
 10
-4.88125467300415
 20
-369.0933227539063
 11
-11.52532577514648
 21
-369.0933227539063
  0
LINE
  8
0
  6
CENTER
 62
     7
 10
-8.407421112060547
 20
-372.387451171875
 11
-8.407421112060547
 21
-365.9447326660156
  0
LINE
  8
0
  6
CONTINUOUS
 62
     7
 10
-8.107407569885254
 20
-370.8174133300781
 11
-8.107407569885254
 21
-370.393310546875
  0
LINE
  8
0
  6
CONTINUOUS
 62
     7
 10
-8.707408905029297
 20
-370.8174133300781
 11
-8.707408905029297
 21
-370.393310546875
  0
LINE
  8
0
  6
CONTINUOUS
 62
     7
 10
-6.6833176612854
 20
-369.393310546875
 11
-7.107397556304932
 21
-369.393310546875
  0
LINE
  8
0
  6
CONTINUOUS
 62
     7
 10
-6.6833176612854
 20
-368.7932739257813
 11
-7.107397556304932
 21
-368.7932739257813
  0
LINE
  8
0
  6
CONTINUOUS
 62
     7
 10
-9.707393646240234
 20
-369.393310546875
 11
-10.13149833679199
 21
-369.393310546875
  0
LINE
  8
0
  6
CONTINUOUS
 62
     7
 10
-8.107407569885254
 20
-367.7933349609375
 11
-8.107407569885254
 21
-367.3692321777344
  0
LINE
  8
0
  6
CONTINUOUS
 62
     7
 10
-9.707393646240234
 20
-368.7932739257813
 11
-10.13149833679199
 21
-368.7932739257813
  0
LINE
  8
0
  6
CONTINUOUS
 62
     7
 10
-8.707408905029297
 20
-367.7933349609375
 11
-8.707408905029297
 21
-367.3692321777344
  0
LINE
  8
0
  6
CONTINUOUS
 62
     7
 10
14.99256706237793
 20
-389.4933166503906
 11
14.99256706237793
 21
-366.1932983398438
  0
LINE
  8
0
  6
CONTINUOUS
 62
     7
 10
14.99259281158447
 20
-389.4933166503906
 11
10.99257755279541
 21
-389.4933166503906
  0
LINE
  8
0
  6
CONTINUOUS
 62
     7
 10
14.99259281158447
 20
-366.1932983398438
 11
10.99257755279541
 21
-366.1932983398438
  0
LINE
  8
0
  6
CONTINUOUS
 62
     7
 10
10.99257755279541
 20
-366.1932983398438
 11
10.99257755279541
 21
-359.1933288574219
  0
LINE
  8
0
  6
CONTINUOUS
 62
     7
 10
10.99257755279541
 20
-359.1932983398438
 11
-4.80740213394165
 21
-359.1932983398438
  0
LINE
  8
0
  6
CONTINUOUS
 62
     7
 10
-4.807415008544922
 20
-366.1932983398438
 11
-4.807415008544922
 21
-359.1933288574219
  0
LINE
  8
0
  6
CONTINUOUS
 62
     7
 10
-11.84834098815918
 20
-366.1932983398438
 11
-17.00740051269531
 21
-366.1932983398438
  0
LINE
  8
0
  6
CONTINUOUS
 62
     7
 10
-17.00740051269531
 20
-364.4432983398438
 11
-24.80740165710449
 21
-364.4432983398438
  0
LINE
  8
0
  6
CONTINUOUS
 62
     7
 10
-17.00740051269531
 20
-366.1932983398438
 11
-17.00740051269531
 21
-364.4432983398438
  0
LINE
  8
0
  6
CONTINUOUS
 62
     7
 10
-24.80741310119629
 20
-391.2433166503906
 11
-24.80741310119629
 21
-364.4432983398438
  0
LINE
  8
0
  6
CONTINUOUS
 62
     7
 10
-17.00740051269531
 20
-391.2433471679688
 11
-24.80740165710449
 21
-391.2433471679688
  0
LINE
  8
0
  6
CONTINUOUS
 62
     7
 10
-17.00740051269531
 20
-391.2433166503906
 11
-17.00740051269531
 21
-389.4933166503906
  0
LINE
  8
0
  6
CONTINUOUS
 62
     7
 10
-11.84832859039307
 20
-389.4933166503906
 11
-17.00740051269531
 21
-389.4933166503906
  0
LINE
  8
0
  6
CONTINUOUS
 62
     7
 10
-4.807415008544922
 20
-396.4933166503906
 11
-4.807415008544922
 21
-389.4933166503906
  0
LINE
  8
0
  6
CONTINUOUS
 62
     7
 10
10.99257755279541
 20
-396.4933166503906
 11
-4.80740213394165
 21
-396.4933166503906
  0
LINE
  8
0
  6
CONTINUOUS
 62
     7
 10
10.99257755279541
 20
-396.4933166503906
 11
10.99257755279541
 21
-389.4933166503906
  0
LINE
  8
0
  6
CONTINUOUS
 62
     7
 10
-23.40739440917969
 20
-387.8432922363281
 11
-23.40739440917969
 21
-367.8433227539063
  0
LINE
  8
0
  6
CONTINUOUS
 62
     7
 10
-14.40740489959717
 20
-387.8432922363281
 11
-14.40740489959717
 21
-367.8433227539063
  0
LINE
  8
0
  6
CONTINUOUS
 62
     7
 10
-14.40739250183106
 20
-367.8433227539063
 11
-23.40739440917969
 21
-367.8433227539063
  0
LINE
  8
0
  6
CONTINUOUS
 62
     7
 10
-14.40739250183106
 20
-387.8432922363281
 11
-23.40739440917969
 21
-387.8432922363281
  0
LINE
  8
0
  6
CONTINUOUS
 62
     7
 10
6.592578411102295
 20
-391.0933227539063
 11
6.592578411102295
 21
-364.5932922363281
  0
LINE
  8
0
  6
CONTINUOUS
 62
     7
 10
0.5925686955451965
 20
-391.0933227539063
 11
0.5925686955451965
 21
-364.5932922363281
  0
LINE
  8
0
  6
CONTINUOUS
 62
     7
 10
6.592578411102295
 20
-391.0933532714844
 11
0.5925813913345337
 21
-391.0933532714844
  0
LINE
  8
0
  6
CONTINUOUS
 62
     7
 10
6.592578411102295
 20
-364.5932922363281
 11
0.5925813913345337
 21
-364.5932922363281
  0
LINE
  8
0
  6
CONTINUOUS
 62
     7
 10
-49.40740203857422
 20
-381.8432922363281
 11
-49.40740203857422
 21
-373.8432922363281
  0
LINE
  8
0
  6
CONTINUOUS
 62
     7
 10
-26.40740013122559
 20
-372.8433227539063
 11
-48.40740585327148
 21
-372.8433227539063
  0
LINE
  8
0
  6
CONTINUOUS
 62
     7
 10
-26.40740013122559
 20
-382.8432922363281
 11
-48.40740585327148
 21
-382.8432922363281
  0
LINE
  8
0
  6
CONTINUOUS
 62
     7
 10
-48.40741729736328
 20
-381.8432922363281
 11
-48.40741729736328
 21
-373.8432922363281
  0
LINE
  8
0
  6
CONTINUOUS
 62
     7
 10
-49.40740203857422
 20
-374.5932922363281
 11
-119.8408737182617
 21
-374.5932922363281
  0
LINE
  8
0
  6
CONTINUOUS
 62
     7
 10
-49.40740203857422
 20
-381.0932922363281
 11
-119.8408737182617
 21
-381.0932922363281
  0
LINE
  8
0
  6
CONTINUOUS
 62
     7
 10
-138.3408813476563
 20
-283.3143310546875
 11
-138.3408813476563
 21
-323.9881591796875
  0
LINE
  8
0
  6
CONTINUOUS
 62
     7
 10
-131.8408660888672
 20
-283.3342590332031
 11
-131.8408660888672
 21
-323.5134887695313
  0
LINE
  8
0
  6
CONTINUOUS
 62
     7
 10
-26.40740013122559
 20
-362.0781555175781
 11
-26.40740013122559
 21
-343.0780944824219
  0
LINE
  8
0
  6
CENTER
 62
     7
 10
-274.5646667480469
 20
-484.294189453125
 11
-240.3602752685547
 21
-484.294189453125
  0
LINE
  8
0
  6
CONTINUOUS
 62
     7
 10
-238.5113830566406
 20
-481.2942199707031
 11
-238.5113830566406
 21
-487.2942199707031
  0
LINE
  8
0
  6
CONTINUOUS
 62
     7
 10
-276.5113830566406
 20
-481.2942199707031
 11
-276.5113830566406
 21
-487.2942199707031
  0
LINE
  8
0
  6
CENTER
 62
     7
 10
-257.5113830566406
 20
-476.7347412109375
 11
-257.5113830566406
 21
-492.9125061035156
  0
LINE
  8
0
  6
CENTER
 62
     7
 10
-270.0113830566406
 20
-479.9702758789063
 11
-270.0113830566406
 21
-487.8280334472656
  0
LINE
  8
0
  6
CENTER
 62
     7
 10
-245.0113983154297
 20
-480.4324951171875
 11
-245.0113983154297
 21
-488.290283203125
  0
LINE
  8
0
  6
CONTINUOUS
 62
     7
 10
-274.5113830566406
 20
-479.294189453125
 11
-240.5113830566406
 21
-479.294189453125
  0
LINE
  8
0
  6
CONTINUOUS
 62
     7
 10
-274.5113830566406
 20
-489.294189453125
 11
-240.5113830566406
 21
-489.294189453125
  0
LINE
  8
0
  6
CONTINUOUS
 62
     7
 10
-131.8408660888672
 20
-297.3108825683594
 11
-131.8408660888672
 21
-362.5933227539063
  0
LINE
  8
0
  6
CONTINUOUS
 62
     7
 10
-138.3408813476563
 20
-297.7855529785156
 11
-138.3408813476563
 21
-362.5932922363281
  0
LINE
  8
0
  6
CONTINUOUS
 62
     7
 10
192.1897430419922
 20
-219.9637451171875
 11
192.1897430419922
 21
-242.9637756347656
  0
LINE
  8
0
  6
CONTINUOUS
 62
     7
 10
-183.8102569580078
 20
-219.9637451171875
 11
-183.8102569580078
 21
-242.9637756347656
  0
LINE
  8
0
  6
CONTINUOUS
 62
     7
 10
65.19217681884766
 20
-210.0991363525391
 11
65.19217681884766
 21
-211.8283996582031
  0
LINE
  8
0
  6
CONTINUOUS
 62
     7
 10
66.68977355957031
 20
-212.6930236816406
 11
65.19219970703125
 21
-211.8283996582031
  0
LINE
  8
0
  6
CONTINUOUS
 62
     7
 10
66.68977355957031
 20
-209.2345123291016
 11
65.19220733642578
 21
-210.09912109375
  0
LINE
  8
0
  6
CONTINUOUS
 62
     7
 10
66.68977355957031
 20
-209.2344970703125
 11
68.18734741210938
 21
-210.09912109375
  0
LINE
  8
0
  6
CONTINUOUS
 62
     7
 10
68.18732452392578
 20
-210.0991363525391
 11
68.18732452392578
 21
-211.8283996582031
  0
LINE
  8
0
  6
CONTINUOUS
 62
     7
 10
66.68978118896484
 20
-212.6930389404297
 11
68.18734741210938
 21
-211.8284301757813
  0
LINE
  8
0
  6
CONTINUOUS
 62
     7
 10
90.19219970703125
 20
-210.0991363525391
 11
90.19219970703125
 21
-211.8283996582031
  0
LINE
  8
0
  6
CONTINUOUS
 62
     7
 10
91.68977355957031
 20
-212.6930084228516
 11
90.19219970703125
 21
-211.8283843994141
  0
LINE
  8
0
  6
CONTINUOUS
 62
     7
 10
91.68978118896484
 20
-209.2345123291016
 11
90.19219970703125
 21
-210.0991516113281
  0
LINE
  8
0
  6
CONTINUOUS
 62
     7
 10
91.68978881835938
 20
-209.2344818115234
 11
93.18737030029297
 21
-210.0991058349609
  0
LINE
  8
0
  6
CONTINUOUS
 62
     7
 10
93.18734741210938
 20
-210.0991363525391
 11
93.18734741210938
 21
-211.8283996582031
  0
LINE
  8
0
  6
CONTINUOUS
 62
     7
 10
91.68978118896484
 20
-212.6930236816406
 11
93.18736267089844
 21
-211.8283996582031
  0
LINE
  8
0
  6
CONTINUOUS
 62
     7
 10
61.18974304199219
 20
-205.9637756347656
 11
97.18978118896484
 21
-205.9637756347656
  0
LINE
  8
0
  6
CONTINUOUS
 62
     7
 10
60.18975830078125
 20
-206.9637756347656
 11
60.18975830078125
 21
-226.9637756347656
  0
LINE
  8
0
  6
CONTINUOUS
 62
     7
 10
98.18976593017578
 20
-206.9637756347656
 11
98.18976593017578
 21
-226.9637756347656
  0
LINE
  8
0
  6
CENTER
 62
     7
 10
85.87393951416016
 20
-210.9637756347656
 11
96.37574768066406
 21
-210.9637756347656
  0
LINE
  8
0
  6
CENTER
 62
     7
 10
91.68977355957031
 20
-206.3238067626953
 11
91.68977355957031
 21
-215.6631317138672
  0
LINE
  8
0
  6
CENTER
 62
     7
 10
66.68977355957031
 20
-206.3238067626953
 11
66.68977355957031
 21
-215.6631317138672
  0
LINE
  8
0
  6
CENTER
 62
     7
 10
62.18383026123047
 20
-210.9637756347656
 11
71.95293426513672
 21
-210.9637756347656
  0
LINE
  8
0
  6
CONTINUOUS
 62
     7
 10
73.18976593017578
 20
-216.4637756347656
 11
73.18976593017578
 21
-226.9637756347656
  0
LINE
  8
0
  6
CONTINUOUS
 62
     7
 10
60.18975830078125
 20
-222.9189605712891
 11
73.18976593017578
 21
-222.9189605712891
  0
LINE
  8
0
  6
CONTINUOUS
 62
     7
 10
60.18975830078125
 20
-226.3513793945313
 11
73.18976593017578
 21
-226.3513793945313
  0
LINE
  8
0
  6
CONTINUOUS
 62
     7
 10
60.18975830078125
 20
-226.9637756347656
 11
73.18976593017578
 21
-226.9637756347656
  0
LINE
  8
0
  6
CONTINUOUS
 62
     7
 10
85.18978118896484
 20
-226.3513793945313
 11
98.18976593017578
 21
-226.3513793945313
  0
LINE
  8
0
  6
CONTINUOUS
 62
     7
 10
85.18978118896484
 20
-226.9637756347656
 11
98.18976593017578
 21
-226.9637756347656
  0
LINE
  8
0
  6
CONTINUOUS
 62
     7
 10
85.18975830078125
 20
-216.4637756347656
 11
85.18975830078125
 21
-226.9637756347656
  0
LINE
  8
0
  6
CONTINUOUS
 62
     7
 10
85.18978118896484
 20
-222.9189605712891
 11
98.18976593017578
 21
-222.9189605712891
  0
LINE
  8
0
  6
CONTINUOUS
 62
     7
 10
73.68974304199219
 20
-215.9637756347656
 11
84.68975067138672
 21
-215.9637756347656
  0
LINE
  8
0
  6
CENTER
 62
     7
 10
79.18977355957031
 20
-194.9964294433594
 11
79.18977355957031
 21
-227.9181060791016
  0
LINE
  8
0
  6
CENTER
 62
     7
 10
-70.81021881103516
 20
-155.3487091064453
 11
-70.81021881103516
 21
-184.1501312255859
  0
LINE
  8
0
  6
CONTINUOUS
 62
     7
 10
-84.80781555175781
 20
-210.0991363525391
 11
-84.80781555175781
 21
-211.8283996582031
  0
LINE
  8
0
  6
CONTINUOUS
 62
     7
 10
-83.31021881103516
 20
-212.6930236816406
 11
-84.80779266357422
 21
-211.8283996582031
  0
LINE
  8
0
  6
CONTINUOUS
 62
     7
 10
-83.31022644042969
 20
-209.2344970703125
 11
-84.80779266357422
 21
-210.09912109375
  0
LINE
  8
0
  6
CONTINUOUS
 62
     7
 10
-83.31021881103516
 20
-209.2344970703125
 11
-81.81264495849609
 21
-210.09912109375
  0
LINE
  8
0
  6
CONTINUOUS
 62
     7
 10
-81.81266784667969
 20
-210.0991363525391
 11
-81.81266784667969
 21
-211.8283996582031
  0
LINE
  8
0
  6
CONTINUOUS
 62
     7
 10
-83.31020355224609
 20
-212.6930389404297
 11
-81.81263732910156
 21
-211.8284149169922
  0
LINE
  8
0
  6
CONTINUOUS
 62
     7
 10
-59.80779266357422
 20
-210.0991363525391
 11
-59.80779266357422
 21
-211.8283996582031
  0
LINE
  8
0
  6
CONTINUOUS
 62
     7
 10
-58.31020736694336
 20
-212.6930084228516
 11
-59.80778121948242
 21
-211.8283843994141
  0
LINE
  8
0
  6
CONTINUOUS
 62
     7
 10
-58.31023025512695
 20
-209.2345275878906
 11
-59.80780792236328
 21
-210.0991516113281
  0
LINE
  8
0
  6
CONTINUOUS
 62
     7
 10
-58.31020355224609
 20
-209.2344818115234
 11
-56.81262588500977
 21
-210.0991058349609
  0
LINE
  8
0
  6
CONTINUOUS
 62
     7
 10
-56.81264495849609
 20
-210.0991363525391
 11
-56.81264495849609
 21
-211.8283996582031
  0
LINE
  8
0
  6
CONTINUOUS
 62
     7
 10
-58.31020736694336
 20
-212.6930236816406
 11
-56.81262969970703
 21
-211.8283843994141
  0
LINE
  8
0
  6
CONTINUOUS
 62
     7
 10
-88.81024932861328
 20
-205.9637756347656
 11
-52.81021499633789
 21
-205.9637756347656
  0
LINE
  8
0
  6
CONTINUOUS
 62
     7
 10
-89.81023406982422
 20
-206.9637756347656
 11
-89.81023406982422
 21
-226.9637756347656
  0
LINE
  8
0
  6
CONTINUOUS
 62
     7
 10
-51.81023025512695
 20
-206.9637756347656
 11
-51.81023025512695
 21
-226.9637756347656
  0
LINE
  8
0
  6
CENTER
 62
     7
 10
-64.12605285644531
 20
-210.9637756347656
 11
-53.62424468994141
 21
-210.9637756347656
  0
LINE
  8
0
  6
CENTER
 62
     7
 10
-58.31021881103516
 20
-206.3238067626953
 11
-58.31021881103516
 21
-215.6631317138672
  0
LINE
  8
0
  6
CENTER
 62
     7
 10
-83.31021881103516
 20
-206.3238067626953
 11
-83.31021881103516
 21
-215.6631317138672
  0
LINE
  8
0
  6
CENTER
 62
     7
 10
-87.816162109375
 20
-210.9637756347656
 11
-78.04705810546875
 21
-210.9637756347656
  0
LINE
  8
0
  6
CONTINUOUS
 62
     7
 10
-76.81022644042969
 20
-216.4637756347656
 11
-76.81022644042969
 21
-226.9637756347656
  0
LINE
  8
0
  6
CONTINUOUS
 62
     7
 10
-89.81023406982422
 20
-222.9189605712891
 11
-76.81022644042969
 21
-222.9189605712891
  0
LINE
  8
0
  6
CONTINUOUS
 62
     7
 10
-89.81023406982422
 20
-226.3513793945313
 11
-76.81022644042969
 21
-226.3513793945313
  0
LINE
  8
0
  6
CONTINUOUS
 62
     7
 10
-89.81023406982422
 20
-226.9637756347656
 11
-76.81022644042969
 21
-226.9637756347656
  0
LINE
  8
0
  6
CONTINUOUS
 62
     7
 10
-64.81021118164063
 20
-226.3513793945313
 11
-51.81023025512695
 21
-226.3513793945313
  0
LINE
  8
0
  6
CONTINUOUS
 62
     7
 10
-64.81021118164063
 20
-226.9637756347656
 11
-51.81023025512695
 21
-226.9637756347656
  0
LINE
  8
0
  6
CONTINUOUS
 62
     7
 10
-64.81023406982422
 20
-216.4637756347656
 11
-64.81023406982422
 21
-226.9637756347656
  0
LINE
  8
0
  6
CONTINUOUS
 62
     7
 10
-64.81021118164063
 20
-222.9189605712891
 11
-51.81023025512695
 21
-222.9189605712891
  0
LINE
  8
0
  6
CONTINUOUS
 62
     7
 10
-76.31024932861328
 20
-215.9637756347656
 11
-65.31024169921875
 21
-215.9637756347656
  0
LINE
  8
0
  6
CENTER
 62
     7
 10
-70.81021881103516
 20
-194.9964294433594
 11
-70.81021881103516
 21
-227.9181060791016
  0
LINE
  8
0
  6
CONTINUOUS
 62
     7
 10
73.18976593017578
 20
-219.9637451171875
 11
85.18975830078125
 21
-219.9637451171875
  0
LINE
  8
0
  6
CONTINUOUS
 62
     7
 10
-174.8078460693359
 20
-210.0991363525391
 11
-174.8078460693359
 21
-211.8283996582031
  0
LINE
  8
0
  6
CONTINUOUS
 62
     7
 10
-173.3102416992188
 20
-212.6930236816406
 11
-174.8078155517578
 21
-211.8283996582031
  0
LINE
  8
0
  6
CONTINUOUS
 62
     7
 10
-173.3102569580078
 20
-209.2344970703125
 11
-174.8078155517578
 21
-210.09912109375
  0
LINE
  8
0
  6
CONTINUOUS
 62
     7
 10
-173.3102416992188
 20
-209.2344970703125
 11
-171.8126678466797
 21
-210.09912109375
  0
LINE
  8
0
  6
CONTINUOUS
 62
     7
 10
-171.8126983642578
 20
-210.0991363525391
 11
-171.8126983642578
 21
-211.8283996582031
  0
LINE
  8
0
  6
CONTINUOUS
 62
     7
 10
-173.3102264404297
 20
-212.6930389404297
 11
-171.8126678466797
 21
-211.8284301757813
  0
LINE
  8
0
  6
CONTINUOUS
 62
     7
 10
-149.8078155517578
 20
-210.0991363525391
 11
-149.8078155517578
 21
-211.8283996582031
  0
LINE
  8
0
  6
CONTINUOUS
 62
     7
 10
-148.3102264404297
 20
-212.6930084228516
 11
-149.8078002929688
 21
-211.8283843994141
  0
LINE
  8
0
  6
CONTINUOUS
 62
     7
 10
-148.3102569580078
 20
-209.2345275878906
 11
-149.8078308105469
 21
-210.0991516113281
  0
LINE
  8
0
  6
CONTINUOUS
 62
     7
 10
-148.3102264404297
 20
-209.2344818115234
 11
-146.8126525878906
 21
-210.0991058349609
  0
LINE
  8
0
  6
CONTINUOUS
 62
     7
 10
-146.8126678466797
 20
-210.0991363525391
 11
-146.8126678466797
 21
-211.8283996582031
  0
LINE
  8
0
  6
CONTINUOUS
 62
     7
 10
-148.3102264404297
 20
-212.6930236816406
 11
-146.8126525878906
 21
-211.8283996582031
  0
LINE
  8
0
  6
CONTINUOUS
 62
     7
 10
-178.8102722167969
 20
-205.9637756347656
 11
-142.8102416992188
 21
-205.9637756347656
  0
LINE
  8
0
  6
CONTINUOUS
 62
     7
 10
-179.8102569580078
 20
-206.9637756347656
 11
-179.8102569580078
 21
-226.9637756347656
  0
LINE
  8
0
  6
CONTINUOUS
 62
     7
 10
-141.8102569580078
 20
-206.9637756347656
 11
-141.8102569580078
 21
-226.9637756347656
  0
LINE
  8
0
  6
CENTER
 62
     7
 10
-154.1260833740234
 20
-210.9637756347656
 11
-143.624267578125
 21
-210.9637756347656
  0
LINE
  8
0
  6
CENTER
 62
     7
 10
-148.3102416992188
 20
-206.3238067626953
 11
-148.3102416992188
 21
-215.6631317138672
  0
LINE
  8
0
  6
CENTER
 62
     7
 10
-173.3102416992188
 20
-206.3238067626953
 11
-173.3102416992188
 21
-215.6631317138672
  0
LINE
  8
0
  6
CENTER
 62
     7
 10
-177.8161926269531
 20
-210.9637756347656
 11
-168.0470733642578
 21
-210.9637756347656
  0
LINE
  8
0
  6
CONTINUOUS
 62
     7
 10
-166.8102569580078
 20
-216.4637756347656
 11
-166.8102569580078
 21
-226.9637756347656
  0
LINE
  8
0
  6
CONTINUOUS
 62
     7
 10
-179.8102569580078
 20
-222.9189605712891
 11
-166.8102569580078
 21
-222.9189605712891
  0
LINE
  8
0
  6
CONTINUOUS
 62
     7
 10
-179.8102569580078
 20
-226.3513793945313
 11
-166.8102569580078
 21
-226.3513793945313
  0
LINE
  8
0
  6
CONTINUOUS
 62
     7
 10
-179.8102569580078
 20
-226.9637756347656
 11
-166.8102569580078
 21
-226.9637756347656
  0
LINE
  8
0
  6
CONTINUOUS
 62
     7
 10
-154.8102264404297
 20
-226.3513793945313
 11
-141.8102569580078
 21
-226.3513793945313
  0
LINE
  8
0
  6
CONTINUOUS
 62
     7
 10
-154.8102264404297
 20
-226.9637756347656
 11
-141.8102569580078
 21
-226.9637756347656
  0
LINE
  8
0
  6
CONTINUOUS
 62
     7
 10
-154.8102569580078
 20
-216.4637756347656
 11
-154.8102569580078
 21
-226.9637756347656
  0
LINE
  8
0
  6
CONTINUOUS
 62
     7
 10
-154.8102264404297
 20
-222.9189605712891
 11
-141.8102569580078
 21
-222.9189605712891
  0
LINE
  8
0
  6
CONTINUOUS
 62
     7
 10
-166.3102722167969
 20
-215.9637756347656
 11
-155.3102569580078
 21
-215.9637756347656
  0
LINE
  8
0
  6
CENTER
 62
     7
 10
-160.8102416992188
 20
-194.9964294433594
 11
-160.8102416992188
 21
-227.9181060791016
  0
LINE
  8
0
  6
CONTINUOUS
 62
     7
 10
-166.8102569580078
 20
-219.9637451171875
 11
-154.8102569580078
 21
-219.9637451171875
  0
LINE
  8
0
  6
CONTINUOUS
 62
     7
 10
155.1921997070313
 20
-210.0991363525391
 11
155.1921997070313
 21
-211.8283996582031
  0
LINE
  8
0
  6
CONTINUOUS
 62
     7
 10
156.6897888183594
 20
-212.6930236816406
 11
155.1922302246094
 21
-211.8283996582031
  0
LINE
  8
0
  6
CONTINUOUS
 62
     7
 10
156.6897888183594
 20
-209.2345123291016
 11
155.1921997070313
 21
-210.0991516113281
  0
LINE
  8
0
  6
CONTINUOUS
 62
     7
 10
156.6898193359375
 20
-209.2345123291016
 11
158.1873931884766
 21
-210.0991363525391
  0
LINE
  8
0
  6
CONTINUOUS
 62
     7
 10
158.1873474121094
 20
-210.0991363525391
 11
158.1873474121094
 21
-211.8283996582031
  0
LINE
  8
0
  6
CONTINUOUS
 62
     7
 10
156.6897888183594
 20
-212.6930694580078
 11
158.1873779296875
 21
-211.8284454345703
  0
LINE
  8
0
  6
CONTINUOUS
 62
     7
 10
180.1921997070313
 20
-210.0991363525391
 11
180.1921997070313
 21
-211.8283996582031
  0
LINE
  8
0
  6
CONTINUOUS
 62
     7
 10
181.6898040771484
 20
-212.6930084228516
 11
180.1922454833984
 21
-211.8283996582031
  0
LINE
  8
0
  6
CONTINUOUS
 62
     7
 10
181.6897735595703
 20
-209.2344970703125
 11
180.1922149658203
 21
-210.09912109375
  0
LINE
  8
0
  6
CONTINUOUS
 62
     7
 10
181.6898345947266
 20
-209.2345581054688
 11
183.1873931884766
 21
-210.0991668701172
  0
LINE
  8
0
  6
CONTINUOUS
 62
     7
 10
183.1873474121094
 20
-210.0991363525391
 11
183.1873474121094
 21
-211.8283996582031
  0
LINE
  8
0
  6
CONTINUOUS
 62
     7
 10
181.6898040771484
 20
-212.6930694580078
 11
183.1873779296875
 21
-211.8284454345703
  0
LINE
  8
0
  6
CONTINUOUS
 62
     7
 10
151.1897735595703
 20
-205.9637756347656
 11
187.1898040771484
 21
-205.9637756347656
  0
LINE
  8
0
  6
CONTINUOUS
 62
     7
 10
150.1897888183594
 20
-206.9637756347656
 11
150.1897888183594
 21
-226.9637756347656
  0
LINE
  8
0
  6
CONTINUOUS
 62
     7
 10
188.1897583007813
 20
-206.9637756347656
 11
188.1897583007813
 21
-226.9637756347656
  0
LINE
  8
0
  6
CENTER
 62
     7
 10
181.6897735595703
 20
-206.3238067626953
 11
181.6897735595703
 21
-215.6631317138672
  0
LINE
  8
0
  6
CENTER
 62
     7
 10
156.6897735595703
 20
-206.3238067626953
 11
156.6897735595703
 21
-215.6631317138672
  0
LINE
  8
0
  6
CONTINUOUS
 62
     7
 10
163.1897583007813
 20
-216.4637756347656
 11
163.1897583007813
 21
-226.9637756347656
  0
LINE
  8
0
  6
CONTINUOUS
 62
     7
 10
150.1897583007813
 20
-222.9189605712891
 11
163.1897583007813
 21
-222.9189605712891
  0
LINE
  8
0
  6
CONTINUOUS
 62
     7
 10
150.1897583007813
 20
-226.3513793945313
 11
163.1897583007813
 21
-226.3513793945313
  0
LINE
  8
0
  6
CONTINUOUS
 62
     7
 10
150.1897583007813
 20
-226.9637756347656
 11
163.1897583007813
 21
-226.9637756347656
  0
LINE
  8
0
  6
CONTINUOUS
 62
     7
 10
175.1897735595703
 20
-226.3513793945313
 11
188.1897583007813
 21
-226.3513793945313
  0
LINE
  8
0
  6
CONTINUOUS
 62
     7
 10
175.1897735595703
 20
-226.9637756347656
 11
188.1897583007813
 21
-226.9637756347656
  0
LINE
  8
0
  6
CONTINUOUS
 62
     7
 10
175.1897735595703
 20
-216.4637756347656
 11
175.1897735595703
 21
-226.9637756347656
  0
LINE
  8
0
  6
CONTINUOUS
 62
     7
 10
175.1897735595703
 20
-222.9189605712891
 11
188.1897583007813
 21
-222.9189605712891
  0
LINE
  8
0
  6
CONTINUOUS
 62
     7
 10
163.6897430419922
 20
-215.9637756347656
 11
174.6897583007813
 21
-215.9637756347656
  0
LINE
  8
0
  6
CENTER
 62
     7
 10
169.1897735595703
 20
-195.9245758056641
 11
169.1897735595703
 21
-227.7904968261719
  0
LINE
  8
0
  6
CONTINUOUS
 62
     7
 10
163.1897583007813
 20
-219.9637451171875
 11
175.1897735595703
 21
-219.9637451171875
  0
LINE
  8
0
  6
CONTINUOUS
 62
     7
 10
98.18976593017578
 20
-219.9637451171875
 11
105.1897811889648
 21
-219.9637451171875
  0
LINE
  8
0
  6
CENTER
 62
     7
 10
151.1836395263672
 20
-210.9637756347656
 11
161.9529418945313
 21
-210.9637756347656
  0
LINE
  8
0
  6
CONTINUOUS
 62
     7
 10
-41.3078727722168
 20
-210.0990905761719
 11
-41.3078727722168
 21
-211.828369140625
  0
LINE
  8
0
  6
CONTINUOUS
 62
     7
 10
-39.81026840209961
 20
-212.6928863525391
 11
-41.30782318115234
 21
-211.8282775878906
  0
LINE
  8
0
  6
CONTINUOUS
 62
     7
 10
-39.81013488769531
 20
-209.2345886230469
 11
-41.30773544311523
 21
-210.0992279052734
  0
LINE
  8
0
  6
CONTINUOUS
 62
     7
 10
-39.81023406982422
 20
-209.2345275878906
 11
-38.31267929077148
 21
-210.0991363525391
  0
LINE
  8
0
  6
CONTINUOUS
 62
     7
 10
-38.31267547607422
 20
-210.0990905761719
 11
-38.31267547607422
 21
-211.828369140625
  0
LINE
  8
0
  6
CONTINUOUS
 62
     7
 10
-39.81022644042969
 20
-212.6929931640625
 11
-38.31262588500977
 21
-211.8283538818359
  0
LINE
  8
0
  6
CONTINUOUS
 62
     7
 10
46.69215393066406
 20
-210.0990905761719
 11
46.69215393066406
 21
-211.828369140625
  0
LINE
  8
0
  6
CONTINUOUS
 62
     7
 10
48.18976974487305
 20
-212.6930541992188
 11
46.69212341308594
 21
-211.8283843994141
  0
LINE
  8
0
  6
CONTINUOUS
 62
     7
 10
48.18979644775391
 20
-209.2345123291016
 11
46.69224166870117
 21
-210.09912109375
  0
LINE
  8
0
  6
CONTINUOUS
 62
     7
 10
48.18976974487305
 20
-209.2344970703125
 11
49.68741226196289
 21
-210.0991516113281
  0
LINE
  8
0
  6
CONTINUOUS
 62
     7
 10
49.68735122680664
 20
-210.0990905761719
 11
49.68735122680664
 21
-211.828369140625
  0
LINE
  8
0
  6
CONTINUOUS
 62
     7
 10
48.18990707397461
 20
-212.6930084228516
 11
49.68746185302734
 21
-211.8283843994141
  0
LINE
  8
0
  6
CONTINUOUS
 62
     7
 10
66.20176696777344
 20
-183.1769866943359
 11
121.6264114379883
 21
-183.1769866943359
  0
LINE
  8
0
  6
DASHED
 62
     7
 10
-25.81023406982422
 20
-217.9637298583984
 11
-25.81023406982422
 21
-219.9637451171875
  0
LINE
  8
0
  6
CONTINUOUS
 62
     7
 10
-43.81021499633789
 20
-217.9637298583984
 11
-34.81027603149414
 21
-217.9637298583984
  0
LINE
  8
0
  6
CONTINUOUS
 62
     7
 10
-16.81019401550293
 20
-218.4637603759766
 11
-16.81019401550293
 21
-219.9637451171875
  0
LINE
  8
0
  6
CENTER
 62
     7
 10
-44.81027603149414
 20
-210.9637603759766
 11
-34.99114227294922
 21
-210.9637603759766
  0
LINE
  8
0
  6
CENTER
 62
     7
 10
-39.81027603149414
 20
-206.3237609863281
 11
-39.81027603149414
 21
-215.6631164550781
  0
LINE
  8
0
  6
CENTER
 62
     7
 10
48.18975067138672
 20
-206.3237609863281
 11
48.18975067138672
 21
-215.6631164550781
  0
LINE
  8
0
  6
CENTER
 62
     7
 10
43.06219100952148
 20
-210.9637603759766
 11
53.18975067138672
 21
-210.9637603759766
  0
LINE
  8
0
  6
CONTINUOUS
 62
     7
 10
-16.31021499633789
 20
-217.9637298583984
 11
-9.711907386779785
 21
-217.9637298583984
  0
LINE
  8
0
  6
CONTINUOUS
 62
     7
 10
-29.80783271789551
 20
-210.0990905761719
 11
-29.80783271789551
 21
-211.828369140625
  0
LINE
  8
0
  6
CONTINUOUS
 62
     7
 10
-28.31022834777832
 20
-212.6930084228516
 11
-29.80778312683106
 21
-211.8283996582031
  0
LINE
  8
0
  6
CONTINUOUS
 62
     7
 10
-28.31008911132813
 20
-209.2345886230469
 11
-29.80764389038086
 21
-210.0992126464844
  0
LINE
  8
0
  6
CONTINUOUS
 62
     7
 10
-28.31012153625488
 20
-209.2344665527344
 11
-26.81256675720215
 21
-210.0990905761719
  0
LINE
  8
0
  6
CONTINUOUS
 62
     7
 10
-26.81263542175293
 20
-210.0990905761719
 11
-26.81263542175293
 21
-211.828369140625
  0
LINE
  8
0
  6
CONTINUOUS
 62
     7
 10
-28.31025695800781
 20
-212.6930084228516
 11
-26.81270027160645
 21
-211.8283996582031
  0
LINE
  8
0
  6
CONTINUOUS
 62
     7
 10
-4.807834625244141
 20
-210.0990905761719
 11
-4.807834625244141
 21
-211.828369140625
  0
LINE
  8
0
  6
CONTINUOUS
 62
     7
 10
-3.310283660888672
 20
-212.6929168701172
 11
-4.807838916778565
 21
-211.8283081054688
  0
LINE
  8
0
  6
CONTINUOUS
 62
     7
 10
-3.310120582580566
 20
-209.2344970703125
 11
-4.807675838470459
 21
-210.0991058349609
  0
LINE
  8
0
  6
CONTINUOUS
 62
     7
 10
-3.310156583786011
 20
-209.2344512939453
 11
-1.812601447105408
 21
-210.0990600585938
  0
LINE
  8
0
  6
CONTINUOUS
 62
     7
 10
-1.812636017799377
 20
-210.0990905761719
 11
-1.812636017799377
 21
-211.828369140625
  0
LINE
  8
0
  6
CONTINUOUS
 62
     7
 10
-3.310210466384888
 20
-212.6930694580078
 11
-1.812655448913574
 21
-211.8284606933594
  0
LINE
  8
0
  6
CONTINUOUS
 62
     7
 10
-43.81021499633789
 20
-205.9637603759766
 11
52.18979263305664
 21
-205.9637603759766
  0
LINE
  8
0
  6
CONTINUOUS
 62
     7
 10
-34.81027603149414
 20
-206.9637145996094
 11
-34.81027603149414
 21
-226.9637145996094
  0
LINE
  8
0
  6
CONTINUOUS
 62
     7
 10
3.189805269241333
 20
-206.9637145996094
 11
3.189805269241333
 21
-226.9637145996094
  0
LINE
  8
0
  6
CENTER
 62
     7
 10
-9.126071929931641
 20
-210.9637603759766
 11
1.375738739967346
 21
-210.9637603759766
  0
LINE
  8
0
  6
CENTER
 62
     7
 10
-3.310235261917114
 20
-206.3237609863281
 11
-3.310235261917114
 21
-215.6631164550781
  0
LINE
  8
0
  6
CENTER
 62
     7
 10
-28.31023406982422
 20
-206.3237609863281
 11
-28.31023406982422
 21
-215.6631164550781
  0
LINE
  8
0
  6
CENTER
 62
     7
 10
-32.81615447998047
 20
-210.9637603759766
 11
-23.04707145690918
 21
-210.9637603759766
  0
LINE
  8
0
  6
CONTINUOUS
 62
     7
 10
-21.81019401550293
 20
-216.4637451171875
 11
-21.81019401550293
 21
-226.9637145996094
  0
LINE
  8
0
  6
CONTINUOUS
 62
     7
 10
-34.81027603149414
 20
-222.9189147949219
 11
-21.81029510498047
 21
-222.9189147949219
  0
LINE
  8
0
  6
CONTINUOUS
 62
     7
 10
-34.81027603149414
 20
-226.3513793945313
 11
-21.81029510498047
 21
-226.3513793945313
  0
LINE
  8
0
  6
CONTINUOUS
 62
     7
 10
-34.81027603149414
 20
-226.9637756347656
 11
-21.81029510498047
 21
-226.9637756347656
  0
LINE
  8
0
  6
CONTINUOUS
 62
     7
 10
-9.810276031494141
 20
-226.3513793945313
 11
3.189703464508057
 21
-226.3513793945313
  0
LINE
  8
0
  6
CONTINUOUS
 62
     7
 10
-9.810276031494141
 20
-226.9637756347656
 11
3.189703464508057
 21
-226.9637756347656
  0
LINE
  8
0
  6
CONTINUOUS
 62
     7
 10
-9.810276031494141
 20
-216.4637451171875
 11
-9.810276031494141
 21
-226.9637145996094
  0
LINE
  8
0
  6
CONTINUOUS
 62
     7
 10
-9.810276031494141
 20
-222.9189147949219
 11
3.189703464508057
 21
-222.9189147949219
  0
LINE
  8
0
  6
CONTINUOUS
 62
     7
 10
-21.31021499633789
 20
-215.9637603759766
 11
-10.31025505065918
 21
-215.9637603759766
  0
LINE
  8
0
  6
CONTINUOUS
 62
     7
 10
60.70012664794922
 20
-169.3766937255859
 11
121.6540756225586
 21
-169.3766937255859
  0
LINE
  8
0
  6
CONTINUOUS
 62
     7
 10
-44.81027603149414
 20
-206.9637756347656
 11
-44.81027603149414
 21
-216.9637145996094
  0
LINE
  8
0
  6
CONTINUOUS
 62
     7
 10
53.18975067138672
 20
-206.9637756347656
 11
53.18975067138672
 21
-216.9637145996094
  0
LINE
  8
0
  6
CONTINUOUS
 62
     7
 10
43.18975448608398
 20
-217.9637298583984
 11
52.18979263305664
 21
-217.9637298583984
  0
LINE
  8
0
  6
DASHED
 62
     7
 10
-34.81027603149414
 20
-217.9637298583984
 11
-25.81023406982422
 21
-217.9637298583984
  0
LINE
  8
0
  6
DASHED
 62
     7
 10
-34.81027603149414
 20
-219.9637451171875
 11
-21.81029510498047
 21
-219.9637451171875
  0
LINE
  8
0
  6
DASHED
 62
     7
 10
-9.810276031494141
 20
-219.9637451171875
 11
3.189703464508057
 21
-219.9637451171875
  0
LINE
  8
0
  6
DASHED
 62
     7
 10
-9.810276031494141
 20
-217.9637298583984
 11
3.189703464508057
 21
-217.9637298583984
  0
LINE
  8
0
  6
CONTINUOUS
 62
     7
 10
3.189703464508057
 20
-217.9637298583984
 11
5.189723968505859
 21
-217.9637298583984
  0
LINE
  8
0
  6
CENTER
 62
     7
 10
4.189764499664307
 20
-192.9848937988281
 11
4.189764499664307
 21
-244.9637451171875
  0
LINE
  8
0
  6
CENTER
 62
     7
 10
-15.81023502349854
 20
-196.0257568359375
 11
-15.81023502349854
 21
-227.1389770507813
  0
LINE
  8
0
  6
CONTINUOUS
 62
     7
 10
25.68981742858887
 20
-248.4637756347656
 11
25.68981742858887
 21
-267.4637756347656
  0
LINE
  8
0
  6
CONTINUOUS
 62
     7
 10
-17.31026268005371
 20
-248.4637756347656
 11
-17.31026268005371
 21
-267.4637756347656
  0
LINE
  8
0
  6
CENTER
 62
     7
 10
-23.31022262573242
 20
-248.4637756347656
 11
-23.31022262573242
 21
-262.4637756347656
  0
LINE
  8
0
  6
CENTER
 62
     7
 10
31.68977546691895
 20
-248.4637756347656
 11
31.68977546691895
 21
-262.4637756347656
  0
LINE
  8
0
  6
CENTER
 62
     7
 10
-29.37091064453125
 20
-255.4637603759766
 11
-16.31020164489746
 21
-255.4637603759766
  0
LINE
  8
0
  6
CENTER
 62
     7
 10
24.68975639343262
 20
-255.4637603759766
 11
38.68979644775391
 21
-255.4637603759766
  0
LINE
  8
0
  6
CONTINUOUS
 62
     7
 10
-30.81022071838379
 20
-248.4637756347656
 11
-17.31026268005371
 21
-248.4637756347656
  0
LINE
  8
0
  6
CONTINUOUS
 62
     7
 10
25.6897144317627
 20
-248.4637756347656
 11
39.18977737426758
 21
-248.4637756347656
  0
LINE
  8
0
  6
CENTER
 62
     7
 10
-115.0908889770508
 20
-260.4637756347656
 11
-26.53989601135254
 21
-260.4637756347656
  0
LINE
  8
0
  6
CONTINUOUS
 62
     7
 10
-23.31009101867676
 20
-253.1523284912109
 11
-25.31186676025391
 21
-254.3080444335938
  0
LINE
  8
0
  6
CONTINUOUS
 62
     7
 10
-25.31197166442871
 20
-254.3080444335938
 11
-25.31197166442871
 21
-256.6195068359375
  0
LINE
  8
0
  6
CONTINUOUS
 62
     7
 10
-23.31026268005371
 20
-257.7750854492188
 11
-25.31199455261231
 21
-256.619384765625
  0
LINE
  8
0
  6
CONTINUOUS
 62
     7
 10
-23.31007385253906
 20
-257.7752685546875
 11
-21.30834007263184
 21
-256.6195678710938
  0
LINE
  8
0
  6
CONTINUOUS
 62
     7
 10
-21.3084716796875
 20
-254.3080444335938
 11
-21.3084716796875
 21
-256.6195068359375
  0
LINE
  8
0
  6
CONTINUOUS
 62
     7
 10
-23.31011199951172
 20
-253.15234375
 11
-21.30829238891602
 21
-254.3080902099609
  0
LINE
  8
0
  6
CONTINUOUS
 62
     7
 10
31.68999862670898
 20
-253.1523132324219
 11
29.68826484680176
 21
-254.3080139160156
  0
LINE
  8
0
  6
CONTINUOUS
 62
     7
 10
29.68802642822266
 20
-254.3080444335938
 11
29.68802642822266
 21
-256.6195068359375
  0
LINE
  8
0
  6
CONTINUOUS
 62
     7
 10
31.68988418579102
 20
-257.7750854492188
 11
29.68806457519531
 21
-256.6193542480469
  0
LINE
  8
0
  6
CONTINUOUS
 62
     7
 10
31.6899585723877
 20
-257.7752685546875
 11
33.69169235229492
 21
-256.6195678710938
  0
LINE
  8
0
  6
CONTINUOUS
 62
     7
 10
33.69152450561523
 20
-254.3080444335938
 11
33.69152450561523
 21
-256.6195068359375
  0
LINE
  8
0
  6
CONTINUOUS
 62
     7
 10
31.68974494934082
 20
-253.1521301269531
 11
33.69156265258789
 21
-254.3078765869141
  0
LINE
  8
0
  6
CONTINUOUS
 62
     7
 10
-60.98874664306641
 20
-263.7137756347656
 11
-45.81022262573242
 21
-263.7137756347656
  0
LINE
  8
0
  6
CONTINUOUS
 62
     7
 10
-60.98874664306641
 20
-257.2137451171875
 11
-45.81022262573242
 21
-257.2137451171875
  0
LINE
  8
0
  6
CONTINUOUS
 62
     7
 10
-31.8101806640625
 20
-254.4637603759766
 11
-31.8101806640625
 21
-266.4637756347656
  0
LINE
  8
0
  6
CONTINUOUS
 62
     7
 10
-33.81019973754883
 20
-254.4637603759766
 11
-33.81019973754883
 21
-266.4637756347656
  0
LINE
  8
0
  6
CONTINUOUS
 62
     7
 10
-34.81026077270508
 20
-253.9637756347656
 11
-34.81026077270508
 21
-266.9637756347656
  0
LINE
  8
0
  6
CONTINUOUS
 62
     7
 10
-43.81019973754883
 20
-255.9637756347656
 11
-43.81019973754883
 21
-264.9637756347656
  0
LINE
  8
0
  6
CONTINUOUS
 62
     7
 10
-45.81022262573242
 20
-255.9637756347656
 11
-45.81022262573242
 21
-264.9637756347656
  0
LINE
  8
0
  6
CONTINUOUS
 62
     7
 10
-41.8101806640625
 20
-253.9637603759766
 11
-34.81026077270508
 21
-253.9637603759766
  0
LINE
  8
0
  6
CONTINUOUS
 62
     7
 10
-41.8101806640625
 20
-266.9637756347656
 11
-34.81026077270508
 21
-266.9637756347656
  0
LINE
  8
0
  6
CONTINUOUS
 62
     7
 10
-33.31022262573242
 20
-253.9637603759766
 11
-32.31026077270508
 21
-253.9637603759766
  0
LINE
  8
0
  6
CONTINUOUS
 62
     7
 10
-33.31022262573242
 20
-266.9637756347656
 11
-32.31026077270508
 21
-266.9637756347656
  0
LINE
  8
0
  6
CONTINUOUS
 62
     7
 10
-33.31011199951172
 20
-253.9638671875
 11
-33.81013870239258
 21
-254.4638977050781
  0
LINE
  8
0
  6
CONTINUOUS
 62
     7
 10
-32.31010437011719
 20
-253.9637298583984
 11
-31.81007957458496
 21
-254.4637603759766
  0
LINE
  8
0
  6
CONTINUOUS
 62
     7
 10
-33.81018829345703
 20
-266.4637451171875
 11
-33.31019592285156
 21
-266.9637145996094
  0
LINE
  8
0
  6
CONTINUOUS
 62
     7
 10
-32.31025314331055
 20
-266.9638366699219
 11
-31.81022262573242
 21
-266.4638061523438
  0
LINE
  8
0
  6
CONTINUOUS
 62
     7
 10
-41.8101806640625
 20
-256.5174560546875
 11
-34.81026077270508
 21
-256.5174560546875
  0
LINE
  8
0
  6
CONTINUOUS
 62
     7
 10
-41.8101806640625
 20
-257.9635925292969
 11
-34.81026077270508
 21
-257.9635925292969
  0
LINE
  8
0
  6
CONTINUOUS
 62
     7
 10
-41.8101806640625
 20
-262.963623046875
 11
-34.81026077270508
 21
-262.963623046875
  0
LINE
  8
0
  6
CONTINUOUS
 62
     7
 10
-41.8101806640625
 20
-264.4097595214844
 11
-34.81026077270508
 21
-264.4097595214844
  0
LINE
  8
0
  6
CONTINUOUS
 62
     7
 10
-33.31022262573242
 20
-256.5174560546875
 11
-32.31026077270508
 21
-256.5174560546875
  0
LINE
  8
0
  6
CONTINUOUS
 62
     7
 10
-33.31022262573242
 20
-257.9635925292969
 11
-32.31026077270508
 21
-257.9635925292969
  0
LINE
  8
0
  6
CONTINUOUS
 62
     7
 10
-33.31022262573242
 20
-262.963623046875
 11
-32.31026077270508
 21
-262.963623046875
  0
LINE
  8
0
  6
CONTINUOUS
 62
     7
 10
-33.31022262573242
 20
-264.4097595214844
 11
-32.31026077270508
 21
-264.4097595214844
  0
LINE
  8
0
  6
CONTINUOUS
 62
     7
 10
-43.81012344360352
 20
-255.9638214111328
 11
-41.81013107299805
 21
-253.9638214111328
  0
LINE
  8
0
  6
CONTINUOUS
 62
     7
 10
-43.81023788452148
 20
-264.9637451171875
 11
-41.81024551391602
 21
-266.9637451171875
  0
LINE
  8
0
  6
CONTINUOUS
 62
     7
 10
-41.8101806640625
 20
-256.5174560546875
 11
-41.8101806640625
 21
-257.9635925292969
  0
LINE
  8
0
  6
CONTINUOUS
 62
     7
 10
-32.31026077270508
 20
-256.5174560546875
 11
-32.31026077270508
 21
-257.9635925292969
  0
LINE
  8
0
  6
CONTINUOUS
 62
     7
 10
-41.8101806640625
 20
-262.963623046875
 11
-41.8101806640625
 21
-264.4097595214844
  0
LINE
  8
0
  6
CONTINUOUS
 62
     7
 10
-32.31026077270508
 20
-262.963623046875
 11
-32.31026077270508
 21
-264.4097595214844
  0
LINE
  8
0
  6
CONTINUOUS
 62
     7
 10
-33.31022262573242
 20
-256.5174560546875
 11
-33.31022262573242
 21
-257.9635925292969
  0
LINE
  8
0
  6
CONTINUOUS
 62
     7
 10
-33.31022262573242
 20
-262.963623046875
 11
-33.31022262573242
 21
-264.4097595214844
  0
LINE
  8
0
  6
CONTINUOUS
 62
     7
 10
-34.81026077270508
 20
-255.4637756347656
 11
-33.81019973754883
 21
-255.4637756347656
  0
LINE
  8
0
  6
CONTINUOUS
 62
     7
 10
-34.81026077270508
 20
-265.4637756347656
 11
-33.81019973754883
 21
-265.4637756347656
  0
LINE
  8
0
  6
CONTINUOUS
 62
     7
 10
-45.81022262573242
 20
-255.9637756347656
 11
-43.81019973754883
 21
-255.9637756347656
  0
LINE
  8
0
  6
CONTINUOUS
 62
     7
 10
-45.81022262573242
 20
-264.9637756347656
 11
-43.81019973754883
 21
-264.9637756347656
  0
LINE
  8
0
  6
CONTINUOUS
 62
     7
 10
-30.81022071838379
 20
-228.4637756347656
 11
-30.81022071838379
 21
-267.4637756347656
  0
LINE
  8
0
  6
CONTINUOUS
 62
     7
 10
-30.81022071838379
 20
-229.4637756347656
 11
39.18977737426758
 21
-229.4637756347656
  0
LINE
  8
0
  6
CONTINUOUS
 62
     7
 10
-30.81022071838379
 20
-228.4637603759766
 11
39.18977737426758
 21
-228.4637603759766
  0
LINE
  8
0
  6
CONTINUOUS
 62
     7
 10
39.18977737426758
 20
-228.4637756347656
 11
39.18977737426758
 21
-267.4637756347656
  0
LINE
  8
0
  6
CONTINUOUS
 62
     7
 10
-30.81022071838379
 20
-267.4637756347656
 11
39.18977737426758
 21
-267.4637756347656
  0
LINE
  8
0
  6
CONTINUOUS
 62
     7
 10
-21.81019401550293
 20
-219.9637451171875
 11
-9.810276031494141
 21
-219.9637451171875
  0
LINE
  8
0
  6
CONTINUOUS
 62
     7
 10
43.18975448608398
 20
-219.9637451171875
 11
60.18975830078125
 21
-219.9637451171875
  0
LINE
  8
0
  6
CENTER
 62
     7
 10
124.1897735595703
 20
-194.9964294433594
 11
124.1897735595703
 21
-227.9181060791016
  0
LINE
  8
0
  6
CENTER
 62
     7
 10
131.5032806396484
 20
-210.9637756347656
 11
161.4705505371094
 21
-210.9637756347656
  0
LINE
  8
0
  6
CONTINUOUS
 62
     7
 10
110.1921997070313
 20
-210.0991363525391
 11
110.1921997070313
 21
-211.8283996582031
  0
LINE
  8
0
  6
CONTINUOUS
 62
     7
 10
111.6897964477539
 20
-212.6930236816406
 11
110.1922378540039
 21
-211.8283996582031
  0
LINE
  8
0
  6
CONTINUOUS
 62
     7
 10
111.6897964477539
 20
-209.2345123291016
 11
110.1921997070313
 21
-210.0991516113281
  0
LINE
  8
0
  6
CONTINUOUS
 62
     7
 10
111.689826965332
 20
-209.2345123291016
 11
113.1874008178711
 21
-210.0991363525391
  0
LINE
  8
0
  6
CONTINUOUS
 62
     7
 10
113.1873474121094
 20
-210.0991363525391
 11
113.1873474121094
 21
-211.8283996582031
  0
LINE
  8
0
  6
CONTINUOUS
 62
     7
 10
111.6897964477539
 20
-212.6930694580078
 11
113.187370300293
 21
-211.8284454345703
  0
LINE
  8
0
  6
CONTINUOUS
 62
     7
 10
135.1921997070313
 20
-210.0991363525391
 11
135.1921997070313
 21
-211.8283996582031
  0
LINE
  8
0
  6
CONTINUOUS
 62
     7
 10
136.6898040771484
 20
-212.6930084228516
 11
135.1922454833984
 21
-211.8283996582031
  0
LINE
  8
0
  6
CONTINUOUS
 62
     7
 10
136.6897735595703
 20
-209.2344970703125
 11
135.1922149658203
 21
-210.09912109375
  0
LINE
  8
0
  6
CONTINUOUS
 62
     7
 10
136.6898345947266
 20
-209.2345581054688
 11
138.1873931884766
 21
-210.0991668701172
  0
LINE
  8
0
  6
CONTINUOUS
 62
     7
 10
138.1873474121094
 20
-210.0991363525391
 11
138.1873474121094
 21
-211.8283996582031
  0
LINE
  8
0
  6
CONTINUOUS
 62
     7
 10
136.6898040771484
 20
-212.6930694580078
 11
138.1873779296875
 21
-211.8284454345703
  0
LINE
  8
0
  6
CONTINUOUS
 62
     7
 10
106.1897659301758
 20
-205.9637756347656
 11
142.1898040771484
 21
-205.9637756347656
  0
LINE
  8
0
  6
CONTINUOUS
 62
     7
 10
105.1897811889648
 20
-206.9637756347656
 11
105.1897811889648
 21
-226.9637756347656
  0
LINE
  8
0
  6
CONTINUOUS
 62
     7
 10
143.1897583007813
 20
-206.9637756347656
 11
143.1897583007813
 21
-226.9637756347656
  0
LINE
  8
0
  6
CENTER
 62
     7
 10
136.6897735595703
 20
-206.3238067626953
 11
136.6897735595703
 21
-215.6631317138672
  0
LINE
  8
0
  6
CENTER
 62
     7
 10
111.6897735595703
 20
-206.3238067626953
 11
111.6897735595703
 21
-215.6631317138672
  0
LINE
  8
0
  6
CONTINUOUS
 62
     7
 10
118.1897659301758
 20
-216.4637756347656
 11
118.1897659301758
 21
-226.9637756347656
  0
LINE
  8
0
  6
CONTINUOUS
 62
     7
 10
105.1897583007813
 20
-222.9189605712891
 11
118.1897659301758
 21
-222.9189605712891
  0
LINE
  8
0
  6
CONTINUOUS
 62
     7
 10
105.1897583007813
 20
-226.3513793945313
 11
118.1897659301758
 21
-226.3513793945313
  0
LINE
  8
0
  6
CONTINUOUS
 62
     7
 10
105.1897583007813
 20
-226.9637756347656
 11
118.1897659301758
 21
-226.9637756347656
  0
LINE
  8
0
  6
CONTINUOUS
 62
     7
 10
130.1897888183594
 20
-226.3513793945313
 11
143.1897583007813
 21
-226.3513793945313
  0
LINE
  8
0
  6
CONTINUOUS
 62
     7
 10
130.1897888183594
 20
-226.9637756347656
 11
143.1897583007813
 21
-226.9637756347656
  0
LINE
  8
0
  6
CONTINUOUS
 62
     7
 10
130.1897888183594
 20
-216.4637756347656
 11
130.1897888183594
 21
-226.9637756347656
  0
LINE
  8
0
  6
CONTINUOUS
 62
     7
 10
130.1897888183594
 20
-222.9189605712891
 11
143.1897583007813
 21
-222.9189605712891
  0
LINE
  8
0
  6
CONTINUOUS
 62
     7
 10
118.6897430419922
 20
-215.9637756347656
 11
129.6897583007813
 21
-215.9637756347656
  0
LINE
  8
0
  6
CENTER
 62
     7
 10
106.1836395263672
 20
-210.9637756347656
 11
116.9529342651367
 21
-210.9637756347656
  0
LINE
  8
0
  6
CONTINUOUS
 62
     7
 10
143.1897583007813
 20
-219.9637451171875
 11
150.1897888183594
 21
-219.9637451171875
  0
LINE
  8
0
  6
CONTINUOUS
 62
     7
 10
118.1897659301758
 20
-219.9637451171875
 11
130.1897888183594
 21
-219.9637451171875
  0
LINE
  8
0
  6
CENTER
 62
     7
 10
-115.8102340698242
 20
-194.9964294433594
 11
-115.8102340698242
 21
-227.9181060791016
  0
LINE
  8
0
  6
CONTINUOUS
 62
     7
 10
-126.8126831054688
 20
-210.0991363525391
 11
-126.8126831054688
 21
-211.8283996582031
  0
LINE
  8
0
  6
CONTINUOUS
 62
     7
 10
-128.3102416992188
 20
-209.2344970703125
 11
-129.8078002929688
 21
-210.09912109375
  0
LINE
  8
0
  6
CONTINUOUS
 62
     7
 10
-128.3102264404297
 20
-212.6930389404297
 11
-126.8126525878906
 21
-211.8284301757813
  0
LINE
  8
0
  6
CONTINUOUS
 62
     7
 10
-129.8078308105469
 20
-210.0991363525391
 11
-129.8078308105469
 21
-211.8283996582031
  0
LINE
  8
0
  6
CONTINUOUS
 62
     7
 10
-128.3102264404297
 20
-212.6930236816406
 11
-129.8078002929688
 21
-211.8283996582031
  0
LINE
  8
0
  6
CONTINUOUS
 62
     7
 10
-128.3102416992188
 20
-209.2344970703125
 11
-126.8126602172852
 21
-210.09912109375
  0
LINE
  8
0
  6
CONTINUOUS
 62
     7
 10
-104.8078079223633
 20
-210.0991363525391
 11
-104.8078079223633
 21
-211.8283996582031
  0
LINE
  8
0
  6
CONTINUOUS
 62
     7
 10
-103.3102188110352
 20
-212.6930084228516
 11
-104.8077926635742
 21
-211.8283843994141
  0
LINE
  8
0
  6
CONTINUOUS
 62
     7
 10
-103.3102416992188
 20
-209.2345275878906
 11
-104.8078155517578
 21
-210.0991516113281
  0
LINE
  8
0
  6
CONTINUOUS
 62
     7
 10
-103.3102111816406
 20
-209.2344818115234
 11
-101.8126373291016
 21
-210.0991058349609
  0
LINE
  8
0
  6
CONTINUOUS
 62
     7
 10
-101.8126602172852
 20
-210.0991363525391
 11
-101.8126602172852
 21
-211.8283996582031
  0
LINE
  8
0
  6
CONTINUOUS
 62
     7
 10
-103.3102188110352
 20
-212.6930236816406
 11
-101.8126449584961
 21
-211.8283996582031
  0
LINE
  8
0
  6
CONTINUOUS
 62
     7
 10
-133.8102569580078
 20
-205.9637756347656
 11
-97.81022644042969
 21
-205.9637756347656
  0
LINE
  8
0
  6
CONTINUOUS
 62
     7
 10
-134.8102416992188
 20
-206.9637756347656
 11
-134.8102416992188
 21
-226.9637756347656
  0
LINE
  8
0
  6
CONTINUOUS
 62
     7
 10
-96.81024169921875
 20
-206.9637756347656
 11
-96.81024169921875
 21
-226.9637756347656
  0
LINE
  8
0
  6
CENTER
 62
     7
 10
-109.1260681152344
 20
-210.9637756347656
 11
-98.62425994873047
 21
-210.9637756347656
  0
LINE
  8
0
  6
CENTER
 62
     7
 10
-103.3102340698242
 20
-206.3238067626953
 11
-103.3102340698242
 21
-215.6631317138672
  0
LINE
  8
0
  6
CENTER
 62
     7
 10
-128.3102264404297
 20
-206.3238067626953
 11
-128.3102264404297
 21
-215.6631317138672
  0
LINE
  8
0
  6
CENTER
 62
     7
 10
-132.8161773681641
 20
-210.9637756347656
 11
-123.0470657348633
 21
-210.9637756347656
  0
LINE
  8
0
  6
CONTINUOUS
 62
     7
 10
-121.8102416992188
 20
-216.4637756347656
 11
-121.8102416992188
 21
-226.9637756347656
  0
LINE
  8
0
  6
CONTINUOUS
 62
     7
 10
-134.8102416992188
 20
-222.9189605712891
 11
-121.8102416992188
 21
-222.9189605712891
  0
LINE
  8
0
  6
CONTINUOUS
 62
     7
 10
-134.8102416992188
 20
-226.3513793945313
 11
-121.8102416992188
 21
-226.3513793945313
  0
LINE
  8
0
  6
CONTINUOUS
 62
     7
 10
-134.8102416992188
 20
-226.9637756347656
 11
-121.8102416992188
 21
-226.9637756347656
  0
LINE
  8
0
  6
CONTINUOUS
 62
     7
 10
-109.8102188110352
 20
-226.3513793945313
 11
-96.81024169921875
 21
-226.3513793945313
  0
LINE
  8
0
  6
CONTINUOUS
 62
     7
 10
-109.8102188110352
 20
-226.9637756347656
 11
-96.81024169921875
 21
-226.9637756347656
  0
LINE
  8
0
  6
CONTINUOUS
 62
     7
 10
-109.8102493286133
 20
-216.4637756347656
 11
-109.8102493286133
 21
-226.9637756347656
  0
LINE
  8
0
  6
CONTINUOUS
 62
     7
 10
-109.8102188110352
 20
-222.9189605712891
 11
-96.81024169921875
 21
-222.9189605712891
  0
LINE
  8
0
  6
CONTINUOUS
 62
     7
 10
-121.3102645874023
 20
-215.9637756347656
 11
-110.3102493286133
 21
-215.9637756347656
  0
LINE
  8
0
  6
CONTINUOUS
 62
     7
 10
-96.81024169921875
 20
-219.9637451171875
 11
-89.81023406982422
 21
-219.9637451171875
  0
LINE
  8
0
  6
CONTINUOUS
 62
     7
 10
-121.8102416992188
 20
-219.9637451171875
 11
-109.8102493286133
 21
-219.9637451171875
  0
LINE
  8
0
  6
DASHED
 62
     7
 10
0.1825254410505295
 20
-236.0230255126953
 11
8.197003364562988
 21
-236.0230255126953
  0
LINE
  8
0
  6
DASHED
 62
     7
 10
0.1825254410505295
 20
-236.0230255126953
 11
4.189764499664307
 21
-242.9637756347656
  0
LINE
  8
0
  6
DASHED
 62
     7
 10
4.189764499664307
 20
-242.9637756347656
 11
8.197003364562988
 21
-236.0230255126953
  0
LINE
  8
0
  6
HIDDEN
 62
     7
 10
-420.5
 20
-607
 11
420.5
 21
-607
  0
LINE
  8
0
  6
HIDDEN
 62
     7
 10
420.5
 20
-13
 11
420.5
 21
-607
  0
LINE
  8
0
  6
CONTINUOUS
 62
     7
 10
192.1897430419922
 20
-129.5247955322266
 11
192.1897430419922
 21
-219.9637451171875
  0
LINE
  8
0
  6
CONTINUOUS
 62
     7
 10
-183.8102569580078
 20
-129.5247955322266
 11
-183.8102569580078
 21
-219.9637451171875
  0
LINE
  8
0
  6
CONTINUOUS
 62
     7
 10
-70.81021881103516
 20
-142.2243347167969
 11
-70.81021881103516
 21
-194.9964294433594
  0
LINE
  8
0
  6
CONTINUOUS
 62
     7
 10
79.18977355957031
 20
-141.7141418457031
 11
79.18977355957031
 21
-194.7154388427734
  0
LINE
  8
0
  6
CONTINUOUS
 62
     7
 10
4.189764499664307
 20
-141.7141418457031
 11
4.189764499664307
 21
-192.9848937988281
  0
LINE
  8
0
  6
CONTINUOUS
 62
     7
 10
-160.8102416992188
 20
-141.6233367919922
 11
-160.8102416992188
 21
-194.9964294433594
  0
LINE
  8
0
  6
CONTINUOUS
 62
     7
 10
-115.8102340698242
 20
-152.7026977539063
 11
-115.8102340698242
 21
-194.9964294433594
  0
LINE
  8
0
  6
CONTINUOUS
 62
     7
 10
124.1897735595703
 20
-152.9382781982422
 11
124.1897735595703
 21
-194.0666198730469
  0
LINE
  8
0
  6
CONTINUOUS
 62
     7
 10
169.1897735595703
 20
-141.7141418457031
 11
169.1897735595703
 21
-194.9705352783203
  0
LINE
  8
0
  6
CONTINUOUS
 62
     7
 10
-30.81022071838379
 20
-268.6722412109375
 11
-30.81022071838379
 21
-313.4236145019531
  0
LINE
  8
0
  6
CONTINUOUS
 62
     7
 10
-0.5598932504653931
 20
-489.7942199707031
 11
-0.5598932504653931
 21
-500.2942199707031
  0
LINE
  8
0
  6
CONTINUOUS
 62
     7
 10
-25.55989265441895
 20
-480.2942199707031
 11
-25.55989265441895
 21
-500.2942199707031
  0
LINE
  8
0
  6
CONTINUOUS
 62
     7
 10
-99.81593322753906
 20
-491.294189453125
 11
-82.81591033935547
 21
-491.294189453125
  0
LINE
  8
0
  6
CONTINUOUS
 62
     7
 10
-151.3159942626953
 20
-491.294189453125
 11
-110.3159942626953
 21
-491.294189453125
  0
LINE
  8
0
  6
CONTINUOUS
 62
     7
 10
-81.81595611572266
 20
-480.2941284179688
 11
-81.81595611572266
 21
-490.2942199707031
  0
LINE
  8
0
  6
CONTINUOUS
 62
     7
 10
-179.8159332275391
 20
-480.2941284179688
 11
-179.8159332275391
 21
-490.2942199707031
  0
LINE
  8
0
  6
CENTER
 62
     7
 10
-98.31599426269531
 20
-480.8106079101563
 11
-98.31599426269531
 21
-487.6846008300781
  0
LINE
  8
0
  6
CENTER
 62
     7
 10
-123.3159942626953
 20
-480.5888671875
 11
-123.3159942626953
 21
-487.6846008300781
  0
LINE
  8
0
  6
CONTINUOUS
 62
     7
 10
12.44008636474609
 20
-480.2942199707031
 11
12.44008636474609
 21
-500.2942199707031
  0
LINE
  8
0
  6
CENTER
 62
     7
 10
-130.8159942626953
 20
-475.7106323242188
 11
-130.8159942626953
 21
-495.88916015625
  0
LINE
  8
0
  6
CONTINUOUS
 62
     7
 10
-178.8159637451172
 20
-491.294189453125
 11
-161.8159484863281
 21
-491.294189453125
  0
LINE
  8
0
  6
CONTINUOUS
 62
     7
 10
-109.816032409668
 20
-493.294189453125
 11
-100.8159942626953
 21
-493.294189453125
  0
LINE
  8
0
  6
CENTER
 62
     7
 10
-86.81595611572266
 20
-480.5888671875
 11
-86.81595611572266
 21
-488.3497924804688
  0
LINE
  8
0
  6
CENTER
 62
     7
 10
-178.7355041503906
 20
-484.294189453125
 11
-82.82224273681641
 21
-484.294189453125
  0
LINE
  8
0
  6
CENTER
 62
     7
 10
-174.8159332275391
 20
-480.8106079101563
 11
-174.8159332275391
 21
-487.6846008300781
  0
LINE
  8
0
  6
CONTINUOUS
 62
     7
 10
-178.8159637451172
 20
-479.2941589355469
 11
-82.81591033935547
 21
-479.2941589355469
  0
LINE
  8
0
  6
CENTER
 62
     7
 10
-163.3159942626953
 20
-480.5888671875
 11
-163.3159942626953
 21
-487.6846008300781
  0
LINE
  8
0
  6
CENTER
 62
     7
 10
-138.3159942626953
 20
-480.8106079101563
 11
-138.3159942626953
 21
-487.6846008300781
  0
LINE
  8
0
  6
CONTINUOUS
 62
     7
 10
-160.8159942626953
 20
-492.2942504882813
 11
-160.8159942626953
 21
-493.294189453125
  0
LINE
  8
0
  6
CONTINUOUS
 62
     7
 10
-100.8159942626953
 20
-492.2942504882813
 11
-100.8159942626953
 21
-493.294189453125
  0
LINE
  8
0
  6
CONTINUOUS
 62
     7
 10
-160.8159942626953
 20
-493.294189453125
 11
-151.8159484863281
 21
-493.294189453125
  0
LINE
  8
0
  6
CONTINUOUS
 62
     7
 10
47.50142669677734
 20
-499.5062561035156
 11
47.50142669677734
 21
-499.90625
  0
LINE
  8
0
  6
CENTER
 62
     7
 10
45.82977294921875
 20
-498.1062622070313
 11
50.89096069335938
 21
-498.1062622070313
  0
LINE
  8
0
  6
CONTINUOUS
 62
     7
 10
47.50142669677734
 20
-479.3062438964844
 11
47.50142669677734
 21
-496.2732238769531
  0
LINE
  8
0
  6
CONTINUOUS
 62
     7
 10
47.50142669677734
 20
-479.3062438964844
 11
47.90142440795898
 21
-479.3062438964844
  0
LINE
  8
0
  6
CENTER
 62
     7
 10
45.52607345581055
 20
-484.3062438964844
 11
50.68852615356445
 21
-484.3062438964844
  0
LINE
  8
0
  6
CENTER
 62
     7
 10
-6.559928417205811
 20
-475.4888916015625
 11
-6.559928417205811
 21
-503.4283142089844
  0
LINE
  8
0
  6
CONTINUOUS
 62
     7
 10
-24.55991363525391
 20
-479.294189453125
 11
11.44010162353516
 21
-479.294189453125
  0
LINE
  8
0
  6
CENTER
 62
     7
 10
5.940071105957031
 20
-480.8106689453125
 11
5.940071105957031
 21
-487.6846923828125
  0
LINE
  8
0
  6
CENTER
 62
     7
 10
-22.82575225830078
 20
-484.294189453125
 11
9.307636260986328
 21
-484.294189453125
  0
LINE
  8
0
  6
CENTER
 62
     7
 10
-19.05990219116211
 20
-481.0324401855469
 11
-19.05990219116211
 21
-487.6846923828125
  0
LINE
  8
0
  6
CONTINUOUS
 62
     7
 10
-0.5598932504653931
 20
-499.6818237304688
 11
12.44011116027832
 21
-499.6818237304688
  0
LINE
  8
0
  6
CONTINUOUS
 62
     7
 10
-25.55989837646484
 20
-500.2942199707031
 11
-12.55989360809326
 21
-500.2942199707031
  0
LINE
  8
0
  6
CONTINUOUS
 62
     7
 10
-25.55989837646484
 20
-499.6818237304688
 11
-12.55989360809326
 21
-499.6818237304688
  0
LINE
  8
0
  6
CONTINUOUS
 62
     7
 10
-25.55989837646484
 20
-496.2494201660156
 11
-12.55989360809326
 21
-496.2494201660156
  0
LINE
  8
0
  6
CONTINUOUS
 62
     7
 10
-0.5598932504653931
 20
-496.2494201660156
 11
12.44011116027832
 21
-496.2494201660156
  0
LINE
  8
0
  6
CONTINUOUS
 62
     7
 10
-0.5598932504653931
 20
-500.2942199707031
 11
12.44011116027832
 21
-500.2942199707031
  0
LINE
  8
0
  6
CONTINUOUS
 62
     7
 10
-12.55988788604736
 20
-489.7942199707031
 11
-12.55988788604736
 21
-500.2942199707031
  0
LINE
  8
0
  6
CONTINUOUS
 62
     7
 10
-12.05988883972168
 20
-489.294189453125
 11
-1.059898257255554
 21
-489.294189453125
  0
LINE
  8
0
  6
CONTINUOUS
 62
     7
 10
-151.8159942626953
 20
-491.794189453125
 11
-151.8159942626953
 21
-493.294189453125
  0
LINE
  8
0
  6
CONTINUOUS
 62
     7
 10
-109.8159942626953
 20
-491.794189453125
 11
-109.8159942626953
 21
-493.294189453125
  0
LINE
  8
0
  6
CONTINUOUS
 62
     7
 10
47.90142440795898
 20
-479.3062438964844
 11
47.90142440795898
 21
-496.1263427734375
  0
LINE
  8
0
  6
CONTINUOUS
 62
     7
 10
5.440078735351563
 20
-482.294189453125
 11
6.4400634765625
 21
-482.294189453125
  0
LINE
  8
0
  6
CONTINUOUS
 62
     7
 10
5.440078735351563
 20
-486.294189453125
 11
6.4400634765625
 21
-486.294189453125
  0
LINE
  8
0
  6
CONTINUOUS
 62
     7
 10
251.5586090087891
 20
-478.6502685546875
 11
251.5586090087891
 21
-518.6502685546875
  0
LINE
  8
0
  6
CONTINUOUS
 62
     7
 10
236.5586090087891
 20
-478.6502685546875
 11
236.5586090087891
 21
-518.6502685546875
  0
LINE
  8
0
  6
CONTINUOUS
 62
     7
 10
191.5586090087891
 20
-478.6502685546875
 11
191.5586090087891
 21
-518.6502685546875
  0
LINE
  8
0
  6
CONTINUOUS
 62
     7
 10
176.5586090087891
 20
-478.6502685546875
 11
176.5586090087891
 21
-518.6502685546875
  0
LINE
  8
0
  6
CONTINUOUS
 62
     7
 10
131.5586090087891
 20
-478.6502685546875
 11
311.55859375
 21
-478.6502685546875
  0
LINE
  8
0
  6
CONTINUOUS
 62
     7
 10
206.5586090087891
 20
-478.6502685546875
 11
206.5586090087891
 21
-518.6502685546875
  0
LINE
  8
0
  6
CONTINUOUS
 62
     7
 10
266.55859375
 20
-478.6502685546875
 11
266.55859375
 21
-518.6502685546875
  0
LINE
  8
0
  6
CONTINUOUS
 62
     7
 10
131.5586090087891
 20
-510.6502685546875
 11
311.55859375
 21
-510.6502685546875
  0
LINE
  8
0
  6
CONTINUOUS
 62
     7
 10
131.5586090087891
 20
-502.6502685546875
 11
311.55859375
 21
-502.6502685546875
  0
LINE
  8
0
  6
CONTINUOUS
 62
     7
 10
131.5586090087891
 20
-494.6502685546875
 11
311.55859375
 21
-494.6502685546875
  0
LINE
  8
0
  6
CONTINUOUS
 62
     7
 10
131.5586090087891
 20
-486.6502685546875
 11
311.55859375
 21
-486.6502685546875
  0
LINE
  8
0
  6
CONTINUOUS
 62
     7
 10
131.5586090087891
 20
-518.6502685546875
 11
311.55859375
 21
-518.6502685546875
  0
LINE
  8
0
  6
CONTINUOUS
 62
     7
 10
221.5586090087891
 20
-478.6502685546875
 11
221.5586090087891
 21
-518.6502685546875
  0
LINE
  8
0
  6
CONTINUOUS
 62
     7
 10
281.55859375
 20
-478.6502685546875
 11
281.55859375
 21
-518.6502685546875
  0
LINE
  8
0
  6
CONTINUOUS
 62
     7
 10
296.55859375
 20
-478.6502685546875
 11
296.55859375
 21
-518.6502685546875
  0
LINE
  8
0
  6
CONTINUOUS
 62
     7
 10
311.55859375
 20
-478.6502685546875
 11
311.55859375
 21
-518.6502685546875
  0
LINE
  8
0
  6
CONTINUOUS
 62
     7
 10
131.5586090087891
 20
-478.6502685546875
 11
131.5586090087891
 21
-518.6502685546875
  0
LINE
  8
0
  6
CONTINUOUS
 62
     7
 10
30.18972206115723
 20
-219.9637451171875
 11
18.18980407714844
 21
-219.9637451171875
  0
LINE
  8
0
  6
DASHED
 62
     7
 10
34.18976211547852
 20
-217.9637298583984
 11
34.18976211547852
 21
-219.9637451171875
  0
LINE
  8
0
  6
CONTINUOUS
 62
     7
 10
25.18972206115723
 20
-218.4637603759766
 11
25.18972206115723
 21
-219.9637451171875
  0
LINE
  8
0
  6
CONTINUOUS
 62
     7
 10
24.68974304199219
 20
-217.9637298583984
 11
18.0914363861084
 21
-217.9637298583984
  0
LINE
  8
0
  6
CONTINUOUS
 62
     7
 10
38.18736267089844
 20
-210.0990905761719
 11
38.18736267089844
 21
-211.828369140625
  0
LINE
  8
0
  6
CONTINUOUS
 62
     7
 10
36.68975830078125
 20
-212.6930084228516
 11
38.18731307983398
 21
-211.8283996582031
  0
LINE
  8
0
  6
CONTINUOUS
 62
     7
 10
36.68961715698242
 20
-209.2345886230469
 11
38.18717193603516
 21
-210.0992126464844
  0
LINE
  8
0
  6
CONTINUOUS
 62
     7
 10
36.68965148925781
 20
-209.2344665527344
 11
35.19209671020508
 21
-210.0990905761719
  0
LINE
  8
0
  6
CONTINUOUS
 62
     7
 10
35.19216537475586
 20
-210.0990905761719
 11
35.19216537475586
 21
-211.828369140625
  0
LINE
  8
0
  6
CONTINUOUS
 62
     7
 10
36.68978500366211
 20
-212.6930084228516
 11
35.19223022460938
 21
-211.8283996582031
  0
LINE
  8
0
  6
CONTINUOUS
 62
     7
 10
13.18736362457275
 20
-210.0990905761719
 11
13.18736362457275
 21
-211.828369140625
  0
LINE
  8
0
  6
CONTINUOUS
 62
     7
 10
11.68981266021729
 20
-212.6929168701172
 11
13.18736743927002
 21
-211.8283081054688
  0
LINE
  8
0
  6
CONTINUOUS
 62
     7
 10
11.68964958190918
 20
-209.2344970703125
 11
13.18720436096191
 21
-210.0991058349609
  0
LINE
  8
0
  6
CONTINUOUS
 62
     7
 10
11.6896858215332
 20
-209.2344512939453
 11
10.19213008880615
 21
-210.0990600585938
  0
LINE
  8
0
  6
CONTINUOUS
 62
     7
 10
10.19216537475586
 20
-210.0990905761719
 11
10.19216537475586
 21
-211.828369140625
  0
LINE
  8
0
  6
CONTINUOUS
 62
     7
 10
11.68973922729492
 20
-212.6930694580078
 11
10.19218444824219
 21
-211.8284606933594
  0
LINE
  8
0
  6
CONTINUOUS
 62
     7
 10
43.18980407714844
 20
-206.9637145996094
 11
43.18980407714844
 21
-226.9637145996094
  0
LINE
  8
0
  6
CONTINUOUS
 62
     7
 10
5.189723968505859
 20
-206.9637145996094
 11
5.189723968505859
 21
-226.9637145996094
  0
LINE
  8
0
  6
CENTER
 62
     7
 10
17.50559997558594
 20
-210.9637603759766
 11
7.003790378570557
 21
-210.9637603759766
  0
LINE
  8
0
  6
CENTER
 62
     7
 10
11.68976402282715
 20
-206.3237609863281
 11
11.68976402282715
 21
-215.6631164550781
  0
LINE
  8
0
  6
CENTER
 62
     7
 10
36.68976211547852
 20
-206.3237609863281
 11
36.68976211547852
 21
-215.6631164550781
  0
LINE
  8
0
  6
CENTER
 62
     7
 10
41.19568252563477
 20
-210.9637603759766
 11
31.42659950256348
 21
-210.9637603759766
  0
LINE
  8
0
  6
CONTINUOUS
 62
     7
 10
30.18972206115723
 20
-216.4637451171875
 11
30.18972206115723
 21
-226.9637145996094
  0
LINE
  8
0
  6
CONTINUOUS
 62
     7
 10
43.18980407714844
 20
-222.9189147949219
 11
30.1898250579834
 21
-222.9189147949219
  0
LINE
  8
0
  6
CONTINUOUS
 62
     7
 10
43.18980407714844
 20
-226.3513793945313
 11
30.1898250579834
 21
-226.3513793945313
  0
LINE
  8
0
  6
CONTINUOUS
 62
     7
 10
43.18980407714844
 20
-226.9637756347656
 11
30.1898250579834
 21
-226.9637756347656
  0
LINE
  8
0
  6
CONTINUOUS
 62
     7
 10
18.18980407714844
 20
-226.3513793945313
 11
5.189825534820557
 21
-226.3513793945313
  0
LINE
  8
0
  6
CONTINUOUS
 62
     7
 10
18.18980407714844
 20
-226.9637756347656
 11
5.189825534820557
 21
-226.9637756347656
  0
LINE
  8
0
  6
CONTINUOUS
 62
     7
 10
18.18980407714844
 20
-216.4637451171875
 11
18.18980407714844
 21
-226.9637145996094
  0
LINE
  8
0
  6
CONTINUOUS
 62
     7
 10
18.18980407714844
 20
-222.9189147949219
 11
5.189825534820557
 21
-222.9189147949219
  0
LINE
  8
0
  6
CONTINUOUS
 62
     7
 10
29.68974304199219
 20
-215.9637603759766
 11
18.68978500366211
 21
-215.9637603759766
  0
LINE
  8
0
  6
DASHED
 62
     7
 10
43.18980407714844
 20
-217.9637298583984
 11
34.18976211547852
 21
-217.9637298583984
  0
LINE
  8
0
  6
DASHED
 62
     7
 10
43.18980407714844
 20
-219.9637451171875
 11
30.1898250579834
 21
-219.9637451171875
  0
LINE
  8
0
  6
DASHED
 62
     7
 10
18.18980407714844
 20
-219.9637451171875
 11
5.189825534820557
 21
-219.9637451171875
  0
LINE
  8
0
  6
DASHED
 62
     7
 10
18.18980407714844
 20
-217.9637298583984
 11
5.189825534820557
 21
-217.9637298583984
  0
LINE
  8
0
  6
CENTER
 62
     7
 10
24.18976402282715
 20
-196.0257568359375
 11
24.18976402282715
 21
-227.1389770507813
  0
LINE
  8
0
  6
CENTER
 62
     7
 10
12.99240875244141
 20
324.3680419921875
 11
26.99241065979004
 21
324.3680419921875
  0
LINE
  8
0
  6
CENTER
 62
     7
 10
-41.06825637817383
 20
324.3680419921875
 11
-28.00761222839356
 21
324.3680419921875
  0
LINE
  8
0
  6
CENTER
 62
     7
 10
-35.00761795043945
 20
331.3680114746094
 11
-35.00761795043945
 21
317.3680114746094
  0
LINE
  8
0
  6
CENTER
 62
     7
 10
19.99237823486328
 20
331.3680114746094
 11
19.99237823486328
 21
317.3680114746094
  0
LINE
  8
0
  6
CONTINUOUS
 62
     7
 10
-143.5382385253906
 20
296.4975280761719
 11
-143.5382385253906
 21
256.3182983398438
  0
LINE
  8
0
  6
CONTINUOUS
 62
     7
 10
-61.10477447509766
 20
198.7384948730469
 11
-131.5382537841797
 21
198.7384948730469
  0
LINE
  8
0
  6
CENTER
 62
     7
 10
-146.7882537841797
 20
299.3680114746094
 11
-146.7882537841797
 21
217.2384948730469
  0
LINE
  8
0
  6
CONTINUOUS
 62
     7
 10
-183.5100708007813
 20
369.732666015625
 11
-183.5100708007813
 21
368.0033874511719
  0
LINE
  8
0
  6
CONTINUOUS
 62
     7
 10
-185.0076293945313
 20
370.5972900390625
 11
-186.5051879882813
 21
369.732666015625
  0
LINE
  8
0
  6
CONTINUOUS
 62
     7
 10
-185.0075988769531
 20
367.1387634277344
 11
-183.5100402832031
 21
368.0033569335938
  0
LINE
  8
0
  6
CONTINUOUS
 62
     7
 10
-186.5052185058594
 20
369.732666015625
 11
-186.5052185058594
 21
368.0033874511719
  0
LINE
  8
0
  6
CONTINUOUS
 62
     7
 10
-195.5076293945313
 20
336.8680114746094
 11
-42.50759506225586
 21
336.8680114746094
  0
LINE
  8
0
  6
CONTINUOUS
 62
     7
 10
-185.0076141357422
 20
367.1387634277344
 11
-186.5051879882813
 21
368.0033874511719
  0
LINE
  8
0
  6
CONTINUOUS
 62
     7
 10
-185.0076141357422
 20
370.5972900390625
 11
-183.5100402832031
 21
369.732666015625
  0
LINE
  8
0
  6
CONTINUOUS
 62
     7
 10
39.04328155517578
 20
215.2876586914063
 11
36.24329376220703
 21
215.2876586914063
  0
LINE
  8
0
  6
CONTINUOUS
 62
     7
 10
39.04328155517578
 20
188.7876586914063
 11
36.24329376220703
 21
188.7876586914063
  0
LINE
  8
0
  6
CONTINUOUS
 62
     7
 10
37.94322204589844
 20
215.2876586914063
 11
37.94322204589844
 21
219.5876617431641
  0
LINE
  8
0
  6
CONTINUOUS
 62
     7
 10
50.54327011108398
 20
215.2876586914063
 11
50.54327011108398
 21
219.5876617431641
  0
LINE
  8
0
  6
CONTINUOUS
 62
     7
 10
52.24327850341797
 20
215.2876586914063
 11
49.44329071044922
 21
215.2876586914063
  0
LINE
  8
0
  6
CONTINUOUS
 62
     7
 10
52.24327850341797
 20
188.7876586914063
 11
49.44329071044922
 21
188.7876586914063
  0
LINE
  8
0
  6
CONTINUOUS
 62
     7
 10
49.44326400756836
 20
188.7876586914063
 11
49.44326400756836
 21
215.2876586914063
  0
LINE
  8
0
  6
CONTINUOUS
 62
     7
 10
39.04322814941406
 20
188.7876586914063
 11
39.04322814941406
 21
215.2876586914063
  0
LINE
  8
0
  6
CENTER
 62
     7
 10
44.24327087402344
 20
215.6356353759766
 11
44.24327087402344
 21
222.8726654052734
  0
LINE
  8
0
  6
CONTINUOUS
 62
     7
 10
50.54342269897461
 20
181.7876281738281
 11
52.24340438842773
 21
188.7876129150391
  0
LINE
  8
0
  6
CONTINUOUS
 62
     7
 10
36.24331665039063
 20
188.7876281738281
 11
37.94328689575195
 21
181.7876586914063
  0
LINE
  8
0
  6
CONTINUOUS
 62
     7
 10
36.24314880371094
 20
215.2876892089844
 11
37.94313812255859
 21
222.2877197265625
  0
LINE
  8
0
  6
CONTINUOUS
 62
     7
 10
52.24316024780273
 20
215.2876739501953
 11
50.54317092895508
 21
222.2877044677734
  0
LINE
  8
0
  6
CONTINUOUS
 62
     7
 10
50.54329681396484
 20
181.7876892089844
 11
37.94327545166016
 21
181.7876892089844
  0
LINE
  8
0
  6
CONTINUOUS
 62
     7
 10
50.54329681396484
 20
222.2876739501953
 11
37.94327545166016
 21
222.2876739501953
  0
LINE
  8
0
  6
CONTINUOUS
 62
     7
 10
36.24324417114258
 20
188.7876739501953
 11
36.24324417114258
 21
215.2876586914063
  0
LINE
  8
0
  6
CONTINUOUS
 62
     7
 10
52.24327850341797
 20
188.7876586914063
 11
52.24327850341797
 21
215.2876586914063
  0
LINE
  8
0
  6
CONTINUOUS
 62
     7
 10
47.08687591552734
 20
213.2008056640625
 11
41.74689102172852
 21
214.1423797607422
  0
LINE
  8
0
  6
CONTINUOUS
 62
     7
 10
47.08688735961914
 20
190.8746032714844
 11
41.74690246582031
 21
189.9330139160156
  0
LINE
  8
0
  6
CONTINUOUS
 62
     7
 10
47.1737060546875
 20
213.6932525634766
 11
41.83372116088867
 21
214.6348266601563
  0
LINE
  8
0
  6
CONTINUOUS
 62
     7
 10
47.17374801635742
 20
190.3822021484375
 11
41.83378601074219
 21
189.4406280517578
  0
LINE
  8
0
  6
CONTINUOUS
 62
     7
 10
40.57322692871094
 20
190.9176788330078
 11
40.57322692871094
 21
213.1576690673828
  0
LINE
  8
0
  6
CONTINUOUS
 62
     7
 10
47.91326522827148
 20
191.8592681884766
 11
47.91326522827148
 21
212.216064453125
  0
LINE
  8
0
  6
CONTINUOUS
 62
     7
 10
40.07327270507813
 20
190.9176788330078
 11
40.07327270507813
 21
213.1576690673828
  0
LINE
  8
0
  6
CONTINUOUS
 62
     7
 10
48.41326904296875
 20
191.8592681884766
 11
48.41326904296875
 21
212.216064453125
  0
LINE
  8
0
  6
CENTER
 62
     7
 10
44.24327087402344
 20
180.4720153808594
 11
44.24327087402344
 21
188.417724609375
  0
LINE
  8
0
  6
CENTER
 62
     7
 10
47.38045501708984
 20
185.3776702880859
 11
40.82398223876953
 21
185.3776702880859
  0
LINE
  8
0
  6
CENTER
 62
     7
 10
48.72536468505859
 20
218.6976776123047
 11
40.26360321044922
 21
218.6976776123047
  0
LINE
  8
0
  6
CONTINUOUS
 62
     7
 10
48.54327392578125
 20
221.5876770019531
 11
39.94326782226563
 21
221.5876770019531
  0
LINE
  8
0
  6
CONTINUOUS
 62
     7
 10
48.54327392578125
 20
182.4876861572266
 11
39.94326782226563
 21
182.4876861572266
  0
LINE
  8
0
  6
CENTER
 62
     7
 10
58.56896209716797
 20
202.0376739501953
 11
31.11679840087891
 21
202.0376739501953
  0
LINE
  8
0
  6
CONTINUOUS
 62
     7
 10
50.54327011108398
 20
184.4876708984375
 11
50.54327011108398
 21
188.7876586914063
  0
LINE
  8
0
  6
CONTINUOUS
 62
     7
 10
37.94322204589844
 20
184.4876708984375
 11
37.94322204589844
 21
188.7876586914063
  0
LINE
  8
0
  6
CONTINUOUS
 62
     7
 10
-26.10476493835449
 20
191.9884948730469
 11
-35.10476684570313
 21
191.9884948730469
  0
LINE
  8
0
  6
CONTINUOUS
 62
     7
 10
-23.54570007324219
 20
190.3384857177734
 11
-28.70477294921875
 21
190.3384857177734
  0
LINE
  8
0
  6
CONTINUOUS
 62
     7
 10
-28.70477294921875
 20
213.6384887695313
 11
-28.70477294921875
 21
215.3884887695313
  0
LINE
  8
0
  6
CONTINUOUS
 62
     7
 10
-28.70477294921875
 20
215.3884887695313
 11
-36.5047721862793
 21
215.3884887695313
  0
LINE
  8
0
  6
CONTINUOUS
 62
     7
 10
-36.50478744506836
 20
188.5884704589844
 11
-36.50478744506836
 21
215.3884887695313
  0
LINE
  8
0
  6
CONTINUOUS
 62
     7
 10
-150.0382537841797
 20
282.0462646484375
 11
-150.0382537841797
 21
217.2384948730469
  0
LINE
  8
0
  6
CONTINUOUS
 62
     7
 10
-143.5382385253906
 20
282.5209045410156
 11
-143.5382385253906
 21
217.2384796142578
  0
LINE
  8
0
  6
CONTINUOUS
 62
     7
 10
-150.0382537841797
 20
296.5174560546875
 11
-150.0382537841797
 21
255.8436279296875
  0
LINE
  8
0
  6
CONTINUOUS
 62
     7
 10
-38.10477066040039
 20
206.9884796142578
 11
-60.10477828979492
 21
206.9884796142578
  0
LINE
  8
0
  6
CENTER
 62
     7
 10
-20.10479354858398
 20
207.4443359375
 11
-20.10479354858398
 21
213.8870697021484
  0
LINE
  8
0
  6
CONTINUOUS
 62
     7
 10
-19.80477905273438
 20
209.0143890380859
 11
-19.80477905273438
 21
209.4384765625
  0
LINE
  8
0
  6
CONTINUOUS
 62
     7
 10
-18.38068962097168
 20
210.4384918212891
 11
-18.80476951599121
 21
210.4384918212891
  0
LINE
  8
0
  6
CENTER
 62
     7
 10
-16.57862663269043
 20
210.7384796142578
 11
-23.22269821166992
 21
210.7384796142578
  0
LINE
  8
0
  6
CONTINUOUS
 62
     7
 10
-18.38068962097168
 20
211.0385131835938
 11
-18.80476951599121
 21
211.0385131835938
  0
LINE
  8
0
  6
CONTINUOUS
 62
     7
 10
-21.40476608276367
 20
210.4384918212891
 11
-21.82887077331543
 21
210.4384918212891
  0
LINE
  8
0
  6
CONTINUOUS
 62
     7
 10
-20.40478134155273
 20
212.0384674072266
 11
-20.40478134155273
 21
212.4625701904297
  0
LINE
  8
0
  6
CONTINUOUS
 62
     7
 10
-21.40476608276367
 20
211.0385131835938
 11
-21.82887077331543
 21
211.0385131835938
  0
LINE
  8
0
  6
CONTINUOUS
 62
     7
 10
-19.80477905273438
 20
212.0384674072266
 11
-19.80477905273438
 21
212.4625701904297
  0
LINE
  8
0
  6
CONTINUOUS
 62
     7
 10
-38.10477066040039
 20
196.9884948730469
 11
-60.10477828979492
 21
196.9884948730469
  0
LINE
  8
0
  6
CONTINUOUS
 62
     7
 10
-5.104794025421143
 20
188.7384490966797
 11
-11.10479068756104
 21
188.7384490966797
  0
LINE
  8
0
  6
CONTINUOUS
 62
     7
 10
-5.104794025421143
 20
188.7384643554688
 11
-5.104794025421143
 21
215.2384948730469
  0
LINE
  8
0
  6
CONTINUOUS
 62
     7
 10
-0.7047950029373169
 20
183.3384857177734
 11
-0.7047950029373169
 21
190.3384857177734
  0
LINE
  8
0
  6
CONTINUOUS
 62
     7
 10
-0.7047950029373169
 20
183.3384857177734
 11
-16.50477409362793
 21
183.3384857177734
  0
LINE
  8
0
  6
CONTINUOUS
 62
     7
 10
3.295220136642456
 20
190.3384857177734
 11
-0.7047950029373169
 21
190.3384857177734
  0
LINE
  8
0
  6
CONTINUOUS
 62
     7
 10
-28.70477294921875
 20
188.5884552001953
 11
-36.5047721862793
 21
188.5884552001953
  0
LINE
  8
0
  6
CONTINUOUS
 62
     7
 10
3.295220136642456
 20
213.6384887695313
 11
-0.7047950029373169
 21
213.6384887695313
  0
LINE
  8
0
  6
CONTINUOUS
 62
     7
 10
-0.7047950029373169
 20
213.6384887695313
 11
-0.7047950029373169
 21
220.6384735107422
  0
LINE
  8
0
  6
CONTINUOUS
 62
     7
 10
-0.7047950029373169
 20
220.6385040283203
 11
-16.50477409362793
 21
220.6385040283203
  0
LINE
  8
0
  6
CONTINUOUS
 62
     7
 10
-16.50478744506836
 20
213.6384887695313
 11
-16.50478744506836
 21
220.6384735107422
  0
LINE
  8
0
  6
CONTINUOUS
 62
     7
 10
3.295194625854492
 20
190.3384857177734
 11
3.295194625854492
 21
213.6384887695313
  0
LINE
  8
0
  6
CONTINUOUS
 62
     7
 10
-16.50478744506836
 20
183.3384857177734
 11
-16.50478744506836
 21
190.3384857177734
  0
LINE
  8
0
  6
CONTINUOUS
 62
     7
 10
-23.54571342468262
 20
213.6384887695313
 11
-28.70477294921875
 21
213.6384887695313
  0
LINE
  8
0
  6
CONTINUOUS
 62
     7
 10
-18.60477828979492
 20
215.2384948730469
 11
-26.60475730895996
 21
215.2384948730469
  0
LINE
  8
0
  6
CONTINUOUS
 62
     7
 10
-18.60477828979492
 20
188.7384490966797
 11
-26.60475730895996
 21
188.7384490966797
  0
LINE
  8
0
  6
CONTINUOUS
 62
     7
 10
-28.10477256774902
 20
186.9884948730469
 11
-37.60476684570313
 21
186.9884948730469
  0
LINE
  8
0
  6
CONTINUOUS
 62
     7
 10
-28.10477256774902
 20
216.9884796142578
 11
-37.60476684570313
 21
216.9884796142578
  0
LINE
  8
0
  6
CONTINUOUS
 62
     7
 10
-27.10478782653809
 20
187.9884796142578
 11
-27.10478782653809
 21
188.2384948730469
  0
LINE
  8
0
  6
CONTINUOUS
 62
     7
 10
-27.10478782653809
 20
215.7384796142578
 11
-27.10478782653809
 21
215.9884948730469
  0
LINE
  8
0
  6
CENTER
 62
     7
 10
-20.10479354858398
 20
190.8271179199219
 11
-20.10479354858398
 21
195.9306945800781
  0
LINE
  8
0
  6
CENTER
 62
     7
 10
-17.27587699890137
 20
193.2384948730469
 11
-22.69190788269043
 21
193.2384948730469
  0
LINE
  8
0
  6
CENTER
 62
     7
 10
-16.57862663269043
 20
193.2384948730469
 11
-23.22269821166992
 21
193.2384948730469
  0
LINE
  8
0
  6
CENTER
 62
     7
 10
-20.10479354858398
 20
189.9443206787109
 11
-20.10479354858398
 21
196.3870849609375
  0
LINE
  8
0
  6
CONTINUOUS
 62
     7
 10
-5.104794025421143
 20
215.2384948730469
 11
-11.10479068756104
 21
215.2384948730469
  0
LINE
  8
0
  6
CONTINUOUS
 62
     7
 10
-38.10477066040039
 20
187.4884948730469
 11
-38.10477066040039
 21
216.9884796142578
  0
LINE
  8
0
  6
CONTINUOUS
 62
     7
 10
-60.10478973388672
 20
197.9884948730469
 11
-60.10478973388672
 21
205.9884948730469
  0
LINE
  8
0
  6
CONTINUOUS
 62
     7
 10
-61.10477447509766
 20
197.9884948730469
 11
-61.10477447509766
 21
205.9884948730469
  0
LINE
  8
0
  6
CENTER
 62
     7
 10
9.179339408874512
 20
218.6484832763672
 11
-22.69190788269043
 21
218.6484832763672
  0
LINE
  8
0
  6
CENTER
 62
     7
 10
9.908416748046875
 20
185.3284912109375
 11
-23.73343467712402
 21
185.3284912109375
  0
LINE
  8
0
  6
CONTINUOUS
 62
     7
 10
-18.10477256774902
 20
182.2384796142578
 11
-18.10477256774902
 21
188.2384948730469
  0
LINE
  8
0
  6
CONTINUOUS
 62
     7
 10
0.3952110707759857
 20
181.7384796142578
 11
-17.60476875305176
 21
181.7384796142578
  0
LINE
  8
0
  6
CONTINUOUS
 62
     7
 10
0.3952110707759857
 20
222.2384948730469
 11
-17.60476875305176
 21
222.2384948730469
  0
LINE
  8
0
  6
CONTINUOUS
 62
     7
 10
0.8951907157897949
 20
182.2384796142578
 11
0.8951907157897949
 21
188.2384948730469
  0
LINE
  8
0
  6
CONTINUOUS
 62
     7
 10
-18.10477256774902
 20
215.7384796142578
 11
-18.10477256774902
 21
221.7384643554688
  0
LINE
  8
0
  6
CONTINUOUS
 62
     7
 10
7.795214653015137
 20
189.2384948730469
 11
7.795214653015137
 21
214.7384948730469
  0
LINE
  8
0
  6
CONTINUOUS
 62
     7
 10
1.895200848579407
 20
215.2384643554688
 11
1.895200848579407
 21
221.5384979248047
  0
LINE
  8
0
  6
CONTINUOUS
 62
     7
 10
4.895205974578857
 20
189.2384948730469
 11
4.895205974578857
 21
214.7384796142578
  0
LINE
  8
0
  6
CONTINUOUS
 62
     7
 10
0.8951907157897949
 20
215.7384796142578
 11
0.8951907157897949
 21
221.7384643554688
  0
LINE
  8
0
  6
CONTINUOUS
 62
     7
 10
-19.80477905273438
 20
191.514404296875
 11
-19.80477905273438
 21
191.9384918212891
  0
LINE
  8
0
  6
CONTINUOUS
 62
     7
 10
-20.40478134155273
 20
191.514404296875
 11
-20.40478134155273
 21
191.9384918212891
  0
LINE
  8
0
  6
CONTINUOUS
 62
     7
 10
-18.38068962097168
 20
192.9384765625
 11
-18.80476951599121
 21
192.9384765625
  0
LINE
  8
0
  6
CONTINUOUS
 62
     7
 10
-18.38068962097168
 20
193.5384826660156
 11
-18.80476951599121
 21
193.5384826660156
  0
LINE
  8
0
  6
CONTINUOUS
 62
     7
 10
-26.10477828979492
 20
191.9884948730469
 11
-26.10477828979492
 21
211.9884796142578
  0
LINE
  8
0
  6
CONTINUOUS
 62
     7
 10
-26.10476493835449
 20
211.9884796142578
 11
-35.10476684570313
 21
211.9884796142578
  0
LINE
  8
0
  6
CONTINUOUS
 62
     7
 10
-21.40476608276367
 20
192.9384765625
 11
-21.82887077331543
 21
192.9384765625
  0
LINE
  8
0
  6
CONTINUOUS
 62
     7
 10
-19.80477905273438
 20
194.5384826660156
 11
-19.80477905273438
 21
194.9625854492188
  0
LINE
  8
0
  6
CONTINUOUS
 62
     7
 10
-21.40476608276367
 20
193.5384826660156
 11
-21.82887077331543
 21
193.5384826660156
  0
LINE
  8
0
  6
CONTINUOUS
 62
     7
 10
-20.40478134155273
 20
194.5384826660156
 11
-20.40478134155273
 21
194.9625854492188
  0
LINE
  8
0
  6
CONTINUOUS
 62
     7
 10
1.895200848579407
 20
182.4384765625
 11
1.895200848579407
 21
188.7384948730469
  0
LINE
  8
0
  6
CONTINUOUS
 62
     7
 10
1.895226240158081
 20
182.4384765625
 11
0.8952034115791321
 21
182.4384765625
  0
LINE
  8
0
  6
CONTINUOUS
 62
     7
 10
1.895226240158081
 20
221.5384979248047
 11
0.8952034115791321
 21
221.5384979248047
  0
LINE
  8
0
  6
CONTINUOUS
 62
     7
 10
6.795229911804199
 20
188.2384948730469
 11
1.895226240158081
 21
188.2384948730469
  0
LINE
  8
0
  6
CONTINUOUS
 62
     7
 10
6.795229911804199
 20
215.7384796142578
 11
1.895226240158081
 21
215.7384796142578
  0
LINE
  8
0
  6
CONTINUOUS
 62
     7
 10
4.395213603973389
 20
188.7384490966797
 11
1.395208477973938
 21
188.7384490966797
  0
LINE
  8
0
  6
CONTINUOUS
 62
     7
 10
4.395213603973389
 20
215.2384948730469
 11
1.395208477973938
 21
215.2384948730469
  0
LINE
  8
0
  6
CONTINUOUS
 62
     7
 10
-19.10475730895996
 20
220.8985137939453
 11
-19.79849815368652
 21
220.8985137939453
  0
LINE
  8
0
  6
CONTINUOUS
 62
     7
 10
-19.10475730895996
 20
216.3984985351563
 11
-19.79849815368652
 21
216.3984985351563
  0
LINE
  8
0
  6
CONTINUOUS
 62
     7
 10
-18.60477828979492
 20
216.1484832763672
 11
-18.60477828979492
 21
221.1484832763672
  0
LINE
  8
0
  6
CONTINUOUS
 62
     7
 10
-19.10478401184082
 20
216.1484832763672
 11
-19.10478401184082
 21
221.1484832763672
  0
LINE
  8
0
  6
CONTINUOUS
 62
     7
 10
-18.10477256774902
 20
221.1484832763672
 11
-19.10475730895996
 21
221.1484832763672
  0
LINE
  8
0
  6
CONTINUOUS
 62
     7
 10
-18.10477256774902
 20
216.1484832763672
 11
-19.10475730895996
 21
216.1484832763672
  0
LINE
  8
0
  6
CONTINUOUS
 62
     7
 10
-19.10475730895996
 20
187.5784759521484
 11
-19.79849815368652
 21
187.5784759521484
  0
LINE
  8
0
  6
CONTINUOUS
 62
     7
 10
-19.10475730895996
 20
183.0784759521484
 11
-19.79849815368652
 21
183.0784759521484
  0
LINE
  8
0
  6
CONTINUOUS
 62
     7
 10
-18.60477828979492
 20
182.8284912109375
 11
-18.60477828979492
 21
187.8284912109375
  0
LINE
  8
0
  6
CONTINUOUS
 62
     7
 10
-19.10478401184082
 20
182.8284912109375
 11
-19.10478401184082
 21
187.8284912109375
  0
LINE
  8
0
  6
CONTINUOUS
 62
     7
 10
-18.10477256774902
 20
187.8284912109375
 11
-19.10475730895996
 21
187.8284912109375
  0
LINE
  8
0
  6
CONTINUOUS
 62
     7
 10
-18.10477256774902
 20
182.8284912109375
 11
-19.10475730895996
 21
182.8284912109375
  0
LINE
  8
0
  6
CONTINUOUS
 62
     7
 10
4.895218372344971
 20
219.9485015869141
 11
1.895226240158081
 21
219.9485015869141
  0
LINE
  8
0
  6
CONTINUOUS
 62
     7
 10
4.895218372344971
 20
217.3484802246094
 11
1.895226240158081
 21
217.3484802246094
  0
LINE
  8
0
  6
CONTINUOUS
 62
     7
 10
4.895218372344971
 20
186.6284637451172
 11
1.895226240158081
 21
186.6284637451172
  0
LINE
  8
0
  6
CONTINUOUS
 62
     7
 10
4.895218372344971
 20
184.0284881591797
 11
1.895226240158081
 21
184.0284881591797
  0
LINE
  8
0
  6
CONTINUOUS
 62
     7
 10
4.895205974578857
 20
217.3484802246094
 11
4.895205974578857
 21
219.9484710693359
  0
LINE
  8
0
  6
CONTINUOUS
 62
     7
 10
4.895205974578857
 20
184.0284881591797
 11
4.895205974578857
 21
186.6284790039063
  0
LINE
  8
0
  6
CONTINUOUS
 62
     7
 10
4.895218372344971
 20
184.3284759521484
 11
1.895226240158081
 21
184.3284759521484
  0
LINE
  8
0
  6
CONTINUOUS
 62
     7
 10
4.895218372344971
 20
186.3284759521484
 11
1.895226240158081
 21
186.3284759521484
  0
LINE
  8
0
  6
CONTINUOUS
 62
     7
 10
4.895218372344971
 20
217.6484985351563
 11
1.895226240158081
 21
217.6484985351563
  0
LINE
  8
0
  6
CONTINUOUS
 62
     7
 10
4.895218372344971
 20
219.6485137939453
 11
1.895226240158081
 21
219.6485137939453
  0
LINE
  8
0
  6
CENTER
 62
     7
 10
13.48634910583496
 20
201.9884948730469
 11
-131.5382537841797
 21
201.9884948730469
  0
LINE
  8
0
  6
CONTINUOUS
 62
     7
 10
-20.40478134155273
 20
209.0143890380859
 11
-20.40478134155273
 21
209.4384765625
  0
LINE
  8
0
  6
CONTINUOUS
 62
     7
 10
-11.10480403900147
 20
188.7384643554688
 11
-11.10480403900147
 21
215.2384948730469
  0
LINE
  8
0
  6
CONTINUOUS
 62
     7
 10
-38.10477066040039
 20
217.7536315917969
 11
-38.10477066040039
 21
236.7536926269531
  0
LINE
  8
0
  6
CONTINUOUS
 62
     7
 10
-35.10476684570313
 20
191.9884948730469
 11
-35.10476684570313
 21
211.9884796142578
  0
LINE
  8
0
  6
CONTINUOUS
 62
     7
 10
-93.85852813720703
 20
235.1592712402344
 11
-50.10477828979492
 21
235.1592712402344
  0
LINE
  8
0
  6
CONTINUOUS
 62
     7
 10
-109.858528137207
 20
254.2917175292969
 11
-109.858528137207
 21
251.1592864990234
  0
LINE
  8
0
  6
CONTINUOUS
 62
     7
 10
-61.10477447509766
 20
205.2384948730469
 11
-131.5382385253906
 21
205.2384948730469
  0
LINE
  8
0
  6
CONTINUOUS
 62
     7
 10
27.49240303039551
 20
336.8680114746094
 11
180.4923706054688
 21
336.8680114746094
  0
LINE
  8
0
  6
CONTINUOUS
 62
     7
 10
-108.5076141357422
 20
359.8680419921875
 11
-101.5076065063477
 21
359.8680419921875
  0
LINE
  8
0
  6
CONTINUOUS
 62
     7
 10
-121.5075912475586
 20
356.912841796875
 11
-108.5076141357422
 21
356.912841796875
  0
LINE
  8
0
  6
CONTINUOUS
 62
     7
 10
-133.5076141357422
 20
359.8680419921875
 11
-121.5076217651367
 21
359.8680419921875
  0
LINE
  8
0
  6
CONTINUOUS
 62
     7
 10
126.4899749755859
 20
369.732666015625
 11
126.4899749755859
 21
368.0033874511719
  0
LINE
  8
0
  6
CONTINUOUS
 62
     7
 10
106.4923934936523
 20
359.8680419921875
 11
118.4924087524414
 21
359.8680419921875
  0
LINE
  8
0
  6
CONTINUOUS
 62
     7
 10
-133.0076293945313
 20
363.8680114746094
 11
-122.0076217651367
 21
363.8680114746094
  0
LINE
  8
0
  6
CONTINUOUS
 62
     7
 10
94.49239349365234
 20
373.8680114746094
 11
130.492431640625
 21
373.8680114746094
  0
LINE
  8
0
  6
CONTINUOUS
 62
     7
 10
-121.5076217651367
 20
363.3680114746094
 11
-121.5076217651367
 21
352.8680114746094
  0
LINE
  8
0
  6
CONTINUOUS
 62
     7
 10
-121.5075912475586
 20
352.8680114746094
 11
-108.5076141357422
 21
352.8680114746094
  0
LINE
  8
0
  6
CONTINUOUS
 62
     7
 10
-121.5075912475586
 20
353.4804077148438
 11
-108.5076141357422
 21
353.4804077148438
  0
LINE
  8
0
  6
CONTINUOUS
 62
     7
 10
-146.5076141357422
 20
352.8680114746094
 11
-133.5076141357422
 21
352.8680114746094
  0
LINE
  8
0
  6
CONTINUOUS
 62
     7
 10
-146.5076141357422
 20
353.4804077148438
 11
-133.5076141357422
 21
353.4804077148438
  0
LINE
  8
0
  6
CONTINUOUS
 62
     7
 10
-146.5076141357422
 20
356.912841796875
 11
-133.5076141357422
 21
356.912841796875
  0
LINE
  8
0
  6
CONTINUOUS
 62
     7
 10
-133.5076141357422
 20
363.3680114746094
 11
-133.5076141357422
 21
352.8680114746094
  0
LINE
  8
0
  6
CENTER
 62
     7
 10
-144.5135498046875
 20
368.8680114746094
 11
-134.7444458007813
 21
368.8680114746094
  0
LINE
  8
0
  6
CENTER
 62
     7
 10
-140.0075988769531
 20
373.5079956054688
 11
-140.0075988769531
 21
364.1686706542969
  0
LINE
  8
0
  6
CENTER
 62
     7
 10
-115.0076065063477
 20
373.5079956054688
 11
-115.0076065063477
 21
364.1686706542969
  0
LINE
  8
0
  6
CENTER
 62
     7
 10
-120.8234405517578
 20
368.8680114746094
 11
-110.3216323852539
 21
368.8680114746094
  0
LINE
  8
0
  6
CONTINUOUS
 62
     7
 10
-195.5076293945313
 20
359.8680419921875
 11
-191.5076293945313
 21
359.8680419921875
  0
LINE
  8
0
  6
CONTINUOUS
 62
     7
 10
-108.5076141357422
 20
372.8680114746094
 11
-108.5076141357422
 21
352.8680114746094
  0
LINE
  8
0
  6
CONTINUOUS
 62
     7
 10
-146.5076141357422
 20
372.8680114746094
 11
-146.5076141357422
 21
352.8680114746094
  0
LINE
  8
0
  6
CONTINUOUS
 62
     7
 10
-145.5076293945313
 20
373.8680114746094
 11
-109.5075988769531
 21
373.8680114746094
  0
LINE
  8
0
  6
CONTINUOUS
 62
     7
 10
-115.0075912475586
 20
367.1387634277344
 11
-113.5100173950195
 21
368.0033874511719
  0
LINE
  8
0
  6
CONTINUOUS
 62
     7
 10
-113.5100326538086
 20
369.732666015625
 11
-113.5100326538086
 21
368.0033874511719
  0
LINE
  8
0
  6
CONTINUOUS
 62
     7
 10
-115.0075836181641
 20
370.5973205566406
 11
-113.510009765625
 21
369.7326965332031
  0
LINE
  8
0
  6
CONTINUOUS
 62
     7
 10
-140.0075988769531
 20
367.1387634277344
 11
-141.5051727294922
 21
368.0033874511719
  0
LINE
  8
0
  6
CONTINUOUS
 62
     7
 10
-115.0076141357422
 20
370.5972595214844
 11
-116.5051879882813
 21
369.7326354980469
  0
LINE
  8
0
  6
CONTINUOUS
 62
     7
 10
-115.0075912475586
 20
367.1387939453125
 11
-116.5051651000977
 21
368.00341796875
  0
LINE
  8
0
  6
CONTINUOUS
 62
     7
 10
-116.5051803588867
 20
369.732666015625
 11
-116.5051803588867
 21
368.0033874511719
  0
LINE
  8
0
  6
CONTINUOUS
 62
     7
 10
-140.0076141357422
 20
370.5972900390625
 11
-138.5100402832031
 21
369.732666015625
  0
LINE
  8
0
  6
CONTINUOUS
 62
     7
 10
-140.0076141357422
 20
370.5972900390625
 11
-141.5051727294922
 21
369.732666015625
  0
LINE
  8
0
  6
CENTER
 62
     7
 10
94.48626708984375
 20
368.8680114746094
 11
105.2555618286133
 21
368.8680114746094
  0
LINE
  8
0
  6
CONTINUOUS
 62
     7
 10
106.9923706054688
 20
363.8680114746094
 11
117.9923782348633
 21
363.8680114746094
  0
LINE
  8
0
  6
CONTINUOUS
 62
     7
 10
118.4924087524414
 20
356.912841796875
 11
131.4923858642578
 21
356.912841796875
  0
LINE
  8
0
  6
CONTINUOUS
 62
     7
 10
118.4924087524414
 20
363.3680114746094
 11
118.4924087524414
 21
352.8680114746094
  0
LINE
  8
0
  6
CONTINUOUS
 62
     7
 10
118.4924087524414
 20
352.8680114746094
 11
131.4923858642578
 21
352.8680114746094
  0
LINE
  8
0
  6
CENTER
 62
     7
 10
-127.5076065063477
 20
384.8353576660156
 11
-127.5076065063477
 21
351.9136962890625
  0
LINE
  8
0
  6
CONTINUOUS
 62
     7
 10
131.4923858642578
 20
372.8680114746094
 11
131.4923858642578
 21
352.8680114746094
  0
LINE
  8
0
  6
CONTINUOUS
 62
     7
 10
118.4924087524414
 20
353.4804077148438
 11
131.4923858642578
 21
353.4804077148438
  0
LINE
  8
0
  6
CONTINUOUS
 62
     7
 10
93.49238586425781
 20
352.8680114746094
 11
106.4923934936523
 21
352.8680114746094
  0
LINE
  8
0
  6
CONTINUOUS
 62
     7
 10
93.49238586425781
 20
353.4804077148438
 11
106.4923934936523
 21
353.4804077148438
  0
LINE
  8
0
  6
CONTINUOUS
 62
     7
 10
93.49238586425781
 20
356.912841796875
 11
106.4923934936523
 21
356.912841796875
  0
LINE
  8
0
  6
CENTER
 62
     7
 10
-273.1758117675781
 20
342.8682250976563
 11
-259.8047485351563
 21
342.8682250976563
  0
LINE
  8
0
  6
CONTINUOUS
 62
     7
 10
93.49240875244141
 20
372.8680114746094
 11
93.49240875244141
 21
352.8680114746094
  0
LINE
  8
0
  6
CENTER
 62
     7
 10
164.805908203125
 20
368.8680114746094
 11
180.4923706054688
 21
368.8680114746094
  0
LINE
  8
0
  6
CONTINUOUS
 62
     7
 10
-153.5076293945313
 20
359.8680419921875
 11
-146.5076141357422
 21
359.8680419921875
  0
LINE
  8
0
  6
CONTINUOUS
 62
     7
 10
-88.50759887695313
 20
359.8680419921875
 11
-76.50760650634766
 21
359.8680419921875
  0
LINE
  8
0
  6
CONTINUOUS
 62
     7
 10
106.4923934936523
 20
363.3680114746094
 11
106.4923934936523
 21
352.8680114746094
  0
LINE
  8
0
  6
CONTINUOUS
 62
     7
 10
176.4923858642578
 20
359.8680419921875
 11
180.4923706054688
 21
359.8680419921875
  0
LINE
  8
0
  6
CONTINUOUS
 62
     7
 10
-138.5100555419922
 20
369.732666015625
 11
-138.5100555419922
 21
368.0033874511719
  0
LINE
  8
0
  6
CONTINUOUS
 62
     7
 10
-28.70477294921875
 20
188.5884704589844
 11
-28.70477294921875
 21
190.3384857177734
  0
LINE
  8
0
  6
CONTINUOUS
 62
     7
 10
180.4923706054688
 20
359.8680419921875
 11
180.4923706054688
 21
336.8680114746094
  0
LINE
  8
0
  6
CONTINUOUS
 62
     7
 10
-195.5076293945313
 20
359.8680419921875
 11
-195.5076293945313
 21
336.8680114746094
  0
LINE
  8
0
  6
CONTINUOUS
 62
     7
 10
53.49480438232422
 20
369.732666015625
 11
53.49480438232422
 21
368.0033874511719
  0
LINE
  8
0
  6
CONTINUOUS
 62
     7
 10
54.99240493774414
 20
367.1387634277344
 11
53.49482727050781
 21
368.0033874511719
  0
LINE
  8
0
  6
CONTINUOUS
 62
     7
 10
54.99240493774414
 20
370.5972900390625
 11
53.49483871459961
 21
369.732666015625
  0
LINE
  8
0
  6
CONTINUOUS
 62
     7
 10
54.99240112304688
 20
370.5972900390625
 11
56.48997497558594
 21
369.732666015625
  0
LINE
  8
0
  6
CONTINUOUS
 62
     7
 10
56.48995208740234
 20
369.732666015625
 11
56.48995208740234
 21
368.0033874511719
  0
LINE
  8
0
  6
CONTINUOUS
 62
     7
 10
54.99240875244141
 20
367.1387634277344
 11
56.48997497558594
 21
368.0033569335938
  0
LINE
  8
0
  6
CONTINUOUS
 62
     7
 10
78.49482727050781
 20
369.732666015625
 11
78.49482727050781
 21
368.0033874511719
  0
LINE
  8
0
  6
CONTINUOUS
 62
     7
 10
79.99240112304688
 20
367.1387939453125
 11
78.49482727050781
 21
368.00341796875
  0
LINE
  8
0
  6
CONTINUOUS
 62
     7
 10
79.99240875244141
 20
370.5972900390625
 11
78.49482727050781
 21
369.7326354980469
  0
LINE
  8
0
  6
CONTINUOUS
 62
     7
 10
79.99241638183594
 20
370.5973205566406
 11
81.48999786376953
 21
369.7326965332031
  0
LINE
  8
0
  6
CONTINUOUS
 62
     7
 10
81.48997497558594
 20
369.732666015625
 11
81.48997497558594
 21
368.0033874511719
  0
LINE
  8
0
  6
CONTINUOUS
 62
     7
 10
79.99240875244141
 20
367.1387634277344
 11
81.489990234375
 21
368.0033874511719
  0
LINE
  8
0
  6
CONTINUOUS
 62
     7
 10
49.49237060546875
 20
373.8680114746094
 11
85.49240875244141
 21
373.8680114746094
  0
LINE
  8
0
  6
CONTINUOUS
 62
     7
 10
48.49238586425781
 20
372.8680114746094
 11
48.49238586425781
 21
352.8680114746094
  0
LINE
  8
0
  6
CONTINUOUS
 62
     7
 10
86.49239349365234
 20
372.8680114746094
 11
86.49239349365234
 21
352.8680114746094
  0
LINE
  8
0
  6
CENTER
 62
     7
 10
74.17656707763672
 20
368.8680114746094
 11
84.67837524414063
 21
368.8680114746094
  0
LINE
  8
0
  6
CENTER
 62
     7
 10
79.99240112304688
 20
373.5079956054688
 11
79.99240112304688
 21
364.1686706542969
  0
LINE
  8
0
  6
CENTER
 62
     7
 10
54.99240112304688
 20
373.5079956054688
 11
54.99240112304688
 21
364.1686706542969
  0
LINE
  8
0
  6
CENTER
 62
     7
 10
50.48645782470703
 20
368.8680114746094
 11
60.25556564331055
 21
368.8680114746094
  0
LINE
  8
0
  6
CONTINUOUS
 62
     7
 10
61.49239349365234
 20
363.3680114746094
 11
61.49239349365234
 21
352.8680114746094
  0
LINE
  8
0
  6
CONTINUOUS
 62
     7
 10
48.49238586425781
 20
356.912841796875
 11
61.49239349365234
 21
356.912841796875
  0
LINE
  8
0
  6
CONTINUOUS
 62
     7
 10
48.49238586425781
 20
353.4804077148438
 11
61.49239349365234
 21
353.4804077148438
  0
LINE
  8
0
  6
CONTINUOUS
 62
     7
 10
48.49238586425781
 20
352.8680114746094
 11
61.49239349365234
 21
352.8680114746094
  0
LINE
  8
0
  6
CONTINUOUS
 62
     7
 10
73.49240875244141
 20
353.4804077148438
 11
86.49239349365234
 21
353.4804077148438
  0
LINE
  8
0
  6
CONTINUOUS
 62
     7
 10
73.49240875244141
 20
352.8680114746094
 11
86.49239349365234
 21
352.8680114746094
  0
LINE
  8
0
  6
CONTINUOUS
 62
     7
 10
73.49238586425781
 20
363.3680114746094
 11
73.49238586425781
 21
352.8680114746094
  0
LINE
  8
0
  6
CONTINUOUS
 62
     7
 10
73.49240875244141
 20
356.912841796875
 11
86.49239349365234
 21
356.912841796875
  0
LINE
  8
0
  6
CONTINUOUS
 62
     7
 10
61.99237060546875
 20
363.8680114746094
 11
72.99237823486328
 21
363.8680114746094
  0
LINE
  8
0
  6
CENTER
 62
     7
 10
67.49240112304688
 20
384.8353576660156
 11
67.49240112304688
 21
351.9136962890625
  0
LINE
  8
0
  6
CENTER
 62
     7
 10
-82.50759124755859
 20
424.4830932617188
 11
-82.50759124755859
 21
395.6816711425781
  0
LINE
  8
0
  6
CONTINUOUS
 62
     7
 10
-96.50518798828125
 20
369.732666015625
 11
-96.50518798828125
 21
368.0033874511719
  0
LINE
  8
0
  6
CONTINUOUS
 62
     7
 10
-95.00759124755859
 20
367.1387634277344
 11
-96.50516510009766
 21
368.0033874511719
  0
LINE
  8
0
  6
CONTINUOUS
 62
     7
 10
-95.00759887695313
 20
370.5972900390625
 11
-96.50516510009766
 21
369.732666015625
  0
LINE
  8
0
  6
CONTINUOUS
 62
     7
 10
-95.00759124755859
 20
370.5972900390625
 11
-93.51001739501953
 21
369.732666015625
  0
LINE
  8
0
  6
CONTINUOUS
 62
     7
 10
-93.51004028320313
 20
369.732666015625
 11
-93.51004028320313
 21
368.0033874511719
  0
LINE
  8
0
  6
CONTINUOUS
 62
     7
 10
-95.00757598876953
 20
367.1387634277344
 11
-93.510009765625
 21
368.0033874511719
  0
LINE
  8
0
  6
CONTINUOUS
 62
     7
 10
-71.50516510009766
 20
369.732666015625
 11
-71.50516510009766
 21
368.0033874511719
  0
LINE
  8
0
  6
CONTINUOUS
 62
     7
 10
-70.00757598876953
 20
367.1387939453125
 11
-71.50515747070313
 21
368.00341796875
  0
LINE
  8
0
  6
CONTINUOUS
 62
     7
 10
-70.00759887695313
 20
370.5972595214844
 11
-71.50518035888672
 21
369.7326354980469
  0
LINE
  8
0
  6
CONTINUOUS
 62
     7
 10
-70.00757598876953
 20
370.5973205566406
 11
-68.51000213623047
 21
369.7326965332031
  0
LINE
  8
0
  6
CONTINUOUS
 62
     7
 10
-68.51001739501953
 20
369.732666015625
 11
-68.51001739501953
 21
368.0033874511719
  0
LINE
  8
0
  6
CONTINUOUS
 62
     7
 10
-70.00758361816406
 20
367.1387634277344
 11
-68.51000213623047
 21
368.00341796875
  0
LINE
  8
0
  6
CONTINUOUS
 62
     7
 10
-100.5076217651367
 20
373.8680114746094
 11
-64.50759124755859
 21
373.8680114746094
  0
LINE
  8
0
  6
CONTINUOUS
 62
     7
 10
-101.5076065063477
 20
372.8680114746094
 11
-101.5076065063477
 21
352.8680114746094
  0
LINE
  8
0
  6
CONTINUOUS
 62
     7
 10
-63.50760269165039
 20
372.8680114746094
 11
-63.50760269165039
 21
352.8680114746094
  0
LINE
  8
0
  6
CENTER
 62
     7
 10
-75.82342529296875
 20
368.8680114746094
 11
-65.32161712646484
 21
368.8680114746094
  0
LINE
  8
0
  6
CENTER
 62
     7
 10
-70.00759124755859
 20
373.5079956054688
 11
-70.00759124755859
 21
364.1686706542969
  0
LINE
  8
0
  6
CENTER
 62
     7
 10
-95.00759124755859
 20
373.5079956054688
 11
-95.00759124755859
 21
364.1686706542969
  0
LINE
  8
0
  6
CENTER
 62
     7
 10
-99.51353454589844
 20
368.8680114746094
 11
-89.74443054199219
 21
368.8680114746094
  0
LINE
  8
0
  6
CONTINUOUS
 62
     7
 10
-88.50759887695313
 20
363.3680114746094
 11
-88.50759887695313
 21
352.8680114746094
  0
LINE
  8
0
  6
CONTINUOUS
 62
     7
 10
-101.5076065063477
 20
356.912841796875
 11
-88.50759887695313
 21
356.912841796875
  0
LINE
  8
0
  6
CONTINUOUS
 62
     7
 10
-101.5076065063477
 20
353.4804077148438
 11
-88.50759887695313
 21
353.4804077148438
  0
LINE
  8
0
  6
CONTINUOUS
 62
     7
 10
-101.5076065063477
 20
352.8680114746094
 11
-88.50759887695313
 21
352.8680114746094
  0
LINE
  8
0
  6
CONTINUOUS
 62
     7
 10
-76.50758361816406
 20
353.4804077148438
 11
-63.50760269165039
 21
353.4804077148438
  0
LINE
  8
0
  6
CONTINUOUS
 62
     7
 10
-76.50758361816406
 20
352.8680114746094
 11
-63.50760269165039
 21
352.8680114746094
  0
LINE
  8
0
  6
CONTINUOUS
 62
     7
 10
-76.50760650634766
 20
363.3680114746094
 11
-76.50760650634766
 21
352.8680114746094
  0
LINE
  8
0
  6
CONTINUOUS
 62
     7
 10
-76.50758361816406
 20
356.912841796875
 11
-63.50760269165039
 21
356.912841796875
  0
LINE
  8
0
  6
CONTINUOUS
 62
     7
 10
-88.00762176513672
 20
363.8680114746094
 11
-77.00761413574219
 21
363.8680114746094
  0
LINE
  8
0
  6
CENTER
 62
     7
 10
-82.50759124755859
 20
384.6215209960938
 11
-82.50759124755859
 21
351.9136962890625
  0
LINE
  8
0
  6
CONTINUOUS
 62
     7
 10
61.49239349365234
 20
359.8680419921875
 11
73.49238586425781
 21
359.8680419921875
  0
LINE
  8
0
  6
CONTINUOUS
 62
     7
 10
-141.5052032470703
 20
369.732666015625
 11
-141.5052032470703
 21
368.0033874511719
  0
LINE
  8
0
  6
CONTINUOUS
 62
     7
 10
-161.5051879882813
 20
369.732666015625
 11
-161.5051879882813
 21
368.0033874511719
  0
LINE
  8
0
  6
CONTINUOUS
 62
     7
 10
-160.0075988769531
 20
367.1387939453125
 11
-161.5051727294922
 21
368.00341796875
  0
LINE
  8
0
  6
CONTINUOUS
 62
     7
 10
-160.0076293945313
 20
370.5972595214844
 11
-161.5052032470703
 21
369.7326354980469
  0
LINE
  8
0
  6
CONTINUOUS
 62
     7
 10
-160.0075988769531
 20
370.5973205566406
 11
-158.5100250244141
 21
369.7326965332031
  0
LINE
  8
0
  6
CONTINUOUS
 62
     7
 10
-158.5100402832031
 20
369.732666015625
 11
-158.5100402832031
 21
368.0033874511719
  0
LINE
  8
0
  6
CONTINUOUS
 62
     7
 10
-160.0075988769531
 20
367.1387634277344
 11
-158.5100250244141
 21
368.0033874511719
  0
LINE
  8
0
  6
CONTINUOUS
 62
     7
 10
-190.5076446533203
 20
373.8680114746094
 11
-154.5076141357422
 21
373.8680114746094
  0
LINE
  8
0
  6
CONTINUOUS
 62
     7
 10
-191.5076293945313
 20
372.8680114746094
 11
-191.5076293945313
 21
352.8680114746094
  0
LINE
  8
0
  6
CONTINUOUS
 62
     7
 10
-153.5076293945313
 20
372.8680114746094
 11
-153.5076293945313
 21
352.8680114746094
  0
LINE
  8
0
  6
CENTER
 62
     7
 10
-165.8234558105469
 20
368.8680114746094
 11
-155.3216400146484
 21
368.8680114746094
  0
LINE
  8
0
  6
CENTER
 62
     7
 10
-160.0076141357422
 20
373.5079956054688
 11
-160.0076141357422
 21
364.1686706542969
  0
LINE
  8
0
  6
CENTER
 62
     7
 10
-185.0076141357422
 20
373.5079956054688
 11
-185.0076141357422
 21
364.1686706542969
  0
LINE
  8
0
  6
CENTER
 62
     7
 10
-189.5135650634766
 20
368.8680114746094
 11
-179.7444458007813
 21
368.8680114746094
  0
LINE
  8
0
  6
CONTINUOUS
 62
     7
 10
-178.5076293945313
 20
363.3680114746094
 11
-178.5076293945313
 21
352.8680114746094
  0
LINE
  8
0
  6
CONTINUOUS
 62
     7
 10
-191.5076293945313
 20
356.912841796875
 11
-178.5076293945313
 21
356.912841796875
  0
LINE
  8
0
  6
CONTINUOUS
 62
     7
 10
-191.5076293945313
 20
353.4804077148438
 11
-178.5076293945313
 21
353.4804077148438
  0
LINE
  8
0
  6
CONTINUOUS
 62
     7
 10
-191.5076293945313
 20
352.8680114746094
 11
-178.5076293945313
 21
352.8680114746094
  0
LINE
  8
0
  6
CONTINUOUS
 62
     7
 10
-166.5075988769531
 20
353.4804077148438
 11
-153.5076293945313
 21
353.4804077148438
  0
LINE
  8
0
  6
CONTINUOUS
 62
     7
 10
-166.5075988769531
 20
352.8680114746094
 11
-153.5076293945313
 21
352.8680114746094
  0
LINE
  8
0
  6
CONTINUOUS
 62
     7
 10
-166.5076293945313
 20
363.3680114746094
 11
-166.5076293945313
 21
352.8680114746094
  0
LINE
  8
0
  6
CONTINUOUS
 62
     7
 10
-166.5075988769531
 20
356.912841796875
 11
-153.5076293945313
 21
356.912841796875
  0
LINE
  8
0
  6
CONTINUOUS
 62
     7
 10
-178.0076446533203
 20
363.8680114746094
 11
-167.0076293945313
 21
363.8680114746094
  0
LINE
  8
0
  6
CENTER
 62
     7
 10
-172.5076141357422
 20
384.8353576660156
 11
-172.5076141357422
 21
351.9136962890625
  0
LINE
  8
0
  6
CONTINUOUS
 62
     7
 10
-178.5076293945313
 20
359.8680419921875
 11
-166.5076293945313
 21
359.8680419921875
  0
LINE
  8
0
  6
CONTINUOUS
 62
     7
 10
143.4948272705078
 20
369.732666015625
 11
143.4948272705078
 21
368.0033874511719
  0
LINE
  8
0
  6
CONTINUOUS
 62
     7
 10
144.9924163818359
 20
367.1387634277344
 11
143.4948577880859
 21
368.0033874511719
  0
LINE
  8
0
  6
CONTINUOUS
 62
     7
 10
144.9924163818359
 20
370.5972900390625
 11
143.4948272705078
 21
369.7326354980469
  0
LINE
  8
0
  6
CONTINUOUS
 62
     7
 10
144.9924468994141
 20
370.5972900390625
 11
146.4900207519531
 21
369.732666015625
  0
LINE
  8
0
  6
CONTINUOUS
 62
     7
 10
146.4899749755859
 20
369.732666015625
 11
146.4899749755859
 21
368.0033874511719
  0
LINE
  8
0
  6
CONTINUOUS
 62
     7
 10
144.9924163818359
 20
367.1387329101563
 11
146.4900054931641
 21
368.0033569335938
  0
LINE
  8
0
  6
CONTINUOUS
 62
     7
 10
168.4948272705078
 20
369.732666015625
 11
168.4948272705078
 21
368.0033874511719
  0
LINE
  8
0
  6
CONTINUOUS
 62
     7
 10
169.992431640625
 20
367.1387939453125
 11
168.494873046875
 21
368.0033874511719
  0
LINE
  8
0
  6
CONTINUOUS
 62
     7
 10
169.9924011230469
 20
370.5972900390625
 11
168.4948425292969
 21
369.732666015625
  0
LINE
  8
0
  6
CONTINUOUS
 62
     7
 10
169.9924621582031
 20
370.5972290039063
 11
171.4900207519531
 21
369.7326354980469
  0
LINE
  8
0
  6
CONTINUOUS
 62
     7
 10
171.4899749755859
 20
369.732666015625
 11
171.4899749755859
 21
368.0033874511719
  0
LINE
  8
0
  6
CONTINUOUS
 62
     7
 10
169.992431640625
 20
367.1387329101563
 11
171.4900054931641
 21
368.0033569335938
  0
LINE
  8
0
  6
CONTINUOUS
 62
     7
 10
139.4924011230469
 20
373.8680114746094
 11
175.492431640625
 21
373.8680114746094
  0
LINE
  8
0
  6
CONTINUOUS
 62
     7
 10
138.4924163818359
 20
372.8680114746094
 11
138.4924163818359
 21
352.8680114746094
  0
LINE
  8
0
  6
CONTINUOUS
 62
     7
 10
176.4923858642578
 20
372.8680114746094
 11
176.4923858642578
 21
352.8680114746094
  0
LINE
  8
0
  6
CENTER
 62
     7
 10
169.9924011230469
 20
373.5079956054688
 11
169.9924011230469
 21
364.1686706542969
  0
LINE
  8
0
  6
CENTER
 62
     7
 10
144.9924011230469
 20
373.5079956054688
 11
144.9924011230469
 21
364.1686706542969
  0
LINE
  8
0
  6
CONTINUOUS
 62
     7
 10
151.4923858642578
 20
363.3680114746094
 11
151.4923858642578
 21
352.8680114746094
  0
LINE
  8
0
  6
CONTINUOUS
 62
     7
 10
138.4923858642578
 20
356.912841796875
 11
151.4923858642578
 21
356.912841796875
  0
LINE
  8
0
  6
CONTINUOUS
 62
     7
 10
138.4923858642578
 20
353.4804077148438
 11
151.4923858642578
 21
353.4804077148438
  0
LINE
  8
0
  6
CONTINUOUS
 62
     7
 10
138.4923858642578
 20
352.8680114746094
 11
151.4923858642578
 21
352.8680114746094
  0
LINE
  8
0
  6
CONTINUOUS
 62
     7
 10
163.4924163818359
 20
353.4804077148438
 11
176.4923858642578
 21
353.4804077148438
  0
LINE
  8
0
  6
CONTINUOUS
 62
     7
 10
163.4924163818359
 20
352.8680114746094
 11
176.4923858642578
 21
352.8680114746094
  0
LINE
  8
0
  6
CONTINUOUS
 62
     7
 10
163.4924163818359
 20
363.3680114746094
 11
163.4924163818359
 21
352.8680114746094
  0
LINE
  8
0
  6
CONTINUOUS
 62
     7
 10
163.4924163818359
 20
356.912841796875
 11
176.4923858642578
 21
356.912841796875
  0
LINE
  8
0
  6
CONTINUOUS
 62
     7
 10
151.9923706054688
 20
363.8680114746094
 11
162.9923858642578
 21
363.8680114746094
  0
LINE
  8
0
  6
CENTER
 62
     7
 10
157.4924011230469
 20
386.3757934570313
 11
157.4924011230469
 21
352.0412902832031
  0
LINE
  8
0
  6
CONTINUOUS
 62
     7
 10
151.4923858642578
 20
359.8680419921875
 11
163.4924163818359
 21
359.8680419921875
  0
LINE
  8
0
  6
CONTINUOUS
 62
     7
 10
86.49239349365234
 20
359.8680419921875
 11
93.49240875244141
 21
359.8680419921875
  0
LINE
  8
0
  6
CENTER
 62
     7
 10
139.4862670898438
 20
368.8680114746094
 11
150.2555694580078
 21
368.8680114746094
  0
LINE
  8
0
  6
CONTINUOUS
 62
     7
 10
-42.50759506225586
 20
351.3680419921875
 11
27.49240303039551
 21
351.3680419921875
  0
LINE
  8
0
  6
CONTINUOUS
 62
     7
 10
-42.50759506225586
 20
351.3680114746094
 11
-42.50759506225586
 21
312.3680114746094
  0
LINE
  8
0
  6
CENTER
 62
     7
 10
99.99240112304688
 20
373.5079956054688
 11
99.99240112304688
 21
364.1686706542969
  0
LINE
  8
0
  6
CONTINUOUS
 62
     7
 10
27.49240303039551
 20
351.3680114746094
 11
27.49240303039551
 21
312.3680114746094
  0
LINE
  8
0
  6
CENTER
 62
     7
 10
112.4924011230469
 20
386.2741088867188
 11
112.4924011230469
 21
351.9136962890625
  0
LINE
  8
0
  6
CONTINUOUS
 62
     7
 10
-140.0075988769531
 20
367.1387634277344
 11
-138.5100250244141
 21
368.0033569335938
  0
LINE
  8
0
  6
CONTINUOUS
 62
     7
 10
131.4923858642578
 20
359.8680419921875
 11
138.4924163818359
 21
359.8680419921875
  0
LINE
  8
0
  6
CONTINUOUS
 62
     7
 10
11.49238109588623
 20
359.8680419921875
 11
48.49238586425781
 21
359.8680419921875
  0
LINE
  8
0
  6
CONTINUOUS
 62
     7
 10
-26.50762176513672
 20
352.8680114746094
 11
-13.50761795043945
 21
352.8680114746094
  0
LINE
  8
0
  6
CONTINUOUS
 62
     7
 10
-20.00763130187988
 20
367.1387634277344
 11
-21.50518798828125
 21
368.0033874511719
  0
LINE
  8
0
  6
CONTINUOUS
 62
     7
 10
-34.00520706176758
 20
369.7326354980469
 11
-34.00520706176758
 21
368.0033874511719
  0
LINE
  8
0
  6
CONTINUOUS
 62
     7
 10
-31.01005935668945
 20
369.7326354980469
 11
-31.01005935668945
 21
368.0033874511719
  0
LINE
  8
0
  6
CONTINUOUS
 62
     7
 10
-32.50763702392578
 20
370.5972900390625
 11
-34.00522613525391
 21
369.732666015625
  0
LINE
  8
0
  6
CONTINUOUS
 62
     7
 10
-32.50761413574219
 20
367.1387634277344
 11
-34.00521469116211
 21
368.0033874511719
  0
LINE
  8
0
  6
CENTER
 62
     7
 10
119.8059158325195
 20
368.8680114746094
 11
149.7731781005859
 21
368.8680114746094
  0
LINE
  8
0
  6
CONTINUOUS
 62
     7
 10
-32.50760650634766
 20
367.1387634277344
 11
-31.01002883911133
 21
368.0033874511719
  0
LINE
  8
0
  6
CONTINUOUS
 62
     7
 10
15.99479198455811
 20
369.7326354980469
 11
15.99479198455811
 21
368.0033874511719
  0
LINE
  8
0
  6
CONTINUOUS
 62
     7
 10
-32.50757598876953
 20
370.5972900390625
 11
-31.0100212097168
 21
369.732666015625
  0
LINE
  8
0
  6
CONTINUOUS
 62
     7
 10
17.49240684509277
 20
367.1387634277344
 11
15.99480819702148
 21
368.0033874511719
  0
LINE
  8
0
  6
CONTINUOUS
 62
     7
 10
17.49239540100098
 20
370.5972900390625
 11
18.98999404907227
 21
369.732666015625
  0
LINE
  8
0
  6
CONTINUOUS
 62
     7
 10
18.98993873596191
 20
369.7326354980469
 11
18.98993873596191
 21
368.0033874511719
  0
LINE
  8
0
  6
CONTINUOUS
 62
     7
 10
-1.507598042488098
 20
353.4804077148438
 11
11.49238109588623
 21
353.4804077148438
  0
LINE
  8
0
  6
CONTINUOUS
 62
     7
 10
-1.507598042488098
 20
352.8680114746094
 11
11.49238109588623
 21
352.8680114746094
  0
LINE
  8
0
  6
CONTINUOUS
 62
     7
 10
-1.507623434066773
 20
363.3680114746094
 11
-1.507623434066773
 21
352.8680114746094
  0
LINE
  8
0
  6
CONTINUOUS
 62
     7
 10
-1.507598042488098
 20
356.912841796875
 11
11.49238109588623
 21
356.912841796875
  0
LINE
  8
0
  6
CONTINUOUS
 62
     7
 10
-13.0076379776001
 20
363.8679809570313
 11
-2.007603168487549
 21
363.8679809570313
  0
LINE
  8
0
  6
CONTINUOUS
 62
     7
 10
17.49241065979004
 20
367.1387634277344
 11
18.98997497558594
 21
368.0033874511719
  0
LINE
  8
0
  6
CONTINUOUS
 62
     7
 10
98.49482727050781
 20
369.732666015625
 11
98.49482727050781
 21
368.0033874511719
  0
LINE
  8
0
  6
CONTINUOUS
 62
     7
 10
-13.50761795043945
 20
359.8680419921875
 11
-1.507598042488098
 21
359.8680419921875
  0
LINE
  8
0
  6
CONTINUOUS
 62
     7
 10
-42.50759506225586
 20
350.3680114746094
 11
27.49240303039551
 21
350.3680114746094
  0
LINE
  8
0
  6
CONTINUOUS
 62
     7
 10
-13.50761795043945
 20
359.8680419921875
 11
-1.507623434066773
 21
359.8680419921875
  0
LINE
  8
0
  6
CONTINUOUS
 62
     7
 10
17.49236869812012
 20
370.5972290039063
 11
15.9948034286499
 21
369.7326049804688
  0
LINE
  8
0
  6
CONTINUOUS
 62
     7
 10
-37.50760650634766
 20
372.8680114746094
 11
-37.50760650634766
 21
359.8680114746094
  0
LINE
  8
0
  6
CONTINUOUS
 62
     7
 10
-28.00763702392578
 20
361.8680114746094
 11
-26.50762176513672
 21
361.8680114746094
  0
LINE
  8
0
  6
CONTINUOUS
 62
     7
 10
-28.50761795043945
 20
361.3680114746094
 11
-28.50761795043945
 21
359.8680114746094
  0
LINE
  8
0
  6
CENTER
 62
     7
 10
-7.507607936859131
 20
384.9629516601563
 11
-7.507607936859131
 21
342.6536865234375
  0
LINE
  8
0
  6
CONTINUOUS
 62
     7
 10
-21.50520706176758
 20
369.7326354980469
 11
-21.50520706176758
 21
368.0033874511719
  0
LINE
  8
0
  6
CENTER
 62
     7
 10
-7.507607936859131
 20
384.6215209960938
 11
-7.507607936859131
 21
334.8680419921875
  0
LINE
  8
0
  6
CENTER
 62
     7
 10
-37.50760650634766
 20
368.8679809570313
 11
-27.68852615356445
 21
368.8679809570313
  0
LINE
  8
0
  6
CENTER
 62
     7
 10
17.49239158630371
 20
373.5079956054688
 11
17.49239158630371
 21
364.1686401367188
  0
LINE
  8
0
  6
CONTINUOUS
 62
     7
 10
49.00275421142578
 20
410.4551086425781
 11
111.2915649414063
 21
410.4551086425781
  0
LINE
  8
0
  6
CENTER
 62
     7
 10
12.36487865447998
 20
368.8679809570313
 11
22.49239158630371
 21
368.8679809570313
  0
LINE
  8
0
  6
CONTINUOUS
 62
     7
 10
-13.50761795043945
 20
361.8680114746094
 11
-1.507598042488098
 21
361.8680114746094
  0
LINE
  8
0
  6
CONTINUOUS
 62
     7
 10
11.49238109588623
 20
361.8680114746094
 11
12.99239635467529
 21
361.8680114746094
  0
LINE
  8
0
  6
CENTER
 62
     7
 10
-32.50760650634766
 20
373.5079956054688
 11
-32.50760650634766
 21
364.1686401367188
  0
LINE
  8
0
  6
CONTINUOUS
 62
     7
 10
13.49235057830811
 20
361.3680114746094
 11
13.49235057830811
 21
359.8680114746094
  0
LINE
  8
0
  6
CONTINUOUS
 62
     7
 10
-20.00762367248535
 20
370.5972900390625
 11
-21.50518989562988
 21
369.732666015625
  0
LINE
  8
0
  6
CONTINUOUS
 62
     7
 10
-20.0075569152832
 20
370.5972595214844
 11
-18.50995826721191
 21
369.7326049804688
  0
LINE
  8
0
  6
CONTINUOUS
 62
     7
 10
-18.51005935668945
 20
369.7326354980469
 11
-18.51005935668945
 21
368.0033874511719
  0
LINE
  8
0
  6
CONTINUOUS
 62
     7
 10
-20.00759124755859
 20
367.1387634277344
 11
-18.51002502441406
 21
368.0033874511719
  0
LINE
  8
0
  6
CONTINUOUS
 62
     7
 10
22.49239158630371
 20
372.8680114746094
 11
22.49239158630371
 21
359.8680114746094
  0
LINE
  8
0
  6
CONTINUOUS
 62
     7
 10
3.494792461395264
 20
369.7326354980469
 11
3.494792461395264
 21
368.0033874511719
  0
LINE
  8
0
  6
CONTINUOUS
 62
     7
 10
4.992343902587891
 20
367.1388244628906
 11
3.494788885116577
 21
368.00341796875
  0
LINE
  8
0
  6
CONTINUOUS
 62
     7
 10
4.992351055145264
 20
370.5972900390625
 11
3.494784832000732
 21
369.732666015625
  0
LINE
  8
0
  6
CONTINUOUS
 62
     7
 10
4.992419242858887
 20
370.5972900390625
 11
6.489974498748779
 21
369.7326965332031
  0
LINE
  8
0
  6
CONTINUOUS
 62
     7
 10
6.489940166473389
 20
369.7326354980469
 11
6.489940166473389
 21
368.0033874511719
  0
LINE
  8
0
  6
CONTINUOUS
 62
     7
 10
4.992405891418457
 20
367.1387634277344
 11
6.489972114562988
 21
368.0033874511719
  0
LINE
  8
0
  6
CONTINUOUS
 62
     7
 10
-36.50762176513672
 20
373.8679809570313
 11
21.49238014221191
 21
373.8679809570313
  0
LINE
  8
0
  6
CONTINUOUS
 62
     7
 10
-26.50762176513672
 20
372.8680114746094
 11
-26.50762176513672
 21
352.8680114746094
  0
LINE
  8
0
  6
CONTINUOUS
 62
     7
 10
11.49238109588623
 20
372.8680114746094
 11
11.49238109588623
 21
352.8680114746094
  0
LINE
  8
0
  6
CENTER
 62
     7
 10
-0.8234447836875916
 20
368.8679809570313
 11
9.678365707397461
 21
368.8679809570313
  0
LINE
  8
0
  6
CENTER
 62
     7
 10
4.992391586303711
 20
373.5079956054688
 11
4.992391586303711
 21
364.1686401367188
  0
LINE
  8
0
  6
CENTER
 62
     7
 10
-20.00760650634766
 20
373.5079956054688
 11
-20.00760650634766
 21
364.1686401367188
  0
LINE
  8
0
  6
CONTINUOUS
 62
     7
 10
99.99242401123047
 20
367.1387634277344
 11
98.49486541748047
 21
368.0033874511719
  0
LINE
  8
0
  6
CONTINUOUS
 62
     7
 10
99.99242401123047
 20
370.5972900390625
 11
98.49482727050781
 21
369.7326354980469
  0
LINE
  8
0
  6
CONTINUOUS
 62
     7
 10
99.99245452880859
 20
370.5972900390625
 11
101.4900283813477
 21
369.732666015625
  0
LINE
  8
0
  6
CENTER
 62
     7
 10
-24.51355361938477
 20
368.8679809570313
 11
-14.74441909790039
 21
368.8679809570313
  0
LINE
  8
0
  6
CONTINUOUS
 62
     7
 10
-13.50761795043945
 20
363.3680114746094
 11
-13.50761795043945
 21
352.8680114746094
  0
LINE
  8
0
  6
CONTINUOUS
 62
     7
 10
-26.50762176513672
 20
356.912841796875
 11
-13.50761795043945
 21
356.912841796875
  0
LINE
  8
0
  6
CONTINUOUS
 62
     7
 10
-26.50762176513672
 20
353.4804077148438
 11
-13.50761795043945
 21
353.4804077148438
  0
LINE
  8
0
  6
CONTINUOUS
 62
     7
 10
47.12607574462891
 20
396.3521118164063
 11
108.3188247680664
 21
396.3521118164063
  0
LINE
  8
0
  6
CONTINUOUS
 62
     7
 10
-63.50760269165039
 20
359.8680419921875
 11
-26.50762176513672
 21
359.8680419921875
  0
LINE
  8
0
  6
CONTINUOUS
 62
     7
 10
124.992431640625
 20
367.1387329101563
 11
126.4900054931641
 21
368.0033569335938
  0
LINE
  8
0
  6
CONTINUOUS
 62
     7
 10
-263.2934265136719
 20
351.3681945800781
 11
-241.6933746337891
 21
351.3681945800781
  0
LINE
  8
0
  6
CONTINUOUS
 62
     7
 10
-280.6934204101563
 20
312.3681640625
 11
-240.6934204101563
 21
312.3681640625
  0
LINE
  8
0
  6
CONTINUOUS
 62
     7
 10
101.4899749755859
 20
369.732666015625
 11
101.4899749755859
 21
368.0033874511719
  0
LINE
  8
0
  6
CONTINUOUS
 62
     7
 10
13.99244499206543
 20
331.3680114746094
 11
13.99244499206543
 21
312.3680114746094
  0
LINE
  8
0
  6
CONTINUOUS
 62
     7
 10
-29.00763511657715
 20
331.3680114746094
 11
-29.00763511657715
 21
312.3680114746094
  0
LINE
  8
0
  6
CENTER
 62
     7
 10
-35.00759506225586
 20
331.3680114746094
 11
-35.00759506225586
 21
317.3680419921875
  0
LINE
  8
0
  6
CENTER
 62
     7
 10
19.99240303039551
 20
331.3680114746094
 11
19.99240303039551
 21
317.3680419921875
  0
LINE
  8
0
  6
CENTER
 62
     7
 10
-41.06828308105469
 20
324.3680419921875
 11
-28.0075740814209
 21
324.3680419921875
  0
LINE
  8
0
  6
CENTER
 62
     7
 10
12.99238395690918
 20
324.3680419921875
 11
26.99242401123047
 21
324.3680419921875
  0
LINE
  8
0
  6
CONTINUOUS
 62
     7
 10
-42.50759506225586
 20
331.3680114746094
 11
-29.00763511657715
 21
331.3680114746094
  0
LINE
  8
0
  6
CONTINUOUS
 62
     7
 10
13.99234294891357
 20
331.3680114746094
 11
27.49240303039551
 21
331.3680114746094
  0
LINE
  8
0
  6
CENTER
 62
     7
 10
-126.7882614135742
 20
319.3680114746094
 11
-38.23727035522461
 21
319.3680114746094
  0
LINE
  8
0
  6
CONTINUOUS
 62
     7
 10
-263.2934265136719
 20
350.3681640625
 11
-241.6933746337891
 21
350.3681640625
  0
LINE
  8
0
  6
CONTINUOUS
 62
     7
 10
-279.6934509277344
 20
348.3682250976563
 11
-271.0934143066406
 21
348.3682250976563
  0
LINE
  8
0
  6
CONTINUOUS
 62
     7
 10
-35.00746154785156
 20
326.6794738769531
 11
-37.00923919677734
 21
325.5237426757813
  0
LINE
  8
0
  6
CONTINUOUS
 62
     7
 10
-37.00934219360352
 20
325.5237426757813
 11
-37.00934219360352
 21
323.2123107910156
  0
LINE
  8
0
  6
CONTINUOUS
 62
     7
 10
-35.00763320922852
 20
322.0567016601563
 11
-37.00936508178711
 21
323.21240234375
  0
LINE
  8
0
  6
CONTINUOUS
 62
     7
 10
-35.0074462890625
 20
322.0565490722656
 11
-33.00571441650391
 21
323.2122497558594
  0
LINE
  8
0
  6
CONTINUOUS
 62
     7
 10
-33.00584411621094
 20
325.5237426757813
 11
-33.00584411621094
 21
323.2123107910156
  0
LINE
  8
0
  6
CONTINUOUS
 62
     7
 10
-35.00748443603516
 20
326.679443359375
 11
-33.00566482543945
 21
325.5237121582031
  0
LINE
  8
0
  6
CONTINUOUS
 62
     7
 10
19.99262619018555
 20
326.6794738769531
 11
17.99089431762695
 21
325.5237731933594
  0
LINE
  8
0
  6
CONTINUOUS
 62
     7
 10
17.99065399169922
 20
325.5237426757813
 11
17.99065399169922
 21
323.2123107910156
  0
LINE
  8
0
  6
CONTINUOUS
 62
     7
 10
19.99251174926758
 20
322.0567016601563
 11
17.99069213867188
 21
323.2124328613281
  0
LINE
  8
0
  6
CONTINUOUS
 62
     7
 10
19.99258613586426
 20
322.0565490722656
 11
21.99431800842285
 21
323.2122497558594
  0
LINE
  8
0
  6
CONTINUOUS
 62
     7
 10
21.99415397644043
 20
325.5237426757813
 11
21.99415397644043
 21
323.2123107910156
  0
LINE
  8
0
  6
CONTINUOUS
 62
     7
 10
19.99237251281738
 20
326.6796569824219
 11
21.99419212341309
 21
325.52392578125
  0
LINE
  8
0
  6
CONTINUOUS
 62
     7
 10
99.99242401123047
 20
367.1387329101563
 11
101.4899978637695
 21
368.0033569335938
  0
LINE
  8
0
  6
CONTINUOUS
 62
     7
 10
-72.68611907958984
 20
316.1180114746094
 11
-57.50759506225586
 21
316.1180114746094
  0
LINE
  8
0
  6
CONTINUOUS
 62
     7
 10
-72.68611907958984
 20
322.6180419921875
 11
-57.50759506225586
 21
322.6180419921875
  0
LINE
  8
0
  6
CENTER
 62
     7
 10
124.9924011230469
 20
373.5079956054688
 11
124.9924011230469
 21
364.1686706542969
  0
LINE
  8
0
  6
CONTINUOUS
 62
     7
 10
123.4948272705078
 20
369.732666015625
 11
123.4948272705078
 21
368.0033874511719
  0
LINE
  8
0
  6
CONTINUOUS
 62
     7
 10
-43.50755310058594
 20
325.3680419921875
 11
-43.50755310058594
 21
313.3680114746094
  0
LINE
  8
0
  6
CONTINUOUS
 62
     7
 10
-45.50757217407227
 20
325.3680419921875
 11
-45.50757217407227
 21
313.3680114746094
  0
LINE
  8
0
  6
CONTINUOUS
 62
     7
 10
-46.50763320922852
 20
325.8680114746094
 11
-46.50763320922852
 21
312.8680419921875
  0
LINE
  8
0
  6
CONTINUOUS
 62
     7
 10
-55.50757217407227
 20
323.8680114746094
 11
-55.50757217407227
 21
314.8680114746094
  0
LINE
  8
0
  6
CONTINUOUS
 62
     7
 10
-57.50759506225586
 20
323.8680114746094
 11
-57.50759506225586
 21
314.8680114746094
  0
LINE
  8
0
  6
CONTINUOUS
 62
     7
 10
-53.50755310058594
 20
325.8680419921875
 11
-46.50763320922852
 21
325.8680419921875
  0
LINE
  8
0
  6
CONTINUOUS
 62
     7
 10
-53.50755310058594
 20
312.8680419921875
 11
-46.50763320922852
 21
312.8680419921875
  0
LINE
  8
0
  6
CONTINUOUS
 62
     7
 10
-45.00759506225586
 20
325.8680419921875
 11
-44.00763320922852
 21
325.8680419921875
  0
LINE
  8
0
  6
CONTINUOUS
 62
     7
 10
-45.00759506225586
 20
312.8680419921875
 11
-44.00763320922852
 21
312.8680419921875
  0
LINE
  8
0
  6
CONTINUOUS
 62
     7
 10
-45.00748443603516
 20
325.867919921875
 11
-45.50751113891602
 21
325.3678894042969
  0
LINE
  8
0
  6
CONTINUOUS
 62
     7
 10
-44.00747680664063
 20
325.8680725097656
 11
-43.50745010375977
 21
325.3680419921875
  0
LINE
  8
0
  6
CONTINUOUS
 62
     7
 10
-45.50756072998047
 20
313.3680419921875
 11
-45.007568359375
 21
312.8680725097656
  0
LINE
  8
0
  6
CONTINUOUS
 62
     7
 10
-44.00762557983398
 20
312.8679504394531
 11
-43.50759506225586
 21
313.3679809570313
  0
LINE
  8
0
  6
CONTINUOUS
 62
     7
 10
-42.50759506225586
 20
312.3680114746094
 11
27.49240303039551
 21
312.3680114746094
  0
LINE
  8
0
  6
CONTINUOUS
 62
     7
 10
-241.6933746337891
 20
331.3681945800781
 11
-240.6934204101563
 21
331.3681945800781
  0
LINE
  8
0
  6
CONTINUOUS
 62
     7
 10
-280.6934204101563
 20
331.3681945800781
 11
-279.6934509277344
 21
331.3681945800781
  0
LINE
  8
0
  6
CONTINUOUS
 62
     7
 10
-241.6933746337891
 20
351.3681640625
 11
-241.6933746337891
 21
331.3681945800781
  0
LINE
  8
0
  6
CONTINUOUS
 62
     7
 10
-279.6934509277344
 20
349.3682250976563
 11
-279.6934509277344
 21
331.3681945800781
  0
LINE
  8
0
  6
CONTINUOUS
 62
     7
 10
-279.6934509277344
 20
349.3682250976563
 11
-271.0934143066406
 21
349.3682250976563
  0
LINE
  8
0
  6
CONTINUOUS
 62
     7
 10
-53.50755310058594
 20
323.3143310546875
 11
-46.50763320922852
 21
323.3143310546875
  0
LINE
  8
0
  6
CONTINUOUS
 62
     7
 10
-53.50755310058594
 20
321.8681945800781
 11
-46.50763320922852
 21
321.8681945800781
  0
LINE
  8
0
  6
CONTINUOUS
 62
     7
 10
-53.50755310058594
 20
316.8681640625
 11
-46.50763320922852
 21
316.8681640625
  0
LINE
  8
0
  6
CONTINUOUS
 62
     7
 10
-53.50755310058594
 20
315.4220275878906
 11
-46.50763320922852
 21
315.4220275878906
  0
LINE
  8
0
  6
CONTINUOUS
 62
     7
 10
-45.00759506225586
 20
323.3143310546875
 11
-44.00763320922852
 21
323.3143310546875
  0
LINE
  8
0
  6
CONTINUOUS
 62
     7
 10
-45.00759506225586
 20
321.8681945800781
 11
-44.00763320922852
 21
321.8681945800781
  0
LINE
  8
0
  6
CONTINUOUS
 62
     7
 10
-45.00759506225586
 20
316.8681640625
 11
-44.00763320922852
 21
316.8681640625
  0
LINE
  8
0
  6
CONTINUOUS
 62
     7
 10
-45.00759506225586
 20
315.4220275878906
 11
-44.00763320922852
 21
315.4220275878906
  0
LINE
  8
0
  6
CONTINUOUS
 62
     7
 10
-55.50749588012695
 20
323.8679809570313
 11
-53.50750350952148
 21
325.8679809570313
  0
LINE
  8
0
  6
CONTINUOUS
 62
     7
 10
-55.50761032104492
 20
314.8680725097656
 11
-53.50761795043945
 21
312.8680725097656
  0
LINE
  8
0
  6
CONTINUOUS
 62
     7
 10
-53.50755310058594
 20
323.3143310546875
 11
-53.50755310058594
 21
321.8681945800781
  0
LINE
  8
0
  6
CONTINUOUS
 62
     7
 10
-44.00763320922852
 20
323.3143310546875
 11
-44.00763320922852
 21
321.8681945800781
  0
LINE
  8
0
  6
CONTINUOUS
 62
     7
 10
-53.50755310058594
 20
316.8681640625
 11
-53.50755310058594
 21
315.4220275878906
  0
LINE
  8
0
  6
CONTINUOUS
 62
     7
 10
-44.00763320922852
 20
316.8681640625
 11
-44.00763320922852
 21
315.4220275878906
  0
LINE
  8
0
  6
CONTINUOUS
 62
     7
 10
-45.00759506225586
 20
323.3143310546875
 11
-45.00759506225586
 21
321.8681945800781
  0
LINE
  8
0
  6
CONTINUOUS
 62
     7
 10
-45.00759506225586
 20
316.8681640625
 11
-45.00759506225586
 21
315.4220275878906
  0
LINE
  8
0
  6
CONTINUOUS
 62
     7
 10
-46.50763320922852
 20
324.3680114746094
 11
-45.50757217407227
 21
324.3680114746094
  0
LINE
  8
0
  6
CONTINUOUS
 62
     7
 10
-46.50763320922852
 20
314.3680114746094
 11
-45.50757217407227
 21
314.3680114746094
  0
LINE
  8
0
  6
CONTINUOUS
 62
     7
 10
-57.50759506225586
 20
323.8680114746094
 11
-55.50757217407227
 21
323.8680114746094
  0
LINE
  8
0
  6
CONTINUOUS
 62
     7
 10
-57.50759506225586
 20
314.8680114746094
 11
-55.50757217407227
 21
314.8680114746094
  0
LINE
  8
0
  6
CONTINUOUS
 62
     7
 10
-271.0934143066406
 20
335.3681945800781
 11
-263.2934265136719
 21
335.3681945800781
  0
LINE
  8
0
  6
CONTINUOUS
 62
     7
 10
-240.6934204101563
 20
331.3681945800781
 11
-240.6934204101563
 21
312.3681640625
  0
LINE
  8
0
  6
CONTINUOUS
 62
     7
 10
-269.1934204101563
 20
379.4284057617188
 11
-269.1934204101563
 21
336.8682250976563
  0
LINE
  8
0
  6
CONTINUOUS
 62
     7
 10
-259.6933898925781
 20
365.3682250976563
 11
-259.6933898925781
 21
372.3682250976563
  0
LINE
  8
0
  6
CONTINUOUS
 62
     7
 10
-259.29345703125
 20
371.9682006835938
 11
-259.6934814453125
 21
372.3681945800781
  0
LINE
  8
0
  6
CONTINUOUS
 62
     7
 10
-259.2933959960938
 20
365.7681884765625
 11
-259.693359375
 21
365.3681945800781
  0
LINE
  8
0
  6
CONTINUOUS
 62
     7
 10
-259.6934204101563
 20
365.3682250976563
 11
-263.2934265136719
 21
365.3682250976563
  0
LINE
  8
0
  6
CONTINUOUS
 62
     7
 10
-259.6934204101563
 20
372.3682250976563
 11
-263.2934265136719
 21
372.3682250976563
  0
LINE
  8
0
  6
CONTINUOUS
 62
     7
 10
-259.2933959960938
 20
365.7682189941406
 11
-259.2933959960938
 21
371.9682312011719
  0
LINE
  8
0
  6
CONTINUOUS
 62
     7
 10
-263.2934265136719
 20
365.3682250976563
 11
-263.2934265136719
 21
372.3682250976563
  0
LINE
  8
0
  6
CONTINUOUS
 62
     7
 10
124.992431640625
 20
367.1387939453125
 11
123.4948806762695
 21
368.0033874511719
  0
LINE
  8
0
  6
CONTINUOUS
 62
     7
 10
-264.0934143066406
 20
364.8682250976563
 11
-263.2934265136719
 21
364.8682250976563
  0
LINE
  8
0
  6
CONTINUOUS
 62
     7
 10
-264.0934143066406
 20
372.8682250976563
 11
-263.2934265136719
 21
372.8682250976563
  0
LINE
  8
0
  6
CONTINUOUS
 62
     7
 10
-263.2934265136719
 20
372.8682250976563
 11
-263.2934265136719
 21
364.8682250976563
  0
LINE
  8
0
  6
CONTINUOUS
 62
     7
 10
-264.4933776855469
 20
373.8682250976563
 11
-264.0934143066406
 21
373.8682250976563
  0
LINE
  8
0
  6
CONTINUOUS
 62
     7
 10
-264.0934143066406
 20
373.8682250976563
 11
-264.0934143066406
 21
364.8682250976563
  0
LINE
  8
0
  6
CONTINUOUS
 62
     7
 10
-262.3934326171875
 20
353.4807739257813
 11
-262.3934326171875
 21
353.0782470703125
  0
LINE
  8
0
  6
CENTER
 62
     7
 10
-274.1647338867188
 20
368.8682250976563
 11
-256.5426635742188
 21
368.8682250976563
  0
LINE
  8
0
  6
CONTINUOUS
 62
     7
 10
-264.4933776855469
 20
373.8682250976563
 11
-264.4933776855469
 21
359.8682250976563
  0
LINE
  8
0
  6
CONTINUOUS
 62
     7
 10
-269.1934204101563
 20
373.8682250976563
 11
-264.4933776855469
 21
373.8682250976563
  0
LINE
  8
0
  6
CONTINUOUS
 62
     7
 10
-269.1934204101563
 20
359.8682250976563
 11
-264.1934204101563
 21
359.8682250976563
  0
LINE
  8
0
  6
CONTINUOUS
 62
     7
 10
-270.1934204101563
 20
349.8682250976563
 11
-269.1934204101563
 21
349.8682250976563
  0
LINE
  8
0
  6
CONTINUOUS
 62
     7
 10
-282.22119140625
 20
332.3677368164063
 11
-280.6930847167969
 21
333.8958435058594
  0
LINE
  8
0
  6
CONTINUOUS
 62
     7
 10
-285.1935729980469
 20
377.7464599609375
 11
-284.0971374511719
 21
378.8428955078125
  0
LINE
  8
0
  6
CONTINUOUS
 62
     7
 10
-270.1934204101563
 20
336.8682250976563
 11
-264.1933898925781
 21
336.8682250976563
  0
LINE
  8
0
  6
CONTINUOUS
 62
     7
 10
-285.1080627441406
 20
352.8682250976563
 11
-269.1934204101563
 21
352.8682250976563
  0
LINE
  8
0
  6
CONTINUOUS
 62
     7
 10
-282.6208190917969
 20
298.0275268554688
 11
-280.693359375
 21
299.9549865722656
  0
LINE
  8
0
  6
CONTINUOUS
 62
     7
 10
-285.1934204101563
 20
309.5971069335938
 11
-280.6934509277344
 21
314.0971069335938
  0
LINE
  8
0
  6
CONTINUOUS
 62
     7
 10
-285.1933288574219
 20
298.2833862304688
 11
-280.6633911132813
 21
302.8133544921875
  0
LINE
  8
0
  6
CONTINUOUS
 62
     7
 10
-285.1932983398438
 20
301.1117553710938
 11
-280.6932983398438
 21
305.6117553710938
  0
LINE
  8
0
  6
CONTINUOUS
 62
     7
 10
-285.1932678222656
 20
303.9402770996094
 11
-280.6932983398438
 21
308.4402465820313
  0
LINE
  8
0
  6
CONTINUOUS
 62
     7
 10
-285.1933288574219
 20
306.7687072753906
 11
-280.6933288574219
 21
311.2686767578125
  0
LINE
  8
0
  6
CONTINUOUS
 62
     7
 10
-285.1932678222656
 20
312.4254150390625
 11
-280.6932678222656
 21
316.9254150390625
  0
LINE
  8
0
  6
CONTINUOUS
 62
     7
 10
-285.1932983398438
 20
326.567626953125
 11
-280.6932983398438
 21
331.0676574707031
  0
LINE
  8
0
  6
CONTINUOUS
 62
     7
 10
-285.1933288574219
 20
315.2539367675781
 11
-280.6932983398438
 21
319.7539672851563
  0
LINE
  8
0
  6
CONTINUOUS
 62
     7
 10
-285.1932983398438
 20
318.0823669433594
 11
-280.693359375
 21
322.5823059082031
  0
LINE
  8
0
  6
CONTINUOUS
 62
     7
 10
-285.1933288574219
 20
320.9107666015625
 11
-280.6933288574219
 21
325.4107666015625
  0
LINE
  8
0
  6
CONTINUOUS
 62
     7
 10
-285.193359375
 20
323.7392272949219
 11
-280.693359375
 21
328.2392272949219
  0
LINE
  8
0
  6
CONTINUOUS
 62
     7
 10
-285.0920104980469
 20
329.497802734375
 11
-280.7939758300781
 21
333.7958679199219
  0
LINE
  8
0
  6
CONTINUOUS
 62
     7
 10
-284.591552734375
 20
358.5490417480469
 11
-269.1934204101563
 21
373.9472045898438
  0
LINE
  8
0
  6
CONTINUOUS
 62
     7
 10
-285.0498962402344
 20
332.3679504394531
 11
-280.6933288574219
 21
336.7244873046875
  0
LINE
  8
0
  6
CONTINUOUS
 62
     7
 10
-280.6934204101563
 20
337.2686157226563
 11
-280.6934204101563
 21
304.3680114746094
  0
LINE
  8
0
  6
CONTINUOUS
 62
     7
 10
-280.6934204101563
 20
304.3680114746094
 11
-280.6934204101563
 21
296.908935546875
  0
LINE
  8
0
  6
CONTINUOUS
 62
     7
 10
-285.1933898925781
 20
335.319580078125
 11
-283.1012268066406
 21
337.4117431640625
  0
LINE
  8
0
  6
CONTINUOUS
 62
     7
 10
-284.6441040039063
 20
361.3249206542969
 11
-269.1934204101563
 21
376.775634765625
  0
LINE
  8
0
  6
CONTINUOUS
 62
     7
 10
-284.7539672851563
 20
355.5581970214844
 11
-269.1934204101563
 21
371.1187744140625
  0
LINE
  8
0
  6
CONTINUOUS
 62
     7
 10
124.9923934936523
 20
370.5972900390625
 11
123.4948425292969
 21
369.732666015625
  0
LINE
  8
0
  6
CONTINUOUS
 62
     7
 10
124.9924621582031
 20
370.5972290039063
 11
126.4900207519531
 21
369.7326354980469
  0
LINE
  8
0
  6
CONTINUOUS
 62
     7
 10
-281.7870788574219
 20
352.8682250976563
 11
-269.1934204101563
 21
365.4619140625
  0
LINE
  8
0
  6
CONTINUOUS
 62
     7
 10
-278.9586791992188
 20
352.8682250976563
 11
-269.1934204101563
 21
362.6334838867188
  0
LINE
  8
0
  6
CONTINUOUS
 62
     7
 10
-276.1302490234375
 20
352.8682250976563
 11
-269.1934204101563
 21
359.8050537109375
  0
LINE
  8
0
  6
CONTINUOUS
 62
     7
 10
-284.625
 20
364.1724548339844
 11
-269.9547729492188
 21
378.8427124023438
  0
LINE
  8
0
  6
CONTINUOUS
 62
     7
 10
-273.3018188476563
 20
352.8682250976563
 11
-269.1934204101563
 21
356.9766235351563
  0
LINE
  8
0
  6
CONTINUOUS
 62
     7
 10
-284.6155090332031
 20
352.8682250976563
 11
-269.1934204101563
 21
368.2903442382813
  0
LINE
  8
0
  6
CONTINUOUS
 62
     7
 10
-284.5153198242188
 20
369.9393615722656
 11
-275.6118469238281
 21
378.8428344726563
  0
LINE
  8
0
  6
CONTINUOUS
 62
     7
 10
-285.1932983398438
 20
372.0894470214844
 11
-278.4400329589844
 21
378.8427124023438
  0
LINE
  8
0
  6
CONTINUOUS
 62
     7
 10
-285.1932983398438
 20
374.9178161621094
 11
-281.2684326171875
 21
378.8426818847656
  0
LINE
  8
0
  6
CENTER
 62
     7
 10
-273.3504638671875
 20
368.8682250976563
 11
-260.1514282226563
 21
368.8682250976563
  0
LINE
  8
0
  6
CONTINUOUS
 62
     7
 10
-284.2477416992188
 20
367.3784484863281
 11
-272.7833862304688
 21
378.8428039550781
  0
LINE
  8
0
  6
CENTER
 62
     7
 10
-260.6934204101563
 20
327.3877868652344
 11
-260.6934204101563
 21
311.3681945800781
  0
LINE
  8
0
  6
CENTER
 62
     7
 10
-268.6935119628906
 20
319.3681945800781
 11
-252.6934814453125
 21
319.3681945800781
  0
LINE
  8
0
  6
CONTINUOUS
 62
     7
 10
-254.6934051513672
 20
321.8681945800781
 11
-254.6934051513672
 21
316.8681945800781
  0
LINE
  8
0
  6
CONTINUOUS
 62
     7
 10
-266.6933898925781
 20
321.8681945800781
 11
-266.6933898925781
 21
316.8681945800781
  0
LINE
  8
0
  6
CONTINUOUS
 62
     7
 10
-265.8584899902344
 20
315.4220275878906
 11
-261.5283813476563
 21
312.9220275878906
  0
LINE
  8
0
  6
CONTINUOUS
 62
     7
 10
-259.8584594726563
 20
325.8143310546875
 11
-255.5282745361328
 21
323.3143005371094
  0
LINE
  8
0
  6
CONTINUOUS
 62
     7
 10
-265.8584594726563
 20
323.3143310546875
 11
-261.5283203125
 21
325.8143310546875
  0
LINE
  8
0
  6
CONTINUOUS
 62
     7
 10
-259.8584289550781
 20
312.9220886230469
 11
-255.5283050537109
 21
315.4220886230469
  0
LINE
  8
0
  6
DASHED
 62
     7
 10
-11.51484680175781
 20
343.8087768554688
 11
-3.50036883354187
 21
343.8087768554688
  0
LINE
  8
0
  6
DASHED
 62
     7
 10
-11.51484680175781
 20
343.8087768554688
 11
-7.507607936859131
 21
336.8680114746094
  0
LINE
  8
0
  6
DASHED
 62
     7
 10
-7.507607936859131
 20
336.8680114746094
 11
-3.50036883354187
 21
343.8087768554688
  0
LINE
  8
0
  6
HIDDEN
 62
     7
 10
-420.5
 20
13
 11
420.5
 21
13
  0
LINE
  8
0
  6
HIDDEN
 62
     7
 10
420.5
 20
607
 11
420.5
 21
13
  0
LINE
  8
0
  6
CONTINUOUS
 62
     7
 10
251.5586090087891
 20
141.3497314453125
 11
251.5586090087891
 21
93.3497314453125
  0
LINE
  8
0
  6
CONTINUOUS
 62
     7
 10
236.5586090087891
 20
141.3497314453125
 11
236.5586090087891
 21
93.3497314453125
  0
LINE
  8
0
  6
CONTINUOUS
 62
     7
 10
191.5586090087891
 20
141.3497314453125
 11
191.5586090087891
 21
93.3497314453125
  0
LINE
  8
0
  6
CONTINUOUS
 62
     7
 10
176.5586090087891
 20
141.3497314453125
 11
176.5586090087891
 21
93.3497314453125
  0
LINE
  8
0
  6
CONTINUOUS
 62
     7
 10
131.5586090087891
 20
141.3497314453125
 11
311.55859375
 21
141.3497314453125
  0
LINE
  8
0
  6
CONTINUOUS
 62
     7
 10
206.5586090087891
 20
141.3497314453125
 11
206.5586090087891
 21
93.3497314453125
  0
LINE
  8
0
  6
CONTINUOUS
 62
     7
 10
266.55859375
 20
141.3497314453125
 11
266.55859375
 21
93.3497314453125
  0
LINE
  8
0
  6
CONTINUOUS
 62
     7
 10
131.5586090087891
 20
109.3497314453125
 11
311.55859375
 21
109.3497314453125
  0
LINE
  8
0
  6
CONTINUOUS
 62
     7
 10
131.5586090087891
 20
117.3497314453125
 11
311.55859375
 21
117.3497314453125
  0
LINE
  8
0
  6
CONTINUOUS
 62
     7
 10
131.5586090087891
 20
125.3497314453125
 11
311.55859375
 21
125.3497314453125
  0
LINE
  8
0
  6
CONTINUOUS
 62
     7
 10
131.5586090087891
 20
133.3497314453125
 11
311.55859375
 21
133.3497314453125
  0
LINE
  8
0
  6
CONTINUOUS
 62
     7
 10
131.5586090087891
 20
101.3497314453125
 11
311.55859375
 21
101.3497314453125
  0
LINE
  8
0
  6
CONTINUOUS
 62
     7
 10
221.5586090087891
 20
141.3497314453125
 11
221.5586090087891
 21
93.3497314453125
  0
LINE
  8
0
  6
CONTINUOUS
 62
     7
 10
281.55859375
 20
141.3497314453125
 11
281.55859375
 21
93.3497314453125
  0
LINE
  8
0
  6
CONTINUOUS
 62
     7
 10
296.55859375
 20
141.3497314453125
 11
296.55859375
 21
93.3497314453125
  0
LINE
  8
0
  6
CONTINUOUS
 62
     7
 10
311.55859375
 20
141.3497314453125
 11
311.55859375
 21
93.3497314453125
  0
LINE
  8
0
  6
CONTINUOUS
 62
     7
 10
131.5586090087891
 20
141.3497314453125
 11
131.5586090087891
 21
93.3497314453125
  0
LINE
  8
0
  6
CONTINUOUS
 62
     7
 10
131.5586090087891
 20
93.3497314453125
 11
311.55859375
 21
93.3497314453125
  0
LINE
  8
0
  6
CONTINUOUS
 62
     7
 10
-195.5076293945313
 20
450.3070068359375
 11
-195.5076293945313
 21
359.8680419921875
  0
LINE
  8
0
  6
CONTINUOUS
 62
     7
 10
180.4923706054688
 20
450.3070068359375
 11
180.4923706054688
 21
359.8680419921875
  0
LINE
  8
0
  6
CONTINUOUS
 62
     7
 10
-7.507607936859131
 20
438.1176452636719
 11
-7.507607936859131
 21
384.8126831054688
  0
LINE
  8
0
  6
CONTINUOUS
 62
     7
 10
-82.50759124755859
 20
438.1176452636719
 11
-82.50759124755859
 21
384.8353576660156
  0
LINE
  8
0
  6
CONTINUOUS
 62
     7
 10
67.49240112304688
 20
438.1176452636719
 11
67.49240112304688
 21
385.5772705078125
  0
LINE
  8
0
  6
CONTINUOUS
 62
     7
 10
-172.5076141357422
 20
438.1176452636719
 11
-172.5076141357422
 21
384.8353576660156
  0
LINE
  8
0
  6
CONTINUOUS
 62
     7
 10
-127.5076065063477
 20
426.8935241699219
 11
-127.5076065063477
 21
384.8353576660156
  0
LINE
  8
0
  6
CONTINUOUS
 62
     7
 10
112.4924011230469
 20
426.8935241699219
 11
112.4924011230469
 21
386.2741088867188
  0
LINE
  8
0
  6
CONTINUOUS
 62
     7
 10
157.4924011230469
 20
438.1176452636719
 11
157.4924011230469
 21
386.3757934570313
  0
LINE
  8
0
  6
CONTINUOUS
 62
     7
 10
112.4924011230469
 20
426.8935241699219
 11
112.4924011230469
 21
385.5772705078125
  0
LINE
  8
0
  6
CONTINUOUS
 62
     7
 10
-42.50759506225586
 20
312.3680114746094
 11
-42.50759506225586
 21
266.4081726074219
  0
LINE
  8
0
  6
CONTINUOUS
 62
     7
 10
-7.507607936859131
 20
336.8680114746094
 11
-7.507607936859131
 21
296.5766906738281
  0
LINE
  8
0
  6
CONTINUOUS
 62
     7
 10
142.4923858642578
 20
336.8680114746094
 11
142.4923858642578
 21
296.5766906738281
  0
LINE
  8
0
  6
CONTINUOUS
 62
     7
 10
-157.5076141357422
 20
336.8680114746094
 11
-157.5076141357422
 21
296.5766906738281
  0
LINE
  8
0
  6
CENTER
 62
     7
 10
-270.0113830566406
 20
121.5617828369141
 11
-270.0113830566406
 21
113.7040176391602
  0
LINE
  8
0
  6
CONTINUOUS
 62
     7
 10
-274.5113830566406
 20
112.2378540039063
 11
-240.5113830566406
 21
112.2378540039063
  0
LINE
  8
0
  6
CENTER
 62
     7
 10
-274.5646667480469
 20
117.2378540039063
 11
-240.3602752685547
 21
117.2378540039063
  0
LINE
  8
0
  6
CONTINUOUS
 62
     7
 10
-276.5113830566406
 20
120.2378311157227
 11
-276.5113830566406
 21
114.2378463745117
  0
LINE
  8
0
  6
CENTER
 62
     7
 10
-245.0113983154297
 20
121.0995483398438
 11
-245.0113983154297
 21
113.2417755126953
  0
LINE
  8
0
  6
CONTINUOUS
 62
     7
 10
-238.5113830566406
 20
120.2378311157227
 11
-238.5113830566406
 21
114.2378463745117
  0
LINE
  8
0
  6
CENTER
 62
     7
 10
-257.5113830566406
 20
124.7973098754883
 11
-257.5113830566406
 21
108.6195602416992
  0
LINE
  8
0
  6
CONTINUOUS
 62
     7
 10
-274.5113830566406
 20
122.2378540039063
 11
-240.5113830566406
 21
122.2378540039063
  0
LINE
  8
0
  6
CONTINUOUS
 62
     7
 10
-20.55989265441895
 20
111.7378234863281
 11
-20.55989265441895
 21
101.2378387451172
  0
LINE
  8
0
  6
CONTINUOUS
 62
     7
 10
-45.55989074707031
 20
121.2378387451172
 11
-45.55989074707031
 21
101.2378387451172
  0
LINE
  8
0
  6
CONTINUOUS
 62
     7
 10
-7.559914112091065
 20
121.2378387451172
 11
-7.559914112091065
 21
101.2378387451172
  0
LINE
  8
0
  6
CONTINUOUS
 62
     7
 10
27.50142478942871
 20
102.0258026123047
 11
27.50142478942871
 21
101.6258010864258
  0
LINE
  8
0
  6
CENTER
 62
     7
 10
25.82977294921875
 20
103.4257965087891
 11
30.89096069335938
 21
103.4257965087891
  0
LINE
  8
0
  6
CONTINUOUS
 62
     7
 10
27.50142478942871
 20
122.2257995605469
 11
27.50142478942871
 21
105.2588348388672
  0
LINE
  8
0
  6
CONTINUOUS
 62
     7
 10
27.50142478942871
 20
122.2257995605469
 11
27.90142440795898
 21
122.2257995605469
  0
LINE
  8
0
  6
CENTER
 62
     7
 10
25.52607345581055
 20
117.2257995605469
 11
30.68852806091309
 21
117.2257995605469
  0
LINE
  8
0
  6
CONTINUOUS
 62
     7
 10
-14.55992126464844
 20
115.2378540039063
 11
-13.5599365234375
 21
115.2378540039063
  0
LINE
  8
0
  6
CONTINUOUS
 62
     7
 10
-14.55992126464844
 20
119.2378540039063
 11
-13.5599365234375
 21
119.2378540039063
  0
LINE
  8
0
  6
CENTER
 62
     7
 10
-26.55992889404297
 20
126.0431671142578
 11
-26.55992889404297
 21
98.10373687744141
  0
LINE
  8
0
  6
CONTINUOUS
 62
     7
 10
-44.55991363525391
 20
122.2378540039063
 11
-8.559898376464844
 21
122.2378540039063
  0
LINE
  8
0
  6
CENTER
 62
     7
 10
-14.05992889404297
 20
120.7213821411133
 11
-14.05992889404297
 21
113.8473739624023
  0
LINE
  8
0
  6
CENTER
 62
     7
 10
-42.82575225830078
 20
117.2378540039063
 11
-10.69236373901367
 21
117.2378540039063
  0
LINE
  8
0
  6
CENTER
 62
     7
 10
-39.05990219116211
 20
120.4996185302734
 11
-39.05990219116211
 21
113.8473739624023
  0
LINE
  8
0
  6
CONTINUOUS
 62
     7
 10
-20.55989265441895
 20
101.850227355957
 11
-7.55988883972168
 21
101.850227355957
  0
LINE
  8
0
  6
CONTINUOUS
 62
     7
 10
-45.55989837646484
 20
101.2378387451172
 11
-32.55989456176758
 21
101.2378387451172
  0
LINE
  8
0
  6
CONTINUOUS
 62
     7
 10
-45.55989837646484
 20
101.850227355957
 11
-32.55989456176758
 21
101.850227355957
  0
LINE
  8
0
  6
CONTINUOUS
 62
     7
 10
-45.55989837646484
 20
105.2826385498047
 11
-32.55989456176758
 21
105.2826385498047
  0
LINE
  8
0
  6
CONTINUOUS
 62
     7
 10
-20.55989265441895
 20
105.2826385498047
 11
-7.55988883972168
 21
105.2826385498047
  0
LINE
  8
0
  6
CONTINUOUS
 62
     7
 10
-20.55989265441895
 20
101.2378387451172
 11
-7.55988883972168
 21
101.2378387451172
  0
LINE
  8
0
  6
CONTINUOUS
 62
     7
 10
-32.55988693237305
 20
111.7378234863281
 11
-32.55988693237305
 21
101.2378387451172
  0
LINE
  8
0
  6
CONTINUOUS
 62
     7
 10
-32.05989074707031
 20
112.2378540039063
 11
-21.05989837646484
 21
112.2378540039063
  0
LINE
  8
0
  6
CONTINUOUS
 62
     7
 10
27.90142440795898
 20
122.2257995605469
 11
27.90142440795898
 21
105.4057006835938
  0
LINE
  8
0
  6
CENTER
 62
     7
 10
-174.8159332275391
 20
120.7213745117188
 11
-174.8159332275391
 21
113.8473663330078
  0
LINE
  8
0
  6
CONTINUOUS
 62
     7
 10
-178.8159484863281
 20
122.2378540039063
 11
-120.8159408569336
 21
122.2378540039063
  0
LINE
  8
0
  6
CONTINUOUS
 62
     7
 10
-179.8159332275391
 20
108.2378387451172
 11
-170.8159332275391
 21
108.2378387451172
  0
LINE
  8
0
  6
CENTER
 62
     7
 10
-137.3159332275391
 20
120.7213745117188
 11
-137.3159332275391
 21
113.8473663330078
  0
LINE
  8
0
  6
CENTER
 62
     7
 10
-162.3159332275391
 20
120.9430847167969
 11
-162.3159332275391
 21
113.8473663330078
  0
LINE
  8
0
  6
CONTINUOUS
 62
     7
 10
-170.8159332275391
 20
109.7378540039063
 11
-170.8159332275391
 21
108.2378387451172
  0
LINE
  8
0
  6
CONTINUOUS
 62
     7
 10
-128.8159484863281
 20
109.7378540039063
 11
-128.8159484863281
 21
108.2378387451172
  0
LINE
  8
0
  6
CENTER
 62
     7
 10
-124.8159484863281
 20
120.9430847167969
 11
-124.8159484863281
 21
113.1821594238281
  0
LINE
  8
0
  6
CENTER
 62
     7
 10
-178.7354583740234
 20
117.2378387451172
 11
-120.8145980834961
 21
117.2378387451172
  0
LINE
  8
0
  6
CONTINUOUS
 62
     7
 10
-179.8159332275391
 20
121.2378387451172
 11
-179.8159332275391
 21
108.2378387451172
  0
LINE
  8
0
  6
CONTINUOUS
 62
     7
 10
-119.8159408569336
 20
121.2378387451172
 11
-119.8159408569336
 21
108.2378387451172
  0
LINE
  8
0
  6
CONTINUOUS
 62
     7
 10
-170.3159332275391
 20
110.2378311157227
 11
-129.3159332275391
 21
110.2378311157227
  0
LINE
  8
0
  6
CONTINUOUS
 62
     7
 10
-128.8159484863281
 20
108.2378387451172
 11
-119.8159332275391
 21
108.2378387451172
  0
LINE
  8
0
  6
CENTER
 62
     7
 10
-149.81591796875
 20
125.821418762207
 11
-149.81591796875
 21
105.6429443359375
  0
LINE
  8
0
  6
CONTINUOUS
 62
     7
 10
-280.6933898925781
 20
394.9551391601563
 11
-280.6934204101563
 21
338.222412109375
  0
LINE
  8
0
  6
CONTINUOUS
 62
     7
 10
-269.1933898925781
 20
394.9551391601563
 11
-269.1934204101563
 21
380.2698974609375
  0
LINE
  8
0
  6
CONTINUOUS
 62
     7
 10
4.189764499664307
 20
-242.9637756347656
 11
4.189764499664307
 21
-283.2550964355469
  0
LINE
  8
0
  6
CONTINUOUS
 62
     7
 10
154.1897583007813
 20
-242.9637756347656
 11
154.1897583007813
 21
-283.2550964355469
  0
LINE
  8
0
  6
CONTINUOUS
 62
     7
 10
-145.8102416992188
 20
-242.9637756347656
 11
-145.8102416992188
 21
-283.2550964355469
  0
LINE
  8
0
  6
CONTINUOUS
 62
     7
 10
-264.1934204101563
 20
359.8682250976563
 11
-264.1934204101563
 21
336.8682250976563
  0
LINE
  8
0
  6
CONTINUOUS
 62
     7
 10
-270.1934204101563
 20
349.8682250976563
 11
-270.1934204101563
 21
336.8682250976563
  0
LINE
  8
0
  6
CONTINUOUS
 62
     7
 10
-271.0934143066406
 20
349.3682250976563
 11
-271.0934143066406
 21
335.3681945800781
  0
LINE
  8
0
  6
CONTINUOUS
 62
     7
 10
-263.2934265136719
 20
351.3681945800781
 11
-263.2934265136719
 21
335.3681945800781
  0
LINE
  8
0
  6
CENTER
 62
     7
 10
288.1606140136719
 20
342.8682250976563
 11
274.78955078125
 21
342.8682250976563
  0
LINE
  8
0
  6
CONTINUOUS
 62
     7
 10
278.2782287597656
 20
351.3681945800781
 11
256.6781921386719
 21
351.3681945800781
  0
LINE
  8
0
  6
CONTINUOUS
 62
     7
 10
295.67822265625
 20
312.3681640625
 11
255.67822265625
 21
312.3681640625
  0
LINE
  8
0
  6
CONTINUOUS
 62
     7
 10
278.2782287597656
 20
350.3681640625
 11
256.6781921386719
 21
350.3681640625
  0
LINE
  8
0
  6
CONTINUOUS
 62
     7
 10
294.6782531738281
 20
348.3682250976563
 11
286.0782165527344
 21
348.3682250976563
  0
LINE
  8
0
  6
CONTINUOUS
 62
     7
 10
256.6781921386719
 20
331.3681945800781
 11
255.67822265625
 21
331.3681945800781
  0
LINE
  8
0
  6
CONTINUOUS
 62
     7
 10
295.67822265625
 20
331.3681945800781
 11
294.6782531738281
 21
331.3681945800781
  0
LINE
  8
0
  6
CONTINUOUS
 62
     7
 10
256.6781921386719
 20
351.3681640625
 11
256.6781921386719
 21
331.3681945800781
  0
LINE
  8
0
  6
CONTINUOUS
 62
     7
 10
294.6782531738281
 20
349.3682250976563
 11
294.6782531738281
 21
331.3681945800781
  0
LINE
  8
0
  6
CONTINUOUS
 62
     7
 10
294.6782531738281
 20
349.3682250976563
 11
286.0782165527344
 21
349.3682250976563
  0
LINE
  8
0
  6
CONTINUOUS
 62
     7
 10
286.0782165527344
 20
335.3681945800781
 11
278.2782287597656
 21
335.3681945800781
  0
LINE
  8
0
  6
CONTINUOUS
 62
     7
 10
255.67822265625
 20
331.3681945800781
 11
255.67822265625
 21
312.3681640625
  0
LINE
  8
0
  6
CONTINUOUS
 62
     7
 10
284.17822265625
 20
379.4284057617188
 11
284.17822265625
 21
336.8682250976563
  0
LINE
  8
0
  6
CONTINUOUS
 62
     7
 10
285.17822265625
 20
349.8682250976563
 11
285.17822265625
 21
336.8682250976563
  0
LINE
  8
0
  6
CONTINUOUS
 62
     7
 10
274.6781921386719
 20
365.3682250976563
 11
274.6781921386719
 21
372.3682250976563
  0
LINE
  8
0
  6
CONTINUOUS
 62
     7
 10
274.2782592773438
 20
371.9682006835938
 11
274.6782836914063
 21
372.3681945800781
  0
LINE
  8
0
  6
CONTINUOUS
 62
     7
 10
274.2781982421875
 20
365.7681884765625
 11
274.6781616210938
 21
365.3681945800781
  0
LINE
  8
0
  6
CONTINUOUS
 62
     7
 10
274.67822265625
 20
365.3682250976563
 11
278.2782287597656
 21
365.3682250976563
  0
LINE
  8
0
  6
CONTINUOUS
 62
     7
 10
274.67822265625
 20
372.3682250976563
 11
278.2782287597656
 21
372.3682250976563
  0
LINE
  8
0
  6
CONTINUOUS
 62
     7
 10
274.2781982421875
 20
365.7682189941406
 11
274.2781982421875
 21
371.9682312011719
  0
LINE
  8
0
  6
CONTINUOUS
 62
     7
 10
278.2782287597656
 20
365.3682250976563
 11
278.2782287597656
 21
372.3682250976563
  0
LINE
  8
0
  6
CONTINUOUS
 62
     7
 10
279.0782165527344
 20
364.8682250976563
 11
278.2782287597656
 21
364.8682250976563
  0
LINE
  8
0
  6
CONTINUOUS
 62
     7
 10
279.0782165527344
 20
372.8682250976563
 11
278.2782287597656
 21
372.8682250976563
  0
LINE
  8
0
  6
CONTINUOUS
 62
     7
 10
278.2782287597656
 20
372.8682250976563
 11
278.2782287597656
 21
364.8682250976563
  0
LINE
  8
0
  6
CONTINUOUS
 62
     7
 10
279.4781799316406
 20
373.8682250976563
 11
279.0782165527344
 21
373.8682250976563
  0
LINE
  8
0
  6
CONTINUOUS
 62
     7
 10
279.0782165527344
 20
373.8682250976563
 11
279.0782165527344
 21
364.8682250976563
  0
LINE
  8
0
  6
CONTINUOUS
 62
     7
 10
277.3782348632813
 20
353.4807739257813
 11
277.3782348632813
 21
353.0782470703125
  0
LINE
  8
0
  6
CENTER
 62
     7
 10
289.1495361328125
 20
368.8682250976563
 11
271.5274658203125
 21
368.8682250976563
  0
LINE
  8
0
  6
CONTINUOUS
 62
     7
 10
279.4781799316406
 20
373.8682250976563
 11
279.4781799316406
 21
359.8682250976563
  0
LINE
  8
0
  6
CONTINUOUS
 62
     7
 10
284.17822265625
 20
373.8682250976563
 11
279.4781799316406
 21
373.8682250976563
  0
LINE
  8
0
  6
CONTINUOUS
 62
     7
 10
284.17822265625
 20
359.8682250976563
 11
279.17822265625
 21
359.8682250976563
  0
LINE
  8
0
  6
CONTINUOUS
 62
     7
 10
279.17822265625
 20
359.8682250976563
 11
279.17822265625
 21
336.8682250976563
  0
LINE
  8
0
  6
CONTINUOUS
 62
     7
 10
285.17822265625
 20
349.8682250976563
 11
284.17822265625
 21
349.8682250976563
  0
LINE
  8
0
  6
CONTINUOUS
 62
     7
 10
297.2059936523438
 20
332.3677368164063
 11
295.6778869628906
 21
333.8958435058594
  0
LINE
  8
0
  6
CONTINUOUS
 62
     7
 10
300.1783752441406
 20
377.7464599609375
 11
299.0819396972656
 21
378.8428955078125
  0
LINE
  8
0
  6
CONTINUOUS
 62
     7
 10
285.17822265625
 20
336.8682250976563
 11
279.1781921386719
 21
336.8682250976563
  0
LINE
  8
0
  6
CONTINUOUS
 62
     7
 10
300.0928649902344
 20
352.8682250976563
 11
284.17822265625
 21
352.8682250976563
  0
LINE
  8
0
  6
CONTINUOUS
 62
     7
 10
297.6056213378906
 20
298.0275268554688
 11
295.6781616210938
 21
299.9549865722656
  0
LINE
  8
0
  6
CONTINUOUS
 62
     7
 10
300.17822265625
 20
309.5971069335938
 11
295.6782531738281
 21
314.0971069335938
  0
LINE
  8
0
  6
CONTINUOUS
 62
     7
 10
300.1781616210938
 20
298.2833862304688
 11
295.648193359375
 21
302.8133544921875
  0
LINE
  8
0
  6
CONTINUOUS
 62
     7
 10
300.1781311035156
 20
301.1117553710938
 11
295.6781005859375
 21
305.6117553710938
  0
LINE
  8
0
  6
CONTINUOUS
 62
     7
 10
300.1780700683594
 20
303.9402770996094
 11
295.6781005859375
 21
308.4402465820313
  0
LINE
  8
0
  6
CONTINUOUS
 62
     7
 10
300.1781311035156
 20
306.7687072753906
 11
295.6781311035156
 21
311.2686767578125
  0
LINE
  8
0
  6
CONTINUOUS
 62
     7
 10
300.1780700683594
 20
312.4254150390625
 11
295.6780700683594
 21
316.9254150390625
  0
LINE
  8
0
  6
CONTINUOUS
 62
     7
 10
300.1781005859375
 20
326.567626953125
 11
295.6781005859375
 21
331.0676574707031
  0
LINE
  8
0
  6
CONTINUOUS
 62
     7
 10
300.1781311035156
 20
315.2539367675781
 11
295.6781311035156
 21
319.7539672851563
  0
LINE
  8
0
  6
CONTINUOUS
 62
     7
 10
300.1781311035156
 20
318.0823669433594
 11
295.6781616210938
 21
322.5823059082031
  0
LINE
  8
0
  6
CONTINUOUS
 62
     7
 10
300.1781311035156
 20
320.9107666015625
 11
295.6781311035156
 21
325.4107666015625
  0
LINE
  8
0
  6
CONTINUOUS
 62
     7
 10
300.1781616210938
 20
323.7392272949219
 11
295.6781921386719
 21
328.2392272949219
  0
LINE
  8
0
  6
CONTINUOUS
 62
     7
 10
300.0768127441406
 20
329.497802734375
 11
295.7787780761719
 21
333.7958679199219
  0
LINE
  8
0
  6
CONTINUOUS
 62
     7
 10
299.5763549804688
 20
358.5490417480469
 11
284.17822265625
 21
373.9472045898438
  0
LINE
  8
0
  6
CONTINUOUS
 62
     7
 10
300.0346984863281
 20
332.3679504394531
 11
295.6781311035156
 21
336.7244873046875
  0
LINE
  8
0
  6
CONTINUOUS
 62
     7
 10
295.67822265625
 20
337.2686157226563
 11
295.67822265625
 21
304.3680114746094
  0
LINE
  8
0
  6
CONTINUOUS
 62
     7
 10
295.67822265625
 20
304.3680114746094
 11
295.67822265625
 21
296.908935546875
  0
LINE
  8
0
  6
CONTINUOUS
 62
     7
 10
300.1781921386719
 20
335.319580078125
 11
298.0860290527344
 21
337.4117431640625
  0
LINE
  8
0
  6
CONTINUOUS
 62
     7
 10
299.62890625
 20
361.3249206542969
 11
284.17822265625
 21
376.775634765625
  0
LINE
  8
0
  6
CONTINUOUS
 62
     7
 10
299.73876953125
 20
355.5581970214844
 11
284.17822265625
 21
371.1187744140625
  0
LINE
  8
0
  6
CONTINUOUS
 62
     7
 10
296.7719116210938
 20
352.8682250976563
 11
284.17822265625
 21
365.4619140625
  0
LINE
  8
0
  6
CONTINUOUS
 62
     7
 10
293.9434814453125
 20
352.8682250976563
 11
284.17822265625
 21
362.6334838867188
  0
LINE
  8
0
  6
CONTINUOUS
 62
     7
 10
291.1150512695313
 20
352.8682250976563
 11
284.17822265625
 21
359.8050537109375
  0
LINE
  8
0
  6
CONTINUOUS
 62
     7
 10
299.6098022460938
 20
364.1724548339844
 11
284.9395751953125
 21
378.8427124023438
  0
LINE
  8
0
  6
CONTINUOUS
 62
     7
 10
288.28662109375
 20
352.8682250976563
 11
284.17822265625
 21
356.9766235351563
  0
LINE
  8
0
  6
CONTINUOUS
 62
     7
 10
299.6003112792969
 20
352.8682250976563
 11
284.17822265625
 21
368.2903442382813
  0
LINE
  8
0
  6
CONTINUOUS
 62
     7
 10
299.5001220703125
 20
369.9393615722656
 11
290.5966491699219
 21
378.8428344726563
  0
LINE
  8
0
  6
CONTINUOUS
 62
     7
 10
300.1781005859375
 20
372.0894470214844
 11
293.4248352050781
 21
378.8427124023438
  0
LINE
  8
0
  6
CONTINUOUS
 62
     7
 10
300.1781005859375
 20
374.9178161621094
 11
296.2532348632813
 21
378.8426818847656
  0
LINE
  8
0
  6
CENTER
 62
     7
 10
288.3352661132813
 20
368.8682250976563
 11
275.13623046875
 21
368.8682250976563
  0
LINE
  8
0
  6
CONTINUOUS
 62
     7
 10
299.2325439453125
 20
367.3784484863281
 11
287.7681884765625
 21
378.8428039550781
  0
LINE
  8
0
  6
CONTINUOUS
 62
     7
 10
278.2782287597656
 20
351.3681945800781
 11
278.2782287597656
 21
335.3681945800781
  0
LINE
  8
0
  6
CONTINUOUS
 62
     7
 10
286.0782165527344
 20
349.3682250976563
 11
286.0782165527344
 21
335.3681945800781
  0
LINE
  8
0
  6
CONTINUOUS
 62
     7
 10
311.2737121582031
 20
-221.2827453613281
 11
295.8755798339844
 21
-205.8845825195313
  0
LINE
  8
0
  6
CONTINUOUS
 62
     7
 10
311.7320556640625
 20
-247.4638519287109
 11
307.37548828125
 21
-243.1072998046875
  0
LINE
  8
0
  6
CONTINUOUS
 62
     7
 10
307.3755798339844
 20
-242.5631713867188
 11
307.3755798339844
 21
-275.4637756347656
  0
LINE
  8
0
  6
CONTINUOUS
 62
     7
 10
307.3755798339844
 20
-275.4637756347656
 11
307.3755798339844
 21
-282.9228515625
  0
LINE
  8
0
  6
CONTINUOUS
 62
     7
 10
311.8755493164063
 20
-244.51220703125
 11
309.7834167480469
 21
-242.4200439453125
  0
LINE
  8
0
  6
CONTINUOUS
 62
     7
 10
311.3262939453125
 20
-218.5068817138672
 11
295.8755798339844
 21
-203.05615234375
  0
LINE
  8
0
  6
CONTINUOUS
 62
     7
 10
311.4361572265625
 20
-224.2736053466797
 11
295.8755798339844
 21
-208.7130126953125
  0
LINE
  8
0
  6
CONTINUOUS
 62
     7
 10
308.4692687988281
 20
-226.9635772705078
 11
295.8755798339844
 21
-214.369873046875
  0
LINE
  8
0
  6
CONTINUOUS
 62
     7
 10
305.6408386230469
 20
-226.9635772705078
 11
295.8755798339844
 21
-217.1983032226563
  0
LINE
  8
0
  6
CONTINUOUS
 62
     7
 10
302.8124084472656
 20
-226.9635772705078
 11
295.8755798339844
 21
-220.0267333984375
  0
LINE
  8
0
  6
CONTINUOUS
 62
     7
 10
311.3071899414063
 20
-215.6593475341797
 11
296.636962890625
 21
-200.9890899658203
  0
LINE
  8
0
  6
CONTINUOUS
 62
     7
 10
299.9839782714844
 20
-226.9635772705078
 11
295.8755798339844
 21
-222.8551635742188
  0
LINE
  8
0
  6
CONTINUOUS
 62
     7
 10
311.2976989746094
 20
-226.9635772705078
 11
295.8755798339844
 21
-211.5414428710938
  0
LINE
  8
0
  6
CONTINUOUS
 62
     7
 10
311.197509765625
 20
-209.8924255371094
 11
302.2940063476563
 21
-200.9889526367188
  0
LINE
  8
0
  6
CONTINUOUS
 62
     7
 10
311.87548828125
 20
-207.7423553466797
 11
305.1221923828125
 21
-200.9890899658203
  0
LINE
  8
0
  6
CONTINUOUS
 62
     7
 10
311.87548828125
 20
-204.9139862060547
 11
307.9505920410156
 21
-200.9891204833984
  0
LINE
  8
0
  6
CENTER
 62
     7
 10
300.0326232910156
 20
-210.9635772705078
 11
286.8335876464844
 21
-210.9635772705078
  0
LINE
  8
0
  6
CONTINUOUS
 62
     7
 10
310.9299011230469
 20
-212.4533386230469
 11
299.465576171875
 21
-200.9889831542969
  0
LINE
  8
0
  6
CENTER
 62
     7
 10
-261.4784545898438
 20
-236.9635772705078
 11
-248.1073760986328
 21
-236.9635772705078
  0
LINE
  8
0
  6
CONTINUOUS
 62
     7
 10
289.9755859375
 20
-228.4636077880859
 11
289.9755859375
 21
-244.4636077880859
  0
LINE
  8
0
  6
CONTINUOUS
 62
     7
 10
-251.5960388183594
 20
-228.4636077880859
 11
-229.9960021972656
 21
-228.4636077880859
  0
LINE
  8
0
  6
CONTINUOUS
 62
     7
 10
-268.9960327148438
 20
-267.463623046875
 11
-228.9960479736328
 21
-267.463623046875
  0
LINE
  8
0
  6
CONTINUOUS
 62
     7
 10
-251.5960388183594
 20
-229.463623046875
 11
-229.9960021972656
 21
-229.463623046875
  0
LINE
  8
0
  6
CONTINUOUS
 62
     7
 10
-267.99609375
 20
-231.4635772705078
 11
-259.3960571289063
 21
-231.4635772705078
  0
LINE
  8
0
  6
CONTINUOUS
 62
     7
 10
-229.9960021972656
 20
-248.4636077880859
 11
-228.9960479736328
 21
-248.4636077880859
  0
LINE
  8
0
  6
CONTINUOUS
 62
     7
 10
-268.9960327148438
 20
-248.4636077880859
 11
-267.99609375
 21
-248.4636077880859
  0
LINE
  8
0
  6
CONTINUOUS
 62
     7
 10
-229.9960021972656
 20
-228.463623046875
 11
-229.9960021972656
 21
-248.4636077880859
  0
LINE
  8
0
  6
CONTINUOUS
 62
     7
 10
-267.99609375
 20
-230.4635772705078
 11
-267.99609375
 21
-248.4636077880859
  0
LINE
  8
0
  6
CONTINUOUS
 62
     7
 10
-267.99609375
 20
-230.4635772705078
 11
-259.3960571289063
 21
-230.4635772705078
  0
LINE
  8
0
  6
CONTINUOUS
 62
     7
 10
-259.3960571289063
 20
-244.4636077880859
 11
-251.5960388183594
 21
-244.4636077880859
  0
LINE
  8
0
  6
CONTINUOUS
 62
     7
 10
-228.9960479736328
 20
-248.4636077880859
 11
-228.9960479736328
 21
-267.463623046875
  0
LINE
  8
0
  6
CONTINUOUS
 62
     7
 10
-257.4960327148438
 20
-200.4033813476563
 11
-257.4960327148438
 21
-242.9635620117188
  0
LINE
  8
0
  6
CONTINUOUS
 62
     7
 10
-258.4960327148438
 20
-229.9635772705078
 11
-258.4960327148438
 21
-242.9635772705078
  0
LINE
  8
0
  6
CONTINUOUS
 62
     7
 10
-247.9960021972656
 20
-214.4635772705078
 11
-247.9960021972656
 21
-207.4635772705078
  0
LINE
  8
0
  6
CONTINUOUS
 62
     7
 10
-247.5960998535156
 20
-207.8636016845703
 11
-247.9961090087891
 21
-207.4636077880859
  0
LINE
  8
0
  6
CONTINUOUS
 62
     7
 10
-247.5960083007813
 20
-214.0636138916016
 11
-247.9959869384766
 21
-214.4636077880859
  0
LINE
  8
0
  6
CONTINUOUS
 62
     7
 10
-247.9960632324219
 20
-214.4635772705078
 11
-251.5960693359375
 21
-214.4635772705078
  0
LINE
  8
0
  6
CONTINUOUS
 62
     7
 10
-247.9960632324219
 20
-207.4635620117188
 11
-251.5960693359375
 21
-207.4635620117188
  0
LINE
  8
0
  6
CONTINUOUS
 62
     7
 10
-247.5960235595703
 20
-214.0635681152344
 11
-247.5960235595703
 21
-207.8635711669922
  0
LINE
  8
0
  6
CONTINUOUS
 62
     7
 10
-251.5960693359375
 20
-214.4635772705078
 11
-251.5960693359375
 21
-207.4635772705078
  0
LINE
  8
0
  6
CONTINUOUS
 62
     7
 10
-252.3960266113281
 20
-214.9635620117188
 11
-251.5960693359375
 21
-214.9635620117188
  0
LINE
  8
0
  6
CONTINUOUS
 62
     7
 10
-252.3960266113281
 20
-206.9635772705078
 11
-251.5960693359375
 21
-206.9635772705078
  0
LINE
  8
0
  6
CONTINUOUS
 62
     7
 10
-251.5960693359375
 20
-206.9635772705078
 11
-251.5960693359375
 21
-214.9635772705078
  0
LINE
  8
0
  6
CONTINUOUS
 62
     7
 10
-252.7960205078125
 20
-205.9635772705078
 11
-252.3960266113281
 21
-205.9635772705078
  0
LINE
  8
0
  6
CONTINUOUS
 62
     7
 10
-252.3960266113281
 20
-205.9635772705078
 11
-252.3960266113281
 21
-214.9635772705078
  0
LINE
  8
0
  6
CONTINUOUS
 62
     7
 10
-250.696044921875
 20
-226.3510284423828
 11
-250.696044921875
 21
-226.7535552978516
  0
LINE
  8
0
  6
CENTER
 62
     7
 10
-262.4673767089844
 20
-210.9635772705078
 11
-244.8452911376953
 21
-210.9635772705078
  0
LINE
  8
0
  6
CONTINUOUS
 62
     7
 10
-252.7960205078125
 20
-205.9635772705078
 11
-252.7960205078125
 21
-219.9635772705078
  0
LINE
  8
0
  6
CONTINUOUS
 62
     7
 10
-257.4960327148438
 20
-205.9635772705078
 11
-252.7960205078125
 21
-205.9635772705078
  0
LINE
  8
0
  6
CONTINUOUS
 62
     7
 10
-257.4960327148438
 20
-219.9635772705078
 11
-252.4960327148438
 21
-219.9635772705078
  0
LINE
  8
0
  6
CONTINUOUS
 62
     7
 10
-252.4960327148438
 20
-219.9635772705078
 11
-252.4960327148438
 21
-242.9635772705078
  0
LINE
  8
0
  6
CONTINUOUS
 62
     7
 10
-258.4960327148438
 20
-229.9635772705078
 11
-257.4960327148438
 21
-229.9635772705078
  0
LINE
  8
0
  6
CONTINUOUS
 62
     7
 10
-270.5238037109375
 20
-247.4640655517578
 11
-268.9956970214844
 21
-245.9359588623047
  0
LINE
  8
0
  6
CONTINUOUS
 62
     7
 10
-273.4962158203125
 20
-202.0853424072266
 11
-272.3997497558594
 21
-200.9889068603516
  0
LINE
  8
0
  6
CONTINUOUS
 62
     7
 10
-258.4960327148438
 20
-242.9635772705078
 11
-252.4960327148438
 21
-242.9635772705078
  0
LINE
  8
0
  6
CONTINUOUS
 62
     7
 10
-273.4107055664063
 20
-226.9635772705078
 11
-257.4960327148438
 21
-226.9635772705078
  0
LINE
  8
0
  6
CONTINUOUS
 62
     7
 10
-270.9234313964844
 20
-281.8042602539063
 11
-268.9959716796875
 21
-279.8768005371094
  0
LINE
  8
0
  6
CONTINUOUS
 62
     7
 10
-273.4960632324219
 20
-270.2346801757813
 11
-268.9960632324219
 21
-265.7346801757813
  0
LINE
  8
0
  6
CONTINUOUS
 62
     7
 10
-273.4959716796875
 20
-281.5484008789063
 11
-268.9660339355469
 21
-277.0184326171875
  0
LINE
  8
0
  6
CONTINUOUS
 62
     7
 10
-273.4959411621094
 20
-278.7200317382813
 11
-268.9959411621094
 21
-274.2200317382813
  0
LINE
  8
0
  6
CONTINUOUS
 62
     7
 10
-273.4959106445313
 20
-275.8915100097656
 11
-268.9959411621094
 21
-271.3915405273438
  0
LINE
  8
0
  6
CONTINUOUS
 62
     7
 10
-273.4959716796875
 20
-273.0631103515625
 11
-268.9959716796875
 21
-268.5631103515625
  0
LINE
  8
0
  6
CONTINUOUS
 62
     7
 10
-273.4958801269531
 20
-267.4063720703125
 11
-268.9958801269531
 21
-262.9063720703125
  0
LINE
  8
0
  6
CONTINUOUS
 62
     7
 10
-273.4959411621094
 20
-253.26416015625
 11
-268.9959106445313
 21
-248.7641448974609
  0
LINE
  8
0
  6
CONTINUOUS
 62
     7
 10
-273.4959411621094
 20
-264.5778503417969
 11
-268.9959411621094
 21
-260.0778198242188
  0
LINE
  8
0
  6
CONTINUOUS
 62
     7
 10
-273.4959411621094
 20
-261.7494506835938
 11
-268.9959716796875
 21
-257.2494812011719
  0
LINE
  8
0
  6
CONTINUOUS
 62
     7
 10
-273.4959716796875
 20
-258.9210510253906
 11
-268.9959411621094
 21
-254.4210205078125
  0
LINE
  8
0
  6
CONTINUOUS
 62
     7
 10
-273.4960021972656
 20
-256.0925598144531
 11
-268.9960021972656
 21
-251.5925598144531
  0
LINE
  8
0
  6
CONTINUOUS
 62
     7
 10
-273.3946228027344
 20
-250.333984375
 11
-269.0965881347656
 21
-246.0359191894531
  0
LINE
  8
0
  6
CONTINUOUS
 62
     7
 10
-272.8941650390625
 20
-221.2827453613281
 11
-257.4960327148438
 21
-205.8845825195313
  0
LINE
  8
0
  6
CONTINUOUS
 62
     7
 10
-273.3525085449219
 20
-247.4638519287109
 11
-268.9959411621094
 21
-243.1072998046875
  0
LINE
  8
0
  6
CONTINUOUS
 62
     7
 10
-268.9960327148438
 20
-242.5631713867188
 11
-268.9960327148438
 21
-275.4637756347656
  0
LINE
  8
0
  6
CONTINUOUS
 62
     7
 10
-268.9960327148438
 20
-275.4637756347656
 11
-268.9960327148438
 21
-282.9228515625
  0
LINE
  8
0
  6
CONTINUOUS
 62
     7
 10
-273.4960021972656
 20
-244.51220703125
 11
-271.4038391113281
 21
-242.4200439453125
  0
LINE
  8
0
  6
CONTINUOUS
 62
     7
 10
-272.9467468261719
 20
-218.5068817138672
 11
-257.4960327148438
 21
-203.05615234375
  0
LINE
  8
0
  6
CONTINUOUS
 62
     7
 10
-273.0566101074219
 20
-224.2736053466797
 11
-257.4960327148438
 21
-208.7130126953125
  0
LINE
  8
0
  6
CONTINUOUS
 62
     7
 10
-270.0897216796875
 20
-226.9635772705078
 11
-257.4960327148438
 21
-214.369873046875
  0
LINE
  8
0
  6
CONTINUOUS
 62
     7
 10
-267.2612915039063
 20
-226.9635772705078
 11
-257.4960327148438
 21
-217.1983032226563
  0
LINE
  8
0
  6
CONTINUOUS
 62
     7
 10
-264.432861328125
 20
-226.9635772705078
 11
-257.4960327148438
 21
-220.0267333984375
  0
LINE
  8
0
  6
CONTINUOUS
 62
     7
 10
-272.9276428222656
 20
-215.6593475341797
 11
-258.2573852539063
 21
-200.9890899658203
  0
LINE
  8
0
  6
CONTINUOUS
 62
     7
 10
-261.6044311523438
 20
-226.9635772705078
 11
-257.4960327148438
 21
-222.8551635742188
  0
LINE
  8
0
  6
CONTINUOUS
 62
     7
 10
-272.9181518554688
 20
-226.9635772705078
 11
-257.4960327148438
 21
-211.5414428710938
  0
LINE
  8
0
  6
CONTINUOUS
 62
     7
 10
-272.8179626464844
 20
-209.8924255371094
 11
-263.9144592285156
 21
-200.9889526367188
  0
LINE
  8
0
  6
CONTINUOUS
 62
     7
 10
-273.4959411621094
 20
-207.7423553466797
 11
-266.7426452636719
 21
-200.9890899658203
  0
LINE
  8
0
  6
CONTINUOUS
 62
     7
 10
-273.4959411621094
 20
-204.9139862060547
 11
-269.571044921875
 21
-200.9891204833984
  0
LINE
  8
0
  6
CENTER
 62
     7
 10
-261.653076171875
 20
-210.9635772705078
 11
-248.4540557861328
 21
-210.9635772705078
  0
LINE
  8
0
  6
CONTINUOUS
 62
     7
 10
-272.5503540039063
 20
-212.4533386230469
 11
-261.0860290527344
 21
-200.9889831542969
  0
LINE
  8
0
  6
CENTER
 62
     7
 10
-248.9960479736328
 20
-252.4440002441406
 11
-248.9960479736328
 21
-268.4635925292969
  0
LINE
  8
0
  6
CENTER
 62
     7
 10
-256.9961242675781
 20
-260.463623046875
 11
-240.9961090087891
 21
-260.463623046875
  0
LINE
  8
0
  6
CONTINUOUS
 62
     7
 10
-242.9960327148438
 20
-257.9635925292969
 11
-242.9960327148438
 21
-262.963623046875
  0
LINE
  8
0
  6
CONTINUOUS
 62
     7
 10
-254.9960021972656
 20
-257.9635925292969
 11
-254.9960021972656
 21
-262.963623046875
  0
LINE
  8
0
  6
CONTINUOUS
 62
     7
 10
-254.1611328125
 20
-264.4097595214844
 11
-249.8309936523438
 21
-266.9097595214844
  0
LINE
  8
0
  6
CONTINUOUS
 62
     7
 10
-248.1610717773438
 20
-254.0174713134766
 11
-243.8309020996094
 21
-256.5174865722656
  0
LINE
  8
0
  6
CONTINUOUS
 62
     7
 10
-254.1610717773438
 20
-256.5174865722656
 11
-249.8309631347656
 21
-254.0174713134766
  0
LINE
  8
0
  6
CONTINUOUS
 62
     7
 10
-248.1610565185547
 20
-266.9097290039063
 11
-243.8309326171875
 21
-264.4097290039063
  0
LINE
  8
0
  6
CENTER
 62
     7
 10
299.8580017089844
 20
-236.9635772705078
 11
286.4869079589844
 21
-236.9635772705078
  0
LINE
  8
0
  6
CONTINUOUS
 62
     7
 10
-251.5960388183594
 20
-228.4636077880859
 11
-251.5960388183594
 21
-244.4636077880859
  0
LINE
  8
0
  6
CONTINUOUS
 62
     7
 10
-257.4960327148438
 20
-184.8766479492188
 11
-257.4960327148438
 21
-199.5618896484375
  0
LINE
  8
0
  6
CONTINUOUS
 62
     7
 10
-268.9960327148438
 20
-184.8766479492188
 11
-268.9960327148438
 21
-241.609375
  0
LINE
  8
0
  6
CONTINUOUS
 62
     7
 10
-259.3960571289063
 20
-230.4635772705078
 11
-259.3960571289063
 21
-244.4636077880859
  0
LINE
  8
0
  6
CONTINUOUS
 62
     7
 10
311.774169921875
 20
-250.333984375
 11
307.4761352539063
 21
-246.0359191894531
  0
LINE
  8
0
  6
CONTINUOUS
 62
     7
 10
297.7756042480469
 20
-230.4635772705078
 11
297.7756042480469
 21
-244.4636077880859
  0
LINE
  8
0
  6
CONTINUOUS
 62
     7
 10
311.8755493164063
 20
-256.0925598144531
 11
307.3755493164063
 21
-251.5925598144531
  0
LINE
  8
0
  6
CONTINUOUS
 62
     7
 10
311.8755187988281
 20
-258.9210510253906
 11
307.37548828125
 21
-254.4210205078125
  0
LINE
  8
0
  6
CONTINUOUS
 62
     7
 10
311.87548828125
 20
-261.7494506835938
 11
307.3755187988281
 21
-257.2494812011719
  0
LINE
  8
0
  6
CONTINUOUS
 62
     7
 10
311.87548828125
 20
-264.5778503417969
 11
307.37548828125
 21
-260.0778198242188
  0
LINE
  8
0
  6
CONTINUOUS
 62
     7
 10
311.87548828125
 20
-253.26416015625
 11
307.3754577636719
 21
-248.7641448974609
  0
LINE
  8
0
  6
CONTINUOUS
 62
     7
 10
311.8754272460938
 20
-267.4063720703125
 11
307.3754272460938
 21
-262.9063720703125
  0
LINE
  8
0
  6
CONTINUOUS
 62
     7
 10
311.8755187988281
 20
-273.0631103515625
 11
307.3755187988281
 21
-268.5631103515625
  0
LINE
  8
0
  6
CONTINUOUS
 62
     7
 10
311.8754577636719
 20
-275.8915100097656
 11
307.37548828125
 21
-271.3915405273438
  0
LINE
  8
0
  6
CONTINUOUS
 62
     7
 10
311.87548828125
 20
-278.7200317382813
 11
307.37548828125
 21
-274.2200317382813
  0
LINE
  8
0
  6
CONTINUOUS
 62
     7
 10
311.8755187988281
 20
-281.5484008789063
 11
307.3455810546875
 21
-277.0184326171875
  0
LINE
  8
0
  6
CONTINUOUS
 62
     7
 10
311.8756103515625
 20
-270.2346801757813
 11
307.3756103515625
 21
-265.7346801757813
  0
LINE
  8
0
  6
CONTINUOUS
 62
     7
 10
309.302978515625
 20
-281.8042602539063
 11
307.3755187988281
 21
-279.8768005371094
  0
LINE
  8
0
  6
CONTINUOUS
 62
     7
 10
311.7902526855469
 20
-226.9635772705078
 11
295.8755798339844
 21
-226.9635772705078
  0
LINE
  8
0
  6
CONTINUOUS
 62
     7
 10
296.8755798339844
 20
-242.9635772705078
 11
290.8755798339844
 21
-242.9635772705078
  0
LINE
  8
0
  6
CONTINUOUS
 62
     7
 10
311.8757629394531
 20
-202.0853424072266
 11
310.7793273925781
 21
-200.9889068603516
  0
LINE
  8
0
  6
CONTINUOUS
 62
     7
 10
308.9033508300781
 20
-247.4640655517578
 11
307.375244140625
 21
-245.9359588623047
  0
LINE
  8
0
  6
CONTINUOUS
 62
     7
 10
296.8755798339844
 20
-229.9635772705078
 11
295.8755798339844
 21
-229.9635772705078
  0
LINE
  8
0
  6
CONTINUOUS
 62
     7
 10
290.8755798339844
 20
-219.9635772705078
 11
290.8755798339844
 21
-242.9635772705078
  0
LINE
  8
0
  6
CONTINUOUS
 62
     7
 10
295.8755798339844
 20
-219.9635772705078
 11
290.8755798339844
 21
-219.9635772705078
  0
LINE
  8
0
  6
CONTINUOUS
 62
     7
 10
295.8755798339844
 20
-205.9635772705078
 11
291.1755676269531
 21
-205.9635772705078
  0
LINE
  8
0
  6
CONTINUOUS
 62
     7
 10
291.1755676269531
 20
-205.9635772705078
 11
291.1755676269531
 21
-219.9635772705078
  0
LINE
  8
0
  6
CENTER
 62
     7
 10
300.846923828125
 20
-210.9635772705078
 11
283.224853515625
 21
-210.9635772705078
  0
LINE
  8
0
  6
CONTINUOUS
 62
     7
 10
289.0755920410156
 20
-226.3510284423828
 11
289.0755920410156
 21
-226.7535552978516
  0
LINE
  8
0
  6
CONTINUOUS
 62
     7
 10
290.7755737304688
 20
-205.9635772705078
 11
290.7755737304688
 21
-214.9635772705078
  0
LINE
  8
0
  6
CONTINUOUS
 62
     7
 10
291.1755676269531
 20
-205.9635772705078
 11
290.7755737304688
 21
-205.9635772705078
  0
LINE
  8
0
  6
CONTINUOUS
 62
     7
 10
289.9756164550781
 20
-206.9635772705078
 11
289.9756164550781
 21
-214.9635772705078
  0
LINE
  8
0
  6
CONTINUOUS
 62
     7
 10
290.7755737304688
 20
-206.9635772705078
 11
289.9756164550781
 21
-206.9635772705078
  0
LINE
  8
0
  6
CONTINUOUS
 62
     7
 10
290.7755737304688
 20
-214.9635620117188
 11
289.9756164550781
 21
-214.9635620117188
  0
LINE
  8
0
  6
CONTINUOUS
 62
     7
 10
289.9756164550781
 20
-214.4635772705078
 11
289.9756164550781
 21
-207.4635772705078
  0
LINE
  8
0
  6
CONTINUOUS
 62
     7
 10
285.9755554199219
 20
-214.0635681152344
 11
285.9755554199219
 21
-207.8635711669922
  0
LINE
  8
0
  6
CONTINUOUS
 62
     7
 10
286.3756103515625
 20
-207.4635620117188
 11
289.9756164550781
 21
-207.4635620117188
  0
LINE
  8
0
  6
CONTINUOUS
 62
     7
 10
286.3756103515625
 20
-214.4635772705078
 11
289.9756164550781
 21
-214.4635772705078
  0
LINE
  8
0
  6
CONTINUOUS
 62
     7
 10
285.9755554199219
 20
-214.0636138916016
 11
286.3755493164063
 21
-214.4636077880859
  0
LINE
  8
0
  6
CONTINUOUS
 62
     7
 10
285.9756469726563
 20
-207.8636016845703
 11
286.3756713867188
 21
-207.4636077880859
  0
LINE
  8
0
  6
CONTINUOUS
 62
     7
 10
286.3755493164063
 20
-214.4635772705078
 11
286.3755493164063
 21
-207.4635772705078
  0
LINE
  8
0
  6
CONTINUOUS
 62
     7
 10
296.8755798339844
 20
-229.9635772705078
 11
296.8755798339844
 21
-242.9635772705078
  0
LINE
  8
0
  6
CONTINUOUS
 62
     7
 10
295.8755798339844
 20
-200.4033813476563
 11
295.8755798339844
 21
-242.9635620117188
  0
LINE
  8
0
  6
CONTINUOUS
 62
     7
 10
267.3755798339844
 20
-248.4636077880859
 11
267.3755798339844
 21
-267.463623046875
  0
LINE
  8
0
  6
CONTINUOUS
 62
     7
 10
297.7756042480469
 20
-244.4636077880859
 11
289.9755859375
 21
-244.4636077880859
  0
LINE
  8
0
  6
CONTINUOUS
 62
     7
 10
306.3756408691406
 20
-230.4635772705078
 11
297.7756042480469
 21
-230.4635772705078
  0
LINE
  8
0
  6
CONTINUOUS
 62
     7
 10
306.3756408691406
 20
-230.4635772705078
 11
306.3756408691406
 21
-248.4636077880859
  0
LINE
  8
0
  6
CONTINUOUS
 62
     7
 10
268.3755493164063
 20
-228.463623046875
 11
268.3755493164063
 21
-248.4636077880859
  0
LINE
  8
0
  6
CONTINUOUS
 62
     7
 10
307.3755798339844
 20
-248.4636077880859
 11
306.3756408691406
 21
-248.4636077880859
  0
LINE
  8
0
  6
CONTINUOUS
 62
     7
 10
268.3755493164063
 20
-248.4636077880859
 11
267.3755798339844
 21
-248.4636077880859
  0
LINE
  8
0
  6
CONTINUOUS
 62
     7
 10
306.3756408691406
 20
-231.4635772705078
 11
297.7756042480469
 21
-231.4635772705078
  0
LINE
  8
0
  6
CONTINUOUS
 62
     7
 10
289.9755859375
 20
-229.463623046875
 11
268.3755493164063
 21
-229.463623046875
  0
LINE
  8
0
  6
CONTINUOUS
 62
     7
 10
307.3755798339844
 20
-267.463623046875
 11
267.3755798339844
 21
-267.463623046875
  0
LINE
  8
0
  6
CONTINUOUS
 62
     7
 10
289.9755859375
 20
-228.4636077880859
 11
268.3755493164063
 21
-228.4636077880859
  0
ARC
  8
0
  6
CONTINUOUS
 62
     7
 10
-136.7283325195313
 20
-285.3538513183594
 40
2.600000143051148
 50
51.31792574506063
 51
128.6820742549394
  0
ARC
  8
0
  6
CONTINUOUS
 62
     7
 10
-136.7283325195313
 20
-281.3538513183594
 40
2.600000143051148
 50
231.3179257450614
 51
308.6820742549401
  0
ARC
  8
0
  6
CONTINUOUS
 62
     7
 10
-133.4783325195313
 20
-285.3538513183594
 40
2.600000143051148
 50
51.31792574506063
 51
128.6820742549394
  0
ARC
  8
0
  6
CONTINUOUS
 62
     7
 10
-14.90741062164307
 20
-391.5932922363281
 40
0.5
 50
90.00000000000019
 51
180.0000000000004
  0
ARC
  8
0
  6
CONTINUOUS
 62
     7
 10
-14.90741062164307
 20
-364.0933227539063
 40
0.5
 50
180.0000000000004
 51
270.0000000000005
  0
ARC
  8
0
  6
CONTINUOUS
 62
     7
 10
-16.40740013122559
 20
-363.8432922363281
 40
1
 50
0
 51
90.00000000000019
  0
ARC
  8
0
  6
CONTINUOUS
 62
     7
 10
-16.40740013122559
 20
-391.8433227539063
 40
1
 50
270.0000000000005
 51
360
  0
CIRCLE
  8
0
  6
CONTINUOUS
 62
     7
 10
-8.407421112060547
 20
-386.5932922363281
 40
2.75
  0
ARC
  8
0
  6
CONTINUOUS
 62
     7
 10
-8.407421112060547
 20
-386.5932922363281
 40
1.75
 50
180.000999159102
 51
189.8714831882539
  0
ARC
  8
0
  6
CONTINUOUS
 62
     7
 10
-7.107397556304932
 20
-387.893310546875
 40
1
 50
90.00002732075669
 51
180.0000000000004
  0
ARC
  8
0
  6
CONTINUOUS
 62
     7
 10
-9.707418441772461
 20
-387.893310546875
 40
1
 50
0
 51
90.00005464151336
  0
ARC
  8
0
  6
CONTINUOUS
 62
     7
 10
-9.707418441772461
 20
-385.2933044433594
 40
1
 50
270.0000000000005
 51
360
  0
ARC
  8
0
  6
CONTINUOUS
 62
     7
 10
-7.107397556304932
 20
-385.2933044433594
 40
1
 50
180.0000000000004
 51
270.0000273207574
  0
ARC
  8
0
  6
CONTINUOUS
 62
     7
 10
-8.407421112060547
 20
-386.5932922363281
 40
1.75
 50
260.1292872647375
 51
279.8708050183946
  0
ARC
  8
0
  6
CONTINUOUS
 62
     7
 10
-8.407421112060547
 20
-386.5932922363281
 40
1.75
 50
350.1285221646934
 51
9.870493468023717
  0
ARC
  8
0
  6
CONTINUOUS
 62
     7
 10
-8.407421112060547
 20
-386.5932922363281
 40
1.75
 50
80.12908522145681
 51
99.87091477854321
  0
ARC
  8
0
  6
CONTINUOUS
 62
     7
 10
-8.407421112060547
 20
-386.5932922363281
 40
1.75
 50
170.1295011795429
 51
180.000999159102
  0
ARC
  8
0
  6
CONTINUOUS
 62
     7
 10
-8.101151466369629
 20
-359.7333068847656
 40
0.8000000715255737
 50
90.00006830032844
 51
163.8081954012478
  0
ARC
  8
0
  6
CONTINUOUS
 62
     7
 10
-8.101151466369629
 20
-362.63330078125
 40
0.8000000715255737
 50
196.1918045987529
 51
270.0000000000005
  0
ARC
  8
0
  6
CONTINUOUS
 62
     7
 10
-3.107407808303833
 20
-361.1833190917969
 40
6
 50
163.8084797068223
 51
196.1912455097492
  0
ARC
  8
0
  6
CONTINUOUS
 62
     7
 10
-8.101151466369629
 20
-393.0533447265625
 40
0.8000000715255737
 50
90.00006830032844
 51
163.8081954012478
  0
ARC
  8
0
  6
CONTINUOUS
 62
     7
 10
-8.101151466369629
 20
-395.9533081054688
 40
0.8000000715255737
 50
196.1918045987529
 51
270.0000000000005
  0
ARC
  8
0
  6
CONTINUOUS
 62
     7
 10
-3.107407808303833
 20
-394.5032958984375
 40
6
 50
163.8087595690794
 51
196.1915253720846
  0
ARC
  8
0
  6
CONTINUOUS
 62
     7
 10
-82.16114044189453
 20
-325.5400695800781
 40
16
 50
89.99997267924331
 51
179.9998907169733
  0
ARC
  8
0
  6
CONTINUOUS
 62
     7
 10
-82.16114044189453
 20
-328.6724853515625
 40
16
 50
180.0000000000004
 51
270.0000273207574
  0
ARC
  8
0
  6
CONTINUOUS
 62
     7
 10
60.24067306518555
 20
-360.244140625
 40
2
 50
0
 51
90.00000000000019
  0
ARC
  8
0
  6
CONTINUOUS
 62
     7
 10
60.24064636230469
 20
-395.3441467285156
 40
2
 50
270.0001092830274
 51
360
  0
ARC
  8
0
  6
CONTINUOUS
 62
     7
 10
51.64064025878906
 20
-395.3441467285156
 40
2
 50
180.0000000000004
 51
270.0001092830274
  0
ARC
  8
0
  6
CONTINUOUS
 62
     7
 10
51.64066696166992
 20
-360.244140625
 40
2
 50
90.00000000000019
 51
180.0000000000004
  0
CIRCLE
  8
0
  6
CONTINUOUS
 62
     7
 10
55.94064331054688
 20
-361.1341247558594
 40
1.524999976158142
  0
CIRCLE
  8
0
  6
CONTINUOUS
 62
     7
 10
55.94064331054688
 20
-394.4541320800781
 40
1.524999976158142
  0
ARC
  8
0
  6
CONTINUOUS
 62
     7
 10
53.27066040039063
 20
-388.9141235351563
 40
1.5
 50
180.0000000000004
 51
280.0003070837006
  0
ARC
  8
0
  6
CONTINUOUS
 62
     7
 10
53.27066040039063
 20
-366.6741333007813
 40
1.5
 50
79.999836413924
 51
180.0000000000004
  0
ARC
  8
0
  6
CONTINUOUS
 62
     7
 10
58.61062622070313
 20
-387.9725341796875
 40
1.5
 50
280.0001046614796
 51
360
  0
ARC
  8
0
  6
CONTINUOUS
 62
     7
 10
58.61062622070313
 20
-367.61572265625
 40
1.5
 50
0
 51
79.999836413924
  0
ARC
  8
0
  6
CONTINUOUS
 62
     7
 10
58.61062622070313
 20
-387.9725341796875
 40
1
 50
279.9997882131952
 51
360
  0
ARC
  8
0
  6
CONTINUOUS
 62
     7
 10
53.27066040039063
 20
-388.9141235351563
 40
1
 50
180.0000000000004
 51
280.0000918372172
  0
ARC
  8
0
  6
CONTINUOUS
 62
     7
 10
58.61062622070313
 20
-367.61572265625
 40
1
 50
0
 51
80.00012340955199
  0
ARC
  8
0
  6
CONTINUOUS
 62
     7
 10
53.27066040039063
 20
-366.6741333007813
 40
1
 50
80.00012340955199
 51
180.0000000000004
  0
CIRCLE
  8
0
  6
CONTINUOUS
 62
     7
 10
54.670654296875
 20
-386.6841430664063
 40
0.800000011920929
  0
CIRCLE
  8
0
  6
CONTINUOUS
 62
     7
 10
54.670654296875
 20
-384.1441345214844
 40
0.800000011920929
  0
CIRCLE
  8
0
  6
CONTINUOUS
 62
     7
 10
54.670654296875
 20
-381.6041259765625
 40
0.800000011920929
  0
CIRCLE
  8
0
  6
CONTINUOUS
 62
     7
 10
54.670654296875
 20
-379.0641174316406
 40
0.800000011920929
  0
CIRCLE
  8
0
  6
CONTINUOUS
 62
     7
 10
54.670654296875
 20
-376.5241394042969
 40
0.800000011920929
  0
CIRCLE
  8
0
  6
CONTINUOUS
 62
     7
 10
54.670654296875
 20
-373.984130859375
 40
0.800000011920929
  0
CIRCLE
  8
0
  6
CONTINUOUS
 62
     7
 10
54.670654296875
 20
-371.4441223144531
 40
0.800000011920929
  0
CIRCLE
  8
0
  6
CONTINUOUS
 62
     7
 10
54.670654296875
 20
-368.9041137695313
 40
0.800000011920929
  0
CIRCLE
  8
0
  6
CONTINUOUS
 62
     7
 10
57.21063232421875
 20
-385.4141235351563
 40
0.800000011920929
  0
CIRCLE
  8
0
  6
CONTINUOUS
 62
     7
 10
57.21063232421875
 20
-382.8741149902344
 40
0.800000011920929
  0
CIRCLE
  8
0
  6
CONTINUOUS
 62
     7
 10
57.21063232421875
 20
-380.3341369628906
 40
0.800000011920929
  0
CIRCLE
  8
0
  6
CONTINUOUS
 62
     7
 10
57.21063232421875
 20
-377.7941284179688
 40
0.800000011920929
  0
CIRCLE
  8
0
  6
CONTINUOUS
 62
     7
 10
57.21063232421875
 20
-375.2541198730469
 40
0.800000011920929
  0
CIRCLE
  8
0
  6
CONTINUOUS
 62
     7
 10
57.21063232421875
 20
-372.714111328125
 40
0.800000011920929
  0
CIRCLE
  8
0
  6
CONTINUOUS
 62
     7
 10
57.21063232421875
 20
-370.1741333007813
 40
0.800000011920929
  0
ARC
  8
0
  6
CONTINUOUS
 62
     7
 10
18.49260330200195
 20
-365.0932922363281
 40
1
 50
0
 51
90.00000000000019
  0
ARC
  8
0
  6
CONTINUOUS
 62
     7
 10
18.49260330200195
 20
-390.5933227539063
 40
1
 50
270.0000000000005
 51
360
  0
CIRCLE
  8
0
  6
CONTINUOUS
 62
     7
 10
-8.407421112060547
 20
-369.0933227539063
 40
2.75
  0
ARC
  8
0
  6
CONTINUOUS
 62
     7
 10
-8.407421112060547
 20
-369.0933227539063
 40
1.75
 50
180.0000000000004
 51
189.8704988204578
  0
ARC
  8
0
  6
CONTINUOUS
 62
     7
 10
-7.107397556304932
 20
-370.393310546875
 40
1
 50
90.00002732075669
 51
180.0000000000004
  0
ARC
  8
0
  6
CONTINUOUS
 62
     7
 10
-9.707418441772461
 20
-370.393310546875
 40
1
 50
0
 51
90.00005464151336
  0
ARC
  8
0
  6
CONTINUOUS
 62
     7
 10
-9.707418441772461
 20
-367.7933044433594
 40
1
 50
270.0000000000005
 51
360
  0
ARC
  8
0
  6
CONTINUOUS
 62
     7
 10
-7.107397556304932
 20
-367.7933044433594
 40
1
 50
180.0000000000004
 51
270.0000273207574
  0
ARC
  8
0
  6
CONTINUOUS
 62
     7
 10
-8.407421112060547
 20
-369.0933227539063
 40
1.75
 50
260.1291159830193
 51
279.8709763016503
  0
ARC
  8
0
  6
CONTINUOUS
 62
     7
 10
-8.407421112060547
 20
-369.0933227539063
 40
1.75
 50
350.129506531977
 51
9.871477835307307
  0
ARC
  8
0
  6
CONTINUOUS
 62
     7
 10
-8.407421112060547
 20
-369.0933227539063
 40
1.75
 50
80.12925650368753
 51
99.87074349631247
  0
ARC
  8
0
  6
CONTINUOUS
 62
     7
 10
-8.407421112060547
 20
-369.0933227539063
 40
1.75
 50
170.1285168117469
 51
180.0000000000004
  0
ARC
  8
0
  6
CONTINUOUS
 62
     7
 10
16.09257316589356
 20
-365.0933227539063
 40
0.5
 50
0
 51
90.00000000000019
  0
ARC
  8
0
  6
CONTINUOUS
 62
     7
 10
16.09257316589356
 20
-365.0933227539063
 40
0.5
 50
0
 51
90.00000000000019
  0
ARC
  8
0
  6
CONTINUOUS
 62
     7
 10
13.09256839752197
 20
-364.0933227539063
 40
0.5
 50
180.0000000000004
 51
270.0000000000005
  0
ARC
  8
0
  6
CONTINUOUS
 62
     7
 10
12.09253215789795
 20
-358.0933227539063
 40
0.5
 50
0
 51
89.99989071697328
  0
ARC
  8
0
  6
CONTINUOUS
 62
     7
 10
-5.907395362854004
 20
-358.0933227539063
 40
0.5
 50
90.00000000000019
 51
180.0000000000004
  0
ARC
  8
0
  6
CONTINUOUS
 62
     7
 10
-6.907405376434326
 20
-364.0933227539063
 40
0.5
 50
270.0000000000005
 51
360
  0
ARC
  8
0
  6
CONTINUOUS
 62
     7
 10
-25.90739440917969
 20
-363.3432922363281
 40
0.5
 50
90.00000000000019
 51
180.0000000000004
  0
ARC
  8
0
  6
CONTINUOUS
 62
     7
 10
-25.90739440917969
 20
-392.3432922363281
 40
0.5
 50
180.0000000000004
 51
270.0000000000005
  0
ARC
  8
0
  6
CONTINUOUS
 62
     7
 10
-6.907405376434326
 20
-391.5932922363281
 40
0.5
 50
0
 51
90.00000000000019
  0
ARC
  8
0
  6
CONTINUOUS
 62
     7
 10
-5.907395362854004
 20
-397.5933227539063
 40
0.5
 50
180.0000000000004
 51
270.0000000000005
  0
ARC
  8
0
  6
CONTINUOUS
 62
     7
 10
12.09253215789795
 20
-397.5933227539063
 40
0.5
 50
270.0001092830274
 51
360
  0
ARC
  8
0
  6
CONTINUOUS
 62
     7
 10
13.09256839752197
 20
-391.5932922363281
 40
0.5
 50
90.00000000000019
 51
180.0000000000004
  0
ARC
  8
0
  6
CONTINUOUS
 62
     7
 10
16.09257316589356
 20
-390.5933227539063
 40
0.5
 50
270.0000000000005
 51
360
  0
CIRCLE
  8
0
  6
CONTINUOUS
 62
     7
 10
-8.407421112060547
 20
-386.5932922363281
 40
3
  0
CIRCLE
  8
0
  6
CONTINUOUS
 62
     7
 10
-8.407421112060547
 20
-369.0933227539063
 40
3
  0
ARC
  8
0
  6
CONTINUOUS
 62
     7
 10
-8.407421112060547
 20
-369.0933227539063
 40
4.5
 50
139.8757611476494
 51
36.86996807248048
  0
ARC
  8
0
  6
CONTINUOUS
 62
     7
 10
-8.407421112060547
 20
-386.5932922363281
 40
4.5
 50
321.1464645128419
 51
220.1243327549904
  0
ARC
  8
0
  6
CONTINUOUS
 62
     7
 10
-48.40741729736328
 20
-373.8432922363281
 40
1
 50
90.00000000000019
 51
180.0000000000004
  0
ARC
  8
0
  6
CONTINUOUS
 62
     7
 10
-48.40741729736328
 20
-381.8432922363281
 40
1
 50
180.0000000000004
 51
270.0000000000005
  0
ARC
  8
0
  6
CONTINUOUS
 62
     7
 10
-119.8408737182617
 20
-362.5933227539063
 40
12
 50
180.0000000000004
 51
270.0000364276763
  0
ARC
  8
0
  6
CONTINUOUS
 62
     7
 10
-119.8408737182617
 20
-362.5932922363281
 40
18.5
 50
180.0000000000004
 51
270.0000236287632
  0
ARC
  8
0
  6
CENTER
 62
     7
 10
-119.8408737182617
 20
-362.5932922363281
 40
15.25
 50
180.0000000000004
 51
270.0000286644012
  0
ARC
  8
0
  6
CONTINUOUS
 62
     7
 10
-274.5113525390625
 20
-481.2941589355469
 40
2
 50
90.00000000000019
 51
180.0000000000004
  0
ARC
  8
0
  6
CONTINUOUS
 62
     7
 10
-240.5113677978516
 20
-481.2941589355469
 40
2
 50
0
 51
90.00000000000019
  0
ARC
  8
0
  6
CONTINUOUS
 62
     7
 10
-274.5113525390625
 20
-487.2942199707031
 40
2
 50
180.0000000000004
 51
270.0000000000005
  0
ARC
  8
0
  6
CONTINUOUS
 62
     7
 10
-240.5113677978516
 20
-487.2942199707031
 40
2
 50
270.0000000000005
 51
360
  0
CIRCLE
  8
0
  6
CONTINUOUS
 62
     7
 10
-270.0113830566406
 20
-484.294189453125
 40
2.5
  0
CIRCLE
  8
0
  6
CONTINUOUS
 62
     7
 10
-245.0113983154297
 20
-484.294189453125
 40
2.5
  0
CIRCLE
  8
0
  6
CONTINUOUS
 62
     7
 10
66.68977355957031
 20
-210.9637756347656
 40
4
  0
CIRCLE
  8
0
  6
CONTINUOUS
 62
     7
 10
91.68977355957031
 20
-210.9637756347656
 40
4
  0
ARC
  8
0
  6
CONTINUOUS
 62
     7
 10
97.18978118896484
 20
-206.9637756347656
 40
1
 50
0
 51
90.00000000000019
  0
CIRCLE
  8
0
  6
CONTINUOUS
 62
     7
 10
66.68977355957031
 20
-210.9637756347656
 40
3.5
  0
CIRCLE
  8
0
  6
CONTINUOUS
 62
     7
 10
91.68977355957031
 20
-210.9637756347656
 40
3.5
  0
ARC
  8
0
  6
CONTINUOUS
 62
     7
 10
61.18976974487305
 20
-206.9637756347656
 40
1
 50
90.00000000000019
 51
180.0000000000004
  0
CIRCLE
  8
0
  6
CONTINUOUS
 62
     7
 10
66.68977355957031
 20
-210.9637756347656
 40
3.099999904632568
  0
ARC
  8
0
  6
CONTINUOUS
 62
     7
 10
73.68976593017578
 20
-216.4637603759766
 40
0.5
 50
90.00000000000019
 51
180.0000000000004
  0
CIRCLE
  8
0
  6
CONTINUOUS
 62
     7
 10
91.68977355957031
 20
-210.9637756347656
 40
3.099999904632568
  0
ARC
  8
0
  6
CONTINUOUS
 62
     7
 10
84.68978118896484
 20
-216.4637603759766
 40
0.5
 50
0
 51
90.00000000000019
  0
CIRCLE
  8
0
  6
CONTINUOUS
 62
     7
 10
-83.31021881103516
 20
-210.9637756347656
 40
4
  0
CIRCLE
  8
0
  6
CONTINUOUS
 62
     7
 10
-58.31021881103516
 20
-210.9637756347656
 40
4
  0
ARC
  8
0
  6
CONTINUOUS
 62
     7
 10
-52.81021499633789
 20
-206.9637756347656
 40
1
 50
0
 51
90.00000000000019
  0
CIRCLE
  8
0
  6
CONTINUOUS
 62
     7
 10
-83.31021881103516
 20
-210.9637756347656
 40
3.5
  0
CIRCLE
  8
0
  6
CONTINUOUS
 62
     7
 10
-58.31021881103516
 20
-210.9637756347656
 40
3.5
  0
ARC
  8
0
  6
CONTINUOUS
 62
     7
 10
-88.81022644042969
 20
-206.9637756347656
 40
1
 50
90.00000000000019
 51
180.0000000000004
  0
CIRCLE
  8
0
  6
CONTINUOUS
 62
     7
 10
-83.31021881103516
 20
-210.9637756347656
 40
3.099999904632568
  0
ARC
  8
0
  6
CONTINUOUS
 62
     7
 10
-76.31022644042969
 20
-216.4637603759766
 40
0.5
 50
90.00000000000019
 51
180.0000000000004
  0
CIRCLE
  8
0
  6
CONTINUOUS
 62
     7
 10
-58.31021881103516
 20
-210.9637756347656
 40
3.099999904632568
  0
ARC
  8
0
  6
CONTINUOUS
 62
     7
 10
-65.31021118164063
 20
-216.4637603759766
 40
0.5
 50
0
 51
90.00000000000019
  0
CIRCLE
  8
0
  6
CONTINUOUS
 62
     7
 10
-173.3102416992188
 20
-210.9637756347656
 40
3.5
  0
CIRCLE
  8
0
  6
CONTINUOUS
 62
     7
 10
-148.3102416992188
 20
-210.9637756347656
 40
3.5
  0
ARC
  8
0
  6
CONTINUOUS
 62
     7
 10
-178.8102416992188
 20
-206.9637756347656
 40
1
 50
90.00000000000019
 51
180.0000000000004
  0
CIRCLE
  8
0
  6
CONTINUOUS
 62
     7
 10
-173.3102416992188
 20
-210.9637756347656
 40
3.099999904632568
  0
ARC
  8
0
  6
CONTINUOUS
 62
     7
 10
-166.3102416992188
 20
-216.4637603759766
 40
0.5
 50
90.00000000000019
 51
180.0000000000004
  0
CIRCLE
  8
0
  6
CONTINUOUS
 62
     7
 10
-148.3102416992188
 20
-210.9637756347656
 40
3.099999904632568
  0
ARC
  8
0
  6
CONTINUOUS
 62
     7
 10
-155.3102416992188
 20
-216.4637603759766
 40
0.5
 50
0
 51
90.00000000000019
  0
ARC
  8
0
  6
CONTINUOUS
 62
     7
 10
-142.8102416992188
 20
-206.9637756347656
 40
1
 50
0
 51
90.00000000000019
  0
CIRCLE
  8
0
  6
CONTINUOUS
 62
     7
 10
-148.3102416992188
 20
-210.9637756347656
 40
4
  0
CIRCLE
  8
0
  6
CONTINUOUS
 62
     7
 10
-173.3102416992188
 20
-210.9637756347656
 40
4
  0
CIRCLE
  8
0
  6
CONTINUOUS
 62
     7
 10
181.6897735595703
 20
-210.9637756347656
 40
4
  0
ARC
  8
0
  6
CONTINUOUS
 62
     7
 10
187.1897430419922
 20
-206.9637756347656
 40
1
 50
0
 51
90.00000000000019
  0
CIRCLE
  8
0
  6
CONTINUOUS
 62
     7
 10
156.6897735595703
 20
-210.9637756347656
 40
3.5
  0
CIRCLE
  8
0
  6
CONTINUOUS
 62
     7
 10
181.6897735595703
 20
-210.9637756347656
 40
3.5
  0
ARC
  8
0
  6
CONTINUOUS
 62
     7
 10
151.1897735595703
 20
-206.9637756347656
 40
1
 50
90.00000000000019
 51
180.0000000000004
  0
CIRCLE
  8
0
  6
CONTINUOUS
 62
     7
 10
156.6897735595703
 20
-210.9637756347656
 40
3.099999904632568
  0
ARC
  8
0
  6
CONTINUOUS
 62
     7
 10
163.6897735595703
 20
-216.4637603759766
 40
0.5
 50
90.00000000000019
 51
180.0000000000004
  0
CIRCLE
  8
0
  6
CONTINUOUS
 62
     7
 10
181.6897735595703
 20
-210.9637756347656
 40
3.099999904632568
  0
CIRCLE
  8
0
  6
CONTINUOUS
 62
     7
 10
156.6897735595703
 20
-210.9637756347656
 40
4
  0
ARC
  8
0
  6
CONTINUOUS
 62
     7
 10
174.6897583007813
 20
-216.4637603759766
 40
0.5
 50
0
 51
90.00000000000019
  0
ARC
  8
0
  6
CONTINUOUS
 62
     7
 10
-16.31021499633789
 20
-218.4637603759766
 40
0.5
 50
90.00000000000019
 51
180.0000000000004
  0
CIRCLE
  8
0
  6
CONTINUOUS
 62
     7
 10
48.18975067138672
 20
-210.9637603759766
 40
4
  0
CIRCLE
  8
0
  6
CONTINUOUS
 62
     7
 10
-39.81027603149414
 20
-210.9637603759766
 40
4
  0
CIRCLE
  8
0
  6
CONTINUOUS
 62
     7
 10
-39.81027603149414
 20
-210.9637603759766
 40
3.5
  0
CIRCLE
  8
0
  6
CONTINUOUS
 62
     7
 10
-39.81027603149414
 20
-210.9637603759766
 40
3.099999904632568
  0
CIRCLE
  8
0
  6
CONTINUOUS
 62
     7
 10
48.18975067138672
 20
-210.9637603759766
 40
3.5
  0
CIRCLE
  8
0
  6
CONTINUOUS
 62
     7
 10
48.18975067138672
 20
-210.9637603759766
 40
3.099999904632568
  0
CIRCLE
  8
0
  6
CONTINUOUS
 62
     7
 10
-28.31023406982422
 20
-210.9637603759766
 40
3.5
  0
CIRCLE
  8
0
  6
CONTINUOUS
 62
     7
 10
-3.310235261917114
 20
-210.9637603759766
 40
3.5
  0
ARC
  8
0
  6
CONTINUOUS
 62
     7
 10
-33.81021499633789
 20
-206.9637756347656
 40
1
 50
90.00000000000019
 51
180.0000000000004
  0
CIRCLE
  8
0
  6
CONTINUOUS
 62
     7
 10
-28.31023406982422
 20
-210.9637603759766
 40
3.099999904632568
  0
ARC
  8
0
  6
CONTINUOUS
 62
     7
 10
-21.31021499633789
 20
-216.4637451171875
 40
0.5
 50
89.99978143394657
 51
180.0000000000004
  0
CIRCLE
  8
0
  6
CONTINUOUS
 62
     7
 10
-3.310235261917114
 20
-210.9637603759766
 40
3.099999904632568
  0
ARC
  8
0
  6
CONTINUOUS
 62
     7
 10
-10.31025505065918
 20
-216.4637451171875
 40
0.5
 50
0
 51
90.00000000000019
  0
ARC
  8
0
  6
CONTINUOUS
 62
     7
 10
2.189744234085083
 20
-206.9637756347656
 40
1
 50
0
 51
89.99998633962166
  0
CIRCLE
  8
0
  6
CONTINUOUS
 62
     7
 10
-3.310235261917114
 20
-210.9637603759766
 40
4
  0
CIRCLE
  8
0
  6
CONTINUOUS
 62
     7
 10
-28.31023406982422
 20
-210.9637603759766
 40
4
  0
ARC
  8
0
  6
CONTINUOUS
 62
     7
 10
52.18979263305664
 20
-206.9637756347656
 40
1
 50
0
 51
90.00000000000019
  0
ARC
  8
0
  6
CONTINUOUS
 62
     7
 10
52.18979263305664
 20
-216.9637145996094
 40
1
 50
270.0000000000005
 51
360
  0
ARC
  8
0
  6
CONTINUOUS
 62
     7
 10
-43.81021499633789
 20
-216.9637145996094
 40
1
 50
180.0000000000004
 51
270.0002185660542
  0
ARC
  8
0
  6
CONTINUOUS
 62
     7
 10
-43.81021499633789
 20
-206.9637756347656
 40
1
 50
89.99978143394657
 51
180.0000000000004
  0
CIRCLE
  8
0
  6
CONTINUOUS
 62
     7
 10
-23.31022262573242
 20
-255.4637603759766
 40
5.000000476837158
  0
CIRCLE
  8
0
  6
CONTINUOUS
 62
     7
 10
31.68977546691895
 20
-255.4637603759766
 40
5.000000476837158
  0
CIRCLE
  8
0
  6
CONTINUOUS
 62
     7
 10
-23.31022262573242
 20
-255.4637603759766
 40
4.25
  0
CIRCLE
  8
0
  6
CONTINUOUS
 62
     7
 10
-23.31022262573242
 20
-255.4637603759766
 40
3.750000238418579
  0
CIRCLE
  8
0
  6
CONTINUOUS
 62
     7
 10
31.68977546691895
 20
-255.4637603759766
 40
4.25
  0
CIRCLE
  8
0
  6
CONTINUOUS
 62
     7
 10
31.68977546691895
 20
-255.4637603759766
 40
3.750000238418579
  0
ARC
  8
0
  6
CONTINUOUS
 62
     7
 10
-58.95902252197266
 20
-258.8387756347656
 40
2.600000143051148
 50
141.3178732053431
 51
218.6821267946577
  0
ARC
  8
0
  6
CONTINUOUS
 62
     7
 10
-62.95906448364258
 20
-262.0887451171875
 40
2.600000143051148
 50
321.3178206655059
 51
38.68217933449486
  0
ARC
  8
0
  6
CONTINUOUS
 62
     7
 10
-58.95902252197266
 20
-262.0887451171875
 40
2.600000143051148
 50
141.3178732053431
 51
218.6821267946577
  0
ARC
  8
0
  6
CONTINUOUS
 62
     7
 10
-35.81022262573242
 20
-260.463623046875
 40
6.499970436096191
 50
157.3800186552689
 51
202.6199813447318
  0
ARC
  8
0
  6
CONTINUOUS
 62
     7
 10
-40.42987060546875
 20
-255.2406158447266
 40
1.880325555801392
 50
137.2296386562623
 51
222.7697832295574
  0
ARC
  8
0
  6
CONTINUOUS
 62
     7
 10
-33.69057083129883
 20
-255.2406158447266
 40
1.880343317985535
 50
317.2305324980176
 51
42.76980881750199
  0
ARC
  8
0
  6
CONTINUOUS
 62
     7
 10
-38.31022262573242
 20
-260.463623046875
 40
6.499970436096191
 50
337.3800186552696
 51
22.61998134473106
  0
ARC
  8
0
  6
CONTINUOUS
 62
     7
 10
-33.69097900390625
 20
-265.686767578125
 40
1.880716443061829
 50
317.2344335546547
 51
42.76488390000799
  0
ARC
  8
0
  6
CONTINUOUS
 62
     7
 10
-40.4295654296875
 20
-265.686767578125
 40
1.880716443061829
 50
137.235116099992
 51
222.7655664453467
  0
ARC
  8
0
  6
CONTINUOUS
 62
     7
 10
-31.92991065979004
 20
-255.2406158447266
 40
1.880325555801392
 50
137.2295991896618
 51
222.769743763405
  0
ARC
  8
0
  6
CONTINUOUS
 62
     7
 10
-27.31026268005371
 20
-260.463623046875
 40
6.499970436096191
 50
157.3800121887529
 51
202.6199878112479
  0
ARC
  8
0
  6
CONTINUOUS
 62
     7
 10
-31.92950439453125
 20
-265.686767578125
 40
1.880716443061829
 50
137.235116099992
 51
222.7655664453467
  0
ARC
  8
0
  6
CONTINUOUS
 62
     7
 10
-31.31020164489746
 20
-265.9637756347656
 40
0.5000050663948059
 50
180.0000000000004
 51
360
  0
ARC
  8
0
  6
CONTINUOUS
 62
     7
 10
-31.31020164489746
 20
-254.9637756347656
 40
0.5000050663948059
 50
0
 51
180.0000000000004
  0
ARC
  8
0
  6
CENTER
 62
     7
 10
-115.0908966064453
 20
-280.4637756347656
 40
20
 50
89.99997814339466
 51
180.0000000000004
  0
CIRCLE
  8
0
  6
CONTINUOUS
 62
     7
 10
136.6897735595703
 20
-210.9637756347656
 40
4
  0
ARC
  8
0
  6
CONTINUOUS
 62
     7
 10
142.1897583007813
 20
-206.9637756347656
 40
1
 50
0
 51
90.00000000000019
  0
CIRCLE
  8
0
  6
CONTINUOUS
 62
     7
 10
111.6897735595703
 20
-210.9637756347656
 40
3.5
  0
CIRCLE
  8
0
  6
CONTINUOUS
 62
     7
 10
136.6897735595703
 20
-210.9637756347656
 40
3.5
  0
ARC
  8
0
  6
CONTINUOUS
 62
     7
 10
106.1897659301758
 20
-206.9637756347656
 40
1
 50
90.00000000000019
 51
180.0000000000004
  0
CIRCLE
  8
0
  6
CONTINUOUS
 62
     7
 10
111.6897735595703
 20
-210.9637756347656
 40
3.099999904632568
  0
ARC
  8
0
  6
CONTINUOUS
 62
     7
 10
118.6897659301758
 20
-216.4637603759766
 40
0.5
 50
90.00000000000019
 51
180.0000000000004
  0
CIRCLE
  8
0
  6
CONTINUOUS
 62
     7
 10
136.6897735595703
 20
-210.9637756347656
 40
3.099999904632568
  0
CIRCLE
  8
0
  6
CONTINUOUS
 62
     7
 10
111.6897735595703
 20
-210.9637756347656
 40
4
  0
ARC
  8
0
  6
CONTINUOUS
 62
     7
 10
129.6897583007813
 20
-216.4637603759766
 40
0.5
 50
0
 51
90.00000000000019
  0
CIRCLE
  8
0
  6
CONTINUOUS
 62
     7
 10
-128.3102264404297
 20
-210.9637756347656
 40
3.5
  0
CIRCLE
  8
0
  6
CONTINUOUS
 62
     7
 10
-103.3102340698242
 20
-210.9637756347656
 40
3.5
  0
ARC
  8
0
  6
CONTINUOUS
 62
     7
 10
-133.8102416992188
 20
-206.9637756347656
 40
1
 50
90.00000000000019
 51
180.0000000000004
  0
CIRCLE
  8
0
  6
CONTINUOUS
 62
     7
 10
-128.3102264404297
 20
-210.9637756347656
 40
3.099999904632568
  0
ARC
  8
0
  6
CONTINUOUS
 62
     7
 10
-121.3102340698242
 20
-216.4637603759766
 40
0.5
 50
90.00000000000019
 51
180.0000000000004
  0
CIRCLE
  8
0
  6
CONTINUOUS
 62
     7
 10
-103.3102340698242
 20
-210.9637756347656
 40
3.099999904632568
  0
ARC
  8
0
  6
CONTINUOUS
 62
     7
 10
-110.3102264404297
 20
-216.4637603759766
 40
0.5
 50
0
 51
90.00000000000019
  0
ARC
  8
0
  6
CONTINUOUS
 62
     7
 10
-97.81022644042969
 20
-206.9637756347656
 40
1
 50
0
 51
90.00000000000019
  0
CIRCLE
  8
0
  6
CONTINUOUS
 62
     7
 10
-103.3102340698242
 20
-210.9637756347656
 40
4
  0
CIRCLE
  8
0
  6
CONTINUOUS
 62
     7
 10
-128.3102264404297
 20
-210.9637756347656
 40
4
  0
ARC
  8
0
  6
CONTINUOUS
 62
     7
 10
-110.3159942626953
 20
-491.794189453125
 40
0.5
 50
0
 51
90.00000000000019
  0
ARC
  8
0
  6
CONTINUOUS
 62
     7
 10
-161.8159484863281
 20
-492.2942504882813
 40
1
 50
0
 51
90.00000000000019
  0
ARC
  8
0
  6
CONTINUOUS
 62
     7
 10
-99.81593322753906
 20
-492.2942504882813
 40
1
 50
90.00000000000019
 51
180.0000000000004
  0
ARC
  8
0
  6
CONTINUOUS
 62
     7
 10
-178.8159637451172
 20
-490.2942199707031
 40
1
 50
180.0000000000004
 51
270.0000000000005
  0
ARC
  8
0
  6
CONTINUOUS
 62
     7
 10
-82.81591033935547
 20
-490.2942199707031
 40
1
 50
270.0000000000005
 51
360
  0
ARC
  8
0
  6
CONTINUOUS
 62
     7
 10
-82.81591033935547
 20
-480.2941284179688
 40
1
 50
0
 51
90.00000000000019
  0
ARC
  8
0
  6
CONTINUOUS
 62
     7
 10
-178.8159637451172
 20
-480.2941284179688
 40
1
 50
90.00000000000019
 51
180.0000000000004
  0
CIRCLE
  8
0
  6
CONTINUOUS
 62
     7
 10
-98.31599426269531
 20
-484.294189453125
 40
2.500000238418579
  0
CIRCLE
  8
0
  6
CONTINUOUS
 62
     7
 10
-123.3159942626953
 20
-484.294189453125
 40
2.500000238418579
  0
CIRCLE
  8
0
  6
CONTINUOUS
 62
     7
 10
-86.81595611572266
 20
-484.294189453125
 40
2.500000238418579
  0
CIRCLE
  8
0
  6
CONTINUOUS
 62
     7
 10
-138.3159942626953
 20
-484.294189453125
 40
2.500000238418579
  0
CIRCLE
  8
0
  6
CONTINUOUS
 62
     7
 10
-163.3159942626953
 20
-484.294189453125
 40
2.500000238418579
  0
CIRCLE
  8
0
  6
CONTINUOUS
 62
     7
 10
-174.8159332275391
 20
-484.294189453125
 40
2
  0
ARC
  8
0
  6
CONTINUOUS
 62
     7
 10
48.00138092041016
 20
-496.2732238769531
 40
0.5
 50
180.0000000000004
 51
254.7405872266885
  0
ARC
  8
0
  6
CONTINUOUS
 62
     7
 10
47.50142669677734
 20
-498.1062622070313
 40
1.399999976158142
 50
270.0000000000005
 51
74.74323821875413
  0
CIRCLE
  8
0
  6
CONTINUOUS
 62
     7
 10
-19.05990219116211
 20
-484.294189453125
 40
2
  0
ARC
  8
0
  6
CONTINUOUS
 62
     7
 10
11.44010162353516
 20
-480.2942199707031
 40
1
 50
0
 51
90.00000000000019
  0
ARC
  8
0
  6
CONTINUOUS
 62
     7
 10
-24.55990791320801
 20
-480.2942199707031
 40
1
 50
90.00000000000019
 51
180.0000000000004
  0
ARC
  8
0
  6
CONTINUOUS
 62
     7
 10
-1.059898257255554
 20
-489.7942199707031
 40
0.5
 50
0
 51
89.99998633962166
  0
ARC
  8
0
  6
CONTINUOUS
 62
     7
 10
-12.05990791320801
 20
-489.7942199707031
 40
0.5
 50
90.00000000000019
 51
180.0000000000004
  0
ARC
  8
0
  6
CONTINUOUS
 62
     7
 10
47.50142669677734
 20
-498.1062622070313
 40
1.799999952316284
 50
270.0000000000005
 51
70.52877982114664
  0
ARC
  8
0
  6
CONTINUOUS
 62
     7
 10
-151.3159942626953
 20
-491.794189453125
 40
0.5
 50
90.00000000000019
 51
180.0000000000004
  0
ARC
  8
0
  6
CONTINUOUS
 62
     7
 10
48.20142364501953
 20
-496.1263427734375
 40
0.300000011920929
 50
180.0000000000004
 51
250.530627650778
  0
ARC
  8
0
  6
CONTINUOUS
 62
     7
 10
5.440071105957031
 20
-484.294189453125
 40
2
 50
90.00000000000019
 51
270.0000000000005
  0
ARC
  8
0
  6
CONTINUOUS
 62
     7
 10
6.440071105957031
 20
-484.294189453125
 40
2
 50
270.0000000000005
 51
90.00000000000019
  0
ARC
  8
0
  6
CONTINUOUS
 62
     7
 10
24.68974304199219
 20
-218.4637603759766
 40
0.5
 50
0
 51
90.00000000000019
  0
CIRCLE
  8
0
  6
CONTINUOUS
 62
     7
 10
36.68976211547852
 20
-210.9637603759766
 40
3.5
  0
CIRCLE
  8
0
  6
CONTINUOUS
 62
     7
 10
11.68976402282715
 20
-210.9637603759766
 40
3.5
  0
ARC
  8
0
  6
CONTINUOUS
 62
     7
 10
42.18974304199219
 20
-206.9637756347656
 40
1
 50
0
 51
90.00000000000019
  0
CIRCLE
  8
0
  6
CONTINUOUS
 62
     7
 10
36.68976211547852
 20
-210.9637603759766
 40
3.099999904632568
  0
ARC
  8
0
  6
CONTINUOUS
 62
     7
 10
29.68974304199219
 20
-216.4637451171875
 40
0.5
 50
0
 51
90.00000000000019
  0
CIRCLE
  8
0
  6
CONTINUOUS
 62
     7
 10
11.68976402282715
 20
-210.9637603759766
 40
3.099999904632568
  0
ARC
  8
0
  6
CONTINUOUS
 62
     7
 10
18.68978500366211
 20
-216.4637451171875
 40
0.5
 50
90.00000000000019
 51
180.0000000000004
  0
ARC
  8
0
  6
CONTINUOUS
 62
     7
 10
6.189784526824951
 20
-206.9637756347656
 40
1
 50
90.00000000000019
 51
180.0000000000004
  0
CIRCLE
  8
0
  6
CONTINUOUS
 62
     7
 10
11.68976402282715
 20
-210.9637603759766
 40
4
  0
CIRCLE
  8
0
  6
CONTINUOUS
 62
     7
 10
36.68976211547852
 20
-210.9637603759766
 40
4
  0
ARC
  8
0
  6
CENTER
 62
     7
 10
-131.5382385253906
 20
217.2384948730469
 40
15.25
 50
180.0000000000004
 51
270.0000000000005
  0
ARC
  8
0
  6
CONTINUOUS
 62
     7
 10
-131.5382385253906
 20
217.2384948730469
 40
18.5
 50
180.0000000000004
 51
270.0000000000005
  0
ARC
  8
0
  6
CONTINUOUS
 62
     7
 10
-93.85851287841797
 20
251.1593017578125
 40
16
 50
180.0000000000004
 51
270.0000273207574
  0
CIRCLE
  8
0
  6
CONTINUOUS
 62
     7
 10
45.51325988769531
 20
209.6576690673828
 40
0.800000011920929
  0
CIRCLE
  8
0
  6
CONTINUOUS
 62
     7
 10
45.51325988769531
 20
207.1176910400391
 40
0.800000011920929
  0
CIRCLE
  8
0
  6
CONTINUOUS
 62
     7
 10
45.51325988769531
 20
204.5776672363281
 40
0.800000011920929
  0
CIRCLE
  8
0
  6
CONTINUOUS
 62
     7
 10
45.51325988769531
 20
202.0376739501953
 40
0.800000011920929
  0
CIRCLE
  8
0
  6
CONTINUOUS
 62
     7
 10
45.51325988769531
 20
199.4976501464844
 40
0.800000011920929
  0
CIRCLE
  8
0
  6
CONTINUOUS
 62
     7
 10
45.51325988769531
 20
196.9576721191406
 40
0.800000011920929
  0
CIRCLE
  8
0
  6
CONTINUOUS
 62
     7
 10
45.51325988769531
 20
194.4176635742188
 40
0.800000011920929
  0
CIRCLE
  8
0
  6
CONTINUOUS
 62
     7
 10
42.97328186035156
 20
210.9276885986328
 40
0.800000011920929
  0
CIRCLE
  8
0
  6
CONTINUOUS
 62
     7
 10
42.97328186035156
 20
208.3876800537109
 40
0.800000011920929
  0
CIRCLE
  8
0
  6
CONTINUOUS
 62
     7
 10
42.97328186035156
 20
205.84765625
 40
0.800000011920929
  0
CIRCLE
  8
0
  6
CONTINUOUS
 62
     7
 10
42.97328186035156
 20
203.3076477050781
 40
0.800000011920929
  0
CIRCLE
  8
0
  6
CONTINUOUS
 62
     7
 10
42.97328186035156
 20
200.7676849365234
 40
0.800000011920929
  0
CIRCLE
  8
0
  6
CONTINUOUS
 62
     7
 10
42.97328186035156
 20
198.2276611328125
 40
0.800000011920929
  0
CIRCLE
  8
0
  6
CONTINUOUS
 62
     7
 10
42.97328186035156
 20
195.6876525878906
 40
0.800000011920929
  0
CIRCLE
  8
0
  6
CONTINUOUS
 62
     7
 10
42.97328186035156
 20
193.1476593017578
 40
0.800000011920929
  0
ARC
  8
0
  6
CONTINUOUS
 62
     7
 10
41.57328796386719
 20
213.1576538085938
 40
1
 50
80.00012340955199
 51
180.0000000000004
  0
ARC
  8
0
  6
CONTINUOUS
 62
     7
 10
46.91325378417969
 20
212.216064453125
 40
1
 50
0
 51
80.00012340955199
  0
ARC
  8
0
  6
CONTINUOUS
 62
     7
 10
41.57328796386719
 20
190.9176788330078
 40
1
 50
180.0000000000004
 51
279.999940022925
  0
ARC
  8
0
  6
CONTINUOUS
 62
     7
 10
46.91325378417969
 20
191.8592529296875
 40
1
 50
279.999940022925
 51
360
  0
ARC
  8
0
  6
CONTINUOUS
 62
     7
 10
46.91325378417969
 20
212.216064453125
 40
1.5
 50
0
 51
79.999836413924
  0
ARC
  8
0
  6
CONTINUOUS
 62
     7
 10
46.91325378417969
 20
191.8592529296875
 40
1.5
 50
280.0002058715762
 51
360
  0
ARC
  8
0
  6
CONTINUOUS
 62
     7
 10
41.57328796386719
 20
213.1576538085938
 40
1.5
 50
79.999836413924
 51
180.0000000000004
  0
ARC
  8
0
  6
CONTINUOUS
 62
     7
 10
41.57328796386719
 20
190.9176788330078
 40
1.5
 50
180.0000000000004
 51
280.0002058715762
  0
CIRCLE
  8
0
  6
CONTINUOUS
 62
     7
 10
44.24327087402344
 20
185.3776702880859
 40
1.524999976158142
  0
CIRCLE
  8
0
  6
CONTINUOUS
 62
     7
 10
44.24327087402344
 20
218.6976623535156
 40
1.524999976158142
  0
ARC
  8
0
  6
CONTINUOUS
 62
     7
 10
39.94329452514648
 20
219.5876617431641
 40
2
 50
90.00000000000019
 51
180.0000000000004
  0
ARC
  8
0
  6
CONTINUOUS
 62
     7
 10
39.94326782226563
 20
184.4876556396484
 40
2
 50
180.0000000000004
 51
270.0001092830274
  0
ARC
  8
0
  6
CONTINUOUS
 62
     7
 10
48.54327392578125
 20
184.4876556396484
 40
2
 50
270.0001092830274
 51
360
  0
ARC
  8
0
  6
CONTINUOUS
 62
     7
 10
48.54330062866211
 20
219.5876617431641
 40
2
 50
0
 51
90.00000000000019
  0
ARC
  8
0
  6
CONTINUOUS
 62
     7
 10
6.795229911804199
 20
214.7384948730469
 40
1
 50
0
 51
89.99997267924331
  0
ARC
  8
0
  6
CONTINUOUS
 62
     7
 10
6.795229911804199
 20
189.2384796142578
 40
1
 50
270.0000273207574
 51
360
  0
ARC
  8
0
  6
CONTINUOUS
 62
     7
 10
-148.4257049560547
 20
294.4779357910156
 40
2.600000143051148
 50
51.31792574506063
 51
128.6820742549394
  0
ARC
  8
0
  6
CENTER
 62
     7
 10
-126.7882690429688
 20
299.3680114746094
 40
20
 50
89.99997814339466
 51
179.9999125735786
  0
ARC
  8
0
  6
CONTINUOUS
 62
     7
 10
-148.4257049560547
 20
298.4779357910156
 40
2.600000143051148
 50
231.317505423951
 51
308.6824945760504
  0
ARC
  8
0
  6
CONTINUOUS
 62
     7
 10
-145.1757049560547
 20
294.4779357910156
 40
2.600000143051148
 50
51.31792574506063
 51
128.6820742549394
  0
ARC
  8
0
  6
CONTINUOUS
 62
     7
 10
-131.5382385253906
 20
217.2384796142578
 40
12
 50
180.0000000000004
 51
270.0000000000005
  0
ARC
  8
0
  6
CONTINUOUS
 62
     7
 10
-93.85851287841797
 20
254.2917327880859
 40
16
 50
89.99997267926938
 51
179.9999453584866
  0
ARC
  8
0
  6
CONTINUOUS
 62
     7
 10
-20.10479354858398
 20
210.7384796142578
 40
4.5
 50
139.875901878845
 51
36.86981993352217
  0
ARC
  8
0
  6
CONTINUOUS
 62
     7
 10
1.395195722579956
 20
215.7384796142578
 40
0.5
 50
180.0000000000004
 51
270.0000273207574
  0
ARC
  8
0
  6
CONTINUOUS
 62
     7
 10
0.3951601982116699
 20
221.7384796142578
 40
0.5
 50
0
 51
89.99998292452708
  0
CIRCLE
  8
0
  6
CONTINUOUS
 62
     7
 10
-20.10479354858398
 20
210.7384796142578
 40
3
  0
ARC
  8
0
  6
CONTINUOUS
 62
     7
 10
-18.60477828979492
 20
215.7384796142578
 40
0.5
 50
270.0000000000005
 51
360
  0
CIRCLE
  8
0
  6
CONTINUOUS
 62
     7
 10
-20.10479354858398
 20
210.7384796142578
 40
2.75
  0
ARC
  8
0
  6
CONTINUOUS
 62
     7
 10
-20.10479354858398
 20
210.7384796142578
 40
1.75
 50
80.12914010200804
 51
99.87085989799196
  0
ARC
  8
0
  6
CONTINUOUS
 62
     7
 10
-20.10479354858398
 20
210.7384796142578
 40
1.75
 50
260.1291159830193
 51
279.8710070631948
  0
ARC
  8
0
  6
CONTINUOUS
 62
     7
 10
-20.10479354858398
 20
193.2384948730469
 40
4.5
 50
321.1464607041426
 51
220.1241763732853
  0
ARC
  8
0
  6
CONTINUOUS
 62
     7
 10
1.395195722579956
 20
188.2384948730469
 40
0.5
 50
89.99997267924331
 51
180.0000000000004
  0
ARC
  8
0
  6
CONTINUOUS
 62
     7
 10
-21.4047908782959
 20
209.4384765625
 40
1
 50
0
 51
90.00000000000019
  0
ARC
  8
0
  6
CONTINUOUS
 62
     7
 10
-20.10479354858398
 20
210.7384796142578
 40
1.75
 50
180.0000000000004
 51
189.8704934680244
  0
ARC
  8
0
  6
CONTINUOUS
 62
     7
 10
4.395200729370117
 20
214.7384796142578
 40
0.5
 50
0
 51
90.00000000000019
  0
ARC
  8
0
  6
CONTINUOUS
 62
     7
 10
-37.60476684570313
 20
216.4884948730469
 40
0.5
 50
90.00000000000019
 51
180.0000000000004
  0
ARC
  8
0
  6
CONTINUOUS
 62
     7
 10
4.395200729370117
 20
214.7384796142578
 40
0.5
 50
0
 51
90.00000000000019
  0
ARC
  8
0
  6
CONTINUOUS
 62
     7
 10
4.395200729370117
 20
189.2384796142578
 40
0.5
 50
270.0000000000005
 51
360
  0
ARC
  8
0
  6
CONTINUOUS
 62
     7
 10
-37.60476684570313
 20
187.4884948730469
 40
0.5
 50
180.0000000000004
 51
270.0000000000005
  0
CIRCLE
  8
0
  6
CONTINUOUS
 62
     7
 10
-20.10479354858398
 20
193.2384948730469
 40
3
  0
ARC
  8
0
  6
CONTINUOUS
 62
     7
 10
-18.60477828979492
 20
188.2384948730469
 40
0.5
 50
0
 51
90.00000000000019
  0
ARC
  8
0
  6
CONTINUOUS
 62
     7
 10
-17.60476875305176
 20
182.2384796142578
 40
0.5
 50
180.0000000000004
 51
270.0002185660542
  0
ARC
  8
0
  6
CONTINUOUS
 62
     7
 10
-17.60476875305176
 20
221.7384796142578
 40
0.5
 50
89.99978143394657
 51
180.0000000000004
  0
ARC
  8
0
  6
CONTINUOUS
 62
     7
 10
0.3951601982116699
 20
182.2384796142578
 40
0.5
 50
270.0000170754736
 51
360
  0
ARC
  8
0
  6
CONTINUOUS
 62
     7
 10
-20.10479354858398
 20
210.7384796142578
 40
1.75
 50
350.129506531977
 51
9.870985652401204
  0
ARC
  8
0
  6
CONTINUOUS
 62
     7
 10
-18.80476951599121
 20
209.4384765625
 40
1
 50
90.00010928302672
 51
180.0000000000004
  0
ARC
  8
0
  6
CONTINUOUS
 62
     7
 10
-21.4047908782959
 20
212.0384979248047
 40
1
 50
270.0000000000005
 51
360
  0
ARC
  8
0
  6
CONTINUOUS
 62
     7
 10
-60.10478973388672
 20
197.9885101318359
 40
1
 50
180.0000000000004
 51
270.0000000000005
  0
ARC
  8
0
  6
CONTINUOUS
 62
     7
 10
-60.10478973388672
 20
205.9884948730469
 40
1
 50
90.00000000000019
 51
180.0000000000004
  0
ARC
  8
0
  6
CONTINUOUS
 62
     7
 10
-26.60478210449219
 20
188.2384948730469
 40
0.5
 50
90.00021856605343
 51
180.0000000000004
  0
ARC
  8
0
  6
CONTINUOUS
 62
     7
 10
-26.60478210449219
 20
215.7384796142578
 40
0.5
 50
180.0000000000004
 51
270.0000000000005
  0
ARC
  8
0
  6
CONTINUOUS
 62
     7
 10
-28.10477256774902
 20
215.9884948730469
 40
1
 50
0
 51
90.00000000000019
  0
ARC
  8
0
  6
CONTINUOUS
 62
     7
 10
-28.10477256774902
 20
187.9884796142578
 40
1
 50
270.0000000000005
 51
360
  0
ARC
  8
0
  6
CONTINUOUS
 62
     7
 10
-20.10479354858398
 20
210.7384796142578
 40
1.75
 50
170.1290143475988
 51
180.0000000000004
  0
ARC
  8
0
  6
CONTINUOUS
 62
     7
 10
-18.80476951599121
 20
212.0384979248047
 40
1
 50
180.0000000000004
 51
270.0000000000005
  0
CIRCLE
  8
0
  6
CONTINUOUS
 62
     7
 10
-20.10479354858398
 20
193.2384948730469
 40
2.75
  0
ARC
  8
0
  6
CONTINUOUS
 62
     7
 10
-20.10479354858398
 20
193.2384948730469
 40
1.75
 50
180.0004995795514
 51
189.8709856524019
  0
ARC
  8
0
  6
CONTINUOUS
 62
     7
 10
-18.80476951599121
 20
191.9384918212891
 40
1
 50
90.00010928302672
 51
180.0000000000004
  0
ARC
  8
0
  6
CONTINUOUS
 62
     7
 10
-21.4047908782959
 20
191.9384918212891
 40
1
 50
0
 51
90.00000000000019
  0
ARC
  8
0
  6
CONTINUOUS
 62
     7
 10
-21.4047908782959
 20
194.5384979248047
 40
1
 50
270.0000000000005
 51
360
  0
ARC
  8
0
  6
CONTINUOUS
 62
     7
 10
-18.80476951599121
 20
194.5384979248047
 40
1
 50
180.0000000000004
 51
270.0000000000005
  0
ARC
  8
0
  6
CONTINUOUS
 62
     7
 10
-20.10479354858398
 20
193.2384948730469
 40
1.75
 50
260.1292016246141
 51
279.870921420575
  0
ARC
  8
0
  6
CONTINUOUS
 62
     7
 10
-20.10479354858398
 20
193.2384948730469
 40
1.75
 50
350.1290143475995
 51
9.870493468023717
  0
ARC
  8
0
  6
CONTINUOUS
 62
     7
 10
-20.10479354858398
 20
193.2384948730469
 40
1.75
 50
80.12905445990076
 51
99.87094554009924
  0
ARC
  8
0
  6
CONTINUOUS
 62
     7
 10
-20.10479354858398
 20
193.2384948730469
 40
1.75
 50
170.1295065319763
 51
180.0004995795514
  0
ARC
  8
0
  6
CONTINUOUS
 62
     7
 10
-19.79852294921875
 20
220.0984954833984
 40
0.8000000715255737
 50
90.00013660326229
 51
163.8092829761891
  0
ARC
  8
0
  6
CONTINUOUS
 62
     7
 10
-19.79852294921875
 20
217.198486328125
 40
0.8000000715255737
 50
196.1917665064487
 51
270.0000000000005
  0
ARC
  8
0
  6
CONTINUOUS
 62
     7
 10
-14.80478000640869
 20
218.6484832763672
 40
6
 50
163.8086228121419
 51
196.1912423354814
  0
ARC
  8
0
  6
CONTINUOUS
 62
     7
 10
-19.79852294921875
 20
186.7784576416016
 40
0.8000000715255737
 50
90.00013660326229
 51
163.808233493552
  0
ARC
  8
0
  6
CONTINUOUS
 62
     7
 10
-19.79852294921875
 20
183.8784942626953
 40
0.8000000715255737
 50
196.1917665064487
 51
270.0000000000005
  0
ARC
  8
0
  6
CONTINUOUS
 62
     7
 10
-14.80478000640869
 20
185.3284912109375
 40
6
 50
163.8087627433453
 51
196.1913822667239
  0
CIRCLE
  8
0
  6
CONTINUOUS
 62
     7
 10
-140.0075988769531
 20
368.8680114746094
 40
4
  0
ARC
  8
0
  6
CONTINUOUS
 62
     7
 10
-109.5075988769531
 20
372.8680114746094
 40
1
 50
0
 51
90.00000000000019
  0
ARC
  8
0
  6
CONTINUOUS
 62
     7
 10
-122.0075988769531
 20
363.3680419921875
 40
0.5
 50
0
 51
90.00000000000019
  0
CIRCLE
  8
0
  6
CONTINUOUS
 62
     7
 10
-115.0076065063477
 20
368.8680114746094
 40
3.099999904632568
  0
CIRCLE
  8
0
  6
CONTINUOUS
 62
     7
 10
-115.0076065063477
 20
368.8680114746094
 40
4
  0
ARC
  8
0
  6
CONTINUOUS
 62
     7
 10
-133.0076141357422
 20
363.3680419921875
 40
0.5
 50
90.00000000000019
 51
180.0000000000004
  0
CIRCLE
  8
0
  6
CONTINUOUS
 62
     7
 10
-140.0075988769531
 20
368.8680114746094
 40
3.099999904632568
  0
CIRCLE
  8
0
  6
CONTINUOUS
 62
     7
 10
-140.0075988769531
 20
368.8680114746094
 40
3.5
  0
ARC
  8
0
  6
CONTINUOUS
 62
     7
 10
-145.5076141357422
 20
372.8680114746094
 40
1
 50
90.00000000000019
 51
180.0000000000004
  0
CIRCLE
  8
0
  6
CONTINUOUS
 62
     7
 10
-115.0076065063477
 20
368.8680114746094
 40
3.5
  0
ARC
  8
0
  6
CONTINUOUS
 62
     7
 10
117.9923782348633
 20
363.3680419921875
 40
0.5
 50
0
 51
90.00000000000019
  0
CIRCLE
  8
0
  6
CONTINUOUS
 62
     7
 10
99.99240112304688
 20
368.8680114746094
 40
4
  0
CIRCLE
  8
0
  6
CONTINUOUS
 62
     7
 10
124.9924011230469
 20
368.8680114746094
 40
3.099999904632568
  0
ARC
  8
0
  6
CONTINUOUS
 62
     7
 10
106.9923934936523
 20
363.3680419921875
 40
0.5
 50
90.00000000000019
 51
180.0000000000004
  0
CIRCLE
  8
0
  6
CONTINUOUS
 62
     7
 10
99.99240112304688
 20
368.8680114746094
 40
3.099999904632568
  0
ARC
  8
0
  6
CONTINUOUS
 62
     7
 10
94.49239349365234
 20
372.8680114746094
 40
1
 50
90.00000000000019
 51
180.0000000000004
  0
CIRCLE
  8
0
  6
CONTINUOUS
 62
     7
 10
124.9924011230469
 20
368.8680114746094
 40
3.5
  0
CIRCLE
  8
0
  6
CONTINUOUS
 62
     7
 10
99.99240112304688
 20
368.8680114746094
 40
3.5
  0
ARC
  8
0
  6
CONTINUOUS
 62
     7
 10
130.4923858642578
 20
372.8680114746094
 40
1
 50
0
 51
90.00000000000019
  0
CIRCLE
  8
0
  6
CONTINUOUS
 62
     7
 10
54.99240112304688
 20
368.8680114746094
 40
4
  0
CIRCLE
  8
0
  6
CONTINUOUS
 62
     7
 10
79.99240112304688
 20
368.8680114746094
 40
4
  0
ARC
  8
0
  6
CONTINUOUS
 62
     7
 10
85.49240875244141
 20
372.8680114746094
 40
1
 50
0
 51
90.00000000000019
  0
CIRCLE
  8
0
  6
CONTINUOUS
 62
     7
 10
54.99240112304688
 20
368.8680114746094
 40
3.5
  0
CIRCLE
  8
0
  6
CONTINUOUS
 62
     7
 10
79.99240112304688
 20
368.8680114746094
 40
3.5
  0
ARC
  8
0
  6
CONTINUOUS
 62
     7
 10
49.49239730834961
 20
372.8680114746094
 40
1
 50
90.00000000000019
 51
180.0000000000004
  0
CIRCLE
  8
0
  6
CONTINUOUS
 62
     7
 10
54.99240112304688
 20
368.8680114746094
 40
3.099999904632568
  0
ARC
  8
0
  6
CONTINUOUS
 62
     7
 10
61.99239730834961
 20
363.3680419921875
 40
0.5
 50
90.00000000000019
 51
180.0000000000004
  0
CIRCLE
  8
0
  6
CONTINUOUS
 62
     7
 10
79.99240112304688
 20
368.8680114746094
 40
3.099999904632568
  0
ARC
  8
0
  6
CONTINUOUS
 62
     7
 10
72.99240875244141
 20
363.3680419921875
 40
0.5
 50
0
 51
90.00000000000019
  0
CIRCLE
  8
0
  6
CONTINUOUS
 62
     7
 10
-95.00759124755859
 20
368.8680114746094
 40
4
  0
CIRCLE
  8
0
  6
CONTINUOUS
 62
     7
 10
-70.00759124755859
 20
368.8680114746094
 40
4
  0
ARC
  8
0
  6
CONTINUOUS
 62
     7
 10
-64.50759124755859
 20
372.8680114746094
 40
1
 50
0
 51
90.00000000000019
  0
CIRCLE
  8
0
  6
CONTINUOUS
 62
     7
 10
-95.00759124755859
 20
368.8680114746094
 40
3.5
  0
CIRCLE
  8
0
  6
CONTINUOUS
 62
     7
 10
-70.00759124755859
 20
368.8680114746094
 40
3.5
  0
ARC
  8
0
  6
CONTINUOUS
 62
     7
 10
-100.5075988769531
 20
372.8680114746094
 40
1
 50
90.00000000000019
 51
180.0000000000004
  0
CIRCLE
  8
0
  6
CONTINUOUS
 62
     7
 10
-95.00759124755859
 20
368.8680114746094
 40
3.099999904632568
  0
ARC
  8
0
  6
CONTINUOUS
 62
     7
 10
-88.00759887695313
 20
363.3680419921875
 40
0.5
 50
90.00000000000019
 51
180.0000000000004
  0
CIRCLE
  8
0
  6
CONTINUOUS
 62
     7
 10
-70.00759124755859
 20
368.8680114746094
 40
3.099999904632568
  0
ARC
  8
0
  6
CONTINUOUS
 62
     7
 10
-77.00758361816406
 20
363.3680419921875
 40
0.5
 50
0
 51
90.00000000000019
  0
CIRCLE
  8
0
  6
CONTINUOUS
 62
     7
 10
-185.0076141357422
 20
368.8680114746094
 40
3.5
  0
CIRCLE
  8
0
  6
CONTINUOUS
 62
     7
 10
-160.0076141357422
 20
368.8680114746094
 40
3.5
  0
ARC
  8
0
  6
CONTINUOUS
 62
     7
 10
-190.5076141357422
 20
372.8680114746094
 40
1
 50
90.00000000000019
 51
180.0000000000004
  0
CIRCLE
  8
0
  6
CONTINUOUS
 62
     7
 10
-185.0076141357422
 20
368.8680114746094
 40
3.099999904632568
  0
ARC
  8
0
  6
CONTINUOUS
 62
     7
 10
-178.0076141357422
 20
363.3680419921875
 40
0.5
 50
90.00000000000019
 51
180.0000000000004
  0
CIRCLE
  8
0
  6
CONTINUOUS
 62
     7
 10
-160.0076141357422
 20
368.8680114746094
 40
3.099999904632568
  0
ARC
  8
0
  6
CONTINUOUS
 62
     7
 10
-167.0076141357422
 20
363.3680419921875
 40
0.5
 50
0
 51
90.00000000000019
  0
ARC
  8
0
  6
CONTINUOUS
 62
     7
 10
-154.5076141357422
 20
372.8680114746094
 40
1
 50
0
 51
90.00000000000019
  0
CIRCLE
  8
0
  6
CONTINUOUS
 62
     7
 10
-160.0076141357422
 20
368.8680114746094
 40
4
  0
CIRCLE
  8
0
  6
CONTINUOUS
 62
     7
 10
-185.0076141357422
 20
368.8680114746094
 40
4
  0
CIRCLE
  8
0
  6
CONTINUOUS
 62
     7
 10
169.9924011230469
 20
368.8680114746094
 40
4
  0
ARC
  8
0
  6
CONTINUOUS
 62
     7
 10
175.4923706054688
 20
372.8680114746094
 40
1
 50
0
 51
90.00000000000019
  0
CIRCLE
  8
0
  6
CONTINUOUS
 62
     7
 10
144.9924011230469
 20
368.8680114746094
 40
3.5
  0
CIRCLE
  8
0
  6
CONTINUOUS
 62
     7
 10
169.9924011230469
 20
368.8680114746094
 40
3.5
  0
ARC
  8
0
  6
CONTINUOUS
 62
     7
 10
139.4924011230469
 20
372.8680114746094
 40
1
 50
90.00000000000019
 51
180.0000000000004
  0
CIRCLE
  8
0
  6
CONTINUOUS
 62
     7
 10
144.9924011230469
 20
368.8680114746094
 40
3.099999904632568
  0
ARC
  8
0
  6
CONTINUOUS
 62
     7
 10
151.9924011230469
 20
363.3680419921875
 40
0.5
 50
90.00000000000019
 51
180.0000000000004
  0
CIRCLE
  8
0
  6
CONTINUOUS
 62
     7
 10
169.9924011230469
 20
368.8680114746094
 40
3.099999904632568
  0
CIRCLE
  8
0
  6
CONTINUOUS
 62
     7
 10
144.9924011230469
 20
368.8680114746094
 40
4
  0
ARC
  8
0
  6
CONTINUOUS
 62
     7
 10
162.9923858642578
 20
363.3680419921875
 40
0.5
 50
0
 51
90.00000000000019
  0
ARC
  8
0
  6
CONTINUOUS
 62
     7
 10
-25.50763702392578
 20
372.8680114746094
 40
1
 50
90.00000000000019
 51
180.0000000000004
  0
CIRCLE
  8
0
  6
CONTINUOUS
 62
     7
 10
-20.00760650634766
 20
368.8679809570313
 40
3.099999904632568
  0
CIRCLE
  8
0
  6
CONTINUOUS
 62
     7
 10
4.992391586303711
 20
368.8679809570313
 40
3.099999904632568
  0
ARC
  8
0
  6
CONTINUOUS
 62
     7
 10
-2.007653951644898
 20
363.3680419921875
 40
0.5
 50
0
 51
89.99997267924331
  0
ARC
  8
0
  6
CONTINUOUS
 62
     7
 10
10.49234580993652
 20
372.8680114746094
 40
1
 50
0
 51
90.00000000000019
  0
CIRCLE
  8
0
  6
CONTINUOUS
 62
     7
 10
4.992391586303711
 20
368.8679809570313
 40
4
  0
ARC
  8
0
  6
CONTINUOUS
 62
     7
 10
-13.0076379776001
 20
363.3680419921875
 40
0.5
 50
90.00000000000019
 51
180.0000000000004
  0
ARC
  8
0
  6
CONTINUOUS
 62
     7
 10
-28.00763702392578
 20
361.3679809570313
 40
0.5
 50
90.00000000000019
 51
180.0000000000004
  0
CIRCLE
  8
0
  6
CONTINUOUS
 62
     7
 10
17.49239158630371
 20
368.8679809570313
 40
4
  0
CIRCLE
  8
0
  6
CONTINUOUS
 62
     7
 10
-32.50760650634766
 20
368.8679809570313
 40
3.5
  0
CIRCLE
  8
0
  6
CONTINUOUS
 62
     7
 10
-32.50760650634766
 20
368.8679809570313
 40
3.099999904632568
  0
CIRCLE
  8
0
  6
CONTINUOUS
 62
     7
 10
17.49239158630371
 20
368.8679809570313
 40
3.5
  0
CIRCLE
  8
0
  6
CONTINUOUS
 62
     7
 10
-32.50760650634766
 20
368.8679809570313
 40
4
  0
CIRCLE
  8
0
  6
CONTINUOUS
 62
     7
 10
-20.00760650634766
 20
368.8679809570313
 40
4
  0
CIRCLE
  8
0
  6
CONTINUOUS
 62
     7
 10
4.992391586303711
 20
368.8679809570313
 40
3.5
  0
ARC
  8
0
  6
CONTINUOUS
 62
     7
 10
-36.50762176513672
 20
372.8680114746094
 40
1
 50
90.00000000000019
 51
180.0000000000004
  0
CIRCLE
  8
0
  6
CONTINUOUS
 62
     7
 10
17.49239158630371
 20
368.8679809570313
 40
3.099999904632568
  0
ARC
  8
0
  6
CONTINUOUS
 62
     7
 10
21.49238014221191
 20
372.8680114746094
 40
1
 50
0
 51
90.00000000000019
  0
CIRCLE
  8
0
  6
CONTINUOUS
 62
     7
 10
-20.00760650634766
 20
368.8679809570313
 40
3.5
  0
ARC
  8
0
  6
CONTINUOUS
 62
     7
 10
12.99234580993652
 20
361.3679809570313
 40
0.5
 50
0
 51
90.00000000000019
  0
CIRCLE
  8
0
  6
CONTINUOUS
 62
     7
 10
124.9924011230469
 20
368.8680114746094
 40
4
  0
ARC
  8
0
  6
CONTINUOUS
 62
     7
 10
-263.021484375
 20
356.9980773925781
 40
0.5
 50
293.2256828858335
 51
16.71398218088221
  0
ARC
  8
0
  6
CONTINUOUS
 62
     7
 10
-222.1520538330078
 20
369.2678527832031
 40
42.57146072387695
 50
185.932260685018
 51
196.4815702803931
  0
CIRCLE
  8
0
  6
CONTINUOUS
 62
     7
 10
-35.00759506225586
 20
324.3680419921875
 40
5.000000476837158
  0
CIRCLE
  8
0
  6
CONTINUOUS
 62
     7
 10
19.99240303039551
 20
324.3680419921875
 40
5.000000476837158
  0
CIRCLE
  8
0
  6
CONTINUOUS
 62
     7
 10
-35.00759506225586
 20
324.3680419921875
 40
4.25
  0
CIRCLE
  8
0
  6
CONTINUOUS
 62
     7
 10
-35.00759506225586
 20
324.3680419921875
 40
3.750000238418579
  0
CIRCLE
  8
0
  6
CONTINUOUS
 62
     7
 10
19.99240303039551
 20
324.3680419921875
 40
4.25
  0
CIRCLE
  8
0
  6
CONTINUOUS
 62
     7
 10
19.99240303039551
 20
324.3680419921875
 40
3.750000238418579
  0
ARC
  8
0
  6
CONTINUOUS
 62
     7
 10
-70.65639495849609
 20
320.9930419921875
 40
2.600000143051148
 50
141.3178206655052
 51
218.6821793344955
  0
ARC
  8
0
  6
CONTINUOUS
 62
     7
 10
-74.65644073486328
 20
317.7430419921875
 40
2.600000143051148
 50
321.3178206655059
 51
38.68217933449486
  0
ARC
  8
0
  6
CONTINUOUS
 62
     7
 10
-70.65639495849609
 20
317.7430419921875
 40
2.600000143051148
 50
141.3178206655052
 51
218.6821793344955
  0
ARC
  8
0
  6
CONTINUOUS
 62
     7
 10
-47.50759506225586
 20
319.3681640625
 40
6.499970436096191
 50
157.3797703429875
 51
202.6199813447318
  0
ARC
  8
0
  6
CONTINUOUS
 62
     7
 10
-52.12724304199219
 20
324.5911865234375
 40
1.880325555801392
 50
137.2296386562623
 51
222.7701245453696
  0
ARC
  8
0
  6
CONTINUOUS
 62
     7
 10
-45.38794326782227
 20
324.5911865234375
 40
1.880343317985535
 50
317.2301911824987
 51
42.76980881750199
  0
ARC
  8
0
  6
CONTINUOUS
 62
     7
 10
-50.00759506225586
 20
319.3681640625
 40
6.499970436096191
 50
337.3800186552696
 51
22.6202296570125
  0
ARC
  8
0
  6
CONTINUOUS
 62
     7
 10
-45.38835144042969
 20
314.14501953125
 40
1.880716443061829
 50
317.2344335546547
 51
42.76556644534594
  0
ARC
  8
0
  6
CONTINUOUS
 62
     7
 10
-52.12693786621094
 20
314.14501953125
 40
1.880716443061829
 50
137.2344335546541
 51
222.7655664453467
  0
ARC
  8
0
  6
CONTINUOUS
 62
     7
 10
-43.62728500366211
 20
324.5911865234375
 40
1.880325555801392
 50
137.2295597230025
 51
222.7701245453696
  0
ARC
  8
0
  6
CONTINUOUS
 62
     7
 10
-39.00763320922852
 20
319.3681640625
 40
6.499970436096191
 50
157.3797703429875
 51
202.6199813447318
  0
ARC
  8
0
  6
CONTINUOUS
 62
     7
 10
-43.62687683105469
 20
314.14501953125
 40
1.880716443061829
 50
137.2344335546541
 51
222.7655664453467
  0
ARC
  8
0
  6
CONTINUOUS
 62
     7
 10
-43.00757217407227
 20
313.8680114746094
 40
0.5000050663948059
 50
180.0000000000004
 51
360
  0
ARC
  8
0
  6
CONTINUOUS
 62
     7
 10
-43.00757217407227
 20
324.8680114746094
 40
0.5000050663948059
 50
0
 51
180.0000000000004
  0
ARC
  8
0
  6
CONTINUOUS
 62
     7
 10
-262.1933898925781
 20
355.0682373046875
 40
1.600000143051148
 50
113.2231286879517
 51
262.8199511353045
  0
ARC
  8
0
  6
CONTINUOUS
 62
     7
 10
-263.2619934082031
 20
357.1049194335938
 40
0.3000000417232513
 50
297.6833461263101
 51
16.48262817259529
  0
ARC
  8
0
  6
CONTINUOUS
 62
     7
 10
-262.1933898925781
 20
355.0682373046875
 40
2
 50
117.6845137721161
 51
264.2613954516951
  0
ARC
  8
0
  6
CONTINUOUS
 62
     7
 10
-222.1520538330078
 20
369.2678527832031
 40
42.17146301269531
 50
185.9884017040067
 51
196.7107234872732
  0
CIRCLE
  8
0
  6
CONTINUOUS
 62
     7
 10
-260.6934204101563
 20
319.3681945800781
 40
3.25
  0
CIRCLE
  8
0
  6
CONTINUOUS
 62
     7
 10
-260.6934204101563
 20
319.3681945800781
 40
3.349999904632568
  0
ARC
  8
0
  6
CONTINUOUS
 62
     7
 10
-260.6934204101563
 20
319.3681945800781
 40
6.5
 50
22.61986494804043
 51
37.37990920238929
  0
ARC
  8
0
  6
CONTINUOUS
 62
     7
 10
-260.6934204101563
 20
319.3681945800781
 40
6.5
 50
142.6200091416433
 51
157.3801350519596
  0
ARC
  8
0
  6
CONTINUOUS
 62
     7
 10
-260.6934204101563
 20
319.3681945800781
 40
6.5
 50
82.61989995818946
 51
97.38010004181054
  0
ARC
  8
0
  6
CONTINUOUS
 62
     7
 10
-260.6934204101563
 20
319.3681945800781
 40
6.5
 50
322.6197953840405
 51
337.3798867406793
  0
ARC
  8
0
  6
CONTINUOUS
 62
     7
 10
-260.6934204101563
 20
319.3681945800781
 40
6.5
 50
262.6199345120418
 51
277.3800654879596
  0
ARC
  8
0
  6
CONTINUOUS
 62
     7
 10
-260.6934204101563
 20
319.3681945800781
 40
6.5
 50
202.6198649480411
 51
217.3802046159609
  0
CIRCLE
  8
0
  6
CONTINUOUS
 62
     7
 10
-260.6934204101563
 20
319.3681945800781
 40
4.75
  0
CIRCLE
  8
0
  6
CONTINUOUS
 62
     7
 10
-260.6934204101563
 20
319.3681945800781
 40
5
  0
CIRCLE
  8
0
  6
CONTINUOUS
 62
     7
 10
-270.0113830566406
 20
117.2378540039063
 40
2.5
  0
CIRCLE
  8
0
  6
CONTINUOUS
 62
     7
 10
-245.0113983154297
 20
117.2378540039063
 40
2.5
  0
ARC
  8
0
  6
CONTINUOUS
 62
     7
 10
-274.5113525390625
 20
114.2378463745117
 40
2
 50
180.0000000000004
 51
270.0000000000005
  0
ARC
  8
0
  6
CONTINUOUS
 62
     7
 10
-274.5113525390625
 20
120.2378845214844
 40
2
 50
90.00000000000019
 51
180.0000000000004
  0
ARC
  8
0
  6
CONTINUOUS
 62
     7
 10
-240.5113677978516
 20
120.2378845214844
 40
2
 50
0
 51
90.00000000000019
  0
ARC
  8
0
  6
CONTINUOUS
 62
     7
 10
-240.5113677978516
 20
114.2378463745117
 40
2
 50
270.0000000000005
 51
360
  0
ARC
  8
0
  6
CONTINUOUS
 62
     7
 10
-14.55992889404297
 20
117.2378540039063
 40
2
 50
90.00000000000019
 51
270.0000000000005
  0
ARC
  8
0
  6
CONTINUOUS
 62
     7
 10
-13.55992889404297
 20
117.2378540039063
 40
2
 50
270.0000000000005
 51
90.00000000000019
  0
ARC
  8
0
  6
CONTINUOUS
 62
     7
 10
28.00137901306152
 20
105.2588348388672
 40
0.5
 50
180.0000000000004
 51
254.7408173259932
  0
ARC
  8
0
  6
CONTINUOUS
 62
     7
 10
27.50142478942871
 20
103.4257965087891
 40
1.399999976158142
 50
270.0000000000005
 51
74.74299858406344
  0
CIRCLE
  8
0
  6
CONTINUOUS
 62
     7
 10
-39.05990219116211
 20
117.2378540039063
 40
2
  0
ARC
  8
0
  6
CONTINUOUS
 62
     7
 10
-8.559898376464844
 20
121.2378387451172
 40
1
 50
0
 51
90.00000000000019
  0
ARC
  8
0
  6
CONTINUOUS
 62
     7
 10
-44.55990600585938
 20
121.2378387451172
 40
1
 50
90.00000000000019
 51
180.0000000000004
  0
ARC
  8
0
  6
CONTINUOUS
 62
     7
 10
-21.05989837646484
 20
111.7378234863281
 40
0.5
 50
0
 51
90.00000000000019
  0
ARC
  8
0
  6
CONTINUOUS
 62
     7
 10
-32.05990982055664
 20
111.7378234863281
 40
0.5
 50
89.99956286789313
 51
180.0000000000004
  0
ARC
  8
0
  6
CONTINUOUS
 62
     7
 10
27.50142478942871
 20
103.4257965087891
 40
1.799999952316284
 50
270.0000000000005
 51
70.52880353092164
  0
ARC
  8
0
  6
CONTINUOUS
 62
     7
 10
28.20142555236816
 20
105.4057006835938
 40
0.300000011920929
 50
180.0000000000004
 51
250.5288272404911
  0
ARC
  8
0
  6
CONTINUOUS
 62
     7
 10
-170.3159332275391
 20
109.7378540039063
 40
0.5
 50
90.00000000000019
 51
180.0000000000004
  0
ARC
  8
0
  6
CONTINUOUS
 62
     7
 10
-178.8159484863281
 20
121.2378387451172
 40
1
 50
90.00000000000019
 51
180.0000000000004
  0
ARC
  8
0
  6
CONTINUOUS
 62
     7
 10
-120.8159484863281
 20
121.2378387451172
 40
1
 50
0
 51
90.00000000000019
  0
ARC
  8
0
  6
CONTINUOUS
 62
     7
 10
-129.3159637451172
 20
109.7378540039063
 40
0.5
 50
0
 51
90.00000000000019
  0
CIRCLE
  8
0
  6
CONTINUOUS
 62
     7
 10
-174.8159332275391
 20
117.2378387451172
 40
2
  0
CIRCLE
  8
0
  6
CONTINUOUS
 62
     7
 10
-162.3159332275391
 20
117.2378387451172
 40
2.500000238418579
  0
CIRCLE
  8
0
  6
CONTINUOUS
 62
     7
 10
-137.3159332275391
 20
117.2378387451172
 40
2.500000238418579
  0
CIRCLE
  8
0
  6
CONTINUOUS
 62
     7
 10
-124.8159484863281
 20
117.2378387451172
 40
2.500000238418579
  0
ARC
  8
0
  6
CONTINUOUS
 62
     7
 10
278.0062866210938
 20
356.9980773925781
 40
0.5
 50
163.2860178191178
 51
246.7743171141679
  0
ARC
  8
0
  6
CONTINUOUS
 62
     7
 10
237.1368560791016
 20
369.2678527832031
 40
42.57146072387695
 50
343.5184297196083
 51
354.0677393149834
  0
ARC
  8
0
  6
CONTINUOUS
 62
     7
 10
277.1781921386719
 20
355.0682373046875
 40
1.600000143051148
 50
277.180048864697
 51
66.77687131204833
  0
ARC
  8
0
  6
CONTINUOUS
 62
     7
 10
278.2467956542969
 20
357.1049194335938
 40
0.3000000417232513
 50
163.5173718274047
 51
242.3166538736914
  0
ARC
  8
0
  6
CONTINUOUS
 62
     7
 10
277.1781921386719
 20
355.0682373046875
 40
2
 50
275.7386045483063
 51
62.3154862278839
  0
ARC
  8
0
  6
CONTINUOUS
 62
     7
 10
237.1368560791016
 20
369.2678527832031
 40
42.17146301269531
 50
343.2892765127283
 51
354.0115982959947
  0
ARC
  8
0
  6
CONTINUOUS
 62
     7
 10
289.7036437988281
 20
-222.8337097167969
 40
0.5
 50
163.2876924711951
 51
246.7782203449952
  0
ARC
  8
0
  6
CONTINUOUS
 62
     7
 10
248.834228515625
 20
-210.5639495849609
 40
42.57146072387695
 50
343.5184238932907
 51
354.0677576189125
  0
ARC
  8
0
  6
CONTINUOUS
 62
     7
 10
288.8755493164063
 20
-224.7635650634766
 40
1.600000143051148
 50
277.1811331157991
 51
66.77708677237339
  0
ARC
  8
0
  6
CONTINUOUS
 62
     7
 10
289.9441833496094
 20
-222.7268829345703
 40
0.3000000417232513
 50
163.5190254096719
 51
242.3166538736914
  0
ARC
  8
0
  6
CONTINUOUS
 62
     7
 10
288.8755493164063
 20
-224.7635650634766
 40
2
 50
275.7395181393902
 51
62.3154862278839
  0
ARC
  8
0
  6
CONTINUOUS
 62
     7
 10
248.834228515625
 20
-210.5639495849609
 40
42.17146301269531
 50
343.2892705516887
 51
354.011600458819
  0
ARC
  8
0
  6
CONTINUOUS
 62
     7
 10
-251.3240966796875
 20
-222.8337097167969
 40
0.5
 50
293.2217796550062
 51
16.71230752880488
  0
ARC
  8
0
  6
CONTINUOUS
 62
     7
 10
-210.4546813964844
 20
-210.5639495849609
 40
42.57146072387695
 50
185.9322423810889
 51
196.4815761067107
  0
ARC
  8
0
  6
CONTINUOUS
 62
     7
 10
-250.4960021972656
 20
-224.7635650634766
 40
1.600000143051148
 50
113.2234153732356
 51
262.8194090091071
  0
ARC
  8
0
  6
CONTINUOUS
 62
     7
 10
-251.5646362304688
 20
-222.7268829345703
 40
0.3000000417232513
 50
297.6859267155537
 51
16.48180134113702
  0
ARC
  8
0
  6
CONTINUOUS
 62
     7
 10
-250.4960021972656
 20
-224.7635650634766
 40
2
 50
117.6849008622235
 51
264.2609168013452
  0
ARC
  8
0
  6
CONTINUOUS
 62
     7
 10
-210.4546813964844
 20
-210.5639495849609
 40
42.17146301269531
 50
185.9884017040067
 51
196.7107294483127
  0
CIRCLE
  8
0
  6
CONTINUOUS
 62
     7
 10
-248.9960479736328
 20
-260.463623046875
 40
3.25
  0
CIRCLE
  8
0
  6
CONTINUOUS
 62
     7
 10
-248.9960479736328
 20
-260.463623046875
 40
3.349999904632568
  0
ARC
  8
0
  6
CONTINUOUS
 62
     7
 10
-248.9960479736328
 20
-260.463623046875
 40
6.5
 50
22.62011325932138
 51
37.37990920238929
  0
ARC
  8
0
  6
CONTINUOUS
 62
     7
 10
-248.9960479736328
 20
-260.463623046875
 40
6.5
 50
142.6197137276017
 51
157.3798867406786
  0
ARC
  8
0
  6
CONTINUOUS
 62
     7
 10
-248.9960479736328
 20
-260.463623046875
 40
6.5
 50
82.6199345120411
 51
97.3800654879589
  0
ARC
  8
0
  6
CONTINUOUS
 62
     7
 10
-248.9960479736328
 20
-260.463623046875
 40
6.5
 50
322.620009141644
 51
337.3801350519603
  0
ARC
  8
0
  6
CONTINUOUS
 62
     7
 10
-248.9960479736328
 20
-260.463623046875
 40
6.5
 50
262.6198999581902
 51
277.3802334300601
  0
ARC
  8
0
  6
CONTINUOUS
 62
     7
 10
-248.9960479736328
 20
-260.463623046875
 40
6.5
 50
202.6198649480411
 51
217.3800725146295
  0
CIRCLE
  8
0
  6
CONTINUOUS
 62
     7
 10
-248.9960479736328
 20
-260.463623046875
 40
4.75
  0
CIRCLE
  8
0
  6
CONTINUOUS
 62
     7
 10
-248.9960479736328
 20
-260.463623046875
 40
5
  0
TEXT
  8
0
  6
CONTINUOUS
 62
     7
 10
60.83098113536835
 20
-298.3179565668106
 40
3.200000047683716
 41
0.844953396922719
  1
スライタ゛取付ネジ
  0
TEXT
  8
0
  6
CONTINUOUS
 62
     7
 10
-73.7677356004715
 20
-343.0091797113419
 40
3.200000047683716
 41
0.8440876602097933
  1
ケ－フ゛ル長：３０００
  0
TEXT
  8
0
  6
CONTINUOUS
 62
     7
 10
-24.46938741207123
 20
-533.156005859375
 40
4
 41
0.8449533965099068
  1
スケ－ルクランフ゜
  0
TEXT
  8
0
  6
CONTINUOUS
 62
     7
 10
-276.5254958868027
 20
-531.1403198242188
 40
4
 41
0.8449533965099068
  1
スヘ゜－サ　ｔ＝５
  0
TEXT
  8
0
  6
CONTINUOUS
 62
     7
 10
66.45463073253632
 20
-181.9458099603653
 40
3.200000047683716
 41
0.8427371109376289
  1
２－Ｍ４　基準フ゜レ－ト取付ネシ゛
  0
TEXT
  8
0
  6
CONTINUOUS
 62
     7
 10
-155.9095290899277
 20
-532.1331176757813
 40
4
 41
0.8440876598743834
  1
基準フ゜レ－ト　ｔ＝５
  0
TEXT
  8
0
  6
CONTINUOUS
 62
     7
 10
64.0666378736496
 20
-167.7506958246231
 40
3.200000047683716
 41
0.8424798634572167
  1
Ｐ－Ｍ４　スケ－ルクランフ゜取付ネシ゛
  0
TEXT
  8
0
  6
CONTINUOUS
 62
     7
 10
67.34582793712616
 20
-291.4602295160294
 40
3.200000047683716
 41
1.01298710007172
  1
2-M5
  0
TEXT
  8
0
  6
CONTINUOUS
 62
     7
 10
-367.4100036621094
 20
-47.69302368164063
 40
10
 41
1.153308823529412
  1
BS65-260R
  0
TEXT
  8
0
  6
CONTINUOUS
 62
     7
 10
-367.4100036621094
 20
-62.69302368164063
 40
10
 41
1.153308823529412
  1
BS65-460R
  0
TEXT
  8
0
  6
CONTINUOUS
 62
     7
 10
-367.4100036621094
 20
-77.69302368164063
 40
10
 41
1.153308823529412
  1
BS65-660R
  0
TEXT
  8
0
  6
CONTINUOUS
 62
     7
 10
-367.4100036621094
 20
-92.69302368164063
 40
10
 41
1.153308823529412
  1
BS65-860R
  0
TEXT
  8
0
  6
CONTINUOUS
 62
     7
 10
0.8657954931259155
 20
-129.3952804803848
 40
3.200000047683716
 41
1.334855714264828
  1
L1
  0
TEXT
  8
0
  6
CONTINUOUS
 62
     7
 10
38.92170703411102
 20
-141.6823974847794
 40
3.200000047683716
 41
1.156874952362851
  1
L2
  0
TEXT
  8
0
  6
CONTINUOUS
 62
     7
 10
-36.16619122028351
 20
-142.0237060785294
 40
3.200000047683716
 41
1.156874952362851
  1
L2
  0
TEXT
  8
0
  6
CONTINUOUS
 62
     7
 10
-124.5848351716995
 20
-142.4319549798966
 40
3.200000047683716
 41
1.136383881622793
  1
NAxL3
  0
TEXT
  8
0
  6
CONTINUOUS
 62
     7
 10
-141.0456048250198
 20
-153.6695953607559
 40
3.200000047683716
 41
1.156874952362851
  1
L3
  0
TEXT
  8
0
  6
CONTINUOUS
 62
     7
 10
-96.72814571857452
 20
-153.8278747797012
 40
3.200000047683716
 41
1.156874952362851
  1
L3
  0
TEXT
  8
0
  6
CONTINUOUS
 62
     7
 10
115.7115210294724
 20
-142.5280700922012
 40
3.200000047683716
 41
1.136383881622793
  1
NAxL3
  0
TEXT
  8
0
  6
CONTINUOUS
 62
     7
 10
99.91982638835907
 20
-153.2128998041153
 40
3.200000047683716
 41
1.156874952362851
  1
L3
  0
TEXT
  8
0
  6
CONTINUOUS
 62
     7
 10
144.2000921964645
 20
-153.3858734369278
 40
3.200000047683716
 41
1.156874952362851
  1
L3
  0
TEXT
  8
0
  6
CONTINUOUS
 62
     7
 10
-192.7839710712433
 20
-476.8718506097794
 40
3.200000047683716
 41
0.8553423079139877
  1
基準穴
  0
TEXT
  8
0
  6
CONTINUOUS
 62
     7
 10
-40.88419461250305
 20
-474.2500244379044
 40
3.200000047683716
 41
0.8553423079139877
  1
基準穴
  0
TEXT
  8
0
  6
CONTINUOUS
 62
     7
 10
145.1432684659958
 20
-484.1816040277481
 40
3.200000047683716
 41
0.9549444383384816
  1
型　　　名
  0
TEXT
  8
0
  6
CONTINUOUS
 62
     7
 10
180.9448736906052
 20
-484.68108522892
 40
3.200000047683716
 41
0.9721638255150008
  1
Ｌ１
  0
TEXT
  8
0
  6
CONTINUOUS
 62
     7
 10
196.2624396085739
 20
-484.68108522892
 40
3.200000047683716
 41
0.9721638255150008
  1
Ｌ２
  0
TEXT
  8
0
  6
CONTINUOUS
 62
     7
 10
227.0794867277145
 20
-484.84758913517
 40
3.200000047683716
 41
1.156874952362851
  1
NA
  0
TEXT
  8
0
  6
CONTINUOUS
 62
     7
 10
242.0640600919724
 20
-484.84758913517
 40
3.200000047683716
 41
1
  1
M
  0
TEXT
  8
0
  6
CONTINUOUS
 62
     7
 10
257.0486181974411
 20
-484.51458132267
 40
3.200000047683716
 41
1
  1
N
  0
TEXT
  8
0
  6
CONTINUOUS
 62
     7
 10
138.1504553556442
 20
-492.0068603754044
 40
3.200000047683716
 41
1.153308775840219
  1
BS65-260R
  0
TEXT
  8
0
  6
CONTINUOUS
 62
     7
 10
138.1504553556442
 20
-500.0068603754044
 40
3.200000047683716
 41
1.153308775840219
  1
BS65-460R
  0
TEXT
  8
0
  6
CONTINUOUS
 62
     7
 10
138.1504553556442
 20
-508.0068603754044
 40
3.200000047683716
 41
1.153308775840219
  1
BS65-660R
  0
TEXT
  8
0
  6
CONTINUOUS
 62
     7
 10
211.2886999845505
 20
-484.5437256097794
 40
3.200000047683716
 41
0.9721638255150008
  1
Ｌ３
  0
TEXT
  8
0
  6
CONTINUOUS
 62
     7
 10
138.1504553556442
 20
-516.0068603754044
 40
3.200000047683716
 41
1.153308775840219
  1
BS65-860R
  0
TEXT
  8
0
  6
CONTINUOUS
 62
     7
 10
179.1736091375351
 20
-492.2502685785294
 40
3.200000047683716
 41
1.144921827764484
  1
296
  0
TEXT
  8
0
  6
CONTINUOUS
 62
     7
 10
179.1736091375351
 20
-500.2502685785294
 40
3.200000047683716
 41
1.144921827764484
  1
496
  0
TEXT
  8
0
  6
CONTINUOUS
 62
     7
 10
179.1736091375351
 20
-508.2502685785294
 40
3.200000047683716
 41
1.144921827764484
  1
696
  0
TEXT
  8
0
  6
CONTINUOUS
 62
     7
 10
179.1736091375351
 20
-516.2502685785294
 40
3.200000047683716
 41
1.144921827764484
  1
896
  0
TEXT
  8
0
  6
CONTINUOUS
 62
     7
 10
194.1736091375351
 20
-492.2502685785294
 40
3.200000047683716
 41
1.373906193317381
  1
120
  0
TEXT
  8
0
  6
CONTINUOUS
 62
     7
 10
194.1736091375351
 20
-500.2502685785294
 40
3.200000047683716
 41
1.373906193317381
  1
120
  0
TEXT
  8
0
  6
CONTINUOUS
 62
     7
 10
194.1736091375351
 20
-508.2502685785294
 40
3.200000047683716
 41
1.373906193317381
  1
120
  0
TEXT
  8
0
  6
CONTINUOUS
 62
     7
 10
194.1736091375351
 20
-516.2502685785294
 40
3.200000047683716
 41
1.373906193317381
  1
120
  0
TEXT
  8
0
  6
CONTINUOUS
 62
     7
 10
212.7736090421677
 20
-492.2502685785294
 40
3.200000047683716
 41
1
  1
-
  0
TEXT
  8
0
  6
CONTINUOUS
 62
     7
 10
210.9736090898514
 20
-500.2502685785294
 40
3.200000047683716
 41
1.156874952362851
  1
75
  0
TEXT
  8
0
  6
CONTINUOUS
 62
     7
 10
210.9736090898514
 20
-508.2502685785294
 40
3.200000047683716
 41
1.156874952362851
  1
75
  0
TEXT
  8
0
  6
CONTINUOUS
 62
     7
 10
210.9736090898514
 20
-516.2502685785294
 40
3.200000047683716
 41
1.156874952362851
  1
75
  0
TEXT
  8
0
  6
CONTINUOUS
 62
     7
 10
227.7736090421677
 20
-492.2502685785294
 40
3.200000047683716
 41
1
  1
-
  0
TEXT
  8
0
  6
CONTINUOUS
 62
     7
 10
227.7736090421677
 20
-500.2502685785294
 40
3.200000047683716
 41
0.6666666666666666
  1
1
  0
TEXT
  8
0
  6
CONTINUOUS
 62
     7
 10
227.7736090421677
 20
-508.2502685785294
 40
3.200000047683716
 41
1
  1
2
  0
TEXT
  8
0
  6
CONTINUOUS
 62
     7
 10
227.7736090421677
 20
-516.2502685785294
 40
3.200000047683716
 41
1
  1
3
  0
TEXT
  8
0
  6
CONTINUOUS
 62
     7
 10
244.3735998868942
 20
-492.2502685785294
 40
3.200000047683716
 41
1
  1
4
  0
TEXT
  8
0
  6
CONTINUOUS
 62
     7
 10
244.3735998868942
 20
-500.2502685785294
 40
3.200000047683716
 41
1
  1
6
  0
TEXT
  8
0
  6
CONTINUOUS
 62
     7
 10
244.3735998868942
 20
-508.2502685785294
 40
3.200000047683716
 41
1
  1
8
  0
TEXT
  8
0
  6
CONTINUOUS
 62
     7
 10
240.9736090898514
 20
-516.2502685785294
 40
3.200000047683716
 41
1.577556753222069
  1
10
  0
TEXT
  8
0
  6
CONTINUOUS
 62
     7
 10
257.7735937833786
 20
-492.2502685785294
 40
3.200000047683716
 41
1
  1
2
  0
TEXT
  8
0
  6
CONTINUOUS
 62
     7
 10
257.7735937833786
 20
-500.2502685785294
 40
3.200000047683716
 41
1
  1
4
  0
TEXT
  8
0
  6
CONTINUOUS
 62
     7
 10
257.7735937833786
 20
-508.2502685785294
 40
3.200000047683716
 41
1
  1
6
  0
TEXT
  8
0
  6
CONTINUOUS
 62
     7
 10
257.7735937833786
 20
-516.2502685785294
 40
3.200000047683716
 41
1
  1
8
  0
TEXT
  8
0
  6
CONTINUOUS
 62
     7
 10
272.7735937833786
 20
-484.2502685785294
 40
3.200000047683716
 41
1
  1
P
  0
TEXT
  8
0
  6
CONTINUOUS
 62
     7
 10
285.9735938310623
 20
-484.2502685785294
 40
3.200000047683716
 41
1.156874952362851
  1
LN
  0
TEXT
  8
0
  6
CONTINUOUS
 62
     7
 10
300.9735938310623
 20
-484.2502685785294
 40
3.200000047683716
 41
1.156874952362851
  1
RN
  0
TEXT
  8
0
  6
CONTINUOUS
 62
     7
 10
274.3735998868942
 20
-492.2502685785294
 40
3.200000047683716
 41
1
  1
8
  0
TEXT
  8
0
  6
CONTINUOUS
 62
     7
 10
270.9735938310623
 20
-500.2502685785294
 40
3.200000047683716
 41
1.446093690453564
  1
12
  0
TEXT
  8
0
  6
CONTINUOUS
 62
     7
 10
270.9735938310623
 20
-508.2502685785294
 40
3.200000047683716
 41
1.446093690453564
  1
16
  0
TEXT
  8
0
  6
CONTINUOUS
 62
     7
 10
270.9735938310623
 20
-516.2502685785294
 40
3.200000047683716
 41
1.239508877531626
  1
20
  0
TEXT
  8
0
  6
CONTINUOUS
 62
     7
 10
287.7735937833786
 20
-492.2502685785294
 40
3.200000047683716
 41
1
  1
2
  0
TEXT
  8
0
  6
CONTINUOUS
 62
     7
 10
287.7735937833786
 20
-500.2502685785294
 40
3.200000047683716
 41
1
  1
4
  0
TEXT
  8
0
  6
CONTINUOUS
 62
     7
 10
287.7735937833786
 20
-508.2502685785294
 40
3.200000047683716
 41
1
  1
6
  0
TEXT
  8
0
  6
CONTINUOUS
 62
     7
 10
287.7735937833786
 20
-516.2502685785294
 40
3.200000047683716
 41
1
  1
8
  0
TEXT
  8
0
  6
CONTINUOUS
 62
     7
 10
302.7735937833786
 20
-492.2502685785294
 40
3.200000047683716
 41
1
  1
2
  0
TEXT
  8
0
  6
CONTINUOUS
 62
     7
 10
302.7735937833786
 20
-500.2502685785294
 40
3.200000047683716
 41
1
  1
4
  0
TEXT
  8
0
  6
CONTINUOUS
 62
     7
 10
302.7735937833786
 20
-508.2502685785294
 40
3.200000047683716
 41
1
  1
6
  0
TEXT
  8
0
  6
CONTINUOUS
 62
     7
 10
302.7735937833786
 20
-516.2502685785294
 40
3.200000047683716
 41
1
  1
8
  0
TEXT
  8
0
  6
CONTINUOUS
 62
     7
 10
-84.18061554431915
 20
236.2030242681503
 40
3.200000047683716
 41
0.8440876602097933
  1
ケ－フ゛ル長：３０００
  0
TEXT
  8
0
  6
CONTINUOUS
 62
     7
 10
53.12507522106171
 20
411.3082336187363
 40
3.200000047683716
 41
0.8424798634572167
  1
Ｐ－Ｍ４　スケ－ルクランフ゜取付ネシ゛
  0
TEXT
  8
0
  6
CONTINUOUS
 62
     7
 10
52.96275985240936
 20
397.8360961675644
 40
3.200000047683716
 41
0.8427371109376289
  1
２－Ｍ４　基準フ゜レ－ト取付ネシ゛
  0
TEXT
  8
0
  6
CONTINUOUS
 62
     7
 10
-172.071470618248
 20
70.44699859619141
 40
4
 41
0.8440876598743834
  1
基準フ゜レ－ト　ｔ＝５
  0
TEXT
  8
0
  6
CONTINUOUS
 62
     7
 10
55.52387511730194
 20
291.3341430425644
 40
3.200000047683716
 41
1.01298710007172
  1
2-M5
  0
TEXT
  8
0
  6
CONTINUOUS
 62
     7
 10
47.65713393688202
 20
285.4895080327988
 40
3.200000047683716
 41
0.844953396922719
  1
スライタ゛取付ネジ
  0
TEXT
  8
0
  6
CONTINUOUS
 62
     7
 10
-367.4100036621094
 20
552.3069458007813
 40
10
 41
1.200382653061225
  1
BS65-160R
  0
TEXT
  8
0
  6
CONTINUOUS
 62
     7
 10
-367.4100036621094
 20
537.3069458007813
 40
10
 41
1.153308823529412
  1
BS65-360R
  0
TEXT
  8
0
  6
CONTINUOUS
 62
     7
 10
-367.4100036621094
 20
522.3069458007813
 40
10
 41
1.153308823529412
  1
BS65-560R
  0
TEXT
  8
0
  6
CONTINUOUS
 62
     7
 10
-367.4100036621094
 20
507.3069458007813
 40
10
 41
1.153308823529412
  1
BS65-760R
  0
TEXT
  8
0
  6
CONTINUOUS
 62
     7
 10
-367.4100036621094
 20
492.3069763183594
 40
10
 41
1.153308823529412
  1
BS65-960R
  0
TEXT
  8
0
  6
CONTINUOUS
 62
     7
 10
227.7736090421677
 20
127.7497314214706
 40
3.200000047683716
 41
1
  1
-
  0
TEXT
  8
0
  6
CONTINUOUS
 62
     7
 10
145.1432684659958
 20
135.8183959722519
 40
3.200000047683716
 41
0.9549444383384816
  1
型　　　名
  0
TEXT
  8
0
  6
CONTINUOUS
 62
     7
 10
180.9448736906052
 20
135.31891477108
 40
3.200000047683716
 41
0.9721638255150008
  1
Ｌ１
  0
TEXT
  8
0
  6
CONTINUOUS
 62
     7
 10
196.2624396085739
 20
135.31891477108
 40
3.200000047683716
 41
0.9721638255150008
  1
Ｌ２
  0
TEXT
  8
0
  6
CONTINUOUS
 62
     7
 10
227.0794867277145
 20
135.1524261236191
 40
3.200000047683716
 41
1.156874952362851
  1
NA
  0
TEXT
  8
0
  6
CONTINUOUS
 62
     7
 10
242.0640600919724
 20
135.1524261236191
 40
3.200000047683716
 41
1
  1
M
  0
TEXT
  8
0
  6
CONTINUOUS
 62
     7
 10
257.0486181974411
 20
135.48541867733
 40
3.200000047683716
 41
1
  1
N
  0
TEXT
  8
0
  6
CONTINUOUS
 62
     7
 10
138.1504553556442
 20
127.9931243658066
 40
3.200000047683716
 41
1.200382603425533
  1
BS65-160R
  0
TEXT
  8
0
  6
CONTINUOUS
 62
     7
 10
138.1504553556442
 20
119.9931243658066
 40
3.200000047683716
 41
1.153308775840219
  1
BS65-360R
  0
TEXT
  8
0
  6
CONTINUOUS
 62
     7
 10
210.9736090898514
 20
103.7497314214706
 40
3.200000047683716
 41
1.156874952362851
  1
75
  0
TEXT
  8
0
  6
CONTINUOUS
 62
     7
 10
138.1504553556442
 20
111.9931243658066
 40
3.200000047683716
 41
1.153308775840219
  1
BS65-560R
  0
TEXT
  8
0
  6
CONTINUOUS
 62
     7
 10
210.9736090898514
 20
111.7497314214706
 40
3.200000047683716
 41
1.156874952362851
  1
75
  0
TEXT
  8
0
  6
CONTINUOUS
 62
     7
 10
210.9736090898514
 20
119.7497314214706
 40
3.200000047683716
 41
1.156874952362851
  1
75
  0
TEXT
  8
0
  6
CONTINUOUS
 62
     7
 10
212.7736090421677
 20
127.7497314214706
 40
3.200000047683716
 41
1
  1
-
  0
TEXT
  8
0
  6
CONTINUOUS
 62
     7
 10
211.2886999845505
 20
135.4562743902206
 40
3.200000047683716
 41
0.9721638255150008
  1
Ｌ３
  0
TEXT
  8
0
  6
CONTINUOUS
 62
     7
 10
138.1504553556442
 20
103.9931243658066
 40
3.200000047683716
 41
1.153308775840219
  1
BS65-760R
  0
TEXT
  8
0
  6
CONTINUOUS
 62
     7
 10
227.7736090421677
 20
111.7497314214706
 40
3.200000047683716
 41
1
  1
2
  0
TEXT
  8
0
  6
CONTINUOUS
 62
     7
 10
227.7736090421677
 20
103.7497314214706
 40
3.200000047683716
 41
1
  1
3
  0
TEXT
  8
0
  6
CONTINUOUS
 62
     7
 10
195.9736090898514
 20
127.7497314214706
 40
3.200000047683716
 41
1.156874952362851
  1
75
  0
TEXT
  8
0
  6
CONTINUOUS
 62
     7
 10
179.1736091375351
 20
103.7497314214706
 40
3.200000047683716
 41
1.144921827764484
  1
796
  0
TEXT
  8
0
  6
CONTINUOUS
 62
     7
 10
179.1736091375351
 20
111.7497314214706
 40
3.200000047683716
 41
1.144921827764484
  1
596
  0
TEXT
  8
0
  6
CONTINUOUS
 62
     7
 10
179.1736091375351
 20
119.7497314214706
 40
3.200000047683716
 41
1.144921827764484
  1
396
  0
TEXT
  8
0
  6
CONTINUOUS
 62
     7
 10
179.1736091375351
 20
127.7497314214706
 40
3.200000047683716
 41
1.308482088873696
  1
196
  0
TEXT
  8
0
  6
CONTINUOUS
 62
     7
 10
227.7736090421677
 20
119.7497314214706
 40
3.200000047683716
 41
0.6666666666666666
  1
1
  0
TEXT
  8
0
  6
CONTINUOUS
 62
     7
 10
244.3735998868942
 20
127.7497314214706
 40
3.200000047683716
 41
1
  1
3
  0
TEXT
  8
0
  6
CONTINUOUS
 62
     7
 10
244.3735998868942
 20
119.7497314214706
 40
3.200000047683716
 41
1
  1
5
  0
TEXT
  8
0
  6
CONTINUOUS
 62
     7
 10
244.3735998868942
 20
111.7497314214706
 40
3.200000047683716
 41
1
  1
7
  0
TEXT
  8
0
  6
CONTINUOUS
 62
     7
 10
244.3735998868942
 20
103.7497314214706
 40
3.200000047683716
 41
1
  1
9
  0
TEXT
  8
0
  6
CONTINUOUS
 62
     7
 10
259.3735998868942
 20
127.7497314214706
 40
3.200000047683716
 41
1
  1
2
  0
TEXT
  8
0
  6
CONTINUOUS
 62
     7
 10
259.3735998868942
 20
119.7497314214706
 40
3.200000047683716
 41
1
  1
4
  0
TEXT
  8
0
  6
CONTINUOUS
 62
     7
 10
259.3735998868942
 20
111.7497314214706
 40
3.200000047683716
 41
1
  1
6
  0
TEXT
  8
0
  6
CONTINUOUS
 62
     7
 10
259.3735998868942
 20
103.7497314214706
 40
3.200000047683716
 41
1
  1
8
  0
TEXT
  8
0
  6
CONTINUOUS
 62
     7
 10
272.7735937833786
 20
135.7497314214706
 40
3.200000047683716
 41
1
  1
P
  0
TEXT
  8
0
  6
CONTINUOUS
 62
     7
 10
285.9735938310623
 20
135.7497314214706
 40
3.200000047683716
 41
1.156874952362851
  1
LN
  0
TEXT
  8
0
  6
CONTINUOUS
 62
     7
 10
300.9735938310623
 20
135.7497314214706
 40
3.200000047683716
 41
1.156874952362851
  1
RN
  0
TEXT
  8
0
  6
CONTINUOUS
 62
     7
 10
274.3735998868942
 20
127.7497314214706
 40
3.200000047683716
 41
1
  1
6
  0
TEXT
  8
0
  6
CONTINUOUS
 62
     7
 10
270.9735938310623
 20
119.7497314214706
 40
3.200000047683716
 41
1.577556753222069
  1
10
  0
TEXT
  8
0
  6
CONTINUOUS
 62
     7
 10
270.9735938310623
 20
111.7497314214706
 40
3.200000047683716
 41
1.446093690453564
  1
14
  0
TEXT
  8
0
  6
CONTINUOUS
 62
     7
 10
270.9735938310623
 20
103.7497314214706
 40
3.200000047683716
 41
1.446093690453564
  1
18
  0
TEXT
  8
0
  6
CONTINUOUS
 62
     7
 10
287.7735937833786
 20
127.7497314214706
 40
3.200000047683716
 41
0.6666666666666666
  1
1
  0
TEXT
  8
0
  6
CONTINUOUS
 62
     7
 10
287.7735937833786
 20
119.7497314214706
 40
3.200000047683716
 41
1
  1
3
  0
TEXT
  8
0
  6
CONTINUOUS
 62
     7
 10
287.7735937833786
 20
111.7497314214706
 40
3.200000047683716
 41
1
  1
5
  0
TEXT
  8
0
  6
CONTINUOUS
 62
     7
 10
287.7735937833786
 20
103.7497314214706
 40
3.200000047683716
 41
1
  1
7
  0
TEXT
  8
0
  6
CONTINUOUS
 62
     7
 10
302.7735937833786
 20
127.7497314214706
 40
3.200000047683716
 41
0.6666666666666666
  1
1
  0
TEXT
  8
0
  6
CONTINUOUS
 62
     7
 10
302.7735937833786
 20
119.7497314214706
 40
3.200000047683716
 41
1
  1
3
  0
TEXT
  8
0
  6
CONTINUOUS
 62
     7
 10
302.7735937833786
 20
111.7497314214706
 40
3.200000047683716
 41
1
  1
5
  0
TEXT
  8
0
  6
CONTINUOUS
 62
     7
 10
302.7735937833786
 20
103.7497314214706
 40
3.200000047683716
 41
1
  1
7
  0
TEXT
  8
0
  6
CONTINUOUS
 62
     7
 10
138.1504553556442
 20
95.99312436580658
 40
3.200000047683716
 41
1.153308775840219
  1
BS65-960R
  0
TEXT
  8
0
  6
CONTINUOUS
 62
     7
 10
179.1736091375351
 20
95.74973142147064
 40
3.200000047683716
 41
1.144921827764484
  1
996
  0
TEXT
  8
0
  6
CONTINUOUS
 62
     7
 10
195.9736090898514
 20
119.7497314214706
 40
3.200000047683716
 41
1.156874952362851
  1
75
  0
TEXT
  8
0
  6
CONTINUOUS
 62
     7
 10
195.9736090898514
 20
111.7497314214706
 40
3.200000047683716
 41
1.156874952362851
  1
75
  0
TEXT
  8
0
  6
CONTINUOUS
 62
     7
 10
195.9736090898514
 20
103.7497314214706
 40
3.200000047683716
 41
1.156874952362851
  1
75
  0
TEXT
  8
0
  6
CONTINUOUS
 62
     7
 10
195.9736090898514
 20
95.74973142147064
 40
3.200000047683716
 41
1.156874952362851
  1
75
  0
TEXT
  8
0
  6
CONTINUOUS
 62
     7
 10
210.9736090898514
 20
95.74973142147064
 40
3.200000047683716
 41
1.156874952362851
  1
75
  0
TEXT
  8
0
  6
CONTINUOUS
 62
     7
 10
227.7736090421677
 20
95.74973142147064
 40
3.200000047683716
 41
1
  1
4
  0
TEXT
  8
0
  6
CONTINUOUS
 62
     7
 10
240.9736090898514
 20
95.74973142147064
 40
3.200000047683716
 41
1.735312428544277
  1
11
  0
TEXT
  8
0
  6
CONTINUOUS
 62
     7
 10
255.9735938310623
 20
95.74973142147064
 40
3.200000047683716
 41
1.577556753222069
  1
10
  0
TEXT
  8
0
  6
CONTINUOUS
 62
     7
 10
270.9735938310623
 20
103.7497314214706
 40
3.200000047683716
 41
1.446093690453564
  1
18
  0
TEXT
  8
0
  6
CONTINUOUS
 62
     7
 10
270.9735938310623
 20
103.7497314214706
 40
3.200000047683716
 41
1.446093690453564
  1
18
  0
TEXT
  8
0
  6
CONTINUOUS
 62
     7
 10
270.9735938310623
 20
95.74973142147064
 40
3.200000047683716
 41
1.156874952362851
  1
22
  0
TEXT
  8
0
  6
CONTINUOUS
 62
     7
 10
287.7735937833786
 20
95.74973142147064
 40
3.200000047683716
 41
1
  1
9
  0
TEXT
  8
0
  6
CONTINUOUS
 62
     7
 10
302.7735937833786
 20
95.74973142147064
 40
3.200000047683716
 41
1
  1
7
  0
TEXT
  8
0
  6
CONTINUOUS
 62
     7
 10
-10.54803478717804
 20
451.0004333257675
 40
3.200000047683716
 41
1.334855714264828
  1
L1
  0
TEXT
  8
0
  6
CONTINUOUS
 62
     7
 10
-50.11594784259796
 20
438.5869506597519
 40
3.200000047683716
 41
1.156874952362851
  1
L2
  0
TEXT
  8
0
  6
CONTINUOUS
 62
     7
 10
27.4681967496872
 20
438.5869506597519
 40
3.200000047683716
 41
1.156874952362851
  1
L2
  0
TEXT
  8
0
  6
CONTINUOUS
 62
     7
 10
-135.8986474275589
 20
437.1870177984238
 40
3.200000047683716
 41
1.136383881622793
  1
NAxL3
  0
TEXT
  8
0
  6
CONTINUOUS
 62
     7
 10
-153.378887295723
 20
425.9783080816269
 40
3.200000047683716
 41
1.156874952362851
  1
L3
  0
TEXT
  8
0
  6
CONTINUOUS
 62
     7
 10
-108.0103265047073
 20
425.9783080816269
 40
3.200000047683716
 41
1.156874952362851
  1
L3
  0
TEXT
  8
0
  6
CONTINUOUS
 62
     7
 10
86.63792788982391
 20
426.3422912359238
 40
3.200000047683716
 41
1.156874952362851
  1
L3
  0
TEXT
  8
0
  6
CONTINUOUS
 62
     7
 10
132.1165655851364
 20
426.220037817955
 40
3.200000047683716
 41
1.156874952362851
  1
L3
  0
TEXT
  8
0
  6
CONTINUOUS
 62
     7
 10
103.8757971525192
 20
437.2229369878769
 40
3.200000047683716
 41
1.136383881622793
  1
NAxL3
  0
TEXT
  8
0
  6
CONTINUOUS
 62
     7
 10
60.61359775066376
 20
299.7497009038925
 40
3.200000047683716
 41
1.164100561662373
  1
RNx50
  0
TEXT
  8
0
  6
CONTINUOUS
 62
     7
 10
-90.90613186359406
 20
300.05768430233
 40
3.200000047683716
 41
1.164100561662373
  1
LNx50
  0
TEXT
  8
0
  6
CONTINUOUS
 62
     7
 10
-276.5254958868027
 20
70.39173889160156
 40
4
 41
0.8449533965099068
  1
スヘ゜－サ　ｔ＝５
  0
TEXT
  8
0
  6
CONTINUOUS
 62
     7
 10
-44.4693855047226
 20
68.37606048583984
 40
4
 41
0.8449533965099068
  1
スケ－ルクランフ゜
  0
TEXT
  8
0
  6
CONTINUOUS
 62
     7
 10
-60.88419461250305
 20
127.2820190191269
 40
3.200000047683716
 41
0.8553423079139877
  1
基準穴
  0
TEXT
  8
0
  6
CONTINUOUS
 62
     7
 10
-192.1875048875809
 20
124.8802932500839
 40
3.200000047683716
 41
0.8553422374778277
  1
基準穴
  0
TEXT
  8
0
  6
CONTINUOUS
 62
     7
 10
72.23524844646454
 20
-279.5042968988419
 40
3.200000047683716
 41
1.164100561662373
  1
RNx50
  0
TEXT
  8
0
  6
CONTINUOUS
 62
     7
 10
-79.91517269611359
 20
-279.907891869545
 40
3.200000047683716
 41
1.164100561662373
  1
LNx50
  0
INSERT
  8
0
  6
CONTINUOUS
 62
     7
  2
KOZU0001
 10
104.1897659301758
 20
-242.9637756347656
 50
60.00000166965211
  0
INSERT
  8
0
  6
CONTINUOUS
 62
     7
  2
KOZU0002
 10
54.18976593017578
 20
-242.9637756347656
 50
60.00000166965211
  0
INSERT
  8
0
  6
CONTINUOUS
 62
     7
  2
KOZU0003
 10
-45.81023406982422
 20
-242.9637756347656
 50
60.00000166965211
  0
INSERT
  8
0
  6
CONTINUOUS
 62
     7
  2
KOZU0004
 10
-95.81023406982422
 20
-242.9637756347656
 50
60.00000166965211
  0
INSERT
  8
0
  6
CONTINUOUS
 62
     7
  2
KOZU0005
 10
-145.8102416992188
 20
-242.9637756347656
 50
60.00000166965211
  0
INSERT
  8
0
  6
CONTINUOUS
 62
     7
  2
KOZU0006
 10
154.1897583007813
 20
-242.9637756347656
 50
60.00000166965211
  0
INSERT
  8
0
  6
CONTINUOUS
 62
     7
  2
KOZU0007
 10
92.49239349365234
 20
336.8680114746094
 50
60.00000166965211
  0
INSERT
  8
0
  6
CONTINUOUS
 62
     7
  2
KOZU0008
 10
42.49239349365234
 20
336.8680114746094
 50
60.00000166965211
  0
INSERT
  8
0
  6
CONTINUOUS
 62
     7
  2
KOZU0009
 10
-57.50760650634766
 20
336.8680114746094
 50
60.00000166965211
  0
INSERT
  8
0
  6
CONTINUOUS
 62
     7
  2
KOZU0010
 10
-107.5076065063477
 20
336.8680114746094
 50
60.00000166965211
  0
INSERT
  8
0
  6
CONTINUOUS
 62
     7
  2
KOZU0011
 10
-157.5076141357422
 20
336.8680114746094
 50
60.00000166965211
  0
INSERT
  8
0
  6
CONTINUOUS
 62
     7
  2
KOZU0012
 10
142.4923858642578
 20
336.8680114746094
 50
60.00000166965211
  0
INSERT
  8
0
  6
CONTINUOUS
 62
     7
  2
KOZU0013
 10
-30.81023406982422
 20
-309.5400695800781
  0
INSERT
  8
0
  6
CONTINUOUS
 62
     7
  2
KOZU0014
 10
-26.40740013122559
 20
-344.6725158691406
  0
INSERT
  8
0
  6
CONTINUOUS
 62
     7
  2
KOZU0015
 10
-246.378662109375
 20
-482.4797668457031
  0
INSERT
  8
0
  6
CONTINUOUS
 62
     7
  2
KOZU0016
 10
51.01850891113281
 20
-208.1354522705078
  0
INSERT
  8
0
  6
CONTINUOUS
 62
     7
  2
KOZU0017
 10
38.68968963623047
 20
-207.4996795654297
  0
INSERT
  8
0
  6
CONTINUOUS
 62
     7
  2
KOZU0018
 10
35.82253265380859
 20
-258.2778015136719
  0
INSERT
  8
0
  6
CONTINUOUS
 62
     7
  2
KOZU0019
 10
156.2676239013672
 20
-239.7988128662109
  0
INSERT
  8
0
  6
CONTINUOUS
 62
     7
  2
KOZU0020
 10
-176.3045654296875
 20
-205.7253875732422
  0
INSERT
  8
0
  6
CONTINUOUS
 62
     7
  2
KOZU0021
 10
-163.9633331298828
 20
-205.7253875732422
  0
INSERT
  8
0
  6
CONTINUOUS
 62
     7
  2
KOZU0022
 10
-183.8102569580078
 20
-131.1914672851563
  0
INSERT
  8
0
  6
CONTINUOUS
 62
     7
  2
KOZU0023
 10
192.1897430419922
 20
-131.1914672851563
  0
INSERT
  8
0
  6
CONTINUOUS
 62
     7
  2
KOZU0024
 10
79.18977355957031
 20
-143.3808135986328
  0
INSERT
  8
0
  6
CONTINUOUS
 62
     7
  2
KOZU0025
 10
4.189764499664307
 20
-143.3808135986328
  0
INSERT
  8
0
  6
CONTINUOUS
 62
     7
  2
KOZU0026
 10
4.189764499664307
 20
-143.3808135986328
  0
INSERT
  8
0
  6
CONTINUOUS
 62
     7
  2
KOZU0027
 10
-70.81021881103516
 20
-143.3808135986328
  0
INSERT
  8
0
  6
CONTINUOUS
 62
     7
  2
KOZU0028
 10
-160.8102416992188
 20
-143.3808135986328
  0
INSERT
  8
0
  6
CONTINUOUS
 62
     7
  2
KOZU0029
 10
-70.81021881103516
 20
-143.3808135986328
  0
INSERT
  8
0
  6
CONTINUOUS
 62
     7
  2
KOZU0030
 10
-160.8102416992188
 20
-154.6049346923828
  0
INSERT
  8
0
  6
CONTINUOUS
 62
     7
  2
KOZU0031
 10
-115.8102340698242
 20
-154.6049346923828
  0
INSERT
  8
0
  6
CONTINUOUS
 62
     7
  2
KOZU0032
 10
-115.8102340698242
 20
-154.6049346923828
  0
INSERT
  8
0
  6
CONTINUOUS
 62
     7
  2
KOZU0033
 10
-70.81021881103516
 20
-154.6049346923828
  0
INSERT
  8
0
  6
CONTINUOUS
 62
     7
  2
KOZU0034
 10
79.18977355957031
 20
-154.6049346923828
  0
INSERT
  8
0
  6
CONTINUOUS
 62
     7
  2
KOZU0035
 10
124.1897735595703
 20
-154.6049346923828
  0
INSERT
  8
0
  6
CONTINUOUS
 62
     7
  2
KOZU0036
 10
124.1897735595703
 20
-154.6049346923828
  0
INSERT
  8
0
  6
CONTINUOUS
 62
     7
  2
KOZU0037
 10
169.1897735595703
 20
-154.6049346923828
  0
INSERT
  8
0
  6
CONTINUOUS
 62
     7
  2
KOZU0038
 10
79.18977355957031
 20
-143.3808135986328
  0
INSERT
  8
0
  6
CONTINUOUS
 62
     7
  2
KOZU0039
 10
169.1897735595703
 20
-143.3808135986328
  0
INSERT
  8
0
  6
CONTINUOUS
 62
     7
  2
KOZU0040
 10
-20.05990982055664
 20
-482.5620727539063
  0
INSERT
  8
0
  6
CONTINUOUS
 62
     7
  2
KOZU0041
 10
-85.56604766845703
 20
-482.1292419433594
  0
INSERT
  8
0
  6
CONTINUOUS
 62
     7
  2
KOZU0042
 10
-175.8159027099609
 20
-482.5623168945313
  0
INSERT
  8
0
  6
CONTINUOUS
 62
     7
  2
KOZU0043
 10
24.1251392364502
 20
321.5539855957031
  0
INSERT
  8
0
  6
CONTINUOUS
 62
     7
  2
KOZU0044
 10
-42.50760650634766
 20
270.2917175292969
  0
INSERT
  8
0
  6
CONTINUOUS
 62
     7
  2
KOZU0045
 10
-38.10477066040039
 20
235.1592712402344
  0
INSERT
  8
0
  6
CONTINUOUS
 62
     7
  2
KOZU0046
 10
7.594060897827148
 20
371.209228515625
  0
INSERT
  8
0
  6
CONTINUOUS
 62
     7
  2
KOZU0047
 10
20.39671516418457
 20
372.1076049804688
  0
INSERT
  8
0
  6
CONTINUOUS
 62
     7
  2
KOZU0048
 10
24.12516021728516
 20
321.5539855957031
  0
INSERT
  8
0
  6
CONTINUOUS
 62
     7
  2
KOZU0049
 10
144.7883758544922
 20
340.0106201171875
  0
INSERT
  8
0
  6
CONTINUOUS
 62
     7
  2
KOZU0050
 10
-188.0019378662109
 20
374.1064147949219
  0
INSERT
  8
0
  6
CONTINUOUS
 62
     7
  2
KOZU0051
 10
-175.6607055664063
 20
374.1064147949219
  0
INSERT
  8
0
  6
CONTINUOUS
 62
     7
  2
KOZU0052
 10
-266.7318420410156
 20
373.8682250976563
  0
INSERT
  8
0
  6
CONTINUOUS
 62
     7
  2
KOZU0053
 10
-195.5076293945313
 20
448.6403198242188
  0
INSERT
  8
0
  6
CONTINUOUS
 62
     7
  2
KOZU0054
 10
180.4923706054688
 20
448.6403198242188
  0
INSERT
  8
0
  6
CONTINUOUS
 62
     7
  2
KOZU0055
 10
-82.50759124755859
 20
436.4509887695313
  0
INSERT
  8
0
  6
CONTINUOUS
 62
     7
  2
KOZU0056
 10
-7.507607936859131
 20
436.4509887695313
  0
INSERT
  8
0
  6
CONTINUOUS
 62
     7
  2
KOZU0057
 10
-7.507607936859131
 20
436.4509887695313
  0
INSERT
  8
0
  6
CONTINUOUS
 62
     7
  2
KOZU0058
 10
67.49240112304688
 20
436.4509887695313
  0
INSERT
  8
0
  6
CONTINUOUS
 62
     7
  2
KOZU0059
 10
-172.5076141357422
 20
436.4509887695313
  0
INSERT
  8
0
  6
CONTINUOUS
 62
     7
  2
KOZU0060
 10
-82.50759124755859
 20
436.4509887695313
  0
INSERT
  8
0
  6
CONTINUOUS
 62
     7
  2
KOZU0061
 10
-172.5076141357422
 20
425.2268676757813
  0
INSERT
  8
0
  6
CONTINUOUS
 62
     7
  2
KOZU0062
 10
-127.5076065063477
 20
425.2268676757813
  0
INSERT
  8
0
  6
CONTINUOUS
 62
     7
  2
KOZU0063
 10
-127.5076065063477
 20
425.2268676757813
  0
INSERT
  8
0
  6
CONTINUOUS
 62
     7
  2
KOZU0064
 10
-82.50759124755859
 20
425.2268676757813
  0
INSERT
  8
0
  6
CONTINUOUS
 62
     7
  2
KOZU0065
 10
67.49240112304688
 20
436.4509887695313
  0
INSERT
  8
0
  6
CONTINUOUS
 62
     7
  2
KOZU0066
 10
157.4924011230469
 20
436.4509887695313
  0
INSERT
  8
0
  6
CONTINUOUS
 62
     7
  2
KOZU0067
 10
67.49240112304688
 20
425.2268676757813
  0
INSERT
  8
0
  6
CONTINUOUS
 62
     7
  2
KOZU0068
 10
112.4924011230469
 20
425.2268676757813
  0
INSERT
  8
0
  6
CONTINUOUS
 62
     7
  2
KOZU0069
 10
112.4924011230469
 20
425.2268676757813
  0
INSERT
  8
0
  6
CONTINUOUS
 62
     7
  2
KOZU0070
 10
157.4924011230469
 20
425.2268676757813
  0
INSERT
  8
0
  6
CONTINUOUS
 62
     7
  2
KOZU0071
 10
-7.507607936859131
 20
298.2433471679688
  0
INSERT
  8
0
  6
CONTINUOUS
 62
     7
  2
KOZU0072
 10
142.4923858642578
 20
298.2433471679688
  0
INSERT
  8
0
  6
CONTINUOUS
 62
     7
  2
KOZU0073
 10
-157.5076141357422
 20
298.2433471679688
  0
INSERT
  8
0
  6
CONTINUOUS
 62
     7
  2
KOZU0074
 10
-7.507607936859131
 20
298.2433471679688
  0
INSERT
  8
0
  6
CONTINUOUS
 62
     7
  2
KOZU0075
 10
-246.378662109375
 20
119.0522766113281
  0
INSERT
  8
0
  6
CONTINUOUS
 62
     7
  2
KOZU0076
 10
-40.05990982055664
 20
118.9699859619141
  0
INSERT
  8
0
  6
CONTINUOUS
 62
     7
  2
KOZU0077
 10
-123.5659255981445
 20
119.4028625488281
  0
INSERT
  8
0
  6
CONTINUOUS
 62
     7
  2
KOZU0078
 10
-175.8159484863281
 20
118.9697036743164
  0
INSERT
  8
0
  6
CONTINUOUS
 62
     7
  2
KOZU0079
 10
-274.7575988769531
 20
393.3267517089844
  0
INSERT
  8
0
  6
CONTINUOUS
 62
     7
  2
KOZU0080
 10
4.189764499664307
 20
-281.5884399414063
  0
INSERT
  8
0
  6
CONTINUOUS
 62
     7
  2
KOZU0081
 10
154.1897583007813
 20
-281.5884399414063
  0
INSERT
  8
0
  6
CONTINUOUS
 62
     7
  2
KOZU0082
 10
-145.8102416992188
 20
-281.5884399414063
  0
INSERT
  8
0
  6
CONTINUOUS
 62
     7
  2
KOZU0083
 10
4.189764499664307
 20
-281.5884399414063
  0
INSERT
  8
0
  6
CONTINUOUS
 62
     7
  2
KOZU0084
 10
284.17822265625
 20
342.8682250976563
  0
INSERT
  8
0
  6
CONTINUOUS
 62
     7
  2
KOZU0085
 10
295.8755798339844
 20
-236.9635772705078
  0
INSERT
  8
0
  6
CONTINUOUS
 62
     7
  2
KOZU0086
 10
-255.0344543457031
 20
-205.9635772705078
  0
INSERT
  8
0
  6
CONTINUOUS
 62
     7
  2
KOZU0087
 10
-263.0602416992188
 20
-186.5050354003906
  0
INSERT
  8
0
  6
CONTINUOUS
 62
     7
  2
KOZU0088
 10
-280.6934204101563
 20
393.2884826660156
  0
INSERT
  8
0
  6
CONTINUOUS
 62
     7
  2
KOZU0089
 10
-269.1934204101563
 20
393.2884826660156
  0
INSERT
  8
0
  6
CONTINUOUS
 62
     7
  2
KOZU0090
 10
-268.9960327148438
 20
-186.5433044433594
  0
INSERT
  8
0
  6
CONTINUOUS
 62
     7
  2
KOZU0091
 10
-257.4960327148438
 20
-186.5433197021484
  0
ENDSEC
  0
EOF
