  0
SECTION
  2
HEADER
  9
$ACADVER
  1
AC1009
  9
$INSBASE
 10
0
 20
0
 30
0
  9
$EXTMIN
 10
0
 20
0
  9
$EXTMAX
 10
1682
 20
1188
  9
$LIMMIN
 10
0
 20
0
  9
$LIMMAX
 10
1682
 20
1188
  9
$LTSCALE
 40
2
  0
ENDSEC
  0
SECTION
  2
TABLES
  0
TABLE
  2
LTYPE
 70
     9
  0
LTYPE
  2
CONTINUOUS
 70
    64
  3
実線
 72
    65
 73
     0
 40
0.0
  0
LTYPE
  2
DASHED1
 70
    64
  3
--  --  --  --  --  --  --  --  
 72
    65
 73
     2
 40
2.5
 49
1.25
 49
-1.25
  0
LTYPE
  2
DASHED2
 70
    64
  3
----    ----    ----    ----    
 72
    65
 73
     2
 40
5.0
 49
2.5
 49
-2.5
  0
LTYPE
  2
DASHED3
 70
    64
  3
------  ------  ------  ------  
 72
    65
 73
     2
 40
5.0
 49
3.75
 49
-1.25
  0
LTYPE
  2
CENTER1
 70
    64
  3
----- - ----- - ----- - ----- - 
 72
    65
 73
     4
 40
10.0
 49
6.25
 49
-1.25
 49
1.25
 49
-1.25
  0
LTYPE
  2
CENTER2
 70
    64
  3
----------  --  ----------  --  
 72
    65
 73
     4
 40
20.0
 49
12.5
 49
-2.5
 49
2.5
 49
-2.5
  0
LTYPE
  2
PHANTOM1
 70
    64
  3
--- - - --- - - --- - - --- - - 
 72
    65
 73
     6
 40
10.0
 49
3.25
 49
-1.25
 49
1.25
 49
-1.25
 49
1.25
 49
-1.25
  0
LTYPE
  2
PHANTOM2
 70
    64
  3
--------  -  -  --------  -  -  
 72
    65
 73
     6
 40
20.0
 49
10.0
 49
-2.5
 49
1.25
 49
-2.5
 49
1.25
 49
-2.5
  0
LTYPE
  2
DOT
 70
    64
  3
-   -   -   -   -   -   -   -   
 72
    65
 73
     2
 40
2.5
 49
0.625
 49
-1.875
  0
LTYPE
  2
DUMMY
 70
    64
  3
ダミー
 72
    65
 73
     0
 40
0.0
  0
LTYPE
  2
RAND1
 70
    64
  3
ランダム線1
 72
    65
 73
     4
 40
10.0
 49
1.0
 49
-2.0
 49
3.0
 49
-4.0
  0
LTYPE
  2
RAND2
 70
    64
  3
ランダム線2
 72
    65
 73
     4
 40
14.0
 49
2.0
 49
-3.0
 49
4.0
 49
-5.0
  0
LTYPE
  2
RAND3
 70
    64
  3
ランダム線3
 72
    65
 73
     4
 40
18.0
 49
3.0
 49
-4.0
 49
5.0
 49
-6.0
  0
LTYPE
  2
RAND4
 70
    64
  3
ランダム線4
 72
    65
 73
     4
 40
22.0
 49
4.0
 49
-5.0
 49
6.0
 49
-7.0
  0
LTYPE
  2
RAND5
 70
    64
  3
ランダム線5
 72
    65
 73
     4
 40
26.0
 49
5.0
 49
-6.0
 49
7.0
 49
-8.0
  0
LTYPE
  2
LONG1
 70
    64
  3
----------  --  ----------  --  
 72
    65
 73
     4
 40
40.0
 49
32.5
 49
-2.5
 49
2.5
 49
-2.5
  0
LTYPE
  2
LONG2
 70
    64
  3
--------  -  -  --------  -  -  
 72
    65
 73
     6
 40
40.0
 49
30.0
 49
-2.5
 49
1.25
 49
-2.5
 49
1.25
 49
-2.5
  0
LTYPE
  2
LONG3
 70
    64
  3
+++++++++++++++..+++++++++++++++
 72
    65
 73
     2
 40
40.0
 49
37.5
 49
-2.5
  0
LTYPE
  2
LONG4
 70
    64
  3
+++++++++++++++..+++++++++++++++
 72
    65
 73
     2
 40
80.0
 49
75.0
 49
-5.0
  0
LTYPE
  2
LONG5
 70
    64
  3
----------  --  ----------  --  
 72
    65
 73
     4
 40
60.0
 49
37.5
 49
-7.5
 49
7.5
 49
-7.5
  0
LTYPE
  2
dashed
 70
   64
  3
-------   -------------   ------
 72
   65
 73
    2
 40
7.5
 49
6
 49
-1.5
  0
LTYPE
  2
dashed_spaced
 70
   64
  3
----        --------        ----
 72
   65
 73
    2
 40
12
 49
6
 49
-6
  0
LTYPE
  2
long_dashed_dotted
 70
   64
  3
------------- --- --------------
 72
   65
 73
    4
 40
15.25
 49
12
 49
-1.5
 49
0.25
 49
-1.5
  0
LTYPE
  2
long_dashed_double-dotted
 70
   64
  3
----------- --- --- ------------
 72
   65
 73
    6
 40
17
 49
12
 49
-1.5
 49
0.25
 49
-1.5
 49
0.25
 49
-1.5
  0
LTYPE
  2
long_dashed_triplicate-dotted
 70
   64
  3
--------- --- --- --- ----------
 72
   65
 73
    8
 40
18.75
 49
12
 49
-1.5
 49
0.25
 49
-1.5
 49
0.25
 49
-1.5
 49
0.25
 49
-1.5
  0
LTYPE
  2
dotted
 70
   64
  3
   -       -       -       -    
 72
   65
 73
    2
 40
1.75
 49
0.25
 49
-1.5
  0
LTYPE
  2
chain
 70
   64
  3
-------------- -- --------------
 72
   65
 73
    4
 40
18.5
 49
12
 49
-1.5
 49
3.5
 49
-1.5
  0
LTYPE
  2
chain_double_dash
 70
   64
  3
------------ -- -- -------------
 72
   65
 73
    6
 40
23.5
 49
12
 49
-1.5
 49
3.5
 49
-1.5
 49
3.5
 49
-1.5
  0
LTYPE
  2
dashed_dotted
 70
   64
  3
-----------     -     ----------
 72
   65
 73
    4
 40
9.25
 49
6
 49
-1.5
 49
0.25
 49
-1.5
  0
LTYPE
  2
double-dashed_dotted
 70
   64
  3
------   -----------   -   -----
 72
   65
 73
    6
 40
16.75
 49
6
 49
-1.5
 49
6
 49
-1.5
 49
0.25
 49
-1.5
  0
LTYPE
  2
dashed_double-dotted
 70
   64
  3
---------    -    -    ---------
 72
   65
 73
    6
 40
11
 49
6
 49
-1.5
 49
0.25
 49
-1.5
 49
0.25
 49
-1.5
  0
LTYPE
  2
double-dashed_double-dotted
 70
   64
  3
-----   ---------   -   -   ----
 72
   65
 73
    8
 40
18.5
 49
6
 49
-1.5
 49
6
 49
-1.5
 49
0.25
 49
-1.5
 49
0.25
 49
-1.5
  0
LTYPE
  2
dashed_triplicate-dotted
 70
   64
  3
-------    -    -    -    ------
 72
   65
 73
    8
 40
12.75
 49
6
 49
-1.5
 49
0.25
 49
-1.5
 49
0.25
 49
-1.5
 49
0.25
 49
-1.5
  0
LTYPE
  2
double-dashed_triplicate-dotted
 70
   64
  3
-----  ---------  -  -  -  -----
 72
   65
 73
   10
 40
20.25
 49
6
 49
-1.5
 49
6
 49
-1.5
 49
0.25
 49
-1.5
 49
0.25
 49
-1.5
 49
0.25
 49
-1.5
  0
LTYPE
  2
undefined
 70
   64
  3
--------------------------------
 72
   65
 73
    0
 40
0
  0
ENDTAB
  0
TABLE
  2
STYLE
  5
3
100
AcDbSymbolTable
 70
     1
  0
STYLE
  5
10
100
AcDbSymbolTableRecord
100
AcDbTextStyleTableRecord
  2
STANDARD
 70
     0
 40
0.0
 41
1.0
 50
0.0
 71
     0
 42
0.2
  3
txt
  4
bigfont.shx
  0
STYLE
  5
26
100
AcDbSymbolTableRecord
100
AcDbTextStyleTableRecord
  2
TATEGAKI
 70
    68
 40
0.0
 41
1.0
 50
0.0
 71
     0
 42
1.0
  3
txt
  4
bigfont.shx
  0
ENDTAB
  0
TABLE
  2
LAYER
 70
    2
  0
LAYER
  2
_0-0_0
 70
   64
 62
    7
  6
CONTINUOUS
  0
LAYER
  2
ADD_LINE
 70
   64
 62
    7
  6
CONTINUOUS
  0
ENDTAB
  0
ENDSEC
  0
SECTION
  2
BLOCKS
  0
ENDSEC
  0
SECTION
  2
ENTITIES
  0
ARC
  8
_0-0_0
  6
CONTINUOUS
 62
    7
 10
177.83110099999999
 20
765.35000600000001
 40
0.2
 50
269.99999700000001
 51
20.376440000000013
  0
LINE
  8
_0-0_0
  6
CONTINUOUS
 62
    7
 10
178.01858499999992
 20
765.41964699999994
 11
176.71858199999997
 21
768.91964699999994
  0
ARC
  8
_0-0_0
  6
CONTINUOUS
 62
    7
 10
176.53109799999993
 20
768.85000600000001
 40
0.2
 50
20.376439999999999
 51
159.62355600000001
  0
LINE
  8
_0-0_0
  6
CONTINUOUS
 62
    7
 10
175.04361699999993
 20
765.41964699999994
 11
176.343613
 21
768.91964699999994
  0
ARC
  8
_0-0_0
  6
CONTINUOUS
 62
    7
 10
175.23110199999996
 20
765.35000600000001
 40
0.2
 50
159.62355600000001
 51
269.99999700000001
  0
LINE
  8
_0-0_0
  6
CONTINUOUS
 62
    7
 10
175.23110199999996
 20
765.15002400000003
 11
177.83110099999999
 21
765.15002400000003
  0
LINE
  8
_0-0_0
  6
CONTINUOUS
 62
    7
 10
99.71764399999995
 20
819.75051899999994
 11
99.71764399999995
 21
819.74951199999998
  0
LINE
  8
_0-0_0
  6
CONTINUOUS
 62
    7
 10
129.03109699999993
 20
773.25
 11
134.03109699999993
 21
773.25
  0
LINE
  8
_0-0_0
  6
CONTINUOUS
 62
    7
 10
134.03109699999993
 20
773.25
 11
135.83109999999999
 21
773.25
  0
LINE
  8
_0-0_0
  6
CONTINUOUS
 62
    7
 10
135.83109999999999
 20
773.25
 11
136.53109699999993
 21
773.25
  0
ARC
  8
_0-0_0
  6
CONTINUOUS
 62
    7
 10
135.83109999999999
 20
772.75
 40
0.5
 50
0
 51
90.000003000000007
  0
ARC
  8
_0-0_0
  6
CONTINUOUS
 62
    7
 10
129.03109699999993
 20
772.75
 40
0.5
 50
90.000003000000007
 51
179.99999099999999
  0
ARC
  8
_0-0_0
  6
CONTINUOUS
 62
    7
 10
232.53109699999993
 20
772.75
 40
0.5
 50
0
 51
90.000003000000007
  0
LINE
  8
_0-0_0
  6
CONTINUOUS
 62
    7
 10
136.53109699999993
 20
773.25
 11
136.53109699999993
 21
771.75
  0
LINE
  8
_0-0_0
  6
CONTINUOUS
 62
    7
 10
136.53109699999993
 20
773.75
 11
136.53109699999993
 21
773.25
  0
LINE
  8
_0-0_0
  6
CONTINUOUS
 62
    7
 10
136.53109699999993
 20
774.25
 11
136.53109699999993
 21
773.75
  0
LINE
  8
_0-0_0
  6
CONTINUOUS
 62
    7
 10
136.53109699999993
 20
775.25
 11
136.53109699999993
 21
774.25
  0
LINE
  8
_0-0_0
  6
CONTINUOUS
 62
    7
 10
140.53109699999993
 20
773.25
 11
141.23110199999996
 21
773.25
  0
LINE
  8
_0-0_0
  6
CONTINUOUS
 62
    7
 10
136.33109999999999
 20
772.75
 11
136.33109999999999
 21
771.75
  0
LINE
  8
_0-0_0
  6
CONTINUOUS
 62
    7
 10
139.53109699999993
 20
746.25
 11
139.53109699999993
 21
747.85000600000001
  0
LINE
  8
_0-0_0
  6
CONTINUOUS
 62
    7
 10
139.53109699999993
 20
746.25
 11
134.03109699999993
 21
746.25
  0
LINE
  8
_0-0_0
  6
CONTINUOUS
 62
    7
 10
155.53109699999993
 20
752.95001200000002
 11
197.53109699999993
 21
752.95001200000002
  0
LINE
  8
_0-0_0
  6
CONTINUOUS
 62
    7
 10
155.53109699999993
 20
772.55001800000002
 11
197.53109699999993
 21
772.55001800000002
  0
LINE
  8
_0-0_0
  6
CONTINUOUS
 62
    7
 10
219.03109699999993
 20
746.25
 11
209.53109699999993
 21
746.25
  0
LINE
  8
_0-0_0
  6
CONTINUOUS
 62
    7
 10
209.53109699999993
 20
746.25
 11
209.53109699999993
 21
747.85000600000001
  0
ARC
  8
_0-0_0
  6
CONTINUOUS
 62
    7
 10
209.23109399999998
 20
747.85000600000001
 40
0.2999999999999999
 50
0
 51
90.000003000000007
  0
LINE
  8
_0-0_0
  6
CONTINUOUS
 62
    7
 10
208.53109699999993
 20
748.15002400000003
 11
209.23109399999998
 21
748.15002400000003
  0
LINE
  8
_0-0_0
  6
CONTINUOUS
 62
    7
 10
208.03109699999993
 20
748.55001800000002
 11
208.53109699999993
 21
748.55001800000002
  0
LINE
  8
_0-0_0
  6
CONTINUOUS
 62
    7
 10
194.53109699999993
 20
748.55001800000002
 11
208.03109699999993
 21
748.55001800000002
  0
ARC
  8
_0-0_0
  6
CONTINUOUS
 62
    7
 10
192.03109699999993
 20
748.55001800000002
 40
2.5
 50
0
 51
90.000003000000007
  0
LINE
  8
_0-0_0
  6
CONTINUOUS
 62
    7
 10
161.03109699999993
 20
751.05001800000002
 11
192.03109699999993
 21
751.05001800000002
  0
ARC
  8
_0-0_0
  6
CONTINUOUS
 62
    7
 10
161.03109699999993
 20
748.55001800000002
 40
2.5
 50
90.000003000000007
 51
179.99999099999999
  0
LINE
  8
_0-0_0
  6
CONTINUOUS
 62
    7
 10
141.03109699999993
 20
748.55001800000002
 11
158.53109699999993
 21
748.55001800000002
  0
LINE
  8
_0-0_0
  6
CONTINUOUS
 62
    7
 10
140.53109699999993
 20
748.55001800000002
 11
141.03109699999993
 21
748.55001800000002
  0
LINE
  8
_0-0_0
  6
CONTINUOUS
 62
    7
 10
139.83109999999999
 20
748.15002400000003
 11
140.53109699999993
 21
748.15002400000003
  0
ARC
  8
_0-0_0
  6
CONTINUOUS
 62
    7
 10
139.83109999999999
 20
747.85000600000001
 40
0.2999999999999999
 50
90.000003000000007
 51
179.99999099999999
  0
LINE
  8
_0-0_0
  6
CONTINUOUS
 62
    7
 10
128.53109699999993
 20
770.97485400000005
 11
128.53109699999993
 21
772.75
  0
LINE
  8
_0-0_0
  6
CONTINUOUS
 62
    7
 10
133.53109699999993
 20
773.25
 11
133.53109699999993
 21
773.65002400000003
  0
LINE
  8
_0-0_0
  6
CONTINUOUS
 62
    7
 10
133.53109699999993
 20
774.15002400000003
 11
133.53109699999993
 21
773.65002400000003
  0
LINE
  8
_0-0_0
  6
CONTINUOUS
 62
    7
 10
233.03109699999993
 20
775.25
 11
233.03109699999993
 21
773.75
  0
LINE
  8
_0-0_0
  6
CONTINUOUS
 62
    7
 10
233.03109699999993
 20
773.75
 11
233.03109699999993
 21
772.75
  0
LINE
  8
_0-0_0
  6
CONTINUOUS
 62
    7
 10
233.03109699999993
 20
771.95001200000002
 11
233.03109699999993
 21
772.75
  0
LINE
  8
_0-0_0
  6
CONTINUOUS
 62
    7
 10
232.53109699999993
 20
773.25
 11
233.03109699999993
 21
773.25
  0
LINE
  8
_0-0_0
  6
CONTINUOUS
 62
    7
 10
220.03109699999993
 20
773.25
 11
232.53109699999993
 21
773.25
  0
LINE
  8
_0-0_0
  6
CONTINUOUS
 62
    7
 10
233.03109699999993
 20
775.25
 11
233.03109699999993
 21
774.25
  0
LINE
  8
_0-0_0
  6
CONTINUOUS
 62
    7
 10
233.03109699999993
 20
773.75
 11
233.03109699999993
 21
773.25
  0
LINE
  8
_0-0_0
  6
CONTINUOUS
 62
    7
 10
233.03109699999993
 20
774.25
 11
233.03109699999993
 21
773.75
  0
ARC
  8
_0-0_0
  6
CONTINUOUS
 62
    7
 10
138.53109699999993
 20
771.75
 40
2
 50
179.99999099999999
 51
0
  0
LINE
  8
_0-0_0
  6
CONTINUOUS
 62
    7
 10
219.53109699999993
 20
773.25
 11
220.03109699999993
 21
773.25
  0
LINE
  8
_0-0_0
  6
CONTINUOUS
 62
    7
 10
219.53109699999993
 20
772.75
 11
219.53109699999993
 21
773.25
  0
LINE
  8
_0-0_0
  6
CONTINUOUS
 62
    7
 10
219.53109699999993
 20
771.75
 11
219.53109699999993
 21
771.95001200000002
  0
ARC
  8
_0-0_0
  6
CONTINUOUS
 62
    7
 10
217.53109699999993
 20
771.75
 40
2
 50
179.99999099999999
 51
0
  0
LINE
  8
_0-0_0
  6
CONTINUOUS
 62
    7
 10
215.53109699999993
 20
773.25
 11
215.53109699999993
 21
771.75
  0
LINE
  8
_0-0_0
  6
CONTINUOUS
 62
    7
 10
214.83109999999999
 20
773.25
 11
215.53109699999993
 21
773.25
  0
LINE
  8
_0-0_0
  6
CONTINUOUS
 62
    7
 10
140.53109699999993
 20
771.75
 11
140.53109699999993
 21
773.25
  0
LINE
  8
_0-0_0
  6
CONTINUOUS
 62
    7
 10
136.53109699999993
 20
774.25
 11
233.03109699999993
 21
774.25
  0
ARC
  8
_0-0_0
  6
CONTINUOUS
 62
    7
 10
141.23110199999996
 20
772.75
 40
0.5
 50
90.000003000000007
 51
179.99999099999999
  0
ARC
  8
_0-0_0
  6
CONTINUOUS
 62
    7
 10
138.53109699999993
 20
771.75
 40
2.2000000000000002
 50
179.99999099999999
 51
0
  0
LINE
  8
_0-0_0
  6
CONTINUOUS
 62
    7
 10
140.53109699999993
 20
748.15002400000003
 11
141.03109699999993
 21
748.15002400000003
  0
LINE
  8
_0-0_0
  6
CONTINUOUS
 62
    7
 10
141.03109699999993
 20
748.55001800000002
 11
141.03109699999993
 21
748.15002400000003
  0
LINE
  8
_0-0_0
  6
CONTINUOUS
 62
    7
 10
158.53109699999993
 20
748.55001800000002
 11
194.53109699999993
 21
748.55001800000002
  0
LINE
  8
_0-0_0
  6
CONTINUOUS
 62
    7
 10
208.03109699999993
 20
748.15002400000003
 11
208.53109699999993
 21
748.15002400000003
  0
LINE
  8
_0-0_0
  6
CONTINUOUS
 62
    7
 10
208.03109699999993
 20
748.55001800000002
 11
208.03109699999993
 21
748.15002400000003
  0
LINE
  8
_0-0_0
  6
CONTINUOUS
 62
    7
 10
219.03109699999993
 20
745.75
 11
210.03109699999993
 21
745.75
  0
ARC
  8
_0-0_0
  6
CONTINUOUS
 62
    7
 10
210.03109699999993
 20
746.25
 40
0.5
 50
179.99999099999999
 51
269.99999700000001
  0
LINE
  8
_0-0_0
  6
CONTINUOUS
 62
    7
 10
219.03109699999993
 20
746.25
 11
219.53109699999993
 21
746.25
  0
LINE
  8
_0-0_0
  6
CONTINUOUS
 62
    7
 10
219.53109699999993
 20
746.25
 11
219.53109699999993
 21
746.45001200000002
  0
LINE
  8
_0-0_0
  6
CONTINUOUS
 62
    7
 10
224.03109699999993
 20
746.65002400000003
 11
219.73109399999998
 21
746.65002400000003
  0
LINE
  8
_0-0_0
  6
CONTINUOUS
 62
    7
 10
224.53109699999993
 20
747.15002400000003
 11
224.53109699999993
 21
748.92514000000006
  0
ARC
  8
_0-0_0
  6
CONTINUOUS
 62
    7
 10
221.48313899999994
 20
748.86901899999998
 40
3.0490550000000001
 50
1.0548960000000001
 51
14.838094000000002
  0
LINE
  8
_0-0_0
  6
CONTINUOUS
 62
    7
 10
224.03109699999993
 20
749.85000600000001
 11
219.66355899999996
 21
749.85000600000001
  0
LINE
  8
_0-0_0
  6
CONTINUOUS
 62
    7
 10
219.53109699999993
 20
749.99145499999997
 11
219.53109699999993
 21
750.09643600000004
  0
ARC
  8
_0-0_0
  6
CONTINUOUS
 62
    7
 10
217.53109699999993
 20
771.75
 40
2.2000000000000002
 50
179.99999099999999
 51
303.74900400000001
  0
LINE
  8
_0-0_0
  6
CONTINUOUS
 62
    7
 10
215.33109999999999
 20
772.75
 11
215.33109999999999
 21
771.75
  0
LINE
  8
_0-0_0
  6
CONTINUOUS
 62
    7
 10
214.83109999999999
 20
773.25
 11
141.23110199999996
 21
773.25
  0
LINE
  8
_0-0_0
  6
CONTINUOUS
 62
    7
 10
140.73110199999996
 20
771.75
 11
140.73110199999996
 21
772.75
  0
LINE
  8
_0-0_0
  6
CONTINUOUS
 62
    7
 10
141.23110199999996
 20
771.55001800000002
 11
141.23110199999996
 21
771.75
  0
ARC
  8
_0-0_0
  6
CONTINUOUS
 62
    7
 10
142.23110199999996
 20
771.55001800000002
 40
1
 50
90.000003000000007
 51
179.99999099999999
  0
LINE
  8
_0-0_0
  6
CONTINUOUS
 62
    7
 10
142.23110199999996
 20
772.55001800000002
 11
155.53109699999993
 21
772.55001800000002
  0
LINE
  8
_0-0_0
  6
CONTINUOUS
 62
    7
 10
197.53109699999993
 20
772.55001800000002
 11
211.53109699999993
 21
772.55001800000002
  0
ARC
  8
_0-0_0
  6
CONTINUOUS
 62
    7
 10
211.53109699999993
 20
769.55001800000002
 40
3
 50
0
 51
90.000003000000007
  0
LINE
  8
_0-0_0
  6
CONTINUOUS
 62
    7
 10
214.53109699999993
 20
755.95001200000002
 11
214.53109699999993
 21
769.55001800000002
  0
ARC
  8
_0-0_0
  6
CONTINUOUS
 62
    7
 10
211.53109699999993
 20
755.95001200000002
 40
3
 50
269.99999700000001
 51
0
  0
LINE
  8
_0-0_0
  6
CONTINUOUS
 62
    7
 10
211.53109699999993
 20
752.95001200000002
 11
197.53109699999993
 21
752.95001200000002
  0
LINE
  8
_0-0_0
  6
CONTINUOUS
 62
    7
 10
155.53109699999993
 20
752.95001200000002
 11
141.53109699999993
 21
752.95001200000002
  0
ARC
  8
_0-0_0
  6
CONTINUOUS
 62
    7
 10
141.53109699999993
 20
755.95001200000002
 40
3
 50
179.99999099999999
 51
269.99999700000001
  0
LINE
  8
_0-0_0
  6
CONTINUOUS
 62
    7
 10
138.53109699999993
 20
768.18771400000003
 11
138.53109699999993
 21
755.95001200000002
  0
ARC
  8
_0-0_0
  6
CONTINUOUS
 62
    7
 10
139.53109699999993
 20
768.18771400000003
 40
1
 50
105.68034800000001
 51
179.99999100000002
  0
ARC
  8
_0-0_0
  6
CONTINUOUS
 62
    7
 10
131.57906299999991
 20
771.03100599999993
 40
3.0490550000000001
 50
181.05489
 51
194.838089
  0
LINE
  8
_0-0_0
  6
CONTINUOUS
 62
    7
 10
133.39864299999999
 20
770.05001800000002
 11
129.03109699999993
 21
770.05001800000002
  0
LINE
  8
_0-0_0
  6
CONTINUOUS
 62
    7
 10
133.53109699999993
 20
749.99145499999997
 11
133.53109699999993
 21
750.29168700000002
  0
LINE
  8
_0-0_0
  6
CONTINUOUS
 62
    7
 10
133.39864299999999
 20
749.85000600000001
 11
129.03109699999993
 21
749.85000600000001
  0
ARC
  8
_0-0_0
  6
CONTINUOUS
 62
    7
 10
131.58024599999999
 20
748.86834700000009
 40
3.050319
 50
165.15540799999999
 51
178.932897
  0
LINE
  8
_0-0_0
  6
CONTINUOUS
 62
    7
 10
128.53109699999993
 20
747.15002400000003
 11
128.53109699999993
 21
748.92514000000006
  0
LINE
  8
_0-0_0
  6
CONTINUOUS
 62
    7
 10
133.33109999999999
 20
746.65002400000003
 11
129.03109699999993
 21
746.65002400000003
  0
LINE
  8
_0-0_0
  6
CONTINUOUS
 62
    7
 10
133.53109699999993
 20
746.25
 11
133.53109699999993
 21
746.45001200000002
  0
LINE
  8
_0-0_0
  6
CONTINUOUS
 62
    7
 10
133.53109699999993
 20
746.25
 11
134.03109699999993
 21
746.25
  0
LINE
  8
_0-0_0
  6
CONTINUOUS
 62
    7
 10
139.03109699999993
 20
745.75
 11
134.03109699999993
 21
745.75
  0
ARC
  8
_0-0_0
  6
CONTINUOUS
 62
    7
 10
139.03109699999993
 20
746.25
 40
0.5
 50
269.99999700000001
 51
0
  0
LINE
  8
_0-0_0
  6
CONTINUOUS
 62
    7
 10
128.84935799999994
 20
770.05001800000002
 11
128.82900199999995
 21
770.05102499999998
  0
LINE
  8
_0-0_0
  6
CONTINUOUS
 62
    7
 10
128.82900199999995
 20
770.05102499999998
 11
128.80860099999995
 21
770.054169
  0
LINE
  8
_0-0_0
  6
CONTINUOUS
 62
    7
 10
128.80860099999995
 20
770.054169
 11
128.78177599999992
 21
770.06176800000003
  0
LINE
  8
_0-0_0
  6
CONTINUOUS
 62
    7
 10
128.78177599999992
 20
770.06176800000003
 11
128.75613399999997
 21
770.07312000000002
  0
LINE
  8
_0-0_0
  6
CONTINUOUS
 62
    7
 10
128.75613399999997
 20
770.07312000000002
 11
128.73232999999993
 21
770.08801300000005
  0
LINE
  8
_0-0_0
  6
CONTINUOUS
 62
    7
 10
128.73232999999993
 20
770.08801300000005
 11
128.71557599999994
 21
770.10150099999998
  0
LINE
  8
_0-0_0
  6
CONTINUOUS
 62
    7
 10
128.71557599999994
 20
770.10150099999998
 11
128.70007299999997
 21
770.11676
  0
LINE
  8
_0-0_0
  6
CONTINUOUS
 62
    7
 10
128.70007299999997
 20
770.11676
 11
128.67318
 21
770.15139799999997
  0
LINE
  8
_0-0_0
  6
CONTINUOUS
 62
    7
 10
128.67318
 20
770.15139799999997
 11
128.65213799999992
 21
770.18972800000006
  0
LINE
  8
_0-0_0
  6
CONTINUOUS
 62
    7
 10
128.65213799999992
 20
770.18972800000006
 11
128.64013699999998
 21
770.21963499999993
  0
LINE
  8
_0-0_0
  6
CONTINUOUS
 62
    7
 10
128.64013699999998
 20
770.21963499999993
 11
128.63109599999996
 21
770.25
  0
LINE
  8
_0-0_0
  6
CONTINUOUS
 62
    7
 10
133.53109699999993
 20
774.15002400000003
 11
133.53109699999993
 21
775.25
  0
LINE
  8
_0-0_0
  6
CONTINUOUS
 62
    7
 10
128.03109699999993
 20
771.60000600000001
 11
128.53109699999993
 21
771.60000600000001
  0
LINE
  8
_0-0_0
  6
CONTINUOUS
 62
    7
 10
128.03109699999993
 20
774.15002400000003
 11
133.53109699999993
 21
774.15002400000003
  0
ARC
  8
_0-0_0
  6
CONTINUOUS
 62
    7
 10
232.53109699999993
 20
771.95001200000002
 40
0.5
 50
269.99999700000001
 51
0
  0
ARC
  8
_0-0_0
  6
CONTINUOUS
 62
    7
 10
220.03109699999993
 20
772.75
 40
0.5
 50
90.000003000000007
 51
179.99999099999999
  0
LINE
  8
_0-0_0
  6
CONTINUOUS
 62
    7
 10
219.53109699999993
 20
771.95001200000002
 11
219.53109699999993
 21
772.75
  0
LINE
  8
_0-0_0
  6
CONTINUOUS
 62
    7
 10
139.73110199999996
 20
748.13284299999998
 11
139.73110199999996
 21
746.15002400000003
  0
LINE
  8
_0-0_0
  6
CONTINUOUS
 62
    7
 10
139.73110199999996
 20
746.15002400000003
 11
140.73110199999996
 21
746.15002400000003
  0
LINE
  8
_0-0_0
  6
CONTINUOUS
 62
    7
 10
141.03109699999993
 20
748.15002400000003
 11
208.03109699999993
 21
748.15002400000003
  0
LINE
  8
_0-0_0
  6
CONTINUOUS
 62
    7
 10
140.73110199999996
 20
746.15002400000003
 11
208.33109999999999
 21
746.15002400000003
  0
LINE
  8
_0-0_0
  6
CONTINUOUS
 62
    7
 10
208.33109999999999
 20
746.15002400000003
 11
209.33109999999999
 21
746.15002400000003
  0
LINE
  8
_0-0_0
  6
CONTINUOUS
 62
    7
 10
209.33109999999999
 20
748.13284299999998
 11
209.33109999999999
 21
746.15002400000003
  0
LINE
  8
_0-0_0
  6
CONTINUOUS
 62
    7
 10
219.53109699999993
 20
746.25
 11
219.03109699999993
 21
745.75
  0
ARC
  8
_0-0_0
  6
CONTINUOUS
 62
    7
 10
219.73109399999998
 20
746.45001200000002
 40
0.2
 50
90.000003000000007
 51
179.99999099999999
  0
ARC
  8
_0-0_0
  6
CONTINUOUS
 62
    7
 10
224.03109699999993
 20
747.15002400000003
 40
0.5
 50
269.99999700000001
 51
0
  0
LINE
  8
_0-0_0
  6
CONTINUOUS
 62
    7
 10
224.21284500000002
 20
749.85000600000001
 11
224.23320000000001
 21
749.84899900000005
  0
LINE
  8
_0-0_0
  6
CONTINUOUS
 62
    7
 10
224.23320000000001
 20
749.84899900000005
 11
224.253601
 21
749.84585600000003
  0
LINE
  8
_0-0_0
  6
CONTINUOUS
 62
    7
 10
224.253601
 20
749.84585600000003
 11
224.28042599999992
 21
749.838257
  0
LINE
  8
_0-0_0
  6
CONTINUOUS
 62
    7
 10
224.28042599999992
 20
749.838257
 11
224.306061
 21
749.82690400000001
  0
LINE
  8
_0-0_0
  6
CONTINUOUS
 62
    7
 10
224.306061
 20
749.82690400000001
 11
224.32986399999993
 21
749.81201199999998
  0
LINE
  8
_0-0_0
  6
CONTINUOUS
 62
    7
 10
224.32986399999993
 20
749.81201199999998
 11
224.34661899999992
 21
749.79849200000001
  0
LINE
  8
_0-0_0
  6
CONTINUOUS
 62
    7
 10
224.34661899999992
 20
749.79849200000001
 11
224.362122
 21
749.78326399999992
  0
LINE
  8
_0-0_0
  6
CONTINUOUS
 62
    7
 10
224.362122
 20
749.78326399999992
 11
224.38902299999995
 21
749.74862699999994
  0
LINE
  8
_0-0_0
  6
CONTINUOUS
 62
    7
 10
224.38902299999995
 20
749.74862699999994
 11
224.41006499999992
 21
749.71029700000008
  0
LINE
  8
_0-0_0
  6
CONTINUOUS
 62
    7
 10
224.41006499999992
 20
749.71029700000008
 11
224.42205799999999
 21
749.68035899999995
  0
LINE
  8
_0-0_0
  6
CONTINUOUS
 62
    7
 10
224.42205799999999
 20
749.68035899999995
 11
224.431107
 21
749.65002400000003
  0
LINE
  8
_0-0_0
  6
CONTINUOUS
 62
    7
 10
224.21284500000002
 20
749.85000600000001
 11
224.03109699999993
 21
749.85000600000001
  0
LINE
  8
_0-0_0
  6
CONTINUOUS
 62
    7
 10
219.53109699999993
 20
751.15002400000003
 11
219.53109699999993
 21
750.09643600000004
  0
LINE
  8
_0-0_0
  6
CONTINUOUS
 62
    7
 10
219.53109699999993
 20
751.15002400000003
 11
219.53109699999993
 21
768.75
  0
LINE
  8
_0-0_0
  6
CONTINUOUS
 62
    7
 10
219.53109699999993
 20
770.72738600000002
 11
219.53109699999993
 21
768.75
  0
ARC
  8
_0-0_0
  6
CONTINUOUS
 62
    7
 10
219.03109699999993
 20
769.50500499999998
 40
0.5
 50
0
 51
123.74898500000002
  0
ARC
  8
_0-0_0
  6
CONTINUOUS
 62
    7
 10
219.70138499999996
 20
750.02331500000003
 40
0.1734229999999999
 50
181.12417600000003
 51
270.64883800000007
  0
LINE
  8
_0-0_0
  6
CONTINUOUS
 62
    7
 10
219.52705399999991
 20
750.05001800000002
 11
219.52714500000002
 21
750.01986699999998
  0
ARC
  8
_0-0_0
  6
CONTINUOUS
 62
    7
 10
214.83109999999999
 20
772.75
 40
0.5
 50
0
 51
90.000003000000007
  0
ARC
  8
_0-0_0
  6
CONTINUOUS
 62
    7
 10
138.53109699999993
 20
771.75
 40
2.7000000000000002
 50
285.68033600000007
 51
0.0000000000000381
  0
ARC
  8
_0-0_0
  6
CONTINUOUS
 62
    7
 10
155.53109699999993
 20
755.95001200000002
 40
3
 50
269.99999700000001
 51
0
  0
LINE
  8
_0-0_0
  6
CONTINUOUS
 62
    7
 10
158.53109699999993
 20
755.95001200000002
 11
158.53109699999993
 21
769.55001800000002
  0
ARC
  8
_0-0_0
  6
CONTINUOUS
 62
    7
 10
155.53109699999993
 20
769.55001800000002
 40
3
 50
0
 51
90.000003000000007
  0
ARC
  8
_0-0_0
  6
CONTINUOUS
 62
    7
 10
151.03109699999993
 20
765.25
 40
4.5
 50
269.99999700000001
 51
90.000002999999992
  0
LINE
  8
_0-0_0
  6
CONTINUOUS
 62
    7
 10
151.03109699999993
 20
760.75
 11
146.03109699999993
 21
760.75
  0
ARC
  8
_0-0_0
  6
CONTINUOUS
 62
    7
 10
146.03109699999993
 20
765.25
 40
4.5
 50
90.000003000000007
 51
269.99999700000006
  0
LINE
  8
_0-0_0
  6
CONTINUOUS
 62
    7
 10
146.03109699999993
 20
769.75
 11
151.03109699999993
 21
769.75
  0
ARC
  8
_0-0_0
  6
CONTINUOUS
 62
    7
 10
197.53109699999993
 20
755.95001200000002
 40
3
 50
179.99999099999999
 51
269.99999700000001
  0
LINE
  8
_0-0_0
  6
CONTINUOUS
 62
    7
 10
194.53109699999993
 20
769.55001800000002
 11
194.53109699999993
 21
755.95001200000002
  0
ARC
  8
_0-0_0
  6
CONTINUOUS
 62
    7
 10
197.53109699999993
 20
769.55001800000002
 40
3
 50
90.000003000000007
 51
179.99999099999999
  0
ARC
  8
_0-0_0
  6
CONTINUOUS
 62
    7
 10
207.03109699999993
 20
765.25
 40
4.5
 50
269.99999700000001
 51
90.000002999999992
  0
LINE
  8
_0-0_0
  6
CONTINUOUS
 62
    7
 10
207.03109699999993
 20
760.75
 11
202.03109699999993
 21
760.75
  0
ARC
  8
_0-0_0
  6
CONTINUOUS
 62
    7
 10
202.03109699999993
 20
765.25
 40
4.5
 50
90.000003000000007
 51
269.99999700000006
  0
LINE
  8
_0-0_0
  6
CONTINUOUS
 62
    7
 10
202.03109699999993
 20
769.75
 11
207.03109699999993
 21
769.75
  0
LINE
  8
_0-0_0
  6
CONTINUOUS
 62
    7
 10
129.03109699999993
 20
770.05001800000002
 11
128.84935799999994
 21
770.05001800000002
  0
LINE
  8
_0-0_0
  6
CONTINUOUS
 62
    7
 10
133.53109699999993
 20
751.95001200000002
 11
133.53109699999993
 21
750.29168700000002
  0
LINE
  8
_0-0_0
  6
CONTINUOUS
 62
    7
 10
133.53109699999993
 20
751.95001200000002
 11
133.53109699999993
 21
768.45001200000002
  0
LINE
  8
_0-0_0
  6
CONTINUOUS
 62
    7
 10
133.53109699999993
 20
769.91629
 11
133.53109699999993
 21
768.45001200000002
  0
ARC
  8
_0-0_0
  6
CONTINUOUS
 62
    7
 10
133.36080900000002
 20
750.02328499999999
 40
0.1734209999999999
 50
269.35085600000002
 51
358.87625300000002
  0
LINE
  8
_0-0_0
  6
CONTINUOUS
 62
    7
 10
133.53514099999995
 20
750.05001800000002
 11
133.53506499999992
 21
750.01986699999998
  0
LINE
  8
_0-0_0
  6
CONTINUOUS
 62
    7
 10
133.53514099999995
 20
769.85000600000001
 11
133.53506499999992
 21
769.88012700000002
  0
ARC
  8
_0-0_0
  6
CONTINUOUS
 62
    7
 10
133.36080900000002
 20
769.87670900000001
 40
0.1734219999999999
 50
1.1236539999999999
 51
90.649110000000007
  0
LINE
  8
_0-0_0
  6
CONTINUOUS
 62
    7
 10
129.03109699999993
 20
749.85000600000001
 11
128.84935799999994
 21
749.85000600000001
  0
LINE
  8
_0-0_0
  6
CONTINUOUS
 62
    7
 10
128.84934999999996
 20
749.85000600000001
 11
128.82900199999995
 21
749.84899900000005
  0
LINE
  8
_0-0_0
  6
CONTINUOUS
 62
    7
 10
128.82900199999995
 20
749.84899900000005
 11
128.80859399999997
 21
749.84582499999999
  0
LINE
  8
_0-0_0
  6
CONTINUOUS
 62
    7
 10
128.80859399999997
 20
749.84582499999999
 11
128.78177599999992
 21
749.838257
  0
LINE
  8
_0-0_0
  6
CONTINUOUS
 62
    7
 10
128.78177599999992
 20
749.838257
 11
128.75613399999997
 21
749.82690400000001
  0
LINE
  8
_0-0_0
  6
CONTINUOUS
 62
    7
 10
128.75613399999997
 20
749.82690400000001
 11
128.73232999999993
 21
749.81201199999998
  0
LINE
  8
_0-0_0
  6
CONTINUOUS
 62
    7
 10
128.73232999999993
 20
749.81201199999998
 11
128.71557599999994
 21
749.79849200000001
  0
LINE
  8
_0-0_0
  6
CONTINUOUS
 62
    7
 10
128.71557599999994
 20
749.79849200000001
 11
128.70007299999997
 21
749.78326399999992
  0
LINE
  8
_0-0_0
  6
CONTINUOUS
 62
    7
 10
128.70007299999997
 20
749.78326399999992
 11
128.67318
 21
749.74862699999994
  0
LINE
  8
_0-0_0
  6
CONTINUOUS
 62
    7
 10
128.67318
 20
749.74862699999994
 11
128.65213799999992
 21
749.71029700000008
  0
LINE
  8
_0-0_0
  6
CONTINUOUS
 62
    7
 10
128.65213799999992
 20
749.71029700000008
 11
128.64013699999998
 21
749.68035899999995
  0
LINE
  8
_0-0_0
  6
CONTINUOUS
 62
    7
 10
128.64013699999998
 20
749.68035899999995
 11
128.63109599999996
 21
749.65002400000003
  0
ARC
  8
_0-0_0
  6
CONTINUOUS
 62
    7
 10
129.03109699999993
 20
747.15002400000003
 40
0.5
 50
179.99999099999999
 51
269.99999700000001
  0
ARC
  8
_0-0_0
  6
CONTINUOUS
 62
    7
 10
133.33109999999999
 20
746.45001200000002
 40
0.2
 50
0
 51
90.000003000000007
  0
LINE
  8
_0-0_0
  6
CONTINUOUS
 62
    7
 10
133.53109699999993
 20
746.25
 11
134.03109699999993
 21
745.75
  0
LINE
  8
_0-0_0
  6
CONTINUOUS
 62
    7
 10
127.53109699999993
 20
772.09429899999998
 11
127.53109699999993
 21
773.65002400000003
  0
ARC
  8
_0-0_0
  6
CONTINUOUS
 62
    7
 10
128.0180049999999
 20
772.09765599999992
 40
0.4869939999999999
 50
180.39493000000002
 51
203.93946700000001
  0
ARC
  8
_0-0_0
  6
CONTINUOUS
 62
    7
 10
128.03109699999993
 20
772.10000600000001
 40
0.5
 50
203.57823099999999
 51
269.99999700000001
  0
ARC
  8
_0-0_0
  6
CONTINUOUS
 62
    7
 10
128.03109699999993
 20
773.65002400000003
 40
0.5
 50
90.000003000000007
 51
179.99999099999999
  0
LINE
  8
_0-0_0
  6
CONTINUOUS
 62
    7
 10
219.53109699999993
 20
771.45001200000002
 11
220.03109699999993
 21
771.45001200000002
  0
LINE
  8
_0-0_0
  6
CONTINUOUS
 62
    7
 10
220.03109699999993
 20
771.45001200000002
 11
232.53109699999993
 21
771.45001200000002
  0
ARC
  8
_0-0_0
  6
CONTINUOUS
 62
    7
 10
220.03109699999993
 20
771.95001200000002
 40
0.5
 50
179.99999099999999
 51
269.99999700000001
  0
LINE
  8
_0-0_0
  6
CONTINUOUS
 62
    7
 10
219.53109699999993
 20
771.08398399999999
 11
219.53109699999993
 21
771.45001200000002
  0
LINE
  8
_0-0_0
  6
CONTINUOUS
 62
    7
 10
219.53109699999993
 20
770.83349599999997
 11
219.53109699999993
 21
770.72738600000002
  0
LINE
  8
_0-0_0
  6
CONTINUOUS
 62
    7
 10
219.53109699999993
 20
771.08398399999999
 11
219.53109699999993
 21
770.83349599999997
  0
CIRCLE
  8
_0-0_0
  6
CONTINUOUS
 62
    7
 10
138.53109699999993
 20
771.75
 40
1.4750000000000001
  0
CIRCLE
  8
_0-0_0
  6
CONTINUOUS
 62
    7
 10
217.53109699999993
 20
771.75
 40
1.4750000000000001
  0
LINE
  8
_0-0_0
  6
CONTINUOUS
 62
    7
 10
127.53109699999993
 20
751.95001200000002
 11
127.53109699999993
 21
749.45001200000002
  0
LINE
  8
_0-0_0
  6
CONTINUOUS
 62
    7
 10
127.53109699999993
 20
751.95001200000002
 11
127.53109699999993
 21
764.75
  0
LINE
  8
_0-0_0
  6
CONTINUOUS
 62
    7
 10
127.53109699999993
 20
768.25
 11
127.53109699999993
 21
764.75
  0
LINE
  8
_0-0_0
  6
CONTINUOUS
 62
    7
 10
127.53109699999993
 20
768.25
 11
127.53109699999993
 21
768.60000600000001
  0
LINE
  8
_0-0_0
  6
CONTINUOUS
 62
    7
 10
127.53109699999993
 20
772.09429899999998
 11
127.53109699999993
 21
768.60000600000001
  0
LINE
  8
_0-0_0
  6
CONTINUOUS
 62
    7
 10
127.53109699999993
 20
773.942902
 11
127.53109699999993
 21
773.65002400000003
  0
LINE
  8
_0-0_0
  6
CONTINUOUS
 62
    7
 10
127.53109699999993
 20
773.942902
 11
127.53109699999993
 21
774
  0
LINE
  8
_0-0_0
  6
CONTINUOUS
 62
    7
 10
128.53163099999995
 20
748.95001200000002
 11
128.03109699999993
 21
748.95001200000002
  0
LINE
  8
_0-0_0
  6
CONTINUOUS
 62
    7
 10
224.5198969999999
 20
749.15002400000003
 11
231.53109699999993
 21
749.15002400000003
  0
LINE
  8
_0-0_0
  6
CONTINUOUS
 62
    7
 10
231.53109699999993
 20
749.15002400000003
 11
236.20654300000001
 21
749.15002400000003
  0
LINE
  8
_0-0_0
  6
CONTINUOUS
 62
    7
 10
231.53109699999993
 20
749.15002400000003
 11
231.53109699999993
 21
751.15002400000003
  0
LINE
  8
_0-0_0
  6
CONTINUOUS
 62
    7
 10
231.53109699999993
 20
754.65002400000003
 11
231.53109699999993
 21
751.65002400000003
  0
LINE
  8
_0-0_0
  6
CONTINUOUS
 62
    7
 10
231.53109699999993
 20
751.65002400000003
 11
231.53109699999993
 21
751.15002400000003
  0
LINE
  8
_0-0_0
  6
CONTINUOUS
 62
    7
 10
231.53109699999993
 20
754.65002400000003
 11
231.53109699999993
 21
755.15002400000003
  0
ARC
  8
_0-0_0
  6
CONTINUOUS
 62
    7
 10
225.53108199999997
 20
754.45001200000002
 40
0.500016
 50
180.00117
 51
359.995611
  0
LINE
  8
_0-0_0
  6
CONTINUOUS
 62
    7
 10
226.03109699999993
 20
754.45001200000002
 11
226.03109699999993
 21
766.45001200000002
  0
ARC
  8
_0-0_0
  6
CONTINUOUS
 62
    7
 10
225.53108199999997
 20
766.45001200000002
 40
0.500016
 50
0.001164
 51
179.99560600000004
  0
LINE
  8
_0-0_0
  6
CONTINUOUS
 62
    7
 10
225.03109699999993
 20
754.45001200000002
 11
225.03109699999993
 21
766.45001200000002
  0
ARC
  8
_0-0_0
  6
CONTINUOUS
 62
    7
 10
227.03108199999997
 20
754.45001200000002
 40
0.500016
 50
180.00117
 51
359.995611
  0
LINE
  8
_0-0_0
  6
CONTINUOUS
 62
    7
 10
227.53109699999993
 20
754.45001200000002
 11
227.53109699999993
 21
766.45001200000002
  0
ARC
  8
_0-0_0
  6
CONTINUOUS
 62
    7
 10
227.03108199999997
 20
766.45001200000002
 40
0.500016
 50
0.001164
 51
179.99560600000004
  0
LINE
  8
_0-0_0
  6
CONTINUOUS
 62
    7
 10
226.53109699999993
 20
754.45001200000002
 11
226.53109699999993
 21
766.45001200000002
  0
ARC
  8
_0-0_0
  6
CONTINUOUS
 62
    7
 10
228.53108199999997
 20
754.45001200000002
 40
0.500016
 50
180.00117
 51
359.995611
  0
LINE
  8
_0-0_0
  6
CONTINUOUS
 62
    7
 10
229.03109699999993
 20
754.45001200000002
 11
229.03109699999993
 21
766.45001200000002
  0
ARC
  8
_0-0_0
  6
CONTINUOUS
 62
    7
 10
228.53108199999997
 20
766.45001200000002
 40
0.500016
 50
0.001164
 51
179.99560600000004
  0
LINE
  8
_0-0_0
  6
CONTINUOUS
 62
    7
 10
228.03109699999993
 20
754.45001200000002
 11
228.03109699999993
 21
766.45001200000002
  0
ARC
  8
_0-0_0
  6
CONTINUOUS
 62
    7
 10
230.03108199999997
 20
754.45001200000002
 40
0.500016
 50
180.00117
 51
359.995611
  0
LINE
  8
_0-0_0
  6
CONTINUOUS
 62
    7
 10
230.53109699999993
 20
754.45001200000002
 11
230.53109699999993
 21
766.45001200000002
  0
ARC
  8
_0-0_0
  6
CONTINUOUS
 62
    7
 10
230.03108199999997
 20
766.45001200000002
 40
0.500016
 50
0.001164
 51
179.99560600000004
  0
LINE
  8
_0-0_0
  6
CONTINUOUS
 62
    7
 10
229.53109699999993
 20
754.45001200000002
 11
229.53109699999993
 21
766.45001200000002
  0
LINE
  8
_0-0_0
  6
CONTINUOUS
 62
    7
 10
219.53109699999993
 20
770.75
 11
236.20654300000001
 21
770.75
  0
LINE
  8
_0-0_0
  6
CONTINUOUS
 62
    7
 10
128.03109699999993
 20
774.5
 11
133.53109699999993
 21
774.5
  0
ARC
  8
_0-0_0
  6
CONTINUOUS
 62
    7
 10
128.03109699999993
 20
774
 40
0.5
 50
90.000003000000007
 51
179.99999099999999
  0
ARC
  8
_0-0_0
  6
CONTINUOUS
 62
    7
 10
128.03109699999993
 20
749.45001200000002
 40
0.5
 50
179.99999099999999
 51
269.99999700000001
  0
ARC
  8
_0-0_0
  6
CONTINUOUS
 62
    7
 10
128.03109699999993
 20
764.75
 40
0.5
 50
90.000003000000007
 51
179.99999099999999
  0
ARC
  8
_0-0_0
  6
CONTINUOUS
 62
    7
 10
236.20654300000001
 20
751.15002400000003
 40
2
 50
269.99999700000001
 51
288.43501300000003
  0
LINE
  8
_0-0_0
  6
CONTINUOUS
 62
    7
 10
231.53109699999993
 20
749.15002400000003
 11
231.53109699999993
 21
749.40008499999999
  0
LINE
  8
_0-0_0
  6
CONTINUOUS
 62
    7
 10
231.53109699999993
 20
754.65002400000003
 11
236.20654300000001
 21
754.65002400000003
  0
LINE
  8
_0-0_0
  6
CONTINUOUS
 62
    7
 10
236.83900399999993
 20
770.64736900000003
 11
236.71949799999993
 21
770.68298299999992
  0
LINE
  8
_0-0_0
  6
CONTINUOUS
 62
    7
 10
236.71949799999993
 20
770.68298299999992
 11
236.59794599999998
 21
770.71087599999998
  0
LINE
  8
_0-0_0
  6
CONTINUOUS
 62
    7
 10
236.59794599999998
 20
770.71087599999998
 11
236.47480799999994
 21
770.73092700000007
  0
LINE
  8
_0-0_0
  6
CONTINUOUS
 62
    7
 10
236.47480799999994
 20
770.73092700000007
 11
236.35058599999991
 21
770.74304200000006
  0
LINE
  8
_0-0_0
  6
CONTINUOUS
 62
    7
 10
236.35058599999991
 20
770.74304200000006
 11
236.2257689999999
 21
770.747162
  0
LINE
  8
_0-0_0
  6
CONTINUOUS
 62
    7
 10
236.2257689999999
 20
770.747162
 11
236.20654300000001
 21
770.74710099999993
  0
ARC
  8
_0-0_0
  6
CONTINUOUS
 62
    7
 10
236.20654300000001
 20
768.75
 40
2
 50
71.565000999999995
 51
90.000003000000007
  0
LINE
  8
_0-0_0
  6
CONTINUOUS
 62
    7
 10
152.50263999999993
 20
761.15002400000003
 11
144.55956299999991
 21
761.15002400000003
  0
ARC
  8
_0-0_0
  6
CONTINUOUS
 62
    7
 10
144.55956299999991
 20
761.65002400000003
 40
0.5
 50
210.00000299999999
 51
269.99999700000001
  0
LINE
  8
_0-0_0
  6
CONTINUOUS
 62
    7
 10
144.12654899999995
 20
761.40002400000003
 11
142.04808800000001
 21
765
  0
ARC
  8
_0-0_0
  6
CONTINUOUS
 62
    7
 10
142.48110199999996
 20
765.25
 40
0.5
 50
149.99999700000001
 51
210.00000299999996
  0
LINE
  8
_0-0_0
  6
CONTINUOUS
 62
    7
 10
142.04808800000001
 20
765.5
 11
144.12654899999995
 21
769.10000600000001
  0
ARC
  8
_0-0_0
  6
CONTINUOUS
 62
    7
 10
144.55956299999991
 20
768.85000600000001
 40
0.5
 50
90.000003000000007
 51
149.99999700000001
  0
LINE
  8
_0-0_0
  6
CONTINUOUS
 62
    7
 10
144.55956299999991
 20
769.35000600000001
 11
152.50263999999993
 21
769.35000600000001
  0
ARC
  8
_0-0_0
  6
CONTINUOUS
 62
    7
 10
152.50263999999993
 20
768.85000600000001
 40
0.5
 50
30.000001000000001
 51
90.000003000000007
  0
LINE
  8
_0-0_0
  6
CONTINUOUS
 62
    7
 10
152.935654
 20
769.10000600000001
 11
155.01411399999995
 21
765.5
  0
ARC
  8
_0-0_0
  6
CONTINUOUS
 62
    7
 10
154.58109999999999
 20
765.25
 40
0.5
 50
329.99998900000003
 51
30.000000999999983
  0
LINE
  8
_0-0_0
  6
CONTINUOUS
 62
    7
 10
155.01411399999995
 20
765
 11
152.935654
 21
761.40002400000003
  0
ARC
  8
_0-0_0
  6
CONTINUOUS
 62
    7
 10
152.50263999999993
 20
761.65002400000003
 40
0.5
 50
269.99999700000001
 51
329.99998900000003
  0
ARC
  8
_0-0_0
  6
CONTINUOUS
 62
    7
 10
200.50183099999992
 20
761.75
 40
0.5
 50
210.00000299999999
 51
269.99999700000001
  0
LINE
  8
_0-0_0
  6
CONTINUOUS
 62
    7
 10
200.06881699999997
 20
761.5
 11
198.04809599999999
 21
765
  0
ARC
  8
_0-0_0
  6
CONTINUOUS
 62
    7
 10
198.48109399999998
 20
765.25
 40
0.5
 50
149.99999700000001
 51
210.00000299999996
  0
LINE
  8
_0-0_0
  6
CONTINUOUS
 62
    7
 10
198.04809599999999
 20
765.5
 11
200.06881699999997
 21
769
  0
ARC
  8
_0-0_0
  6
CONTINUOUS
 62
    7
 10
200.50183099999992
 20
768.75
 40
0.5
 50
90.000003000000007
 51
149.99999700000001
  0
LINE
  8
_0-0_0
  6
CONTINUOUS
 62
    7
 10
200.50183099999992
 20
769.25
 11
208.56037900000001
 21
769.25
  0
ARC
  8
_0-0_0
  6
CONTINUOUS
 62
    7
 10
208.56037900000001
 20
768.75
 40
0.5
 50
30.000001000000001
 51
90.000003000000007
  0
LINE
  8
_0-0_0
  6
CONTINUOUS
 62
    7
 10
208.99339299999997
 20
769
 11
211.01411399999995
 21
765.5
  0
ARC
  8
_0-0_0
  6
CONTINUOUS
 62
    7
 10
210.58109999999999
 20
765.25
 40
0.5
 50
329.99998900000003
 51
30.000000999999983
  0
LINE
  8
_0-0_0
  6
CONTINUOUS
 62
    7
 10
211.01411399999995
 20
765
 11
208.99339299999997
 21
761.5
  0
ARC
  8
_0-0_0
  6
CONTINUOUS
 62
    7
 10
208.56037900000001
 20
761.75
 40
0.5
 50
269.99999700000001
 51
329.99998900000003
  0
LINE
  8
_0-0_0
  6
CONTINUOUS
 62
    7
 10
208.56037900000001
 20
761.25
 11
200.50183099999992
 21
761.25
  0
LINE
  8
_0-0_0
  6
CONTINUOUS
 62
    7
 10
130.53109699999993
 20
769.88043199999993
 11
130.53109699999993
 21
769.05419899999993
  0
LINE
  8
_0-0_0
  6
CONTINUOUS
 62
    7
 10
128.03109699999993
 20
765.25
 11
130.23109399999998
 21
765.25
  0
LINE
  8
_0-0_0
  6
CONTINUOUS
 62
    7
 10
130.53109699999993
 20
765.55001800000002
 11
130.53109699999993
 21
767.77832000000001
  0
LINE
  8
_0-0_0
  6
CONTINUOUS
 62
    7
 10
130.53109699999993
 20
770.04968299999996
 11
130.53109699999993
 21
769.88043199999993
  0
LINE
  8
_0-0_0
  6
CONTINUOUS
 62
    7
 10
138.73110199999996
 20
770.65002400000003
 11
138.33109999999999
 21
770.65002400000003
  0
LINE
  8
_0-0_0
  6
CONTINUOUS
 62
    7
 10
138.73110199999996
 20
770.65002400000003
 11
138.73110199999996
 21
771.30001800000002
  0
ARC
  8
_0-0_0
  6
CONTINUOUS
 62
    7
 10
138.98110199999996
 20
771.30001800000002
 40
0.25
 50
90.000003000000007
 51
179.99999099999999
  0
LINE
  8
_0-0_0
  6
CONTINUOUS
 62
    7
 10
138.98110199999996
 20
771.55001800000002
 11
139.63109599999996
 21
771.55001800000002
  0
LINE
  8
_0-0_0
  6
CONTINUOUS
 62
    7
 10
139.63109599999996
 20
771.55001800000002
 11
139.63109599999996
 21
771.95001200000002
  0
LINE
  8
_0-0_0
  6
CONTINUOUS
 62
    7
 10
138.98110199999996
 20
771.95001200000002
 11
139.63109599999996
 21
771.95001200000002
  0
ARC
  8
_0-0_0
  6
CONTINUOUS
 62
    7
 10
138.98110199999996
 20
772.20001200000002
 40
0.25
 50
179.99999099999999
 51
269.99999700000001
  0
LINE
  8
_0-0_0
  6
CONTINUOUS
 62
    7
 10
138.73110199999996
 20
772.85000600000001
 11
138.73110199999996
 21
772.20001200000002
  0
LINE
  8
_0-0_0
  6
CONTINUOUS
 62
    7
 10
138.73110199999996
 20
772.85000600000001
 11
138.33109999999999
 21
772.85000600000001
  0
LINE
  8
_0-0_0
  6
CONTINUOUS
 62
    7
 10
138.33109999999999
 20
772.85000600000001
 11
138.33109999999999
 21
772.20001200000002
  0
ARC
  8
_0-0_0
  6
CONTINUOUS
 62
    7
 10
138.08109999999999
 20
772.20001200000002
 40
0.25
 50
269.99999700000001
 51
0
  0
LINE
  8
_0-0_0
  6
CONTINUOUS
 62
    7
 10
138.08109999999999
 20
771.95001200000002
 11
137.4310989999999
 21
771.95001200000002
  0
LINE
  8
_0-0_0
  6
CONTINUOUS
 62
    7
 10
137.4310989999999
 20
771.55001800000002
 11
137.4310989999999
 21
771.95001200000002
  0
LINE
  8
_0-0_0
  6
CONTINUOUS
 62
    7
 10
138.08109999999999
 20
771.55001800000002
 11
137.4310989999999
 21
771.55001800000002
  0
ARC
  8
_0-0_0
  6
CONTINUOUS
 62
    7
 10
138.08109999999999
 20
771.30001800000002
 40
0.25
 50
0
 51
90.000003000000007
  0
LINE
  8
_0-0_0
  6
CONTINUOUS
 62
    7
 10
138.33109999999999
 20
770.65002400000003
 11
138.33109999999999
 21
771.30001800000002
  0
LINE
  8
_0-0_0
  6
CONTINUOUS
 62
    7
 10
217.73109399999998
 20
770.65002400000003
 11
217.33109999999999
 21
770.65002400000003
  0
LINE
  8
_0-0_0
  6
CONTINUOUS
 62
    7
 10
217.73109399999998
 20
770.65002400000003
 11
217.73109399999998
 21
771.30001800000002
  0
ARC
  8
_0-0_0
  6
CONTINUOUS
 62
    7
 10
217.98109399999998
 20
771.30001800000002
 40
0.25
 50
90.000003000000007
 51
179.99999099999999
  0
LINE
  8
_0-0_0
  6
CONTINUOUS
 62
    7
 10
217.98109399999998
 20
771.55001800000002
 11
218.63110299999994
 21
771.55001800000002
  0
LINE
  8
_0-0_0
  6
CONTINUOUS
 62
    7
 10
218.63110299999994
 20
771.55001800000002
 11
218.63110299999994
 21
771.95001200000002
  0
LINE
  8
_0-0_0
  6
CONTINUOUS
 62
    7
 10
217.98109399999998
 20
771.95001200000002
 11
218.63110299999994
 21
771.95001200000002
  0
ARC
  8
_0-0_0
  6
CONTINUOUS
 62
    7
 10
217.98109399999998
 20
772.20001200000002
 40
0.25
 50
179.99999099999999
 51
269.99999700000001
  0
LINE
  8
_0-0_0
  6
CONTINUOUS
 62
    7
 10
217.73109399999998
 20
772.85000600000001
 11
217.73109399999998
 21
772.20001200000002
  0
LINE
  8
_0-0_0
  6
CONTINUOUS
 62
    7
 10
217.73109399999998
 20
772.85000600000001
 11
217.33109999999999
 21
772.85000600000001
  0
LINE
  8
_0-0_0
  6
CONTINUOUS
 62
    7
 10
217.33109999999999
 20
772.85000600000001
 11
217.33109999999999
 21
772.20001200000002
  0
ARC
  8
_0-0_0
  6
CONTINUOUS
 62
    7
 10
217.08109999999999
 20
772.20001200000002
 40
0.25
 50
269.99999700000001
 51
0
  0
LINE
  8
_0-0_0
  6
CONTINUOUS
 62
    7
 10
217.08109999999999
 20
771.95001200000002
 11
216.431107
 21
771.95001200000002
  0
LINE
  8
_0-0_0
  6
CONTINUOUS
 62
    7
 10
216.431107
 20
771.55001800000002
 11
216.431107
 21
771.95001200000002
  0
LINE
  8
_0-0_0
  6
CONTINUOUS
 62
    7
 10
217.08109999999999
 20
771.55001800000002
 11
216.431107
 21
771.55001800000002
  0
ARC
  8
_0-0_0
  6
CONTINUOUS
 62
    7
 10
217.08109999999999
 20
771.30001800000002
 40
0.25
 50
0
 51
90.000003000000007
  0
LINE
  8
_0-0_0
  6
CONTINUOUS
 62
    7
 10
217.33109999999999
 20
770.65002400000003
 11
217.33109999999999
 21
771.30001800000002
  0
LINE
  8
_0-0_0
  6
CONTINUOUS
 62
    7
 10
237.28109699999993
 20
749.39999399999999
 11
236.83900399999993
 21
749.25262500000008
  0
LINE
  8
_0-0_0
  6
CONTINUOUS
 62
    7
 10
241.005447
 20
754.65002400000003
 11
241.69880699999999
 21
754.65002400000003
  0
LINE
  8
_0-0_0
  6
CONTINUOUS
 62
    7
 10
241.005447
 20
754.65002400000003
 11
236.68089299999997
 21
754.65002400000003
  0
LINE
  8
_0-0_0
  6
CONTINUOUS
 62
    7
 10
236.20654300000001
 20
754.65002400000003
 11
236.68089299999997
 21
754.65002400000003
  0
LINE
  8
_0-0_0
  6
CONTINUOUS
 62
    7
 10
241.16355899999996
 20
769.20584099999996
 11
236.83900399999993
 21
770.64736900000003
  0
LINE
  8
_0-0_0
  6
CONTINUOUS
 62
    7
 10
130.53109699999993
 20
769.05419899999993
 11
130.53109699999993
 21
767.77832000000001
  0
ARC
  8
_0-0_0
  6
CONTINUOUS
 62
    7
 10
130.23109399999998
 20
765.55001800000002
 40
0.2999999999999999
 50
269.99999700000001
 51
0
  0
LINE
  8
_0-0_0
  6
CONTINUOUS
 62
    7
 10
128.07543199999998
 20
769.32870500000001
 11
128.07543199999998
 21
766
  0
LINE
  8
_0-0_0
  6
CONTINUOUS
 62
    7
 10
128.07543199999998
 20
770.5
 11
128.07543199999998
 21
769.32870500000001
  0
LINE
  8
_0-0_0
  6
CONTINUOUS
 62
    7
 10
242.53109699999993
 20
753.89996300000007
 11
242.53109699999993
 21
755.02099599999997
  0
LINE
  8
_0-0_0
  6
CONTINUOUS
 62
    7
 10
242.53109699999993
 20
755.94232199999999
 11
242.53109699999993
 21
755.02099599999997
  0
LINE
  8
_0-0_0
  6
CONTINUOUS
 62
    7
 10
242.23109399999998
 20
757.73800699999993
 11
242.28990199999998
 21
757.49117999999999
  0
LINE
  8
_0-0_0
  6
CONTINUOUS
 62
    7
 10
242.28990199999998
 20
757.49117999999999
 11
242.33966099999998
 21
757.29882799999996
  0
LINE
  8
_0-0_0
  6
CONTINUOUS
 62
    7
 10
242.33966099999998
 20
757.29882799999996
 11
242.410797
 21
757.033051
  0
LINE
  8
_0-0_0
  6
CONTINUOUS
 62
    7
 10
242.410797
 20
757.033051
 11
242.44375600000001
 21
756.906342
  0
LINE
  8
_0-0_0
  6
CONTINUOUS
 62
    7
 10
242.44375600000001
 20
756.906342
 11
242.46900899999991
 21
756.80291699999998
  0
LINE
  8
_0-0_0
  6
CONTINUOUS
 62
    7
 10
242.46900899999991
 20
756.80291699999998
 11
242.49104299999999
 21
756.70297200000005
  0
LINE
  8
_0-0_0
  6
CONTINUOUS
 62
    7
 10
242.49104299999999
 20
756.70297200000005
 11
242.5124209999999
 21
756.58526600000005
  0
LINE
  8
_0-0_0
  6
CONTINUOUS
 62
    7
 10
242.5124209999999
 20
756.58526600000005
 11
242.52099599999997
 21
756.52313200000003
  0
LINE
  8
_0-0_0
  6
CONTINUOUS
 62
    7
 10
242.52099599999997
 20
756.52313200000003
 11
242.52706899999998
 21
756.46252400000003
  0
LINE
  8
_0-0_0
  6
CONTINUOUS
 62
    7
 10
242.52706899999998
 20
756.46252400000003
 11
242.53007500000001
 21
756.41329999999994
  0
LINE
  8
_0-0_0
  6
CONTINUOUS
 62
    7
 10
242.53007500000001
 20
756.41329999999994
 11
242.53109699999993
 21
756.36505099999999
  0
LINE
  8
_0-0_0
  6
CONTINUOUS
 62
    7
 10
242.23109399999998
 20
762.16204800000003
 11
242.1476439999999
 21
761.78335600000003
  0
LINE
  8
_0-0_0
  6
CONTINUOUS
 62
    7
 10
242.1476439999999
 20
761.78335600000003
 11
242.10754399999996
 21
761.59182699999997
  0
LINE
  8
_0-0_0
  6
CONTINUOUS
 62
    7
 10
242.10754399999996
 20
761.59182699999997
 11
242.051468
 21
761.30181900000002
  0
LINE
  8
_0-0_0
  6
CONTINUOUS
 62
    7
 10
242.051468
 20
761.30181900000002
 11
242.01387
 21
761.08221400000002
  0
LINE
  8
_0-0_0
  6
CONTINUOUS
 62
    7
 10
242.01387
 20
761.08221400000002
 11
241.9812159999999
 21
760.86096199999997
  0
LINE
  8
_0-0_0
  6
CONTINUOUS
 62
    7
 10
241.9812159999999
 20
760.86096199999997
 11
241.95405599999992
 21
760.63415499999996
  0
LINE
  8
_0-0_0
  6
CONTINUOUS
 62
    7
 10
241.95405599999992
 20
760.63415499999996
 11
241.93398999999999
 21
760.40676899999994
  0
LINE
  8
_0-0_0
  6
CONTINUOUS
 62
    7
 10
241.93398999999999
 20
760.40676899999994
 11
241.92683399999999
 21
760.29303000000004
  0
LINE
  8
_0-0_0
  6
CONTINUOUS
 62
    7
 10
241.92683399999999
 20
760.29303000000004
 11
241.92167699999993
 21
760.17935199999999
  0
LINE
  8
_0-0_0
  6
CONTINUOUS
 62
    7
 10
241.92167699999993
 20
760.17935199999999
 11
241.91796899999997
 21
760.02792399999998
  0
LINE
  8
_0-0_0
  6
CONTINUOUS
 62
    7
 10
241.91796899999997
 20
760.02792399999998
 11
241.91790800000001
 21
759.87667800000008
  0
LINE
  8
_0-0_0
  6
CONTINUOUS
 62
    7
 10
241.91790800000001
 20
759.87667800000008
 11
241.92147799999998
 21
759.72561599999995
  0
LINE
  8
_0-0_0
  6
CONTINUOUS
 62
    7
 10
241.92147799999998
 20
759.72561599999995
 11
241.93098399999997
 21
759.53707899999995
  0
LINE
  8
_0-0_0
  6
CONTINUOUS
 62
    7
 10
241.93098399999997
 20
759.53707899999995
 11
241.94586199999992
 21
759.34881599999994
  0
LINE
  8
_0-0_0
  6
CONTINUOUS
 62
    7
 10
241.94586199999992
 20
759.34881599999994
 11
241.96577500000001
 21
759.160889
  0
LINE
  8
_0-0_0
  6
CONTINUOUS
 62
    7
 10
241.96577500000001
 20
759.160889
 11
241.98216200000002
 21
759.03201300000001
  0
LINE
  8
_0-0_0
  6
CONTINUOUS
 62
    7
 10
241.98216200000002
 20
759.03201300000001
 11
242.0005799999999
 21
758.90335099999993
  0
LINE
  8
_0-0_0
  6
CONTINUOUS
 62
    7
 10
242.0005799999999
 20
758.90335099999993
 11
242.02473399999997
 21
758.75140399999998
  0
LINE
  8
_0-0_0
  6
CONTINUOUS
 62
    7
 10
242.02473399999997
 20
758.75140399999998
 11
242.05113199999994
 21
758.60006700000008
  0
LINE
  8
_0-0_0
  6
CONTINUOUS
 62
    7
 10
242.05113199999994
 20
758.60006700000008
 11
242.10730000000001
 21
758.30944799999997
  0
LINE
  8
_0-0_0
  6
CONTINUOUS
 62
    7
 10
242.10730000000001
 20
758.30944799999997
 11
242.14746099999991
 21
758.11749299999997
  0
LINE
  8
_0-0_0
  6
CONTINUOUS
 62
    7
 10
242.14746099999991
 20
758.11749299999997
 11
242.23109399999998
 21
757.73800699999993
  0
LINE
  8
_0-0_0
  6
CONTINUOUS
 62
    7
 10
242.23110999999994
 20
762.16204800000003
 11
242.28990199999998
 21
762.40887500000008
  0
LINE
  8
_0-0_0
  6
CONTINUOUS
 62
    7
 10
242.28990199999998
 20
762.40887500000008
 11
242.33966099999998
 21
762.60119600000007
  0
LINE
  8
_0-0_0
  6
CONTINUOUS
 62
    7
 10
242.33966099999998
 20
762.60119600000007
 11
242.41078199999993
 21
762.86694299999999
  0
LINE
  8
_0-0_0
  6
CONTINUOUS
 62
    7
 10
242.41078199999993
 20
762.86694299999999
 11
242.44374099999993
 21
762.993652
  0
LINE
  8
_0-0_0
  6
CONTINUOUS
 62
    7
 10
242.44374099999993
 20
762.993652
 11
242.46900899999991
 21
763.09707600000002
  0
LINE
  8
_0-0_0
  6
CONTINUOUS
 62
    7
 10
242.46900899999991
 20
763.09707600000002
 11
242.49104299999999
 21
763.19705199999999
  0
LINE
  8
_0-0_0
  6
CONTINUOUS
 62
    7
 10
242.49104299999999
 20
763.19705199999999
 11
242.5124209999999
 21
763.31475799999998
  0
LINE
  8
_0-0_0
  6
CONTINUOUS
 62
    7
 10
242.5124209999999
 20
763.31475799999998
 11
242.52099599999997
 21
763.376892
  0
LINE
  8
_0-0_0
  6
CONTINUOUS
 62
    7
 10
242.52099599999997
 20
763.376892
 11
242.52706899999998
 21
763.4375
  0
LINE
  8
_0-0_0
  6
CONTINUOUS
 62
    7
 10
242.52706899999998
 20
763.4375
 11
242.53007500000001
 21
763.48672499999998
  0
LINE
  8
_0-0_0
  6
CONTINUOUS
 62
    7
 10
242.53007500000001
 20
763.48672499999998
 11
242.53109699999993
 21
763.534943
  0
LINE
  8
_0-0_0
  6
CONTINUOUS
 62
    7
 10
242.53109699999993
 20
767.30847199999994
 11
242.53109699999993
 21
763.95770300000004
  0
ARC
  8
_0-0_0
  6
CONTINUOUS
 62
    7
 10
240.53109699999993
 20
767.30847199999994
 40
2
 50
0
 51
71.565000999999995
  0
CIRCLE
  8
_0-0_0
  6
CONTINUOUS
 62
    7
 10
148.53109699999993
 20
765.25
 40
2.5
  0
CIRCLE
  8
_0-0_0
  6
CONTINUOUS
 62
    7
 10
204.53109699999993
 20
765.25
 40
2.5
  0
LINE
  8
_0-0_0
  6
CONTINUOUS
 62
    7
 10
127.9310989999999
 20
769.20886199999995
 11
127.9310989999999
 21
766.25
  0
LINE
  8
_0-0_0
  6
CONTINUOUS
 62
    7
 10
127.9310989999999
 20
770.25
 11
127.9310989999999
 21
769.20886199999995
  0
LINE
  8
_0-0_0
  6
CONTINUOUS
 62
    7
 10
257.53109699999993
 20
750.42456100000004
 11
257.53109699999993
 21
750.57128899999998
  0
LINE
  8
_0-0_0
  6
CONTINUOUS
 62
    7
 10
257.53109699999993
 20
750.23403899999994
 11
257.53109699999993
 21
750.42456100000004
  0
LINE
  8
_0-0_0
  6
CONTINUOUS
 62
    7
 10
257.53109699999993
 20
750.05902100000003
 11
257.53109699999993
 21
750.23403899999994
  0
LINE
  8
_0-0_0
  6
CONTINUOUS
 62
    7
 10
257.53109699999993
 20
749.90142800000001
 11
257.53109699999993
 21
750.05902100000003
  0
LINE
  8
_0-0_0
  6
CONTINUOUS
 62
    7
 10
257.53109699999993
 20
749.76299999999992
 11
257.53109699999993
 21
749.90142800000001
  0
LINE
  8
_0-0_0
  6
CONTINUOUS
 62
    7
 10
257.53109699999993
 20
749.64523299999996
 11
257.53109699999993
 21
749.76299999999992
  0
LINE
  8
_0-0_0
  6
CONTINUOUS
 62
    7
 10
257.53109699999993
 20
749.54943800000001
 11
257.53109699999993
 21
749.64523299999996
  0
LINE
  8
_0-0_0
  6
CONTINUOUS
 62
    7
 10
257.53109699999993
 20
749.47668499999997
 11
257.53109699999993
 21
749.54943800000001
  0
LINE
  8
_0-0_0
  6
CONTINUOUS
 62
    7
 10
257.53109699999993
 20
749.40002400000003
 11
257.53109699999993
 21
749.47668499999997
  0
LINE
  8
_0-0_0
  6
CONTINUOUS
 62
    7
 10
257.53109699999993
 20
749.40307600000006
 11
257.53109699999993
 21
749.42770399999995
  0
LINE
  8
_0-0_0
  6
CONTINUOUS
 62
    7
 10
257.53109699999993
 20
749.40002400000003
 11
257.53109699999993
 21
749.40307600000006
  0
LINE
  8
_0-0_0
  6
CONTINUOUS
 62
    7
 10
257.53109699999993
 20
753.89691199999993
 11
257.53109699999993
 21
753.90002400000003
  0
LINE
  8
_0-0_0
  6
CONTINUOUS
 62
    7
 10
257.53109699999993
 20
753.87231399999996
 11
257.53109699999993
 21
753.90002400000003
  0
LINE
  8
_0-0_0
  6
CONTINUOUS
 62
    7
 10
257.53109699999993
 20
753.82333399999993
 11
257.53109699999993
 21
753.87231399999996
  0
LINE
  8
_0-0_0
  6
CONTINUOUS
 62
    7
 10
257.53109699999993
 20
753.75054899999998
 11
257.53109699999993
 21
753.82333399999993
  0
LINE
  8
_0-0_0
  6
CONTINUOUS
 62
    7
 10
257.53109699999993
 20
753.65478499999995
 11
257.53109699999993
 21
753.75054899999998
  0
LINE
  8
_0-0_0
  6
CONTINUOUS
 62
    7
 10
257.53109699999993
 20
753.62457300000005
 11
257.53109699999993
 21
753.65478499999995
  0
LINE
  8
_0-0_0
  6
CONTINUOUS
 62
    7
 10
257.53109699999993
 20
753.53701799999999
 11
257.53109699999993
 21
753.62457300000005
  0
LINE
  8
_0-0_0
  6
CONTINUOUS
 62
    7
 10
257.53109699999993
 20
753.39859000000001
 11
257.53109699999993
 21
753.53701799999999
  0
LINE
  8
_0-0_0
  6
CONTINUOUS
 62
    7
 10
257.53109699999993
 20
753.24099699999999
 11
257.53109699999993
 21
753.39859000000001
  0
LINE
  8
_0-0_0
  6
CONTINUOUS
 62
    7
 10
257.53109699999993
 20
753.06597899999997
 11
257.53109699999993
 21
753.24099699999999
  0
LINE
  8
_0-0_0
  6
CONTINUOUS
 62
    7
 10
257.53109699999993
 20
752.87542699999995
 11
257.53109699999993
 21
753.06597899999997
  0
LINE
  8
_0-0_0
  6
CONTINUOUS
 62
    7
 10
257.53109699999993
 20
752.67147799999998
 11
257.53109699999993
 21
752.87542699999995
  0
LINE
  8
_0-0_0
  6
CONTINUOUS
 62
    7
 10
257.53109699999993
 20
752.45632899999998
 11
257.53109699999993
 21
752.67147799999998
  0
LINE
  8
_0-0_0
  6
CONTINUOUS
 62
    7
 10
257.53109699999993
 20
752.23236100000008
 11
257.53109699999993
 21
752.45632899999998
  0
LINE
  8
_0-0_0
  6
CONTINUOUS
 62
    7
 10
257.53109699999993
 20
752.00198399999999
 11
257.53109699999993
 21
752.23236100000008
  0
LINE
  8
_0-0_0
  6
CONTINUOUS
 62
    7
 10
257.53109699999993
 20
751.76776100000006
 11
257.53109699999993
 21
752.00198399999999
  0
LINE
  8
_0-0_0
  6
CONTINUOUS
 62
    7
 10
257.53109699999993
 20
751.53225700000007
 11
257.53109699999993
 21
751.76776100000006
  0
LINE
  8
_0-0_0
  6
CONTINUOUS
 62
    7
 10
257.53109699999993
 20
751.29803500000003
 11
257.53109699999993
 21
751.53225700000007
  0
LINE
  8
_0-0_0
  6
CONTINUOUS
 62
    7
 10
257.53109699999993
 20
751.06765700000005
 11
257.53109699999993
 21
751.29803500000003
  0
LINE
  8
_0-0_0
  6
CONTINUOUS
 62
    7
 10
257.53109699999993
 20
750.84368900000004
 11
257.53109699999993
 21
751.06765700000005
  0
LINE
  8
_0-0_0
  6
CONTINUOUS
 62
    7
 10
257.53109699999993
 20
750.62853999999993
 11
257.53109699999993
 21
750.84368900000004
  0
LINE
  8
_0-0_0
  6
CONTINUOUS
 62
    7
 10
257.53109699999993
 20
750.57128899999998
 11
257.53109699999993
 21
750.62853999999993
  0
LINE
  8
_0-0_0
  6
CONTINUOUS
 62
    7
 10
242.53109699999993
 20
758.38797
 11
242.53109699999993
 21
757.34231599999998
  0
LINE
  8
_0-0_0
  6
CONTINUOUS
 62
    7
 10
242.53109699999993
 20
756.05770899999993
 11
242.53109699999993
 21
757.34231599999998
  0
LINE
  8
_0-0_0
  6
CONTINUOUS
 62
    7
 10
242.53109699999993
 20
755.94232199999999
 11
242.53109699999993
 21
756.05770899999993
  0
LINE
  8
_0-0_0
  6
CONTINUOUS
 62
    7
 10
242.53109699999993
 20
758.38797
 11
242.53109699999993
 21
761.51205400000003
  0
LINE
  8
_0-0_0
  6
CONTINUOUS
 62
    7
 10
242.53109699999993
 20
763.95770300000004
 11
242.53109699999993
 21
763.84231599999998
  0
LINE
  8
_0-0_0
  6
CONTINUOUS
 62
    7
 10
242.53109699999993
 20
762.55770899999993
 11
242.53109699999993
 21
763.84231599999998
  0
LINE
  8
_0-0_0
  6
CONTINUOUS
 62
    7
 10
242.53109699999993
 20
762.55770899999993
 11
242.53109699999993
 21
761.51205400000003
  0
LINE
  8
_0-0_0
  6
CONTINUOUS
 62
    7
 10
242.53109699999993
 20
763.84231599999998
 11
252.238922
 21
763.84231599999998
  0
LINE
  8
_0-0_0
  6
CONTINUOUS
 62
    7
 10
252.238922
 20
766.45001200000002
 11
252.29341099999999
 21
766.38006599999994
  0
LINE
  8
_0-0_0
  6
CONTINUOUS
 62
    7
 10
252.29341099999999
 20
766.38006599999994
 11
252.34451300000001
 21
766.31124899999998
  0
LINE
  8
_0-0_0
  6
CONTINUOUS
 62
    7
 10
252.34451300000001
 20
766.31124899999998
 11
252.39215100000001
 21
766.24374399999999
  0
LINE
  8
_0-0_0
  6
CONTINUOUS
 62
    7
 10
252.39215100000001
 20
766.24374399999999
 11
252.436645
 21
766.17718500000001
  0
LINE
  8
_0-0_0
  6
CONTINUOUS
 62
    7
 10
252.436645
 20
766.17718500000001
 11
252.49136299999998
 21
766.08966099999998
  0
LINE
  8
_0-0_0
  6
CONTINUOUS
 62
    7
 10
252.49136299999998
 20
766.08966099999998
 11
252.54087800000002
 21
766.00353999999993
  0
LINE
  8
_0-0_0
  6
CONTINUOUS
 62
    7
 10
252.54087800000002
 20
766.00353999999993
 11
252.58534199999997
 21
765.91870100000006
  0
LINE
  8
_0-0_0
  6
CONTINUOUS
 62
    7
 10
252.58534199999997
 20
765.91870100000006
 11
252.63230899999996
 21
765.81839000000002
  0
LINE
  8
_0-0_0
  6
CONTINUOUS
 62
    7
 10
252.63230899999996
 20
765.81839000000002
 11
252.67251599999997
 21
765.71948199999997
  0
LINE
  8
_0-0_0
  6
CONTINUOUS
 62
    7
 10
252.67251599999997
 20
765.71948199999997
 11
252.70617699999991
 21
765.62170400000002
  0
LINE
  8
_0-0_0
  6
CONTINUOUS
 62
    7
 10
252.70617699999991
 20
765.62170400000002
 11
252.733475
 21
765.524902
  0
LINE
  8
_0-0_0
  6
CONTINUOUS
 62
    7
 10
252.733475
 20
765.524902
 11
252.75451699999996
 21
765.42886399999998
  0
LINE
  8
_0-0_0
  6
CONTINUOUS
 62
    7
 10
252.75451699999996
 20
765.42886399999998
 11
252.77044699999999
 21
765.32501200000002
  0
LINE
  8
_0-0_0
  6
CONTINUOUS
 62
    7
 10
252.77044699999999
 20
765.32501200000002
 11
252.77920499999993
 21
765.221588
  0
LINE
  8
_0-0_0
  6
CONTINUOUS
 62
    7
 10
252.77920499999993
 20
765.221588
 11
252.7808379999999
 21
765.11834700000009
  0
LINE
  8
_0-0_0
  6
CONTINUOUS
 62
    7
 10
252.7808379999999
 20
765.11834700000009
 11
252.77537499999994
 21
765.01504499999999
  0
LINE
  8
_0-0_0
  6
CONTINUOUS
 62
    7
 10
252.77537499999994
 20
765.01504499999999
 11
252.76275599999997
 21
764.91146900000001
  0
LINE
  8
_0-0_0
  6
CONTINUOUS
 62
    7
 10
252.76275599999997
 20
764.91146900000001
 11
252.74294999999995
 21
764.80731200000002
  0
LINE
  8
_0-0_0
  6
CONTINUOUS
 62
    7
 10
252.74294999999995
 20
764.80731200000002
 11
252.71580499999993
 21
764.70236199999999
  0
LINE
  8
_0-0_0
  6
CONTINUOUS
 62
    7
 10
252.71580499999993
 20
764.70236199999999
 11
252.681152
 21
764.59631300000001
  0
LINE
  8
_0-0_0
  6
CONTINUOUS
 62
    7
 10
252.681152
 20
764.59631300000001
 11
252.63880899999992
 21
764.48895300000004
  0
LINE
  8
_0-0_0
  6
CONTINUOUS
 62
    7
 10
252.63880899999992
 20
764.48895300000004
 11
252.58848599999999
 21
764.37994400000002
  0
LINE
  8
_0-0_0
  6
CONTINUOUS
 62
    7
 10
252.58848599999999
 20
764.37994400000002
 11
252.53424099999995
 21
764.276794
  0
LINE
  8
_0-0_0
  6
CONTINUOUS
 62
    7
 10
252.53424099999995
 20
764.276794
 11
252.472534
 21
764.17175300000008
  0
LINE
  8
_0-0_0
  6
CONTINUOUS
 62
    7
 10
252.472534
 20
764.17175300000008
 11
252.40301499999998
 21
764.06451399999992
  0
LINE
  8
_0-0_0
  6
CONTINUOUS
 62
    7
 10
252.40301499999998
 20
764.06451399999992
 11
252.32530199999997
 21
763.95480300000008
  0
LINE
  8
_0-0_0
  6
CONTINUOUS
 62
    7
 10
252.32530199999997
 20
763.95480300000008
 11
252.238922
 21
763.84231599999998
  0
LINE
  8
_0-0_0
  6
CONTINUOUS
 62
    7
 10
242.53109699999993
 20
766.45001200000002
 11
252.238922
 21
766.45001200000002
  0
LINE
  8
_0-0_0
  6
CONTINUOUS
 62
    7
 10
252.28109699999993
 20
766.45001200000002
 11
252.238922
 21
766.45001200000002
  0
LINE
  8
_0-0_0
  6
CONTINUOUS
 62
    7
 10
242.53109699999993
 20
756.05770899999993
 11
252.238922
 21
756.05770899999993
  0
LINE
  8
_0-0_0
  6
CONTINUOUS
 62
    7
 10
252.238922
 20
756.05770899999993
 11
252.29341099999999
 21
755.98776199999998
  0
LINE
  8
_0-0_0
  6
CONTINUOUS
 62
    7
 10
252.29341099999999
 20
755.98776199999998
 11
252.34451300000001
 21
755.91894500000001
  0
LINE
  8
_0-0_0
  6
CONTINUOUS
 62
    7
 10
252.34451300000001
 20
755.91894500000001
 11
252.39215100000001
 21
755.85144000000003
  0
LINE
  8
_0-0_0
  6
CONTINUOUS
 62
    7
 10
252.39215100000001
 20
755.85144000000003
 11
252.436645
 21
755.78488199999993
  0
LINE
  8
_0-0_0
  6
CONTINUOUS
 62
    7
 10
252.436645
 20
755.78488199999993
 11
252.49136299999998
 21
755.69735700000001
  0
LINE
  8
_0-0_0
  6
CONTINUOUS
 62
    7
 10
252.49136299999998
 20
755.69735700000001
 11
252.54087800000002
 21
755.61123700000007
  0
LINE
  8
_0-0_0
  6
CONTINUOUS
 62
    7
 10
252.54087800000002
 20
755.61123700000007
 11
252.58534199999997
 21
755.52642800000001
  0
LINE
  8
_0-0_0
  6
CONTINUOUS
 62
    7
 10
252.58534199999997
 20
755.52642800000001
 11
252.63230899999996
 21
755.42608599999994
  0
LINE
  8
_0-0_0
  6
CONTINUOUS
 62
    7
 10
252.63230899999996
 20
755.42608599999994
 11
252.67251599999997
 21
755.327179
  0
LINE
  8
_0-0_0
  6
CONTINUOUS
 62
    7
 10
252.67251599999997
 20
755.327179
 11
252.70617699999991
 21
755.22940100000005
  0
LINE
  8
_0-0_0
  6
CONTINUOUS
 62
    7
 10
252.70617699999991
 20
755.22940100000005
 11
252.733475
 21
755.13259900000003
  0
LINE
  8
_0-0_0
  6
CONTINUOUS
 62
    7
 10
252.733475
 20
755.13259900000003
 11
252.75451699999996
 21
755.03656000000001
  0
LINE
  8
_0-0_0
  6
CONTINUOUS
 62
    7
 10
252.75451699999996
 20
755.03656000000001
 11
252.77044699999999
 21
754.93270899999993
  0
LINE
  8
_0-0_0
  6
CONTINUOUS
 62
    7
 10
252.77044699999999
 20
754.93270899999993
 11
252.77920499999993
 21
754.82928500000003
  0
LINE
  8
_0-0_0
  6
CONTINUOUS
 62
    7
 10
252.77920499999993
 20
754.82928500000003
 11
252.7808379999999
 21
754.726044
  0
LINE
  8
_0-0_0
  6
CONTINUOUS
 62
    7
 10
252.7808379999999
 20
754.726044
 11
252.77537499999994
 21
754.62274200000002
  0
LINE
  8
_0-0_0
  6
CONTINUOUS
 62
    7
 10
252.77537499999994
 20
754.62274200000002
 11
252.76275599999997
 21
754.51916499999993
  0
LINE
  8
_0-0_0
  6
CONTINUOUS
 62
    7
 10
252.76275599999997
 20
754.51916499999993
 11
252.74294999999995
 21
754.41500900000005
  0
LINE
  8
_0-0_0
  6
CONTINUOUS
 62
    7
 10
252.74294999999995
 20
754.41500900000005
 11
252.71580499999993
 21
754.31005900000002
  0
LINE
  8
_0-0_0
  6
CONTINUOUS
 62
    7
 10
252.71580499999993
 20
754.31005900000002
 11
252.681152
 21
754.20400999999993
  0
LINE
  8
_0-0_0
  6
CONTINUOUS
 62
    7
 10
252.681152
 20
754.20400999999993
 11
252.63880899999992
 21
754.09661899999992
  0
LINE
  8
_0-0_0
  6
CONTINUOUS
 62
    7
 10
252.63880899999992
 20
754.09661899999992
 11
252.58848599999999
 21
753.98764000000006
  0
LINE
  8
_0-0_0
  6
CONTINUOUS
 62
    7
 10
252.58848599999999
 20
753.98764000000006
 11
252.54280099999994
 21
753.89996300000007
  0
LINE
  8
_0-0_0
  6
CONTINUOUS
 62
    7
 10
257.53109699999993
 20
750.42456100000004
 11
257.78109699999993
 21
750.40002400000003
  0
LINE
  8
_0-0_0
  6
CONTINUOUS
 62
    7
 10
257.53109699999993
 20
750.62853999999993
 11
257.78109699999993
 21
750.40002400000003
  0
LINE
  8
_0-0_0
  6
CONTINUOUS
 62
    7
 10
257.53109699999993
 20
750.23403899999994
 11
257.78109699999993
 21
750.18054200000006
  0
LINE
  8
_0-0_0
  6
CONTINUOUS
 62
    7
 10
257.53109699999993
 20
750.42456100000004
 11
257.78109699999993
 21
750.18054200000006
  0
LINE
  8
_0-0_0
  6
CONTINUOUS
 62
    7
 10
257.53109699999993
 20
750.05902100000003
 11
257.78109699999993
 21
749.97717299999999
  0
LINE
  8
_0-0_0
  6
CONTINUOUS
 62
    7
 10
257.53109699999993
 20
750.23403899999994
 11
257.78109699999993
 21
749.97717299999999
  0
LINE
  8
_0-0_0
  6
CONTINUOUS
 62
    7
 10
257.53109699999993
 20
749.90142800000001
 11
257.78109699999993
 21
749.792145
  0
LINE
  8
_0-0_0
  6
CONTINUOUS
 62
    7
 10
257.53109699999993
 20
750.05902100000003
 11
257.78109699999993
 21
749.792145
  0
LINE
  8
_0-0_0
  6
CONTINUOUS
 62
    7
 10
257.53109699999993
 20
749.76299999999992
 11
257.78109699999993
 21
749.62747200000001
  0
LINE
  8
_0-0_0
  6
CONTINUOUS
 62
    7
 10
257.53109699999993
 20
749.90142800000001
 11
257.78109699999993
 21
749.62747200000001
  0
LINE
  8
_0-0_0
  6
CONTINUOUS
 62
    7
 10
257.53109699999993
 20
749.64523299999996
 11
257.78109699999993
 21
749.48495500000001
  0
LINE
  8
_0-0_0
  6
CONTINUOUS
 62
    7
 10
257.53109699999993
 20
749.76299999999992
 11
257.78109699999993
 21
749.48495500000001
  0
LINE
  8
_0-0_0
  6
CONTINUOUS
 62
    7
 10
257.53109699999993
 20
749.54943800000001
 11
257.78109699999993
 21
749.36615000000006
  0
LINE
  8
_0-0_0
  6
CONTINUOUS
 62
    7
 10
257.53109699999993
 20
749.64523299999996
 11
257.78109699999993
 21
749.36615000000006
  0
LINE
  8
_0-0_0
  6
CONTINUOUS
 62
    7
 10
257.53109699999993
 20
749.47668499999997
 11
257.78109699999993
 21
749.27236900000003
  0
LINE
  8
_0-0_0
  6
CONTINUOUS
 62
    7
 10
257.53109699999993
 20
749.54943800000001
 11
257.78109699999993
 21
749.27236900000003
  0
LINE
  8
_0-0_0
  6
CONTINUOUS
 62
    7
 10
257.53109699999993
 20
749.42770399999995
 11
257.78109699999993
 21
749.20465100000001
  0
LINE
  8
_0-0_0
  6
CONTINUOUS
 62
    7
 10
257.53109699999993
 20
749.47668499999997
 11
257.78109699999993
 21
749.20465100000001
  0
LINE
  8
_0-0_0
  6
CONTINUOUS
 62
    7
 10
257.53109699999993
 20
749.40307600000006
 11
257.78109699999993
 21
749.16369600000007
  0
LINE
  8
_0-0_0
  6
CONTINUOUS
 62
    7
 10
257.53109699999993
 20
749.42770399999995
 11
257.78109699999993
 21
749.16369600000007
  0
LINE
  8
_0-0_0
  6
CONTINUOUS
 62
    7
 10
257.53109699999993
 20
749.40307600000006
 11
257.78109699999993
 21
749.15002400000003
  0
LINE
  8
_0-0_0
  6
CONTINUOUS
 62
    7
 10
257.53109699999993
 20
753.89691199999993
 11
257.78109699999993
 21
754.15002400000003
  0
LINE
  8
_0-0_0
  6
CONTINUOUS
 62
    7
 10
257.53109699999993
 20
753.87231399999996
 11
257.78109699999993
 21
754.13632200000006
  0
LINE
  8
_0-0_0
  6
CONTINUOUS
 62
    7
 10
257.53109699999993
 20
753.89691199999993
 11
257.78109699999993
 21
754.13632200000006
  0
LINE
  8
_0-0_0
  6
CONTINUOUS
 62
    7
 10
257.53109699999993
 20
753.82333399999993
 11
257.78109699999993
 21
754.09536700000001
  0
LINE
  8
_0-0_0
  6
CONTINUOUS
 62
    7
 10
257.53109699999993
 20
753.87231399999996
 11
257.78109699999993
 21
754.09536700000001
  0
LINE
  8
_0-0_0
  6
CONTINUOUS
 62
    7
 10
257.53109699999993
 20
753.75054899999998
 11
257.78109699999993
 21
754.027649
  0
LINE
  8
_0-0_0
  6
CONTINUOUS
 62
    7
 10
257.53109699999993
 20
753.82333399999993
 11
257.78109699999993
 21
754.027649
  0
LINE
  8
_0-0_0
  6
CONTINUOUS
 62
    7
 10
257.53109699999993
 20
753.65478499999995
 11
257.78109699999993
 21
753.93386800000007
  0
LINE
  8
_0-0_0
  6
CONTINUOUS
 62
    7
 10
257.53109699999993
 20
753.75054899999998
 11
257.78109699999993
 21
753.93386800000007
  0
LINE
  8
_0-0_0
  6
CONTINUOUS
 62
    7
 10
257.53109699999993
 20
753.65478499999995
 11
257.66107199999999
 21
753.73861699999998
  0
LINE
  8
_0-0_0
  6
CONTINUOUS
 62
    7
 10
257.53109699999993
 20
753.53701799999999
 11
257.78109699999993
 21
753.81506300000001
  0
LINE
  8
_0-0_0
  6
CONTINUOUS
 62
    7
 10
257.66107199999999
 20
753.73861699999998
 11
257.78109699999993
 21
753.81506300000001
  0
LINE
  8
_0-0_0
  6
CONTINUOUS
 62
    7
 10
257.53109699999993
 20
753.39859000000001
 11
257.78109699999993
 21
753.67254600000001
  0
LINE
  8
_0-0_0
  6
CONTINUOUS
 62
    7
 10
257.53109699999993
 20
753.53701799999999
 11
257.78109699999993
 21
753.67254600000001
  0
LINE
  8
_0-0_0
  6
CONTINUOUS
 62
    7
 10
257.53109699999993
 20
753.24099699999999
 11
257.78109699999993
 21
753.50787400000002
  0
LINE
  8
_0-0_0
  6
CONTINUOUS
 62
    7
 10
257.53109699999993
 20
753.39859000000001
 11
257.78109699999993
 21
753.50787400000002
  0
LINE
  8
_0-0_0
  6
CONTINUOUS
 62
    7
 10
257.53109699999993
 20
753.06597899999997
 11
257.78109699999993
 21
753.32284499999992
  0
LINE
  8
_0-0_0
  6
CONTINUOUS
 62
    7
 10
257.53109699999993
 20
753.24099699999999
 11
257.78109699999993
 21
753.32284499999992
  0
LINE
  8
_0-0_0
  6
CONTINUOUS
 62
    7
 10
257.53109699999993
 20
752.87542699999995
 11
257.78109699999993
 21
753.11947600000008
  0
LINE
  8
_0-0_0
  6
CONTINUOUS
 62
    7
 10
257.53109699999993
 20
753.06597899999997
 11
257.78109699999993
 21
753.11947600000008
  0
LINE
  8
_0-0_0
  6
CONTINUOUS
 62
    7
 10
257.53109699999993
 20
752.67147799999998
 11
257.78109699999993
 21
752.90002400000003
  0
LINE
  8
_0-0_0
  6
CONTINUOUS
 62
    7
 10
257.53109699999993
 20
752.87542699999995
 11
257.78109699999993
 21
752.90002400000003
  0
LINE
  8
_0-0_0
  6
CONTINUOUS
 62
    7
 10
257.53109699999993
 20
752.45632899999998
 11
257.78109699999993
 21
752.66683999999998
  0
LINE
  8
_0-0_0
  6
CONTINUOUS
 62
    7
 10
257.53109699999993
 20
752.67147799999998
 11
257.78109699999993
 21
752.66683999999998
  0
LINE
  8
_0-0_0
  6
CONTINUOUS
 62
    7
 10
257.53109699999993
 20
752.23236100000008
 11
257.78109699999993
 21
752.42254600000001
  0
LINE
  8
_0-0_0
  6
CONTINUOUS
 62
    7
 10
257.53109699999993
 20
752.45632899999998
 11
257.78109699999993
 21
752.42254600000001
  0
LINE
  8
_0-0_0
  6
CONTINUOUS
 62
    7
 10
257.53109699999993
 20
752.00198399999999
 11
257.78109699999993
 21
752.16980000000001
  0
LINE
  8
_0-0_0
  6
CONTINUOUS
 62
    7
 10
257.53109699999993
 20
752.23236100000008
 11
257.78109699999993
 21
752.16980000000001
  0
LINE
  8
_0-0_0
  6
CONTINUOUS
 62
    7
 10
257.53109699999993
 20
751.76776100000006
 11
257.78109699999993
 21
751.91131599999994
  0
LINE
  8
_0-0_0
  6
CONTINUOUS
 62
    7
 10
257.53109699999993
 20
752.00198399999999
 11
257.78109699999993
 21
751.91131599999994
  0
LINE
  8
_0-0_0
  6
CONTINUOUS
 62
    7
 10
257.53109699999993
 20
751.53225700000007
 11
257.78109699999993
 21
751.65002400000003
  0
LINE
  8
_0-0_0
  6
CONTINUOUS
 62
    7
 10
257.53109699999993
 20
751.76776100000006
 11
257.78109699999993
 21
751.65002400000003
  0
LINE
  8
_0-0_0
  6
CONTINUOUS
 62
    7
 10
257.53109699999993
 20
751.29803500000003
 11
257.78109699999993
 21
751.38867200000004
  0
LINE
  8
_0-0_0
  6
CONTINUOUS
 62
    7
 10
257.53109699999993
 20
751.53225700000007
 11
257.78109699999993
 21
751.38867200000004
  0
LINE
  8
_0-0_0
  6
CONTINUOUS
 62
    7
 10
257.53109699999993
 20
751.06765700000005
 11
257.78109699999993
 21
751.13021900000001
  0
LINE
  8
_0-0_0
  6
CONTINUOUS
 62
    7
 10
257.53109699999993
 20
751.29803500000003
 11
257.78109699999993
 21
751.13021900000001
  0
LINE
  8
_0-0_0
  6
CONTINUOUS
 62
    7
 10
257.53109699999993
 20
750.84368900000004
 11
257.78109699999993
 21
750.87747200000001
  0
LINE
  8
_0-0_0
  6
CONTINUOUS
 62
    7
 10
257.53109699999993
 20
751.06765700000005
 11
257.78109699999993
 21
750.87747200000001
  0
LINE
  8
_0-0_0
  6
CONTINUOUS
 62
    7
 10
257.53109699999993
 20
750.62853999999993
 11
257.78109699999993
 21
750.63317899999993
  0
LINE
  8
_0-0_0
  6
CONTINUOUS
 62
    7
 10
257.53109699999993
 20
750.84368900000004
 11
257.78109699999993
 21
750.63317899999993
  0
LINE
  8
_0-0_0
  6
CONTINUOUS
 62
    7
 10
242.53109699999993
 20
757.34231599999998
 11
252.238922
 21
757.34231599999998
  0
LINE
  8
_0-0_0
  6
CONTINUOUS
 62
    7
 10
252.238922
 20
757.34231599999998
 11
252.3332519999999
 21
757.58892800000001
  0
LINE
  8
_0-0_0
  6
CONTINUOUS
 62
    7
 10
252.3332519999999
 20
757.58892800000001
 11
252.41720599999996
 21
757.82891799999993
  0
LINE
  8
_0-0_0
  6
CONTINUOUS
 62
    7
 10
252.41720599999996
 20
757.82891799999993
 11
252.49136299999998
 21
758.06301899999994
  0
LINE
  8
_0-0_0
  6
CONTINUOUS
 62
    7
 10
252.49136299999998
 20
758.06301899999994
 11
252.55624399999999
 21
758.29205300000001
  0
LINE
  8
_0-0_0
  6
CONTINUOUS
 62
    7
 10
252.55624399999999
 20
758.29205300000001
 11
252.61228899999992
 21
758.51672400000007
  0
LINE
  8
_0-0_0
  6
CONTINUOUS
 62
    7
 10
252.61228899999992
 20
758.51672400000007
 11
252.659851
 21
758.73770100000002
  0
LINE
  8
_0-0_0
  6
CONTINUOUS
 62
    7
 10
252.659851
 20
758.73770100000002
 11
252.69924900000001
 21
758.95562700000005
  0
LINE
  8
_0-0_0
  6
CONTINUOUS
 62
    7
 10
252.69924900000001
 20
758.95562700000005
 11
252.73074299999996
 21
759.17108200000007
  0
LINE
  8
_0-0_0
  6
CONTINUOUS
 62
    7
 10
252.73074299999996
 20
759.17108200000007
 11
252.75451699999996
 21
759.38461299999994
  0
LINE
  8
_0-0_0
  6
CONTINUOUS
 62
    7
 10
252.75451699999996
 20
759.38461299999994
 11
252.77044699999999
 21
759.59231599999998
  0
LINE
  8
_0-0_0
  6
CONTINUOUS
 62
    7
 10
252.77044699999999
 20
759.59231599999998
 11
252.77920499999993
 21
759.79916400000002
  0
LINE
  8
_0-0_0
  6
CONTINUOUS
 62
    7
 10
252.77920499999993
 20
759.79916400000002
 11
252.7808379999999
 21
760.00564600000007
  0
LINE
  8
_0-0_0
  6
CONTINUOUS
 62
    7
 10
252.7808379999999
 20
760.00564600000007
 11
252.77537499999994
 21
760.212219
  0
LINE
  8
_0-0_0
  6
CONTINUOUS
 62
    7
 10
252.77537499999994
 20
760.212219
 11
252.76275599999997
 21
760.41940299999999
  0
LINE
  8
_0-0_0
  6
CONTINUOUS
 62
    7
 10
252.76275599999997
 20
760.41940299999999
 11
252.74294999999995
 21
760.62771599999996
  0
LINE
  8
_0-0_0
  6
CONTINUOUS
 62
    7
 10
252.74294999999995
 20
760.62771599999996
 11
252.71580499999993
 21
760.83761600000003
  0
LINE
  8
_0-0_0
  6
CONTINUOUS
 62
    7
 10
252.71580499999993
 20
760.83761600000003
 11
252.681152
 21
761.04968299999996
  0
LINE
  8
_0-0_0
  6
CONTINUOUS
 62
    7
 10
252.681152
 20
761.04968299999996
 11
252.63880899999992
 21
761.26443500000005
  0
LINE
  8
_0-0_0
  6
CONTINUOUS
 62
    7
 10
252.63880899999992
 20
761.26443500000005
 11
252.58848599999999
 21
761.48245199999997
  0
LINE
  8
_0-0_0
  6
CONTINUOUS
 62
    7
 10
252.58848599999999
 20
761.48245199999997
 11
252.53424099999995
 21
761.68872099999999
  0
LINE
  8
_0-0_0
  6
CONTINUOUS
 62
    7
 10
252.53424099999995
 20
761.68872099999999
 11
252.472534
 21
761.89883400000008
  0
LINE
  8
_0-0_0
  6
CONTINUOUS
 62
    7
 10
252.472534
 20
761.89883400000008
 11
252.40301499999998
 21
762.11331199999995
  0
LINE
  8
_0-0_0
  6
CONTINUOUS
 62
    7
 10
252.40301499999998
 20
762.11331199999995
 11
252.32530199999997
 21
762.33273299999996
  0
LINE
  8
_0-0_0
  6
CONTINUOUS
 62
    7
 10
252.32530199999997
 20
762.33273299999996
 11
252.238922
 21
762.55770899999993
  0
LINE
  8
_0-0_0
  6
CONTINUOUS
 62
    7
 10
242.53109699999993
 20
762.55770899999993
 11
252.238922
 21
762.55770899999993
  0
ARC
  8
_0-0_0
  6
CONTINUOUS
 62
    7
 10
247.36737099999993
 20
756.70001200000002
 40
4.9136889999999998
 50
352.48898799999995
 51
7.5110139999999577
  0
ARC
  8
_0-0_0
  6
CONTINUOUS
 62
    7
 10
247.3572079999999
 20
763.20089699999994
 40
4.9238749999999998
 50
352.49423299999995
 51
1.5359699999999901
  0
ARC
  8
_0-0_0
  6
CONTINUOUS
 62
    7
 10
247.31918299999995
 20
763.19595299999992
 40
4.9620009999999999
 50
1.5813010000000001
 51
7.4847919999999997
  0
LINE
  8
_0-0_0
  6
CONTINUOUS
 62
    7
 10
253.53109699999993
 20
762.68154900000002
 11
253.53109699999993
 21
765.20001200000002
  0
LINE
  8
_0-0_0
  6
CONTINUOUS
 62
    7
 10
253.53109699999993
 20
754.70001200000002
 11
253.53109699999993
 21
762.68154900000002
  0
LINE
  8
_0-0_0
  6
CONTINUOUS
 62
    7
 10
267.28109699999993
 20
750.42456100000004
 11
267.03109699999993
 21
750.40002400000003
  0
LINE
  8
_0-0_0
  6
CONTINUOUS
 62
    7
 10
267.03109699999993
 20
750.40002400000003
 11
257.78109699999993
 21
750.40002400000003
  0
LINE
  8
_0-0_0
  6
CONTINUOUS
 62
    7
 10
267.28109699999993
 20
750.62853999999993
 11
267.03109699999993
 21
750.40002400000003
  0
LINE
  8
_0-0_0
  6
CONTINUOUS
 62
    7
 10
267.28109699999993
 20
750.62853999999993
 11
257.53109699999993
 21
750.62853999999993
  0
LINE
  8
_0-0_0
  6
CONTINUOUS
 62
    7
 10
267.28109699999993
 20
750.23403899999994
 11
267.03109699999993
 21
750.18054200000006
  0
LINE
  8
_0-0_0
  6
CONTINUOUS
 62
    7
 10
267.03109699999993
 20
750.18054200000006
 11
257.78109699999993
 21
750.18054200000006
  0
LINE
  8
_0-0_0
  6
CONTINUOUS
 62
    7
 10
267.28109699999993
 20
750.42456100000004
 11
267.03109699999993
 21
750.18054200000006
  0
LINE
  8
_0-0_0
  6
CONTINUOUS
 62
    7
 10
267.28109699999993
 20
750.05902100000003
 11
267.03109699999993
 21
749.97717299999999
  0
LINE
  8
_0-0_0
  6
CONTINUOUS
 62
    7
 10
267.03109699999993
 20
749.97717299999999
 11
257.78109699999993
 21
749.97717299999999
  0
LINE
  8
_0-0_0
  6
CONTINUOUS
 62
    7
 10
267.28109699999993
 20
750.23403899999994
 11
267.03109699999993
 21
749.97717299999999
  0
LINE
  8
_0-0_0
  6
CONTINUOUS
 62
    7
 10
267.28109699999993
 20
749.90142800000001
 11
267.03109699999993
 21
749.792145
  0
LINE
  8
_0-0_0
  6
CONTINUOUS
 62
    7
 10
267.03109699999993
 20
749.792145
 11
257.78109699999993
 21
749.792145
  0
LINE
  8
_0-0_0
  6
CONTINUOUS
 62
    7
 10
267.28109699999993
 20
750.05902100000003
 11
267.03109699999993
 21
749.792145
  0
LINE
  8
_0-0_0
  6
CONTINUOUS
 62
    7
 10
267.28109699999993
 20
749.76299999999992
 11
267.03109699999993
 21
749.62747200000001
  0
LINE
  8
_0-0_0
  6
CONTINUOUS
 62
    7
 10
267.03109699999993
 20
749.62747200000001
 11
257.78109699999993
 21
749.62747200000001
  0
LINE
  8
_0-0_0
  6
CONTINUOUS
 62
    7
 10
267.28109699999993
 20
749.90142800000001
 11
267.03109699999993
 21
749.62747200000001
  0
LINE
  8
_0-0_0
  6
CONTINUOUS
 62
    7
 10
267.28109699999993
 20
749.64523299999996
 11
267.03109699999993
 21
749.48495500000001
  0
LINE
  8
_0-0_0
  6
CONTINUOUS
 62
    7
 10
267.03109699999993
 20
749.48495500000001
 11
257.78109699999993
 21
749.48495500000001
  0
LINE
  8
_0-0_0
  6
CONTINUOUS
 62
    7
 10
267.28109699999993
 20
749.76299999999992
 11
267.03109699999993
 21
749.48495500000001
  0
LINE
  8
_0-0_0
  6
CONTINUOUS
 62
    7
 10
267.28109699999993
 20
749.54943800000001
 11
267.03109699999993
 21
749.36615000000006
  0
LINE
  8
_0-0_0
  6
CONTINUOUS
 62
    7
 10
267.03109699999993
 20
749.36615000000006
 11
257.78109699999993
 21
749.36615000000006
  0
LINE
  8
_0-0_0
  6
CONTINUOUS
 62
    7
 10
267.28109699999993
 20
749.64523299999996
 11
267.03109699999993
 21
749.36615000000006
  0
LINE
  8
_0-0_0
  6
CONTINUOUS
 62
    7
 10
267.28109699999993
 20
749.47668499999997
 11
267.03109699999993
 21
749.27236900000003
  0
LINE
  8
_0-0_0
  6
CONTINUOUS
 62
    7
 10
267.03109699999993
 20
749.27236900000003
 11
257.78109699999993
 21
749.27236900000003
  0
LINE
  8
_0-0_0
  6
CONTINUOUS
 62
    7
 10
267.28109699999993
 20
749.54943800000001
 11
267.03109699999993
 21
749.27236900000003
  0
LINE
  8
_0-0_0
  6
CONTINUOUS
 62
    7
 10
267.28109699999993
 20
749.42770399999995
 11
267.03109699999993
 21
749.20465100000001
  0
LINE
  8
_0-0_0
  6
CONTINUOUS
 62
    7
 10
267.03109699999993
 20
749.20465100000001
 11
257.78109699999993
 21
749.20465100000001
  0
LINE
  8
_0-0_0
  6
CONTINUOUS
 62
    7
 10
267.28109699999993
 20
749.47668499999997
 11
267.03109699999993
 21
749.20465100000001
  0
LINE
  8
_0-0_0
  6
CONTINUOUS
 62
    7
 10
267.28109699999993
 20
749.40307600000006
 11
267.03109699999993
 21
749.16369600000007
  0
LINE
  8
_0-0_0
  6
CONTINUOUS
 62
    7
 10
267.03109699999993
 20
749.16369600000007
 11
257.78109699999993
 21
749.16369600000007
  0
LINE
  8
_0-0_0
  6
CONTINUOUS
 62
    7
 10
267.28109699999993
 20
749.42770399999995
 11
267.03109699999993
 21
749.16369600000007
  0
LINE
  8
_0-0_0
  6
CONTINUOUS
 62
    7
 10
267.03109699999993
 20
749.15002400000003
 11
257.78109699999993
 21
749.15002400000003
  0
LINE
  8
_0-0_0
  6
CONTINUOUS
 62
    7
 10
267.28109699999993
 20
749.40307600000006
 11
267.03109699999993
 21
749.15002400000003
  0
LINE
  8
_0-0_0
  6
CONTINUOUS
 62
    7
 10
267.28109699999993
 20
753.89691199999993
 11
267.03109699999993
 21
754.15002400000003
  0
LINE
  8
_0-0_0
  6
CONTINUOUS
 62
    7
 10
267.03109699999993
 20
754.15002400000003
 11
257.78109699999993
 21
754.15002400000003
  0
LINE
  8
_0-0_0
  6
CONTINUOUS
 62
    7
 10
267.28109699999993
 20
753.87231399999996
 11
267.03109699999993
 21
754.13632200000006
  0
LINE
  8
_0-0_0
  6
CONTINUOUS
 62
    7
 10
267.03109699999993
 20
754.13632200000006
 11
257.78109699999993
 21
754.13632200000006
  0
LINE
  8
_0-0_0
  6
CONTINUOUS
 62
    7
 10
267.28109699999993
 20
753.89691199999993
 11
267.03109699999993
 21
754.13632200000006
  0
LINE
  8
_0-0_0
  6
CONTINUOUS
 62
    7
 10
267.28109699999993
 20
753.82333399999993
 11
267.03109699999993
 21
754.09536700000001
  0
LINE
  8
_0-0_0
  6
CONTINUOUS
 62
    7
 10
267.03109699999993
 20
754.09536700000001
 11
257.78109699999993
 21
754.09536700000001
  0
LINE
  8
_0-0_0
  6
CONTINUOUS
 62
    7
 10
267.28109699999993
 20
753.87231399999996
 11
267.03109699999993
 21
754.09536700000001
  0
LINE
  8
_0-0_0
  6
CONTINUOUS
 62
    7
 10
267.28109699999993
 20
753.75054899999998
 11
267.03109699999993
 21
754.027649
  0
LINE
  8
_0-0_0
  6
CONTINUOUS
 62
    7
 10
267.03109699999993
 20
754.027649
 11
257.78109699999993
 21
754.027649
  0
LINE
  8
_0-0_0
  6
CONTINUOUS
 62
    7
 10
267.28109699999993
 20
753.82333399999993
 11
267.03109699999993
 21
754.027649
  0
LINE
  8
_0-0_0
  6
CONTINUOUS
 62
    7
 10
267.28109699999993
 20
753.65478499999995
 11
267.03109699999993
 21
753.93386800000007
  0
LINE
  8
_0-0_0
  6
CONTINUOUS
 62
    7
 10
267.03109699999993
 20
753.93386800000007
 11
257.78109699999993
 21
753.93386800000007
  0
LINE
  8
_0-0_0
  6
CONTINUOUS
 62
    7
 10
267.28109699999993
 20
753.75054899999998
 11
267.03109699999993
 21
753.93386800000007
  0
LINE
  8
_0-0_0
  6
CONTINUOUS
 62
    7
 10
267.03109699999993
 20
753.81506300000001
 11
257.78109699999993
 21
753.81506300000001
  0
LINE
  8
_0-0_0
  6
CONTINUOUS
 62
    7
 10
267.15113799999995
 20
753.73861699999998
 11
267.03109699999993
 21
753.81506300000001
  0
LINE
  8
_0-0_0
  6
CONTINUOUS
 62
    7
 10
267.28109699999993
 20
753.65478499999995
 11
267.15113799999995
 21
753.73861699999998
  0
LINE
  8
_0-0_0
  6
CONTINUOUS
 62
    7
 10
267.28109699999993
 20
753.53701799999999
 11
267.03109699999993
 21
753.81506300000001
  0
LINE
  8
_0-0_0
  6
CONTINUOUS
 62
    7
 10
267.28109699999993
 20
753.39859000000001
 11
267.03109699999993
 21
753.67254600000001
  0
LINE
  8
_0-0_0
  6
CONTINUOUS
 62
    7
 10
267.03109699999993
 20
753.67254600000001
 11
257.78109699999993
 21
753.67254600000001
  0
LINE
  8
_0-0_0
  6
CONTINUOUS
 62
    7
 10
267.28109699999993
 20
753.53701799999999
 11
267.03109699999993
 21
753.67254600000001
  0
LINE
  8
_0-0_0
  6
CONTINUOUS
 62
    7
 10
267.28109699999993
 20
753.24099699999999
 11
267.03109699999993
 21
753.50787400000002
  0
LINE
  8
_0-0_0
  6
CONTINUOUS
 62
    7
 10
267.03109699999993
 20
753.50787400000002
 11
257.78109699999993
 21
753.50787400000002
  0
LINE
  8
_0-0_0
  6
CONTINUOUS
 62
    7
 10
267.28109699999993
 20
753.39859000000001
 11
267.03109699999993
 21
753.50787400000002
  0
LINE
  8
_0-0_0
  6
CONTINUOUS
 62
    7
 10
267.28109699999993
 20
753.06597899999997
 11
267.03109699999993
 21
753.32284499999992
  0
LINE
  8
_0-0_0
  6
CONTINUOUS
 62
    7
 10
267.03109699999993
 20
753.32284499999992
 11
257.78109699999993
 21
753.32284499999992
  0
LINE
  8
_0-0_0
  6
CONTINUOUS
 62
    7
 10
267.28109699999993
 20
753.24099699999999
 11
267.03109699999993
 21
753.32284499999992
  0
LINE
  8
_0-0_0
  6
CONTINUOUS
 62
    7
 10
267.28109699999993
 20
752.87542699999995
 11
267.03109699999993
 21
753.11947600000008
  0
LINE
  8
_0-0_0
  6
CONTINUOUS
 62
    7
 10
267.03109699999993
 20
753.11947600000008
 11
257.78109699999993
 21
753.11947600000008
  0
LINE
  8
_0-0_0
  6
CONTINUOUS
 62
    7
 10
267.28109699999993
 20
753.06597899999997
 11
267.03109699999993
 21
753.11947600000008
  0
LINE
  8
_0-0_0
  6
CONTINUOUS
 62
    7
 10
267.28109699999993
 20
752.67147799999998
 11
267.03109699999993
 21
752.90002400000003
  0
LINE
  8
_0-0_0
  6
CONTINUOUS
 62
    7
 10
267.03109699999993
 20
752.90002400000003
 11
257.78109699999993
 21
752.90002400000003
  0
LINE
  8
_0-0_0
  6
CONTINUOUS
 62
    7
 10
267.28109699999993
 20
752.67147799999998
 11
257.53109699999993
 21
752.67147799999998
  0
LINE
  8
_0-0_0
  6
CONTINUOUS
 62
    7
 10
267.28109699999993
 20
752.87542699999995
 11
267.03109699999993
 21
752.90002400000003
  0
LINE
  8
_0-0_0
  6
CONTINUOUS
 62
    7
 10
267.28109699999993
 20
752.45632899999998
 11
267.03109699999993
 21
752.66683999999998
  0
LINE
  8
_0-0_0
  6
CONTINUOUS
 62
    7
 10
267.03109699999993
 20
752.66683999999998
 11
257.78109699999993
 21
752.66683999999998
  0
LINE
  8
_0-0_0
  6
CONTINUOUS
 62
    7
 10
267.28109699999993
 20
752.45632899999998
 11
257.53109699999993
 21
752.45632899999998
  0
LINE
  8
_0-0_0
  6
CONTINUOUS
 62
    7
 10
267.28109699999993
 20
752.67147799999998
 11
267.03109699999993
 21
752.66683999999998
  0
LINE
  8
_0-0_0
  6
CONTINUOUS
 62
    7
 10
267.28109699999993
 20
752.23236100000008
 11
267.03109699999993
 21
752.42254600000001
  0
LINE
  8
_0-0_0
  6
CONTINUOUS
 62
    7
 10
267.03109699999993
 20
752.42254600000001
 11
257.78109699999993
 21
752.42254600000001
  0
LINE
  8
_0-0_0
  6
CONTINUOUS
 62
    7
 10
267.28109699999993
 20
752.23236100000008
 11
257.53109699999993
 21
752.23236100000008
  0
LINE
  8
_0-0_0
  6
CONTINUOUS
 62
    7
 10
267.28109699999993
 20
752.45632899999998
 11
267.03109699999993
 21
752.42254600000001
  0
LINE
  8
_0-0_0
  6
CONTINUOUS
 62
    7
 10
267.28109699999993
 20
752.00198399999999
 11
267.03109699999993
 21
752.16980000000001
  0
LINE
  8
_0-0_0
  6
CONTINUOUS
 62
    7
 10
267.03109699999993
 20
752.16980000000001
 11
257.78109699999993
 21
752.16980000000001
  0
LINE
  8
_0-0_0
  6
CONTINUOUS
 62
    7
 10
267.28109699999993
 20
752.00198399999999
 11
257.53109699999993
 21
752.00198399999999
  0
LINE
  8
_0-0_0
  6
CONTINUOUS
 62
    7
 10
267.28109699999993
 20
752.23236100000008
 11
267.03109699999993
 21
752.16980000000001
  0
LINE
  8
_0-0_0
  6
CONTINUOUS
 62
    7
 10
267.28109699999993
 20
751.76776100000006
 11
267.03109699999993
 21
751.91131599999994
  0
LINE
  8
_0-0_0
  6
CONTINUOUS
 62
    7
 10
267.03109699999993
 20
751.91131599999994
 11
257.78109699999993
 21
751.91131599999994
  0
LINE
  8
_0-0_0
  6
CONTINUOUS
 62
    7
 10
267.28109699999993
 20
751.76776100000006
 11
257.53109699999993
 21
751.76776100000006
  0
LINE
  8
_0-0_0
  6
CONTINUOUS
 62
    7
 10
267.28109699999993
 20
752.00198399999999
 11
267.03109699999993
 21
751.91131599999994
  0
LINE
  8
_0-0_0
  6
CONTINUOUS
 62
    7
 10
267.28109699999993
 20
751.53225700000007
 11
267.03109699999993
 21
751.65002400000003
  0
LINE
  8
_0-0_0
  6
CONTINUOUS
 62
    7
 10
267.03109699999993
 20
751.65002400000003
 11
257.78109699999993
 21
751.65002400000003
  0
LINE
  8
_0-0_0
  6
CONTINUOUS
 62
    7
 10
267.28109699999993
 20
751.53225700000007
 11
257.53109699999993
 21
751.53225700000007
  0
LINE
  8
_0-0_0
  6
CONTINUOUS
 62
    7
 10
267.28109699999993
 20
751.76776100000006
 11
267.03109699999993
 21
751.65002400000003
  0
LINE
  8
_0-0_0
  6
CONTINUOUS
 62
    7
 10
267.28109699999993
 20
751.29803500000003
 11
267.03109699999993
 21
751.38867200000004
  0
LINE
  8
_0-0_0
  6
CONTINUOUS
 62
    7
 10
267.03109699999993
 20
751.38867200000004
 11
257.78109699999993
 21
751.38867200000004
  0
LINE
  8
_0-0_0
  6
CONTINUOUS
 62
    7
 10
267.28109699999993
 20
751.29803500000003
 11
257.53109699999993
 21
751.29803500000003
  0
LINE
  8
_0-0_0
  6
CONTINUOUS
 62
    7
 10
267.28109699999993
 20
751.53225700000007
 11
267.03109699999993
 21
751.38867200000004
  0
LINE
  8
_0-0_0
  6
CONTINUOUS
 62
    7
 10
267.28109699999993
 20
751.06765700000005
 11
267.03109699999993
 21
751.13021900000001
  0
LINE
  8
_0-0_0
  6
CONTINUOUS
 62
    7
 10
267.03109699999993
 20
751.13021900000001
 11
257.78109699999993
 21
751.13021900000001
  0
LINE
  8
_0-0_0
  6
CONTINUOUS
 62
    7
 10
267.28109699999993
 20
751.06765700000005
 11
257.53109699999993
 21
751.06765700000005
  0
LINE
  8
_0-0_0
  6
CONTINUOUS
 62
    7
 10
267.28109699999993
 20
751.29803500000003
 11
267.03109699999993
 21
751.13021900000001
  0
LINE
  8
_0-0_0
  6
CONTINUOUS
 62
    7
 10
267.28109699999993
 20
750.84368900000004
 11
267.03109699999993
 21
750.87747200000001
  0
LINE
  8
_0-0_0
  6
CONTINUOUS
 62
    7
 10
267.03109699999993
 20
750.87747200000001
 11
257.78109699999993
 21
750.87747200000001
  0
LINE
  8
_0-0_0
  6
CONTINUOUS
 62
    7
 10
267.28109699999993
 20
750.84368900000004
 11
257.53109699999993
 21
750.84368900000004
  0
LINE
  8
_0-0_0
  6
CONTINUOUS
 62
    7
 10
267.28109699999993
 20
751.06765700000005
 11
267.03109699999993
 21
750.87747200000001
  0
LINE
  8
_0-0_0
  6
CONTINUOUS
 62
    7
 10
267.28109699999993
 20
750.62853999999993
 11
267.03109699999993
 21
750.63317899999993
  0
LINE
  8
_0-0_0
  6
CONTINUOUS
 62
    7
 10
267.03109699999993
 20
750.63317899999993
 11
257.78109699999993
 21
750.63317899999993
  0
LINE
  8
_0-0_0
  6
CONTINUOUS
 62
    7
 10
267.28109699999993
 20
750.84368900000004
 11
267.03109699999993
 21
750.63317899999993
  0
LINE
  8
_0-0_0
  6
CONTINUOUS
 62
    7
 10
267.53109699999993
 20
749.65002400000003
 11
267.53109699999993
 21
753.40518199999997
  0
LINE
  8
_0-0_0
  6
CONTINUOUS
 62
    7
 10
267.53109699999993
 20
753.40518199999997
 11
267.53109699999993
 21
753.65002400000003
  0
LINE
  8
_0-0_0
  6
CONTINUOUS
 62
    7
 10
253.93109099999992
 20
754.95001200000002
 11
253.93109099999992
 21
757.45001200000002
  0
LINE
  8
_0-0_0
  6
CONTINUOUS
 62
    7
 10
253.93109099999992
 20
757.45001200000002
 11
253.93109099999992
 21
764.95001200000002
  0
LINE
  8
_0-0_0
  6
CONTINUOUS
 62
    7
 10
254.73109399999998
 20
755.41189600000007
 11
254.73109399999998
 21
757.68093900000008
  0
LINE
  8
_0-0_0
  6
CONTINUOUS
 62
    7
 10
254.73109399999998
 20
757.68093900000008
 11
254.73109399999998
 21
764.48812900000007
  0
LINE
  8
_0-0_0
  6
CONTINUOUS
 62
    7
 10
312.73109399999998
 20
755.95001200000002
 11
312.73109399999998
 21
755.95135499999992
  0
LINE
  8
_0-0_0
  6
CONTINUOUS
 62
    7
 10
312.73109399999998
 20
755.95135499999992
 11
312.73109399999998
 21
763.95001200000002
  0
LINE
  8
_0-0_0
  6
CONTINUOUS
 62
    7
 10
257.53109699999993
 20
770.49691800000005
 11
257.53109699999993
 21
770.5
  0
LINE
  8
_0-0_0
  6
CONTINUOUS
 62
    7
 10
257.53109699999993
 20
770.47228999999993
 11
257.53109699999993
 21
770.5
  0
LINE
  8
_0-0_0
  6
CONTINUOUS
 62
    7
 10
257.53109699999993
 20
770.42334000000005
 11
257.53109699999993
 21
770.47228999999993
  0
LINE
  8
_0-0_0
  6
CONTINUOUS
 62
    7
 10
257.53109699999993
 20
770.35055499999999
 11
257.53109699999993
 21
770.42334000000005
  0
LINE
  8
_0-0_0
  6
CONTINUOUS
 62
    7
 10
257.53109699999993
 20
770.25476099999992
 11
257.53109699999993
 21
770.35055499999999
  0
LINE
  8
_0-0_0
  6
CONTINUOUS
 62
    7
 10
257.53109699999993
 20
770.22457899999995
 11
257.53109699999993
 21
770.25476099999992
  0
LINE
  8
_0-0_0
  6
CONTINUOUS
 62
    7
 10
257.53109699999993
 20
770.137024
 11
257.53109699999993
 21
770.22457899999995
  0
LINE
  8
_0-0_0
  6
CONTINUOUS
 62
    7
 10
257.53109699999993
 20
769.99859600000002
 11
257.53109699999993
 21
770.137024
  0
LINE
  8
_0-0_0
  6
CONTINUOUS
 62
    7
 10
257.53109699999993
 20
769.841003
 11
257.53109699999993
 21
769.99859600000002
  0
LINE
  8
_0-0_0
  6
CONTINUOUS
 62
    7
 10
257.53109699999993
 20
769.66598499999998
 11
257.53109699999993
 21
769.841003
  0
LINE
  8
_0-0_0
  6
CONTINUOUS
 62
    7
 10
257.53109699999993
 20
769.47543300000007
 11
257.53109699999993
 21
769.66598499999998
  0
LINE
  8
_0-0_0
  6
CONTINUOUS
 62
    7
 10
257.53109699999993
 20
769.27148399999999
 11
257.53109699999993
 21
769.47543300000007
  0
LINE
  8
_0-0_0
  6
CONTINUOUS
 62
    7
 10
257.53109699999993
 20
769.05633499999999
 11
257.53109699999993
 21
769.27148399999999
  0
LINE
  8
_0-0_0
  6
CONTINUOUS
 62
    7
 10
257.53109699999993
 20
768.83233599999994
 11
257.53109699999993
 21
769.05633499999999
  0
LINE
  8
_0-0_0
  6
CONTINUOUS
 62
    7
 10
257.53109699999993
 20
768.60199
 11
257.53109699999993
 21
768.83233599999994
  0
LINE
  8
_0-0_0
  6
CONTINUOUS
 62
    7
 10
257.53109699999993
 20
768.36776699999996
 11
257.53109699999993
 21
768.60199
  0
LINE
  8
_0-0_0
  6
CONTINUOUS
 62
    7
 10
257.53109699999993
 20
768.13226299999997
 11
257.53109699999993
 21
768.36776699999996
  0
LINE
  8
_0-0_0
  6
CONTINUOUS
 62
    7
 10
257.53109699999993
 20
767.89804099999992
 11
257.53109699999993
 21
768.13226299999997
  0
LINE
  8
_0-0_0
  6
CONTINUOUS
 62
    7
 10
257.53109699999993
 20
767.66766400000006
 11
257.53109699999993
 21
767.89804099999992
  0
LINE
  8
_0-0_0
  6
CONTINUOUS
 62
    7
 10
257.53109699999993
 20
767.44366500000001
 11
257.53109699999993
 21
767.66766400000006
  0
LINE
  8
_0-0_0
  6
CONTINUOUS
 62
    7
 10
257.53109699999993
 20
767.22851600000001
 11
257.53109699999993
 21
767.44366500000001
  0
LINE
  8
_0-0_0
  6
CONTINUOUS
 62
    7
 10
257.53109699999993
 20
767.17129499999999
 11
257.53109699999993
 21
767.22851600000001
  0
LINE
  8
_0-0_0
  6
CONTINUOUS
 62
    7
 10
257.53109699999993
 20
770.49691800000005
 11
257.78109699999993
 21
770.75
  0
LINE
  8
_0-0_0
  6
CONTINUOUS
 62
    7
 10
257.53109699999993
 20
770.47228999999993
 11
257.78109699999993
 21
770.73632799999996
  0
LINE
  8
_0-0_0
  6
CONTINUOUS
 62
    7
 10
257.53109699999993
 20
770.49691800000005
 11
257.78109699999993
 21
770.73632799999996
  0
LINE
  8
_0-0_0
  6
CONTINUOUS
 62
    7
 10
257.53109699999993
 20
770.42334000000005
 11
257.78109699999993
 21
770.69537400000002
  0
LINE
  8
_0-0_0
  6
CONTINUOUS
 62
    7
 10
257.53109699999993
 20
770.47228999999993
 11
257.78109699999993
 21
770.69537400000002
  0
LINE
  8
_0-0_0
  6
CONTINUOUS
 62
    7
 10
257.53109699999993
 20
770.35055499999999
 11
257.78109699999993
 21
770.627655
  0
LINE
  8
_0-0_0
  6
CONTINUOUS
 62
    7
 10
257.53109699999993
 20
770.42334000000005
 11
257.78109699999993
 21
770.627655
  0
LINE
  8
_0-0_0
  6
CONTINUOUS
 62
    7
 10
257.53109699999993
 20
770.25476099999992
 11
257.78109699999993
 21
770.53387500000008
  0
LINE
  8
_0-0_0
  6
CONTINUOUS
 62
    7
 10
257.53109699999993
 20
770.35055499999999
 11
257.78109699999993
 21
770.53387500000008
  0
LINE
  8
_0-0_0
  6
CONTINUOUS
 62
    7
 10
257.53109699999993
 20
770.25476099999992
 11
257.66107199999999
 21
770.33862299999998
  0
LINE
  8
_0-0_0
  6
CONTINUOUS
 62
    7
 10
257.53109699999993
 20
770.137024
 11
257.78109699999993
 21
770.41507000000001
  0
LINE
  8
_0-0_0
  6
CONTINUOUS
 62
    7
 10
257.66107199999999
 20
770.33862299999998
 11
257.78109699999993
 21
770.41507000000001
  0
LINE
  8
_0-0_0
  6
CONTINUOUS
 62
    7
 10
257.53109699999993
 20
769.99859600000002
 11
257.78109699999993
 21
770.27255200000002
  0
LINE
  8
_0-0_0
  6
CONTINUOUS
 62
    7
 10
257.53109699999993
 20
770.137024
 11
257.78109699999993
 21
770.27255200000002
  0
LINE
  8
_0-0_0
  6
CONTINUOUS
 62
    7
 10
257.53109699999993
 20
769.841003
 11
257.78109699999993
 21
770.10788000000002
  0
LINE
  8
_0-0_0
  6
CONTINUOUS
 62
    7
 10
257.53109699999993
 20
769.99859600000002
 11
257.78109699999993
 21
770.10788000000002
  0
LINE
  8
_0-0_0
  6
CONTINUOUS
 62
    7
 10
257.53109699999993
 20
769.66598499999998
 11
257.78109699999993
 21
769.922821
  0
LINE
  8
_0-0_0
  6
CONTINUOUS
 62
    7
 10
257.53109699999993
 20
769.841003
 11
257.78109699999993
 21
769.922821
  0
LINE
  8
_0-0_0
  6
CONTINUOUS
 62
    7
 10
257.53109699999993
 20
769.47543300000007
 11
257.78109699999993
 21
769.71948199999997
  0
LINE
  8
_0-0_0
  6
CONTINUOUS
 62
    7
 10
257.53109699999993
 20
769.66598499999998
 11
257.78109699999993
 21
769.71948199999997
  0
LINE
  8
_0-0_0
  6
CONTINUOUS
 62
    7
 10
257.53109699999993
 20
769.27148399999999
 11
257.78109699999993
 21
769.5
  0
LINE
  8
_0-0_0
  6
CONTINUOUS
 62
    7
 10
257.53109699999993
 20
769.47543300000007
 11
257.78109699999993
 21
769.5
  0
LINE
  8
_0-0_0
  6
CONTINUOUS
 62
    7
 10
257.53109699999993
 20
769.05633499999999
 11
257.78109699999993
 21
769.26684599999999
  0
LINE
  8
_0-0_0
  6
CONTINUOUS
 62
    7
 10
257.53109699999993
 20
769.27148399999999
 11
257.78109699999993
 21
769.26684599999999
  0
LINE
  8
_0-0_0
  6
CONTINUOUS
 62
    7
 10
257.53109699999993
 20
768.83233599999994
 11
257.78109699999993
 21
769.02255200000002
  0
LINE
  8
_0-0_0
  6
CONTINUOUS
 62
    7
 10
257.53109699999993
 20
769.05633499999999
 11
257.78109699999993
 21
769.02255200000002
  0
LINE
  8
_0-0_0
  6
CONTINUOUS
 62
    7
 10
257.53109699999993
 20
768.60199
 11
257.78109699999993
 21
768.76977499999998
  0
LINE
  8
_0-0_0
  6
CONTINUOUS
 62
    7
 10
257.53109699999993
 20
768.83233599999994
 11
257.78109699999993
 21
768.76977499999998
  0
LINE
  8
_0-0_0
  6
CONTINUOUS
 62
    7
 10
257.53109699999993
 20
768.36776699999996
 11
257.78109699999993
 21
768.51132200000006
  0
LINE
  8
_0-0_0
  6
CONTINUOUS
 62
    7
 10
257.53109699999993
 20
768.60199
 11
257.78109699999993
 21
768.51132200000006
  0
LINE
  8
_0-0_0
  6
CONTINUOUS
 62
    7
 10
257.53109699999993
 20
768.13226299999997
 11
257.78109699999993
 21
768.25
  0
LINE
  8
_0-0_0
  6
CONTINUOUS
 62
    7
 10
257.53109699999993
 20
768.36776699999996
 11
257.78109699999993
 21
768.25
  0
LINE
  8
_0-0_0
  6
CONTINUOUS
 62
    7
 10
257.53109699999993
 20
767.89804099999992
 11
257.78109699999993
 21
767.98867799999994
  0
LINE
  8
_0-0_0
  6
CONTINUOUS
 62
    7
 10
257.53109699999993
 20
768.13226299999997
 11
257.78109699999993
 21
767.98867799999994
  0
LINE
  8
_0-0_0
  6
CONTINUOUS
 62
    7
 10
257.53109699999993
 20
767.66766400000006
 11
257.78109699999993
 21
767.73022500000002
  0
LINE
  8
_0-0_0
  6
CONTINUOUS
 62
    7
 10
257.53109699999993
 20
767.89804099999992
 11
257.78109699999993
 21
767.73022500000002
  0
LINE
  8
_0-0_0
  6
CONTINUOUS
 62
    7
 10
257.53109699999993
 20
767.44366500000001
 11
257.78109699999993
 21
767.47747800000002
  0
LINE
  8
_0-0_0
  6
CONTINUOUS
 62
    7
 10
257.53109699999993
 20
767.66766400000006
 11
257.78109699999993
 21
767.47747800000002
  0
LINE
  8
_0-0_0
  6
CONTINUOUS
 62
    7
 10
257.53109699999993
 20
767.22851600000001
 11
257.78109699999993
 21
767.23315400000001
  0
LINE
  8
_0-0_0
  6
CONTINUOUS
 62
    7
 10
257.53109699999993
 20
767.44366500000001
 11
257.78109699999993
 21
767.23315400000001
  0
LINE
  8
_0-0_0
  6
CONTINUOUS
 62
    7
 10
257.53109699999993
 20
767.02456699999993
 11
257.53109699999993
 21
767.17129499999999
  0
LINE
  8
_0-0_0
  6
CONTINUOUS
 62
    7
 10
257.53109699999993
 20
767.02456699999993
 11
257.78109699999993
 21
767
  0
LINE
  8
_0-0_0
  6
CONTINUOUS
 62
    7
 10
257.53109699999993
 20
767.22851600000001
 11
257.78109699999993
 21
767
  0
LINE
  8
_0-0_0
  6
CONTINUOUS
 62
    7
 10
257.53109699999993
 20
766.83404500000006
 11
257.53109699999993
 21
767.02456699999993
  0
LINE
  8
_0-0_0
  6
CONTINUOUS
 62
    7
 10
257.53109699999993
 20
766.65902699999992
 11
257.53109699999993
 21
766.83404500000006
  0
LINE
  8
_0-0_0
  6
CONTINUOUS
 62
    7
 10
257.53109699999993
 20
766.50143400000002
 11
257.53109699999993
 21
766.65902699999992
  0
LINE
  8
_0-0_0
  6
CONTINUOUS
 62
    7
 10
257.53109699999993
 20
766.36300699999993
 11
257.53109699999993
 21
766.50143400000002
  0
LINE
  8
_0-0_0
  6
CONTINUOUS
 62
    7
 10
257.53109699999993
 20
766.24523900000008
 11
257.53109699999993
 21
766.36300699999993
  0
LINE
  8
_0-0_0
  6
CONTINUOUS
 62
    7
 10
257.53109699999993
 20
766.14944500000001
 11
257.53109699999993
 21
766.24523900000008
  0
LINE
  8
_0-0_0
  6
CONTINUOUS
 62
    7
 10
257.53109699999993
 20
766.07665999999995
 11
257.53109699999993
 21
766.14944500000001
  0
LINE
  8
_0-0_0
  6
CONTINUOUS
 62
    7
 10
257.53109699999993
 20
766
 11
257.53109699999993
 21
766.07665999999995
  0
LINE
  8
_0-0_0
  6
CONTINUOUS
 62
    7
 10
257.53109699999993
 20
766.00308199999995
 11
257.53109699999993
 21
766.02771000000007
  0
LINE
  8
_0-0_0
  6
CONTINUOUS
 62
    7
 10
257.53109699999993
 20
766
 11
257.53109699999993
 21
766.00308199999995
  0
LINE
  8
_0-0_0
  6
CONTINUOUS
 62
    7
 10
267.28109699999993
 20
770.49691800000005
 11
267.03109699999993
 21
770.75
  0
LINE
  8
_0-0_0
  6
CONTINUOUS
 62
    7
 10
267.03109699999993
 20
770.75
 11
257.78109699999993
 21
770.75
  0
LINE
  8
_0-0_0
  6
CONTINUOUS
 62
    7
 10
267.28109699999993
 20
770.47228999999993
 11
267.03109699999993
 21
770.73632799999996
  0
LINE
  8
_0-0_0
  6
CONTINUOUS
 62
    7
 10
267.03109699999993
 20
770.73632799999996
 11
257.78109699999993
 21
770.73632799999996
  0
LINE
  8
_0-0_0
  6
CONTINUOUS
 62
    7
 10
267.28109699999993
 20
770.49691800000005
 11
267.03109699999993
 21
770.73632799999996
  0
LINE
  8
_0-0_0
  6
CONTINUOUS
 62
    7
 10
267.28109699999993
 20
770.42334000000005
 11
267.03109699999993
 21
770.69537400000002
  0
LINE
  8
_0-0_0
  6
CONTINUOUS
 62
    7
 10
267.03109699999993
 20
770.69537400000002
 11
257.78109699999993
 21
770.69537400000002
  0
LINE
  8
_0-0_0
  6
CONTINUOUS
 62
    7
 10
267.28109699999993
 20
770.47228999999993
 11
267.03109699999993
 21
770.69537400000002
  0
LINE
  8
_0-0_0
  6
CONTINUOUS
 62
    7
 10
267.28109699999993
 20
770.35055499999999
 11
267.03109699999993
 21
770.627655
  0
LINE
  8
_0-0_0
  6
CONTINUOUS
 62
    7
 10
267.03109699999993
 20
770.627655
 11
257.78109699999993
 21
770.627655
  0
LINE
  8
_0-0_0
  6
CONTINUOUS
 62
    7
 10
267.28109699999993
 20
770.42334000000005
 11
267.03109699999993
 21
770.627655
  0
LINE
  8
_0-0_0
  6
CONTINUOUS
 62
    7
 10
267.28109699999993
 20
770.25476099999992
 11
267.03109699999993
 21
770.53387500000008
  0
LINE
  8
_0-0_0
  6
CONTINUOUS
 62
    7
 10
267.03109699999993
 20
770.53387500000008
 11
257.78109699999993
 21
770.53387500000008
  0
LINE
  8
_0-0_0
  6
CONTINUOUS
 62
    7
 10
267.28109699999993
 20
770.35055499999999
 11
267.03109699999993
 21
770.53387500000008
  0
LINE
  8
_0-0_0
  6
CONTINUOUS
 62
    7
 10
267.03109699999993
 20
770.41507000000001
 11
257.78109699999993
 21
770.41507000000001
  0
LINE
  8
_0-0_0
  6
CONTINUOUS
 62
    7
 10
267.15113799999995
 20
770.33862299999998
 11
267.03109699999993
 21
770.41507000000001
  0
LINE
  8
_0-0_0
  6
CONTINUOUS
 62
    7
 10
267.28109699999993
 20
770.25476099999992
 11
267.15113799999995
 21
770.33862299999998
  0
LINE
  8
_0-0_0
  6
CONTINUOUS
 62
    7
 10
267.28109699999993
 20
770.137024
 11
267.03109699999993
 21
770.41507000000001
  0
LINE
  8
_0-0_0
  6
CONTINUOUS
 62
    7
 10
267.28109699999993
 20
769.99859600000002
 11
267.03109699999993
 21
770.27255200000002
  0
LINE
  8
_0-0_0
  6
CONTINUOUS
 62
    7
 10
267.03109699999993
 20
770.27255200000002
 11
257.78109699999993
 21
770.27255200000002
  0
LINE
  8
_0-0_0
  6
CONTINUOUS
 62
    7
 10
267.28109699999993
 20
770.137024
 11
267.03109699999993
 21
770.27255200000002
  0
LINE
  8
_0-0_0
  6
CONTINUOUS
 62
    7
 10
267.28109699999993
 20
769.841003
 11
267.03109699999993
 21
770.10788000000002
  0
LINE
  8
_0-0_0
  6
CONTINUOUS
 62
    7
 10
267.03109699999993
 20
770.10788000000002
 11
257.78109699999993
 21
770.10788000000002
  0
LINE
  8
_0-0_0
  6
CONTINUOUS
 62
    7
 10
267.28109699999993
 20
769.99859600000002
 11
267.03109699999993
 21
770.10788000000002
  0
LINE
  8
_0-0_0
  6
CONTINUOUS
 62
    7
 10
267.28109699999993
 20
769.66598499999998
 11
267.03109699999993
 21
769.922821
  0
LINE
  8
_0-0_0
  6
CONTINUOUS
 62
    7
 10
267.03109699999993
 20
769.922821
 11
257.78109699999993
 21
769.922821
  0
LINE
  8
_0-0_0
  6
CONTINUOUS
 62
    7
 10
267.28109699999993
 20
769.841003
 11
267.03109699999993
 21
769.922821
  0
LINE
  8
_0-0_0
  6
CONTINUOUS
 62
    7
 10
267.28109699999993
 20
769.47543300000007
 11
267.03109699999993
 21
769.71948199999997
  0
LINE
  8
_0-0_0
  6
CONTINUOUS
 62
    7
 10
267.03109699999993
 20
769.71948199999997
 11
257.78109699999993
 21
769.71948199999997
  0
LINE
  8
_0-0_0
  6
CONTINUOUS
 62
    7
 10
267.28109699999993
 20
769.66598499999998
 11
267.03109699999993
 21
769.71948199999997
  0
LINE
  8
_0-0_0
  6
CONTINUOUS
 62
    7
 10
267.28109699999993
 20
769.27148399999999
 11
267.03109699999993
 21
769.5
  0
LINE
  8
_0-0_0
  6
CONTINUOUS
 62
    7
 10
267.03109699999993
 20
769.5
 11
257.78109699999993
 21
769.5
  0
LINE
  8
_0-0_0
  6
CONTINUOUS
 62
    7
 10
267.28109699999993
 20
769.27148399999999
 11
257.53109699999993
 21
769.27148399999999
  0
LINE
  8
_0-0_0
  6
CONTINUOUS
 62
    7
 10
267.28109699999993
 20
769.47543300000007
 11
267.03109699999993
 21
769.5
  0
LINE
  8
_0-0_0
  6
CONTINUOUS
 62
    7
 10
267.28109699999993
 20
769.05633499999999
 11
267.03109699999993
 21
769.26684599999999
  0
LINE
  8
_0-0_0
  6
CONTINUOUS
 62
    7
 10
267.03109699999993
 20
769.26684599999999
 11
257.78109699999993
 21
769.26684599999999
  0
LINE
  8
_0-0_0
  6
CONTINUOUS
 62
    7
 10
267.28109699999993
 20
769.05633499999999
 11
257.53109699999993
 21
769.05633499999999
  0
LINE
  8
_0-0_0
  6
CONTINUOUS
 62
    7
 10
267.28109699999993
 20
769.27148399999999
 11
267.03109699999993
 21
769.26684599999999
  0
LINE
  8
_0-0_0
  6
CONTINUOUS
 62
    7
 10
267.28109699999993
 20
768.83233599999994
 11
267.03109699999993
 21
769.02255200000002
  0
LINE
  8
_0-0_0
  6
CONTINUOUS
 62
    7
 10
267.03109699999993
 20
769.02255200000002
 11
257.78109699999993
 21
769.02255200000002
  0
LINE
  8
_0-0_0
  6
CONTINUOUS
 62
    7
 10
267.28109699999993
 20
768.83233599999994
 11
257.53109699999993
 21
768.83233599999994
  0
LINE
  8
_0-0_0
  6
CONTINUOUS
 62
    7
 10
267.28109699999993
 20
769.05633499999999
 11
267.03109699999993
 21
769.02255200000002
  0
LINE
  8
_0-0_0
  6
CONTINUOUS
 62
    7
 10
267.28109699999993
 20
768.60199
 11
267.03109699999993
 21
768.76977499999998
  0
LINE
  8
_0-0_0
  6
CONTINUOUS
 62
    7
 10
267.03109699999993
 20
768.76977499999998
 11
257.78109699999993
 21
768.76977499999998
  0
LINE
  8
_0-0_0
  6
CONTINUOUS
 62
    7
 10
267.28109699999993
 20
768.60199
 11
257.53109699999993
 21
768.60199
  0
LINE
  8
_0-0_0
  6
CONTINUOUS
 62
    7
 10
267.28109699999993
 20
768.83233599999994
 11
267.03109699999993
 21
768.76977499999998
  0
LINE
  8
_0-0_0
  6
CONTINUOUS
 62
    7
 10
267.28109699999993
 20
768.36776699999996
 11
267.03109699999993
 21
768.51132200000006
  0
LINE
  8
_0-0_0
  6
CONTINUOUS
 62
    7
 10
267.03109699999993
 20
768.51132200000006
 11
257.78109699999993
 21
768.51132200000006
  0
LINE
  8
_0-0_0
  6
CONTINUOUS
 62
    7
 10
267.28109699999993
 20
768.36776699999996
 11
257.53109699999993
 21
768.36776699999996
  0
LINE
  8
_0-0_0
  6
CONTINUOUS
 62
    7
 10
267.28109699999993
 20
768.60199
 11
267.03109699999993
 21
768.51132200000006
  0
LINE
  8
_0-0_0
  6
CONTINUOUS
 62
    7
 10
267.28109699999993
 20
768.13226299999997
 11
267.03109699999993
 21
768.25
  0
LINE
  8
_0-0_0
  6
CONTINUOUS
 62
    7
 10
267.03109699999993
 20
768.25
 11
257.78109699999993
 21
768.25
  0
LINE
  8
_0-0_0
  6
CONTINUOUS
 62
    7
 10
267.28109699999993
 20
768.13226299999997
 11
257.53109699999993
 21
768.13226299999997
  0
LINE
  8
_0-0_0
  6
CONTINUOUS
 62
    7
 10
267.28109699999993
 20
768.36776699999996
 11
267.03109699999993
 21
768.25
  0
LINE
  8
_0-0_0
  6
CONTINUOUS
 62
    7
 10
267.28109699999993
 20
767.89804099999992
 11
267.03109699999993
 21
767.98867799999994
  0
LINE
  8
_0-0_0
  6
CONTINUOUS
 62
    7
 10
267.03109699999993
 20
767.98867799999994
 11
257.78109699999993
 21
767.98867799999994
  0
LINE
  8
_0-0_0
  6
CONTINUOUS
 62
    7
 10
267.28109699999993
 20
767.89804099999992
 11
257.53109699999993
 21
767.89804099999992
  0
LINE
  8
_0-0_0
  6
CONTINUOUS
 62
    7
 10
267.28109699999993
 20
768.13226299999997
 11
267.03109699999993
 21
767.98867799999994
  0
LINE
  8
_0-0_0
  6
CONTINUOUS
 62
    7
 10
267.28109699999993
 20
767.66766400000006
 11
267.03109699999993
 21
767.73022500000002
  0
LINE
  8
_0-0_0
  6
CONTINUOUS
 62
    7
 10
267.03109699999993
 20
767.73022500000002
 11
257.78109699999993
 21
767.73022500000002
  0
LINE
  8
_0-0_0
  6
CONTINUOUS
 62
    7
 10
267.28109699999993
 20
767.66766400000006
 11
257.53109699999993
 21
767.66766400000006
  0
LINE
  8
_0-0_0
  6
CONTINUOUS
 62
    7
 10
267.28109699999993
 20
767.89804099999992
 11
267.03109699999993
 21
767.73022500000002
  0
LINE
  8
_0-0_0
  6
CONTINUOUS
 62
    7
 10
267.28109699999993
 20
767.44366500000001
 11
267.03109699999993
 21
767.47747800000002
  0
LINE
  8
_0-0_0
  6
CONTINUOUS
 62
    7
 10
267.03109699999993
 20
767.47747800000002
 11
257.78109699999993
 21
767.47747800000002
  0
LINE
  8
_0-0_0
  6
CONTINUOUS
 62
    7
 10
267.28109699999993
 20
767.44366500000001
 11
257.53109699999993
 21
767.44366500000001
  0
LINE
  8
_0-0_0
  6
CONTINUOUS
 62
    7
 10
267.28109699999993
 20
767.66766400000006
 11
267.03109699999993
 21
767.47747800000002
  0
LINE
  8
_0-0_0
  6
CONTINUOUS
 62
    7
 10
267.28109699999993
 20
767.22851600000001
 11
267.03109699999993
 21
767.23315400000001
  0
LINE
  8
_0-0_0
  6
CONTINUOUS
 62
    7
 10
267.03109699999993
 20
767.23315400000001
 11
257.78109699999993
 21
767.23315400000001
  0
LINE
  8
_0-0_0
  6
CONTINUOUS
 62
    7
 10
267.28109699999993
 20
767.22851600000001
 11
257.53109699999993
 21
767.22851600000001
  0
LINE
  8
_0-0_0
  6
CONTINUOUS
 62
    7
 10
267.28109699999993
 20
767.44366500000001
 11
267.03109699999993
 21
767.23315400000001
  0
LINE
  8
_0-0_0
  6
CONTINUOUS
 62
    7
 10
267.28109699999993
 20
767.02456699999993
 11
267.03109699999993
 21
767
  0
LINE
  8
_0-0_0
  6
CONTINUOUS
 62
    7
 10
267.03109699999993
 20
767
 11
257.78109699999993
 21
767
  0
LINE
  8
_0-0_0
  6
CONTINUOUS
 62
    7
 10
267.28109699999993
 20
767.22851600000001
 11
267.03109699999993
 21
767
  0
LINE
  8
_0-0_0
  6
CONTINUOUS
 62
    7
 10
257.53109699999993
 20
766.83404500000006
 11
257.78109699999993
 21
766.78054799999995
  0
LINE
  8
_0-0_0
  6
CONTINUOUS
 62
    7
 10
257.53109699999993
 20
767.02456699999993
 11
257.78109699999993
 21
766.78054799999995
  0
LINE
  8
_0-0_0
  6
CONTINUOUS
 62
    7
 10
257.53109699999993
 20
766.65902699999992
 11
257.78109699999993
 21
766.577179
  0
LINE
  8
_0-0_0
  6
CONTINUOUS
 62
    7
 10
257.53109699999993
 20
766.83404500000006
 11
257.78109699999993
 21
766.577179
  0
LINE
  8
_0-0_0
  6
CONTINUOUS
 62
    7
 10
257.53109699999993
 20
766.50143400000002
 11
257.78109699999993
 21
766.39215100000001
  0
LINE
  8
_0-0_0
  6
CONTINUOUS
 62
    7
 10
257.53109699999993
 20
766.65902699999992
 11
257.78109699999993
 21
766.39215100000001
  0
LINE
  8
_0-0_0
  6
CONTINUOUS
 62
    7
 10
257.53109699999993
 20
766.36300699999993
 11
257.78109699999993
 21
766.22747800000002
  0
LINE
  8
_0-0_0
  6
CONTINUOUS
 62
    7
 10
257.53109699999993
 20
766.50143400000002
 11
257.78109699999993
 21
766.22747800000002
  0
LINE
  8
_0-0_0
  6
CONTINUOUS
 62
    7
 10
257.53109699999993
 20
766.24523900000008
 11
257.78109699999993
 21
766.08496100000002
  0
LINE
  8
_0-0_0
  6
CONTINUOUS
 62
    7
 10
257.53109699999993
 20
766.36300699999993
 11
257.78109699999993
 21
766.08496100000002
  0
LINE
  8
_0-0_0
  6
CONTINUOUS
 62
    7
 10
257.53109699999993
 20
766.14944500000001
 11
257.78109699999993
 21
765.96615599999996
  0
LINE
  8
_0-0_0
  6
CONTINUOUS
 62
    7
 10
257.53109699999993
 20
766.24523900000008
 11
257.78109699999993
 21
765.96615599999996
  0
LINE
  8
_0-0_0
  6
CONTINUOUS
 62
    7
 10
257.53109699999993
 20
766.07665999999995
 11
257.78109699999993
 21
765.87237499999992
  0
LINE
  8
_0-0_0
  6
CONTINUOUS
 62
    7
 10
257.53109699999993
 20
766.14944500000001
 11
257.78109699999993
 21
765.87237499999992
  0
LINE
  8
_0-0_0
  6
CONTINUOUS
 62
    7
 10
257.53109699999993
 20
766.02771000000007
 11
257.78109699999993
 21
765.80462599999998
  0
LINE
  8
_0-0_0
  6
CONTINUOUS
 62
    7
 10
257.53109699999993
 20
766.07665999999995
 11
257.78109699999993
 21
765.80462599999998
  0
LINE
  8
_0-0_0
  6
CONTINUOUS
 62
    7
 10
257.53109699999993
 20
766.00308199999995
 11
257.78109699999993
 21
765.76370199999997
  0
LINE
  8
_0-0_0
  6
CONTINUOUS
 62
    7
 10
257.53109699999993
 20
766.02771000000007
 11
257.78109699999993
 21
765.76370199999997
  0
LINE
  8
_0-0_0
  6
CONTINUOUS
 62
    7
 10
257.53109699999993
 20
766.00308199999995
 11
257.78109699999993
 21
765.75
  0
LINE
  8
_0-0_0
  6
CONTINUOUS
 62
    7
 10
267.53109699999993
 20
770.00518799999998
 11
267.53109699999993
 21
770.25
  0
LINE
  8
_0-0_0
  6
CONTINUOUS
 62
    7
 10
267.28109699999993
 20
767.02456699999993
 11
267.03109699999993
 21
766.78054799999995
  0
LINE
  8
_0-0_0
  6
CONTINUOUS
 62
    7
 10
267.28109699999993
 20
766.83404500000006
 11
267.03109699999993
 21
766.78054799999995
  0
LINE
  8
_0-0_0
  6
CONTINUOUS
 62
    7
 10
267.28109699999993
 20
766.83404500000006
 11
267.03109699999993
 21
766.577179
  0
LINE
  8
_0-0_0
  6
CONTINUOUS
 62
    7
 10
267.28109699999993
 20
766.65902699999992
 11
267.03109699999993
 21
766.577179
  0
LINE
  8
_0-0_0
  6
CONTINUOUS
 62
    7
 10
267.28109699999993
 20
766.65902699999992
 11
267.03109699999993
 21
766.39215100000001
  0
LINE
  8
_0-0_0
  6
CONTINUOUS
 62
    7
 10
267.28109699999993
 20
766.50143400000002
 11
267.03109699999993
 21
766.39215100000001
  0
LINE
  8
_0-0_0
  6
CONTINUOUS
 62
    7
 10
267.28109699999993
 20
766.50143400000002
 11
267.03109699999993
 21
766.22747800000002
  0
LINE
  8
_0-0_0
  6
CONTINUOUS
 62
    7
 10
267.28109699999993
 20
766.36300699999993
 11
267.03109699999993
 21
766.22747800000002
  0
LINE
  8
_0-0_0
  6
CONTINUOUS
 62
    7
 10
267.28109699999993
 20
766.36300699999993
 11
267.03109699999993
 21
766.08496100000002
  0
LINE
  8
_0-0_0
  6
CONTINUOUS
 62
    7
 10
267.28109699999993
 20
766.24523900000008
 11
267.03109699999993
 21
766.08496100000002
  0
LINE
  8
_0-0_0
  6
CONTINUOUS
 62
    7
 10
267.28109699999993
 20
766.24523900000008
 11
267.03109699999993
 21
765.96615599999996
  0
LINE
  8
_0-0_0
  6
CONTINUOUS
 62
    7
 10
267.28109699999993
 20
766.14944500000001
 11
267.03109699999993
 21
765.96615599999996
  0
LINE
  8
_0-0_0
  6
CONTINUOUS
 62
    7
 10
267.28109699999993
 20
766.14944500000001
 11
267.03109699999993
 21
765.87237499999992
  0
LINE
  8
_0-0_0
  6
CONTINUOUS
 62
    7
 10
267.28109699999993
 20
766.07665999999995
 11
267.03109699999993
 21
765.87237499999992
  0
LINE
  8
_0-0_0
  6
CONTINUOUS
 62
    7
 10
267.28109699999993
 20
766.07665999999995
 11
267.03109699999993
 21
765.80462599999998
  0
LINE
  8
_0-0_0
  6
CONTINUOUS
 62
    7
 10
267.28109699999993
 20
766.02771000000007
 11
267.03109699999993
 21
765.80462599999998
  0
LINE
  8
_0-0_0
  6
CONTINUOUS
 62
    7
 10
267.28109699999993
 20
766.02771000000007
 11
267.03109699999993
 21
765.76370199999997
  0
LINE
  8
_0-0_0
  6
CONTINUOUS
 62
    7
 10
267.28109699999993
 20
766.00308199999995
 11
267.03109699999993
 21
765.76370199999997
  0
LINE
  8
_0-0_0
  6
CONTINUOUS
 62
    7
 10
267.28109699999993
 20
766.00308199999995
 11
267.03109699999993
 21
765.75
  0
LINE
  8
_0-0_0
  6
CONTINUOUS
 62
    7
 10
267.53109699999993
 20
766.25
 11
267.53109699999993
 21
770.00518799999998
  0
LINE
  8
_0-0_0
  6
CONTINUOUS
 62
    7
 10
267.03109699999993
 20
766.78054799999995
 11
257.78109699999993
 21
766.78054799999995
  0
LINE
  8
_0-0_0
  6
CONTINUOUS
 62
    7
 10
267.03109699999993
 20
766.577179
 11
257.78109699999993
 21
766.577179
  0
LINE
  8
_0-0_0
  6
CONTINUOUS
 62
    7
 10
267.03109699999993
 20
766.39215100000001
 11
257.78109699999993
 21
766.39215100000001
  0
LINE
  8
_0-0_0
  6
CONTINUOUS
 62
    7
 10
267.03109699999993
 20
766.22747800000002
 11
257.78109699999993
 21
766.22747800000002
  0
LINE
  8
_0-0_0
  6
CONTINUOUS
 62
    7
 10
267.03109699999993
 20
766.08496100000002
 11
257.78109699999993
 21
766.08496100000002
  0
LINE
  8
_0-0_0
  6
CONTINUOUS
 62
    7
 10
267.03109699999993
 20
765.96615599999996
 11
257.78109699999993
 21
765.96615599999996
  0
LINE
  8
_0-0_0
  6
CONTINUOUS
 62
    7
 10
267.03109699999993
 20
765.87237499999992
 11
257.78109699999993
 21
765.87237499999992
  0
LINE
  8
_0-0_0
  6
CONTINUOUS
 62
    7
 10
267.03109699999993
 20
765.80462599999998
 11
257.78109699999993
 21
765.80462599999998
  0
LINE
  8
_0-0_0
  6
CONTINUOUS
 62
    7
 10
267.03109699999993
 20
765.76370199999997
 11
257.78109699999993
 21
765.76370199999997
  0
LINE
  8
_0-0_0
  6
CONTINUOUS
 62
    7
 10
267.03109699999993
 20
765.75
 11
257.78109699999993
 21
765.75
  0
LINE
  8
_0-0_0
  6
CONTINUOUS
 62
    7
 10
130.53109699999993
 20
766
 11
128.07543199999998
 21
766
  0
LINE
  8
_0-0_0
  6
CONTINUOUS
 62
    7
 10
128.57650799999999
 20
770.5
 11
128.07543199999998
 21
770.5
  0
LINE
  8
_0-0_0
  6
CONTINUOUS
 62
    7
 10
127.9310989999999
 20
766.25
 11
128.07543199999998
 21
766
  0
LINE
  8
_0-0_0
  6
CONTINUOUS
 62
    7
 10
127.9310989999999
 20
770.25
 11
128.07543199999998
 21
770.5
  0
LINE
  8
_0-0_0
  6
CONTINUOUS
 62
    7
 10
231.53109699999993
 20
749.40002400000003
 11
257.53109699999993
 21
749.40002400000003
  0
LINE
  8
_0-0_0
  6
CONTINUOUS
 62
    7
 10
231.53109699999993
 20
753.90002400000003
 11
257.53109699999993
 21
753.90002400000003
  0
LINE
  8
_0-0_0
  6
CONTINUOUS
 62
    7
 10
257.53109699999993
 20
749.40002400000003
 11
257.78109699999993
 21
749.15002400000003
  0
LINE
  8
_0-0_0
  6
CONTINUOUS
 62
    7
 10
257.53109699999993
 20
753.90002400000003
 11
257.78109699999993
 21
754.15002400000003
  0
LINE
  8
_0-0_0
  6
CONTINUOUS
 62
    7
 10
253.53109699999993
 20
765.20001200000002
 11
252.28109699999993
 21
766.45001200000002
  0
LINE
  8
_0-0_0
  6
CONTINUOUS
 62
    7
 10
253.53109699999993
 20
754.70001200000002
 11
252.73109399999998
 21
753.89999399999999
  0
LINE
  8
_0-0_0
  6
CONTINUOUS
 62
    7
 10
267.53109699999993
 20
749.65002400000003
 11
267.03126499999996
 21
749.15014599999995
  0
LINE
  8
_0-0_0
  6
CONTINUOUS
 62
    7
 10
267.53109699999993
 20
753.65002400000003
 11
267.03126499999996
 21
754.14984099999992
  0
LINE
  8
_0-0_0
  6
CONTINUOUS
 62
    7
 10
253.53109699999993
 20
754.95001200000002
 11
253.93109099999992
 21
754.95001200000002
  0
LINE
  8
_0-0_0
  6
CONTINUOUS
 62
    7
 10
253.53109699999993
 20
764.95001200000002
 11
253.93109099999992
 21
764.95001200000002
  0
LINE
  8
_0-0_0
  6
CONTINUOUS
 62
    7
 10
254.73109399999998
 20
755.41189600000007
 11
253.93109099999992
 21
754.95001200000002
  0
LINE
  8
_0-0_0
  6
CONTINUOUS
 62
    7
 10
254.73109399999998
 20
764.48812900000007
 11
253.93109099999992
 21
764.95001200000002
  0
LINE
  8
_0-0_0
  6
CONTINUOUS
 62
    7
 10
254.73109399999998
 20
755.95001200000002
 11
312.73109399999998
 21
755.95001200000002
  0
LINE
  8
_0-0_0
  6
CONTINUOUS
 62
    7
 10
254.73109399999998
 20
763.95001200000002
 11
312.73109399999998
 21
763.95001200000002
  0
LINE
  8
_0-0_0
  6
CONTINUOUS
 62
    7
 10
237.28106700000001
 20
770.5
 11
257.53109699999993
 21
770.5
  0
LINE
  8
_0-0_0
  6
CONTINUOUS
 62
    7
 10
257.53109699999993
 20
770.5
 11
257.78109699999993
 21
770.75
  0
LINE
  8
_0-0_0
  6
CONTINUOUS
 62
    7
 10
252.73109399999998
 20
766
 11
257.53109699999993
 21
766
  0
LINE
  8
_0-0_0
  6
CONTINUOUS
 62
    7
 10
257.53109699999993
 20
766
 11
257.78109699999993
 21
765.75
  0
LINE
  8
_0-0_0
  6
CONTINUOUS
 62
    7
 10
267.53109699999993
 20
770.25
 11
267.03126499999996
 21
770.74984700000005
  0
LINE
  8
_0-0_0
  6
CONTINUOUS
 62
    7
 10
267.53109699999993
 20
766.25
 11
267.03126499999996
 21
765.75015299999995
  0
LINE
  8
_0-0_0
  6
CONTINUOUS
 62
    7
 10
1495.531189
 20
802.15002400000003
 11
1495.531189
 21
789.15002400000003
  0
LINE
  8
_0-0_0
  6
CONTINUOUS
 62
    7
 10
122.53109699999993
 20
802.15002400000003
 11
122.53109699999993
 21
789.15002400000003
  0
LINE
  8
_0-0_0
  6
CONTINUOUS
 62
    7
 10
122.53109699999993
 20
802.15002400000003
 11
1495.531189
 21
802.15002400000003
  0
LINE
  8
_0-0_0
  6
CONTINUOUS
 62
    7
 10
122.53109699999993
 20
802.15002400000003
 11
122.53109699999993
 21
820.75
  0
LINE
  8
_0-0_0
  6
CONTINUOUS
 62
    7
 10
122.53109699999993
 20
823.25
 11
122.53109699999993
 21
820.75
  0
LINE
  8
_0-0_0
  6
CONTINUOUS
 62
    7
 10
122.53109699999993
 20
823.75
 11
122.53109699999993
 21
823.25
  0
LINE
  8
_0-0_0
  6
CONTINUOUS
 62
    7
 10
122.53109699999993
 20
775.75
 11
122.53109699999993
 21
775.25
  0
LINE
  8
_0-0_0
  6
CONTINUOUS
 62
    7
 10
122.53109699999993
 20
780.75
 11
122.53109699999993
 21
775.75
  0
LINE
  8
_0-0_0
  6
CONTINUOUS
 62
    7
 10
122.53109699999993
 20
781.25
 11
122.53109699999993
 21
780.75
  0
LINE
  8
_0-0_0
  6
CONTINUOUS
 62
    7
 10
122.53109699999993
 20
781.75
 11
122.53109699999993
 21
781.25
  0
LINE
  8
_0-0_0
  6
CONTINUOUS
 62
    7
 10
122.53109699999993
 20
784.95001200000002
 11
122.53109699999993
 21
781.75
  0
LINE
  8
_0-0_0
  6
CONTINUOUS
 62
    7
 10
122.53109699999993
 20
784.95001200000002
 11
122.53109699999993
 21
789.15002400000003
  0
LINE
  8
_0-0_0
  6
CONTINUOUS
 62
    7
 10
122.53109699999993
 20
789.15002400000003
 11
1495.531189
 21
789.15002400000003
  0
LINE
  8
_0-0_0
  6
CONTINUOUS
 62
    7
 10
1495.531189
 20
784.95001200000002
 11
1495.531189
 21
789.15002400000003
  0
LINE
  8
_0-0_0
  6
CONTINUOUS
 62
    7
 10
1495.531189
 20
781.75
 11
1495.531189
 21
784.95001200000002
  0
LINE
  8
_0-0_0
  6
CONTINUOUS
 62
    7
 10
1495.531189
 20
781.75
 11
1495.531189
 21
781.25
  0
LINE
  8
_0-0_0
  6
CONTINUOUS
 62
    7
 10
1495.531189
 20
781.25
 11
1495.531189
 21
780.75
  0
LINE
  8
_0-0_0
  6
CONTINUOUS
 62
    7
 10
1495.531189
 20
780.75
 11
1495.531189
 21
775.75
  0
LINE
  8
_0-0_0
  6
CONTINUOUS
 62
    7
 10
1495.531189
 20
775.75
 11
1495.531189
 21
775.25
  0
LINE
  8
_0-0_0
  6
CONTINUOUS
 62
    7
 10
1495.531189
 20
823.75
 11
1495.531189
 21
823.25
  0
LINE
  8
_0-0_0
  6
CONTINUOUS
 62
    7
 10
1495.531189
 20
820.75
 11
1495.531189
 21
823.25
  0
LINE
  8
_0-0_0
  6
CONTINUOUS
 62
    7
 10
1495.531189
 20
802.15002400000003
 11
1495.531189
 21
820.75
  0
CIRCLE
  8
_0-0_0
  6
CONTINUOUS
 62
    7
 10
1459.031189
 20
811.25
 40
6
  0
CIRCLE
  8
_0-0_0
  6
CONTINUOUS
 62
    7
 10
1359.031189
 20
811.25
 40
6
  0
CIRCLE
  8
_0-0_0
  6
CONTINUOUS
 62
    7
 10
1259.031189
 20
811.25
 40
6
  0
CIRCLE
  8
_0-0_0
  6
CONTINUOUS
 62
    7
 10
1159.0311889999998
 20
811.25
 40
6
  0
CIRCLE
  8
_0-0_0
  6
CONTINUOUS
 62
    7
 10
1059.0310669999999
 20
811.25
 40
6
  0
CIRCLE
  8
_0-0_0
  6
CONTINUOUS
 62
    7
 10
959.03106700000001
 20
811.25
 40
6
  0
CIRCLE
  8
_0-0_0
  6
CONTINUOUS
 62
    7
 10
859.03106700000001
 20
811.25
 40
6
  0
CIRCLE
  8
_0-0_0
  6
CONTINUOUS
 62
    7
 10
759.03106700000001
 20
811.25
 40
6
  0
CIRCLE
  8
_0-0_0
  6
CONTINUOUS
 62
    7
 10
659.03106699999989
 20
811.25
 40
6
  0
CIRCLE
  8
_0-0_0
  6
CONTINUOUS
 62
    7
 10
559.03112799999997
 20
811.25
 40
6
  0
CIRCLE
  8
_0-0_0
  6
CONTINUOUS
 62
    7
 10
459.03112799999997
 20
811.25
 40
6
  0
CIRCLE
  8
_0-0_0
  6
CONTINUOUS
 62
    7
 10
359.03111299999995
 20
811.25
 40
6
  0
CIRCLE
  8
_0-0_0
  6
CONTINUOUS
 62
    7
 10
259.03109699999993
 20
811.25
 40
6
  0
CIRCLE
  8
_0-0_0
  6
CONTINUOUS
 62
    7
 10
159.03109699999993
 20
811.25
 40
6
  0
LINE
  8
_0-0_0
  6
CONTINUOUS
 62
    7
 10
122.53109699999993
 20
820.75
 11
1495.531189
 21
820.75
  0
LINE
  8
_0-0_0
  6
CONTINUOUS
 62
    7
 10
122.53109699999993
 20
823.75
 11
1495.531189
 21
823.75
  0
LINE
  8
_0-0_0
  6
CONTINUOUS
 62
    7
 10
122.53109699999993
 20
823.25
 11
120.03109699999993
 21
823.25
  0
LINE
  8
_0-0_0
  6
CONTINUOUS
 62
    7
 10
120.03109699999993
 20
823.25
 11
120.03109699999993
 21
822.75
  0
LINE
  8
_0-0_0
  6
CONTINUOUS
 62
    7
 10
120.03109699999993
 20
822.75
 11
120.03109699999993
 21
782.25
  0
LINE
  8
_0-0_0
  6
CONTINUOUS
 62
    7
 10
122.53109699999993
 20
781.75
 11
120.03109699999993
 21
781.75
  0
LINE
  8
_0-0_0
  6
CONTINUOUS
 62
    7
 10
120.03109699999993
 20
782.25
 11
120.03109699999993
 21
781.75
  0
LINE
  8
_0-0_0
  6
CONTINUOUS
 62
    7
 10
120.03109699999993
 20
781.75
 11
120.03109699999993
 21
780.75
  0
LINE
  8
_0-0_0
  6
CONTINUOUS
 62
    7
 10
120.03109699999993
 20
780.75
 11
120.03109699999993
 21
776.25
  0
LINE
  8
_0-0_0
  6
CONTINUOUS
 62
    7
 10
122.53109699999993
 20
775.75
 11
120.03109699999993
 21
775.75
  0
LINE
  8
_0-0_0
  6
CONTINUOUS
 62
    7
 10
120.03109699999993
 20
776.25
 11
120.03109699999993
 21
775.75
  0
LINE
  8
_0-0_0
  6
CONTINUOUS
 62
    7
 10
122.53109699999993
 20
775.25
 11
1495.531189
 21
775.25
  0
LINE
  8
_0-0_0
  6
CONTINUOUS
 62
    7
 10
122.53109699999993
 20
781.25
 11
1495.531189
 21
781.25
  0
LINE
  8
_0-0_0
  6
CONTINUOUS
 62
    7
 10
122.53109699999993
 20
784.95001200000002
 11
1495.531189
 21
784.95001200000002
  0
LINE
  8
_0-0_0
  6
CONTINUOUS
 62
    7
 10
1495.531189
 20
823.25
 11
1498.031189
 21
823.25
  0
LINE
  8
_0-0_0
  6
CONTINUOUS
 62
    7
 10
1498.031189
 20
823.25
 11
1498.031189
 21
822.75
  0
LINE
  8
_0-0_0
  6
CONTINUOUS
 62
    7
 10
1498.031189
 20
822.75
 11
1498.031189
 21
782.25
  0
LINE
  8
_0-0_0
  6
CONTINUOUS
 62
    7
 10
1495.531189
 20
781.75
 11
1498.031189
 21
781.75
  0
LINE
  8
_0-0_0
  6
CONTINUOUS
 62
    7
 10
1498.031189
 20
782.25
 11
1498.031189
 21
781.75
  0
LINE
  8
_0-0_0
  6
CONTINUOUS
 62
    7
 10
1498.031189
 20
781.75
 11
1498.031189
 21
780.75
  0
LINE
  8
_0-0_0
  6
CONTINUOUS
 62
    7
 10
1498.031189
 20
780.75
 11
1498.031189
 21
776.25
  0
LINE
  8
_0-0_0
  6
CONTINUOUS
 62
    7
 10
1495.531189
 20
775.75
 11
1498.031189
 21
775.75
  0
LINE
  8
_0-0_0
  6
CONTINUOUS
 62
    7
 10
1498.031189
 20
776.25
 11
1498.031189
 21
775.75
  0
ARC
  8
_0-0_0
  6
CONTINUOUS
 62
    7
 10
180.03109799999993
 20
776.25
 40
0.5
 50
269.99999700000001
 51
0
  0
LINE
  8
_0-0_0
  6
CONTINUOUS
 62
    7
 10
180.03109799999993
 20
775.75
 11
173.03109699999993
 21
775.75
  0
ARC
  8
_0-0_0
  6
CONTINUOUS
 62
    7
 10
173.03109699999993
 20
776.25
 40
0.5
 50
179.99999099999999
 51
269.99999700000001
  0
LINE
  8
_0-0_0
  6
CONTINUOUS
 62
    7
 10
172.53109699999993
 20
780.25
 11
172.53109699999993
 21
776.25
  0
ARC
  8
_0-0_0
  6
CONTINUOUS
 62
    7
 10
173.03109699999993
 20
780.25
 40
0.5
 50
90.000003000000007
 51
179.99999099999999
  0
ARC
  8
_0-0_0
  6
CONTINUOUS
 62
    7
 10
180.03109799999993
 20
780.25
 40
0.5
 50
0
 51
90.000003000000007
  0
LINE
  8
_0-0_0
  6
CONTINUOUS
 62
    7
 10
173.03109699999993
 20
780.75
 11
180.03109799999993
 21
780.75
  0
LINE
  8
_0-0_0
  6
CONTINUOUS
 62
    7
 10
1495.531189
 20
823.75
 11
1495.531189
 21
823.45001200000002
  0
LINE
  8
_0-0_0
  6
CONTINUOUS
 62
    7
 10
1495.531189
 20
823.45001200000002
 11
1495.531189
 21
823.25
  0
CIRCLE
  8
_0-0_0
  6
CONTINUOUS
 62
    7
 10
1459.031189
 20
811.25
 40
5.5
  0
CIRCLE
  8
_0-0_0
  6
CONTINUOUS
 62
    7
 10
1359.031189
 20
811.25
 40
5.5
  0
CIRCLE
  8
_0-0_0
  6
CONTINUOUS
 62
    7
 10
1259.031189
 20
811.25
 40
5.5
  0
CIRCLE
  8
_0-0_0
  6
CONTINUOUS
 62
    7
 10
1159.0311889999998
 20
811.25
 40
5.5
  0
CIRCLE
  8
_0-0_0
  6
CONTINUOUS
 62
    7
 10
1059.0310669999999
 20
811.25
 40
5.5
  0
CIRCLE
  8
_0-0_0
  6
CONTINUOUS
 62
    7
 10
959.03106700000001
 20
811.25
 40
5.5
  0
CIRCLE
  8
_0-0_0
  6
CONTINUOUS
 62
    7
 10
859.03106700000001
 20
811.25
 40
5.5
  0
CIRCLE
  8
_0-0_0
  6
CONTINUOUS
 62
    7
 10
759.03106700000001
 20
811.25
 40
5.5
  0
CIRCLE
  8
_0-0_0
  6
CONTINUOUS
 62
    7
 10
659.03106699999989
 20
811.25
 40
5.5
  0
CIRCLE
  8
_0-0_0
  6
CONTINUOUS
 62
    7
 10
559.03112799999997
 20
811.25
 40
5.5
  0
CIRCLE
  8
_0-0_0
  6
CONTINUOUS
 62
    7
 10
459.03112799999997
 20
811.25
 40
5.5
  0
CIRCLE
  8
_0-0_0
  6
CONTINUOUS
 62
    7
 10
359.03111299999995
 20
811.25
 40
5.5
  0
CIRCLE
  8
_0-0_0
  6
CONTINUOUS
 62
    7
 10
259.03109699999993
 20
811.25
 40
5.5
  0
CIRCLE
  8
_0-0_0
  6
CONTINUOUS
 62
    7
 10
159.03109699999993
 20
811.25
 40
5.5
  0
LINE
  8
_0-0_0
  6
CONTINUOUS
 62
    7
 10
180.53109799999993
 20
776.25
 11
180.53109799999993
 21
780.25
  0
CIRCLE
  8
_0-0_0
  6
CONTINUOUS
 62
    7
 10
1459.031189
 20
811.25
 40
3.5
  0
CIRCLE
  8
_0-0_0
  6
CONTINUOUS
 62
    7
 10
1359.031189
 20
811.25
 40
3.5
  0
CIRCLE
  8
_0-0_0
  6
CONTINUOUS
 62
    7
 10
1259.031189
 20
811.25
 40
3.5
  0
CIRCLE
  8
_0-0_0
  6
CONTINUOUS
 62
    7
 10
1159.0311889999998
 20
811.25
 40
3.5
  0
CIRCLE
  8
_0-0_0
  6
CONTINUOUS
 62
    7
 10
1059.0310669999999
 20
811.25
 40
3.5
  0
CIRCLE
  8
_0-0_0
  6
CONTINUOUS
 62
    7
 10
959.03106700000001
 20
811.25
 40
3.5
  0
CIRCLE
  8
_0-0_0
  6
CONTINUOUS
 62
    7
 10
859.03106700000001
 20
811.25
 40
3.5
  0
CIRCLE
  8
_0-0_0
  6
CONTINUOUS
 62
    7
 10
759.03106700000001
 20
811.25
 40
3.5
  0
CIRCLE
  8
_0-0_0
  6
CONTINUOUS
 62
    7
 10
659.03106699999989
 20
811.25
 40
3.5
  0
CIRCLE
  8
_0-0_0
  6
CONTINUOUS
 62
    7
 10
559.03112799999997
 20
811.25
 40
3.5
  0
CIRCLE
  8
_0-0_0
  6
CONTINUOUS
 62
    7
 10
459.03112799999997
 20
811.25
 40
3.5
  0
CIRCLE
  8
_0-0_0
  6
CONTINUOUS
 62
    7
 10
359.03111299999995
 20
811.25
 40
3.5
  0
CIRCLE
  8
_0-0_0
  6
CONTINUOUS
 62
    7
 10
259.03109699999993
 20
811.25
 40
3.5
  0
CIRCLE
  8
_0-0_0
  6
CONTINUOUS
 62
    7
 10
159.03109699999993
 20
811.25
 40
3.5
  0
ARC
  8
_0-0_0
  6
CONTINUOUS
 62
    7
 10
177.83110099999999
 20
779.95001200000002
 40
0.2
 50
339.62356199999999
 51
90.000002999999978
  0
LINE
  8
_0-0_0
  6
CONTINUOUS
 62
    7
 10
178.01858499999992
 20
779.88037099999997
 11
176.71858199999997
 21
776.38037099999997
  0
ARC
  8
_0-0_0
  6
CONTINUOUS
 62
    7
 10
176.53109799999993
 20
776.45001200000002
 40
0.2
 50
200.37643
 51
339.62356199999999
  0
LINE
  8
_0-0_0
  6
CONTINUOUS
 62
    7
 10
175.04361699999993
 20
779.88037099999997
 11
176.343613
 21
776.38037099999997
  0
ARC
  8
_0-0_0
  6
CONTINUOUS
 62
    7
 10
175.23110199999996
 20
779.95001200000002
 40
0.2
 50
90.000003000000007
 51
200.37643
  0
LINE
  8
_0-0_0
  6
CONTINUOUS
 62
    7
 10
175.23110199999996
 20
780.15002400000003
 11
177.83110099999999
 21
780.15002400000003
  0
ARC
  8
_0-0_0
  6
CONTINUOUS
 62
    7
 10
1415.2311399999999
 20
779.95001200000002
 40
0.2
 50
90.000003000000007
 51
200.37643
  0
LINE
  8
_0-0_0
  6
CONTINUOUS
 62
    7
 10
1415.2311399999999
 20
780.15002400000003
 11
1417.831238
 21
780.15002400000003
  0
ARC
  8
_0-0_0
  6
CONTINUOUS
 62
    7
 10
1413.031189
 20
780.25
 40
0.5
 50
90.000003000000007
 51
179.99999099999999
  0
LINE
  8
_0-0_0
  6
CONTINUOUS
 62
    7
 10
1412.531189
 20
780.25
 11
1412.531189
 21
776.25
  0
ARC
  8
_0-0_0
  6
CONTINUOUS
 62
    7
 10
1413.031189
 20
776.25
 40
0.5
 50
179.99999099999999
 51
269.99999700000001
  0
LINE
  8
_0-0_0
  6
CONTINUOUS
 62
    7
 10
1420.031189
 20
775.75
 11
1413.031189
 21
775.75
  0
ARC
  8
_0-0_0
  6
CONTINUOUS
 62
    7
 10
1420.031189
 20
776.25
 40
0.5
 50
269.99999700000001
 51
0
  0
LINE
  8
_0-0_0
  6
CONTINUOUS
 62
    7
 10
1420.531189
 20
776.25
 11
1420.531189
 21
780.25
  0
ARC
  8
_0-0_0
  6
CONTINUOUS
 62
    7
 10
1420.031189
 20
780.25
 40
0.5
 50
0
 51
90.000003000000007
  0
LINE
  8
_0-0_0
  6
CONTINUOUS
 62
    7
 10
1413.031189
 20
780.75
 11
1420.031189
 21
780.75
  0
LINE
  8
_0-0_0
  6
CONTINUOUS
 62
    7
 10
1415.043762
 20
779.88037099999997
 11
1416.343689
 21
776.38037099999997
  0
ARC
  8
_0-0_0
  6
CONTINUOUS
 62
    7
 10
1416.531189
 20
776.45001200000002
 40
0.2
 50
200.37643
 51
339.62356199999999
  0
LINE
  8
_0-0_0
  6
CONTINUOUS
 62
    7
 10
1418.0186160000001
 20
779.88037099999997
 11
1416.718689
 21
776.38037099999997
  0
ARC
  8
_0-0_0
  6
CONTINUOUS
 62
    7
 10
1417.831238
 20
779.95001200000002
 40
0.2
 50
339.62356199999999
 51
90.000002999999978
  0
LINE
  8
_0-0_0
  6
CONTINUOUS
 62
    7
 10
64.606445000000008
 20
773.25
 11
64.706443999999919
 21
773.25
  0
LINE
  8
_0-0_0
  6
CONTINUOUS
 62
    7
 10
80.406447999999955
 20
773.25
 11
79.706443999999919
 21
773.25
  0
LINE
  8
_0-0_0
  6
CONTINUOUS
 62
    7
 10
80.406447999999955
 20
773.25
 11
81.606445000000008
 21
773.25
  0
ARC
  8
_0-0_0
  6
CONTINUOUS
 62
    7
 10
81.606445000000008
 20
772.75
 40
0.5
 50
0
 51
90.000003000000007
  0
ARC
  8
_0-0_0
  6
CONTINUOUS
 62
    7
 10
80.406447999999955
 20
772.75
 40
0.5
 50
90.000003000000007
 51
179.99999099999999
  0
ARC
  8
_0-0_0
  6
CONTINUOUS
 62
    7
 10
64.606445000000008
 20
772.75
 40
0.5
 50
90.000003000000007
 51
179.99999099999999
  0
ARC
  8
_0-0_0
  6
CONTINUOUS
 62
    7
 10
66.106445000000008
 20
773.75
 40
0.5
 50
90.000003000000007
 51
126.868797
  0
LINE
  8
_0-0_0
  6
CONTINUOUS
 62
    7
 10
67.606445000000008
 20
774.25
 11
66.106445000000008
 21
774.25
  0
ARC
  8
_0-0_0
  6
CONTINUOUS
 62
    7
 10
67.606445000000008
 20
775.25
 40
1
 50
269.99999700000001
 51
0
  0
LINE
  8
_0-0_0
  6
CONTINUOUS
 62
    7
 10
68.606445000000008
 20
775.75
 11
68.606445000000008
 21
775.25
  0
LINE
  8
_0-0_0
  6
CONTINUOUS
 62
    7
 10
69.106445000000008
 20
775.75
 11
69.106445000000008
 21
774.75
  0
ARC
  8
_0-0_0
  6
CONTINUOUS
 62
    7
 10
67.606445000000008
 20
774.75
 40
1.5
 50
336.42205899999999
 51
0
  0
ARC
  8
_0-0_0
  6
CONTINUOUS
 62
    7
 10
79.206451000000015
 20
774.75
 40
1.5
 50
179.99999099999999
 51
203.57793100000001
  0
LINE
  8
_0-0_0
  6
CONTINUOUS
 62
    7
 10
81.206451000000015
 20
773.75
 11
81.206451000000015
 21
773.25
  0
ARC
  8
_0-0_0
  6
CONTINUOUS
 62
    7
 10
80.706451000000015
 20
773.75
 40
0.5
 50
0
 51
90.000003000000007
  0
LINE
  8
_0-0_0
  6
CONTINUOUS
 62
    7
 10
79.206451000000015
 20
774.25
 11
80.706451000000015
 21
774.25
  0
ARC
  8
_0-0_0
  6
CONTINUOUS
 62
    7
 10
79.206451000000015
 20
775.25
 40
1
 50
179.99999099999999
 51
269.99999700000001
  0
LINE
  8
_0-0_0
  6
CONTINUOUS
 62
    7
 10
78.206451000000015
 20
775.75
 11
78.206451000000015
 21
775.25
  0
LINE
  8
_0-0_0
  6
CONTINUOUS
 62
    7
 10
77.706451000000015
 20
775.75
 11
77.706451000000015
 21
774.75
  0
LINE
  8
_0-0_0
  6
CONTINUOUS
 62
    7
 10
82.106445000000008
 20
746.25
 11
82.106445000000008
 21
747.15002400000003
  0
LINE
  8
_0-0_0
  6
CONTINUOUS
 62
    7
 10
82.106445000000008
 20
747.15002400000003
 11
82.106445000000008
 21
749.65002400000003
  0
LINE
  8
_0-0_0
  6
CONTINUOUS
 62
    7
 10
82.106445000000008
 20
749.65002400000003
 11
82.106445000000008
 21
770.25
  0
LINE
  8
_0-0_0
  6
CONTINUOUS
 62
    7
 10
82.106445000000008
 20
770.25
 11
82.106445000000008
 21
772.75
  0
LINE
  8
_0-0_0
  6
CONTINUOUS
 62
    7
 10
79.906447999999955
 20
772.75
 11
79.906447999999955
 21
771.50500499999998
  0
LINE
  8
_0-0_0
  6
CONTINUOUS
 62
    7
 10
77.50644699999998
 20
774.15002400000003
 11
77.50644699999998
 21
775.55001800000002
  0
ARC
  8
_0-0_0
  6
CONTINUOUS
 62
    7
 10
77.00644699999998
 20
775.55001800000002
 40
0.5
 50
0
 51
23.579369
  0
LINE
  8
_0-0_0
  6
CONTINUOUS
 62
    7
 10
69.306449999999927
 20
774.15002400000003
 11
69.306449999999927
 21
775.55001800000002
  0
ARC
  8
_0-0_0
  6
CONTINUOUS
 62
    7
 10
69.806449999999927
 20
775.55001800000002
 40
0.5
 50
156.420635
 51
179.99999099999999
  0
LINE
  8
_0-0_0
  6
CONTINUOUS
 62
    7
 10
64.106445000000008
 20
746.25
 11
64.106445000000008
 21
756.45001200000002
  0
LINE
  8
_0-0_0
  6
CONTINUOUS
 62
    7
 10
64.106445000000008
 20
756.45001200000002
 11
64.106445000000008
 21
757.45001200000002
  0
LINE
  8
_0-0_0
  6
CONTINUOUS
 62
    7
 10
64.106445000000008
 20
757.45001200000002
 11
64.106445000000008
 21
762.45001200000002
  0
LINE
  8
_0-0_0
  6
CONTINUOUS
 62
    7
 10
64.106445000000008
 20
762.45001200000002
 11
64.106445000000008
 21
763.45001200000002
  0
LINE
  8
_0-0_0
  6
CONTINUOUS
 62
    7
 10
64.106445000000008
 20
772.75
 11
64.106445000000008
 21
763.45001200000002
  0
ARC
  8
_0-0_0
  6
CONTINUOUS
 62
    7
 10
65.206451000000015
 20
762.45001200000002
 40
0.5
 50
0
 51
90.000003000000007
  0
LINE
  8
_0-0_0
  6
CONTINUOUS
 62
    7
 10
65.306449999999927
 20
763.40002400000003
 11
65.206451000000015
 21
763.40002400000003
  0
ARC
  8
_0-0_0
  6
CONTINUOUS
 62
    7
 10
65.306449999999927
 20
762.90002400000003
 40
0.5
 50
0
 51
90.000003000000007
  0
LINE
  8
_0-0_0
  6
CONTINUOUS
 62
    7
 10
65.706451000000015
 20
762.45001200000002
 11
65.706451000000015
 21
757.45001200000002
  0
ARC
  8
_0-0_0
  6
CONTINUOUS
 62
    7
 10
65.206451000000015
 20
757.45001200000002
 40
0.5
 50
269.99999700000001
 51
0
  0
ARC
  8
_0-0_0
  6
CONTINUOUS
 62
    7
 10
65.306449999999927
 20
757.35000600000001
 40
0.5
 50
269.99999700000001
 51
0
  0
LINE
  8
_0-0_0
  6
CONTINUOUS
 62
    7
 10
65.206451000000015
 20
756.85000600000001
 11
65.306449999999927
 21
756.85000600000001
  0
LINE
  8
_0-0_0
  6
CONTINUOUS
 62
    7
 10
82.906447999999955
 20
771.75
 11
82.106445000000008
 21
771.75
  0
LINE
  8
_0-0_0
  6
CONTINUOUS
 62
    7
 10
82.906447999999955
 20
772.55001800000002
 11
82.106445000000008
 21
772.55001800000002
  0
LINE
  8
_0-0_0
  6
CONTINUOUS
 62
    7
 10
82.906447999999955
 20
771.55001800000002
 11
82.906447999999955
 21
772.55001800000002
  0
LINE
  8
_0-0_0
  6
CONTINUOUS
 62
    7
 10
82.906447999999955
 20
752.95001200000002
 11
82.106445000000008
 21
752.95001200000002
  0
LINE
  8
_0-0_0
  6
CONTINUOUS
 62
    7
 10
82.906447999999955
 20
752.95001200000002
 11
82.906447999999955
 21
755.95001200000002
  0
LINE
  8
_0-0_0
  6
CONTINUOUS
 62
    7
 10
82.906447999999955
 20
768.18771400000003
 11
82.906447999999955
 21
755.95001200000002
  0
LINE
  8
_0-0_0
  6
CONTINUOUS
 62
    7
 10
82.906447999999955
 20
768.18771400000003
 11
82.906447999999955
 21
769.15048200000001
  0
LINE
  8
_0-0_0
  6
CONTINUOUS
 62
    7
 10
82.106445000000008
 20
769.15048200000001
 11
82.106445000000008
 21
771.75
  0
ARC
  8
_0-0_0
  6
CONTINUOUS
 62
    7
 10
76.491523999999913
 20
768.43206800000007
 40
5.7120379999999997
 50
18.558475999999999
 51
26.433648000000002
  0
ARC
  8
_0-0_0
  6
CONTINUOUS
 62
    7
 10
81.906447999999955
 20
770.25
 40
0.2
 50
269.99999700000001
 51
0
  0
ARC
  8
_0-0_0
  6
CONTINUOUS
 62
    7
 10
81.906447999999955
 20
749.65002400000003
 40
0.2
 50
0
 51
90.000003000000007
  0
ARC
  8
_0-0_0
  6
CONTINUOUS
 62
    7
 10
76.491637999999966
 20
751.46804799999995
 40
5.711964
 50
333.565022
 51
341.44031000000001
  0
ARC
  8
_0-0_0
  6
CONTINUOUS
 62
    7
 10
81.606445000000008
 20
747.15002400000003
 40
0.5
 50
269.99999700000001
 51
0
  0
LINE
  8
_0-0_0
  6
CONTINUOUS
 62
    7
 10
81.606445000000008
 20
746.25
 11
82.106445000000008
 21
746.25
  0
LINE
  8
_0-0_0
  6
CONTINUOUS
 62
    7
 10
82.106445000000008
 20
746.25
 11
81.606445000000008
 21
745.75
  0
ARC
  8
_0-0_0
  6
CONTINUOUS
 62
    7
 10
79.906447999999955
 20
768.75
 40
2.2999999999999998
 50
34.417387999999995
 51
79.713437000000013
  0
LINE
  8
_0-0_0
  6
CONTINUOUS
 62
    7
 10
81.845130999999924
 20
770.05001800000002
 11
81.803817999999978
 21
770.05001800000002
  0
LINE
  8
_0-0_0
  6
CONTINUOUS
 62
    7
 10
81.845130999999924
 20
770.05001800000002
 11
81.854691000000003
 21
770.05102499999998
  0
LINE
  8
_0-0_0
  6
CONTINUOUS
 62
    7
 10
81.854691000000003
 20
770.05102499999998
 11
81.864180999999917
 21
770.05422999999996
  0
LINE
  8
_0-0_0
  6
CONTINUOUS
 62
    7
 10
81.864180999999917
 20
770.05422999999996
 11
81.87343599999997
 21
770.05963100000008
  0
LINE
  8
_0-0_0
  6
CONTINUOUS
 62
    7
 10
81.87343599999997
 20
770.05963100000008
 11
81.882232999999928
 21
770.067139
  0
LINE
  8
_0-0_0
  6
CONTINUOUS
 62
    7
 10
81.882232999999928
 20
770.067139
 11
81.897628999999938
 21
770.08776899999998
  0
LINE
  8
_0-0_0
  6
CONTINUOUS
 62
    7
 10
81.897628999999938
 20
770.08776899999998
 11
81.909408999999982
 21
770.11505099999999
  0
LINE
  8
_0-0_0
  6
CONTINUOUS
 62
    7
 10
81.909408999999982
 20
770.11505099999999
 11
81.916587999999933
 21
770.14718599999992
  0
LINE
  8
_0-0_0
  6
CONTINUOUS
 62
    7
 10
81.916587999999933
 20
770.14718599999992
 11
81.918479999999931
 21
770.18225099999995
  0
LINE
  8
_0-0_0
  6
CONTINUOUS
 62
    7
 10
81.918479999999931
 20
770.18225099999995
 11
81.914634999999976
 21
770.21841399999994
  0
LINE
  8
_0-0_0
  6
CONTINUOUS
 62
    7
 10
81.914634999999976
 20
770.21841399999994
 11
81.906447999999955
 21
770.25
  0
ARC
  8
_0-0_0
  6
CONTINUOUS
 62
    7
 10
80.406447999999955
 20
771.50500499999998
 40
0.5
 50
179.99999099999999
 51
259.71343899999994
  0
LINE
  8
_0-0_0
  6
CONTINUOUS
 62
    7
 10
79.706451000000015
 20
771.60000600000001
 11
79.706451000000015
 21
771.30657999999994
  0
LINE
  8
_0-0_0
  6
CONTINUOUS
 62
    7
 10
79.706451000000015
 20
771.60000600000001
 11
79.706451000000015
 21
773.65002400000003
  0
ARC
  8
_0-0_0
  6
CONTINUOUS
 62
    7
 10
79.206451000000015
 20
773.65002400000003
 40
0.5
 50
0
 51
90.000003000000007
  0
LINE
  8
_0-0_0
  6
CONTINUOUS
 62
    7
 10
79.206451000000015
 20
774.15002400000003
 11
76.463553999999931
 21
774.15002400000003
  0
ARC
  8
_0-0_0
  6
CONTINUOUS
 62
    7
 10
65.206451000000015
 20
763.90002400000003
 40
0.5
 50
179.99999099999999
 51
269.99999700000001
  0
LINE
  8
_0-0_0
  6
CONTINUOUS
 62
    7
 10
64.706451000000015
 20
773.65002400000003
 11
64.706451000000015
 21
763.90002400000003
  0
LINE
  8
_0-0_0
  6
CONTINUOUS
 62
    7
 10
70.349341999999979
 20
774.15002400000003
 11
65.206451000000015
 21
774.15002400000003
  0
ARC
  8
_0-0_0
  6
CONTINUOUS
 62
    7
 10
65.206451000000015
 20
773.65002400000003
 40
0.5
 50
90.000003000000007
 51
179.99999099999999
  0
LINE
  8
_0-0_0
  6
CONTINUOUS
 62
    7
 10
63.906447999999955
 20
771.75
 11
64.106445000000008
 21
771.75
  0
LINE
  8
_0-0_0
  6
CONTINUOUS
 62
    7
 10
63.906447999999955
 20
772.55001800000002
 11
64.106445000000008
 21
772.55001800000002
  0
LINE
  8
_0-0_0
  6
CONTINUOUS
 62
    7
 10
63.906447999999955
 20
772.55001800000002
 11
63.906447999999955
 21
771.75012199999992
  0
LINE
  8
_0-0_0
  6
CONTINUOUS
 62
    7
 10
63.906447999999955
 20
752.95001200000002
 11
64.106445000000008
 21
752.95001200000002
  0
LINE
  8
_0-0_0
  6
CONTINUOUS
 62
    7
 10
63.906447999999955
 20
755.95001200000002
 11
63.906447999999955
 21
752.95001200000002
  0
LINE
  8
_0-0_0
  6
CONTINUOUS
 62
    7
 10
63.906447999999955
 20
768.18771400000003
 11
63.906447999999955
 21
755.95001200000002
  0
LINE
  8
_0-0_0
  6
CONTINUOUS
 62
    7
 10
63.906447999999955
 20
769.15048200000001
 11
63.906447999999955
 21
768.18771400000003
  0
ARC
  8
_0-0_0
  6
CONTINUOUS
 62
    7
 10
64.606445000000008
 20
762.45001200000002
 40
0.5
 50
90.000003000000007
 51
179.99999099999999
  0
ARC
  8
_0-0_0
  6
CONTINUOUS
 62
    7
 10
64.606445000000008
 20
757.45001200000002
 40
0.5
 50
179.99999099999999
 51
269.99999700000001
  0
LINE
  8
_0-0_0
  6
CONTINUOUS
 62
    7
 10
64.106445000000008
 20
746.25
 11
64.606445000000008
 21
746.25
  0
LINE
  8
_0-0_0
  6
CONTINUOUS
 62
    7
 10
64.106445000000008
 20
746.25
 11
64.606445000000008
 21
745.75
  0
LINE
  8
_0-0_0
  6
CONTINUOUS
 62
    7
 10
65.206451000000015
 20
762.95001200000002
 11
64.606445000000008
 21
762.95001200000002
  0
LINE
  8
_0-0_0
  6
CONTINUOUS
 62
    7
 10
65.806449999999927
 20
762.90002400000003
 11
65.806449999999927
 21
757.35000600000001
  0
LINE
  8
_0-0_0
  6
CONTINUOUS
 62
    7
 10
81.606445000000008
 20
746.25
 11
64.606445000000008
 21
746.25
  0
LINE
  8
_0-0_0
  6
CONTINUOUS
 62
    7
 10
64.606445000000008
 20
756.95001200000002
 11
65.206451000000015
 21
756.95001200000002
  0
ARC
  8
_0-0_0
  6
CONTINUOUS
 62
    7
 10
65.206451000000015
 20
756.35000600000001
 40
0.5
 50
90.000003000000007
 51
179.99999099999999
  0
LINE
  8
_0-0_0
  6
CONTINUOUS
 62
    7
 10
82.906447999999955
 20
769.15048200000001
 11
82.906447999999955
 21
771.75
  0
LINE
  8
_0-0_0
  6
CONTINUOUS
 62
    7
 10
81.906447999999955
 20
770.05001800000002
 11
81.845130999999924
 21
770.05001800000002
  0
LINE
  8
_0-0_0
  6
CONTINUOUS
 62
    7
 10
81.803817999999978
 20
770.05001800000002
 11
81.801589999999919
 21
770.05001800000002
  0
LINE
  8
_0-0_0
  6
CONTINUOUS
 62
    7
 10
81.669913999999949
 20
750.05001800000002
 11
81.706839999999943
 21
749.97976700000004
  0
LINE
  8
_0-0_0
  6
CONTINUOUS
 62
    7
 10
81.706839999999943
 20
749.97976700000004
 11
81.726439999999911
 21
749.94531299999994
  0
LINE
  8
_0-0_0
  6
CONTINUOUS
 62
    7
 10
81.726439999999911
 20
749.94531299999994
 11
81.752532999999971
 21
749.90344200000004
  0
LINE
  8
_0-0_0
  6
CONTINUOUS
 62
    7
 10
81.752532999999971
 20
749.90344200000004
 11
81.765838999999914
 21
749.88439900000003
  0
LINE
  8
_0-0_0
  6
CONTINUOUS
 62
    7
 10
81.765838999999914
 20
749.88439900000003
 11
81.784194999999954
 21
749.86203
  0
LINE
  8
_0-0_0
  6
CONTINUOUS
 62
    7
 10
81.784194999999954
 20
749.86203
 11
81.79698899999994
 21
749.85140999999999
  0
LINE
  8
_0-0_0
  6
CONTINUOUS
 62
    7
 10
81.79698899999994
 20
749.85140999999999
 11
81.801589999999919
 21
749.85000600000001
  0
LINE
  8
_0-0_0
  6
CONTINUOUS
 62
    7
 10
81.803817999999978
 20
749.85000600000001
 11
81.801589999999919
 21
749.85000600000001
  0
LINE
  8
_0-0_0
  6
CONTINUOUS
 62
    7
 10
81.669913999999949
 20
769.85000600000001
 11
81.706839999999943
 21
769.92022700000007
  0
LINE
  8
_0-0_0
  6
CONTINUOUS
 62
    7
 10
81.706839999999943
 20
769.92022700000007
 11
81.726448000000005
 21
769.95471199999997
  0
LINE
  8
_0-0_0
  6
CONTINUOUS
 62
    7
 10
81.726448000000005
 20
769.95471199999997
 11
81.752532999999971
 21
769.99655200000007
  0
LINE
  8
_0-0_0
  6
CONTINUOUS
 62
    7
 10
81.752532999999971
 20
769.99655200000007
 11
81.765838999999914
 21
770.01559399999996
  0
LINE
  8
_0-0_0
  6
CONTINUOUS
 62
    7
 10
81.765838999999914
 20
770.01559399999996
 11
81.784194999999954
 21
770.03799400000003
  0
LINE
  8
_0-0_0
  6
CONTINUOUS
 62
    7
 10
81.784194999999954
 20
770.03799400000003
 11
81.79698899999994
 21
770.04861499999993
  0
LINE
  8
_0-0_0
  6
CONTINUOUS
 62
    7
 10
81.79698899999994
 20
770.04861499999993
 11
81.801589999999919
 21
770.05001800000002
  0
LINE
  8
_0-0_0
  6
CONTINUOUS
 62
    7
 10
81.803817999999978
 20
749.85000600000001
 11
81.845130999999924
 21
749.85000600000001
  0
LINE
  8
_0-0_0
  6
CONTINUOUS
 62
    7
 10
81.906447999999955
 20
749.85000600000001
 11
81.845130999999924
 21
749.85000600000001
  0
LINE
  8
_0-0_0
  6
CONTINUOUS
 62
    7
 10
81.845130999999924
 20
749.85000600000001
 11
81.854691000000003
 21
749.84896900000001
  0
LINE
  8
_0-0_0
  6
CONTINUOUS
 62
    7
 10
81.854691000000003
 20
749.84896900000001
 11
81.864180999999917
 21
749.84576399999992
  0
LINE
  8
_0-0_0
  6
CONTINUOUS
 62
    7
 10
81.864180999999917
 20
749.84576399999992
 11
81.87343599999997
 21
749.84039299999995
  0
LINE
  8
_0-0_0
  6
CONTINUOUS
 62
    7
 10
81.87343599999997
 20
749.84039299999995
 11
81.882232999999928
 21
749.83288599999992
  0
LINE
  8
_0-0_0
  6
CONTINUOUS
 62
    7
 10
81.882232999999928
 20
749.83288599999992
 11
81.897628999999938
 21
749.81225599999993
  0
LINE
  8
_0-0_0
  6
CONTINUOUS
 62
    7
 10
81.897628999999938
 20
749.81225599999993
 11
81.909408999999982
 21
749.78497300000004
  0
LINE
  8
_0-0_0
  6
CONTINUOUS
 62
    7
 10
81.909408999999982
 20
749.78497300000004
 11
81.916587999999933
 21
749.752838
  0
LINE
  8
_0-0_0
  6
CONTINUOUS
 62
    7
 10
81.916587999999933
 20
749.752838
 11
81.918479999999931
 21
749.71777300000008
  0
LINE
  8
_0-0_0
  6
CONTINUOUS
 62
    7
 10
81.918479999999931
 20
749.71777300000008
 11
81.914634999999976
 21
749.68160999999998
  0
LINE
  8
_0-0_0
  6
CONTINUOUS
 62
    7
 10
81.914634999999976
 20
749.68160999999998
 11
81.906447999999955
 21
749.65002400000003
  0
ARC
  8
_0-0_0
  6
CONTINUOUS
 62
    7
 10
79.906447999999955
 20
751.15002400000003
 40
2.2999999999999998
 50
280.28656300000006
 51
325.58260500000006
  0
LINE
  8
_0-0_0
  6
CONTINUOUS
 62
    7
 10
81.606445000000008
 20
746.65002400000003
 11
80.406447999999955
 21
746.65002400000003
  0
LINE
  8
_0-0_0
  6
CONTINUOUS
 62
    7
 10
81.606445000000008
 20
745.75
 11
64.606445000000008
 21
745.75
  0
LINE
  8
_0-0_0
  6
CONTINUOUS
 62
    7
 10
79.706451000000015
 20
771.30657999999994
 11
79.70671799999991
 21
771.29016100000001
  0
ARC
  8
_0-0_0
  6
CONTINUOUS
 62
    7
 10
80.206451000000015
 20
771.30657999999994
 40
0.5
 50
181.88290099999998
 51
260.07179799999994
  0
LINE
  8
_0-0_0
  6
CONTINUOUS
 62
    7
 10
79.206451000000015
 20
772.09429899999998
 11
79.406447999999955
 21
771.89999399999999
  0
LINE
  8
_0-0_0
  6
CONTINUOUS
 62
    7
 10
79.406447999999955
 20
771.89999399999999
 11
79.706451000000015
 21
771.60000600000001
  0
LINE
  8
_0-0_0
  6
CONTINUOUS
 62
    7
 10
79.706451000000015
 20
771.60000600000001
 11
79.406447999999955
 21
771.60000600000001
  0
ARC
  8
_0-0_0
  6
CONTINUOUS
 62
    7
 10
76.463553999999931
 20
774.65002400000003
 40
0.5
 50
225
 51
269.99999700000001
  0
ARC
  8
_0-0_0
  6
CONTINUOUS
 62
    7
 10
70.349341999999979
 20
774.65002400000003
 40
0.5
 50
269.99999700000001
 51
314.99999200000002
  0
LINE
  8
_0-0_0
  6
CONTINUOUS
 62
    7
 10
63.906447999999955
 20
771.75
 11
63.906447999999955
 21
769.15048200000001
  0
LINE
  8
_0-0_0
  6
CONTINUOUS
 62
    7
 10
82.106445000000008
 20
772.55004899999994
 11
82.106445000000008
 21
772.75
  0
CIRCLE
  8
_0-0_0
  6
CONTINUOUS
 62
    7
 10
73.406447999999955
 20
771.75
 40
2.25
  0
ARC
  8
_0-0_0
  6
CONTINUOUS
 62
    7
 10
73.406447999999955
 20
751.65002400000003
 40
1.75
 50
179.99999099999999
 51
359.99998299999993
  0
LINE
  8
_0-0_0
  6
CONTINUOUS
 62
    7
 10
71.656447999999955
 20
751.90002400000003
 11
71.656447999999955
 21
751.65002400000003
  0
ARC
  8
_0-0_0
  6
CONTINUOUS
 62
    7
 10
73.406447999999955
 20
751.90002400000003
 40
1.75
 50
0
 51
179.99999099999999
  0
LINE
  8
_0-0_0
  6
CONTINUOUS
 62
    7
 10
75.156447999999955
 20
751.65002400000003
 11
75.156447999999955
 21
751.90002400000003
  0
ARC
  8
_0-0_0
  6
CONTINUOUS
 62
    7
 10
79.106445000000008
 20
751.95001200000002
 40
3
 50
269.99999700000001
 51
0
  0
LINE
  8
_0-0_0
  6
CONTINUOUS
 62
    7
 10
64.706451000000015
 20
756.35000600000001
 11
64.706451000000015
 21
755.5
  0
LINE
  8
_0-0_0
  6
CONTINUOUS
 62
    7
 10
64.706451000000015
 20
749.45001200000002
 11
64.706451000000015
 21
755.5
  0
ARC
  8
_0-0_0
  6
CONTINUOUS
 62
    7
 10
79.706451000000015
 20
768.45001200000002
 40
2.3999999999999999
 50
0
 51
80.071809999999985
  0
LINE
  8
_0-0_0
  6
CONTINUOUS
 62
    7
 10
82.106445000000008
 20
751.95001200000002
 11
82.106445000000008
 21
764.75
  0
LINE
  8
_0-0_0
  6
CONTINUOUS
 62
    7
 10
82.106445000000008
 20
764.75
 11
82.106445000000008
 21
768.45001200000002
  0
ARC
  8
_0-0_0
  6
CONTINUOUS
 62
    7
 10
80.406447999999955
 20
748.39501999999993
 40
0.5
 50
100.28656100000001
 51
179.99999099999999
  0
LINE
  8
_0-0_0
  6
CONTINUOUS
 62
    7
 10
79.906447999999955
 20
747.15002400000003
 11
79.906447999999955
 21
748.39501999999993
  0
ARC
  8
_0-0_0
  6
CONTINUOUS
 62
    7
 10
80.406447999999955
 20
747.15002400000003
 40
0.5
 50
179.99999099999999
 51
269.99999700000001
  0
LINE
  8
_0-0_0
  6
CONTINUOUS
 62
    7
 10
70.70289600000001
 20
774.29644800000005
 11
70.760001999999986
 21
774.35357699999997
  0
ARC
  8
_0-0_0
  6
CONTINUOUS
 62
    7
 10
71.113556000000017
 20
774
 40
0.5
 50
90.000003000000007
 51
135
  0
LINE
  8
_0-0_0
  6
CONTINUOUS
 62
    7
 10
75.699341000000004
 20
774.5
 11
71.113556000000017
 21
774.5
  0
ARC
  8
_0-0_0
  6
CONTINUOUS
 62
    7
 10
75.699341000000004
 20
774
 40
0.5
 50
45.00000099999999
 51
90.000002999999992
  0
LINE
  8
_0-0_0
  6
CONTINUOUS
 62
    7
 10
76.110001000000011
 20
774.29644800000005
 11
76.052894999999921
 21
774.35357699999997
  0
ARC
  8
_0-0_0
  6
CONTINUOUS
 62
    7
 10
79.406447999999955
 20
768.60000600000001
 40
3
 50
90.000003000000007
 51
179.99999099999999
  0
LINE
  8
_0-0_0
  6
CONTINUOUS
 62
    7
 10
67.406447999999955
 20
755
 11
65.206451000000015
 21
755
  0
ARC
  8
_0-0_0
  6
CONTINUOUS
 62
    7
 10
67.406447999999955
 20
752
 40
3
 50
0
 51
90.000003000000007
  0
LINE
  8
_0-0_0
  6
CONTINUOUS
 62
    7
 10
70.406447999999955
 20
752
 11
70.406447999999955
 21
749.45001200000002
  0
LINE
  8
_0-0_0
  6
CONTINUOUS
 62
    7
 10
70.906447999999955
 20
748.95001200000002
 11
79.106445000000008
 21
748.95001200000002
  0
LINE
  8
_0-0_0
  6
CONTINUOUS
 62
    7
 10
79.406447999999955
 20
765.25
 11
81.606445000000008
 21
765.25
  0
ARC
  8
_0-0_0
  6
CONTINUOUS
 62
    7
 10
79.406447999999955
 20
768.25
 40
3
 50
179.99999099999999
 51
269.99999700000001
  0
LINE
  8
_0-0_0
  6
CONTINUOUS
 62
    7
 10
76.406447999999955
 20
768.25
 11
76.406447999999955
 21
768.60000600000001
  0
CIRCLE
  8
_0-0_0
  6
CONTINUOUS
 62
    7
 10
73.406447999999955
 20
771.75
 40
2.0499999999999998
  0
ARC
  8
_0-0_0
  6
CONTINUOUS
 62
    7
 10
73.406447999999955
 20
751.65002400000003
 40
1.55
 50
179.99999099999999
 51
0
  0
LINE
  8
_0-0_0
  6
CONTINUOUS
 62
    7
 10
71.856445000000008
 20
751.90002400000003
 11
71.856445000000008
 21
751.65002400000003
  0
ARC
  8
_0-0_0
  6
CONTINUOUS
 62
    7
 10
73.406447999999955
 20
751.90002400000003
 40
1.55
 50
0
 51
179.99999099999999
  0
LINE
  8
_0-0_0
  6
CONTINUOUS
 62
    7
 10
74.956451000000015
 20
751.65002400000003
 11
74.956451000000015
 21
751.90002400000003
  0
LINE
  8
_0-0_0
  6
CONTINUOUS
 62
    7
 10
65.206451000000015
 20
748.95001200000002
 11
70.906447999999955
 21
748.95001200000002
  0
ARC
  8
_0-0_0
  6
CONTINUOUS
 62
    7
 10
65.206451000000015
 20
749.45001200000002
 40
0.5
 50
179.99999099999999
 51
269.99999700000001
  0
ARC
  8
_0-0_0
  6
CONTINUOUS
 62
    7
 10
65.206451000000015
 20
755.5
 40
0.5
 50
179.99999099999999
 51
269.99999700000001
  0
ARC
  8
_0-0_0
  6
CONTINUOUS
 62
    7
 10
81.606445000000008
 20
764.75
 40
0.5
 50
0
 51
90.000003000000007
  0
ARC
  8
_0-0_0
  6
CONTINUOUS
 62
    7
 10
70.906447999999955
 20
749.45001200000002
 40
0.5
 50
179.99999099999999
 51
269.99999700000001
  0
CIRCLE
  8
_0-0_0
  6
CONTINUOUS
 62
    7
 10
79.406447999999955
 20
768.25
 40
2.25
  0
CIRCLE
  8
_0-0_0
  6
CONTINUOUS
 62
    7
 10
67.406447999999955
 20
751.65002400000003
 40
2.25
  0
CIRCLE
  8
_0-0_0
  6
CONTINUOUS
 62
    7
 10
79.406447999999955
 20
768.25
 40
2
  0
CIRCLE
  8
_0-0_0
  6
CONTINUOUS
 62
    7
 10
67.406447999999955
 20
751.65002400000003
 40
2
  0
LINE
  8
_0-0_0
  6
CONTINUOUS
 62
    7
 10
78.25644699999998
 20
768.25
 11
78.824341000000004
 21
769.25
  0
LINE
  8
_0-0_0
  6
CONTINUOUS
 62
    7
 10
78.824341000000004
 20
767.25
 11
78.25644699999998
 21
768.25
  0
LINE
  8
_0-0_0
  6
CONTINUOUS
 62
    7
 10
79.988556000000017
 20
767.25
 11
78.824341000000004
 21
767.25
  0
LINE
  8
_0-0_0
  6
CONTINUOUS
 62
    7
 10
80.556449999999927
 20
768.25
 11
79.988556000000017
 21
767.25
  0
LINE
  8
_0-0_0
  6
CONTINUOUS
 62
    7
 10
79.988556000000017
 20
769.25
 11
80.556449999999927
 21
768.25
  0
LINE
  8
_0-0_0
  6
CONTINUOUS
 62
    7
 10
78.824341000000004
 20
769.25
 11
79.988556000000017
 21
769.25
  0
LINE
  8
_0-0_0
  6
CONTINUOUS
 62
    7
 10
66.25644699999998
 20
751.65002400000003
 11
66.824341000000004
 21
752.65002400000003
  0
LINE
  8
_0-0_0
  6
CONTINUOUS
 62
    7
 10
66.824341000000004
 20
750.65002400000003
 11
66.25644699999998
 21
751.65002400000003
  0
LINE
  8
_0-0_0
  6
CONTINUOUS
 62
    7
 10
67.988556000000017
 20
750.65002400000003
 11
66.824341000000004
 21
750.65002400000003
  0
LINE
  8
_0-0_0
  6
CONTINUOUS
 62
    7
 10
68.556449999999927
 20
751.65002400000003
 11
67.988556000000017
 21
750.65002400000003
  0
LINE
  8
_0-0_0
  6
CONTINUOUS
 62
    7
 10
67.988556000000017
 20
752.65002400000003
 11
68.556449999999927
 21
751.65002400000003
  0
LINE
  8
_0-0_0
  6
CONTINUOUS
 62
    7
 10
66.824341000000004
 20
752.65002400000003
 11
67.988556000000017
 21
752.65002400000003
  0
LINE
  8
_0-0_0
  6
CONTINUOUS
 62
    7
 10
82.106445000000008
 20
769.05032299999993
 11
82.106445000000008
 21
769.05630500000007
  0
LINE
  8
_0-0_0
  6
CONTINUOUS
 62
    7
 10
82.106445000000008
 20
770.25
 11
82.106078999999909
 21
770.23791499999993
  0
LINE
  8
_0-0_0
  6
CONTINUOUS
 62
    7
 10
82.106078999999909
 20
749.66210899999999
 11
82.106445000000008
 21
749.65002400000003
  0
LINE
  8
_0-0_0
  6
CONTINUOUS
 62
    7
 10
82.105727999999999
 20
764.77673299999992
 11
82.106445000000008
 21
764.75
  0
LINE
  8
_0-0_0
  6
CONTINUOUS
 62
    7
 10
87.606445000000008
 20
802.15002400000003
 11
87.606445000000008
 21
789.15002400000003
  0
LINE
  8
_0-0_0
  6
CONTINUOUS
 62
    7
 10
87.806449999999927
 20
802.15002400000003
 11
87.606445000000008
 21
802.15002400000003
  0
LINE
  8
_0-0_0
  6
CONTINUOUS
 62
    7
 10
87.806449999999927
 20
789.15002400000003
 11
87.606445000000008
 21
789.15002400000003
  0
LINE
  8
_0-0_0
  6
CONTINUOUS
 62
    7
 10
87.806449999999927
 20
802.15002400000003
 11
87.806449999999927
 21
820.75
  0
LINE
  8
_0-0_0
  6
CONTINUOUS
 62
    7
 10
87.906447999999955
 20
820.75
 11
87.806449999999927
 21
820.75
  0
LINE
  8
_0-0_0
  6
CONTINUOUS
 62
    7
 10
87.906447999999955
 20
823.25
 11
87.906447999999955
 21
820.75
  0
ARC
  8
_0-0_0
  6
CONTINUOUS
 62
    7
 10
87.406447999999955
 20
823.25
 40
0.5
 50
0
 51
90.000003000000007
  0
LINE
  8
_0-0_0
  6
CONTINUOUS
 62
    7
 10
87.406447999999955
 20
823.75
 11
84.406447999999955
 21
823.75
  0
ARC
  8
_0-0_0
  6
CONTINUOUS
 62
    7
 10
84.406447999999955
 20
823.25
 40
0.5
 50
90.000003000000007
 51
179.99999099999999
  0
ARC
  8
_0-0_0
  6
CONTINUOUS
 62
    7
 10
79.906447999999955
 20
775.75
 40
0.5
 50
179.99999099999999
 51
269.99999700000001
  0
LINE
  8
_0-0_0
  6
CONTINUOUS
 62
    7
 10
82.406447999999955
 20
775.25
 11
79.906447999999955
 21
775.25
  0
ARC
  8
_0-0_0
  6
CONTINUOUS
 62
    7
 10
82.406447999999955
 20
775.75
 40
0.5
 50
269.99999700000001
 51
0
  0
LINE
  8
_0-0_0
  6
CONTINUOUS
 62
    7
 10
82.906447999999955
 20
780.75
 11
82.906447999999955
 21
775.75
  0
ARC
  8
_0-0_0
  6
CONTINUOUS
 62
    7
 10
83.406447999999955
 20
780.75
 40
0.5
 50
90.000003000000007
 51
179.99999099999999
  0
LINE
  8
_0-0_0
  6
CONTINUOUS
 62
    7
 10
87.406447999999955
 20
781.25
 11
83.406447999999955
 21
781.25
  0
ARC
  8
_0-0_0
  6
CONTINUOUS
 62
    7
 10
87.406447999999955
 20
781.75
 40
0.5
 50
269.99999700000001
 51
0
  0
LINE
  8
_0-0_0
  6
CONTINUOUS
 62
    7
 10
87.906447999999955
 20
784.95001200000002
 11
87.906447999999955
 21
781.75
  0
LINE
  8
_0-0_0
  6
CONTINUOUS
 62
    7
 10
87.806449999999927
 20
784.95001200000002
 11
87.906447999999955
 21
784.95001200000002
  0
LINE
  8
_0-0_0
  6
CONTINUOUS
 62
    7
 10
87.806449999999927
 20
784.95001200000002
 11
87.806449999999927
 21
789.15002400000003
  0
LINE
  8
_0-0_0
  6
CONTINUOUS
 62
    7
 10
86.906447999999955
 20
823.25
 11
69.106445000000008
 21
823.25
  0
ARC
  8
_0-0_0
  6
CONTINUOUS
 62
    7
 10
86.906447999999955
 20
822.75
 40
0.5
 50
0
 51
90.000003000000007
  0
LINE
  8
_0-0_0
  6
CONTINUOUS
 62
    7
 10
87.406447999999955
 20
822.75
 11
87.406447999999955
 21
782.25
  0
ARC
  8
_0-0_0
  6
CONTINUOUS
 62
    7
 10
86.906447999999955
 20
782.25
 40
0.5
 50
269.99999700000001
 51
0
  0
LINE
  8
_0-0_0
  6
CONTINUOUS
 62
    7
 10
83.406447999999955
 20
781.75
 11
86.906447999999955
 21
781.75
  0
ARC
  8
_0-0_0
  6
CONTINUOUS
 62
    7
 10
83.406447999999955
 20
780.75
 40
1
 50
90.000003000000007
 51
179.99999099999999
  0
LINE
  8
_0-0_0
  6
CONTINUOUS
 62
    7
 10
82.406447999999955
 20
780.75
 11
82.406447999999955
 21
776.25
  0
ARC
  8
_0-0_0
  6
CONTINUOUS
 62
    7
 10
81.906447999999955
 20
776.25
 40
0.5
 50
269.99999700000001
 51
0
  0
LINE
  8
_0-0_0
  6
CONTINUOUS
 62
    7
 10
64.906447999999955
 20
775.75
 11
81.906447999999955
 21
775.75
  0
LINE
  8
_0-0_0
  6
CONTINUOUS
 62
    7
 10
83.406447999999955
 20
823.45001200000002
 11
83.406447999999955
 21
823.25
  0
ARC
  8
_0-0_0
  6
CONTINUOUS
 62
    7
 10
83.106445000000008
 20
823.45001200000002
 40
0.2999999999999999
 50
0
 51
90.000003000000007
  0
LINE
  8
_0-0_0
  6
CONTINUOUS
 62
    7
 10
83.106445000000008
 20
823.75
 11
68.406447999999955
 21
823.75
  0
ARC
  8
_0-0_0
  6
CONTINUOUS
 62
    7
 10
68.406447999999955
 20
823.45001200000002
 40
0.2999999999999999
 50
90.000003000000007
 51
179.99999099999999
  0
LINE
  8
_0-0_0
  6
CONTINUOUS
 62
    7
 10
68.106445000000008
 20
823.45001200000002
 11
68.106445000000008
 21
820.25
  0
LINE
  8
_0-0_0
  6
CONTINUOUS
 62
    7
 10
68.106445000000008
 20
820.25
 11
62.406447999999955
 21
820.25
  0
LINE
  8
_0-0_0
  6
CONTINUOUS
 62
    7
 10
62.406447999999955
 20
820.25
 11
61.606445000000008
 21
819.45001200000002
  0
ARC
  8
_0-0_0
  6
CONTINUOUS
 62
    7
 10
69.106445000000008
 20
822.75
 40
0.5
 50
90.000003000000007
 51
179.99999099999999
  0
LINE
  8
_0-0_0
  6
CONTINUOUS
 62
    7
 10
68.606445000000008
 20
822.75
 11
68.606445000000008
 21
819.95001200000002
  0
ARC
  8
_0-0_0
  6
CONTINUOUS
 62
    7
 10
68.106445000000008
 20
819.95001200000002
 40
0.5
 50
269.99999700000001
 51
0
  0
LINE
  8
_0-0_0
  6
CONTINUOUS
 62
    7
 10
68.106445000000008
 20
819.45001200000002
 11
59.906447999999955
 21
819.45001200000002
  0
ARC
  8
_0-0_0
  6
CONTINUOUS
 62
    7
 10
59.906447999999955
 20
818.95001200000002
 40
0.5
 50
90.000003000000007
 51
179.99999099999999
  0
LINE
  8
_0-0_0
  6
CONTINUOUS
 62
    7
 10
59.406447999999955
 20
782.25
 11
59.406447999999955
 21
818.95001200000002
  0
ARC
  8
_0-0_0
  6
CONTINUOUS
 62
    7
 10
59.906447999999955
 20
782.25
 40
0.5
 50
179.99999099999999
 51
269.99999700000001
  0
LINE
  8
_0-0_0
  6
CONTINUOUS
 62
    7
 10
59.906447999999955
 20
781.75
 11
63.406447999999955
 21
781.75
  0
ARC
  8
_0-0_0
  6
CONTINUOUS
 62
    7
 10
63.406447999999955
 20
780.75
 40
1
 50
0
 51
90.000003000000007
  0
LINE
  8
_0-0_0
  6
CONTINUOUS
 62
    7
 10
64.406447999999955
 20
776.25
 11
64.406447999999955
 21
780.75
  0
ARC
  8
_0-0_0
  6
CONTINUOUS
 62
    7
 10
64.906447999999955
 20
776.25
 40
0.5
 50
179.99999099999999
 51
269.99999700000001
  0
CIRCLE
  8
_0-0_0
  6
CONTINUOUS
 62
    7
 10
73.406447999999955
 20
784.75
 40
2.0670000000000002
  0
LINE
  8
_0-0_0
  6
CONTINUOUS
 62
    7
 10
61.406447999999955
 20
819.75
 11
61.406447999999955
 21
819.45001200000002
  0
LINE
  8
_0-0_0
  6
CONTINUOUS
 62
    7
 10
61.406447999999955
 20
819.75
 11
59.406447999999955
 21
819.75
  0
ARC
  8
_0-0_0
  6
CONTINUOUS
 62
    7
 10
59.406447999999955
 20
819.25
 40
0.5
 50
90.000003000000007
 51
179.99999099999999
  0
LINE
  8
_0-0_0
  6
CONTINUOUS
 62
    7
 10
58.906447999999955
 20
819.25
 11
58.906447999999955
 21
781.75
  0
ARC
  8
_0-0_0
  6
CONTINUOUS
 62
    7
 10
59.406447999999955
 20
781.75
 40
0.5
 50
179.99999099999999
 51
269.99999700000001
  0
LINE
  8
_0-0_0
  6
CONTINUOUS
 62
    7
 10
63.406447999999955
 20
781.25
 11
59.406447999999955
 21
781.25
  0
ARC
  8
_0-0_0
  6
CONTINUOUS
 62
    7
 10
63.406447999999955
 20
780.75
 40
0.5
 50
0
 51
90.000003000000007
  0
LINE
  8
_0-0_0
  6
CONTINUOUS
 62
    7
 10
63.906447999999955
 20
775.75
 11
63.906447999999955
 21
780.75
  0
ARC
  8
_0-0_0
  6
CONTINUOUS
 62
    7
 10
64.406447999999955
 20
775.75
 40
0.5
 50
179.99999099999999
 51
269.99999700000001
  0
LINE
  8
_0-0_0
  6
CONTINUOUS
 62
    7
 10
64.406447999999955
 20
775.25
 11
66.906447999999955
 21
775.25
  0
ARC
  8
_0-0_0
  6
CONTINUOUS
 62
    7
 10
66.906447999999955
 20
775.75
 40
0.5
 50
269.99999700000001
 51
0
  0
LINE
  8
_0-0_0
  6
CONTINUOUS
 62
    7
 10
82.906447999999955
 20
775.75
 11
83.00644699999998
 21
775.75
  0
LINE
  8
_0-0_0
  6
CONTINUOUS
 62
    7
 10
83.00644699999998
 20
775.75
 11
83.00644699999998
 21
776.25
  0
LINE
  8
_0-0_0
  6
CONTINUOUS
 62
    7
 10
83.00644699999998
 20
780.25
 11
83.00644699999998
 21
776.25
  0
LINE
  8
_0-0_0
  6
CONTINUOUS
 62
    7
 10
82.906447999999955
 20
780.75
 11
83.00644699999998
 21
780.75
  0
LINE
  8
_0-0_0
  6
CONTINUOUS
 62
    7
 10
83.00644699999998
 20
780.25
 11
83.00644699999998
 21
780.75
  0
LINE
  8
_0-0_0
  6
CONTINUOUS
 62
    7
 10
83.106445000000008
 20
776.25
 11
83.106445000000008
 21
776.38037099999997
  0
LINE
  8
_0-0_0
  6
CONTINUOUS
 62
    7
 10
83.106445000000008
 20
779.88037099999997
 11
83.106445000000008
 21
776.38037099999997
  0
LINE
  8
_0-0_0
  6
CONTINUOUS
 62
    7
 10
83.00644699999998
 20
780.15002400000003
 11
83.106445000000008
 21
780.15002400000003
  0
LINE
  8
_0-0_0
  6
CONTINUOUS
 62
    7
 10
83.106445000000008
 20
779.88037099999997
 11
83.106445000000008
 21
780.15002400000003
  0
LINE
  8
_0-0_0
  6
CONTINUOUS
 62
    7
 10
83.00644699999998
 20
776.25
 11
83.106445000000008
 21
776.25
  0
LINE
  8
_0-0_0
  6
CONTINUOUS
 62
    7
 10
83.00644699999998
 20
776.25
 11
83.106445000000008
 21
776.25
  0
ENDSEC
  0
EOF
