  0
SECTION
  2
HEADER
  9
$ACADVER
  1
AC1009
  9
$INSBASE
 10
0
 20
0
 30
0
  9
$EXTMIN
 10
0
 20
0
  9
$EXTMAX
 10
2523
 20
1782
  9
$LIMMIN
 10
0
 20
0
  9
$LIMMAX
 10
2523
 20
1782
  9
$LTSCALE
 40
3
  0
ENDSEC
  0
SECTION
  2
TABLES
  0
TABLE
  2
LTYPE
 70
     9
  0
LTYPE
  2
CONTINUOUS
 70
    64
  3
実線
 72
    65
 73
     0
 40
0.0
  0
LTYPE
  2
DASHED1
 70
    64
  3
--  --  --  --  --  --  --  --  
 72
    65
 73
     2
 40
2.5
 49
1.25
 49
-1.25
  0
LTYPE
  2
DASHED2
 70
    64
  3
----    ----    ----    ----    
 72
    65
 73
     2
 40
5.0
 49
2.5
 49
-2.5
  0
LTYPE
  2
DASHED3
 70
    64
  3
------  ------  ------  ------  
 72
    65
 73
     2
 40
5.0
 49
3.75
 49
-1.25
  0
LTYPE
  2
CENTER1
 70
    64
  3
----- - ----- - ----- - ----- - 
 72
    65
 73
     4
 40
10.0
 49
6.25
 49
-1.25
 49
1.25
 49
-1.25
  0
LTYPE
  2
CENTER2
 70
    64
  3
----------  --  ----------  --  
 72
    65
 73
     4
 40
20.0
 49
12.5
 49
-2.5
 49
2.5
 49
-2.5
  0
LTYPE
  2
PHANTOM1
 70
    64
  3
--- - - --- - - --- - - --- - - 
 72
    65
 73
     6
 40
10.0
 49
3.25
 49
-1.25
 49
1.25
 49
-1.25
 49
1.25
 49
-1.25
  0
LTYPE
  2
PHANTOM2
 70
    64
  3
--------  -  -  --------  -  -  
 72
    65
 73
     6
 40
20.0
 49
10.0
 49
-2.5
 49
1.25
 49
-2.5
 49
1.25
 49
-2.5
  0
LTYPE
  2
DOT
 70
    64
  3
-   -   -   -   -   -   -   -   
 72
    65
 73
     2
 40
2.5
 49
0.625
 49
-1.875
  0
LTYPE
  2
DUMMY
 70
    64
  3
ダミー
 72
    65
 73
     0
 40
0.0
  0
LTYPE
  2
RAND1
 70
    64
  3
ランダム線1
 72
    65
 73
     4
 40
10.0
 49
1.0
 49
-2.0
 49
3.0
 49
-4.0
  0
LTYPE
  2
RAND2
 70
    64
  3
ランダム線2
 72
    65
 73
     4
 40
14.0
 49
2.0
 49
-3.0
 49
4.0
 49
-5.0
  0
LTYPE
  2
RAND3
 70
    64
  3
ランダム線3
 72
    65
 73
     4
 40
18.0
 49
3.0
 49
-4.0
 49
5.0
 49
-6.0
  0
LTYPE
  2
RAND4
 70
    64
  3
ランダム線4
 72
    65
 73
     4
 40
22.0
 49
4.0
 49
-5.0
 49
6.0
 49
-7.0
  0
LTYPE
  2
RAND5
 70
    64
  3
ランダム線5
 72
    65
 73
     4
 40
26.0
 49
5.0
 49
-6.0
 49
7.0
 49
-8.0
  0
LTYPE
  2
LONG1
 70
    64
  3
----------  --  ----------  --  
 72
    65
 73
     4
 40
40.0
 49
32.5
 49
-2.5
 49
2.5
 49
-2.5
  0
LTYPE
  2
LONG2
 70
    64
  3
--------  -  -  --------  -  -  
 72
    65
 73
     6
 40
40.0
 49
30.0
 49
-2.5
 49
1.25
 49
-2.5
 49
1.25
 49
-2.5
  0
LTYPE
  2
LONG3
 70
    64
  3
+++++++++++++++..+++++++++++++++
 72
    65
 73
     2
 40
40.0
 49
37.5
 49
-2.5
  0
LTYPE
  2
LONG4
 70
    64
  3
+++++++++++++++..+++++++++++++++
 72
    65
 73
     2
 40
80.0
 49
75.0
 49
-5.0
  0
LTYPE
  2
LONG5
 70
    64
  3
----------  --  ----------  --  
 72
    65
 73
     4
 40
60.0
 49
37.5
 49
-7.5
 49
7.5
 49
-7.5
  0
LTYPE
  2
dashed
 70
   64
  3
-------   -------------   ------
 72
   65
 73
    2
 40
7.5
 49
6
 49
-1.5
  0
LTYPE
  2
dashed_spaced
 70
   64
  3
----        --------        ----
 72
   65
 73
    2
 40
12
 49
6
 49
-6
  0
LTYPE
  2
long_dashed_dotted
 70
   64
  3
------------- --- --------------
 72
   65
 73
    4
 40
15.25
 49
12
 49
-1.5
 49
0.25
 49
-1.5
  0
LTYPE
  2
long_dashed_double-dotted
 70
   64
  3
----------- --- --- ------------
 72
   65
 73
    6
 40
17
 49
12
 49
-1.5
 49
0.25
 49
-1.5
 49
0.25
 49
-1.5
  0
LTYPE
  2
long_dashed_triplicate-dotted
 70
   64
  3
--------- --- --- --- ----------
 72
   65
 73
    8
 40
18.75
 49
12
 49
-1.5
 49
0.25
 49
-1.5
 49
0.25
 49
-1.5
 49
0.25
 49
-1.5
  0
LTYPE
  2
dotted
 70
   64
  3
   -       -       -       -    
 72
   65
 73
    2
 40
1.75
 49
0.25
 49
-1.5
  0
LTYPE
  2
chain
 70
   64
  3
-------------- -- --------------
 72
   65
 73
    4
 40
18.5
 49
12
 49
-1.5
 49
3.5
 49
-1.5
  0
LTYPE
  2
chain_double_dash
 70
   64
  3
------------ -- -- -------------
 72
   65
 73
    6
 40
23.5
 49
12
 49
-1.5
 49
3.5
 49
-1.5
 49
3.5
 49
-1.5
  0
LTYPE
  2
dashed_dotted
 70
   64
  3
-----------     -     ----------
 72
   65
 73
    4
 40
9.25
 49
6
 49
-1.5
 49
0.25
 49
-1.5
  0
LTYPE
  2
double-dashed_dotted
 70
   64
  3
------   -----------   -   -----
 72
   65
 73
    6
 40
16.75
 49
6
 49
-1.5
 49
6
 49
-1.5
 49
0.25
 49
-1.5
  0
LTYPE
  2
dashed_double-dotted
 70
   64
  3
---------    -    -    ---------
 72
   65
 73
    6
 40
11
 49
6
 49
-1.5
 49
0.25
 49
-1.5
 49
0.25
 49
-1.5
  0
LTYPE
  2
double-dashed_double-dotted
 70
   64
  3
-----   ---------   -   -   ----
 72
   65
 73
    8
 40
18.5
 49
6
 49
-1.5
 49
6
 49
-1.5
 49
0.25
 49
-1.5
 49
0.25
 49
-1.5
  0
LTYPE
  2
dashed_triplicate-dotted
 70
   64
  3
-------    -    -    -    ------
 72
   65
 73
    8
 40
12.75
 49
6
 49
-1.5
 49
0.25
 49
-1.5
 49
0.25
 49
-1.5
 49
0.25
 49
-1.5
  0
LTYPE
  2
double-dashed_triplicate-dotted
 70
   64
  3
-----  ---------  -  -  -  -----
 72
   65
 73
   10
 40
20.25
 49
6
 49
-1.5
 49
6
 49
-1.5
 49
0.25
 49
-1.5
 49
0.25
 49
-1.5
 49
0.25
 49
-1.5
  0
LTYPE
  2
undefined
 70
   64
  3
--------------------------------
 72
   65
 73
    0
 40
0
  0
ENDTAB
  0
TABLE
  2
STYLE
  5
3
100
AcDbSymbolTable
 70
     1
  0
STYLE
  5
10
100
AcDbSymbolTableRecord
100
AcDbTextStyleTableRecord
  2
STANDARD
 70
     0
 40
0.0
 41
1.0
 50
0.0
 71
     0
 42
0.2
  3
txt
  4
bigfont.shx
  0
STYLE
  5
26
100
AcDbSymbolTableRecord
100
AcDbTextStyleTableRecord
  2
TATEGAKI
 70
    68
 40
0.0
 41
1.0
 50
0.0
 71
     0
 42
1.0
  3
txt
  4
bigfont.shx
  0
ENDTAB
  0
TABLE
  2
LAYER
 70
    2
  0
LAYER
  2
_0-0_0
 70
   64
 62
    7
  6
CONTINUOUS
  0
LAYER
  2
ADD_LINE
 70
   64
 62
    7
  6
CONTINUOUS
  0
ENDTAB
  0
ENDSEC
  0
SECTION
  2
BLOCKS
  0
ENDSEC
  0
SECTION
  2
ENTITIES
  0
ARC
  8
_0-0_0
  6
CONTINUOUS
 62
    7
 10
-732.77215550000017
 20
1062.349976
 40
0.2
 50
269.99999700000001
 51
20.376440000000013
  0
LINE
  8
_0-0_0
  6
CONTINUOUS
 62
    7
 10
-732.58465550000017
 20
1062.419617
 11
-733.88464350000004
 21
1065.919617
  0
ARC
  8
_0-0_0
  6
CONTINUOUS
 62
    7
 10
-734.07214350000004
 20
1065.849976
 40
0.2
 50
20.376439999999999
 51
159.62355600000001
  0
LINE
  8
_0-0_0
  6
CONTINUOUS
 62
    7
 10
-735.55963149999991
 20
1062.419617
 11
-734.25964350000004
 21
1065.919617
  0
ARC
  8
_0-0_0
  6
CONTINUOUS
 62
    7
 10
-735.3721925000001
 20
1062.349976
 40
0.2
 50
159.62355600000001
 51
269.99999700000001
  0
LINE
  8
_0-0_0
  6
CONTINUOUS
 62
    7
 10
-735.3721925000001
 20
1062.1499940000001
 11
-732.77215550000017
 21
1062.1499940000001
  0
LINE
  8
_0-0_0
  6
CONTINUOUS
 62
    7
 10
-898.00500550000027
 20
1110.752716
 11
-898.00500550000027
 21
1110.7517089999999
  0
LINE
  8
_0-0_0
  6
CONTINUOUS
 62
    7
 10
2384.9277345
 20
1099.1499939999999
 11
2384.9277345
 21
1086.1499940000001
  0
LINE
  8
_0-0_0
  6
CONTINUOUS
 62
    7
 10
-788.07214350000004
 20
1099.1499939999999
 11
-788.07214350000004
 21
1086.1499940000001
  0
LINE
  8
_0-0_0
  6
CONTINUOUS
 62
    7
 10
-788.07214350000004
 20
1099.1499939999999
 11
2384.9277345
 21
1099.1499939999999
  0
LINE
  8
_0-0_0
  6
CONTINUOUS
 62
    7
 10
-788.07214350000004
 20
1099.1499939999999
 11
-788.07214350000004
 21
1117.75
  0
LINE
  8
_0-0_0
  6
CONTINUOUS
 62
    7
 10
-788.07214350000004
 20
1120.25
 11
-788.07214350000004
 21
1117.75
  0
LINE
  8
_0-0_0
  6
CONTINUOUS
 62
    7
 10
-788.07214350000004
 20
1120.75
 11
-788.07214350000004
 21
1120.25
  0
LINE
  8
_0-0_0
  6
CONTINUOUS
 62
    7
 10
-788.07214350000004
 20
1072.75
 11
-788.07214350000004
 21
1072.25
  0
LINE
  8
_0-0_0
  6
CONTINUOUS
 62
    7
 10
-788.07214350000004
 20
1077.75
 11
-788.07214350000004
 21
1072.75
  0
LINE
  8
_0-0_0
  6
CONTINUOUS
 62
    7
 10
-788.07214350000004
 20
1078.25
 11
-788.07214350000004
 21
1077.75
  0
LINE
  8
_0-0_0
  6
CONTINUOUS
 62
    7
 10
-788.07214350000004
 20
1078.75
 11
-788.07214350000004
 21
1078.25
  0
LINE
  8
_0-0_0
  6
CONTINUOUS
 62
    7
 10
-788.07214350000004
 20
1081.9499820000001
 11
-788.07214350000004
 21
1078.75
  0
LINE
  8
_0-0_0
  6
CONTINUOUS
 62
    7
 10
-788.07214350000004
 20
1081.9499820000001
 11
-788.07214350000004
 21
1086.1499940000001
  0
LINE
  8
_0-0_0
  6
CONTINUOUS
 62
    7
 10
-788.07214350000004
 20
1086.1499940000001
 11
2384.9277345
 21
1086.1499940000001
  0
LINE
  8
_0-0_0
  6
CONTINUOUS
 62
    7
 10
2384.9277345
 20
1081.9499820000001
 11
2384.9277345
 21
1086.1499940000001
  0
LINE
  8
_0-0_0
  6
CONTINUOUS
 62
    7
 10
2384.9277345
 20
1078.75
 11
2384.9277345
 21
1081.9499820000001
  0
LINE
  8
_0-0_0
  6
CONTINUOUS
 62
    7
 10
2384.9277345
 20
1078.75
 11
2384.9277345
 21
1078.25
  0
LINE
  8
_0-0_0
  6
CONTINUOUS
 62
    7
 10
2384.9277345
 20
1078.25
 11
2384.9277345
 21
1077.75
  0
LINE
  8
_0-0_0
  6
CONTINUOUS
 62
    7
 10
2384.9277345
 20
1077.75
 11
2384.9277345
 21
1072.75
  0
LINE
  8
_0-0_0
  6
CONTINUOUS
 62
    7
 10
2384.9277345
 20
1072.75
 11
2384.9277345
 21
1072.25
  0
LINE
  8
_0-0_0
  6
CONTINUOUS
 62
    7
 10
2384.9277345
 20
1120.75
 11
2384.9277345
 21
1120.25
  0
LINE
  8
_0-0_0
  6
CONTINUOUS
 62
    7
 10
2384.9277345
 20
1117.75
 11
2384.9277345
 21
1120.25
  0
LINE
  8
_0-0_0
  6
CONTINUOUS
 62
    7
 10
2384.9277345
 20
1099.1499939999999
 11
2384.9277345
 21
1117.75
  0
CIRCLE
  8
_0-0_0
  6
CONTINUOUS
 62
    7
 10
2348.4277345
 20
1108.25
 40
6
  0
CIRCLE
  8
_0-0_0
  6
CONTINUOUS
 62
    7
 10
2248.4277345
 20
1108.25
 40
6
  0
CIRCLE
  8
_0-0_0
  6
CONTINUOUS
 62
    7
 10
2148.4277345
 20
1108.25
 40
6
  0
CIRCLE
  8
_0-0_0
  6
CONTINUOUS
 62
    7
 10
2048.4277345
 20
1108.25
 40
6
  0
CIRCLE
  8
_0-0_0
  6
CONTINUOUS
 62
    7
 10
1948.4277345
 20
1108.25
 40
6
  0
CIRCLE
  8
_0-0_0
  6
CONTINUOUS
 62
    7
 10
1848.4277345
 20
1108.25
 40
6
  0
CIRCLE
  8
_0-0_0
  6
CONTINUOUS
 62
    7
 10
1748.4277345
 20
1108.25
 40
6
  0
CIRCLE
  8
_0-0_0
  6
CONTINUOUS
 62
    7
 10
1648.4277345
 20
1108.25
 40
6
  0
CIRCLE
  8
_0-0_0
  6
CONTINUOUS
 62
    7
 10
1548.4277345
 20
1108.25
 40
6
  0
CIRCLE
  8
_0-0_0
  6
CONTINUOUS
 62
    7
 10
1448.4277345
 20
1108.25
 40
6
  0
CIRCLE
  8
_0-0_0
  6
CONTINUOUS
 62
    7
 10
1348.4277345
 20
1108.25
 40
6
  0
CIRCLE
  8
_0-0_0
  6
CONTINUOUS
 62
    7
 10
1248.4277345
 20
1108.25
 40
6
  0
CIRCLE
  8
_0-0_0
  6
CONTINUOUS
 62
    7
 10
1148.4277345
 20
1108.25
 40
6
  0
CIRCLE
  8
_0-0_0
  6
CONTINUOUS
 62
    7
 10
1048.4278565
 20
1108.25
 40
6
  0
CIRCLE
  8
_0-0_0
  6
CONTINUOUS
 62
    7
 10
948.42785649999996
 20
1108.25
 40
6
  0
CIRCLE
  8
_0-0_0
  6
CONTINUOUS
 62
    7
 10
848.42785649999996
 20
1108.25
 40
6
  0
CIRCLE
  8
_0-0_0
  6
CONTINUOUS
 62
    7
 10
748.42785649999996
 20
1108.25
 40
6
  0
CIRCLE
  8
_0-0_0
  6
CONTINUOUS
 62
    7
 10
648.42785649999996
 20
1108.25
 40
6
  0
CIRCLE
  8
_0-0_0
  6
CONTINUOUS
 62
    7
 10
548.42785649999996
 20
1108.25
 40
6
  0
CIRCLE
  8
_0-0_0
  6
CONTINUOUS
 62
    7
 10
448.42785650000002
 20
1108.25
 40
6
  0
CIRCLE
  8
_0-0_0
  6
CONTINUOUS
 62
    7
 10
348.4278564999999
 20
1108.25
 40
6
  0
CIRCLE
  8
_0-0_0
  6
CONTINUOUS
 62
    7
 10
248.42785649999996
 20
1108.25
 40
6
  0
CIRCLE
  8
_0-0_0
  6
CONTINUOUS
 62
    7
 10
148.42785650000002
 20
1108.25
 40
6
  0
CIRCLE
  8
_0-0_0
  6
CONTINUOUS
 62
    7
 10
48.427856499999905
 20
1108.25
 40
6
  0
CIRCLE
  8
_0-0_0
  6
CONTINUOUS
 62
    7
 10
-51.572143500000038
 20
1108.25
 40
6
  0
CIRCLE
  8
_0-0_0
  6
CONTINUOUS
 62
    7
 10
-151.57214349999998
 20
1108.25
 40
6
  0
CIRCLE
  8
_0-0_0
  6
CONTINUOUS
 62
    7
 10
-251.5721435000001
 20
1108.25
 40
6
  0
CIRCLE
  8
_0-0_0
  6
CONTINUOUS
 62
    7
 10
-351.57214350000004
 20
1108.25
 40
6
  0
CIRCLE
  8
_0-0_0
  6
CONTINUOUS
 62
    7
 10
-451.57214350000015
 20
1108.25
 40
6
  0
CIRCLE
  8
_0-0_0
  6
CONTINUOUS
 62
    7
 10
-551.57214349999992
 20
1108.25
 40
6
  0
CIRCLE
  8
_0-0_0
  6
CONTINUOUS
 62
    7
 10
-651.57214350000004
 20
1108.25
 40
6
  0
CIRCLE
  8
_0-0_0
  6
CONTINUOUS
 62
    7
 10
-751.57214350000015
 20
1108.25
 40
6
  0
LINE
  8
_0-0_0
  6
CONTINUOUS
 62
    7
 10
-788.07214350000004
 20
1117.75
 11
2384.9277345
 21
1117.75
  0
LINE
  8
_0-0_0
  6
CONTINUOUS
 62
    7
 10
-788.07214350000004
 20
1120.75
 11
2384.9277345
 21
1120.75
  0
LINE
  8
_0-0_0
  6
CONTINUOUS
 62
    7
 10
-788.07214350000004
 20
1120.25
 11
-790.57214350000015
 21
1120.25
  0
LINE
  8
_0-0_0
  6
CONTINUOUS
 62
    7
 10
-790.57214350000015
 20
1120.25
 11
-790.57214350000015
 21
1119.75
  0
LINE
  8
_0-0_0
  6
CONTINUOUS
 62
    7
 10
-790.57214350000015
 20
1119.75
 11
-790.57214350000015
 21
1079.25
  0
LINE
  8
_0-0_0
  6
CONTINUOUS
 62
    7
 10
-788.07214350000004
 20
1078.75
 11
-790.57214350000015
 21
1078.75
  0
LINE
  8
_0-0_0
  6
CONTINUOUS
 62
    7
 10
-790.57214350000015
 20
1079.25
 11
-790.57214350000015
 21
1078.75
  0
LINE
  8
_0-0_0
  6
CONTINUOUS
 62
    7
 10
-790.57214350000015
 20
1078.75
 11
-790.57214350000015
 21
1077.75
  0
LINE
  8
_0-0_0
  6
CONTINUOUS
 62
    7
 10
-790.57214350000015
 20
1077.75
 11
-790.57214350000015
 21
1073.25
  0
LINE
  8
_0-0_0
  6
CONTINUOUS
 62
    7
 10
-788.07214350000004
 20
1072.75
 11
-790.57214350000015
 21
1072.75
  0
LINE
  8
_0-0_0
  6
CONTINUOUS
 62
    7
 10
-790.57214350000015
 20
1073.25
 11
-790.57214350000015
 21
1072.75
  0
LINE
  8
_0-0_0
  6
CONTINUOUS
 62
    7
 10
-788.07214350000004
 20
1072.25
 11
2384.9277345
 21
1072.25
  0
LINE
  8
_0-0_0
  6
CONTINUOUS
 62
    7
 10
-788.07214350000004
 20
1078.25
 11
2384.9277345
 21
1078.25
  0
LINE
  8
_0-0_0
  6
CONTINUOUS
 62
    7
 10
-788.07214350000004
 20
1081.9499820000001
 11
2384.9277345
 21
1081.9499820000001
  0
LINE
  8
_0-0_0
  6
CONTINUOUS
 62
    7
 10
2384.9277345
 20
1120.25
 11
2387.4277345
 21
1120.25
  0
LINE
  8
_0-0_0
  6
CONTINUOUS
 62
    7
 10
2387.4277345
 20
1120.25
 11
2387.4277345
 21
1119.75
  0
LINE
  8
_0-0_0
  6
CONTINUOUS
 62
    7
 10
2387.4277345
 20
1119.75
 11
2387.4277345
 21
1079.25
  0
LINE
  8
_0-0_0
  6
CONTINUOUS
 62
    7
 10
2384.9277345
 20
1078.75
 11
2387.4277345
 21
1078.75
  0
LINE
  8
_0-0_0
  6
CONTINUOUS
 62
    7
 10
2387.4277345
 20
1079.25
 11
2387.4277345
 21
1078.75
  0
LINE
  8
_0-0_0
  6
CONTINUOUS
 62
    7
 10
2387.4277345
 20
1078.75
 11
2387.4277345
 21
1077.75
  0
LINE
  8
_0-0_0
  6
CONTINUOUS
 62
    7
 10
2387.4277345
 20
1077.75
 11
2387.4277345
 21
1073.25
  0
LINE
  8
_0-0_0
  6
CONTINUOUS
 62
    7
 10
2384.9277345
 20
1072.75
 11
2387.4277345
 21
1072.75
  0
LINE
  8
_0-0_0
  6
CONTINUOUS
 62
    7
 10
2387.4277345
 20
1073.25
 11
2387.4277345
 21
1072.75
  0
ARC
  8
_0-0_0
  6
CONTINUOUS
 62
    7
 10
-730.57214350000015
 20
1073.25
 40
0.5
 50
269.99999700000001
 51
0
  0
LINE
  8
_0-0_0
  6
CONTINUOUS
 62
    7
 10
-730.57214350000015
 20
1072.75
 11
-737.57214349999992
 21
1072.75
  0
ARC
  8
_0-0_0
  6
CONTINUOUS
 62
    7
 10
-737.57214349999992
 20
1073.25
 40
0.5
 50
179.99999099999999
 51
269.99999700000001
  0
LINE
  8
_0-0_0
  6
CONTINUOUS
 62
    7
 10
-738.07214350000015
 20
1077.25
 11
-738.07214350000015
 21
1073.25
  0
ARC
  8
_0-0_0
  6
CONTINUOUS
 62
    7
 10
-737.57214349999992
 20
1077.25
 40
0.5
 50
90.000003000000007
 51
179.99999099999999
  0
ARC
  8
_0-0_0
  6
CONTINUOUS
 62
    7
 10
-730.57214350000015
 20
1077.25
 40
0.5
 50
0
 51
90.000003000000007
  0
LINE
  8
_0-0_0
  6
CONTINUOUS
 62
    7
 10
-737.57214349999992
 20
1077.75
 11
-730.57214350000015
 21
1077.75
  0
LINE
  8
_0-0_0
  6
CONTINUOUS
 62
    7
 10
2384.9277345
 20
1120.75
 11
2384.9277345
 21
1120.4499819999999
  0
LINE
  8
_0-0_0
  6
CONTINUOUS
 62
    7
 10
2384.9277345
 20
1120.4499819999999
 11
2384.9277345
 21
1120.25
  0
CIRCLE
  8
_0-0_0
  6
CONTINUOUS
 62
    7
 10
2348.4277345
 20
1108.25
 40
5.5
  0
CIRCLE
  8
_0-0_0
  6
CONTINUOUS
 62
    7
 10
2248.4277345
 20
1108.25
 40
5.5
  0
CIRCLE
  8
_0-0_0
  6
CONTINUOUS
 62
    7
 10
2148.4277345
 20
1108.25
 40
5.5
  0
CIRCLE
  8
_0-0_0
  6
CONTINUOUS
 62
    7
 10
2048.4277345
 20
1108.25
 40
5.5
  0
CIRCLE
  8
_0-0_0
  6
CONTINUOUS
 62
    7
 10
1948.4277345
 20
1108.25
 40
5.5
  0
CIRCLE
  8
_0-0_0
  6
CONTINUOUS
 62
    7
 10
1848.4277345
 20
1108.25
 40
5.5
  0
CIRCLE
  8
_0-0_0
  6
CONTINUOUS
 62
    7
 10
1748.4277345
 20
1108.25
 40
5.5
  0
CIRCLE
  8
_0-0_0
  6
CONTINUOUS
 62
    7
 10
1648.4277345
 20
1108.25
 40
5.5
  0
CIRCLE
  8
_0-0_0
  6
CONTINUOUS
 62
    7
 10
1548.4277345
 20
1108.25
 40
5.5
  0
CIRCLE
  8
_0-0_0
  6
CONTINUOUS
 62
    7
 10
1448.4277345
 20
1108.25
 40
5.5
  0
CIRCLE
  8
_0-0_0
  6
CONTINUOUS
 62
    7
 10
1348.4277345
 20
1108.25
 40
5.5
  0
CIRCLE
  8
_0-0_0
  6
CONTINUOUS
 62
    7
 10
1248.4277345
 20
1108.25
 40
5.5
  0
CIRCLE
  8
_0-0_0
  6
CONTINUOUS
 62
    7
 10
1148.4277345
 20
1108.25
 40
5.5
  0
CIRCLE
  8
_0-0_0
  6
CONTINUOUS
 62
    7
 10
1048.4278565
 20
1108.25
 40
5.5
  0
CIRCLE
  8
_0-0_0
  6
CONTINUOUS
 62
    7
 10
948.42785649999996
 20
1108.25
 40
5.5
  0
CIRCLE
  8
_0-0_0
  6
CONTINUOUS
 62
    7
 10
848.42785649999996
 20
1108.25
 40
5.5
  0
CIRCLE
  8
_0-0_0
  6
CONTINUOUS
 62
    7
 10
748.42785649999996
 20
1108.25
 40
5.5
  0
CIRCLE
  8
_0-0_0
  6
CONTINUOUS
 62
    7
 10
648.42785649999996
 20
1108.25
 40
5.5
  0
CIRCLE
  8
_0-0_0
  6
CONTINUOUS
 62
    7
 10
548.42785649999996
 20
1108.25
 40
5.5
  0
CIRCLE
  8
_0-0_0
  6
CONTINUOUS
 62
    7
 10
448.42785650000002
 20
1108.25
 40
5.5
  0
CIRCLE
  8
_0-0_0
  6
CONTINUOUS
 62
    7
 10
348.4278564999999
 20
1108.25
 40
5.5
  0
CIRCLE
  8
_0-0_0
  6
CONTINUOUS
 62
    7
 10
248.42785649999996
 20
1108.25
 40
5.5
  0
CIRCLE
  8
_0-0_0
  6
CONTINUOUS
 62
    7
 10
148.42785650000002
 20
1108.25
 40
5.5
  0
CIRCLE
  8
_0-0_0
  6
CONTINUOUS
 62
    7
 10
48.427856499999905
 20
1108.25
 40
5.5
  0
CIRCLE
  8
_0-0_0
  6
CONTINUOUS
 62
    7
 10
-51.572143500000038
 20
1108.25
 40
5.5
  0
CIRCLE
  8
_0-0_0
  6
CONTINUOUS
 62
    7
 10
-151.57214349999998
 20
1108.25
 40
5.5
  0
CIRCLE
  8
_0-0_0
  6
CONTINUOUS
 62
    7
 10
-251.5721435000001
 20
1108.25
 40
5.5
  0
CIRCLE
  8
_0-0_0
  6
CONTINUOUS
 62
    7
 10
-351.57214350000004
 20
1108.25
 40
5.5
  0
CIRCLE
  8
_0-0_0
  6
CONTINUOUS
 62
    7
 10
-451.57214350000015
 20
1108.25
 40
5.5
  0
CIRCLE
  8
_0-0_0
  6
CONTINUOUS
 62
    7
 10
-551.57214349999992
 20
1108.25
 40
5.5
  0
CIRCLE
  8
_0-0_0
  6
CONTINUOUS
 62
    7
 10
-651.57214350000004
 20
1108.25
 40
5.5
  0
CIRCLE
  8
_0-0_0
  6
CONTINUOUS
 62
    7
 10
-751.57214350000015
 20
1108.25
 40
5.5
  0
LINE
  8
_0-0_0
  6
CONTINUOUS
 62
    7
 10
-730.07214349999992
 20
1073.25
 11
-730.07214349999992
 21
1077.25
  0
CIRCLE
  8
_0-0_0
  6
CONTINUOUS
 62
    7
 10
2348.4277345
 20
1108.25
 40
3.5
  0
CIRCLE
  8
_0-0_0
  6
CONTINUOUS
 62
    7
 10
2248.4277345
 20
1108.25
 40
3.5
  0
CIRCLE
  8
_0-0_0
  6
CONTINUOUS
 62
    7
 10
2148.4277345
 20
1108.25
 40
3.5
  0
CIRCLE
  8
_0-0_0
  6
CONTINUOUS
 62
    7
 10
2048.4277345
 20
1108.25
 40
3.5
  0
CIRCLE
  8
_0-0_0
  6
CONTINUOUS
 62
    7
 10
1948.4277345
 20
1108.25
 40
3.5
  0
CIRCLE
  8
_0-0_0
  6
CONTINUOUS
 62
    7
 10
1848.4277345
 20
1108.25
 40
3.5
  0
CIRCLE
  8
_0-0_0
  6
CONTINUOUS
 62
    7
 10
1748.4277345
 20
1108.25
 40
3.5
  0
CIRCLE
  8
_0-0_0
  6
CONTINUOUS
 62
    7
 10
1648.4277345
 20
1108.25
 40
3.5
  0
CIRCLE
  8
_0-0_0
  6
CONTINUOUS
 62
    7
 10
1548.4277345
 20
1108.25
 40
3.5
  0
CIRCLE
  8
_0-0_0
  6
CONTINUOUS
 62
    7
 10
1448.4277345
 20
1108.25
 40
3.5
  0
CIRCLE
  8
_0-0_0
  6
CONTINUOUS
 62
    7
 10
1348.4277345
 20
1108.25
 40
3.5
  0
CIRCLE
  8
_0-0_0
  6
CONTINUOUS
 62
    7
 10
1248.4277345
 20
1108.25
 40
3.5
  0
CIRCLE
  8
_0-0_0
  6
CONTINUOUS
 62
    7
 10
1148.4277345
 20
1108.25
 40
3.5
  0
CIRCLE
  8
_0-0_0
  6
CONTINUOUS
 62
    7
 10
1048.4278565
 20
1108.25
 40
3.5
  0
CIRCLE
  8
_0-0_0
  6
CONTINUOUS
 62
    7
 10
948.42785649999996
 20
1108.25
 40
3.5
  0
CIRCLE
  8
_0-0_0
  6
CONTINUOUS
 62
    7
 10
848.42785649999996
 20
1108.25
 40
3.5
  0
CIRCLE
  8
_0-0_0
  6
CONTINUOUS
 62
    7
 10
748.42785649999996
 20
1108.25
 40
3.5
  0
CIRCLE
  8
_0-0_0
  6
CONTINUOUS
 62
    7
 10
648.42785649999996
 20
1108.25
 40
3.5
  0
CIRCLE
  8
_0-0_0
  6
CONTINUOUS
 62
    7
 10
548.42785649999996
 20
1108.25
 40
3.5
  0
CIRCLE
  8
_0-0_0
  6
CONTINUOUS
 62
    7
 10
448.42785650000002
 20
1108.25
 40
3.5
  0
CIRCLE
  8
_0-0_0
  6
CONTINUOUS
 62
    7
 10
348.4278564999999
 20
1108.25
 40
3.5
  0
CIRCLE
  8
_0-0_0
  6
CONTINUOUS
 62
    7
 10
248.42785649999996
 20
1108.25
 40
3.5
  0
CIRCLE
  8
_0-0_0
  6
CONTINUOUS
 62
    7
 10
148.42785650000002
 20
1108.25
 40
3.5
  0
CIRCLE
  8
_0-0_0
  6
CONTINUOUS
 62
    7
 10
48.427856499999905
 20
1108.25
 40
3.5
  0
CIRCLE
  8
_0-0_0
  6
CONTINUOUS
 62
    7
 10
-51.572143500000038
 20
1108.25
 40
3.5
  0
CIRCLE
  8
_0-0_0
  6
CONTINUOUS
 62
    7
 10
-151.57214349999998
 20
1108.25
 40
3.5
  0
CIRCLE
  8
_0-0_0
  6
CONTINUOUS
 62
    7
 10
-251.5721435000001
 20
1108.25
 40
3.5
  0
CIRCLE
  8
_0-0_0
  6
CONTINUOUS
 62
    7
 10
-351.57214350000004
 20
1108.25
 40
3.5
  0
CIRCLE
  8
_0-0_0
  6
CONTINUOUS
 62
    7
 10
-451.57214350000015
 20
1108.25
 40
3.5
  0
CIRCLE
  8
_0-0_0
  6
CONTINUOUS
 62
    7
 10
-551.57214349999992
 20
1108.25
 40
3.5
  0
CIRCLE
  8
_0-0_0
  6
CONTINUOUS
 62
    7
 10
-651.57214350000004
 20
1108.25
 40
3.5
  0
CIRCLE
  8
_0-0_0
  6
CONTINUOUS
 62
    7
 10
-751.57214350000015
 20
1108.25
 40
3.5
  0
ARC
  8
_0-0_0
  6
CONTINUOUS
 62
    7
 10
-732.77215550000017
 20
1076.9499819999999
 40
0.2
 50
339.62356199999999
 51
90.000002999999978
  0
LINE
  8
_0-0_0
  6
CONTINUOUS
 62
    7
 10
-732.58465550000017
 20
1076.880341
 11
-733.88464350000004
 21
1073.380341
  0
ARC
  8
_0-0_0
  6
CONTINUOUS
 62
    7
 10
-734.07214350000004
 20
1073.4499820000001
 40
0.2
 50
200.37643
 51
339.62356199999999
  0
LINE
  8
_0-0_0
  6
CONTINUOUS
 62
    7
 10
-735.55963149999991
 20
1076.880341
 11
-734.25964350000004
 21
1073.380341
  0
ARC
  8
_0-0_0
  6
CONTINUOUS
 62
    7
 10
-735.3721925000001
 20
1076.9499819999999
 40
0.2
 50
90.000003000000007
 51
200.37643
  0
LINE
  8
_0-0_0
  6
CONTINUOUS
 62
    7
 10
-735.3721925000001
 20
1077.1499940000001
 11
-732.77215550000017
 21
1077.1499940000001
  0
ARC
  8
_0-0_0
  6
CONTINUOUS
 62
    7
 10
2304.6276855000006
 20
1076.9499819999999
 40
0.2
 50
90.000003000000007
 51
200.37643
  0
LINE
  8
_0-0_0
  6
CONTINUOUS
 62
    7
 10
2304.6276855000006
 20
1077.1499940000001
 11
2307.2277834999995
 21
1077.1499940000001
  0
ARC
  8
_0-0_0
  6
CONTINUOUS
 62
    7
 10
2302.4277345
 20
1077.25
 40
0.5
 50
90.000003000000007
 51
179.99999099999999
  0
LINE
  8
_0-0_0
  6
CONTINUOUS
 62
    7
 10
2301.9277345
 20
1077.25
 11
2301.9277345
 21
1073.25
  0
ARC
  8
_0-0_0
  6
CONTINUOUS
 62
    7
 10
2302.4277345
 20
1073.25
 40
0.5
 50
179.99999099999999
 51
269.99999700000001
  0
LINE
  8
_0-0_0
  6
CONTINUOUS
 62
    7
 10
2309.4277345
 20
1072.75
 11
2302.4277345
 21
1072.75
  0
ARC
  8
_0-0_0
  6
CONTINUOUS
 62
    7
 10
2309.4277345
 20
1073.25
 40
0.5
 50
269.99999700000001
 51
0
  0
LINE
  8
_0-0_0
  6
CONTINUOUS
 62
    7
 10
2309.9277345
 20
1073.25
 11
2309.9277345
 21
1077.25
  0
ARC
  8
_0-0_0
  6
CONTINUOUS
 62
    7
 10
2309.4277345
 20
1077.25
 40
0.5
 50
0
 51
90.000003000000007
  0
LINE
  8
_0-0_0
  6
CONTINUOUS
 62
    7
 10
2302.4277345
 20
1077.75
 11
2309.4277345
 21
1077.75
  0
LINE
  8
_0-0_0
  6
CONTINUOUS
 62
    7
 10
2304.4401855000006
 20
1076.880341
 11
2305.7402345
 21
1073.380341
  0
ARC
  8
_0-0_0
  6
CONTINUOUS
 62
    7
 10
2305.9277345
 20
1073.4499820000001
 40
0.2
 50
200.37643
 51
339.62356199999999
  0
LINE
  8
_0-0_0
  6
CONTINUOUS
 62
    7
 10
2307.4152834999995
 20
1076.880341
 11
2306.1152345
 21
1073.380341
  0
ARC
  8
_0-0_0
  6
CONTINUOUS
 62
    7
 10
2307.2277834999995
 20
1076.9499819999999
 40
0.2
 50
339.62356199999999
 51
90.000002999999978
  0
LINE
  8
_0-0_0
  6
CONTINUOUS
 62
    7
 10
-781.57214350000015
 20
1070.25
 11
-776.57214349999992
 21
1070.25
  0
LINE
  8
_0-0_0
  6
CONTINUOUS
 62
    7
 10
-776.57214349999992
 20
1070.25
 11
-774.77215550000017
 21
1070.25
  0
LINE
  8
_0-0_0
  6
CONTINUOUS
 62
    7
 10
-774.77215550000017
 20
1070.25
 11
-774.07214350000015
 21
1070.25
  0
ARC
  8
_0-0_0
  6
CONTINUOUS
 62
    7
 10
-774.77215550000017
 20
1069.75
 40
0.5
 50
0
 51
90.000003000000007
  0
ARC
  8
_0-0_0
  6
CONTINUOUS
 62
    7
 10
-781.57214350000015
 20
1069.75
 40
0.5
 50
90.000003000000007
 51
179.99999099999999
  0
ARC
  8
_0-0_0
  6
CONTINUOUS
 62
    7
 10
-678.07214350000015
 20
1069.75
 40
0.5
 50
0
 51
90.000003000000007
  0
LINE
  8
_0-0_0
  6
CONTINUOUS
 62
    7
 10
-774.07214350000015
 20
1070.25
 11
-774.07214350000015
 21
1068.75
  0
LINE
  8
_0-0_0
  6
CONTINUOUS
 62
    7
 10
-774.07214350000015
 20
1070.75
 11
-774.07214350000015
 21
1070.25
  0
LINE
  8
_0-0_0
  6
CONTINUOUS
 62
    7
 10
-774.07214350000015
 20
1071.25
 11
-774.07214350000015
 21
1070.75
  0
LINE
  8
_0-0_0
  6
CONTINUOUS
 62
    7
 10
-774.07214350000015
 20
1072.25
 11
-774.07214350000015
 21
1071.25
  0
LINE
  8
_0-0_0
  6
CONTINUOUS
 62
    7
 10
-770.07214350000004
 20
1070.25
 11
-769.37219249999987
 21
1070.25
  0
LINE
  8
_0-0_0
  6
CONTINUOUS
 62
    7
 10
-774.27215549999994
 20
1069.75
 11
-774.27215549999994
 21
1068.75
  0
LINE
  8
_0-0_0
  6
CONTINUOUS
 62
    7
 10
-771.07214350000015
 20
1043.25
 11
-771.07214350000015
 21
1044.849976
  0
LINE
  8
_0-0_0
  6
CONTINUOUS
 62
    7
 10
-771.07214350000015
 20
1043.25
 11
-776.57214349999992
 21
1043.25
  0
LINE
  8
_0-0_0
  6
CONTINUOUS
 62
    7
 10
-755.07214350000004
 20
1049.9499819999999
 11
-713.07214350000004
 21
1049.9499819999999
  0
LINE
  8
_0-0_0
  6
CONTINUOUS
 62
    7
 10
-755.07214350000004
 20
1069.549988
 11
-713.07214350000004
 21
1069.549988
  0
LINE
  8
_0-0_0
  6
CONTINUOUS
 62
    7
 10
-691.57214350000015
 20
1043.25
 11
-701.07214350000004
 21
1043.25
  0
LINE
  8
_0-0_0
  6
CONTINUOUS
 62
    7
 10
-701.07214350000004
 20
1043.25
 11
-701.07214350000004
 21
1044.849976
  0
ARC
  8
_0-0_0
  6
CONTINUOUS
 62
    7
 10
-701.37219249999998
 20
1044.849976
 40
0.2999999999999999
 50
0
 51
90.000003000000007
  0
LINE
  8
_0-0_0
  6
CONTINUOUS
 62
    7
 10
-702.07214350000015
 20
1045.1499939999999
 11
-701.37219249999998
 21
1045.1499939999999
  0
LINE
  8
_0-0_0
  6
CONTINUOUS
 62
    7
 10
-702.57214350000004
 20
1045.549988
 11
-702.07214350000015
 21
1045.549988
  0
LINE
  8
_0-0_0
  6
CONTINUOUS
 62
    7
 10
-716.07214350000004
 20
1045.549988
 11
-702.57214350000004
 21
1045.549988
  0
ARC
  8
_0-0_0
  6
CONTINUOUS
 62
    7
 10
-718.57214350000015
 20
1045.549988
 40
2.5
 50
0
 51
90.000003000000007
  0
LINE
  8
_0-0_0
  6
CONTINUOUS
 62
    7
 10
-749.57214349999992
 20
1048.049988
 11
-718.57214350000015
 21
1048.049988
  0
ARC
  8
_0-0_0
  6
CONTINUOUS
 62
    7
 10
-749.57214349999992
 20
1045.549988
 40
2.5
 50
90.000003000000007
 51
179.99999099999999
  0
LINE
  8
_0-0_0
  6
CONTINUOUS
 62
    7
 10
-769.57214350000015
 20
1045.549988
 11
-752.07214350000004
 21
1045.549988
  0
LINE
  8
_0-0_0
  6
CONTINUOUS
 62
    7
 10
-770.07214350000004
 20
1045.549988
 11
-769.57214350000015
 21
1045.549988
  0
LINE
  8
_0-0_0
  6
CONTINUOUS
 62
    7
 10
-770.77215550000005
 20
1045.1499939999999
 11
-770.07214350000004
 21
1045.1499939999999
  0
ARC
  8
_0-0_0
  6
CONTINUOUS
 62
    7
 10
-770.77215550000005
 20
1044.849976
 40
0.2999999999999999
 50
90.000003000000007
 51
179.99999099999999
  0
LINE
  8
_0-0_0
  6
CONTINUOUS
 62
    7
 10
-782.07214350000004
 20
1067.9748540000001
 11
-782.07214350000004
 21
1069.75
  0
LINE
  8
_0-0_0
  6
CONTINUOUS
 62
    7
 10
-777.07214350000015
 20
1070.75
 11
-777.07214350000015
 21
1070.25
  0
LINE
  8
_0-0_0
  6
CONTINUOUS
 62
    7
 10
-777.07214350000015
 20
1066.8035580000001
 11
-777.07214350000015
 21
1066.908539
  0
LINE
  8
_0-0_0
  6
CONTINUOUS
 62
    7
 10
-777.07214350000015
 20
1070.75
 11
-777.07214350000015
 21
1072.249969
  0
LINE
  8
_0-0_0
  6
CONTINUOUS
 62
    7
 10
-677.57214349999992
 20
1072.249969
 11
-677.57214349999992
 21
1070.75
  0
LINE
  8
_0-0_0
  6
CONTINUOUS
 62
    7
 10
-677.57214349999992
 20
1070.75
 11
-677.57214349999992
 21
1069.75
  0
LINE
  8
_0-0_0
  6
CONTINUOUS
 62
    7
 10
-677.57214349999992
 20
1068.9499820000001
 11
-677.57214349999992
 21
1069.75
  0
LINE
  8
_0-0_0
  6
CONTINUOUS
 62
    7
 10
-678.07214350000015
 20
1070.25
 11
-677.57214349999992
 21
1070.25
  0
LINE
  8
_0-0_0
  6
CONTINUOUS
 62
    7
 10
-690.57214350000004
 20
1070.25
 11
-678.07214350000015
 21
1070.25
  0
LINE
  8
_0-0_0
  6
CONTINUOUS
 62
    7
 10
-677.57214349999992
 20
1072.25
 11
-677.57214349999992
 21
1071.25
  0
LINE
  8
_0-0_0
  6
CONTINUOUS
 62
    7
 10
-677.57214349999992
 20
1070.75
 11
-677.57214349999992
 21
1070.25
  0
LINE
  8
_0-0_0
  6
CONTINUOUS
 62
    7
 10
-677.57214349999992
 20
1071.25
 11
-677.57214349999992
 21
1070.75
  0
ARC
  8
_0-0_0
  6
CONTINUOUS
 62
    7
 10
-772.07214349999992
 20
1068.75
 40
2
 50
179.99999099999999
 51
0
  0
LINE
  8
_0-0_0
  6
CONTINUOUS
 62
    7
 10
-691.07214349999992
 20
1070.25
 11
-690.57214350000004
 21
1070.25
  0
LINE
  8
_0-0_0
  6
CONTINUOUS
 62
    7
 10
-691.07214349999992
 20
1069.75
 11
-691.07214349999992
 21
1070.25
  0
LINE
  8
_0-0_0
  6
CONTINUOUS
 62
    7
 10
-691.07214349999992
 20
1068.75
 11
-691.07214349999992
 21
1068.9499820000001
  0
ARC
  8
_0-0_0
  6
CONTINUOUS
 62
    7
 10
-693.07214350000015
 20
1068.75
 40
2
 50
179.99999099999999
 51
0
  0
LINE
  8
_0-0_0
  6
CONTINUOUS
 62
    7
 10
-695.07214350000004
 20
1070.25
 11
-695.07214350000004
 21
1068.75
  0
LINE
  8
_0-0_0
  6
CONTINUOUS
 62
    7
 10
-695.77215550000005
 20
1070.25
 11
-695.07214350000004
 21
1070.25
  0
LINE
  8
_0-0_0
  6
CONTINUOUS
 62
    7
 10
-770.07214350000004
 20
1068.75
 11
-770.07214350000004
 21
1070.25
  0
LINE
  8
_0-0_0
  6
CONTINUOUS
 62
    7
 10
-774.07214350000015
 20
1071.25
 11
-677.57214349999992
 21
1071.25
  0
ARC
  8
_0-0_0
  6
CONTINUOUS
 62
    7
 10
-769.37219249999987
 20
1069.75
 40
0.5
 50
90.000003000000007
 51
179.99999099999999
  0
ARC
  8
_0-0_0
  6
CONTINUOUS
 62
    7
 10
-772.07214349999992
 20
1068.75
 40
2.2000000000000002
 50
179.99999099999999
 51
0
  0
LINE
  8
_0-0_0
  6
CONTINUOUS
 62
    7
 10
-770.07214350000004
 20
1045.1499939999999
 11
-769.57214350000015
 21
1045.1499939999999
  0
LINE
  8
_0-0_0
  6
CONTINUOUS
 62
    7
 10
-769.57214350000015
 20
1045.549988
 11
-769.57214350000015
 21
1045.1499939999999
  0
LINE
  8
_0-0_0
  6
CONTINUOUS
 62
    7
 10
-752.07214350000004
 20
1045.549988
 11
-716.07214350000004
 21
1045.549988
  0
LINE
  8
_0-0_0
  6
CONTINUOUS
 62
    7
 10
-702.57214350000004
 20
1045.1499939999999
 11
-702.07214350000015
 21
1045.1499939999999
  0
LINE
  8
_0-0_0
  6
CONTINUOUS
 62
    7
 10
-702.57214350000004
 20
1045.549988
 11
-702.57214350000004
 21
1045.1499939999999
  0
LINE
  8
_0-0_0
  6
CONTINUOUS
 62
    7
 10
-691.57214350000015
 20
1042.75
 11
-700.57214350000015
 21
1042.75
  0
ARC
  8
_0-0_0
  6
CONTINUOUS
 62
    7
 10
-700.57214350000015
 20
1043.25
 40
0.5
 50
179.99999099999999
 51
269.99999700000001
  0
LINE
  8
_0-0_0
  6
CONTINUOUS
 62
    7
 10
-691.57214350000015
 20
1043.25
 11
-691.07214349999992
 21
1043.25
  0
LINE
  8
_0-0_0
  6
CONTINUOUS
 62
    7
 10
-691.07214349999992
 20
1043.25
 11
-691.07214349999992
 21
1043.4499820000001
  0
LINE
  8
_0-0_0
  6
CONTINUOUS
 62
    7
 10
-686.57214349999992
 20
1043.6499939999999
 11
-690.87219249999998
 21
1043.6499939999999
  0
LINE
  8
_0-0_0
  6
CONTINUOUS
 62
    7
 10
-686.07214350000004
 20
1044.1499940000001
 11
-686.07214350000004
 21
1045.9251100000001
  0
ARC
  8
_0-0_0
  6
CONTINUOUS
 62
    7
 10
-689.12011749999999
 20
1045.8689879999999
 40
3.0490550000000001
 50
1.0548960000000001
 51
14.838094000000002
  0
LINE
  8
_0-0_0
  6
CONTINUOUS
 62
    7
 10
-686.57214349999992
 20
1046.849976
 11
-690.93969750000008
 21
1046.849976
  0
LINE
  8
_0-0_0
  6
CONTINUOUS
 62
    7
 10
-691.07214349999992
 20
1046.9914249999999
 11
-691.07214349999992
 21
1047.3336789999998
  0
ARC
  8
_0-0_0
  6
CONTINUOUS
 62
    7
 10
-693.07214350000015
 20
1068.75
 40
2.2000000000000002
 50
179.99999099999999
 51
303.74900400000001
  0
LINE
  8
_0-0_0
  6
CONTINUOUS
 62
    7
 10
-695.27215550000017
 20
1069.75
 11
-695.27215550000017
 21
1068.75
  0
LINE
  8
_0-0_0
  6
CONTINUOUS
 62
    7
 10
-695.77215550000005
 20
1070.25
 11
-769.37219249999987
 21
1070.25
  0
LINE
  8
_0-0_0
  6
CONTINUOUS
 62
    7
 10
-769.8721925000001
 20
1068.75
 11
-769.8721925000001
 21
1069.75
  0
LINE
  8
_0-0_0
  6
CONTINUOUS
 62
    7
 10
-769.37219249999987
 20
1068.549988
 11
-769.37219249999987
 21
1068.75
  0
ARC
  8
_0-0_0
  6
CONTINUOUS
 62
    7
 10
-768.3721925000001
 20
1068.549988
 40
1
 50
90.000003000000007
 51
179.99999099999999
  0
LINE
  8
_0-0_0
  6
CONTINUOUS
 62
    7
 10
-768.3721925000001
 20
1069.549988
 11
-755.07214350000004
 21
1069.549988
  0
LINE
  8
_0-0_0
  6
CONTINUOUS
 62
    7
 10
-713.07214350000004
 20
1069.549988
 11
-699.07214350000015
 21
1069.549988
  0
ARC
  8
_0-0_0
  6
CONTINUOUS
 62
    7
 10
-699.07214350000015
 20
1066.549988
 40
3
 50
0
 51
90.000003000000007
  0
LINE
  8
_0-0_0
  6
CONTINUOUS
 62
    7
 10
-696.07214350000015
 20
1052.9499819999999
 11
-696.07214350000015
 21
1066.549988
  0
ARC
  8
_0-0_0
  6
CONTINUOUS
 62
    7
 10
-699.07214350000015
 20
1052.9499819999999
 40
3
 50
269.99999700000001
 51
0
  0
LINE
  8
_0-0_0
  6
CONTINUOUS
 62
    7
 10
-699.07214350000015
 20
1049.9499819999999
 11
-713.07214350000004
 21
1049.9499819999999
  0
LINE
  8
_0-0_0
  6
CONTINUOUS
 62
    7
 10
-755.07214350000004
 20
1049.9499819999999
 11
-769.07214349999992
 21
1049.9499819999999
  0
ARC
  8
_0-0_0
  6
CONTINUOUS
 62
    7
 10
-769.07214349999992
 20
1052.9499819999999
 40
3
 50
179.99999099999999
 51
269.99999700000001
  0
LINE
  8
_0-0_0
  6
CONTINUOUS
 62
    7
 10
-772.07214349999992
 20
1065.1876830000001
 11
-772.07214349999992
 21
1052.9499819999999
  0
ARC
  8
_0-0_0
  6
CONTINUOUS
 62
    7
 10
-771.07214350000015
 20
1065.1876830000001
 40
1
 50
105.68034800000001
 51
179.99999100000002
  0
ARC
  8
_0-0_0
  6
CONTINUOUS
 62
    7
 10
-779.02417050000008
 20
1068.0309750000001
 40
3.0490550000000001
 50
181.05489
 51
194.838089
  0
LINE
  8
_0-0_0
  6
CONTINUOUS
 62
    7
 10
-777.2045895
 20
1067.049988
 11
-781.57214350000015
 21
1067.049988
  0
LINE
  8
_0-0_0
  6
CONTINUOUS
 62
    7
 10
-777.07214350000015
 20
1046.9914249999999
 11
-777.07214350000015
 21
1047.096405
  0
LINE
  8
_0-0_0
  6
CONTINUOUS
 62
    7
 10
-777.2045895
 20
1046.849976
 11
-781.57214350000015
 21
1046.849976
  0
ARC
  8
_0-0_0
  6
CONTINUOUS
 62
    7
 10
-779.02301049999994
 20
1045.8683470000001
 40
3.050319
 50
165.15540799999999
 51
178.932897
  0
LINE
  8
_0-0_0
  6
CONTINUOUS
 62
    7
 10
-782.07214350000004
 20
1044.1499940000001
 11
-782.07214350000004
 21
1045.9251100000001
  0
LINE
  8
_0-0_0
  6
CONTINUOUS
 62
    7
 10
-777.27215549999994
 20
1043.6499939999999
 11
-781.57214350000015
 21
1043.6499939999999
  0
LINE
  8
_0-0_0
  6
CONTINUOUS
 62
    7
 10
-777.07214350000015
 20
1043.25
 11
-777.07214350000015
 21
1043.4499820000001
  0
LINE
  8
_0-0_0
  6
CONTINUOUS
 62
    7
 10
-777.07214350000015
 20
1043.25
 11
-776.57214349999992
 21
1043.25
  0
LINE
  8
_0-0_0
  6
CONTINUOUS
 62
    7
 10
-771.57214350000004
 20
1042.75
 11
-776.57214349999992
 21
1042.75
  0
ARC
  8
_0-0_0
  6
CONTINUOUS
 62
    7
 10
-771.57214350000004
 20
1043.25
 40
0.5
 50
269.99999700000001
 51
0
  0
LINE
  8
_0-0_0
  6
CONTINUOUS
 62
    7
 10
-781.75390649999997
 20
1067.049988
 11
-781.77423150000016
 21
1067.0509950000001
  0
LINE
  8
_0-0_0
  6
CONTINUOUS
 62
    7
 10
-781.77423150000016
 20
1067.0509950000001
 11
-781.79467750000003
 21
1067.054138
  0
LINE
  8
_0-0_0
  6
CONTINUOUS
 62
    7
 10
-781.79467750000003
 20
1067.054138
 11
-781.82147249999991
 21
1067.061737
  0
LINE
  8
_0-0_0
  6
CONTINUOUS
 62
    7
 10
-781.82147249999991
 20
1067.061737
 11
-781.84710749999999
 21
1067.07312
  0
LINE
  8
_0-0_0
  6
CONTINUOUS
 62
    7
 10
-781.84710749999999
 20
1067.07312
 11
-781.87091049999992
 21
1067.087982
  0
LINE
  8
_0-0_0
  6
CONTINUOUS
 62
    7
 10
-781.87091049999992
 20
1067.087982
 11
-781.88769550000018
 21
1067.1015009999999
  0
LINE
  8
_0-0_0
  6
CONTINUOUS
 62
    7
 10
-781.88769550000018
 20
1067.1015009999999
 11
-781.90319850000026
 21
1067.11673
  0
LINE
  8
_0-0_0
  6
CONTINUOUS
 62
    7
 10
-781.90319850000026
 20
1067.11673
 11
-781.93005350000033
 21
1067.1513669999999
  0
LINE
  8
_0-0_0
  6
CONTINUOUS
 62
    7
 10
-781.93005350000033
 20
1067.1513669999999
 11
-781.95111050000003
 21
1067.189697
  0
LINE
  8
_0-0_0
  6
CONTINUOUS
 62
    7
 10
-781.95111050000003
 20
1067.189697
 11
-781.96313450000002
 21
1067.2196349999999
  0
LINE
  8
_0-0_0
  6
CONTINUOUS
 62
    7
 10
-781.96313450000002
 20
1067.2196349999999
 11
-781.97216850000007
 21
1067.25
  0
LINE
  8
_0-0_0
  6
CONTINUOUS
 62
    7
 10
-782.06097450000027
 20
1067.75
 11
-789.07214350000015
 21
1067.75
  0
LINE
  8
_0-0_0
  6
CONTINUOUS
 62
    7
 10
-789.07214350000015
 20
1067.75
 11
-793.74761949999981
 21
1067.75
  0
LINE
  8
_0-0_0
  6
CONTINUOUS
 62
    7
 10
-789.07214350000015
 20
1067.75
 11
-789.07214350000015
 21
1065.75
  0
LINE
  8
_0-0_0
  6
CONTINUOUS
 62
    7
 10
-777.07214350000015
 20
1065.75
 11
-777.07214350000015
 21
1066.8035580000001
  0
ARC
  8
_0-0_0
  6
CONTINUOUS
 62
    7
 10
-678.07214350000015
 20
1068.9499820000001
 40
0.5
 50
269.99999700000001
 51
0
  0
ARC
  8
_0-0_0
  6
CONTINUOUS
 62
    7
 10
-690.57214350000004
 20
1069.75
 40
0.5
 50
90.000003000000007
 51
179.99999099999999
  0
LINE
  8
_0-0_0
  6
CONTINUOUS
 62
    7
 10
-691.07214349999992
 20
1068.9499820000001
 11
-691.07214349999992
 21
1069.75
  0
LINE
  8
_0-0_0
  6
CONTINUOUS
 62
    7
 10
-770.87219249999987
 20
1045.1328429999999
 11
-770.87219249999987
 21
1043.1499939999999
  0
LINE
  8
_0-0_0
  6
CONTINUOUS
 62
    7
 10
-770.87219249999987
 20
1043.1499939999999
 11
-769.8721925000001
 21
1043.1499939999999
  0
LINE
  8
_0-0_0
  6
CONTINUOUS
 62
    7
 10
-769.57214350000015
 20
1045.1499939999999
 11
-702.57214350000004
 21
1045.1499939999999
  0
LINE
  8
_0-0_0
  6
CONTINUOUS
 62
    7
 10
-769.8721925000001
 20
1043.1499939999999
 11
-702.27215549999994
 21
1043.1499939999999
  0
LINE
  8
_0-0_0
  6
CONTINUOUS
 62
    7
 10
-702.27215549999994
 20
1043.1499939999999
 11
-701.27215550000017
 21
1043.1499939999999
  0
LINE
  8
_0-0_0
  6
CONTINUOUS
 62
    7
 10
-701.27215550000017
 20
1045.1328429999999
 11
-701.27215550000017
 21
1043.1499939999999
  0
LINE
  8
_0-0_0
  6
CONTINUOUS
 62
    7
 10
-691.07214349999992
 20
1043.25
 11
-691.57214350000015
 21
1042.75
  0
ARC
  8
_0-0_0
  6
CONTINUOUS
 62
    7
 10
-690.87219249999998
 20
1043.4499820000001
 40
0.2
 50
90.000003000000007
 51
179.99999099999999
  0
ARC
  8
_0-0_0
  6
CONTINUOUS
 62
    7
 10
-686.57214349999992
 20
1044.1499940000001
 40
0.5
 50
269.99999700000001
 51
0
  0
LINE
  8
_0-0_0
  6
CONTINUOUS
 62
    7
 10
-686.39038050000011
 20
1046.849976
 11
-686.37005649999992
 21
1046.8489690000001
  0
LINE
  8
_0-0_0
  6
CONTINUOUS
 62
    7
 10
-686.37005649999992
 20
1046.8489690000001
 11
-686.34967049999989
 21
1046.8458249999999
  0
LINE
  8
_0-0_0
  6
CONTINUOUS
 62
    7
 10
-686.34967049999989
 20
1046.8458249999999
 11
-686.32281550000016
 21
1046.8382260000001
  0
LINE
  8
_0-0_0
  6
CONTINUOUS
 62
    7
 10
-686.32281550000016
 20
1046.8382260000001
 11
-686.29718050000008
 21
1046.8268740000001
  0
LINE
  8
_0-0_0
  6
CONTINUOUS
 62
    7
 10
-686.29718050000008
 20
1046.8268740000001
 11
-686.27337650000015
 21
1046.8119809999998
  0
LINE
  8
_0-0_0
  6
CONTINUOUS
 62
    7
 10
-686.27337650000015
 20
1046.8119809999998
 11
-686.25665250000009
 21
1046.798462
  0
LINE
  8
_0-0_0
  6
CONTINUOUS
 62
    7
 10
-686.25665250000009
 20
1046.798462
 11
-686.2411505
 21
1046.7832639999999
  0
LINE
  8
_0-0_0
  6
CONTINUOUS
 62
    7
 10
-686.2411505
 20
1046.7832639999999
 11
-686.21423350000009
 21
1046.7485959999999
  0
LINE
  8
_0-0_0
  6
CONTINUOUS
 62
    7
 10
-686.21423350000009
 20
1046.7485959999999
 11
-686.19317650000005
 21
1046.710266
  0
LINE
  8
_0-0_0
  6
CONTINUOUS
 62
    7
 10
-686.19317650000005
 20
1046.710266
 11
-686.1812134999999
 21
1046.680359
  0
LINE
  8
_0-0_0
  6
CONTINUOUS
 62
    7
 10
-686.1812134999999
 20
1046.680359
 11
-686.17211950000001
 21
1046.6499939999999
  0
LINE
  8
_0-0_0
  6
CONTINUOUS
 62
    7
 10
-686.39038050000011
 20
1046.849976
 11
-686.57214349999992
 21
1046.849976
  0
LINE
  8
_0-0_0
  6
CONTINUOUS
 62
    7
 10
-691.07214349999992
 20
1065.299988
 11
-691.07214349999992
 21
1067.799988
  0
LINE
  8
_0-0_0
  6
CONTINUOUS
 62
    7
 10
-691.07214349999992
 20
1065.299988
 11
-691.07214349999992
 21
1048.799988
  0
LINE
  8
_0-0_0
  6
CONTINUOUS
 62
    7
 10
-691.07214349999992
 20
1047.3336789999998
 11
-691.07214349999992
 21
1048.799988
  0
ARC
  8
_0-0_0
  6
CONTINUOUS
 62
    7
 10
-691.57214350000015
 20
1066.505005
 40
0.5
 50
0
 51
123.74898500000002
  0
ARC
  8
_0-0_0
  6
CONTINUOUS
 62
    7
 10
-690.90185550000012
 20
1047.023285
 40
0.1734229999999999
 50
181.12417600000003
 51
270.64883800000007
  0
LINE
  8
_0-0_0
  6
CONTINUOUS
 62
    7
 10
-691.07617250000033
 20
1047.049988
 11
-691.07611050000014
 21
1047.019867
  0
ARC
  8
_0-0_0
  6
CONTINUOUS
 62
    7
 10
-695.77215550000005
 20
1069.75
 40
0.5
 50
0
 51
90.000003000000007
  0
ARC
  8
_0-0_0
  6
CONTINUOUS
 62
    7
 10
-772.07214349999992
 20
1068.75
 40
2.7000000000000002
 50
285.68033600000007
 51
0.0000000000000381
  0
ARC
  8
_0-0_0
  6
CONTINUOUS
 62
    7
 10
-755.07214350000004
 20
1052.9499819999999
 40
3
 50
269.99999700000001
 51
0
  0
LINE
  8
_0-0_0
  6
CONTINUOUS
 62
    7
 10
-752.07214350000004
 20
1052.9499819999999
 11
-752.07214350000004
 21
1066.549988
  0
ARC
  8
_0-0_0
  6
CONTINUOUS
 62
    7
 10
-755.07214350000004
 20
1066.549988
 40
3
 50
0
 51
90.000003000000007
  0
ARC
  8
_0-0_0
  6
CONTINUOUS
 62
    7
 10
-759.57214350000004
 20
1062.25
 40
4.5
 50
269.99999700000001
 51
90.000002999999992
  0
LINE
  8
_0-0_0
  6
CONTINUOUS
 62
    7
 10
-759.57214350000004
 20
1057.75
 11
-764.57214349999992
 21
1057.75
  0
ARC
  8
_0-0_0
  6
CONTINUOUS
 62
    7
 10
-764.57214349999992
 20
1062.25
 40
4.5
 50
90.000003000000007
 51
269.99999700000006
  0
LINE
  8
_0-0_0
  6
CONTINUOUS
 62
    7
 10
-764.57214349999992
 20
1066.75
 11
-759.57214350000004
 21
1066.75
  0
ARC
  8
_0-0_0
  6
CONTINUOUS
 62
    7
 10
-713.07214350000004
 20
1052.9499819999999
 40
3
 50
179.99999099999999
 51
269.99999700000001
  0
LINE
  8
_0-0_0
  6
CONTINUOUS
 62
    7
 10
-716.07214350000004
 20
1066.549988
 11
-716.07214350000004
 21
1052.9499819999999
  0
ARC
  8
_0-0_0
  6
CONTINUOUS
 62
    7
 10
-713.07214350000004
 20
1066.549988
 40
3
 50
90.000003000000007
 51
179.99999099999999
  0
ARC
  8
_0-0_0
  6
CONTINUOUS
 62
    7
 10
-703.57214350000015
 20
1062.25
 40
4.5
 50
269.99999700000001
 51
90.000002999999992
  0
LINE
  8
_0-0_0
  6
CONTINUOUS
 62
    7
 10
-703.57214350000015
 20
1057.75
 11
-708.57214350000004
 21
1057.75
  0
ARC
  8
_0-0_0
  6
CONTINUOUS
 62
    7
 10
-708.57214350000004
 20
1062.25
 40
4.5
 50
90.000003000000007
 51
269.99999700000006
  0
LINE
  8
_0-0_0
  6
CONTINUOUS
 62
    7
 10
-708.57214350000004
 20
1066.75
 11
-703.57214350000015
 21
1066.75
  0
LINE
  8
_0-0_0
  6
CONTINUOUS
 62
    7
 10
-781.57214350000015
 20
1067.049988
 11
-781.75390649999997
 21
1067.049988
  0
LINE
  8
_0-0_0
  6
CONTINUOUS
 62
    7
 10
-777.07214350000015
 20
1065.75
 11
-777.07214350000015
 21
1048.1499939999999
  0
LINE
  8
_0-0_0
  6
CONTINUOUS
 62
    7
 10
-777.07214350000015
 20
1047.096405
 11
-777.07214350000015
 21
1048.1499939999999
  0
ARC
  8
_0-0_0
  6
CONTINUOUS
 62
    7
 10
-777.24243149999995
 20
1047.023285
 40
0.1734209999999999
 50
269.35085600000002
 51
358.87625300000002
  0
LINE
  8
_0-0_0
  6
CONTINUOUS
 62
    7
 10
-777.06811550000009
 20
1047.049988
 11
-777.06817649999994
 21
1047.019867
  0
LINE
  8
_0-0_0
  6
CONTINUOUS
 62
    7
 10
-777.06811550000009
 20
1066.849976
 11
-777.06817649999994
 21
1066.8801269999999
  0
ARC
  8
_0-0_0
  6
CONTINUOUS
 62
    7
 10
-777.24243149999995
 20
1066.8767089999999
 40
0.1734219999999999
 50
1.1236539999999999
 51
90.649110000000007
  0
LINE
  8
_0-0_0
  6
CONTINUOUS
 62
    7
 10
-781.57214350000015
 20
1046.849976
 11
-781.75390649999997
 21
1046.849976
  0
LINE
  8
_0-0_0
  6
CONTINUOUS
 62
    7
 10
-781.75390649999997
 20
1046.849976
 11
-781.77423150000016
 21
1046.8489690000001
  0
LINE
  8
_0-0_0
  6
CONTINUOUS
 62
    7
 10
-781.77423150000016
 20
1046.8489690000001
 11
-781.79467750000003
 21
1046.8458249999999
  0
LINE
  8
_0-0_0
  6
CONTINUOUS
 62
    7
 10
-781.79467750000003
 20
1046.8458249999999
 11
-781.82147249999991
 21
1046.8382260000001
  0
LINE
  8
_0-0_0
  6
CONTINUOUS
 62
    7
 10
-781.82147249999991
 20
1046.8382260000001
 11
-781.84710749999999
 21
1046.8268740000001
  0
LINE
  8
_0-0_0
  6
CONTINUOUS
 62
    7
 10
-781.84710749999999
 20
1046.8268740000001
 11
-781.87091049999992
 21
1046.8119809999998
  0
LINE
  8
_0-0_0
  6
CONTINUOUS
 62
    7
 10
-781.87091049999992
 20
1046.8119809999998
 11
-781.88769550000018
 21
1046.798462
  0
LINE
  8
_0-0_0
  6
CONTINUOUS
 62
    7
 10
-781.88769550000018
 20
1046.798462
 11
-781.90319850000026
 21
1046.7832639999999
  0
LINE
  8
_0-0_0
  6
CONTINUOUS
 62
    7
 10
-781.90319850000026
 20
1046.7832639999999
 11
-781.93005350000033
 21
1046.7485959999999
  0
LINE
  8
_0-0_0
  6
CONTINUOUS
 62
    7
 10
-781.93005350000033
 20
1046.7485959999999
 11
-781.95111050000003
 21
1046.710266
  0
LINE
  8
_0-0_0
  6
CONTINUOUS
 62
    7
 10
-781.95111050000003
 20
1046.710266
 11
-781.96313450000002
 21
1046.680359
  0
LINE
  8
_0-0_0
  6
CONTINUOUS
 62
    7
 10
-781.96313450000002
 20
1046.680359
 11
-781.97216850000007
 21
1046.6499939999999
  0
ARC
  8
_0-0_0
  6
CONTINUOUS
 62
    7
 10
-781.57214350000015
 20
1044.1499940000001
 40
0.5
 50
179.99999099999999
 51
269.99999700000001
  0
ARC
  8
_0-0_0
  6
CONTINUOUS
 62
    7
 10
-777.27215549999994
 20
1043.4499820000001
 40
0.2
 50
0
 51
90.000003000000007
  0
LINE
  8
_0-0_0
  6
CONTINUOUS
 62
    7
 10
-777.07214350000015
 20
1043.25
 11
-776.57214349999992
 21
1042.75
  0
ARC
  8
_0-0_0
  6
CONTINUOUS
 62
    7
 10
-793.74761949999981
 20
1065.75
 40
2
 50
90.000003000000007
 51
108.434997
  0
LINE
  8
_0-0_0
  6
CONTINUOUS
 62
    7
 10
-789.07214350000015
 20
1065.25
 11
-789.07214350000015
 21
1065.75
  0
LINE
  8
_0-0_0
  6
CONTINUOUS
 62
    7
 10
-789.07214350000015
 20
1062.25
 11
-789.07214350000015
 21
1061.75
  0
LINE
  8
_0-0_0
  6
CONTINUOUS
 62
    7
 10
-789.07214350000015
 20
1062.25
 11
-789.07214350000015
 21
1065.25
  0
ARC
  8
_0-0_0
  6
CONTINUOUS
 62
    7
 10
-783.07214350000015
 20
1062.4499820000001
 40
0.500016
 50
0.001164
 51
179.99560600000004
  0
LINE
  8
_0-0_0
  6
CONTINUOUS
 62
    7
 10
-783.57214350000004
 20
1062.4499820000001
 11
-783.57214350000004
 21
1050.4499820000001
  0
ARC
  8
_0-0_0
  6
CONTINUOUS
 62
    7
 10
-783.07214350000015
 20
1050.450012
 40
0.500016
 50
180.00117
 51
359.995611
  0
LINE
  8
_0-0_0
  6
CONTINUOUS
 62
    7
 10
-782.57214349999992
 20
1062.4499820000001
 11
-782.57214349999992
 21
1050.4499820000001
  0
ARC
  8
_0-0_0
  6
CONTINUOUS
 62
    7
 10
-784.57214350000015
 20
1062.4499820000001
 40
0.500016
 50
0.001164
 51
179.99560600000004
  0
LINE
  8
_0-0_0
  6
CONTINUOUS
 62
    7
 10
-785.07214350000004
 20
1062.4499820000001
 11
-785.07214350000004
 21
1050.4499820000001
  0
ARC
  8
_0-0_0
  6
CONTINUOUS
 62
    7
 10
-784.57214350000015
 20
1050.450012
 40
0.500016
 50
180.00117
 51
359.995611
  0
LINE
  8
_0-0_0
  6
CONTINUOUS
 62
    7
 10
-784.07214349999992
 20
1062.4499820000001
 11
-784.07214349999992
 21
1050.4499820000001
  0
ARC
  8
_0-0_0
  6
CONTINUOUS
 62
    7
 10
-786.07214350000015
 20
1062.4499820000001
 40
0.500016
 50
0.001164
 51
179.99560600000004
  0
LINE
  8
_0-0_0
  6
CONTINUOUS
 62
    7
 10
-786.57214350000004
 20
1062.4499820000001
 11
-786.57214350000004
 21
1050.4499820000001
  0
ARC
  8
_0-0_0
  6
CONTINUOUS
 62
    7
 10
-786.07214350000015
 20
1050.450012
 40
0.500016
 50
180.00117
 51
359.995611
  0
LINE
  8
_0-0_0
  6
CONTINUOUS
 62
    7
 10
-785.57214349999992
 20
1062.4499820000001
 11
-785.57214349999992
 21
1050.4499820000001
  0
ARC
  8
_0-0_0
  6
CONTINUOUS
 62
    7
 10
-787.57214350000015
 20
1062.4499820000001
 40
0.500016
 50
0.001164
 51
179.99560600000004
  0
LINE
  8
_0-0_0
  6
CONTINUOUS
 62
    7
 10
-788.07214350000004
 20
1062.4499820000001
 11
-788.07214350000004
 21
1050.4499820000001
  0
ARC
  8
_0-0_0
  6
CONTINUOUS
 62
    7
 10
-787.57214350000015
 20
1050.450012
 40
0.500016
 50
180.00117
 51
359.995611
  0
LINE
  8
_0-0_0
  6
CONTINUOUS
 62
    7
 10
-787.07214349999992
 20
1062.4499820000001
 11
-787.07214349999992
 21
1050.4499820000001
  0
LINE
  8
_0-0_0
  6
CONTINUOUS
 62
    7
 10
-691.07214349999992
 20
1068.4499820000001
 11
-690.57214350000004
 21
1068.4499820000001
  0
LINE
  8
_0-0_0
  6
CONTINUOUS
 62
    7
 10
-690.57214350000004
 20
1068.4499820000001
 11
-678.07214350000015
 21
1068.4499820000001
  0
ARC
  8
_0-0_0
  6
CONTINUOUS
 62
    7
 10
-690.57214350000004
 20
1068.9499820000001
 40
0.5
 50
179.99999099999999
 51
269.99999700000001
  0
LINE
  8
_0-0_0
  6
CONTINUOUS
 62
    7
 10
-691.07214349999992
 20
1068.0839539999999
 11
-691.07214349999992
 21
1068.4499820000001
  0
LINE
  8
_0-0_0
  6
CONTINUOUS
 62
    7
 10
-691.07214349999992
 20
1067.833466
 11
-691.07214349999992
 21
1067.799988
  0
LINE
  8
_0-0_0
  6
CONTINUOUS
 62
    7
 10
-691.07214349999992
 20
1068.0839539999999
 11
-691.07214349999992
 21
1067.833466
  0
CIRCLE
  8
_0-0_0
  6
CONTINUOUS
 62
    7
 10
-772.07214349999992
 20
1068.75
 40
1.4750000000000001
  0
CIRCLE
  8
_0-0_0
  6
CONTINUOUS
 62
    7
 10
-693.07214350000015
 20
1068.75
 40
1.4750000000000001
  0
LINE
  8
_0-0_0
  6
CONTINUOUS
 62
    7
 10
-691.07214349999992
 20
1043.099976
 11
-691.07214349999992
 21
1043.25
  0
LINE
  8
_0-0_0
  6
CONTINUOUS
 62
    7
 10
-685.57214350000015
 20
1043.099976
 11
-691.07214349999992
 21
1043.099976
  0
LINE
  8
_0-0_0
  6
CONTINUOUS
 62
    7
 10
-685.57214350000015
 20
1045.6499940000001
 11
-686.07214350000004
 21
1045.6499940000001
  0
LINE
  8
_0-0_0
  6
CONTINUOUS
 62
    7
 10
-690.57214350000004
 20
1068.299988
 11
-691.07214349999992
 21
1067.799988
  0
LINE
  8
_0-0_0
  6
CONTINUOUS
 62
    7
 10
-690.57214350000004
 20
1068.299988
 11
-685.57214350000015
 21
1068.299988
  0
LINE
  8
_0-0_0
  6
CONTINUOUS
 62
    7
 10
-782.06097450000027
 20
1046.1499939999999
 11
-793.74761949999981
 21
1046.1499939999999
  0
LINE
  8
_0-0_0
  6
CONTINUOUS
 62
    7
 10
-794.82214350000004
 20
1067.499969
 11
-794.38006649999988
 21
1067.6473390000001
  0
LINE
  8
_0-0_0
  6
CONTINUOUS
 62
    7
 10
-798.54650849999996
 20
1062.25
 11
-799.23986849999972
 21
1062.25
  0
LINE
  8
_0-0_0
  6
CONTINUOUS
 62
    7
 10
-798.54650849999996
 20
1062.25
 11
-794.22192350000012
 21
1062.25
  0
LINE
  8
_0-0_0
  6
CONTINUOUS
 62
    7
 10
-793.74761949999981
 20
1062.25
 11
-794.22192350000012
 21
1062.25
  0
LINE
  8
_0-0_0
  6
CONTINUOUS
 62
    7
 10
-789.07214350000015
 20
1062.25
 11
-793.74761949999981
 21
1062.25
  0
LINE
  8
_0-0_0
  6
CONTINUOUS
 62
    7
 10
-691.07214349999992
 20
1042.9535519999999
 11
-691.07214349999992
 21
1043.099976
  0
LINE
  8
_0-0_0
  6
CONTINUOUS
 62
    7
 10
-691.07214349999992
 20
1042.8964229999999
 11
-691.07214349999992
 21
1042.9535519999999
  0
LINE
  8
_0-0_0
  6
CONTINUOUS
 62
    7
 10
-691.07214349999992
 20
1042.75
 11
-691.07214349999992
 21
1042.8964229999999
  0
ARC
  8
_0-0_0
  6
CONTINUOUS
 62
    7
 10
-685.57214350000015
 20
1043.599976
 40
0.5
 50
269.99999700000001
 51
0
  0
LINE
  8
_0-0_0
  6
CONTINUOUS
 62
    7
 10
-685.07214349999992
 20
1045.1557010000001
 11
-685.07214349999992
 21
1043.599976
  0
ARC
  8
_0-0_0
  6
CONTINUOUS
 62
    7
 10
-685.55908250000005
 20
1045.1523440000001
 40
0.4869939999999999
 50
0.394923
 51
23.93947
  0
ARC
  8
_0-0_0
  6
CONTINUOUS
 62
    7
 10
-685.57214350000015
 20
1045.1499939999999
 40
0.5
 50
23.578231000000002
 51
90.000002999999992
  0
LINE
  8
_0-0_0
  6
CONTINUOUS
 62
    7
 10
-685.07214349999992
 20
1065.299988
 11
-685.07214349999992
 21
1067.799988
  0
ARC
  8
_0-0_0
  6
CONTINUOUS
 62
    7
 10
-685.57214350000015
 20
1067.799988
 40
0.5
 50
0
 51
90.000003000000007
  0
LINE
  8
_0-0_0
  6
CONTINUOUS
 62
    7
 10
-685.57214350000015
 20
1052
 11
-687.77215550000017
 21
1052
  0
LINE
  8
_0-0_0
  6
CONTINUOUS
 62
    7
 10
-685.07214349999992
 20
1065.299988
 11
-685.07214349999992
 21
1052.5
  0
LINE
  8
_0-0_0
  6
CONTINUOUS
 62
    7
 10
-688.07214349999992
 20
1051.6999820000001
 11
-688.07214349999992
 21
1049.121674
  0
LINE
  8
_0-0_0
  6
CONTINUOUS
 62
    7
 10
-758.10058650000019
 20
1058.1499939999999
 11
-766.04370150000011
 21
1058.1499939999999
  0
ARC
  8
_0-0_0
  6
CONTINUOUS
 62
    7
 10
-766.04370150000011
 20
1058.6499939999999
 40
0.5
 50
210.00000299999999
 51
269.99999700000001
  0
LINE
  8
_0-0_0
  6
CONTINUOUS
 62
    7
 10
-766.47668450000003
 20
1058.3999940000001
 11
-768.55517550000025
 21
1062
  0
ARC
  8
_0-0_0
  6
CONTINUOUS
 62
    7
 10
-768.12219249999998
 20
1062.25
 40
0.5
 50
149.99999700000001
 51
210.00000299999996
  0
LINE
  8
_0-0_0
  6
CONTINUOUS
 62
    7
 10
-768.55517550000025
 20
1062.5
 11
-766.47668450000003
 21
1066.099976
  0
ARC
  8
_0-0_0
  6
CONTINUOUS
 62
    7
 10
-766.04370150000011
 20
1065.849976
 40
0.5
 50
90.000003000000007
 51
149.99999700000001
  0
LINE
  8
_0-0_0
  6
CONTINUOUS
 62
    7
 10
-766.04370150000011
 20
1066.349976
 11
-758.10058650000019
 21
1066.349976
  0
ARC
  8
_0-0_0
  6
CONTINUOUS
 62
    7
 10
-758.10058650000019
 20
1065.849976
 40
0.5
 50
30.000001000000001
 51
90.000003000000007
  0
LINE
  8
_0-0_0
  6
CONTINUOUS
 62
    7
 10
-757.66760250000027
 20
1066.099976
 11
-755.58911150000006
 21
1062.5
  0
ARC
  8
_0-0_0
  6
CONTINUOUS
 62
    7
 10
-756.02215550000017
 20
1062.25
 40
0.5
 50
329.99998900000003
 51
30.000000999999983
  0
LINE
  8
_0-0_0
  6
CONTINUOUS
 62
    7
 10
-755.58911150000006
 20
1062
 11
-757.66760250000027
 21
1058.3999940000001
  0
ARC
  8
_0-0_0
  6
CONTINUOUS
 62
    7
 10
-758.10058650000019
 20
1058.6499939999999
 40
0.5
 50
269.99999700000001
 51
329.99998900000003
  0
ARC
  8
_0-0_0
  6
CONTINUOUS
 62
    7
 10
-710.10144050000008
 20
1058.75
 40
0.5
 50
210.00000299999999
 51
269.99999700000001
  0
LINE
  8
_0-0_0
  6
CONTINUOUS
 62
    7
 10
-710.5344235
 20
1058.5
 11
-712.55517550000002
 21
1062
  0
ARC
  8
_0-0_0
  6
CONTINUOUS
 62
    7
 10
-712.1221925000001
 20
1062.25
 40
0.5
 50
149.99999700000001
 51
210.00000299999996
  0
LINE
  8
_0-0_0
  6
CONTINUOUS
 62
    7
 10
-712.55517550000002
 20
1062.5
 11
-710.5344235
 21
1066
  0
ARC
  8
_0-0_0
  6
CONTINUOUS
 62
    7
 10
-710.10144050000008
 20
1065.75
 40
0.5
 50
90.000003000000007
 51
149.99999700000001
  0
LINE
  8
_0-0_0
  6
CONTINUOUS
 62
    7
 10
-710.10144050000008
 20
1066.25
 11
-702.04284650000011
 21
1066.25
  0
ARC
  8
_0-0_0
  6
CONTINUOUS
 62
    7
 10
-702.04284650000011
 20
1065.75
 40
0.5
 50
30.000001000000001
 51
90.000003000000007
  0
LINE
  8
_0-0_0
  6
CONTINUOUS
 62
    7
 10
-701.60986350000019
 20
1066
 11
-699.58911149999983
 21
1062.5
  0
ARC
  8
_0-0_0
  6
CONTINUOUS
 62
    7
 10
-700.02215549999994
 20
1062.25
 40
0.5
 50
329.99998900000003
 51
30.000000999999983
  0
LINE
  8
_0-0_0
  6
CONTINUOUS
 62
    7
 10
-699.58911149999983
 20
1062
 11
-701.60986350000019
 21
1058.5
  0
ARC
  8
_0-0_0
  6
CONTINUOUS
 62
    7
 10
-702.04284650000011
 20
1058.75
 40
0.5
 50
269.99999700000001
 51
329.99998900000003
  0
LINE
  8
_0-0_0
  6
CONTINUOUS
 62
    7
 10
-702.04284650000011
 20
1058.25
 11
-710.10144050000008
 21
1058.25
  0
LINE
  8
_0-0_0
  6
CONTINUOUS
 62
    7
 10
-794.38006649999988
 20
1046.2526250000001
 11
-794.26055950000011
 21
1046.2170100000001
  0
LINE
  8
_0-0_0
  6
CONTINUOUS
 62
    7
 10
-794.26055950000011
 20
1046.2170100000001
 11
-794.13903849999997
 21
1046.1891170000001
  0
LINE
  8
_0-0_0
  6
CONTINUOUS
 62
    7
 10
-794.13903849999997
 20
1046.1891170000001
 11
-794.01586949999989
 21
1046.169067
  0
LINE
  8
_0-0_0
  6
CONTINUOUS
 62
    7
 10
-794.01586949999989
 20
1046.169067
 11
-793.89166250000005
 21
1046.1569519999998
  0
LINE
  8
_0-0_0
  6
CONTINUOUS
 62
    7
 10
-793.89166250000005
 20
1046.1569519999998
 11
-793.76684550000039
 21
1046.152832
  0
LINE
  8
_0-0_0
  6
CONTINUOUS
 62
    7
 10
-793.76684550000039
 20
1046.152832
 11
-793.74761949999981
 21
1046.1528929999999
  0
ARC
  8
_0-0_0
  6
CONTINUOUS
 62
    7
 10
-793.74761949999981
 20
1048.1499939999999
 40
2
 50
251.56498899999997
 51
269.99999700000001
  0
LINE
  8
_0-0_0
  6
CONTINUOUS
 62
    7
 10
-800.07214350000004
 20
1063.000031
 11
-800.07214350000004
 21
1061.8789980000001
  0
LINE
  8
_0-0_0
  6
CONTINUOUS
 62
    7
 10
-771.87219249999998
 20
1067.6499939999999
 11
-772.27215550000005
 21
1067.6499939999999
  0
LINE
  8
_0-0_0
  6
CONTINUOUS
 62
    7
 10
-771.87219249999998
 20
1067.6499939999999
 11
-771.87219249999998
 21
1068.299988
  0
ARC
  8
_0-0_0
  6
CONTINUOUS
 62
    7
 10
-771.62219249999987
 20
1068.299988
 40
0.25
 50
90.000003000000007
 51
179.99999099999999
  0
LINE
  8
_0-0_0
  6
CONTINUOUS
 62
    7
 10
-771.62219249999987
 20
1068.549988
 11
-770.97216849999984
 21
1068.549988
  0
LINE
  8
_0-0_0
  6
CONTINUOUS
 62
    7
 10
-770.97216849999984
 20
1068.549988
 11
-770.97216849999984
 21
1068.9499820000001
  0
LINE
  8
_0-0_0
  6
CONTINUOUS
 62
    7
 10
-771.62219249999987
 20
1068.9499820000001
 11
-770.97216849999984
 21
1068.9499820000001
  0
ARC
  8
_0-0_0
  6
CONTINUOUS
 62
    7
 10
-771.62219249999987
 20
1069.1999820000001
 40
0.25
 50
179.99999099999999
 51
269.99999700000001
  0
LINE
  8
_0-0_0
  6
CONTINUOUS
 62
    7
 10
-771.87219249999998
 20
1069.849976
 11
-771.87219249999998
 21
1069.1999820000001
  0
LINE
  8
_0-0_0
  6
CONTINUOUS
 62
    7
 10
-771.87219249999998
 20
1069.849976
 11
-772.27215550000005
 21
1069.849976
  0
LINE
  8
_0-0_0
  6
CONTINUOUS
 62
    7
 10
-772.27215550000005
 20
1069.849976
 11
-772.27215550000005
 21
1069.1999820000001
  0
ARC
  8
_0-0_0
  6
CONTINUOUS
 62
    7
 10
-772.52215550000017
 20
1069.1999820000001
 40
0.25
 50
269.99999700000001
 51
0
  0
LINE
  8
_0-0_0
  6
CONTINUOUS
 62
    7
 10
-772.52215550000017
 20
1068.9499820000001
 11
-773.1721805000002
 21
1068.9499820000001
  0
LINE
  8
_0-0_0
  6
CONTINUOUS
 62
    7
 10
-773.1721805000002
 20
1068.549988
 11
-773.1721805000002
 21
1068.9499820000001
  0
LINE
  8
_0-0_0
  6
CONTINUOUS
 62
    7
 10
-772.52215550000017
 20
1068.549988
 11
-773.1721805000002
 21
1068.549988
  0
ARC
  8
_0-0_0
  6
CONTINUOUS
 62
    7
 10
-772.52215550000017
 20
1068.299988
 40
0.25
 50
0
 51
90.000003000000007
  0
LINE
  8
_0-0_0
  6
CONTINUOUS
 62
    7
 10
-772.27215550000005
 20
1067.6499939999999
 11
-772.27215550000005
 21
1068.299988
  0
LINE
  8
_0-0_0
  6
CONTINUOUS
 62
    7
 10
-692.87219249999987
 20
1067.6499939999999
 11
-693.27215549999994
 21
1067.6499939999999
  0
LINE
  8
_0-0_0
  6
CONTINUOUS
 62
    7
 10
-692.87219249999987
 20
1067.6499939999999
 11
-692.87219249999987
 21
1068.299988
  0
ARC
  8
_0-0_0
  6
CONTINUOUS
 62
    7
 10
-692.6221925000001
 20
1068.299988
 40
0.25
 50
90.000003000000007
 51
179.99999099999999
  0
LINE
  8
_0-0_0
  6
CONTINUOUS
 62
    7
 10
-692.6221925000001
 20
1068.549988
 11
-691.97216850000007
 21
1068.549988
  0
LINE
  8
_0-0_0
  6
CONTINUOUS
 62
    7
 10
-691.97216850000007
 20
1068.549988
 11
-691.97216850000007
 21
1068.9499820000001
  0
LINE
  8
_0-0_0
  6
CONTINUOUS
 62
    7
 10
-692.6221925000001
 20
1068.9499820000001
 11
-691.97216850000007
 21
1068.9499820000001
  0
ARC
  8
_0-0_0
  6
CONTINUOUS
 62
    7
 10
-692.6221925000001
 20
1069.1999820000001
 40
0.25
 50
179.99999099999999
 51
269.99999700000001
  0
LINE
  8
_0-0_0
  6
CONTINUOUS
 62
    7
 10
-692.87219249999987
 20
1069.849976
 11
-692.87219249999987
 21
1069.1999820000001
  0
LINE
  8
_0-0_0
  6
CONTINUOUS
 62
    7
 10
-692.87219249999987
 20
1069.849976
 11
-693.27215549999994
 21
1069.849976
  0
LINE
  8
_0-0_0
  6
CONTINUOUS
 62
    7
 10
-693.27215549999994
 20
1069.849976
 11
-693.27215549999994
 21
1069.1999820000001
  0
ARC
  8
_0-0_0
  6
CONTINUOUS
 62
    7
 10
-693.52215550000005
 20
1069.1999820000001
 40
0.25
 50
269.99999700000001
 51
0
  0
LINE
  8
_0-0_0
  6
CONTINUOUS
 62
    7
 10
-693.52215550000005
 20
1068.9499820000001
 11
-694.17211949999989
 21
1068.9499820000001
  0
LINE
  8
_0-0_0
  6
CONTINUOUS
 62
    7
 10
-694.17211949999989
 20
1068.549988
 11
-694.17211949999989
 21
1068.9499820000001
  0
LINE
  8
_0-0_0
  6
CONTINUOUS
 62
    7
 10
-693.52215550000005
 20
1068.549988
 11
-694.17211949999989
 21
1068.549988
  0
ARC
  8
_0-0_0
  6
CONTINUOUS
 62
    7
 10
-693.52215550000005
 20
1068.299988
 40
0.25
 50
0
 51
90.000003000000007
  0
LINE
  8
_0-0_0
  6
CONTINUOUS
 62
    7
 10
-693.27215549999994
 20
1067.6499939999999
 11
-693.27215549999994
 21
1068.299988
  0
LINE
  8
_0-0_0
  6
CONTINUOUS
 62
    7
 10
-685.57214350000015
 20
1042.75
 11
-691.07214349999992
 21
1042.75
  0
LINE
  8
_0-0_0
  6
CONTINUOUS
 62
    7
 10
-685.07214349999992
 20
1049
 11
-685.07214349999992
 21
1052.5
  0
LINE
  8
_0-0_0
  6
CONTINUOUS
 62
    7
 10
-685.07214349999992
 20
1049
 11
-685.07214349999992
 21
1048.6499940000001
  0
LINE
  8
_0-0_0
  6
CONTINUOUS
 62
    7
 10
-685.07214349999992
 20
1045.1557010000001
 11
-685.07214349999992
 21
1048.6499940000001
  0
LINE
  8
_0-0_0
  6
CONTINUOUS
 62
    7
 10
-685.07214349999992
 20
1043.307098
 11
-685.07214349999992
 21
1043.599976
  0
LINE
  8
_0-0_0
  6
CONTINUOUS
 62
    7
 10
-685.07214349999992
 20
1043.307098
 11
-685.07214349999992
 21
1043.25
  0
LINE
  8
_0-0_0
  6
CONTINUOUS
 62
    7
 10
-688.07214349999992
 20
1047.571289
 11
-688.07214349999992
 21
1049.121674
  0
LINE
  8
_0-0_0
  6
CONTINUOUS
 62
    7
 10
-688.07214349999992
 20
1046.850128
 11
-688.07214349999992
 21
1047.571289
  0
ARC
  8
_0-0_0
  6
CONTINUOUS
 62
    7
 10
-685.57214350000015
 20
1052.5
 40
0.5
 50
269.99999700000001
 51
0
  0
ARC
  8
_0-0_0
  6
CONTINUOUS
 62
    7
 10
-687.77215550000017
 20
1051.6999820000001
 40
0.2999999999999999
 50
90.000003000000007
 51
179.99999099999999
  0
LINE
  8
_0-0_0
  6
CONTINUOUS
 62
    7
 10
-798.70458950000022
 20
1047.6941529999999
 11
-794.38006649999988
 21
1046.2526250000001
  0
LINE
  8
_0-0_0
  6
CONTINUOUS
 62
    7
 10
-800.07214350000004
 20
1049.591492
 11
-800.07214350000004
 21
1052.9422910000001
  0
LINE
  8
_0-0_0
  6
CONTINUOUS
 62
    7
 10
-800.07214350000004
 20
1060.957672
 11
-800.07214350000004
 21
1061.8789980000001
  0
ARC
  8
_0-0_0
  6
CONTINUOUS
 62
    7
 10
-798.07214350000015
 20
1049.591492
 40
2
 50
179.99999099999999
 51
251.56498899999997
  0
LINE
  8
_0-0_0
  6
CONTINUOUS
 62
    7
 10
-815.07214350000004
 20
1066.4754330000001
 11
-815.07214350000004
 21
1066.3287049999999
  0
LINE
  8
_0-0_0
  6
CONTINUOUS
 62
    7
 10
-815.07214350000004
 20
1066.6659549999999
 11
-815.07214350000004
 21
1066.4754330000001
  0
LINE
  8
_0-0_0
  6
CONTINUOUS
 62
    7
 10
-815.07214350000004
 20
1066.8409729999998
 11
-815.07214350000004
 21
1066.6659549999999
  0
LINE
  8
_0-0_0
  6
CONTINUOUS
 62
    7
 10
-815.07214350000004
 20
1066.998566
 11
-815.07214350000004
 21
1066.8409729999998
  0
LINE
  8
_0-0_0
  6
CONTINUOUS
 62
    7
 10
-815.07214350000004
 20
1067.1369930000001
 11
-815.07214350000004
 21
1066.998566
  0
LINE
  8
_0-0_0
  6
CONTINUOUS
 62
    7
 10
-815.07214350000004
 20
1067.2547609999999
 11
-815.07214350000004
 21
1067.1369930000001
  0
LINE
  8
_0-0_0
  6
CONTINUOUS
 62
    7
 10
-815.07214350000004
 20
1067.3505249999998
 11
-815.07214350000004
 21
1067.2547609999999
  0
LINE
  8
_0-0_0
  6
CONTINUOUS
 62
    7
 10
-815.07214350000004
 20
1067.423309
 11
-815.07214350000004
 21
1067.3505249999998
  0
LINE
  8
_0-0_0
  6
CONTINUOUS
 62
    7
 10
-815.07214350000004
 20
1067.4722899999999
 11
-815.07214350000004
 21
1067.423309
  0
LINE
  8
_0-0_0
  6
CONTINUOUS
 62
    7
 10
-815.07214350000004
 20
1067.496887
 11
-815.07214350000004
 21
1067.4722899999999
  0
LINE
  8
_0-0_0
  6
CONTINUOUS
 62
    7
 10
-815.07214350000004
 20
1067.5
 11
-815.07214350000004
 21
1067.496887
  0
LINE
  8
_0-0_0
  6
CONTINUOUS
 62
    7
 10
-815.07214350000004
 20
1063.003052
 11
-815.07214350000004
 21
1063
  0
LINE
  8
_0-0_0
  6
CONTINUOUS
 62
    7
 10
-815.07214350000004
 20
1063.027679
 11
-815.07214350000004
 21
1063.003052
  0
LINE
  8
_0-0_0
  6
CONTINUOUS
 62
    7
 10
-815.07214350000004
 20
1063.0766599999999
 11
-815.07214350000004
 21
1063.027679
  0
LINE
  8
_0-0_0
  6
CONTINUOUS
 62
    7
 10
-815.07214350000004
 20
1063.149414
 11
-815.07214350000004
 21
1063.0766599999999
  0
LINE
  8
_0-0_0
  6
CONTINUOUS
 62
    7
 10
-815.07214350000004
 20
1063.2452090000002
 11
-815.07214350000004
 21
1063.149414
  0
LINE
  8
_0-0_0
  6
CONTINUOUS
 62
    7
 10
-815.07214350000004
 20
1063.2754210000001
 11
-815.07214350000004
 21
1063.2452090000002
  0
LINE
  8
_0-0_0
  6
CONTINUOUS
 62
    7
 10
-815.07214350000004
 20
1063.3629759999999
 11
-815.07214350000004
 21
1063.2754210000001
  0
LINE
  8
_0-0_0
  6
CONTINUOUS
 62
    7
 10
-815.07214350000004
 20
1063.5014040000001
 11
-815.07214350000004
 21
1063.3629759999999
  0
LINE
  8
_0-0_0
  6
CONTINUOUS
 62
    7
 10
-815.07214350000004
 20
1063.658997
 11
-815.07214350000004
 21
1063.5014040000001
  0
LINE
  8
_0-0_0
  6
CONTINUOUS
 62
    7
 10
-815.07214350000004
 20
1063.8340149999999
 11
-815.07214350000004
 21
1063.658997
  0
LINE
  8
_0-0_0
  6
CONTINUOUS
 62
    7
 10
-815.07214350000004
 20
1064.0245359999999
 11
-815.07214350000004
 21
1063.8340149999999
  0
LINE
  8
_0-0_0
  6
CONTINUOUS
 62
    7
 10
-815.07214350000004
 20
1064.2285160000001
 11
-815.07214350000004
 21
1064.0245359999999
  0
LINE
  8
_0-0_0
  6
CONTINUOUS
 62
    7
 10
-815.07214350000004
 20
1064.443665
 11
-815.07214350000004
 21
1064.2285160000001
  0
LINE
  8
_0-0_0
  6
CONTINUOUS
 62
    7
 10
-815.07214350000004
 20
1064.667633
 11
-815.07214350000004
 21
1064.443665
  0
LINE
  8
_0-0_0
  6
CONTINUOUS
 62
    7
 10
-815.07214350000004
 20
1064.8980099999999
 11
-815.07214350000004
 21
1064.667633
  0
LINE
  8
_0-0_0
  6
CONTINUOUS
 62
    7
 10
-815.07214350000004
 20
1065.132233
 11
-815.07214350000004
 21
1064.8980099999999
  0
LINE
  8
_0-0_0
  6
CONTINUOUS
 62
    7
 10
-815.07214350000004
 20
1065.367737
 11
-815.07214350000004
 21
1065.132233
  0
LINE
  8
_0-0_0
  6
CONTINUOUS
 62
    7
 10
-815.07214350000004
 20
1065.6019590000001
 11
-815.07214350000004
 21
1065.367737
  0
LINE
  8
_0-0_0
  6
CONTINUOUS
 62
    7
 10
-815.07214350000004
 20
1065.8323359999999
 11
-815.07214350000004
 21
1065.6019590000001
  0
LINE
  8
_0-0_0
  6
CONTINUOUS
 62
    7
 10
-815.07214350000004
 20
1066.0563050000001
 11
-815.07214350000004
 21
1065.8323359999999
  0
LINE
  8
_0-0_0
  6
CONTINUOUS
 62
    7
 10
-815.07214350000004
 20
1066.2714539999999
 11
-815.07214350000004
 21
1066.0563050000001
  0
LINE
  8
_0-0_0
  6
CONTINUOUS
 62
    7
 10
-815.07214350000004
 20
1066.3287049999999
 11
-815.07214350000004
 21
1066.2714539999999
  0
LINE
  8
_0-0_0
  6
CONTINUOUS
 62
    7
 10
-799.77215549999994
 20
1059.161987
 11
-799.8309324999999
 21
1059.408813
  0
LINE
  8
_0-0_0
  6
CONTINUOUS
 62
    7
 10
-799.8309324999999
 20
1059.408813
 11
-799.88073750000001
 21
1059.6011349999999
  0
LINE
  8
_0-0_0
  6
CONTINUOUS
 62
    7
 10
-799.88073750000001
 20
1059.6011349999999
 11
-799.95184349999988
 21
1059.866943
  0
LINE
  8
_0-0_0
  6
CONTINUOUS
 62
    7
 10
-799.95184349999988
 20
1059.866943
 11
-799.98480250000023
 21
1059.9936519999999
  0
LINE
  8
_0-0_0
  6
CONTINUOUS
 62
    7
 10
-799.98480250000023
 20
1059.9936519999999
 11
-800.01007049999987
 21
1060.097076
  0
LINE
  8
_0-0_0
  6
CONTINUOUS
 62
    7
 10
-800.01007049999987
 20
1060.097076
 11
-800.03210450000017
 21
1060.1970209999999
  0
LINE
  8
_0-0_0
  6
CONTINUOUS
 62
    7
 10
-800.03210450000017
 20
1060.1970209999999
 11
-800.05346650000013
 21
1060.3147280000001
  0
LINE
  8
_0-0_0
  6
CONTINUOUS
 62
    7
 10
-800.05346650000013
 20
1060.3147280000001
 11
-800.06207249999989
 21
1060.3768620000001
  0
LINE
  8
_0-0_0
  6
CONTINUOUS
 62
    7
 10
-800.06207249999989
 20
1060.3768620000001
 11
-800.06811550000032
 21
1060.437469
  0
LINE
  8
_0-0_0
  6
CONTINUOUS
 62
    7
 10
-800.06811550000032
 20
1060.437469
 11
-800.07116750000012
 21
1060.4866939999999
  0
LINE
  8
_0-0_0
  6
CONTINUOUS
 62
    7
 10
-800.07116750000012
 20
1060.4866939999999
 11
-800.07214350000004
 21
1060.5349120000001
  0
LINE
  8
_0-0_0
  6
CONTINUOUS
 62
    7
 10
-799.77215549999994
 20
1054.7379759999999
 11
-799.68872050000016
 21
1055.116638
  0
LINE
  8
_0-0_0
  6
CONTINUOUS
 62
    7
 10
-799.68872050000016
 20
1055.116638
 11
-799.64862050000011
 21
1055.3081669999999
  0
LINE
  8
_0-0_0
  6
CONTINUOUS
 62
    7
 10
-799.64862050000011
 20
1055.3081669999999
 11
-799.59252950000018
 21
1055.5982059999999
  0
LINE
  8
_0-0_0
  6
CONTINUOUS
 62
    7
 10
-799.59252950000018
 20
1055.5982059999999
 11
-799.55493149999995
 21
1055.8177799999999
  0
LINE
  8
_0-0_0
  6
CONTINUOUS
 62
    7
 10
-799.55493149999995
 20
1055.8177799999999
 11
-799.5222775000002
 21
1056.0390320000001
  0
LINE
  8
_0-0_0
  6
CONTINUOUS
 62
    7
 10
-799.5222775000002
 20
1056.0390320000001
 11
-799.49511750000022
 21
1056.2658390000001
  0
LINE
  8
_0-0_0
  6
CONTINUOUS
 62
    7
 10
-799.49511750000022
 20
1056.2658390000001
 11
-799.4750365000001
 21
1056.4932249999999
  0
LINE
  8
_0-0_0
  6
CONTINUOUS
 62
    7
 10
-799.4750365000001
 20
1056.4932249999999
 11
-799.46789550000005
 21
1056.6069640000001
  0
LINE
  8
_0-0_0
  6
CONTINUOUS
 62
    7
 10
-799.46789550000005
 20
1056.6069640000001
 11
-799.46276850000004
 21
1056.720642
  0
LINE
  8
_0-0_0
  6
CONTINUOUS
 62
    7
 10
-799.46276850000004
 20
1056.720642
 11
-799.45898450000004
 21
1056.8720699999999
  0
LINE
  8
_0-0_0
  6
CONTINUOUS
 62
    7
 10
-799.45898450000004
 20
1056.8720699999999
 11
-799.45898450000004
 21
1057.0233150000001
  0
LINE
  8
_0-0_0
  6
CONTINUOUS
 62
    7
 10
-799.45898450000004
 20
1057.0233150000001
 11
-799.46252450000031
 21
1057.174377
  0
LINE
  8
_0-0_0
  6
CONTINUOUS
 62
    7
 10
-799.46252450000031
 20
1057.174377
 11
-799.47204650000015
 21
1057.3629149999999
  0
LINE
  8
_0-0_0
  6
CONTINUOUS
 62
    7
 10
-799.47204650000015
 20
1057.3629149999999
 11
-799.48693850000006
 21
1057.5511780000002
  0
LINE
  8
_0-0_0
  6
CONTINUOUS
 62
    7
 10
-799.48693850000006
 20
1057.5511780000002
 11
-799.5068365000003
 21
1057.7391050000001
  0
LINE
  8
_0-0_0
  6
CONTINUOUS
 62
    7
 10
-799.5068365000003
 20
1057.7391050000001
 11
-799.52319350000027
 21
1057.8679809999999
  0
LINE
  8
_0-0_0
  6
CONTINUOUS
 62
    7
 10
-799.52319350000027
 20
1057.8679809999999
 11
-799.54162649999978
 21
1057.9966429999999
  0
LINE
  8
_0-0_0
  6
CONTINUOUS
 62
    7
 10
-799.54162649999978
 20
1057.9966429999999
 11
-799.56579650000015
 21
1058.1485600000001
  0
LINE
  8
_0-0_0
  6
CONTINUOUS
 62
    7
 10
-799.56579650000015
 20
1058.1485600000001
 11
-799.59216350000008
 21
1058.299927
  0
LINE
  8
_0-0_0
  6
CONTINUOUS
 62
    7
 10
-799.59216350000008
 20
1058.299927
 11
-799.64837650000038
 21
1058.5905459999999
  0
LINE
  8
_0-0_0
  6
CONTINUOUS
 62
    7
 10
-799.64837650000038
 20
1058.5905459999999
 11
-799.68853750000028
 21
1058.7825010000001
  0
LINE
  8
_0-0_0
  6
CONTINUOUS
 62
    7
 10
-799.68853750000028
 20
1058.7825010000001
 11
-799.77215549999994
 21
1059.161987
  0
LINE
  8
_0-0_0
  6
CONTINUOUS
 62
    7
 10
-799.77215549999994
 20
1054.7379759999999
 11
-799.8309324999999
 21
1054.491119
  0
LINE
  8
_0-0_0
  6
CONTINUOUS
 62
    7
 10
-799.8309324999999
 20
1054.491119
 11
-799.88073750000001
 21
1054.298798
  0
LINE
  8
_0-0_0
  6
CONTINUOUS
 62
    7
 10
-799.88073750000001
 20
1054.298798
 11
-799.95184349999988
 21
1054.0330510000001
  0
LINE
  8
_0-0_0
  6
CONTINUOUS
 62
    7
 10
-799.95184349999988
 20
1054.0330510000001
 11
-799.98480250000023
 21
1053.906342
  0
LINE
  8
_0-0_0
  6
CONTINUOUS
 62
    7
 10
-799.98480250000023
 20
1053.906342
 11
-800.01007049999987
 21
1053.802917
  0
LINE
  8
_0-0_0
  6
CONTINUOUS
 62
    7
 10
-800.01007049999987
 20
1053.802917
 11
-800.03210450000017
 21
1053.7029419999999
  0
LINE
  8
_0-0_0
  6
CONTINUOUS
 62
    7
 10
-800.03210450000017
 20
1053.7029419999999
 11
-800.05346650000013
 21
1053.5852360000001
  0
LINE
  8
_0-0_0
  6
CONTINUOUS
 62
    7
 10
-800.05346650000013
 20
1053.5852360000001
 11
-800.06207249999989
 21
1053.5231020000001
  0
LINE
  8
_0-0_0
  6
CONTINUOUS
 62
    7
 10
-800.06207249999989
 20
1053.5231020000001
 11
-800.06811550000032
 21
1053.4624939999999
  0
LINE
  8
_0-0_0
  6
CONTINUOUS
 62
    7
 10
-800.06811550000032
 20
1053.4624939999999
 11
-800.07116750000012
 21
1053.4132690000001
  0
LINE
  8
_0-0_0
  6
CONTINUOUS
 62
    7
 10
-800.07116750000012
 20
1053.4132690000001
 11
-800.07214350000004
 21
1053.365051
  0
ARC
  8
_0-0_0
  6
CONTINUOUS
 62
    7
 10
-685.57214350000015
 20
1043.25
 40
0.5
 50
269.99999700000001
 51
0
  0
LINE
  8
_0-0_0
  6
CONTINUOUS
 62
    7
 10
-685.61645550000014
 20
1047.571289
 11
-685.61645550000014
 21
1050.8999940000001
  0
LINE
  8
_0-0_0
  6
CONTINUOUS
 62
    7
 10
-685.61645550000014
 20
1046.3999940000001
 11
-685.61645550000014
 21
1047.571289
  0
CIRCLE
  8
_0-0_0
  6
CONTINUOUS
 62
    7
 10
-762.07214350000015
 20
1062.25
 40
2.5
  0
CIRCLE
  8
_0-0_0
  6
CONTINUOUS
 62
    7
 10
-706.07214349999992
 20
1062.25
 40
2.5
  0
LINE
  8
_0-0_0
  6
CONTINUOUS
 62
    7
 10
-800.07214350000004
 20
1053.0576780000001
 11
-809.77996850000011
 21
1053.0576780000001
  0
LINE
  8
_0-0_0
  6
CONTINUOUS
 62
    7
 10
-809.77996850000011
 20
1050.4499820000001
 11
-809.83447250000029
 21
1050.5199280000002
  0
LINE
  8
_0-0_0
  6
CONTINUOUS
 62
    7
 10
-809.83447250000029
 20
1050.5199280000002
 11
-809.88555949999989
 21
1050.588745
  0
LINE
  8
_0-0_0
  6
CONTINUOUS
 62
    7
 10
-809.88555949999989
 20
1050.588745
 11
-809.93322750000027
 21
1050.65625
  0
LINE
  8
_0-0_0
  6
CONTINUOUS
 62
    7
 10
-809.93322750000027
 20
1050.65625
 11
-809.9777224999998
 21
1050.7228089999999
  0
LINE
  8
_0-0_0
  6
CONTINUOUS
 62
    7
 10
-809.9777224999998
 20
1050.7228089999999
 11
-810.0324095000002
 21
1050.8103329999999
  0
LINE
  8
_0-0_0
  6
CONTINUOUS
 62
    7
 10
-810.0324095000002
 20
1050.8103329999999
 11
-810.08190950000005
 21
1050.8964539999999
  0
LINE
  8
_0-0_0
  6
CONTINUOUS
 62
    7
 10
-810.08190950000005
 20
1050.8964539999999
 11
-810.12640349999992
 21
1050.981262
  0
LINE
  8
_0-0_0
  6
CONTINUOUS
 62
    7
 10
-810.12640349999992
 20
1050.981262
 11
-810.17333950000011
 21
1051.081604
  0
LINE
  8
_0-0_0
  6
CONTINUOUS
 62
    7
 10
-810.17333950000011
 20
1051.081604
 11
-810.21356250000019
 21
1051.180511
  0
LINE
  8
_0-0_0
  6
CONTINUOUS
 62
    7
 10
-810.21356250000019
 20
1051.180511
 11
-810.24725350000006
 21
1051.2782589999999
  0
LINE
  8
_0-0_0
  6
CONTINUOUS
 62
    7
 10
-810.24725350000006
 20
1051.2782589999999
 11
-810.27453650000007
 21
1051.375092
  0
LINE
  8
_0-0_0
  6
CONTINUOUS
 62
    7
 10
-810.27453650000007
 20
1051.375092
 11
-810.29559350000011
 21
1051.4711300000001
  0
LINE
  8
_0-0_0
  6
CONTINUOUS
 62
    7
 10
-810.29559350000011
 20
1051.4711300000001
 11
-810.31152350000013
 21
1051.5749820000001
  0
LINE
  8
_0-0_0
  6
CONTINUOUS
 62
    7
 10
-810.31152350000013
 20
1051.5749820000001
 11
-810.32025150000027
 21
1051.678406
  0
LINE
  8
_0-0_0
  6
CONTINUOUS
 62
    7
 10
-810.32025150000027
 20
1051.678406
 11
-810.3218995000002
 21
1051.781647
  0
LINE
  8
_0-0_0
  6
CONTINUOUS
 62
    7
 10
-810.3218995000002
 20
1051.781647
 11
-810.31640650000008
 21
1051.884949
  0
LINE
  8
_0-0_0
  6
CONTINUOUS
 62
    7
 10
-810.31640650000008
 20
1051.884949
 11
-810.30383350000011
 21
1051.988525
  0
LINE
  8
_0-0_0
  6
CONTINUOUS
 62
    7
 10
-810.30383350000011
 20
1051.988525
 11
-810.2839965000004
 21
1052.092682
  0
LINE
  8
_0-0_0
  6
CONTINUOUS
 62
    7
 10
-810.2839965000004
 20
1052.092682
 11
-810.25683650000008
 21
1052.1976320000001
  0
LINE
  8
_0-0_0
  6
CONTINUOUS
 62
    7
 10
-810.25683650000008
 20
1052.1976320000001
 11
-810.22222950000014
 21
1052.30368
  0
LINE
  8
_0-0_0
  6
CONTINUOUS
 62
    7
 10
-810.22222950000014
 20
1052.30368
 11
-810.17987049999999
 21
1052.4110409999998
  0
LINE
  8
_0-0_0
  6
CONTINUOUS
 62
    7
 10
-810.17987049999999
 20
1052.4110409999998
 11
-810.12951650000025
 21
1052.5200500000001
  0
LINE
  8
_0-0_0
  6
CONTINUOUS
 62
    7
 10
-810.12951650000025
 20
1052.5200500000001
 11
-810.07531749999998
 21
1052.6231989999999
  0
LINE
  8
_0-0_0
  6
CONTINUOUS
 62
    7
 10
-810.07531749999998
 20
1052.6231989999999
 11
-810.01361050000025
 21
1052.728241
  0
LINE
  8
_0-0_0
  6
CONTINUOUS
 62
    7
 10
-810.01361050000025
 20
1052.728241
 11
-809.94409150000013
 21
1052.83548
  0
LINE
  8
_0-0_0
  6
CONTINUOUS
 62
    7
 10
-809.94409150000013
 20
1052.83548
 11
-809.8663335
 21
1052.9451900000001
  0
LINE
  8
_0-0_0
  6
CONTINUOUS
 62
    7
 10
-809.8663335
 20
1052.9451900000001
 11
-809.77996850000011
 21
1053.0576780000001
  0
LINE
  8
_0-0_0
  6
CONTINUOUS
 62
    7
 10
-800.07214350000004
 20
1050.4499820000001
 11
-809.77996850000011
 21
1050.4499820000001
  0
LINE
  8
_0-0_0
  6
CONTINUOUS
 62
    7
 10
-800.07214350000004
 20
1052.9422910000001
 11
-800.07214350000004
 21
1053.0576780000001
  0
LINE
  8
_0-0_0
  6
CONTINUOUS
 62
    7
 10
-809.82214350000004
 20
1050.4499820000001
 11
-809.77996850000011
 21
1050.4499820000001
  0
LINE
  8
_0-0_0
  6
CONTINUOUS
 62
    7
 10
-800.07214350000004
 20
1060.8422850000002
 11
-809.77996850000011
 21
1060.8422850000002
  0
LINE
  8
_0-0_0
  6
CONTINUOUS
 62
    7
 10
-800.07214350000004
 20
1060.957672
 11
-800.07214350000004
 21
1060.8422850000002
  0
LINE
  8
_0-0_0
  6
CONTINUOUS
 62
    7
 10
-809.77996850000011
 20
1060.8422850000002
 11
-809.83447250000029
 21
1060.912231
  0
LINE
  8
_0-0_0
  6
CONTINUOUS
 62
    7
 10
-809.83447250000029
 20
1060.912231
 11
-809.88555949999989
 21
1060.981049
  0
LINE
  8
_0-0_0
  6
CONTINUOUS
 62
    7
 10
-809.88555949999989
 20
1060.981049
 11
-809.93322750000027
 21
1061.0485530000001
  0
LINE
  8
_0-0_0
  6
CONTINUOUS
 62
    7
 10
-809.93322750000027
 20
1061.0485530000001
 11
-809.9777224999998
 21
1061.115112
  0
LINE
  8
_0-0_0
  6
CONTINUOUS
 62
    7
 10
-809.9777224999998
 20
1061.115112
 11
-810.0324095000002
 21
1061.2026370000001
  0
LINE
  8
_0-0_0
  6
CONTINUOUS
 62
    7
 10
-810.0324095000002
 20
1061.2026370000001
 11
-810.08190950000005
 21
1061.288757
  0
LINE
  8
_0-0_0
  6
CONTINUOUS
 62
    7
 10
-810.08190950000005
 20
1061.288757
 11
-810.12640349999992
 21
1061.3735959999999
  0
LINE
  8
_0-0_0
  6
CONTINUOUS
 62
    7
 10
-810.12640349999992
 20
1061.3735959999999
 11
-810.17333950000011
 21
1061.4739070000001
  0
LINE
  8
_0-0_0
  6
CONTINUOUS
 62
    7
 10
-810.17333950000011
 20
1061.4739070000001
 11
-810.21356250000019
 21
1061.572815
  0
LINE
  8
_0-0_0
  6
CONTINUOUS
 62
    7
 10
-810.21356250000019
 20
1061.572815
 11
-810.24725350000006
 21
1061.6705930000001
  0
LINE
  8
_0-0_0
  6
CONTINUOUS
 62
    7
 10
-810.24725350000006
 20
1061.6705930000001
 11
-810.27453650000007
 21
1061.7673949999999
  0
LINE
  8
_0-0_0
  6
CONTINUOUS
 62
    7
 10
-810.27453650000007
 20
1061.7673949999999
 11
-810.29559350000011
 21
1061.8634339999999
  0
LINE
  8
_0-0_0
  6
CONTINUOUS
 62
    7
 10
-810.29559350000011
 20
1061.8634339999999
 11
-810.31152350000013
 21
1061.9672850000002
  0
LINE
  8
_0-0_0
  6
CONTINUOUS
 62
    7
 10
-810.31152350000013
 20
1061.9672850000002
 11
-810.32025150000027
 21
1062.0707090000001
  0
LINE
  8
_0-0_0
  6
CONTINUOUS
 62
    7
 10
-810.32025150000027
 20
1062.0707090000001
 11
-810.3218995000002
 21
1062.1739499999999
  0
LINE
  8
_0-0_0
  6
CONTINUOUS
 62
    7
 10
-810.3218995000002
 20
1062.1739499999999
 11
-810.31640650000008
 21
1062.2772520000001
  0
LINE
  8
_0-0_0
  6
CONTINUOUS
 62
    7
 10
-810.31640650000008
 20
1062.2772520000001
 11
-810.30383350000011
 21
1062.3808289999999
  0
LINE
  8
_0-0_0
  6
CONTINUOUS
 62
    7
 10
-810.30383350000011
 20
1062.3808289999999
 11
-810.2839965000004
 21
1062.4849850000001
  0
LINE
  8
_0-0_0
  6
CONTINUOUS
 62
    7
 10
-810.2839965000004
 20
1062.4849850000001
 11
-810.25683650000008
 21
1062.589935
  0
LINE
  8
_0-0_0
  6
CONTINUOUS
 62
    7
 10
-810.25683650000008
 20
1062.589935
 11
-810.22222950000014
 21
1062.695984
  0
LINE
  8
_0-0_0
  6
CONTINUOUS
 62
    7
 10
-810.22222950000014
 20
1062.695984
 11
-810.17987049999999
 21
1062.803345
  0
LINE
  8
_0-0_0
  6
CONTINUOUS
 62
    7
 10
-810.17987049999999
 20
1062.803345
 11
-810.12951650000025
 21
1062.9123540000001
  0
LINE
  8
_0-0_0
  6
CONTINUOUS
 62
    7
 10
-810.12951650000025
 20
1062.9123540000001
 11
-810.08386250000024
 21
1063
  0
LINE
  8
_0-0_0
  6
CONTINUOUS
 62
    7
 10
-815.07214350000004
 20
1066.4754330000001
 11
-815.32214350000015
 21
1066.5
  0
LINE
  8
_0-0_0
  6
CONTINUOUS
 62
    7
 10
-815.07214350000004
 20
1066.2714539999999
 11
-815.32214350000015
 21
1066.5
  0
LINE
  8
_0-0_0
  6
CONTINUOUS
 62
    7
 10
-815.07214350000004
 20
1066.6659549999999
 11
-815.32214350000015
 21
1066.719452
  0
LINE
  8
_0-0_0
  6
CONTINUOUS
 62
    7
 10
-815.07214350000004
 20
1066.4754330000001
 11
-815.32214350000015
 21
1066.719452
  0
LINE
  8
_0-0_0
  6
CONTINUOUS
 62
    7
 10
-815.07214350000004
 20
1066.8409729999998
 11
-815.32214350000015
 21
1066.9228210000001
  0
LINE
  8
_0-0_0
  6
CONTINUOUS
 62
    7
 10
-815.07214350000004
 20
1066.6659549999999
 11
-815.32214350000015
 21
1066.9228210000001
  0
LINE
  8
_0-0_0
  6
CONTINUOUS
 62
    7
 10
-815.07214350000004
 20
1066.998566
 11
-815.32214350000015
 21
1067.107849
  0
LINE
  8
_0-0_0
  6
CONTINUOUS
 62
    7
 10
-815.07214350000004
 20
1066.8409729999998
 11
-815.32214350000015
 21
1067.107849
  0
LINE
  8
_0-0_0
  6
CONTINUOUS
 62
    7
 10
-815.07214350000004
 20
1067.1369930000001
 11
-815.32214350000015
 21
1067.272522
  0
LINE
  8
_0-0_0
  6
CONTINUOUS
 62
    7
 10
-815.07214350000004
 20
1066.998566
 11
-815.32214350000015
 21
1067.272522
  0
LINE
  8
_0-0_0
  6
CONTINUOUS
 62
    7
 10
-815.07214350000004
 20
1067.2547609999999
 11
-815.32214350000015
 21
1067.415039
  0
LINE
  8
_0-0_0
  6
CONTINUOUS
 62
    7
 10
-815.07214350000004
 20
1067.1369930000001
 11
-815.32214350000015
 21
1067.415039
  0
LINE
  8
_0-0_0
  6
CONTINUOUS
 62
    7
 10
-815.07214350000004
 20
1067.3505249999998
 11
-815.32214350000015
 21
1067.533844
  0
LINE
  8
_0-0_0
  6
CONTINUOUS
 62
    7
 10
-815.07214350000004
 20
1067.2547609999999
 11
-815.32214350000015
 21
1067.533844
  0
LINE
  8
_0-0_0
  6
CONTINUOUS
 62
    7
 10
-815.07214350000004
 20
1067.423309
 11
-815.32214350000015
 21
1067.6276250000001
  0
LINE
  8
_0-0_0
  6
CONTINUOUS
 62
    7
 10
-815.07214350000004
 20
1067.3505249999998
 11
-815.32214350000015
 21
1067.6276250000001
  0
LINE
  8
_0-0_0
  6
CONTINUOUS
 62
    7
 10
-815.07214350000004
 20
1067.4722899999999
 11
-815.32214350000015
 21
1067.6953429999999
  0
LINE
  8
_0-0_0
  6
CONTINUOUS
 62
    7
 10
-815.07214350000004
 20
1067.423309
 11
-815.32214350000015
 21
1067.6953429999999
  0
LINE
  8
_0-0_0
  6
CONTINUOUS
 62
    7
 10
-815.07214350000004
 20
1067.496887
 11
-815.32214350000015
 21
1067.736298
  0
LINE
  8
_0-0_0
  6
CONTINUOUS
 62
    7
 10
-815.07214350000004
 20
1067.4722899999999
 11
-815.32214350000015
 21
1067.736298
  0
LINE
  8
_0-0_0
  6
CONTINUOUS
 62
    7
 10
-815.07214350000004
 20
1067.496887
 11
-815.32214350000015
 21
1067.75
  0
LINE
  8
_0-0_0
  6
CONTINUOUS
 62
    7
 10
-815.07214350000004
 20
1063.003052
 11
-815.32214350000015
 21
1062.75
  0
LINE
  8
_0-0_0
  6
CONTINUOUS
 62
    7
 10
-815.07214350000004
 20
1063.027679
 11
-815.32214350000015
 21
1062.763672
  0
LINE
  8
_0-0_0
  6
CONTINUOUS
 62
    7
 10
-815.07214350000004
 20
1063.003052
 11
-815.32214350000015
 21
1062.763672
  0
LINE
  8
_0-0_0
  6
CONTINUOUS
 62
    7
 10
-815.07214350000004
 20
1063.0766599999999
 11
-815.32214350000015
 21
1062.8046260000001
  0
LINE
  8
_0-0_0
  6
CONTINUOUS
 62
    7
 10
-815.07214350000004
 20
1063.027679
 11
-815.32214350000015
 21
1062.8046260000001
  0
LINE
  8
_0-0_0
  6
CONTINUOUS
 62
    7
 10
-815.07214350000004
 20
1063.149414
 11
-815.32214350000015
 21
1062.872345
  0
LINE
  8
_0-0_0
  6
CONTINUOUS
 62
    7
 10
-815.07214350000004
 20
1063.0766599999999
 11
-815.32214350000015
 21
1062.872345
  0
LINE
  8
_0-0_0
  6
CONTINUOUS
 62
    7
 10
-815.07214350000004
 20
1063.2452090000002
 11
-815.32214350000015
 21
1062.9661249999999
  0
LINE
  8
_0-0_0
  6
CONTINUOUS
 62
    7
 10
-815.07214350000004
 20
1063.149414
 11
-815.32214350000015
 21
1062.9661249999999
  0
LINE
  8
_0-0_0
  6
CONTINUOUS
 62
    7
 10
-815.07214350000004
 20
1063.2452090000002
 11
-815.20214849999991
 21
1063.1613770000001
  0
LINE
  8
_0-0_0
  6
CONTINUOUS
 62
    7
 10
-815.07214350000004
 20
1063.3629759999999
 11
-815.32214350000015
 21
1063.08493
  0
LINE
  8
_0-0_0
  6
CONTINUOUS
 62
    7
 10
-815.20214849999991
 20
1063.1613770000001
 11
-815.32214350000015
 21
1063.08493
  0
LINE
  8
_0-0_0
  6
CONTINUOUS
 62
    7
 10
-815.07214350000004
 20
1063.5014040000001
 11
-815.32214350000015
 21
1063.2274480000001
  0
LINE
  8
_0-0_0
  6
CONTINUOUS
 62
    7
 10
-815.07214350000004
 20
1063.3629759999999
 11
-815.32214350000015
 21
1063.2274480000001
  0
LINE
  8
_0-0_0
  6
CONTINUOUS
 62
    7
 10
-815.07214350000004
 20
1063.658997
 11
-815.32214350000015
 21
1063.39212
  0
LINE
  8
_0-0_0
  6
CONTINUOUS
 62
    7
 10
-815.07214350000004
 20
1063.5014040000001
 11
-815.32214350000015
 21
1063.39212
  0
LINE
  8
_0-0_0
  6
CONTINUOUS
 62
    7
 10
-815.07214350000004
 20
1063.8340149999999
 11
-815.32214350000015
 21
1063.5771479999999
  0
LINE
  8
_0-0_0
  6
CONTINUOUS
 62
    7
 10
-815.07214350000004
 20
1063.658997
 11
-815.32214350000015
 21
1063.5771479999999
  0
LINE
  8
_0-0_0
  6
CONTINUOUS
 62
    7
 10
-815.07214350000004
 20
1064.0245359999999
 11
-815.32214350000015
 21
1063.780518
  0
LINE
  8
_0-0_0
  6
CONTINUOUS
 62
    7
 10
-815.07214350000004
 20
1063.8340149999999
 11
-815.32214350000015
 21
1063.780518
  0
LINE
  8
_0-0_0
  6
CONTINUOUS
 62
    7
 10
-815.07214350000004
 20
1064.2285160000001
 11
-815.32214350000015
 21
1064
  0
LINE
  8
_0-0_0
  6
CONTINUOUS
 62
    7
 10
-815.07214350000004
 20
1064.0245359999999
 11
-815.32214350000015
 21
1064
  0
LINE
  8
_0-0_0
  6
CONTINUOUS
 62
    7
 10
-815.07214350000004
 20
1064.443665
 11
-815.32214350000015
 21
1064.233154
  0
LINE
  8
_0-0_0
  6
CONTINUOUS
 62
    7
 10
-815.07214350000004
 20
1064.2285160000001
 11
-815.32214350000015
 21
1064.233154
  0
LINE
  8
_0-0_0
  6
CONTINUOUS
 62
    7
 10
-815.07214350000004
 20
1064.667633
 11
-815.32214350000015
 21
1064.4774479999999
  0
LINE
  8
_0-0_0
  6
CONTINUOUS
 62
    7
 10
-815.07214350000004
 20
1064.443665
 11
-815.32214350000015
 21
1064.4774479999999
  0
LINE
  8
_0-0_0
  6
CONTINUOUS
 62
    7
 10
-815.07214350000004
 20
1064.8980099999999
 11
-815.32214350000015
 21
1064.730194
  0
LINE
  8
_0-0_0
  6
CONTINUOUS
 62
    7
 10
-815.07214350000004
 20
1064.667633
 11
-815.32214350000015
 21
1064.730194
  0
LINE
  8
_0-0_0
  6
CONTINUOUS
 62
    7
 10
-815.07214350000004
 20
1065.132233
 11
-815.32214350000015
 21
1064.9886470000001
  0
LINE
  8
_0-0_0
  6
CONTINUOUS
 62
    7
 10
-815.07214350000004
 20
1064.8980099999999
 11
-815.32214350000015
 21
1064.9886470000001
  0
LINE
  8
_0-0_0
  6
CONTINUOUS
 62
    7
 10
-815.07214350000004
 20
1065.367737
 11
-815.32214350000015
 21
1065.25
  0
LINE
  8
_0-0_0
  6
CONTINUOUS
 62
    7
 10
-815.07214350000004
 20
1065.132233
 11
-815.32214350000015
 21
1065.25
  0
LINE
  8
_0-0_0
  6
CONTINUOUS
 62
    7
 10
-815.07214350000004
 20
1065.6019590000001
 11
-815.32214350000015
 21
1065.5112920000001
  0
LINE
  8
_0-0_0
  6
CONTINUOUS
 62
    7
 10
-815.07214350000004
 20
1065.367737
 11
-815.32214350000015
 21
1065.5112920000001
  0
LINE
  8
_0-0_0
  6
CONTINUOUS
 62
    7
 10
-815.07214350000004
 20
1065.8323359999999
 11
-815.32214350000015
 21
1065.769775
  0
LINE
  8
_0-0_0
  6
CONTINUOUS
 62
    7
 10
-815.07214350000004
 20
1065.6019590000001
 11
-815.32214350000015
 21
1065.769775
  0
LINE
  8
_0-0_0
  6
CONTINUOUS
 62
    7
 10
-815.07214350000004
 20
1066.0563050000001
 11
-815.32214350000015
 21
1066.022522
  0
LINE
  8
_0-0_0
  6
CONTINUOUS
 62
    7
 10
-815.07214350000004
 20
1065.8323359999999
 11
-815.32214350000015
 21
1066.022522
  0
LINE
  8
_0-0_0
  6
CONTINUOUS
 62
    7
 10
-815.07214350000004
 20
1066.2714539999999
 11
-815.32214350000015
 21
1066.266815
  0
LINE
  8
_0-0_0
  6
CONTINUOUS
 62
    7
 10
-815.07214350000004
 20
1066.0563050000001
 11
-815.32214350000015
 21
1066.266815
  0
LINE
  8
_0-0_0
  6
CONTINUOUS
 62
    7
 10
-800.07214350000004
 20
1058.5120239999999
 11
-800.07214350000004
 21
1059.5576780000001
  0
LINE
  8
_0-0_0
  6
CONTINUOUS
 62
    7
 10
-800.07214350000004
 20
1060.8422850000002
 11
-800.07214350000004
 21
1059.5576780000001
  0
LINE
  8
_0-0_0
  6
CONTINUOUS
 62
    7
 10
-800.07214350000004
 20
1058.5120239999999
 11
-800.07214350000004
 21
1055.387939
  0
LINE
  8
_0-0_0
  6
CONTINUOUS
 62
    7
 10
-800.07214350000004
 20
1054.3422849999999
 11
-800.07214350000004
 21
1053.0576780000001
  0
LINE
  8
_0-0_0
  6
CONTINUOUS
 62
    7
 10
-800.07214350000004
 20
1054.3422849999999
 11
-800.07214350000004
 21
1055.387939
  0
LINE
  8
_0-0_0
  6
CONTINUOUS
 62
    7
 10
-685.47216849999984
 20
1047.6911319999999
 11
-685.47216849999984
 21
1050.6499939999999
  0
LINE
  8
_0-0_0
  6
CONTINUOUS
 62
    7
 10
-685.47216849999984
 20
1046.6499939999999
 11
-685.47216849999984
 21
1047.6911319999999
  0
LINE
  8
_0-0_0
  6
CONTINUOUS
 62
    7
 10
-800.07214350000004
 20
1054.3422849999999
 11
-809.77996850000011
 21
1054.3422849999999
  0
ARC
  8
_0-0_0
  6
CONTINUOUS
 62
    7
 10
-804.89825450000001
 20
1053.6990969999999
 40
4.9238749999999998
 50
172.49424200000001
 51
181.535968
  0
ARC
  8
_0-0_0
  6
CONTINUOUS
 62
    7
 10
-804.86022950000017
 20
1053.704041
 40
4.9620009999999999
 50
181.58130700000004
 51
187.48478900000003
  0
LINE
  8
_0-0_0
  6
CONTINUOUS
 62
    7
 10
-811.07214349999992
 20
1054.218445
 11
-811.07214349999992
 21
1051.6999820000001
  0
LINE
  8
_0-0_0
  6
CONTINUOUS
 62
    7
 10
-811.07214349999992
 20
1062.1999820000001
 11
-811.07214349999992
 21
1054.218445
  0
LINE
  8
_0-0_0
  6
CONTINUOUS
 62
    7
 10
-809.77996850000011
 20
1059.5576780000001
 11
-809.87432849999993
 21
1059.311066
  0
LINE
  8
_0-0_0
  6
CONTINUOUS
 62
    7
 10
-809.87432849999993
 20
1059.311066
 11
-809.95825250000019
 21
1059.0711060000001
  0
LINE
  8
_0-0_0
  6
CONTINUOUS
 62
    7
 10
-809.95825250000019
 20
1059.0711060000001
 11
-810.0324095000002
 21
1058.8369749999999
  0
LINE
  8
_0-0_0
  6
CONTINUOUS
 62
    7
 10
-810.0324095000002
 20
1058.8369749999999
 11
-810.09729049999976
 21
1058.607941
  0
LINE
  8
_0-0_0
  6
CONTINUOUS
 62
    7
 10
-810.09729049999976
 20
1058.607941
 11
-810.15332050000018
 21
1058.38327
  0
LINE
  8
_0-0_0
  6
CONTINUOUS
 62
    7
 10
-810.15332050000018
 20
1058.38327
 11
-810.20092750000003
 21
1058.162292
  0
LINE
  8
_0-0_0
  6
CONTINUOUS
 62
    7
 10
-810.20092750000003
 20
1058.162292
 11
-810.24029549999989
 21
1057.9443659999999
  0
LINE
  8
_0-0_0
  6
CONTINUOUS
 62
    7
 10
-810.24029549999989
 20
1057.9443659999999
 11
-810.27178950000018
 21
1057.728912
  0
LINE
  8
_0-0_0
  6
CONTINUOUS
 62
    7
 10
-810.27178950000018
 20
1057.728912
 11
-810.29559350000011
 21
1057.5153810000002
  0
LINE
  8
_0-0_0
  6
CONTINUOUS
 62
    7
 10
-810.29559350000011
 20
1057.5153810000002
 11
-810.31152350000013
 21
1057.3076780000001
  0
LINE
  8
_0-0_0
  6
CONTINUOUS
 62
    7
 10
-810.31152350000013
 20
1057.3076780000001
 11
-810.32025150000027
 21
1057.1008299999999
  0
LINE
  8
_0-0_0
  6
CONTINUOUS
 62
    7
 10
-810.32025150000027
 20
1057.1008299999999
 11
-810.3218995000002
 21
1056.894348
  0
LINE
  8
_0-0_0
  6
CONTINUOUS
 62
    7
 10
-810.3218995000002
 20
1056.894348
 11
-810.31640650000008
 21
1056.6877750000001
  0
LINE
  8
_0-0_0
  6
CONTINUOUS
 62
    7
 10
-810.31640650000008
 20
1056.6877750000001
 11
-810.30383350000011
 21
1056.480591
  0
LINE
  8
_0-0_0
  6
CONTINUOUS
 62
    7
 10
-810.30383350000011
 20
1056.480591
 11
-810.2839965000004
 21
1056.2722779999999
  0
LINE
  8
_0-0_0
  6
CONTINUOUS
 62
    7
 10
-810.2839965000004
 20
1056.2722779999999
 11
-810.25683650000008
 21
1056.0623780000001
  0
LINE
  8
_0-0_0
  6
CONTINUOUS
 62
    7
 10
-810.25683650000008
 20
1056.0623780000001
 11
-810.22222950000014
 21
1055.8503110000001
  0
LINE
  8
_0-0_0
  6
CONTINUOUS
 62
    7
 10
-810.22222950000014
 20
1055.8503110000001
 11
-810.17987049999999
 21
1055.6355589999998
  0
LINE
  8
_0-0_0
  6
CONTINUOUS
 62
    7
 10
-810.17987049999999
 20
1055.6355589999998
 11
-810.12951650000025
 21
1055.4175420000001
  0
LINE
  8
_0-0_0
  6
CONTINUOUS
 62
    7
 10
-810.12951650000025
 20
1055.4175420000001
 11
-810.07531749999998
 21
1055.211243
  0
LINE
  8
_0-0_0
  6
CONTINUOUS
 62
    7
 10
-810.07531749999998
 20
1055.211243
 11
-810.01361050000025
 21
1055.00116
  0
LINE
  8
_0-0_0
  6
CONTINUOUS
 62
    7
 10
-810.01361050000025
 20
1055.00116
 11
-809.94409150000013
 21
1054.7866819999999
  0
LINE
  8
_0-0_0
  6
CONTINUOUS
 62
    7
 10
-809.94409150000013
 20
1054.7866819999999
 11
-809.8663335
 21
1054.5672610000001
  0
LINE
  8
_0-0_0
  6
CONTINUOUS
 62
    7
 10
-809.8663335
 20
1054.5672610000001
 11
-809.77996850000011
 21
1054.3422849999999
  0
ARC
  8
_0-0_0
  6
CONTINUOUS
 62
    7
 10
-804.90844749999985
 20
1060.1999820000001
 40
4.9136889999999998
 50
172.48898299999999
 51
187.51101699999998
  0
LINE
  8
_0-0_0
  6
CONTINUOUS
 62
    7
 10
-800.07214350000004
 20
1059.5576780000001
 11
-809.77996850000011
 21
1059.5576780000001
  0
LINE
  8
_0-0_0
  6
CONTINUOUS
 62
    7
 10
-824.82214350000004
 20
1066.4754330000001
 11
-824.57214349999992
 21
1066.5
  0
LINE
  8
_0-0_0
  6
CONTINUOUS
 62
    7
 10
-824.57214349999992
 20
1066.5
 11
-815.32214350000015
 21
1066.5
  0
LINE
  8
_0-0_0
  6
CONTINUOUS
 62
    7
 10
-824.82214350000004
 20
1066.2714539999999
 11
-824.57214349999992
 21
1066.5
  0
LINE
  8
_0-0_0
  6
CONTINUOUS
 62
    7
 10
-824.82214350000004
 20
1066.2714539999999
 11
-815.07214350000004
 21
1066.2714539999999
  0
LINE
  8
_0-0_0
  6
CONTINUOUS
 62
    7
 10
-824.82214350000004
 20
1066.6659549999999
 11
-824.57214349999992
 21
1066.719452
  0
LINE
  8
_0-0_0
  6
CONTINUOUS
 62
    7
 10
-824.57214349999992
 20
1066.719452
 11
-815.32214350000015
 21
1066.719452
  0
LINE
  8
_0-0_0
  6
CONTINUOUS
 62
    7
 10
-824.82214350000004
 20
1066.4754330000001
 11
-824.57214349999992
 21
1066.719452
  0
LINE
  8
_0-0_0
  6
CONTINUOUS
 62
    7
 10
-824.82214350000004
 20
1066.8409729999998
 11
-824.57214349999992
 21
1066.9228210000001
  0
LINE
  8
_0-0_0
  6
CONTINUOUS
 62
    7
 10
-824.57214349999992
 20
1066.9228210000001
 11
-815.32214350000015
 21
1066.9228210000001
  0
LINE
  8
_0-0_0
  6
CONTINUOUS
 62
    7
 10
-824.82214350000004
 20
1066.6659549999999
 11
-824.57214349999992
 21
1066.9228210000001
  0
LINE
  8
_0-0_0
  6
CONTINUOUS
 62
    7
 10
-824.82214350000004
 20
1066.998566
 11
-824.57214349999992
 21
1067.107849
  0
LINE
  8
_0-0_0
  6
CONTINUOUS
 62
    7
 10
-824.57214349999992
 20
1067.107849
 11
-815.32214350000015
 21
1067.107849
  0
LINE
  8
_0-0_0
  6
CONTINUOUS
 62
    7
 10
-824.82214350000004
 20
1066.8409729999998
 11
-824.57214349999992
 21
1067.107849
  0
LINE
  8
_0-0_0
  6
CONTINUOUS
 62
    7
 10
-824.82214350000004
 20
1067.1369930000001
 11
-824.57214349999992
 21
1067.272522
  0
LINE
  8
_0-0_0
  6
CONTINUOUS
 62
    7
 10
-824.57214349999992
 20
1067.272522
 11
-815.32214350000015
 21
1067.272522
  0
LINE
  8
_0-0_0
  6
CONTINUOUS
 62
    7
 10
-824.82214350000004
 20
1066.998566
 11
-824.57214349999992
 21
1067.272522
  0
LINE
  8
_0-0_0
  6
CONTINUOUS
 62
    7
 10
-824.82214350000004
 20
1067.2547609999999
 11
-824.57214349999992
 21
1067.415039
  0
LINE
  8
_0-0_0
  6
CONTINUOUS
 62
    7
 10
-824.57214349999992
 20
1067.415039
 11
-815.32214350000015
 21
1067.415039
  0
LINE
  8
_0-0_0
  6
CONTINUOUS
 62
    7
 10
-824.82214350000004
 20
1067.1369930000001
 11
-824.57214349999992
 21
1067.415039
  0
LINE
  8
_0-0_0
  6
CONTINUOUS
 62
    7
 10
-824.82214350000004
 20
1067.3505249999998
 11
-824.57214349999992
 21
1067.533844
  0
LINE
  8
_0-0_0
  6
CONTINUOUS
 62
    7
 10
-824.57214349999992
 20
1067.533844
 11
-815.32214350000015
 21
1067.533844
  0
LINE
  8
_0-0_0
  6
CONTINUOUS
 62
    7
 10
-824.82214350000004
 20
1067.2547609999999
 11
-824.57214349999992
 21
1067.533844
  0
LINE
  8
_0-0_0
  6
CONTINUOUS
 62
    7
 10
-824.82214350000004
 20
1067.423309
 11
-824.57214349999992
 21
1067.6276250000001
  0
LINE
  8
_0-0_0
  6
CONTINUOUS
 62
    7
 10
-824.57214349999992
 20
1067.6276250000001
 11
-815.32214350000015
 21
1067.6276250000001
  0
LINE
  8
_0-0_0
  6
CONTINUOUS
 62
    7
 10
-824.82214350000004
 20
1067.3505249999998
 11
-824.57214349999992
 21
1067.6276250000001
  0
LINE
  8
_0-0_0
  6
CONTINUOUS
 62
    7
 10
-824.82214350000004
 20
1067.4722899999999
 11
-824.57214349999992
 21
1067.6953429999999
  0
LINE
  8
_0-0_0
  6
CONTINUOUS
 62
    7
 10
-824.57214349999992
 20
1067.6953429999999
 11
-815.32214350000015
 21
1067.6953429999999
  0
LINE
  8
_0-0_0
  6
CONTINUOUS
 62
    7
 10
-824.82214350000004
 20
1067.423309
 11
-824.57214349999992
 21
1067.6953429999999
  0
LINE
  8
_0-0_0
  6
CONTINUOUS
 62
    7
 10
-824.82214350000004
 20
1067.496887
 11
-824.57214349999992
 21
1067.736298
  0
LINE
  8
_0-0_0
  6
CONTINUOUS
 62
    7
 10
-824.57214349999992
 20
1067.736298
 11
-815.32214350000015
 21
1067.736298
  0
LINE
  8
_0-0_0
  6
CONTINUOUS
 62
    7
 10
-824.82214350000004
 20
1067.4722899999999
 11
-824.57214349999992
 21
1067.736298
  0
LINE
  8
_0-0_0
  6
CONTINUOUS
 62
    7
 10
-824.57214349999992
 20
1067.75
 11
-815.32214350000015
 21
1067.75
  0
LINE
  8
_0-0_0
  6
CONTINUOUS
 62
    7
 10
-824.82214350000004
 20
1067.496887
 11
-824.57214349999992
 21
1067.75
  0
LINE
  8
_0-0_0
  6
CONTINUOUS
 62
    7
 10
-824.82214350000004
 20
1063.003052
 11
-824.57214349999992
 21
1062.75
  0
LINE
  8
_0-0_0
  6
CONTINUOUS
 62
    7
 10
-824.57214349999992
 20
1062.75
 11
-815.32214350000015
 21
1062.75
  0
LINE
  8
_0-0_0
  6
CONTINUOUS
 62
    7
 10
-824.82214350000004
 20
1063.027679
 11
-824.57214349999992
 21
1062.763672
  0
LINE
  8
_0-0_0
  6
CONTINUOUS
 62
    7
 10
-824.57214349999992
 20
1062.763672
 11
-815.32214350000015
 21
1062.763672
  0
LINE
  8
_0-0_0
  6
CONTINUOUS
 62
    7
 10
-824.82214350000004
 20
1063.003052
 11
-824.57214349999992
 21
1062.763672
  0
LINE
  8
_0-0_0
  6
CONTINUOUS
 62
    7
 10
-824.82214350000004
 20
1063.0766599999999
 11
-824.57214349999992
 21
1062.8046260000001
  0
LINE
  8
_0-0_0
  6
CONTINUOUS
 62
    7
 10
-824.57214349999992
 20
1062.8046260000001
 11
-815.32214350000015
 21
1062.8046260000001
  0
LINE
  8
_0-0_0
  6
CONTINUOUS
 62
    7
 10
-824.82214350000004
 20
1063.027679
 11
-824.57214349999992
 21
1062.8046260000001
  0
LINE
  8
_0-0_0
  6
CONTINUOUS
 62
    7
 10
-824.82214350000004
 20
1063.149414
 11
-824.57214349999992
 21
1062.872345
  0
LINE
  8
_0-0_0
  6
CONTINUOUS
 62
    7
 10
-824.57214349999992
 20
1062.872345
 11
-815.32214350000015
 21
1062.872345
  0
LINE
  8
_0-0_0
  6
CONTINUOUS
 62
    7
 10
-824.82214350000004
 20
1063.0766599999999
 11
-824.57214349999992
 21
1062.872345
  0
LINE
  8
_0-0_0
  6
CONTINUOUS
 62
    7
 10
-824.82214350000004
 20
1063.2452090000002
 11
-824.57214349999992
 21
1062.9661249999999
  0
LINE
  8
_0-0_0
  6
CONTINUOUS
 62
    7
 10
-824.57214349999992
 20
1062.9661249999999
 11
-815.32214350000015
 21
1062.9661249999999
  0
LINE
  8
_0-0_0
  6
CONTINUOUS
 62
    7
 10
-824.82214350000004
 20
1063.149414
 11
-824.57214349999992
 21
1062.9661249999999
  0
LINE
  8
_0-0_0
  6
CONTINUOUS
 62
    7
 10
-824.57214349999992
 20
1063.08493
 11
-815.32214350000015
 21
1063.08493
  0
LINE
  8
_0-0_0
  6
CONTINUOUS
 62
    7
 10
-824.69219950000036
 20
1063.1613770000001
 11
-824.57214349999992
 21
1063.08493
  0
LINE
  8
_0-0_0
  6
CONTINUOUS
 62
    7
 10
-824.82214350000004
 20
1063.2452090000002
 11
-824.69219950000036
 21
1063.1613770000001
  0
LINE
  8
_0-0_0
  6
CONTINUOUS
 62
    7
 10
-824.82214350000004
 20
1063.3629759999999
 11
-824.57214349999992
 21
1063.08493
  0
LINE
  8
_0-0_0
  6
CONTINUOUS
 62
    7
 10
-824.82214350000004
 20
1063.5014040000001
 11
-824.57214349999992
 21
1063.2274480000001
  0
LINE
  8
_0-0_0
  6
CONTINUOUS
 62
    7
 10
-824.57214349999992
 20
1063.2274480000001
 11
-815.32214350000015
 21
1063.2274480000001
  0
LINE
  8
_0-0_0
  6
CONTINUOUS
 62
    7
 10
-824.82214350000004
 20
1063.3629759999999
 11
-824.57214349999992
 21
1063.2274480000001
  0
LINE
  8
_0-0_0
  6
CONTINUOUS
 62
    7
 10
-824.82214350000004
 20
1063.658997
 11
-824.57214349999992
 21
1063.39212
  0
LINE
  8
_0-0_0
  6
CONTINUOUS
 62
    7
 10
-824.57214349999992
 20
1063.39212
 11
-815.32214350000015
 21
1063.39212
  0
LINE
  8
_0-0_0
  6
CONTINUOUS
 62
    7
 10
-824.82214350000004
 20
1063.5014040000001
 11
-824.57214349999992
 21
1063.39212
  0
LINE
  8
_0-0_0
  6
CONTINUOUS
 62
    7
 10
-824.82214350000004
 20
1063.8340149999999
 11
-824.57214349999992
 21
1063.5771479999999
  0
LINE
  8
_0-0_0
  6
CONTINUOUS
 62
    7
 10
-824.57214349999992
 20
1063.5771479999999
 11
-815.32214350000015
 21
1063.5771479999999
  0
LINE
  8
_0-0_0
  6
CONTINUOUS
 62
    7
 10
-824.82214350000004
 20
1063.658997
 11
-824.57214349999992
 21
1063.5771479999999
  0
LINE
  8
_0-0_0
  6
CONTINUOUS
 62
    7
 10
-824.82214350000004
 20
1064.0245359999999
 11
-824.57214349999992
 21
1063.780518
  0
LINE
  8
_0-0_0
  6
CONTINUOUS
 62
    7
 10
-824.57214349999992
 20
1063.780518
 11
-815.32214350000015
 21
1063.780518
  0
LINE
  8
_0-0_0
  6
CONTINUOUS
 62
    7
 10
-824.82214350000004
 20
1063.8340149999999
 11
-824.57214349999992
 21
1063.780518
  0
LINE
  8
_0-0_0
  6
CONTINUOUS
 62
    7
 10
-824.82214350000004
 20
1064.2285160000001
 11
-824.57214349999992
 21
1064
  0
LINE
  8
_0-0_0
  6
CONTINUOUS
 62
    7
 10
-824.57214349999992
 20
1064
 11
-815.32214350000015
 21
1064
  0
LINE
  8
_0-0_0
  6
CONTINUOUS
 62
    7
 10
-824.82214350000004
 20
1064.2285160000001
 11
-815.07214350000004
 21
1064.2285160000001
  0
LINE
  8
_0-0_0
  6
CONTINUOUS
 62
    7
 10
-824.82214350000004
 20
1064.0245359999999
 11
-824.57214349999992
 21
1064
  0
LINE
  8
_0-0_0
  6
CONTINUOUS
 62
    7
 10
-824.82214350000004
 20
1064.443665
 11
-824.57214349999992
 21
1064.233154
  0
LINE
  8
_0-0_0
  6
CONTINUOUS
 62
    7
 10
-824.57214349999992
 20
1064.233154
 11
-815.32214350000015
 21
1064.233154
  0
LINE
  8
_0-0_0
  6
CONTINUOUS
 62
    7
 10
-824.82214350000004
 20
1064.443665
 11
-815.07214350000004
 21
1064.443665
  0
LINE
  8
_0-0_0
  6
CONTINUOUS
 62
    7
 10
-824.82214350000004
 20
1064.2285160000001
 11
-824.57214349999992
 21
1064.233154
  0
LINE
  8
_0-0_0
  6
CONTINUOUS
 62
    7
 10
-824.82214350000004
 20
1064.667633
 11
-824.57214349999992
 21
1064.4774479999999
  0
LINE
  8
_0-0_0
  6
CONTINUOUS
 62
    7
 10
-824.57214349999992
 20
1064.4774479999999
 11
-815.32214350000015
 21
1064.4774479999999
  0
LINE
  8
_0-0_0
  6
CONTINUOUS
 62
    7
 10
-824.82214350000004
 20
1064.667633
 11
-815.07214350000004
 21
1064.667633
  0
LINE
  8
_0-0_0
  6
CONTINUOUS
 62
    7
 10
-824.82214350000004
 20
1064.443665
 11
-824.57214349999992
 21
1064.4774479999999
  0
LINE
  8
_0-0_0
  6
CONTINUOUS
 62
    7
 10
-824.82214350000004
 20
1064.8980099999999
 11
-824.57214349999992
 21
1064.730194
  0
LINE
  8
_0-0_0
  6
CONTINUOUS
 62
    7
 10
-824.57214349999992
 20
1064.730194
 11
-815.32214350000015
 21
1064.730194
  0
LINE
  8
_0-0_0
  6
CONTINUOUS
 62
    7
 10
-824.82214350000004
 20
1064.8980099999999
 11
-815.07214350000004
 21
1064.8980099999999
  0
LINE
  8
_0-0_0
  6
CONTINUOUS
 62
    7
 10
-824.82214350000004
 20
1064.667633
 11
-824.57214349999992
 21
1064.730194
  0
LINE
  8
_0-0_0
  6
CONTINUOUS
 62
    7
 10
-824.82214350000004
 20
1065.132233
 11
-824.57214349999992
 21
1064.9886470000001
  0
LINE
  8
_0-0_0
  6
CONTINUOUS
 62
    7
 10
-824.57214349999992
 20
1064.9886470000001
 11
-815.32214350000015
 21
1064.9886470000001
  0
LINE
  8
_0-0_0
  6
CONTINUOUS
 62
    7
 10
-824.82214350000004
 20
1065.132233
 11
-815.07214350000004
 21
1065.132233
  0
LINE
  8
_0-0_0
  6
CONTINUOUS
 62
    7
 10
-824.82214350000004
 20
1064.8980099999999
 11
-824.57214349999992
 21
1064.9886470000001
  0
LINE
  8
_0-0_0
  6
CONTINUOUS
 62
    7
 10
-824.82214350000004
 20
1065.367737
 11
-824.57214349999992
 21
1065.25
  0
LINE
  8
_0-0_0
  6
CONTINUOUS
 62
    7
 10
-824.57214349999992
 20
1065.25
 11
-815.32214350000015
 21
1065.25
  0
LINE
  8
_0-0_0
  6
CONTINUOUS
 62
    7
 10
-824.82214350000004
 20
1065.367737
 11
-815.07214350000004
 21
1065.367737
  0
LINE
  8
_0-0_0
  6
CONTINUOUS
 62
    7
 10
-824.82214350000004
 20
1065.132233
 11
-824.57214349999992
 21
1065.25
  0
LINE
  8
_0-0_0
  6
CONTINUOUS
 62
    7
 10
-824.82214350000004
 20
1065.6019590000001
 11
-824.57214349999992
 21
1065.5112920000001
  0
LINE
  8
_0-0_0
  6
CONTINUOUS
 62
    7
 10
-824.57214349999992
 20
1065.5112920000001
 11
-815.32214350000015
 21
1065.5112920000001
  0
LINE
  8
_0-0_0
  6
CONTINUOUS
 62
    7
 10
-824.82214350000004
 20
1065.6019590000001
 11
-815.07214350000004
 21
1065.6019590000001
  0
LINE
  8
_0-0_0
  6
CONTINUOUS
 62
    7
 10
-824.82214350000004
 20
1065.367737
 11
-824.57214349999992
 21
1065.5112920000001
  0
LINE
  8
_0-0_0
  6
CONTINUOUS
 62
    7
 10
-824.82214350000004
 20
1065.8323359999999
 11
-824.57214349999992
 21
1065.769775
  0
LINE
  8
_0-0_0
  6
CONTINUOUS
 62
    7
 10
-824.57214349999992
 20
1065.769775
 11
-815.32214350000015
 21
1065.769775
  0
LINE
  8
_0-0_0
  6
CONTINUOUS
 62
    7
 10
-824.82214350000004
 20
1065.8323359999999
 11
-815.07214350000004
 21
1065.8323359999999
  0
LINE
  8
_0-0_0
  6
CONTINUOUS
 62
    7
 10
-824.82214350000004
 20
1065.6019590000001
 11
-824.57214349999992
 21
1065.769775
  0
LINE
  8
_0-0_0
  6
CONTINUOUS
 62
    7
 10
-824.82214350000004
 20
1066.0563050000001
 11
-824.57214349999992
 21
1066.022522
  0
LINE
  8
_0-0_0
  6
CONTINUOUS
 62
    7
 10
-824.57214349999992
 20
1066.022522
 11
-815.32214350000015
 21
1066.022522
  0
LINE
  8
_0-0_0
  6
CONTINUOUS
 62
    7
 10
-824.82214350000004
 20
1066.0563050000001
 11
-815.07214350000004
 21
1066.0563050000001
  0
LINE
  8
_0-0_0
  6
CONTINUOUS
 62
    7
 10
-824.82214350000004
 20
1065.8323359999999
 11
-824.57214349999992
 21
1066.022522
  0
LINE
  8
_0-0_0
  6
CONTINUOUS
 62
    7
 10
-824.82214350000004
 20
1066.2714539999999
 11
-824.57214349999992
 21
1066.266815
  0
LINE
  8
_0-0_0
  6
CONTINUOUS
 62
    7
 10
-824.57214349999992
 20
1066.266815
 11
-815.32214350000015
 21
1066.266815
  0
LINE
  8
_0-0_0
  6
CONTINUOUS
 62
    7
 10
-824.82214350000004
 20
1066.0563050000001
 11
-824.57214349999992
 21
1066.266815
  0
LINE
  8
_0-0_0
  6
CONTINUOUS
 62
    7
 10
-825.07214350000015
 20
1067.25
 11
-825.07214350000015
 21
1063.4948119999999
  0
LINE
  8
_0-0_0
  6
CONTINUOUS
 62
    7
 10
-825.07214350000015
 20
1063.4948119999999
 11
-825.07214350000015
 21
1063.25
  0
LINE
  8
_0-0_0
  6
CONTINUOUS
 62
    7
 10
-811.47216849999984
 20
1061.9499819999999
 11
-811.47216849999984
 21
1059.4499820000001
  0
LINE
  8
_0-0_0
  6
CONTINUOUS
 62
    7
 10
-811.47216849999984
 20
1059.4499820000001
 11
-811.47216849999984
 21
1051.9499820000001
  0
LINE
  8
_0-0_0
  6
CONTINUOUS
 62
    7
 10
-812.27215549999983
 20
1061.488098
 11
-812.27215549999983
 21
1059.219055
  0
LINE
  8
_0-0_0
  6
CONTINUOUS
 62
    7
 10
-812.27215549999983
 20
1059.219055
 11
-812.27215549999983
 21
1052.411865
  0
LINE
  8
_0-0_0
  6
CONTINUOUS
 62
    7
 10
-870.27215549999994
 20
1060.9499820000001
 11
-870.27215549999994
 21
1060.948639
  0
LINE
  8
_0-0_0
  6
CONTINUOUS
 62
    7
 10
-870.27215549999994
 20
1060.948639
 11
-870.27215549999994
 21
1052.9499819999999
  0
LINE
  8
_0-0_0
  6
CONTINUOUS
 62
    7
 10
-815.07214350000004
 20
1046.4030760000001
 11
-815.07214350000004
 21
1046.3999940000001
  0
LINE
  8
_0-0_0
  6
CONTINUOUS
 62
    7
 10
-815.07214350000004
 20
1046.4277039999999
 11
-815.07214350000004
 21
1046.4030760000001
  0
LINE
  8
_0-0_0
  6
CONTINUOUS
 62
    7
 10
-815.07214350000004
 20
1046.4766540000001
 11
-815.07214350000004
 21
1046.4277039999999
  0
LINE
  8
_0-0_0
  6
CONTINUOUS
 62
    7
 10
-815.07214350000004
 20
1046.549438
 11
-815.07214350000004
 21
1046.4766540000001
  0
LINE
  8
_0-0_0
  6
CONTINUOUS
 62
    7
 10
-815.07214350000004
 20
1046.645203
 11
-815.07214350000004
 21
1046.549438
  0
LINE
  8
_0-0_0
  6
CONTINUOUS
 62
    7
 10
-815.07214350000004
 20
1046.6754149999999
 11
-815.07214350000004
 21
1046.645203
  0
LINE
  8
_0-0_0
  6
CONTINUOUS
 62
    7
 10
-815.07214350000004
 20
1046.76297
 11
-815.07214350000004
 21
1046.6754149999999
  0
LINE
  8
_0-0_0
  6
CONTINUOUS
 62
    7
 10
-815.07214350000004
 20
1046.901398
 11
-815.07214350000004
 21
1046.76297
  0
LINE
  8
_0-0_0
  6
CONTINUOUS
 62
    7
 10
-815.07214350000004
 20
1047.05899
 11
-815.07214350000004
 21
1046.901398
  0
LINE
  8
_0-0_0
  6
CONTINUOUS
 62
    7
 10
-815.07214350000004
 20
1047.234009
 11
-815.07214350000004
 21
1047.05899
  0
LINE
  8
_0-0_0
  6
CONTINUOUS
 62
    7
 10
-815.07214350000004
 20
1047.42453
 11
-815.07214350000004
 21
1047.234009
  0
LINE
  8
_0-0_0
  6
CONTINUOUS
 62
    7
 10
-815.07214350000004
 20
1047.62851
 11
-815.07214350000004
 21
1047.42453
  0
LINE
  8
_0-0_0
  6
CONTINUOUS
 62
    7
 10
-815.07214350000004
 20
1047.843658
 11
-815.07214350000004
 21
1047.62851
  0
LINE
  8
_0-0_0
  6
CONTINUOUS
 62
    7
 10
-815.07214350000004
 20
1048.0676270000001
 11
-815.07214350000004
 21
1047.843658
  0
LINE
  8
_0-0_0
  6
CONTINUOUS
 62
    7
 10
-815.07214350000004
 20
1048.298004
 11
-815.07214350000004
 21
1048.0676270000001
  0
LINE
  8
_0-0_0
  6
CONTINUOUS
 62
    7
 10
-815.07214350000004
 20
1048.5322269999999
 11
-815.07214350000004
 21
1048.298004
  0
LINE
  8
_0-0_0
  6
CONTINUOUS
 62
    7
 10
-815.07214350000004
 20
1048.7677309999999
 11
-815.07214350000004
 21
1048.5322269999999
  0
LINE
  8
_0-0_0
  6
CONTINUOUS
 62
    7
 10
-815.07214350000004
 20
1049.001953
 11
-815.07214350000004
 21
1048.7677309999999
  0
LINE
  8
_0-0_0
  6
CONTINUOUS
 62
    7
 10
-815.07214350000004
 20
1049.2323299999998
 11
-815.07214350000004
 21
1049.001953
  0
LINE
  8
_0-0_0
  6
CONTINUOUS
 62
    7
 10
-815.07214350000004
 20
1049.4562989999999
 11
-815.07214350000004
 21
1049.2323299999998
  0
LINE
  8
_0-0_0
  6
CONTINUOUS
 62
    7
 10
-815.07214350000004
 20
1049.6714480000001
 11
-815.07214350000004
 21
1049.4562989999999
  0
LINE
  8
_0-0_0
  6
CONTINUOUS
 62
    7
 10
-815.07214350000004
 20
1049.728699
 11
-815.07214350000004
 21
1049.6714480000001
  0
LINE
  8
_0-0_0
  6
CONTINUOUS
 62
    7
 10
-815.07214350000004
 20
1046.4030760000001
 11
-815.32214350000015
 21
1046.1499939999999
  0
LINE
  8
_0-0_0
  6
CONTINUOUS
 62
    7
 10
-815.07214350000004
 20
1046.4277039999999
 11
-815.32214350000015
 21
1046.1636960000001
  0
LINE
  8
_0-0_0
  6
CONTINUOUS
 62
    7
 10
-815.07214350000004
 20
1046.4030760000001
 11
-815.32214350000015
 21
1046.1636960000001
  0
LINE
  8
_0-0_0
  6
CONTINUOUS
 62
    7
 10
-815.07214350000004
 20
1046.4766540000001
 11
-815.32214350000015
 21
1046.20462
  0
LINE
  8
_0-0_0
  6
CONTINUOUS
 62
    7
 10
-815.07214350000004
 20
1046.4277039999999
 11
-815.32214350000015
 21
1046.20462
  0
LINE
  8
_0-0_0
  6
CONTINUOUS
 62
    7
 10
-815.07214350000004
 20
1046.549438
 11
-815.32214350000015
 21
1046.2723390000001
  0
LINE
  8
_0-0_0
  6
CONTINUOUS
 62
    7
 10
-815.07214350000004
 20
1046.4766540000001
 11
-815.32214350000015
 21
1046.2723390000001
  0
LINE
  8
_0-0_0
  6
CONTINUOUS
 62
    7
 10
-815.07214350000004
 20
1046.645203
 11
-815.32214350000015
 21
1046.366119
  0
LINE
  8
_0-0_0
  6
CONTINUOUS
 62
    7
 10
-815.07214350000004
 20
1046.549438
 11
-815.32214350000015
 21
1046.366119
  0
LINE
  8
_0-0_0
  6
CONTINUOUS
 62
    7
 10
-815.07214350000004
 20
1046.645203
 11
-815.20214849999991
 21
1046.561371
  0
LINE
  8
_0-0_0
  6
CONTINUOUS
 62
    7
 10
-815.07214350000004
 20
1046.76297
 11
-815.32214350000015
 21
1046.4849239999999
  0
LINE
  8
_0-0_0
  6
CONTINUOUS
 62
    7
 10
-815.20214849999991
 20
1046.561371
 11
-815.32214350000015
 21
1046.4849239999999
  0
LINE
  8
_0-0_0
  6
CONTINUOUS
 62
    7
 10
-815.07214350000004
 20
1046.901398
 11
-815.32214350000015
 21
1046.6274410000001
  0
LINE
  8
_0-0_0
  6
CONTINUOUS
 62
    7
 10
-815.07214350000004
 20
1046.76297
 11
-815.32214350000015
 21
1046.6274410000001
  0
LINE
  8
_0-0_0
  6
CONTINUOUS
 62
    7
 10
-815.07214350000004
 20
1047.05899
 11
-815.32214350000015
 21
1046.7921139999999
  0
LINE
  8
_0-0_0
  6
CONTINUOUS
 62
    7
 10
-815.07214350000004
 20
1046.901398
 11
-815.32214350000015
 21
1046.7921139999999
  0
LINE
  8
_0-0_0
  6
CONTINUOUS
 62
    7
 10
-815.07214350000004
 20
1047.234009
 11
-815.32214350000015
 21
1046.977173
  0
LINE
  8
_0-0_0
  6
CONTINUOUS
 62
    7
 10
-815.07214350000004
 20
1047.05899
 11
-815.32214350000015
 21
1046.977173
  0
LINE
  8
_0-0_0
  6
CONTINUOUS
 62
    7
 10
-815.07214350000004
 20
1047.42453
 11
-815.32214350000015
 21
1047.180511
  0
LINE
  8
_0-0_0
  6
CONTINUOUS
 62
    7
 10
-815.07214350000004
 20
1047.234009
 11
-815.32214350000015
 21
1047.180511
  0
LINE
  8
_0-0_0
  6
CONTINUOUS
 62
    7
 10
-815.07214350000004
 20
1047.62851
 11
-815.32214350000015
 21
1047.3999939999999
  0
LINE
  8
_0-0_0
  6
CONTINUOUS
 62
    7
 10
-815.07214350000004
 20
1047.42453
 11
-815.32214350000015
 21
1047.3999939999999
  0
LINE
  8
_0-0_0
  6
CONTINUOUS
 62
    7
 10
-815.07214350000004
 20
1047.843658
 11
-815.32214350000015
 21
1047.6331479999999
  0
LINE
  8
_0-0_0
  6
CONTINUOUS
 62
    7
 10
-815.07214350000004
 20
1047.62851
 11
-815.32214350000015
 21
1047.6331479999999
  0
LINE
  8
_0-0_0
  6
CONTINUOUS
 62
    7
 10
-815.07214350000004
 20
1048.0676270000001
 11
-815.32214350000015
 21
1047.8774410000001
  0
LINE
  8
_0-0_0
  6
CONTINUOUS
 62
    7
 10
-815.07214350000004
 20
1047.843658
 11
-815.32214350000015
 21
1047.8774410000001
  0
LINE
  8
_0-0_0
  6
CONTINUOUS
 62
    7
 10
-815.07214350000004
 20
1048.298004
 11
-815.32214350000015
 21
1048.1301880000001
  0
LINE
  8
_0-0_0
  6
CONTINUOUS
 62
    7
 10
-815.07214350000004
 20
1048.0676270000001
 11
-815.32214350000015
 21
1048.1301880000001
  0
LINE
  8
_0-0_0
  6
CONTINUOUS
 62
    7
 10
-815.07214350000004
 20
1048.5322269999999
 11
-815.32214350000015
 21
1048.388672
  0
LINE
  8
_0-0_0
  6
CONTINUOUS
 62
    7
 10
-815.07214350000004
 20
1048.298004
 11
-815.32214350000015
 21
1048.388672
  0
LINE
  8
_0-0_0
  6
CONTINUOUS
 62
    7
 10
-815.07214350000004
 20
1048.7677309999999
 11
-815.32214350000015
 21
1048.6499940000001
  0
LINE
  8
_0-0_0
  6
CONTINUOUS
 62
    7
 10
-815.07214350000004
 20
1048.5322269999999
 11
-815.32214350000015
 21
1048.6499940000001
  0
LINE
  8
_0-0_0
  6
CONTINUOUS
 62
    7
 10
-815.07214350000004
 20
1049.001953
 11
-815.32214350000015
 21
1048.9113160000002
  0
LINE
  8
_0-0_0
  6
CONTINUOUS
 62
    7
 10
-815.07214350000004
 20
1048.7677309999999
 11
-815.32214350000015
 21
1048.9113160000002
  0
LINE
  8
_0-0_0
  6
CONTINUOUS
 62
    7
 10
-815.07214350000004
 20
1049.2323299999998
 11
-815.32214350000015
 21
1049.1697690000001
  0
LINE
  8
_0-0_0
  6
CONTINUOUS
 62
    7
 10
-815.07214350000004
 20
1049.001953
 11
-815.32214350000015
 21
1049.1697690000001
  0
LINE
  8
_0-0_0
  6
CONTINUOUS
 62
    7
 10
-815.07214350000004
 20
1049.4562989999999
 11
-815.32214350000015
 21
1049.4225160000001
  0
LINE
  8
_0-0_0
  6
CONTINUOUS
 62
    7
 10
-815.07214350000004
 20
1049.2323299999998
 11
-815.32214350000015
 21
1049.4225160000001
  0
LINE
  8
_0-0_0
  6
CONTINUOUS
 62
    7
 10
-815.07214350000004
 20
1049.6714480000001
 11
-815.32214350000015
 21
1049.6668090000001
  0
LINE
  8
_0-0_0
  6
CONTINUOUS
 62
    7
 10
-815.07214350000004
 20
1049.4562989999999
 11
-815.32214350000015
 21
1049.6668090000001
  0
LINE
  8
_0-0_0
  6
CONTINUOUS
 62
    7
 10
-815.07214350000004
 20
1049.8754269999999
 11
-815.07214350000004
 21
1049.728699
  0
LINE
  8
_0-0_0
  6
CONTINUOUS
 62
    7
 10
-815.07214350000004
 20
1049.8754269999999
 11
-815.32214350000015
 21
1049.8999939999999
  0
LINE
  8
_0-0_0
  6
CONTINUOUS
 62
    7
 10
-815.07214350000004
 20
1049.6714480000001
 11
-815.32214350000015
 21
1049.8999939999999
  0
LINE
  8
_0-0_0
  6
CONTINUOUS
 62
    7
 10
-815.07214350000004
 20
1050.0659479999999
 11
-815.07214350000004
 21
1049.8754269999999
  0
LINE
  8
_0-0_0
  6
CONTINUOUS
 62
    7
 10
-815.07214350000004
 20
1050.2409670000002
 11
-815.07214350000004
 21
1050.0659479999999
  0
LINE
  8
_0-0_0
  6
CONTINUOUS
 62
    7
 10
-815.07214350000004
 20
1050.3985600000001
 11
-815.07214350000004
 21
1050.2409670000002
  0
LINE
  8
_0-0_0
  6
CONTINUOUS
 62
    7
 10
-815.07214350000004
 20
1050.536987
 11
-815.07214350000004
 21
1050.3985600000001
  0
LINE
  8
_0-0_0
  6
CONTINUOUS
 62
    7
 10
-815.07214350000004
 20
1050.654755
 11
-815.07214350000004
 21
1050.536987
  0
LINE
  8
_0-0_0
  6
CONTINUOUS
 62
    7
 10
-815.07214350000004
 20
1050.7505489999999
 11
-815.07214350000004
 21
1050.654755
  0
LINE
  8
_0-0_0
  6
CONTINUOUS
 62
    7
 10
-815.07214350000004
 20
1050.8233029999999
 11
-815.07214350000004
 21
1050.7505489999999
  0
LINE
  8
_0-0_0
  6
CONTINUOUS
 62
    7
 10
-815.07214350000004
 20
1050.872284
 11
-815.07214350000004
 21
1050.8233029999999
  0
LINE
  8
_0-0_0
  6
CONTINUOUS
 62
    7
 10
-815.07214350000004
 20
1050.8969119999999
 11
-815.07214350000004
 21
1050.872284
  0
LINE
  8
_0-0_0
  6
CONTINUOUS
 62
    7
 10
-815.07214350000004
 20
1050.8999940000001
 11
-815.07214350000004
 21
1050.8969119999999
  0
LINE
  8
_0-0_0
  6
CONTINUOUS
 62
    7
 10
-824.82214350000004
 20
1046.4030760000001
 11
-824.57214349999992
 21
1046.1499939999999
  0
LINE
  8
_0-0_0
  6
CONTINUOUS
 62
    7
 10
-824.57214349999992
 20
1046.1499939999999
 11
-815.32214350000015
 21
1046.1499939999999
  0
LINE
  8
_0-0_0
  6
CONTINUOUS
 62
    7
 10
-824.82214350000004
 20
1046.4277039999999
 11
-824.57214349999992
 21
1046.1636960000001
  0
LINE
  8
_0-0_0
  6
CONTINUOUS
 62
    7
 10
-824.57214349999992
 20
1046.1636960000001
 11
-815.32214350000015
 21
1046.1636960000001
  0
LINE
  8
_0-0_0
  6
CONTINUOUS
 62
    7
 10
-824.82214350000004
 20
1046.4030760000001
 11
-824.57214349999992
 21
1046.1636960000001
  0
LINE
  8
_0-0_0
  6
CONTINUOUS
 62
    7
 10
-824.82214350000004
 20
1046.4766540000001
 11
-824.57214349999992
 21
1046.20462
  0
LINE
  8
_0-0_0
  6
CONTINUOUS
 62
    7
 10
-824.57214349999992
 20
1046.20462
 11
-815.32214350000015
 21
1046.20462
  0
LINE
  8
_0-0_0
  6
CONTINUOUS
 62
    7
 10
-824.82214350000004
 20
1046.4277039999999
 11
-824.57214349999992
 21
1046.20462
  0
LINE
  8
_0-0_0
  6
CONTINUOUS
 62
    7
 10
-824.82214350000004
 20
1046.549438
 11
-824.57214349999992
 21
1046.2723390000001
  0
LINE
  8
_0-0_0
  6
CONTINUOUS
 62
    7
 10
-824.57214349999992
 20
1046.2723390000001
 11
-815.32214350000015
 21
1046.2723390000001
  0
LINE
  8
_0-0_0
  6
CONTINUOUS
 62
    7
 10
-824.82214350000004
 20
1046.4766540000001
 11
-824.57214349999992
 21
1046.2723390000001
  0
LINE
  8
_0-0_0
  6
CONTINUOUS
 62
    7
 10
-824.82214350000004
 20
1046.645203
 11
-824.57214349999992
 21
1046.366119
  0
LINE
  8
_0-0_0
  6
CONTINUOUS
 62
    7
 10
-824.57214349999992
 20
1046.366119
 11
-815.32214350000015
 21
1046.366119
  0
LINE
  8
_0-0_0
  6
CONTINUOUS
 62
    7
 10
-824.82214350000004
 20
1046.549438
 11
-824.57214349999992
 21
1046.366119
  0
LINE
  8
_0-0_0
  6
CONTINUOUS
 62
    7
 10
-824.57214349999992
 20
1046.4849239999999
 11
-815.32214350000015
 21
1046.4849239999999
  0
LINE
  8
_0-0_0
  6
CONTINUOUS
 62
    7
 10
-824.69219950000036
 20
1046.561371
 11
-824.57214349999992
 21
1046.4849239999999
  0
LINE
  8
_0-0_0
  6
CONTINUOUS
 62
    7
 10
-824.82214350000004
 20
1046.645203
 11
-824.69219950000036
 21
1046.561371
  0
LINE
  8
_0-0_0
  6
CONTINUOUS
 62
    7
 10
-824.82214350000004
 20
1046.76297
 11
-824.57214349999992
 21
1046.4849239999999
  0
LINE
  8
_0-0_0
  6
CONTINUOUS
 62
    7
 10
-824.82214350000004
 20
1046.901398
 11
-824.57214349999992
 21
1046.6274410000001
  0
LINE
  8
_0-0_0
  6
CONTINUOUS
 62
    7
 10
-824.57214349999992
 20
1046.6274410000001
 11
-815.32214350000015
 21
1046.6274410000001
  0
LINE
  8
_0-0_0
  6
CONTINUOUS
 62
    7
 10
-824.82214350000004
 20
1046.76297
 11
-824.57214349999992
 21
1046.6274410000001
  0
LINE
  8
_0-0_0
  6
CONTINUOUS
 62
    7
 10
-824.82214350000004
 20
1047.05899
 11
-824.57214349999992
 21
1046.7921139999999
  0
LINE
  8
_0-0_0
  6
CONTINUOUS
 62
    7
 10
-824.57214349999992
 20
1046.7921139999999
 11
-815.32214350000015
 21
1046.7921139999999
  0
LINE
  8
_0-0_0
  6
CONTINUOUS
 62
    7
 10
-824.82214350000004
 20
1046.901398
 11
-824.57214349999992
 21
1046.7921139999999
  0
LINE
  8
_0-0_0
  6
CONTINUOUS
 62
    7
 10
-824.82214350000004
 20
1047.234009
 11
-824.57214349999992
 21
1046.977173
  0
LINE
  8
_0-0_0
  6
CONTINUOUS
 62
    7
 10
-824.57214349999992
 20
1046.977173
 11
-815.32214350000015
 21
1046.977173
  0
LINE
  8
_0-0_0
  6
CONTINUOUS
 62
    7
 10
-824.82214350000004
 20
1047.05899
 11
-824.57214349999992
 21
1046.977173
  0
LINE
  8
_0-0_0
  6
CONTINUOUS
 62
    7
 10
-824.82214350000004
 20
1047.42453
 11
-824.57214349999992
 21
1047.180511
  0
LINE
  8
_0-0_0
  6
CONTINUOUS
 62
    7
 10
-824.57214349999992
 20
1047.180511
 11
-815.32214350000015
 21
1047.180511
  0
LINE
  8
_0-0_0
  6
CONTINUOUS
 62
    7
 10
-824.82214350000004
 20
1047.234009
 11
-824.57214349999992
 21
1047.180511
  0
LINE
  8
_0-0_0
  6
CONTINUOUS
 62
    7
 10
-824.82214350000004
 20
1047.62851
 11
-824.57214349999992
 21
1047.3999939999999
  0
LINE
  8
_0-0_0
  6
CONTINUOUS
 62
    7
 10
-824.57214349999992
 20
1047.3999939999999
 11
-815.32214350000015
 21
1047.3999939999999
  0
LINE
  8
_0-0_0
  6
CONTINUOUS
 62
    7
 10
-824.82214350000004
 20
1047.62851
 11
-815.07214350000004
 21
1047.62851
  0
LINE
  8
_0-0_0
  6
CONTINUOUS
 62
    7
 10
-824.82214350000004
 20
1047.42453
 11
-824.57214349999992
 21
1047.3999939999999
  0
LINE
  8
_0-0_0
  6
CONTINUOUS
 62
    7
 10
-824.82214350000004
 20
1047.843658
 11
-824.57214349999992
 21
1047.6331479999999
  0
LINE
  8
_0-0_0
  6
CONTINUOUS
 62
    7
 10
-824.57214349999992
 20
1047.6331479999999
 11
-815.32214350000015
 21
1047.6331479999999
  0
LINE
  8
_0-0_0
  6
CONTINUOUS
 62
    7
 10
-824.82214350000004
 20
1047.843658
 11
-815.07214350000004
 21
1047.843658
  0
LINE
  8
_0-0_0
  6
CONTINUOUS
 62
    7
 10
-824.82214350000004
 20
1047.62851
 11
-824.57214349999992
 21
1047.6331479999999
  0
LINE
  8
_0-0_0
  6
CONTINUOUS
 62
    7
 10
-824.82214350000004
 20
1048.0676270000001
 11
-824.57214349999992
 21
1047.8774410000001
  0
LINE
  8
_0-0_0
  6
CONTINUOUS
 62
    7
 10
-824.57214349999992
 20
1047.8774410000001
 11
-815.32214350000015
 21
1047.8774410000001
  0
LINE
  8
_0-0_0
  6
CONTINUOUS
 62
    7
 10
-824.82214350000004
 20
1048.0676270000001
 11
-815.07214350000004
 21
1048.0676270000001
  0
LINE
  8
_0-0_0
  6
CONTINUOUS
 62
    7
 10
-824.82214350000004
 20
1047.843658
 11
-824.57214349999992
 21
1047.8774410000001
  0
LINE
  8
_0-0_0
  6
CONTINUOUS
 62
    7
 10
-824.82214350000004
 20
1048.298004
 11
-824.57214349999992
 21
1048.1301880000001
  0
LINE
  8
_0-0_0
  6
CONTINUOUS
 62
    7
 10
-824.57214349999992
 20
1048.1301880000001
 11
-815.32214350000015
 21
1048.1301880000001
  0
LINE
  8
_0-0_0
  6
CONTINUOUS
 62
    7
 10
-824.82214350000004
 20
1048.298004
 11
-815.07214350000004
 21
1048.298004
  0
LINE
  8
_0-0_0
  6
CONTINUOUS
 62
    7
 10
-824.82214350000004
 20
1048.0676270000001
 11
-824.57214349999992
 21
1048.1301880000001
  0
LINE
  8
_0-0_0
  6
CONTINUOUS
 62
    7
 10
-824.82214350000004
 20
1048.5322269999999
 11
-824.57214349999992
 21
1048.388672
  0
LINE
  8
_0-0_0
  6
CONTINUOUS
 62
    7
 10
-824.57214349999992
 20
1048.388672
 11
-815.32214350000015
 21
1048.388672
  0
LINE
  8
_0-0_0
  6
CONTINUOUS
 62
    7
 10
-824.82214350000004
 20
1048.5322269999999
 11
-815.07214350000004
 21
1048.5322269999999
  0
LINE
  8
_0-0_0
  6
CONTINUOUS
 62
    7
 10
-824.82214350000004
 20
1048.298004
 11
-824.57214349999992
 21
1048.388672
  0
LINE
  8
_0-0_0
  6
CONTINUOUS
 62
    7
 10
-824.82214350000004
 20
1048.7677309999999
 11
-824.57214349999992
 21
1048.6499940000001
  0
LINE
  8
_0-0_0
  6
CONTINUOUS
 62
    7
 10
-824.57214349999992
 20
1048.6499940000001
 11
-815.32214350000015
 21
1048.6499940000001
  0
LINE
  8
_0-0_0
  6
CONTINUOUS
 62
    7
 10
-824.82214350000004
 20
1048.7677309999999
 11
-815.07214350000004
 21
1048.7677309999999
  0
LINE
  8
_0-0_0
  6
CONTINUOUS
 62
    7
 10
-824.82214350000004
 20
1048.5322269999999
 11
-824.57214349999992
 21
1048.6499940000001
  0
LINE
  8
_0-0_0
  6
CONTINUOUS
 62
    7
 10
-824.82214350000004
 20
1049.001953
 11
-824.57214349999992
 21
1048.9113160000002
  0
LINE
  8
_0-0_0
  6
CONTINUOUS
 62
    7
 10
-824.57214349999992
 20
1048.9113160000002
 11
-815.32214350000015
 21
1048.9113160000002
  0
LINE
  8
_0-0_0
  6
CONTINUOUS
 62
    7
 10
-824.82214350000004
 20
1049.001953
 11
-815.07214350000004
 21
1049.001953
  0
LINE
  8
_0-0_0
  6
CONTINUOUS
 62
    7
 10
-824.82214350000004
 20
1048.7677309999999
 11
-824.57214349999992
 21
1048.9113160000002
  0
LINE
  8
_0-0_0
  6
CONTINUOUS
 62
    7
 10
-824.82214350000004
 20
1049.2323299999998
 11
-824.57214349999992
 21
1049.1697690000001
  0
LINE
  8
_0-0_0
  6
CONTINUOUS
 62
    7
 10
-824.57214349999992
 20
1049.1697690000001
 11
-815.32214350000015
 21
1049.1697690000001
  0
LINE
  8
_0-0_0
  6
CONTINUOUS
 62
    7
 10
-824.82214350000004
 20
1049.2323299999998
 11
-815.07214350000004
 21
1049.2323299999998
  0
LINE
  8
_0-0_0
  6
CONTINUOUS
 62
    7
 10
-824.82214350000004
 20
1049.001953
 11
-824.57214349999992
 21
1049.1697690000001
  0
LINE
  8
_0-0_0
  6
CONTINUOUS
 62
    7
 10
-824.82214350000004
 20
1049.4562989999999
 11
-824.57214349999992
 21
1049.4225160000001
  0
LINE
  8
_0-0_0
  6
CONTINUOUS
 62
    7
 10
-824.57214349999992
 20
1049.4225160000001
 11
-815.32214350000015
 21
1049.4225160000001
  0
LINE
  8
_0-0_0
  6
CONTINUOUS
 62
    7
 10
-824.82214350000004
 20
1049.4562989999999
 11
-815.07214350000004
 21
1049.4562989999999
  0
LINE
  8
_0-0_0
  6
CONTINUOUS
 62
    7
 10
-824.82214350000004
 20
1049.2323299999998
 11
-824.57214349999992
 21
1049.4225160000001
  0
LINE
  8
_0-0_0
  6
CONTINUOUS
 62
    7
 10
-824.82214350000004
 20
1049.6714480000001
 11
-824.57214349999992
 21
1049.6668090000001
  0
LINE
  8
_0-0_0
  6
CONTINUOUS
 62
    7
 10
-824.57214349999992
 20
1049.6668090000001
 11
-815.32214350000015
 21
1049.6668090000001
  0
LINE
  8
_0-0_0
  6
CONTINUOUS
 62
    7
 10
-824.82214350000004
 20
1049.6714480000001
 11
-815.07214350000004
 21
1049.6714480000001
  0
LINE
  8
_0-0_0
  6
CONTINUOUS
 62
    7
 10
-824.82214350000004
 20
1049.4562989999999
 11
-824.57214349999992
 21
1049.6668090000001
  0
LINE
  8
_0-0_0
  6
CONTINUOUS
 62
    7
 10
-824.82214350000004
 20
1049.8754269999999
 11
-824.57214349999992
 21
1049.8999939999999
  0
LINE
  8
_0-0_0
  6
CONTINUOUS
 62
    7
 10
-824.57214349999992
 20
1049.8999939999999
 11
-815.32214350000015
 21
1049.8999939999999
  0
LINE
  8
_0-0_0
  6
CONTINUOUS
 62
    7
 10
-824.82214350000004
 20
1049.6714480000001
 11
-824.57214349999992
 21
1049.8999939999999
  0
LINE
  8
_0-0_0
  6
CONTINUOUS
 62
    7
 10
-815.07214350000004
 20
1050.0659479999999
 11
-815.32214350000015
 21
1050.1194459999999
  0
LINE
  8
_0-0_0
  6
CONTINUOUS
 62
    7
 10
-815.07214350000004
 20
1049.8754269999999
 11
-815.32214350000015
 21
1050.1194459999999
  0
LINE
  8
_0-0_0
  6
CONTINUOUS
 62
    7
 10
-815.07214350000004
 20
1050.2409670000002
 11
-815.32214350000015
 21
1050.322815
  0
LINE
  8
_0-0_0
  6
CONTINUOUS
 62
    7
 10
-815.07214350000004
 20
1050.0659479999999
 11
-815.32214350000015
 21
1050.322815
  0
LINE
  8
_0-0_0
  6
CONTINUOUS
 62
    7
 10
-815.07214350000004
 20
1050.3985600000001
 11
-815.32214350000015
 21
1050.5078430000001
  0
LINE
  8
_0-0_0
  6
CONTINUOUS
 62
    7
 10
-815.07214350000004
 20
1050.2409670000002
 11
-815.32214350000015
 21
1050.5078430000001
  0
LINE
  8
_0-0_0
  6
CONTINUOUS
 62
    7
 10
-815.07214350000004
 20
1050.536987
 11
-815.32214350000015
 21
1050.6725160000001
  0
LINE
  8
_0-0_0
  6
CONTINUOUS
 62
    7
 10
-815.07214350000004
 20
1050.3985600000001
 11
-815.32214350000015
 21
1050.6725160000001
  0
LINE
  8
_0-0_0
  6
CONTINUOUS
 62
    7
 10
-815.07214350000004
 20
1050.654755
 11
-815.32214350000015
 21
1050.815063
  0
LINE
  8
_0-0_0
  6
CONTINUOUS
 62
    7
 10
-815.07214350000004
 20
1050.536987
 11
-815.32214350000015
 21
1050.815063
  0
LINE
  8
_0-0_0
  6
CONTINUOUS
 62
    7
 10
-815.07214350000004
 20
1050.7505489999999
 11
-815.32214350000015
 21
1050.9338379999999
  0
LINE
  8
_0-0_0
  6
CONTINUOUS
 62
    7
 10
-815.07214350000004
 20
1050.654755
 11
-815.32214350000015
 21
1050.9338379999999
  0
LINE
  8
_0-0_0
  6
CONTINUOUS
 62
    7
 10
-815.07214350000004
 20
1050.8233029999999
 11
-815.32214350000015
 21
1051.0276180000001
  0
LINE
  8
_0-0_0
  6
CONTINUOUS
 62
    7
 10
-815.07214350000004
 20
1050.7505489999999
 11
-815.32214350000015
 21
1051.0276180000001
  0
LINE
  8
_0-0_0
  6
CONTINUOUS
 62
    7
 10
-815.07214350000004
 20
1050.872284
 11
-815.32214350000015
 21
1051.095337
  0
LINE
  8
_0-0_0
  6
CONTINUOUS
 62
    7
 10
-815.07214350000004
 20
1050.8233029999999
 11
-815.32214350000015
 21
1051.095337
  0
LINE
  8
_0-0_0
  6
CONTINUOUS
 62
    7
 10
-815.07214350000004
 20
1050.8969119999999
 11
-815.32214350000015
 21
1051.1362919999999
  0
LINE
  8
_0-0_0
  6
CONTINUOUS
 62
    7
 10
-815.07214350000004
 20
1050.872284
 11
-815.32214350000015
 21
1051.1362919999999
  0
LINE
  8
_0-0_0
  6
CONTINUOUS
 62
    7
 10
-815.07214350000004
 20
1050.8969119999999
 11
-815.32214350000015
 21
1051.1499939999999
  0
LINE
  8
_0-0_0
  6
CONTINUOUS
 62
    7
 10
-825.07214350000015
 20
1046.8948359999999
 11
-825.07214350000015
 21
1046.6499939999999
  0
LINE
  8
_0-0_0
  6
CONTINUOUS
 62
    7
 10
-824.82214350000004
 20
1049.8754269999999
 11
-824.57214349999992
 21
1050.1194459999999
  0
LINE
  8
_0-0_0
  6
CONTINUOUS
 62
    7
 10
-824.82214350000004
 20
1050.0659479999999
 11
-824.57214349999992
 21
1050.1194459999999
  0
LINE
  8
_0-0_0
  6
CONTINUOUS
 62
    7
 10
-824.82214350000004
 20
1050.0659479999999
 11
-824.57214349999992
 21
1050.322815
  0
LINE
  8
_0-0_0
  6
CONTINUOUS
 62
    7
 10
-824.82214350000004
 20
1050.2409670000002
 11
-824.57214349999992
 21
1050.322815
  0
LINE
  8
_0-0_0
  6
CONTINUOUS
 62
    7
 10
-824.82214350000004
 20
1050.2409670000002
 11
-824.57214349999992
 21
1050.5078430000001
  0
LINE
  8
_0-0_0
  6
CONTINUOUS
 62
    7
 10
-824.82214350000004
 20
1050.3985600000001
 11
-824.57214349999992
 21
1050.5078430000001
  0
LINE
  8
_0-0_0
  6
CONTINUOUS
 62
    7
 10
-824.82214350000004
 20
1050.3985600000001
 11
-824.57214349999992
 21
1050.6725160000001
  0
LINE
  8
_0-0_0
  6
CONTINUOUS
 62
    7
 10
-824.82214350000004
 20
1050.536987
 11
-824.57214349999992
 21
1050.6725160000001
  0
LINE
  8
_0-0_0
  6
CONTINUOUS
 62
    7
 10
-824.82214350000004
 20
1050.536987
 11
-824.57214349999992
 21
1050.815063
  0
LINE
  8
_0-0_0
  6
CONTINUOUS
 62
    7
 10
-824.82214350000004
 20
1050.654755
 11
-824.57214349999992
 21
1050.815063
  0
LINE
  8
_0-0_0
  6
CONTINUOUS
 62
    7
 10
-824.82214350000004
 20
1050.654755
 11
-824.57214349999992
 21
1050.9338379999999
  0
LINE
  8
_0-0_0
  6
CONTINUOUS
 62
    7
 10
-824.82214350000004
 20
1050.7505489999999
 11
-824.57214349999992
 21
1050.9338379999999
  0
LINE
  8
_0-0_0
  6
CONTINUOUS
 62
    7
 10
-824.82214350000004
 20
1050.7505489999999
 11
-824.57214349999992
 21
1051.0276180000001
  0
LINE
  8
_0-0_0
  6
CONTINUOUS
 62
    7
 10
-824.82214350000004
 20
1050.8233029999999
 11
-824.57214349999992
 21
1051.0276180000001
  0
LINE
  8
_0-0_0
  6
CONTINUOUS
 62
    7
 10
-824.82214350000004
 20
1050.8233029999999
 11
-824.57214349999992
 21
1051.095337
  0
LINE
  8
_0-0_0
  6
CONTINUOUS
 62
    7
 10
-824.82214350000004
 20
1050.872284
 11
-824.57214349999992
 21
1051.095337
  0
LINE
  8
_0-0_0
  6
CONTINUOUS
 62
    7
 10
-824.82214350000004
 20
1050.872284
 11
-824.57214349999992
 21
1051.1362919999999
  0
LINE
  8
_0-0_0
  6
CONTINUOUS
 62
    7
 10
-824.82214350000004
 20
1050.8969119999999
 11
-824.57214349999992
 21
1051.1362919999999
  0
LINE
  8
_0-0_0
  6
CONTINUOUS
 62
    7
 10
-824.82214350000004
 20
1050.8969119999999
 11
-824.57214349999992
 21
1051.1499939999999
  0
LINE
  8
_0-0_0
  6
CONTINUOUS
 62
    7
 10
-825.07214350000015
 20
1050.6499939999999
 11
-825.07214350000015
 21
1046.8948359999999
  0
LINE
  8
_0-0_0
  6
CONTINUOUS
 62
    7
 10
-824.57214349999992
 20
1050.1194459999999
 11
-815.32214350000015
 21
1050.1194459999999
  0
LINE
  8
_0-0_0
  6
CONTINUOUS
 62
    7
 10
-824.57214349999992
 20
1050.322815
 11
-815.32214350000015
 21
1050.322815
  0
LINE
  8
_0-0_0
  6
CONTINUOUS
 62
    7
 10
-824.57214349999992
 20
1050.5078430000001
 11
-815.32214350000015
 21
1050.5078430000001
  0
LINE
  8
_0-0_0
  6
CONTINUOUS
 62
    7
 10
-824.57214349999992
 20
1050.6725160000001
 11
-815.32214350000015
 21
1050.6725160000001
  0
LINE
  8
_0-0_0
  6
CONTINUOUS
 62
    7
 10
-824.57214349999992
 20
1050.815063
 11
-815.32214350000015
 21
1050.815063
  0
LINE
  8
_0-0_0
  6
CONTINUOUS
 62
    7
 10
-824.57214349999992
 20
1050.9338379999999
 11
-815.32214350000015
 21
1050.9338379999999
  0
LINE
  8
_0-0_0
  6
CONTINUOUS
 62
    7
 10
-824.57214349999992
 20
1051.0276180000001
 11
-815.32214350000015
 21
1051.0276180000001
  0
LINE
  8
_0-0_0
  6
CONTINUOUS
 62
    7
 10
-824.57214349999992
 20
1051.095337
 11
-815.32214350000015
 21
1051.095337
  0
LINE
  8
_0-0_0
  6
CONTINUOUS
 62
    7
 10
-824.57214349999992
 20
1051.1362919999999
 11
-815.32214350000015
 21
1051.1362919999999
  0
LINE
  8
_0-0_0
  6
CONTINUOUS
 62
    7
 10
-824.57214349999992
 20
1051.1499939999999
 11
-815.32214350000015
 21
1051.1499939999999
  0
LINE
  8
_0-0_0
  6
CONTINUOUS
 62
    7
 10
-789.07214350000015
 20
1067.5
 11
-815.07214350000004
 21
1067.5
  0
LINE
  8
_0-0_0
  6
CONTINUOUS
 62
    7
 10
-789.07214350000015
 20
1063
 11
-815.07214350000004
 21
1063
  0
LINE
  8
_0-0_0
  6
CONTINUOUS
 62
    7
 10
-688.07214349999992
 20
1050.8999940000001
 11
-685.61645550000014
 21
1050.8999940000001
  0
LINE
  8
_0-0_0
  6
CONTINUOUS
 62
    7
 10
-686.11755350000033
 20
1046.3999940000001
 11
-685.61645550000014
 21
1046.3999940000001
  0
LINE
  8
_0-0_0
  6
CONTINUOUS
 62
    7
 10
-815.07214350000004
 20
1067.5
 11
-815.32214350000015
 21
1067.75
  0
LINE
  8
_0-0_0
  6
CONTINUOUS
 62
    7
 10
-815.07214350000004
 20
1063
 11
-815.32214350000015
 21
1062.75
  0
LINE
  8
_0-0_0
  6
CONTINUOUS
 62
    7
 10
-685.47216849999984
 20
1050.6499939999999
 11
-685.61645550000014
 21
1050.8999940000001
  0
LINE
  8
_0-0_0
  6
CONTINUOUS
 62
    7
 10
-685.47216849999984
 20
1046.6499939999999
 11
-685.61645550000014
 21
1046.3999940000001
  0
LINE
  8
_0-0_0
  6
CONTINUOUS
 62
    7
 10
-811.07214349999992
 20
1051.6999820000001
 11
-809.82214350000004
 21
1050.4499820000001
  0
LINE
  8
_0-0_0
  6
CONTINUOUS
 62
    7
 10
-811.07214349999992
 20
1062.1999820000001
 11
-810.27215549999994
 21
1062.999969
  0
LINE
  8
_0-0_0
  6
CONTINUOUS
 62
    7
 10
-825.07214350000015
 20
1067.25
 11
-824.57232650000014
 21
1067.7498169999999
  0
LINE
  8
_0-0_0
  6
CONTINUOUS
 62
    7
 10
-825.07214350000015
 20
1063.25
 11
-824.57232650000014
 21
1062.750153
  0
LINE
  8
_0-0_0
  6
CONTINUOUS
 62
    7
 10
-811.07214349999992
 20
1061.9499819999999
 11
-811.47216849999984
 21
1061.9499819999999
  0
LINE
  8
_0-0_0
  6
CONTINUOUS
 62
    7
 10
-811.07214349999992
 20
1051.9499820000001
 11
-811.47216849999984
 21
1051.9499820000001
  0
LINE
  8
_0-0_0
  6
CONTINUOUS
 62
    7
 10
-812.27215549999983
 20
1061.488098
 11
-811.47216849999984
 21
1061.9499819999999
  0
LINE
  8
_0-0_0
  6
CONTINUOUS
 62
    7
 10
-812.27215549999983
 20
1052.411865
 11
-811.47216849999984
 21
1051.9499820000001
  0
LINE
  8
_0-0_0
  6
CONTINUOUS
 62
    7
 10
-812.27215549999983
 20
1060.9499820000001
 11
-870.27215549999994
 21
1060.9499820000001
  0
LINE
  8
_0-0_0
  6
CONTINUOUS
 62
    7
 10
-812.27215549999983
 20
1052.9499819999999
 11
-870.27215549999994
 21
1052.9499819999999
  0
LINE
  8
_0-0_0
  6
CONTINUOUS
 62
    7
 10
-794.82220450000023
 20
1046.3999940000001
 11
-815.07214350000004
 21
1046.3999940000001
  0
LINE
  8
_0-0_0
  6
CONTINUOUS
 62
    7
 10
-815.07214350000004
 20
1046.3999940000001
 11
-815.32214350000015
 21
1046.1499939999999
  0
LINE
  8
_0-0_0
  6
CONTINUOUS
 62
    7
 10
-810.27215549999994
 20
1050.8999940000001
 11
-815.07214350000004
 21
1050.8999940000001
  0
LINE
  8
_0-0_0
  6
CONTINUOUS
 62
    7
 10
-815.07214350000004
 20
1050.8999940000001
 11
-815.32214350000015
 21
1051.1499939999999
  0
LINE
  8
_0-0_0
  6
CONTINUOUS
 62
    7
 10
-825.07214350000015
 20
1046.6499939999999
 11
-824.57232650000014
 21
1046.1501459999999
  0
LINE
  8
_0-0_0
  6
CONTINUOUS
 62
    7
 10
-825.07214350000015
 20
1050.6499939999999
 11
-824.57232650000014
 21
1051.1498409999999
  0
LINE
  8
_0-0_0
  6
CONTINUOUS
 62
    7
 10
-898.58313050000004
 20
1099.1499939999999
 11
-898.58313050000004
 21
1086.1499940000001
  0
LINE
  8
_0-0_0
  6
CONTINUOUS
 62
    7
 10
-898.3831785000001
 20
1099.1499939999999
 11
-898.58313050000004
 21
1099.1499939999999
  0
LINE
  8
_0-0_0
  6
CONTINUOUS
 62
    7
 10
-898.3831785000001
 20
1086.1499940000001
 11
-898.58313050000004
 21
1086.1499940000001
  0
LINE
  8
_0-0_0
  6
CONTINUOUS
 62
    7
 10
-898.3831785000001
 20
1099.1499939999999
 11
-898.3831785000001
 21
1117.75
  0
LINE
  8
_0-0_0
  6
CONTINUOUS
 62
    7
 10
-898.28320350000013
 20
1117.75
 11
-898.3831785000001
 21
1117.75
  0
LINE
  8
_0-0_0
  6
CONTINUOUS
 62
    7
 10
-898.28320350000013
 20
1120.25
 11
-898.28320350000013
 21
1117.75
  0
ARC
  8
_0-0_0
  6
CONTINUOUS
 62
    7
 10
-898.78320350000001
 20
1120.25
 40
0.5
 50
0
 51
90.000003000000007
  0
LINE
  8
_0-0_0
  6
CONTINUOUS
 62
    7
 10
-898.78320350000001
 20
1120.75
 11
-901.78320350000001
 21
1120.75
  0
ARC
  8
_0-0_0
  6
CONTINUOUS
 62
    7
 10
-901.78320350000001
 20
1120.25
 40
0.5
 50
90.000003000000007
 51
179.99999099999999
  0
ARC
  8
_0-0_0
  6
CONTINUOUS
 62
    7
 10
-906.28320350000001
 20
1072.75
 40
0.5
 50
179.99999099999999
 51
269.99999700000001
  0
LINE
  8
_0-0_0
  6
CONTINUOUS
 62
    7
 10
-903.78320350000024
 20
1072.25
 11
-906.28320350000001
 21
1072.25
  0
ARC
  8
_0-0_0
  6
CONTINUOUS
 62
    7
 10
-903.78320350000024
 20
1072.75
 40
0.5
 50
269.99999700000001
 51
0
  0
LINE
  8
_0-0_0
  6
CONTINUOUS
 62
    7
 10
-903.28320350000001
 20
1077.75
 11
-903.28320350000001
 21
1072.75
  0
ARC
  8
_0-0_0
  6
CONTINUOUS
 62
    7
 10
-902.78320350000013
 20
1077.75
 40
0.5
 50
90.000003000000007
 51
179.99999099999999
  0
LINE
  8
_0-0_0
  6
CONTINUOUS
 62
    7
 10
-898.78320350000001
 20
1078.25
 11
-902.78320350000013
 21
1078.25
  0
ARC
  8
_0-0_0
  6
CONTINUOUS
 62
    7
 10
-898.78320350000001
 20
1078.75
 40
0.5
 50
269.99999700000001
 51
0
  0
LINE
  8
_0-0_0
  6
CONTINUOUS
 62
    7
 10
-898.28320350000013
 20
1081.9499820000001
 11
-898.28320350000013
 21
1078.75
  0
LINE
  8
_0-0_0
  6
CONTINUOUS
 62
    7
 10
-898.3831785000001
 20
1081.9499820000001
 11
-898.28320350000013
 21
1081.9499820000001
  0
LINE
  8
_0-0_0
  6
CONTINUOUS
 62
    7
 10
-898.3831785000001
 20
1081.9499820000001
 11
-898.3831785000001
 21
1086.1499940000001
  0
LINE
  8
_0-0_0
  6
CONTINUOUS
 62
    7
 10
-899.28320350000024
 20
1120.25
 11
-917.08313050000027
 21
1120.25
  0
ARC
  8
_0-0_0
  6
CONTINUOUS
 62
    7
 10
-899.28320350000024
 20
1119.75
 40
0.5
 50
0
 51
90.000003000000007
  0
LINE
  8
_0-0_0
  6
CONTINUOUS
 62
    7
 10
-898.78320350000001
 20
1119.75
 11
-898.78320350000001
 21
1079.25
  0
ARC
  8
_0-0_0
  6
CONTINUOUS
 62
    7
 10
-899.28320350000024
 20
1079.25
 40
0.5
 50
269.99999700000001
 51
0
  0
LINE
  8
_0-0_0
  6
CONTINUOUS
 62
    7
 10
-902.78320350000013
 20
1078.75
 11
-899.28320350000024
 21
1078.75
  0
ARC
  8
_0-0_0
  6
CONTINUOUS
 62
    7
 10
-902.78320350000013
 20
1077.75
 40
1
 50
90.000003000000007
 51
179.99999099999999
  0
LINE
  8
_0-0_0
  6
CONTINUOUS
 62
    7
 10
-903.78320350000024
 20
1077.75
 11
-903.78320350000024
 21
1073.25
  0
ARC
  8
_0-0_0
  6
CONTINUOUS
 62
    7
 10
-904.28320350000013
 20
1073.25
 40
0.5
 50
269.99999700000001
 51
0
  0
LINE
  8
_0-0_0
  6
CONTINUOUS
 62
    7
 10
-921.28320350000001
 20
1072.75
 11
-904.28320350000013
 21
1072.75
  0
LINE
  8
_0-0_0
  6
CONTINUOUS
 62
    7
 10
-902.78320350000013
 20
1120.4499819999999
 11
-902.78320350000013
 21
1120.25
  0
ARC
  8
_0-0_0
  6
CONTINUOUS
 62
    7
 10
-903.08313050000004
 20
1120.4499819999999
 40
0.2999999999999999
 50
0
 51
90.000003000000007
  0
LINE
  8
_0-0_0
  6
CONTINUOUS
 62
    7
 10
-903.08313050000004
 20
1120.75
 11
-917.78320350000013
 21
1120.75
  0
ARC
  8
_0-0_0
  6
CONTINUOUS
 62
    7
 10
-917.78320350000013
 20
1120.4499819999999
 40
0.2999999999999999
 50
90.000003000000007
 51
179.99999099999999
  0
LINE
  8
_0-0_0
  6
CONTINUOUS
 62
    7
 10
-918.08313050000004
 20
1120.4499819999999
 11
-918.08313050000004
 21
1117.25
  0
LINE
  8
_0-0_0
  6
CONTINUOUS
 62
    7
 10
-918.08313050000004
 20
1117.25
 11
-923.78320350000013
 21
1117.25
  0
LINE
  8
_0-0_0
  6
CONTINUOUS
 62
    7
 10
-923.78320350000013
 20
1117.25
 11
-924.58313050000027
 21
1116.4499820000001
  0
ARC
  8
_0-0_0
  6
CONTINUOUS
 62
    7
 10
-917.08313050000027
 20
1119.75
 40
0.5
 50
90.000003000000007
 51
179.99999099999999
  0
LINE
  8
_0-0_0
  6
CONTINUOUS
 62
    7
 10
-917.58313050000015
 20
1119.75
 11
-917.58313050000015
 21
1116.9499820000001
  0
ARC
  8
_0-0_0
  6
CONTINUOUS
 62
    7
 10
-918.08313050000004
 20
1116.9499820000001
 40
0.5
 50
269.99999700000001
 51
0
  0
LINE
  8
_0-0_0
  6
CONTINUOUS
 62
    7
 10
-918.08313050000004
 20
1116.4499820000001
 11
-926.28320350000024
 21
1116.4499820000001
  0
ARC
  8
_0-0_0
  6
CONTINUOUS
 62
    7
 10
-926.28320350000024
 20
1115.9499819999999
 40
0.5
 50
90.000003000000007
 51
179.99999099999999
  0
LINE
  8
_0-0_0
  6
CONTINUOUS
 62
    7
 10
-926.78320350000013
 20
1079.25
 11
-926.78320350000013
 21
1115.9499819999999
  0
ARC
  8
_0-0_0
  6
CONTINUOUS
 62
    7
 10
-926.28320350000024
 20
1079.25
 40
0.5
 50
179.99999099999999
 51
269.99999700000001
  0
LINE
  8
_0-0_0
  6
CONTINUOUS
 62
    7
 10
-926.28320350000024
 20
1078.75
 11
-922.78320350000001
 21
1078.75
  0
ARC
  8
_0-0_0
  6
CONTINUOUS
 62
    7
 10
-922.78320350000001
 20
1077.75
 40
1
 50
0
 51
90.000003000000007
  0
LINE
  8
_0-0_0
  6
CONTINUOUS
 62
    7
 10
-921.78320350000024
 20
1073.25
 11
-921.78320350000024
 21
1077.75
  0
ARC
  8
_0-0_0
  6
CONTINUOUS
 62
    7
 10
-921.28320350000001
 20
1073.25
 40
0.5
 50
179.99999099999999
 51
269.99999700000001
  0
CIRCLE
  8
_0-0_0
  6
CONTINUOUS
 62
    7
 10
-912.78320350000024
 20
1081.75
 40
2.0670000000000002
  0
LINE
  8
_0-0_0
  6
CONTINUOUS
 62
    7
 10
-924.78320350000024
 20
1116.75
 11
-924.78320350000024
 21
1116.4499820000001
  0
LINE
  8
_0-0_0
  6
CONTINUOUS
 62
    7
 10
-924.78320350000024
 20
1116.75
 11
-926.78320350000013
 21
1116.75
  0
ARC
  8
_0-0_0
  6
CONTINUOUS
 62
    7
 10
-926.78320350000013
 20
1116.25
 40
0.5
 50
90.000003000000007
 51
179.99999099999999
  0
LINE
  8
_0-0_0
  6
CONTINUOUS
 62
    7
 10
-927.28320350000001
 20
1116.25
 11
-927.28320350000001
 21
1078.75
  0
ARC
  8
_0-0_0
  6
CONTINUOUS
 62
    7
 10
-926.78320350000013
 20
1078.75
 40
0.5
 50
179.99999099999999
 51
269.99999700000001
  0
LINE
  8
_0-0_0
  6
CONTINUOUS
 62
    7
 10
-922.78320350000001
 20
1078.25
 11
-926.78320350000013
 21
1078.25
  0
ARC
  8
_0-0_0
  6
CONTINUOUS
 62
    7
 10
-922.78320350000001
 20
1077.75
 40
0.5
 50
0
 51
90.000003000000007
  0
LINE
  8
_0-0_0
  6
CONTINUOUS
 62
    7
 10
-922.28320350000013
 20
1072.75
 11
-922.28320350000013
 21
1077.75
  0
ARC
  8
_0-0_0
  6
CONTINUOUS
 62
    7
 10
-921.78320350000024
 20
1072.75
 40
0.5
 50
179.99999099999999
 51
269.99999700000001
  0
LINE
  8
_0-0_0
  6
CONTINUOUS
 62
    7
 10
-921.78320350000024
 20
1072.25
 11
-919.28320350000013
 21
1072.25
  0
ARC
  8
_0-0_0
  6
CONTINUOUS
 62
    7
 10
-919.28320350000013
 20
1072.75
 40
0.5
 50
269.99999700000001
 51
0
  0
LINE
  8
_0-0_0
  6
CONTINUOUS
 62
    7
 10
-903.28320350000001
 20
1072.75
 11
-903.18310550000035
 21
1072.75
  0
LINE
  8
_0-0_0
  6
CONTINUOUS
 62
    7
 10
-903.18310550000035
 20
1072.75
 11
-903.18310550000035
 21
1073.25
  0
LINE
  8
_0-0_0
  6
CONTINUOUS
 62
    7
 10
-903.18310550000035
 20
1077.25
 11
-903.18310550000035
 21
1073.25
  0
LINE
  8
_0-0_0
  6
CONTINUOUS
 62
    7
 10
-903.28320350000001
 20
1077.75
 11
-903.18310550000035
 21
1077.75
  0
LINE
  8
_0-0_0
  6
CONTINUOUS
 62
    7
 10
-903.18310550000035
 20
1077.25
 11
-903.18310550000035
 21
1077.75
  0
LINE
  8
_0-0_0
  6
CONTINUOUS
 62
    7
 10
-903.08313050000004
 20
1073.25
 11
-903.08313050000004
 21
1073.380341
  0
LINE
  8
_0-0_0
  6
CONTINUOUS
 62
    7
 10
-903.08313050000004
 20
1076.880341
 11
-903.08313050000004
 21
1073.380341
  0
LINE
  8
_0-0_0
  6
CONTINUOUS
 62
    7
 10
-903.18310550000035
 20
1077.1499940000001
 11
-903.08313050000004
 21
1077.1499940000001
  0
LINE
  8
_0-0_0
  6
CONTINUOUS
 62
    7
 10
-903.08313050000004
 20
1076.880341
 11
-903.08313050000004
 21
1077.1499940000001
  0
LINE
  8
_0-0_0
  6
CONTINUOUS
 62
    7
 10
-903.18310550000035
 20
1072.75
 11
-903.18310550000035
 21
1072.75119
  0
LINE
  8
_0-0_0
  6
CONTINUOUS
 62
    7
 10
-903.08313050000004
 20
1073.25
 11
-903.08313050000004
 21
1073.251221
  0
LINE
  8
_0-0_0
  6
CONTINUOUS
 62
    7
 10
-903.18310550000035
 20
1073.25
 11
-903.08313050000004
 21
1073.25
  0
LINE
  8
_0-0_0
  6
CONTINUOUS
 62
    7
 10
-903.18310550000035
 20
1073.25
 11
-903.08313050000004
 21
1073.25
  0
LINE
  8
_0-0_0
  6
CONTINUOUS
 62
    7
 10
-921.58313050000027
 20
1070.25
 11
-917.38317850000021
 21
1070.25
  0
LINE
  8
_0-0_0
  6
CONTINUOUS
 62
    7
 10
-905.78320350000013
 20
1070.25
 11
-908.18310550000024
 21
1070.25
  0
LINE
  8
_0-0_0
  6
CONTINUOUS
 62
    7
 10
-905.78320350000013
 20
1070.25
 11
-904.58313050000004
 21
1070.25
  0
ARC
  8
_0-0_0
  6
CONTINUOUS
 62
    7
 10
-904.58313050000004
 20
1069.75
 40
0.5
 50
0
 51
90.000003000000007
  0
ARC
  8
_0-0_0
  6
CONTINUOUS
 62
    7
 10
-905.78320350000013
 20
1069.75
 40
0.5
 50
90.000003000000007
 51
179.99999099999999
  0
ARC
  8
_0-0_0
  6
CONTINUOUS
 62
    7
 10
-908.18310550000024
 20
1070.75
 40
0.5
 50
179.99999099999999
 51
269.99999700000001
  0
ARC
  8
_0-0_0
  6
CONTINUOUS
 62
    7
 10
-917.38317850000021
 20
1070.75
 40
0.5
 50
269.99999700000001
 51
0
  0
ARC
  8
_0-0_0
  6
CONTINUOUS
 62
    7
 10
-921.58313050000027
 20
1069.75
 40
0.5
 50
90.000003000000007
 51
179.99999099999999
  0
LINE
  8
_0-0_0
  6
CONTINUOUS
 62
    7
 10
-920.58313050000015
 20
1070.75
 11
-920.58313050000015
 21
1070.25
  0
ARC
  8
_0-0_0
  6
CONTINUOUS
 62
    7
 10
-920.08313050000027
 20
1070.75
 40
0.5
 50
90.000003000000007
 51
179.99999099999999
  0
LINE
  8
_0-0_0
  6
CONTINUOUS
 62
    7
 10
-918.58313050000027
 20
1071.25
 11
-920.08313050000027
 21
1071.25
  0
ARC
  8
_0-0_0
  6
CONTINUOUS
 62
    7
 10
-918.58313050000027
 20
1072.25
 40
1
 50
269.99999700000001
 51
0
  0
LINE
  8
_0-0_0
  6
CONTINUOUS
 62
    7
 10
-917.58313050000015
 20
1072.75
 11
-917.58313050000015
 21
1072.25
  0
LINE
  8
_0-0_0
  6
CONTINUOUS
 62
    7
 10
-917.08313050000027
 20
1072.75
 11
-917.08313050000027
 21
1071.75
  0
ARC
  8
_0-0_0
  6
CONTINUOUS
 62
    7
 10
-918.58313050000027
 20
1071.75
 40
1.5
 50
269.99999700000001
 51
0
  0
ARC
  8
_0-0_0
  6
CONTINUOUS
 62
    7
 10
-906.98315449999984
 20
1071.75
 40
1.5
 50
179.99999099999999
 51
269.99999700000001
  0
LINE
  8
_0-0_0
  6
CONTINUOUS
 62
    7
 10
-904.98315449999961
 20
1070.75
 11
-904.98315449999961
 21
1070.25
  0
ARC
  8
_0-0_0
  6
CONTINUOUS
 62
    7
 10
-905.48315449999984
 20
1070.75
 40
0.5
 50
0
 51
90.000003000000007
  0
LINE
  8
_0-0_0
  6
CONTINUOUS
 62
    7
 10
-906.98315449999984
 20
1071.25
 11
-905.48315449999984
 21
1071.25
  0
ARC
  8
_0-0_0
  6
CONTINUOUS
 62
    7
 10
-906.98315449999984
 20
1072.25
 40
1
 50
179.99999099999999
 51
269.99999700000001
  0
LINE
  8
_0-0_0
  6
CONTINUOUS
 62
    7
 10
-907.98315449999961
 20
1072.75
 11
-907.98315449999961
 21
1072.25
  0
LINE
  8
_0-0_0
  6
CONTINUOUS
 62
    7
 10
-908.48315449999984
 20
1072.75
 11
-908.48315449999984
 21
1071.75
  0
LINE
  8
_0-0_0
  6
CONTINUOUS
 62
    7
 10
-904.08313050000015
 20
1043.25
 11
-904.08313050000015
 21
1044.1499940000001
  0
LINE
  8
_0-0_0
  6
CONTINUOUS
 62
    7
 10
-904.08313050000015
 20
1044.1499940000001
 11
-904.08313050000015
 21
1046.6499939999999
  0
LINE
  8
_0-0_0
  6
CONTINUOUS
 62
    7
 10
-904.08313050000015
 20
1046.6499939999999
 11
-904.08313050000015
 21
1067.25
  0
LINE
  8
_0-0_0
  6
CONTINUOUS
 62
    7
 10
-904.08313050000015
 20
1067.25
 11
-904.08313050000015
 21
1069.75
  0
LINE
  8
_0-0_0
  6
CONTINUOUS
 62
    7
 10
-906.28320350000001
 20
1069.75
 11
-906.28320350000001
 21
1068.5049739999999
  0
LINE
  8
_0-0_0
  6
CONTINUOUS
 62
    7
 10
-908.68310550000012
 20
1070.75
 11
-908.68310550000012
 21
1072.549988
  0
ARC
  8
_0-0_0
  6
CONTINUOUS
 62
    7
 10
-909.18310550000035
 20
1072.549988
 40
0.5
 50
0
 51
23.579369
  0
LINE
  8
_0-0_0
  6
CONTINUOUS
 62
    7
 10
-916.88317850000033
 20
1070.75
 11
-916.88317850000033
 21
1072.549988
  0
ARC
  8
_0-0_0
  6
CONTINUOUS
 62
    7
 10
-916.3831785000001
 20
1072.549988
 40
0.5
 50
156.420635
 51
179.99999099999999
  0
LINE
  8
_0-0_0
  6
CONTINUOUS
 62
    7
 10
-922.08313050000015
 20
1043.25
 11
-922.08313050000015
 21
1053.4499820000001
  0
LINE
  8
_0-0_0
  6
CONTINUOUS
 62
    7
 10
-922.08313050000015
 20
1053.4499820000001
 11
-922.08313050000015
 21
1054.4499819999999
  0
LINE
  8
_0-0_0
  6
CONTINUOUS
 62
    7
 10
-922.08313050000015
 20
1054.4499819999999
 11
-922.08313050000015
 21
1059.4499820000001
  0
LINE
  8
_0-0_0
  6
CONTINUOUS
 62
    7
 10
-922.08313050000015
 20
1059.4499820000001
 11
-922.08313050000015
 21
1060.4499819999999
  0
LINE
  8
_0-0_0
  6
CONTINUOUS
 62
    7
 10
-922.08313050000015
 20
1069.75
 11
-922.08313050000015
 21
1060.4499819999999
  0
LINE
  8
_0-0_0
  6
CONTINUOUS
 62
    7
 10
-903.28320350000001
 20
1068.75
 11
-904.08313050000015
 21
1068.75
  0
LINE
  8
_0-0_0
  6
CONTINUOUS
 62
    7
 10
-903.28320350000001
 20
1069.549988
 11
-904.08313050000015
 21
1069.549988
  0
LINE
  8
_0-0_0
  6
CONTINUOUS
 62
    7
 10
-903.28320350000001
 20
1068.549988
 11
-903.28320350000001
 21
1069.549988
  0
LINE
  8
_0-0_0
  6
CONTINUOUS
 62
    7
 10
-903.28320350000001
 20
1049.9499819999999
 11
-904.08313050000015
 21
1049.9499819999999
  0
LINE
  8
_0-0_0
  6
CONTINUOUS
 62
    7
 10
-903.28320350000001
 20
1049.9499819999999
 11
-903.28320350000001
 21
1052.9499819999999
  0
LINE
  8
_0-0_0
  6
CONTINUOUS
 62
    7
 10
-903.28320350000001
 20
1065.1876830000001
 11
-903.28320350000001
 21
1052.9499819999999
  0
LINE
  8
_0-0_0
  6
CONTINUOUS
 62
    7
 10
-903.28320350000001
 20
1065.1876830000001
 11
-903.28320350000001
 21
1066.1504520000001
  0
LINE
  8
_0-0_0
  6
CONTINUOUS
 62
    7
 10
-904.08313050000015
 20
1066.1504520000001
 11
-904.08313050000015
 21
1068.75
  0
ARC
  8
_0-0_0
  6
CONTINUOUS
 62
    7
 10
-909.69812050000019
 20
1065.432037
 40
5.7120379999999997
 50
18.558475999999999
 51
26.433648000000002
  0
ARC
  8
_0-0_0
  6
CONTINUOUS
 62
    7
 10
-904.28320350000013
 20
1067.25
 40
0.2
 50
269.99999700000001
 51
0
  0
ARC
  8
_0-0_0
  6
CONTINUOUS
 62
    7
 10
-904.28320350000013
 20
1046.6499939999999
 40
0.2
 50
0
 51
90.000003000000007
  0
ARC
  8
_0-0_0
  6
CONTINUOUS
 62
    7
 10
-909.69799849999981
 20
1048.468018
 40
5.711964
 50
333.565022
 51
341.44031000000001
  0
ARC
  8
_0-0_0
  6
CONTINUOUS
 62
    7
 10
-904.58313050000004
 20
1044.1499940000001
 40
0.5
 50
269.99999700000001
 51
0
  0
LINE
  8
_0-0_0
  6
CONTINUOUS
 62
    7
 10
-904.58313050000004
 20
1043.25
 11
-904.08313050000015
 21
1043.25
  0
LINE
  8
_0-0_0
  6
CONTINUOUS
 62
    7
 10
-904.08313050000015
 20
1043.25
 11
-904.58313050000004
 21
1042.75
  0
ARC
  8
_0-0_0
  6
CONTINUOUS
 62
    7
 10
-906.28320350000001
 20
1065.75
 40
2.2999999999999998
 50
34.417387999999995
 51
79.713437000000013
  0
LINE
  8
_0-0_0
  6
CONTINUOUS
 62
    7
 10
-904.34448250000025
 20
1067.049988
 11
-904.38574250000011
 21
1067.049988
  0
LINE
  8
_0-0_0
  6
CONTINUOUS
 62
    7
 10
-904.34448250000025
 20
1067.049988
 11
-904.33496149999974
 21
1067.051025
  0
LINE
  8
_0-0_0
  6
CONTINUOUS
 62
    7
 10
-904.33496149999974
 20
1067.051025
 11
-904.32543950000024
 21
1067.0541989999999
  0
LINE
  8
_0-0_0
  6
CONTINUOUS
 62
    7
 10
-904.32543950000024
 20
1067.0541989999999
 11
-904.31616250000013
 21
1067.0596009999999
  0
LINE
  8
_0-0_0
  6
CONTINUOUS
 62
    7
 10
-904.31616250000013
 20
1067.0596009999999
 11
-904.30737349999981
 21
1067.067108
  0
LINE
  8
_0-0_0
  6
CONTINUOUS
 62
    7
 10
-904.30737349999981
 20
1067.067108
 11
-904.29199250000011
 21
1067.087769
  0
LINE
  8
_0-0_0
  6
CONTINUOUS
 62
    7
 10
-904.29199250000011
 20
1067.087769
 11
-904.28015149999999
 21
1067.1150210000001
  0
LINE
  8
_0-0_0
  6
CONTINUOUS
 62
    7
 10
-904.28015149999999
 20
1067.1150210000001
 11
-904.27307149999979
 21
1067.147156
  0
LINE
  8
_0-0_0
  6
CONTINUOUS
 62
    7
 10
-904.27307149999979
 20
1067.147156
 11
-904.27111849999994
 21
1067.1822199999999
  0
LINE
  8
_0-0_0
  6
CONTINUOUS
 62
    7
 10
-904.27111849999994
 20
1067.1822199999999
 11
-904.27502449999963
 21
1067.218384
  0
LINE
  8
_0-0_0
  6
CONTINUOUS
 62
    7
 10
-904.27502449999963
 20
1067.218384
 11
-904.28320350000013
 21
1067.25
  0
ARC
  8
_0-0_0
  6
CONTINUOUS
 62
    7
 10
-905.78320350000013
 20
1068.5049739999999
 40
0.5
 50
179.99999099999999
 51
259.71343899999994
  0
LINE
  8
_0-0_0
  6
CONTINUOUS
 62
    7
 10
-921.28320350000001
 20
1065.75
 11
-921.28320350000001
 21
1052.1499939999999
  0
LINE
  8
_0-0_0
  6
CONTINUOUS
 62
    7
 10
-921.28320350000001
 20
1051.6499940000001
 11
-921.28320350000001
 21
1052.1499939999999
  0
LINE
  8
_0-0_0
  6
CONTINUOUS
 62
    7
 10
-921.28320350000001
 20
1048.6499940000001
 11
-921.28320350000001
 21
1051.6499940000001
  0
LINE
  8
_0-0_0
  6
CONTINUOUS
 62
    7
 10
-921.28320350000001
 20
1048.1499939999999
 11
-921.28320350000001
 21
1048.6499940000001
  0
ARC
  8
_0-0_0
  6
CONTINUOUS
 62
    7
 10
-919.28320350000013
 20
1065.75
 40
2
 50
93.840255999999997
 51
179.99999099999999
  0
LINE
  8
_0-0_0
  6
CONTINUOUS
 62
    7
 10
-919.28320350000013
 20
1067.75
 11
-910.28320350000013
 21
1067.75
  0
LINE
  8
_0-0_0
  6
CONTINUOUS
 62
    7
 10
-906.28320350000001
 20
1067.75
 11
-906.78320350000024
 21
1067.75
  0
LINE
  8
_0-0_0
  6
CONTINUOUS
 62
    7
 10
-906.78320350000024
 20
1067.75
 11
-909.78320350000024
 21
1067.75
  0
LINE
  8
_0-0_0
  6
CONTINUOUS
 62
    7
 10
-910.28320350000013
 20
1067.75
 11
-909.78320350000024
 21
1067.75
  0
ARC
  8
_0-0_0
  6
CONTINUOUS
 62
    7
 10
-906.28320350000001
 20
1065.75
 40
2
 50
0
 51
90.000003000000007
  0
LINE
  8
_0-0_0
  6
CONTINUOUS
 62
    7
 10
-922.28320350000013
 20
1068.75
 11
-922.08313050000015
 21
1068.75
  0
LINE
  8
_0-0_0
  6
CONTINUOUS
 62
    7
 10
-922.28320350000013
 20
1069.549988
 11
-922.08313050000015
 21
1069.549988
  0
LINE
  8
_0-0_0
  6
CONTINUOUS
 62
    7
 10
-922.28320350000013
 20
1069.549988
 11
-922.28320350000013
 21
1068.7501219999999
  0
LINE
  8
_0-0_0
  6
CONTINUOUS
 62
    7
 10
-922.28320350000013
 20
1049.9499819999999
 11
-922.08313050000015
 21
1049.9499819999999
  0
LINE
  8
_0-0_0
  6
CONTINUOUS
 62
    7
 10
-922.28320350000013
 20
1052.9499819999999
 11
-922.28320350000013
 21
1049.9499819999999
  0
LINE
  8
_0-0_0
  6
CONTINUOUS
 62
    7
 10
-922.28320350000013
 20
1065.1876830000001
 11
-922.28320350000013
 21
1052.9499819999999
  0
LINE
  8
_0-0_0
  6
CONTINUOUS
 62
    7
 10
-922.28320350000013
 20
1066.1504520000001
 11
-922.28320350000013
 21
1065.1876830000001
  0
ARC
  8
_0-0_0
  6
CONTINUOUS
 62
    7
 10
-921.58313050000027
 20
1059.4499820000001
 40
0.5
 50
90.000003000000007
 51
179.99999099999999
  0
ARC
  8
_0-0_0
  6
CONTINUOUS
 62
    7
 10
-921.58313050000027
 20
1054.4499819999999
 40
0.5
 50
179.99999099999999
 51
269.99999700000001
  0
LINE
  8
_0-0_0
  6
CONTINUOUS
 62
    7
 10
-922.08313050000015
 20
1043.25
 11
-921.58313050000027
 21
1043.25
  0
LINE
  8
_0-0_0
  6
CONTINUOUS
 62
    7
 10
-922.08313050000015
 20
1043.25
 11
-921.58313050000027
 21
1042.75
  0
LINE
  8
_0-0_0
  6
CONTINUOUS
 62
    7
 10
-904.08313050000015
 20
1049.950012
 11
-904.08313050000015
 21
1048.799988
  0
ARC
  8
_0-0_0
  6
CONTINUOUS
 62
    7
 10
-906.48315449999961
 20
1048.799988
 40
2.3999999999999999
 50
359.58604600000001
 51
0.0000099999999787
  0
LINE
  8
_0-0_0
  6
CONTINUOUS
 62
    7
 10
-903.28320350000001
 20
1066.1504520000001
 11
-903.28320350000001
 21
1068.75
  0
LINE
  8
_0-0_0
  6
CONTINUOUS
 62
    7
 10
-904.28320350000013
 20
1067.049988
 11
-904.34448250000025
 21
1067.049988
  0
LINE
  8
_0-0_0
  6
CONTINUOUS
 62
    7
 10
-904.38574250000011
 20
1067.049988
 11
-904.38806149999971
 21
1067.049988
  0
LINE
  8
_0-0_0
  6
CONTINUOUS
 62
    7
 10
-904.58313050000004
 20
1043.25
 11
-921.58313050000027
 21
1043.25
  0
LINE
  8
_0-0_0
  6
CONTINUOUS
 62
    7
 10
-904.5196535
 20
1047.049988
 11
-904.48278849999997
 21
1046.9797669999998
  0
LINE
  8
_0-0_0
  6
CONTINUOUS
 62
    7
 10
-904.48278849999997
 20
1046.9797669999998
 11
-904.4631344999998
 21
1046.9452820000001
  0
LINE
  8
_0-0_0
  6
CONTINUOUS
 62
    7
 10
-904.4631344999998
 20
1046.9452820000001
 11
-904.43713349999996
 21
1046.9034419999998
  0
LINE
  8
_0-0_0
  6
CONTINUOUS
 62
    7
 10
-904.43713349999996
 20
1046.9034419999998
 11
-904.42382850000013
 21
1046.884399
  0
LINE
  8
_0-0_0
  6
CONTINUOUS
 62
    7
 10
-904.42382850000013
 20
1046.884399
 11
-904.40539549999994
 21
1046.8620000000001
  0
LINE
  8
_0-0_0
  6
CONTINUOUS
 62
    7
 10
-904.40539549999994
 20
1046.8620000000001
 11
-904.39257850000024
 21
1046.8513790000002
  0
LINE
  8
_0-0_0
  6
CONTINUOUS
 62
    7
 10
-904.39257850000024
 20
1046.8513790000002
 11
-904.38806149999971
 21
1046.849976
  0
LINE
  8
_0-0_0
  6
CONTINUOUS
 62
    7
 10
-904.38574250000011
 20
1046.849976
 11
-904.38806149999971
 21
1046.849976
  0
LINE
  8
_0-0_0
  6
CONTINUOUS
 62
    7
 10
-904.5196535
 20
1066.849976
 11
-904.48278849999997
 21
1066.9202270000001
  0
LINE
  8
_0-0_0
  6
CONTINUOUS
 62
    7
 10
-904.48278849999997
 20
1066.9202270000001
 11
-904.4631344999998
 21
1066.9546810000002
  0
LINE
  8
_0-0_0
  6
CONTINUOUS
 62
    7
 10
-904.4631344999998
 20
1066.9546810000002
 11
-904.43713349999996
 21
1066.996521
  0
LINE
  8
_0-0_0
  6
CONTINUOUS
 62
    7
 10
-904.43713349999996
 20
1066.996521
 11
-904.42382850000013
 21
1067.015564
  0
LINE
  8
_0-0_0
  6
CONTINUOUS
 62
    7
 10
-904.42382850000013
 20
1067.015564
 11
-904.40539549999994
 21
1067.0379640000001
  0
LINE
  8
_0-0_0
  6
CONTINUOUS
 62
    7
 10
-904.40539549999994
 20
1067.0379640000001
 11
-904.39257850000024
 21
1067.0485840000001
  0
LINE
  8
_0-0_0
  6
CONTINUOUS
 62
    7
 10
-904.39257850000024
 20
1067.0485840000001
 11
-904.38806149999971
 21
1067.049988
  0
LINE
  8
_0-0_0
  6
CONTINUOUS
 62
    7
 10
-904.38574250000011
 20
1046.849976
 11
-904.34448250000025
 21
1046.849976
  0
LINE
  8
_0-0_0
  6
CONTINUOUS
 62
    7
 10
-904.28320350000013
 20
1046.849976
 11
-904.34448250000025
 21
1046.849976
  0
LINE
  8
_0-0_0
  6
CONTINUOUS
 62
    7
 10
-904.34448250000025
 20
1046.849976
 11
-904.33496149999974
 21
1046.8489379999999
  0
LINE
  8
_0-0_0
  6
CONTINUOUS
 62
    7
 10
-904.33496149999974
 20
1046.8489379999999
 11
-904.32543950000024
 21
1046.8457639999999
  0
LINE
  8
_0-0_0
  6
CONTINUOUS
 62
    7
 10
-904.32543950000024
 20
1046.8457639999999
 11
-904.31616250000013
 21
1046.840363
  0
LINE
  8
_0-0_0
  6
CONTINUOUS
 62
    7
 10
-904.31616250000013
 20
1046.840363
 11
-904.30737349999981
 21
1046.8328549999999
  0
LINE
  8
_0-0_0
  6
CONTINUOUS
 62
    7
 10
-904.30737349999981
 20
1046.8328549999999
 11
-904.29199250000011
 21
1046.8122250000001
  0
LINE
  8
_0-0_0
  6
CONTINUOUS
 62
    7
 10
-904.29199250000011
 20
1046.8122250000001
 11
-904.28015149999999
 21
1046.7849430000001
  0
LINE
  8
_0-0_0
  6
CONTINUOUS
 62
    7
 10
-904.28015149999999
 20
1046.7849430000001
 11
-904.27307149999979
 21
1046.752808
  0
LINE
  8
_0-0_0
  6
CONTINUOUS
 62
    7
 10
-904.27307149999979
 20
1046.752808
 11
-904.27111849999994
 21
1046.7177429999999
  0
LINE
  8
_0-0_0
  6
CONTINUOUS
 62
    7
 10
-904.27111849999994
 20
1046.7177429999999
 11
-904.27502449999963
 21
1046.6815799999999
  0
LINE
  8
_0-0_0
  6
CONTINUOUS
 62
    7
 10
-904.27502449999963
 20
1046.6815799999999
 11
-904.28320350000013
 21
1046.6499939999999
  0
ARC
  8
_0-0_0
  6
CONTINUOUS
 62
    7
 10
-906.28320350000001
 20
1048.1499939999999
 40
2.2999999999999998
 50
280.28656300000006
 51
325.58260500000006
  0
LINE
  8
_0-0_0
  6
CONTINUOUS
 62
    7
 10
-904.58313050000004
 20
1043.6499939999999
 11
-905.78320350000013
 21
1043.6499939999999
  0
LINE
  8
_0-0_0
  6
CONTINUOUS
 62
    7
 10
-904.58313050000004
 20
1042.75
 11
-921.58313050000027
 21
1042.75
  0
LINE
  8
_0-0_0
  6
CONTINUOUS
 62
    7
 10
-921.28320350000001
 20
1059.9499820000001
 11
-921.58313050000027
 21
1059.9499820000001
  0
ARC
  8
_0-0_0
  6
CONTINUOUS
 62
    7
 10
-920.78320350000013
 20
1052.1499939999999
 40
0.5
 50
179.99999099999999
 51
269.99999700000001
  0
CIRCLE
  8
_0-0_0
  6
CONTINUOUS
 62
    7
 10
-918.78320350000024
 20
1048.6499940000001
 40
2.5
  0
LINE
  8
_0-0_0
  6
CONTINUOUS
 62
    7
 10
-915.78320350000024
 20
1046.1499939999999
 11
-918.78320350000024
 21
1046.1499939999999
  0
LINE
  8
_0-0_0
  6
CONTINUOUS
 62
    7
 10
-915.28320350000001
 20
1046.1499939999999
 11
-915.78320350000024
 21
1046.1499939999999
  0
ARC
  8
_0-0_0
  6
CONTINUOUS
 62
    7
 10
-919.28320350000013
 20
1048.1499939999999
 40
2
 50
179.99999099999999
 51
269.99999700000001
  0
LINE
  8
_0-0_0
  6
CONTINUOUS
 62
    7
 10
-918.78320350000024
 20
1046.1499939999999
 11
-919.28320350000013
 21
1046.1499939999999
  0
LINE
  8
_0-0_0
  6
CONTINUOUS
 62
    7
 10
-919.28320350000013
 20
1067.6473390000001
 11
-919.29907249999997
 21
1067.674591
  0
LINE
  8
_0-0_0
  6
CONTINUOUS
 62
    7
 10
-919.29907249999997
 20
1067.674591
 11
-919.3149414999998
 21
1067.6975709999999
  0
LINE
  8
_0-0_0
  6
CONTINUOUS
 62
    7
 10
-919.3149414999998
 20
1067.6975709999999
 11
-919.32885750000014
 21
1067.7143249999999
  0
LINE
  8
_0-0_0
  6
CONTINUOUS
 62
    7
 10
-919.32885750000014
 20
1067.7143249999999
 11
-919.34277350000013
 21
1067.7276609999999
  0
LINE
  8
_0-0_0
  6
CONTINUOUS
 62
    7
 10
-919.34277350000013
 20
1067.7276609999999
 11
-919.35498050000035
 21
1067.7366029999998
  0
LINE
  8
_0-0_0
  6
CONTINUOUS
 62
    7
 10
-919.35498050000035
 20
1067.7366029999998
 11
-919.36706550000019
 21
1067.742798
  0
LINE
  8
_0-0_0
  6
CONTINUOUS
 62
    7
 10
-919.36706550000019
 20
1067.742798
 11
-919.37792950000005
 21
1067.7460940000001
  0
LINE
  8
_0-0_0
  6
CONTINUOUS
 62
    7
 10
-919.37792950000005
 20
1067.7460940000001
 11
-919.38867250000021
 21
1067.7471310000001
  0
LINE
  8
_0-0_0
  6
CONTINUOUS
 62
    7
 10
-919.38867250000021
 20
1067.7471310000001
 11
-919.39123550000022
 21
1067.7470699999999
  0
LINE
  8
_0-0_0
  6
CONTINUOUS
 62
    7
 10
-904.28320350000013
 20
1065.25
 11
-904.28320350000013
 21
1065.75
  0
CIRCLE
  8
_0-0_0
  6
CONTINUOUS
 62
    7
 10
-906.78320350000024
 20
1065.25
 40
2.5
  0
LINE
  8
_0-0_0
  6
CONTINUOUS
 62
    7
 10
-904.28320350000013
 20
1062.25
 11
-904.28320350000013
 21
1061.75
  0
LINE
  8
_0-0_0
  6
CONTINUOUS
 62
    7
 10
-904.28320350000013
 20
1062.25
 11
-904.28320350000013
 21
1065.25
  0
ARC
  8
_0-0_0
  6
CONTINUOUS
 62
    7
 10
-910.28320350000013
 20
1067.25
 40
0.5
 50
0
 51
90.000003000000007
  0
LINE
  8
_0-0_0
  6
CONTINUOUS
 62
    7
 10
-904.28320350000013
 20
1048.1499939999999
 11
-904.28320350000013
 21
1061.75
  0
LINE
  8
_0-0_0
  6
CONTINUOUS
 62
    7
 10
-922.28320350000013
 20
1068.75
 11
-922.28320350000013
 21
1066.1504520000001
  0
LINE
  8
_0-0_0
  6
CONTINUOUS
 62
    7
 10
-921.58313050000027
 20
1053.9499820000001
 11
-921.28320350000001
 21
1053.9499820000001
  0
LINE
  8
_0-0_0
  6
CONTINUOUS
 62
    7
 10
-904.08313050000015
 20
1069.5500489999999
 11
-904.08313050000015
 21
1069.75
  0
ARC
  8
_0-0_0
  6
CONTINUOUS
 62
    7
 10
-906.28320350000001
 20
1048.1499939999999
 40
2
 50
273.84026500000004
 51
0.000010000000014
  0
LINE
  8
_0-0_0
  6
CONTINUOUS
 62
    7
 10
-906.28320350000001
 20
1046.1499939999999
 11
-915.28320350000001
 21
1046.1499939999999
  0
ARC
  8
_0-0_0
  6
CONTINUOUS
 62
    7
 10
-905.78320350000013
 20
1045.3949889999999
 40
0.5
 50
100.28656100000001
 51
179.99999099999999
  0
LINE
  8
_0-0_0
  6
CONTINUOUS
 62
    7
 10
-906.28320350000001
 20
1044.1499940000001
 11
-906.28320350000001
 21
1045.3949889999999
  0
ARC
  8
_0-0_0
  6
CONTINUOUS
 62
    7
 10
-905.78320350000013
 20
1044.1499940000001
 40
0.5
 50
179.99999099999999
 51
269.99999700000001
  0
LINE
  8
_0-0_0
  6
CONTINUOUS
 62
    7
 10
-920.70617649999986
 20
1051.6499940000001
 11
-920.78320350000013
 21
1051.6499940000001
  0
LINE
  8
_0-0_0
  6
CONTINUOUS
 62
    7
 10
-918.78320350000024
 20
1051.6499940000001
 11
-919.26464849999991
 21
1051.6499940000001
  0
LINE
  8
_0-0_0
  6
CONTINUOUS
 62
    7
 10
-919.26464849999991
 20
1051.6499940000001
 11
-920.70617649999986
 21
1051.6499940000001
  0
LINE
  8
_0-0_0
  6
CONTINUOUS
 62
    7
 10
-915.78320350000024
 20
1046.6499939999999
 11
-915.78320350000024
 21
1046.7269590000001
  0
LINE
  8
_0-0_0
  6
CONTINUOUS
 62
    7
 10
-915.78320350000024
 20
1048.168488
 11
-915.78320350000024
 21
1046.7269590000001
  0
LINE
  8
_0-0_0
  6
CONTINUOUS
 62
    7
 10
-915.78320350000024
 20
1048.168488
 11
-915.78320350000024
 21
1048.6499940000001
  0
ARC
  8
_0-0_0
  6
CONTINUOUS
 62
    7
 10
-918.78320350000024
 20
1048.6499940000001
 40
3
 50
0
 51
89.999995999999996
  0
ARC
  8
_0-0_0
  6
CONTINUOUS
 62
    7
 10
-915.28320350000001
 20
1046.6499939999999
 40
0.5
 50
179.99999099999999
 51
269.99999700000001
  0
LINE
  8
_0-0_0
  6
CONTINUOUS
 62
    7
 10
-909.78320350000024
 20
1067.173004
 11
-909.78320350000024
 21
1067.25
  0
LINE
  8
_0-0_0
  6
CONTINUOUS
 62
    7
 10
-909.78320350000024
 20
1065.7314759999999
 11
-909.78320350000024
 21
1067.173004
  0
LINE
  8
_0-0_0
  6
CONTINUOUS
 62
    7
 10
-909.78320350000024
 20
1065.25
 11
-909.78320350000024
 21
1065.7314759999999
  0
ARC
  8
_0-0_0
  6
CONTINUOUS
 62
    7
 10
-906.78320350000024
 20
1065.25
 40
3
 50
179.99999099999999
 51
269.99999700000001
  0
LINE
  8
_0-0_0
  6
CONTINUOUS
 62
    7
 10
-906.30163549999986
 20
1062.25
 11
-906.78320350000024
 21
1062.25
  0
LINE
  8
_0-0_0
  6
CONTINUOUS
 62
    7
 10
-906.30163549999986
 20
1062.25
 11
-904.86010750000025
 21
1062.25
  0
LINE
  8
_0-0_0
  6
CONTINUOUS
 62
    7
 10
-904.78320350000001
 20
1062.25
 11
-904.86010750000025
 21
1062.25
  0
ARC
  8
_0-0_0
  6
CONTINUOUS
 62
    7
 10
-904.78320350000001
 20
1061.75
 40
0.5
 50
0
 51
90.000003000000007
  0
LINE
  8
_0-0_0
  6
CONTINUOUS
 62
    7
 10
-906.28320350000001
 20
1046.2526250000001
 11
-906.26733450000017
 21
1046.2253719999999
  0
LINE
  8
_0-0_0
  6
CONTINUOUS
 62
    7
 10
-906.26733450000017
 20
1046.2253719999999
 11
-906.2514645
 21
1046.202393
  0
LINE
  8
_0-0_0
  6
CONTINUOUS
 62
    7
 10
-906.2514645
 20
1046.202393
 11
-906.23742649999997
 21
1046.1856379999999
  0
LINE
  8
_0-0_0
  6
CONTINUOUS
 62
    7
 10
-906.23742649999997
 20
1046.1856379999999
 11
-906.22351049999997
 21
1046.1723019999999
  0
LINE
  8
_0-0_0
  6
CONTINUOUS
 62
    7
 10
-906.22351049999997
 20
1046.1723019999999
 11
-906.2113035000001
 21
1046.163391
  0
LINE
  8
_0-0_0
  6
CONTINUOUS
 62
    7
 10
-906.2113035000001
 20
1046.163391
 11
-906.19921849999992
 21
1046.157166
  0
LINE
  8
_0-0_0
  6
CONTINUOUS
 62
    7
 10
-906.19921849999992
 20
1046.157166
 11
-906.18835450000006
 21
1046.1539
  0
LINE
  8
_0-0_0
  6
CONTINUOUS
 62
    7
 10
-906.18835450000006
 20
1046.1539
 11
-906.17761250000024
 21
1046.152832
  0
LINE
  8
_0-0_0
  6
CONTINUOUS
 62
    7
 10
-906.17761250000024
 20
1046.152832
 11
-906.17517149999992
 21
1046.1528929999999
  0
ARC
  8
_0-0_0
  6
CONTINUOUS
 62
    7
 10
-916.01330550000011
 20
1055.7767329999999
 40
3.0633990000000004
 50
199.82113599999997
 51
205.28948099999999
  0
ARC
  8
_0-0_0
  6
CONTINUOUS
 62
    7
 10
-916.01354949999984
 20
1058.1233520000001
 40
3.0630550000000003
 50
154.710137
 51
160.17869999999999
  0
ARC
  8
_0-0_0
  6
CONTINUOUS
 62
    7
 10
-912.78320350000024
 20
1056.9499820000001
 40
6.5
 50
160.10415599999999
 51
199.895612
  0
ARC
  8
_0-0_0
  6
CONTINUOUS
 62
    7
 10
-909.55297849999999
 20
1058.1232299999999
 40
3.0633949999999999
 50
19.82113
 51
25.289566000000001
  0
ARC
  8
_0-0_0
  6
CONTINUOUS
 62
    7
 10
-909.55273449999993
 20
1055.776611
 40
3.0630519999999999
 50
334.71006
 51
340.17869200000001
  0
LINE
  8
_0-0_0
  6
CONTINUOUS
 62
    7
 10
-912.04150450000009
 20
1050.4499820000001
 11
-907.52478050000002
 21
1053.0576780000001
  0
LINE
  8
_0-0_0
  6
CONTINUOUS
 62
    7
 10
-913.52478050000002
 20
1050.4499820000001
 11
-912.04150450000009
 21
1050.4499820000001
  0
LINE
  8
_0-0_0
  6
CONTINUOUS
 62
    7
 10
-918.04150450000009
 20
1053.0576780000001
 11
-913.52478050000002
 21
1050.4499820000001
  0
LINE
  8
_0-0_0
  6
CONTINUOUS
 62
    7
 10
-918.78320350000024
 20
1059.5576780000001
 11
-918.78320350000024
 21
1054.3422849999999
  0
LINE
  8
_0-0_0
  6
CONTINUOUS
 62
    7
 10
-918.04150450000009
 20
1053.0576780000001
 11
-918.78320350000024
 21
1054.3422849999999
  0
LINE
  8
_0-0_0
  6
CONTINUOUS
 62
    7
 10
-913.52478050000002
 20
1063.4499819999999
 11
-918.04150450000009
 21
1060.8422850000002
  0
LINE
  8
_0-0_0
  6
CONTINUOUS
 62
    7
 10
-918.33557149999979
 20
1060.3328549999999
 11
-918.78320350000024
 21
1059.5576780000001
  0
LINE
  8
_0-0_0
  6
CONTINUOUS
 62
    7
 10
-918.33557149999979
 20
1060.3328549999999
 11
-918.04150450000009
 21
1060.8422850000002
  0
LINE
  8
_0-0_0
  6
CONTINUOUS
 62
    7
 10
-912.04150450000009
 20
1063.4499819999999
 11
-913.52478050000002
 21
1063.4499819999999
  0
LINE
  8
_0-0_0
  6
CONTINUOUS
 62
    7
 10
-907.52478050000002
 20
1060.8422850000002
 11
-912.04150450000009
 21
1063.4499819999999
  0
ARC
  8
_0-0_0
  6
CONTINUOUS
 62
    7
 10
-912.78320350000024
 20
1056.9499820000001
 40
6.5
 50
340.10416099999998
 51
19.895609999999952
  0
LINE
  8
_0-0_0
  6
CONTINUOUS
 62
    7
 10
-907.23071349999998
 20
1053.567108
 11
-906.78320350000024
 21
1054.3422849999999
  0
LINE
  8
_0-0_0
  6
CONTINUOUS
 62
    7
 10
-907.23071349999998
 20
1053.567108
 11
-907.52478050000002
 21
1053.0576780000001
  0
CIRCLE
  8
_0-0_0
  6
CONTINUOUS
 62
    7
 10
-912.78320350000024
 20
1056.9499820000001
 40
5.25
  0
LINE
  8
_0-0_0
  6
CONTINUOUS
 62
    7
 10
-906.78320350000024
 20
1059.5576780000001
 11
-906.78320350000024
 21
1054.3422849999999
  0
LINE
  8
_0-0_0
  6
CONTINUOUS
 62
    7
 10
-907.52478050000002
 20
1060.8422850000002
 11
-906.78320350000024
 21
1059.5576780000001
  0
LINE
  8
_0-0_0
  6
CONTINUOUS
 62
    7
 10
-904.89611849999972
 20
1066.4754330000001
 11
-904.61804250000023
 21
1066.5
  0
LINE
  8
_0-0_0
  6
CONTINUOUS
 62
    7
 10
-904.7784425000001
 20
1066.2714539999999
 11
-904.61804250000023
 21
1066.5
  0
LINE
  8
_0-0_0
  6
CONTINUOUS
 62
    7
 10
-905.03454650000015
 20
1066.6659549999999
 11
-904.76062050000007
 21
1066.719452
  0
LINE
  8
_0-0_0
  6
CONTINUOUS
 62
    7
 10
-904.89611849999972
 20
1066.4754330000001
 11
-904.76062050000007
 21
1066.719452
  0
LINE
  8
_0-0_0
  6
CONTINUOUS
 62
    7
 10
-905.19213849999994
 20
1066.8409729999998
 11
-904.92529350000007
 21
1066.9228210000001
  0
LINE
  8
_0-0_0
  6
CONTINUOUS
 62
    7
 10
-905.03454650000015
 20
1066.6659549999999
 11
-904.92529350000007
 21
1066.9228210000001
  0
LINE
  8
_0-0_0
  6
CONTINUOUS
 62
    7
 10
-905.3671875
 20
1066.998566
 11
-905.11035150000009
 21
1067.107849
  0
LINE
  8
_0-0_0
  6
CONTINUOUS
 62
    7
 10
-905.19213849999994
 20
1066.8409729999998
 11
-905.11035150000009
 21
1067.107849
  0
LINE
  8
_0-0_0
  6
CONTINUOUS
 62
    7
 10
-905.55773950000014
 20
1067.1369930000001
 11
-905.31372050000027
 21
1067.272522
  0
LINE
  8
_0-0_0
  6
CONTINUOUS
 62
    7
 10
-905.3671875
 20
1066.998566
 11
-905.31372050000027
 21
1067.272522
  0
LINE
  8
_0-0_0
  6
CONTINUOUS
 62
    7
 10
-905.7617184999998
 20
1067.2547609999999
 11
-905.53320350000001
 21
1067.415039
  0
LINE
  8
_0-0_0
  6
CONTINUOUS
 62
    7
 10
-905.55773950000014
 20
1067.1369930000001
 11
-905.53320350000001
 21
1067.415039
  0
LINE
  8
_0-0_0
  6
CONTINUOUS
 62
    7
 10
-905.97680649999973
 20
1067.3505249999998
 11
-905.76635750000003
 21
1067.533844
  0
LINE
  8
_0-0_0
  6
CONTINUOUS
 62
    7
 10
-905.7617184999998
 20
1067.2547609999999
 11
-905.76635750000003
 21
1067.533844
  0
LINE
  8
_0-0_0
  6
CONTINUOUS
 62
    7
 10
-906.2008055
 20
1067.423309
 11
-906.0106205000003
 21
1067.6276250000001
  0
LINE
  8
_0-0_0
  6
CONTINUOUS
 62
    7
 10
-905.97680649999973
 20
1067.3505249999998
 11
-906.0106205000003
 21
1067.6276250000001
  0
LINE
  8
_0-0_0
  6
CONTINUOUS
 62
    7
 10
-906.43115250000028
 20
1067.4722899999999
 11
-906.26342750000015
 21
1067.6953429999999
  0
LINE
  8
_0-0_0
  6
CONTINUOUS
 62
    7
 10
-906.2008055
 20
1067.423309
 11
-906.26342750000015
 21
1067.6953429999999
  0
LINE
  8
_0-0_0
  6
CONTINUOUS
 62
    7
 10
-906.66540549999991
 20
1067.496887
 11
-906.52185050000014
 21
1067.736298
  0
LINE
  8
_0-0_0
  6
CONTINUOUS
 62
    7
 10
-906.43115250000028
 20
1067.4722899999999
 11
-906.52185050000014
 21
1067.736298
  0
LINE
  8
_0-0_0
  6
CONTINUOUS
 62
    7
 10
-906.90087949999986
 20
1067.496887
 11
-906.78320350000024
 21
1067.75
  0
LINE
  8
_0-0_0
  6
CONTINUOUS
 62
    7
 10
-906.66540549999991
 20
1067.496887
 11
-906.78320350000024
 21
1067.75
  0
LINE
  8
_0-0_0
  6
CONTINUOUS
 62
    7
 10
-907.13513150000017
 20
1067.4722899999999
 11
-907.04443350000031
 21
1067.736298
  0
LINE
  8
_0-0_0
  6
CONTINUOUS
 62
    7
 10
-906.90087949999986
 20
1067.496887
 11
-907.04443350000031
 21
1067.736298
  0
LINE
  8
_0-0_0
  6
CONTINUOUS
 62
    7
 10
-907.36547849999977
 20
1067.423309
 11
-907.30297849999999
 21
1067.6953429999999
  0
LINE
  8
_0-0_0
  6
CONTINUOUS
 62
    7
 10
-907.13513150000017
 20
1067.4722899999999
 11
-907.30297849999999
 21
1067.6953429999999
  0
LINE
  8
_0-0_0
  6
CONTINUOUS
 62
    7
 10
-907.5894774999997
 20
1067.3505249999998
 11
-907.55566450000015
 21
1067.6276250000001
  0
LINE
  8
_0-0_0
  6
CONTINUOUS
 62
    7
 10
-907.36547849999977
 20
1067.423309
 11
-907.55566450000015
 21
1067.6276250000001
  0
LINE
  8
_0-0_0
  6
CONTINUOUS
 62
    7
 10
-907.8046875
 20
1067.2547609999999
 11
-907.80004850000012
 21
1067.533844
  0
LINE
  8
_0-0_0
  6
CONTINUOUS
 62
    7
 10
-907.5894774999997
 20
1067.3505249999998
 11
-907.80004850000012
 21
1067.533844
  0
LINE
  8
_0-0_0
  6
CONTINUOUS
 62
    7
 10
-907.92419450000045
 20
1067.3385929999999
 11
-908.03320350000013
 21
1067.415039
  0
LINE
  8
_0-0_0
  6
CONTINUOUS
 62
    7
 10
-907.8046875
 20
1067.2547609999999
 11
-907.92419450000045
 21
1067.3385929999999
  0
LINE
  8
_0-0_0
  6
CONTINUOUS
 62
    7
 10
-908.00854549999997
 20
1067.1369930000001
 11
-908.03320350000013
 21
1067.415039
  0
LINE
  8
_0-0_0
  6
CONTINUOUS
 62
    7
 10
-908.19909650000011
 20
1066.998566
 11
-908.25256350000018
 21
1067.272522
  0
LINE
  8
_0-0_0
  6
CONTINUOUS
 62
    7
 10
-908.00854549999997
 20
1067.1369930000001
 11
-908.25256350000018
 21
1067.272522
  0
LINE
  8
_0-0_0
  6
CONTINUOUS
 62
    7
 10
-908.37414549999983
 20
1066.8409729999998
 11
-908.45593250000002
 21
1067.107849
  0
LINE
  8
_0-0_0
  6
CONTINUOUS
 62
    7
 10
-908.19909650000011
 20
1066.998566
 11
-908.45593250000002
 21
1067.107849
  0
LINE
  8
_0-0_0
  6
CONTINUOUS
 62
    7
 10
-908.53173849999996
 20
1066.6659549999999
 11
-908.64099150000038
 21
1066.9228210000001
  0
LINE
  8
_0-0_0
  6
CONTINUOUS
 62
    7
 10
-908.37414549999983
 20
1066.8409729999998
 11
-908.64099150000038
 21
1066.9228210000001
  0
LINE
  8
_0-0_0
  6
CONTINUOUS
 62
    7
 10
-908.67016650000005
 20
1066.4754330000001
 11
-908.80566450000003
 21
1066.719452
  0
LINE
  8
_0-0_0
  6
CONTINUOUS
 62
    7
 10
-908.53173849999996
 20
1066.6659549999999
 11
-908.80566450000003
 21
1066.719452
  0
LINE
  8
_0-0_0
  6
CONTINUOUS
 62
    7
 10
-908.78796350000005
 20
1066.2714539999999
 11
-908.94824250000022
 21
1066.5
  0
LINE
  8
_0-0_0
  6
CONTINUOUS
 62
    7
 10
-908.67016650000005
 20
1066.4754330000001
 11
-908.94824250000022
 21
1066.5
  0
LINE
  8
_0-0_0
  6
CONTINUOUS
 62
    7
 10
-908.88366750000023
 20
1066.0563050000001
 11
-909.06701650000014
 21
1066.266815
  0
LINE
  8
_0-0_0
  6
CONTINUOUS
 62
    7
 10
-908.78796350000005
 20
1066.2714539999999
 11
-909.06701650000014
 21
1066.266815
  0
LINE
  8
_0-0_0
  6
CONTINUOUS
 62
    7
 10
-908.95654350000007
 20
1065.8323359999999
 11
-909.16076650000014
 21
1066.022522
  0
LINE
  8
_0-0_0
  6
CONTINUOUS
 62
    7
 10
-908.88366750000023
 20
1066.0563050000001
 11
-909.16076650000014
 21
1066.022522
  0
LINE
  8
_0-0_0
  6
CONTINUOUS
 62
    7
 10
-909.00549349999994
 20
1065.6019590000001
 11
-909.22851549999996
 21
1065.769775
  0
LINE
  8
_0-0_0
  6
CONTINUOUS
 62
    7
 10
-908.95654350000007
 20
1065.8323359999999
 11
-909.22851549999996
 21
1065.769775
  0
LINE
  8
_0-0_0
  6
CONTINUOUS
 62
    7
 10
-909.00549349999994
 20
1065.6019590000001
 11
-909.26940949999971
 21
1065.5112920000001
  0
LINE
  8
_0-0_0
  6
CONTINUOUS
 62
    7
 10
-909.03002949999973
 20
1065.367737
 11
-909.26940949999971
 21
1065.5112920000001
  0
LINE
  8
_0-0_0
  6
CONTINUOUS
 62
    7
 10
-909.03002949999973
 20
1065.132233
 11
-909.28320350000001
 21
1065.25
  0
LINE
  8
_0-0_0
  6
CONTINUOUS
 62
    7
 10
-909.03002949999973
 20
1065.367737
 11
-909.28320350000001
 21
1065.25
  0
LINE
  8
_0-0_0
  6
CONTINUOUS
 62
    7
 10
-909.00549349999994
 20
1064.8980099999999
 11
-909.26940949999971
 21
1064.9886470000001
  0
LINE
  8
_0-0_0
  6
CONTINUOUS
 62
    7
 10
-909.03002949999973
 20
1065.132233
 11
-909.26940949999971
 21
1064.9886470000001
  0
LINE
  8
_0-0_0
  6
CONTINUOUS
 62
    7
 10
-908.95654350000007
 20
1064.667633
 11
-909.22851549999996
 21
1064.730194
  0
LINE
  8
_0-0_0
  6
CONTINUOUS
 62
    7
 10
-909.00549349999994
 20
1064.8980099999999
 11
-909.22851549999996
 21
1064.730194
  0
LINE
  8
_0-0_0
  6
CONTINUOUS
 62
    7
 10
-908.88366750000023
 20
1064.443665
 11
-909.16076650000014
 21
1064.4774479999999
  0
LINE
  8
_0-0_0
  6
CONTINUOUS
 62
    7
 10
-908.95654350000007
 20
1064.667633
 11
-909.16076650000014
 21
1064.4774479999999
  0
LINE
  8
_0-0_0
  6
CONTINUOUS
 62
    7
 10
-908.78796350000005
 20
1064.2285160000001
 11
-909.06701650000014
 21
1064.233154
  0
LINE
  8
_0-0_0
  6
CONTINUOUS
 62
    7
 10
-908.88366750000023
 20
1064.443665
 11
-909.06701650000014
 21
1064.233154
  0
LINE
  8
_0-0_0
  6
CONTINUOUS
 62
    7
 10
-908.67016650000005
 20
1064.0245359999999
 11
-908.94824250000022
 21
1064
  0
LINE
  8
_0-0_0
  6
CONTINUOUS
 62
    7
 10
-908.78796350000005
 20
1064.2285160000001
 11
-908.94824250000022
 21
1064
  0
LINE
  8
_0-0_0
  6
CONTINUOUS
 62
    7
 10
-908.53173849999996
 20
1063.8340149999999
 11
-908.80566450000003
 21
1063.780518
  0
LINE
  8
_0-0_0
  6
CONTINUOUS
 62
    7
 10
-908.67016650000005
 20
1064.0245359999999
 11
-908.80566450000003
 21
1063.780518
  0
LINE
  8
_0-0_0
  6
CONTINUOUS
 62
    7
 10
-908.37414549999983
 20
1063.658997
 11
-908.64099150000038
 21
1063.5771479999999
  0
LINE
  8
_0-0_0
  6
CONTINUOUS
 62
    7
 10
-908.53173849999996
 20
1063.8340149999999
 11
-908.64099150000038
 21
1063.5771479999999
  0
LINE
  8
_0-0_0
  6
CONTINUOUS
 62
    7
 10
-908.19909650000011
 20
1063.5014040000001
 11
-908.45593250000002
 21
1063.39212
  0
LINE
  8
_0-0_0
  6
CONTINUOUS
 62
    7
 10
-908.37414549999983
 20
1063.658997
 11
-908.45593250000002
 21
1063.39212
  0
LINE
  8
_0-0_0
  6
CONTINUOUS
 62
    7
 10
-908.00854549999997
 20
1063.3629759999999
 11
-908.25256350000018
 21
1063.2274480000001
  0
LINE
  8
_0-0_0
  6
CONTINUOUS
 62
    7
 10
-908.19909650000011
 20
1063.5014040000001
 11
-908.25256350000018
 21
1063.2274480000001
  0
LINE
  8
_0-0_0
  6
CONTINUOUS
 62
    7
 10
-907.8046875
 20
1063.2452090000002
 11
-908.03320350000013
 21
1063.08493
  0
LINE
  8
_0-0_0
  6
CONTINUOUS
 62
    7
 10
-908.00854549999997
 20
1063.3629759999999
 11
-908.03320350000013
 21
1063.08493
  0
LINE
  8
_0-0_0
  6
CONTINUOUS
 62
    7
 10
-907.5894774999997
 20
1063.149414
 11
-907.80004850000012
 21
1062.9661249999999
  0
LINE
  8
_0-0_0
  6
CONTINUOUS
 62
    7
 10
-907.8046875
 20
1063.2452090000002
 11
-907.80004850000012
 21
1062.9661249999999
  0
LINE
  8
_0-0_0
  6
CONTINUOUS
 62
    7
 10
-907.36547849999977
 20
1063.0766599999999
 11
-907.55566450000015
 21
1062.872345
  0
LINE
  8
_0-0_0
  6
CONTINUOUS
 62
    7
 10
-907.5894774999997
 20
1063.149414
 11
-907.55566450000015
 21
1062.872345
  0
LINE
  8
_0-0_0
  6
CONTINUOUS
 62
    7
 10
-907.13513150000017
 20
1063.027679
 11
-907.30297849999999
 21
1062.8046260000001
  0
LINE
  8
_0-0_0
  6
CONTINUOUS
 62
    7
 10
-907.36547849999977
 20
1063.0766599999999
 11
-907.30297849999999
 21
1062.8046260000001
  0
LINE
  8
_0-0_0
  6
CONTINUOUS
 62
    7
 10
-906.90087949999986
 20
1063.003052
 11
-907.04443350000031
 21
1062.763672
  0
LINE
  8
_0-0_0
  6
CONTINUOUS
 62
    7
 10
-907.13513150000017
 20
1063.027679
 11
-907.04443350000031
 21
1062.763672
  0
LINE
  8
_0-0_0
  6
CONTINUOUS
 62
    7
 10
-906.66540549999991
 20
1063.003052
 11
-906.78320350000024
 21
1062.75
  0
LINE
  8
_0-0_0
  6
CONTINUOUS
 62
    7
 10
-906.90087949999986
 20
1063.003052
 11
-906.78320350000024
 21
1062.75
  0
LINE
  8
_0-0_0
  6
CONTINUOUS
 62
    7
 10
-906.43115250000028
 20
1063.027679
 11
-906.52185050000014
 21
1062.763672
  0
LINE
  8
_0-0_0
  6
CONTINUOUS
 62
    7
 10
-906.66540549999991
 20
1063.003052
 11
-906.52185050000014
 21
1062.763672
  0
LINE
  8
_0-0_0
  6
CONTINUOUS
 62
    7
 10
-906.2008055
 20
1063.0766599999999
 11
-906.26342750000015
 21
1062.8046260000001
  0
LINE
  8
_0-0_0
  6
CONTINUOUS
 62
    7
 10
-906.43115250000028
 20
1063.027679
 11
-906.26342750000015
 21
1062.8046260000001
  0
LINE
  8
_0-0_0
  6
CONTINUOUS
 62
    7
 10
-905.97680649999973
 20
1063.149414
 11
-906.0106205000003
 21
1062.872345
  0
LINE
  8
_0-0_0
  6
CONTINUOUS
 62
    7
 10
-906.2008055
 20
1063.0766599999999
 11
-906.0106205000003
 21
1062.872345
  0
LINE
  8
_0-0_0
  6
CONTINUOUS
 62
    7
 10
-905.7617184999998
 20
1063.2452090000002
 11
-905.76635750000003
 21
1062.9661249999999
  0
LINE
  8
_0-0_0
  6
CONTINUOUS
 62
    7
 10
-905.97680649999973
 20
1063.149414
 11
-905.76635750000003
 21
1062.9661249999999
  0
LINE
  8
_0-0_0
  6
CONTINUOUS
 62
    7
 10
-905.6420895
 20
1063.1613770000001
 11
-905.53320350000001
 21
1063.08493
  0
LINE
  8
_0-0_0
  6
CONTINUOUS
 62
    7
 10
-905.7617184999998
 20
1063.2452090000002
 11
-905.6420895
 21
1063.1613770000001
  0
LINE
  8
_0-0_0
  6
CONTINUOUS
 62
    7
 10
-905.55773950000014
 20
1063.3629759999999
 11
-905.53320350000001
 21
1063.08493
  0
LINE
  8
_0-0_0
  6
CONTINUOUS
 62
    7
 10
-905.3671875
 20
1063.5014040000001
 11
-905.31372050000027
 21
1063.2274480000001
  0
LINE
  8
_0-0_0
  6
CONTINUOUS
 62
    7
 10
-905.55773950000014
 20
1063.3629759999999
 11
-905.31372050000027
 21
1063.2274480000001
  0
LINE
  8
_0-0_0
  6
CONTINUOUS
 62
    7
 10
-905.19213849999994
 20
1063.658997
 11
-905.11035150000009
 21
1063.39212
  0
LINE
  8
_0-0_0
  6
CONTINUOUS
 62
    7
 10
-905.3671875
 20
1063.5014040000001
 11
-905.11035150000009
 21
1063.39212
  0
LINE
  8
_0-0_0
  6
CONTINUOUS
 62
    7
 10
-905.03454650000015
 20
1063.8340149999999
 11
-904.92529350000007
 21
1063.5771479999999
  0
LINE
  8
_0-0_0
  6
CONTINUOUS
 62
    7
 10
-905.19213849999994
 20
1063.658997
 11
-904.92529350000007
 21
1063.5771479999999
  0
LINE
  8
_0-0_0
  6
CONTINUOUS
 62
    7
 10
-904.89611849999972
 20
1064.0245359999999
 11
-904.76062050000007
 21
1063.780518
  0
LINE
  8
_0-0_0
  6
CONTINUOUS
 62
    7
 10
-905.03454650000015
 20
1063.8340149999999
 11
-904.76062050000007
 21
1063.780518
  0
LINE
  8
_0-0_0
  6
CONTINUOUS
 62
    7
 10
-904.7784425000001
 20
1064.2285160000001
 11
-904.61804250000023
 21
1064
  0
LINE
  8
_0-0_0
  6
CONTINUOUS
 62
    7
 10
-904.89611849999972
 20
1064.0245359999999
 11
-904.61804250000023
 21
1064
  0
LINE
  8
_0-0_0
  6
CONTINUOUS
 62
    7
 10
-904.68261750000022
 20
1064.443665
 11
-904.49926750000031
 21
1064.233154
  0
LINE
  8
_0-0_0
  6
CONTINUOUS
 62
    7
 10
-904.7784425000001
 20
1064.2285160000001
 11
-904.49926750000031
 21
1064.233154
  0
LINE
  8
_0-0_0
  6
CONTINUOUS
 62
    7
 10
-904.60986349999973
 20
1064.667633
 11
-904.40551750000031
 21
1064.4774479999999
  0
LINE
  8
_0-0_0
  6
CONTINUOUS
 62
    7
 10
-904.68261750000022
 20
1064.443665
 11
-904.40551750000031
 21
1064.4774479999999
  0
LINE
  8
_0-0_0
  6
CONTINUOUS
 62
    7
 10
-904.56091349999986
 20
1064.8980099999999
 11
-904.33776850000015
 21
1064.730194
  0
LINE
  8
_0-0_0
  6
CONTINUOUS
 62
    7
 10
-904.60986349999973
 20
1064.667633
 11
-904.33776850000015
 21
1064.730194
  0
LINE
  8
_0-0_0
  6
CONTINUOUS
 62
    7
 10
-904.53625550000004
 20
1065.132233
 11
-904.29687550000006
 21
1064.9886470000001
  0
LINE
  8
_0-0_0
  6
CONTINUOUS
 62
    7
 10
-904.56091349999986
 20
1064.8980099999999
 11
-904.29687550000006
 21
1064.9886470000001
  0
LINE
  8
_0-0_0
  6
CONTINUOUS
 62
    7
 10
-904.53625550000004
 20
1065.367737
 11
-904.28320350000013
 21
1065.25
  0
LINE
  8
_0-0_0
  6
CONTINUOUS
 62
    7
 10
-904.53625550000004
 20
1065.132233
 11
-904.28320350000013
 21
1065.25
  0
LINE
  8
_0-0_0
  6
CONTINUOUS
 62
    7
 10
-904.56091349999986
 20
1065.6019590000001
 11
-904.29687550000006
 21
1065.5112920000001
  0
LINE
  8
_0-0_0
  6
CONTINUOUS
 62
    7
 10
-904.53625550000004
 20
1065.367737
 11
-904.29687550000006
 21
1065.5112920000001
  0
LINE
  8
_0-0_0
  6
CONTINUOUS
 62
    7
 10
-904.60986349999973
 20
1065.8323359999999
 11
-904.33776850000015
 21
1065.769775
  0
LINE
  8
_0-0_0
  6
CONTINUOUS
 62
    7
 10
-904.56091349999986
 20
1065.6019590000001
 11
-904.33776850000015
 21
1065.769775
  0
LINE
  8
_0-0_0
  6
CONTINUOUS
 62
    7
 10
-904.68261750000022
 20
1066.0563050000001
 11
-904.40551750000031
 21
1066.022522
  0
LINE
  8
_0-0_0
  6
CONTINUOUS
 62
    7
 10
-904.60986349999973
 20
1065.8323359999999
 11
-904.40551750000031
 21
1066.022522
  0
LINE
  8
_0-0_0
  6
CONTINUOUS
 62
    7
 10
-904.7784425000001
 20
1066.2714539999999
 11
-904.49926750000031
 21
1066.266815
  0
LINE
  8
_0-0_0
  6
CONTINUOUS
 62
    7
 10
-904.68261750000022
 20
1066.0563050000001
 11
-904.49926750000031
 21
1066.266815
  0
CIRCLE
  8
_0-0_0
  6
CONTINUOUS
 62
    7
 10
-906.78320350000024
 20
1065.25
 40
2
  0
CIRCLE
  8
_0-0_0
  6
CONTINUOUS
 62
    7
 10
-912.78320350000024
 20
1056.9499820000001
 40
5
  0
LINE
  8
_0-0_0
  6
CONTINUOUS
 62
    7
 10
-906.20104950000007
 20
1064.25
 11
-907.36523450000004
 21
1064.25
  0
LINE
  8
_0-0_0
  6
CONTINUOUS
 62
    7
 10
-907.36523450000004
 20
1064.25
 11
-907.93310550000012
 21
1065.25
  0
LINE
  8
_0-0_0
  6
CONTINUOUS
 62
    7
 10
-907.93310550000012
 20
1065.25
 11
-907.36523450000004
 21
1066.25
  0
LINE
  8
_0-0_0
  6
CONTINUOUS
 62
    7
 10
-907.36523450000004
 20
1066.25
 11
-906.20104950000007
 21
1066.25
  0
LINE
  8
_0-0_0
  6
CONTINUOUS
 62
    7
 10
-906.20104950000007
 20
1066.25
 11
-905.63317850000033
 21
1065.25
  0
LINE
  8
_0-0_0
  6
CONTINUOUS
 62
    7
 10
-905.63317850000033
 20
1065.25
 11
-906.20104950000007
 21
1064.25
  0
CIRCLE
  8
_0-0_0
  6
CONTINUOUS
 62
    7
 10
-912.78320350000024
 20
1056.9499820000001
 40
4.5381200000000002
  0
CIRCLE
  8
_0-0_0
  6
CONTINUOUS
 62
    7
 10
-912.78320350000024
 20
1056.9499820000001
 40
4
  0
LINE
  8
_0-0_0
  6
CONTINUOUS
 62
    7
 10
-920.67016650000005
 20
1047.42453
 11
-920.94824250000022
 21
1047.3999939999999
  0
LINE
  8
_0-0_0
  6
CONTINUOUS
 62
    7
 10
-920.78796350000005
 20
1047.62851
 11
-920.94824250000022
 21
1047.3999939999999
  0
LINE
  8
_0-0_0
  6
CONTINUOUS
 62
    7
 10
-920.53173849999996
 20
1047.234009
 11
-920.80566450000003
 21
1047.180511
  0
LINE
  8
_0-0_0
  6
CONTINUOUS
 62
    7
 10
-920.67016650000005
 20
1047.42453
 11
-920.80566450000003
 21
1047.180511
  0
LINE
  8
_0-0_0
  6
CONTINUOUS
 62
    7
 10
-920.37414549999983
 20
1047.05899
 11
-920.64099150000038
 21
1046.977173
  0
LINE
  8
_0-0_0
  6
CONTINUOUS
 62
    7
 10
-920.53173849999996
 20
1047.234009
 11
-920.64099150000038
 21
1046.977173
  0
LINE
  8
_0-0_0
  6
CONTINUOUS
 62
    7
 10
-920.19909650000011
 20
1046.901398
 11
-920.45593250000002
 21
1046.7921139999999
  0
LINE
  8
_0-0_0
  6
CONTINUOUS
 62
    7
 10
-920.37414549999983
 20
1047.05899
 11
-920.45593250000002
 21
1046.7921139999999
  0
LINE
  8
_0-0_0
  6
CONTINUOUS
 62
    7
 10
-920.00854549999997
 20
1046.76297
 11
-920.25256350000018
 21
1046.6274410000001
  0
LINE
  8
_0-0_0
  6
CONTINUOUS
 62
    7
 10
-920.19909650000011
 20
1046.901398
 11
-920.25256350000018
 21
1046.6274410000001
  0
LINE
  8
_0-0_0
  6
CONTINUOUS
 62
    7
 10
-919.8046875
 20
1046.645203
 11
-920.03320350000013
 21
1046.4849239999999
  0
LINE
  8
_0-0_0
  6
CONTINUOUS
 62
    7
 10
-920.00854549999997
 20
1046.76297
 11
-920.03320350000013
 21
1046.4849239999999
  0
LINE
  8
_0-0_0
  6
CONTINUOUS
 62
    7
 10
-919.5894774999997
 20
1046.549438
 11
-919.80004850000012
 21
1046.366119
  0
LINE
  8
_0-0_0
  6
CONTINUOUS
 62
    7
 10
-919.8046875
 20
1046.645203
 11
-919.80004850000012
 21
1046.366119
  0
LINE
  8
_0-0_0
  6
CONTINUOUS
 62
    7
 10
-919.36547849999977
 20
1046.4766540000001
 11
-919.55566450000015
 21
1046.2723390000001
  0
LINE
  8
_0-0_0
  6
CONTINUOUS
 62
    7
 10
-919.5894774999997
 20
1046.549438
 11
-919.55566450000015
 21
1046.2723390000001
  0
LINE
  8
_0-0_0
  6
CONTINUOUS
 62
    7
 10
-919.13513150000017
 20
1046.4277039999999
 11
-919.30297849999999
 21
1046.20462
  0
LINE
  8
_0-0_0
  6
CONTINUOUS
 62
    7
 10
-919.36547849999977
 20
1046.4766540000001
 11
-919.30297849999999
 21
1046.20462
  0
LINE
  8
_0-0_0
  6
CONTINUOUS
 62
    7
 10
-918.90087949999986
 20
1046.4030760000001
 11
-919.04443350000031
 21
1046.1636960000001
  0
LINE
  8
_0-0_0
  6
CONTINUOUS
 62
    7
 10
-919.13513150000017
 20
1046.4277039999999
 11
-919.04443350000031
 21
1046.1636960000001
  0
LINE
  8
_0-0_0
  6
CONTINUOUS
 62
    7
 10
-918.66540549999991
 20
1046.4030760000001
 11
-918.78320350000024
 21
1046.1499939999999
  0
LINE
  8
_0-0_0
  6
CONTINUOUS
 62
    7
 10
-918.90087949999986
 20
1046.4030760000001
 11
-918.78320350000024
 21
1046.1499939999999
  0
LINE
  8
_0-0_0
  6
CONTINUOUS
 62
    7
 10
-918.43115250000028
 20
1046.4277039999999
 11
-918.52185050000014
 21
1046.1636960000001
  0
LINE
  8
_0-0_0
  6
CONTINUOUS
 62
    7
 10
-918.66540549999991
 20
1046.4030760000001
 11
-918.52185050000014
 21
1046.1636960000001
  0
LINE
  8
_0-0_0
  6
CONTINUOUS
 62
    7
 10
-918.2008055
 20
1046.4766540000001
 11
-918.26342750000015
 21
1046.20462
  0
LINE
  8
_0-0_0
  6
CONTINUOUS
 62
    7
 10
-918.43115250000028
 20
1046.4277039999999
 11
-918.26342750000015
 21
1046.20462
  0
LINE
  8
_0-0_0
  6
CONTINUOUS
 62
    7
 10
-917.97680649999973
 20
1046.549438
 11
-918.0106205000003
 21
1046.2723390000001
  0
LINE
  8
_0-0_0
  6
CONTINUOUS
 62
    7
 10
-918.2008055
 20
1046.4766540000001
 11
-918.0106205000003
 21
1046.2723390000001
  0
LINE
  8
_0-0_0
  6
CONTINUOUS
 62
    7
 10
-917.7617184999998
 20
1046.645203
 11
-917.76635750000003
 21
1046.366119
  0
LINE
  8
_0-0_0
  6
CONTINUOUS
 62
    7
 10
-917.97680649999973
 20
1046.549438
 11
-917.76635750000003
 21
1046.366119
  0
LINE
  8
_0-0_0
  6
CONTINUOUS
 62
    7
 10
-917.6420895
 20
1046.561371
 11
-917.53320350000001
 21
1046.4849239999999
  0
LINE
  8
_0-0_0
  6
CONTINUOUS
 62
    7
 10
-917.7617184999998
 20
1046.645203
 11
-917.6420895
 21
1046.561371
  0
LINE
  8
_0-0_0
  6
CONTINUOUS
 62
    7
 10
-917.55773950000014
 20
1046.76297
 11
-917.53320350000001
 21
1046.4849239999999
  0
LINE
  8
_0-0_0
  6
CONTINUOUS
 62
    7
 10
-917.3671875
 20
1046.901398
 11
-917.31372050000027
 21
1046.6274410000001
  0
LINE
  8
_0-0_0
  6
CONTINUOUS
 62
    7
 10
-917.55773950000014
 20
1046.76297
 11
-917.31372050000027
 21
1046.6274410000001
  0
LINE
  8
_0-0_0
  6
CONTINUOUS
 62
    7
 10
-917.19213849999994
 20
1047.05899
 11
-917.11035150000009
 21
1046.7921139999999
  0
LINE
  8
_0-0_0
  6
CONTINUOUS
 62
    7
 10
-917.3671875
 20
1046.901398
 11
-917.11035150000009
 21
1046.7921139999999
  0
LINE
  8
_0-0_0
  6
CONTINUOUS
 62
    7
 10
-917.03454650000015
 20
1047.234009
 11
-916.92529350000007
 21
1046.977173
  0
LINE
  8
_0-0_0
  6
CONTINUOUS
 62
    7
 10
-917.19213849999994
 20
1047.05899
 11
-916.92529350000007
 21
1046.977173
  0
LINE
  8
_0-0_0
  6
CONTINUOUS
 62
    7
 10
-916.89611849999972
 20
1047.42453
 11
-916.76062050000007
 21
1047.180511
  0
LINE
  8
_0-0_0
  6
CONTINUOUS
 62
    7
 10
-917.03454650000015
 20
1047.234009
 11
-916.76062050000007
 21
1047.180511
  0
LINE
  8
_0-0_0
  6
CONTINUOUS
 62
    7
 10
-916.7784425000001
 20
1047.62851
 11
-916.61804250000023
 21
1047.3999939999999
  0
LINE
  8
_0-0_0
  6
CONTINUOUS
 62
    7
 10
-916.89611849999972
 20
1047.42453
 11
-916.61804250000023
 21
1047.3999939999999
  0
LINE
  8
_0-0_0
  6
CONTINUOUS
 62
    7
 10
-916.68261750000022
 20
1047.843658
 11
-916.49926750000031
 21
1047.6331479999999
  0
LINE
  8
_0-0_0
  6
CONTINUOUS
 62
    7
 10
-916.7784425000001
 20
1047.62851
 11
-916.49926750000031
 21
1047.6331479999999
  0
LINE
  8
_0-0_0
  6
CONTINUOUS
 62
    7
 10
-916.60986349999973
 20
1048.0676270000001
 11
-916.40551750000031
 21
1047.8774410000001
  0
LINE
  8
_0-0_0
  6
CONTINUOUS
 62
    7
 10
-916.68261750000022
 20
1047.843658
 11
-916.40551750000031
 21
1047.8774410000001
  0
LINE
  8
_0-0_0
  6
CONTINUOUS
 62
    7
 10
-916.56091349999986
 20
1048.298004
 11
-916.33776850000015
 21
1048.1301880000001
  0
LINE
  8
_0-0_0
  6
CONTINUOUS
 62
    7
 10
-916.60986349999973
 20
1048.0676270000001
 11
-916.33776850000015
 21
1048.1301880000001
  0
LINE
  8
_0-0_0
  6
CONTINUOUS
 62
    7
 10
-916.53625550000004
 20
1048.5322269999999
 11
-916.29687550000006
 21
1048.388672
  0
LINE
  8
_0-0_0
  6
CONTINUOUS
 62
    7
 10
-916.56091349999986
 20
1048.298004
 11
-916.29687550000006
 21
1048.388672
  0
LINE
  8
_0-0_0
  6
CONTINUOUS
 62
    7
 10
-916.53625550000004
 20
1048.7677309999999
 11
-916.28320350000013
 21
1048.6499940000001
  0
LINE
  8
_0-0_0
  6
CONTINUOUS
 62
    7
 10
-916.53625550000004
 20
1048.5322269999999
 11
-916.28320350000013
 21
1048.6499940000001
  0
LINE
  8
_0-0_0
  6
CONTINUOUS
 62
    7
 10
-916.56091349999986
 20
1049.001953
 11
-916.29687550000006
 21
1048.9113160000002
  0
LINE
  8
_0-0_0
  6
CONTINUOUS
 62
    7
 10
-916.53625550000004
 20
1048.7677309999999
 11
-916.29687550000006
 21
1048.9113160000002
  0
LINE
  8
_0-0_0
  6
CONTINUOUS
 62
    7
 10
-916.60986349999973
 20
1049.2323299999998
 11
-916.33776850000015
 21
1049.1697690000001
  0
LINE
  8
_0-0_0
  6
CONTINUOUS
 62
    7
 10
-916.56091349999986
 20
1049.001953
 11
-916.33776850000015
 21
1049.1697690000001
  0
LINE
  8
_0-0_0
  6
CONTINUOUS
 62
    7
 10
-916.68261750000022
 20
1049.4562989999999
 11
-916.40551750000031
 21
1049.4225160000001
  0
LINE
  8
_0-0_0
  6
CONTINUOUS
 62
    7
 10
-916.60986349999973
 20
1049.2323299999998
 11
-916.40551750000031
 21
1049.4225160000001
  0
LINE
  8
_0-0_0
  6
CONTINUOUS
 62
    7
 10
-916.7784425000001
 20
1049.6714480000001
 11
-916.49926750000031
 21
1049.6668090000001
  0
LINE
  8
_0-0_0
  6
CONTINUOUS
 62
    7
 10
-916.68261750000022
 20
1049.4562989999999
 11
-916.49926750000031
 21
1049.6668090000001
  0
LINE
  8
_0-0_0
  6
CONTINUOUS
 62
    7
 10
-916.89611849999972
 20
1049.8754269999999
 11
-916.61804250000023
 21
1049.8999939999999
  0
LINE
  8
_0-0_0
  6
CONTINUOUS
 62
    7
 10
-916.7784425000001
 20
1049.6714480000001
 11
-916.61804250000023
 21
1049.8999939999999
  0
LINE
  8
_0-0_0
  6
CONTINUOUS
 62
    7
 10
-920.19909650000011
 20
1050.3985600000001
 11
-920.25256350000018
 21
1050.6725160000001
  0
LINE
  8
_0-0_0
  6
CONTINUOUS
 62
    7
 10
-920.19909650000011
 20
1050.3985600000001
 11
-920.45593250000002
 21
1050.5078430000001
  0
LINE
  8
_0-0_0
  6
CONTINUOUS
 62
    7
 10
-920.37414549999983
 20
1050.2409670000002
 11
-920.45593250000002
 21
1050.5078430000001
  0
LINE
  8
_0-0_0
  6
CONTINUOUS
 62
    7
 10
-920.37414549999983
 20
1050.2409670000002
 11
-920.64099150000038
 21
1050.322815
  0
LINE
  8
_0-0_0
  6
CONTINUOUS
 62
    7
 10
-920.53173849999996
 20
1050.0659479999999
 11
-920.64099150000038
 21
1050.322815
  0
LINE
  8
_0-0_0
  6
CONTINUOUS
 62
    7
 10
-920.53173849999996
 20
1050.0659479999999
 11
-920.80566450000003
 21
1050.1194459999999
  0
LINE
  8
_0-0_0
  6
CONTINUOUS
 62
    7
 10
-920.67016650000005
 20
1049.8754269999999
 11
-920.80566450000003
 21
1050.1194459999999
  0
LINE
  8
_0-0_0
  6
CONTINUOUS
 62
    7
 10
-920.67016650000005
 20
1049.8754269999999
 11
-920.94824250000022
 21
1049.8999939999999
  0
LINE
  8
_0-0_0
  6
CONTINUOUS
 62
    7
 10
-920.78796350000005
 20
1049.6714480000001
 11
-920.94824250000022
 21
1049.8999939999999
  0
LINE
  8
_0-0_0
  6
CONTINUOUS
 62
    7
 10
-920.78796350000005
 20
1049.6714480000001
 11
-921.06701650000014
 21
1049.6668090000001
  0
LINE
  8
_0-0_0
  6
CONTINUOUS
 62
    7
 10
-920.88366750000023
 20
1049.4562989999999
 11
-921.06701650000014
 21
1049.6668090000001
  0
LINE
  8
_0-0_0
  6
CONTINUOUS
 62
    7
 10
-920.88366750000023
 20
1049.4562989999999
 11
-921.16076650000014
 21
1049.4225160000001
  0
LINE
  8
_0-0_0
  6
CONTINUOUS
 62
    7
 10
-920.95654350000007
 20
1049.2323299999998
 11
-921.16076650000014
 21
1049.4225160000001
  0
LINE
  8
_0-0_0
  6
CONTINUOUS
 62
    7
 10
-920.95654350000007
 20
1049.2323299999998
 11
-921.22851549999996
 21
1049.1697690000001
  0
LINE
  8
_0-0_0
  6
CONTINUOUS
 62
    7
 10
-921.00549349999994
 20
1049.001953
 11
-921.22851549999996
 21
1049.1697690000001
  0
LINE
  8
_0-0_0
  6
CONTINUOUS
 62
    7
 10
-921.00549349999994
 20
1049.001953
 11
-921.26940949999971
 21
1048.9113160000002
  0
LINE
  8
_0-0_0
  6
CONTINUOUS
 62
    7
 10
-921.03002949999973
 20
1048.7677309999999
 11
-921.26940949999971
 21
1048.9113160000002
  0
LINE
  8
_0-0_0
  6
CONTINUOUS
 62
    7
 10
-921.03002949999973
 20
1048.7677309999999
 11
-921.28320350000001
 21
1048.6499940000001
  0
LINE
  8
_0-0_0
  6
CONTINUOUS
 62
    7
 10
-921.03002949999973
 20
1048.5322269999999
 11
-921.28320350000001
 21
1048.6499940000001
  0
LINE
  8
_0-0_0
  6
CONTINUOUS
 62
    7
 10
-921.03002949999973
 20
1048.5322269999999
 11
-921.26940949999971
 21
1048.388672
  0
LINE
  8
_0-0_0
  6
CONTINUOUS
 62
    7
 10
-921.00549349999994
 20
1048.298004
 11
-921.26940949999971
 21
1048.388672
  0
LINE
  8
_0-0_0
  6
CONTINUOUS
 62
    7
 10
-921.00549349999994
 20
1048.298004
 11
-921.22851549999996
 21
1048.1301880000001
  0
LINE
  8
_0-0_0
  6
CONTINUOUS
 62
    7
 10
-920.95654350000007
 20
1048.0676270000001
 11
-921.22851549999996
 21
1048.1301880000001
  0
LINE
  8
_0-0_0
  6
CONTINUOUS
 62
    7
 10
-920.95654350000007
 20
1048.0676270000001
 11
-921.16076650000014
 21
1047.8774410000001
  0
LINE
  8
_0-0_0
  6
CONTINUOUS
 62
    7
 10
-920.88366750000023
 20
1047.843658
 11
-921.16076650000014
 21
1047.8774410000001
  0
LINE
  8
_0-0_0
  6
CONTINUOUS
 62
    7
 10
-920.88366750000023
 20
1047.843658
 11
-921.06701650000014
 21
1047.6331479999999
  0
LINE
  8
_0-0_0
  6
CONTINUOUS
 62
    7
 10
-920.78796350000005
 20
1047.62851
 11
-921.06701650000014
 21
1047.6331479999999
  0
CIRCLE
  8
_0-0_0
  6
CONTINUOUS
 62
    7
 10
-918.78320350000024
 20
1048.6499940000001
 40
2
  0
LINE
  8
_0-0_0
  6
CONTINUOUS
 62
    7
 10
-919.92419450000045
 20
1050.7385859999999
 11
-920.03320350000013
 21
1050.815063
  0
LINE
  8
_0-0_0
  6
CONTINUOUS
 62
    7
 10
-920.00854549999997
 20
1050.536987
 11
-920.03320350000013
 21
1050.815063
  0
LINE
  8
_0-0_0
  6
CONTINUOUS
 62
    7
 10
-920.00854549999997
 20
1050.536987
 11
-920.25256350000018
 21
1050.6725160000001
  0
LINE
  8
_0-0_0
  6
CONTINUOUS
 62
    7
 10
-916.89611849999972
 20
1049.8754269999999
 11
-916.76062050000007
 21
1050.1194459999999
  0
LINE
  8
_0-0_0
  6
CONTINUOUS
 62
    7
 10
-917.03454650000015
 20
1050.0659479999999
 11
-916.76062050000007
 21
1050.1194459999999
  0
LINE
  8
_0-0_0
  6
CONTINUOUS
 62
    7
 10
-917.03454650000015
 20
1050.0659479999999
 11
-916.92529350000007
 21
1050.322815
  0
LINE
  8
_0-0_0
  6
CONTINUOUS
 62
    7
 10
-917.19213849999994
 20
1050.2409670000002
 11
-916.92529350000007
 21
1050.322815
  0
LINE
  8
_0-0_0
  6
CONTINUOUS
 62
    7
 10
-917.19213849999994
 20
1050.2409670000002
 11
-917.11035150000009
 21
1050.5078430000001
  0
LINE
  8
_0-0_0
  6
CONTINUOUS
 62
    7
 10
-917.3671875
 20
1050.3985600000001
 11
-917.11035150000009
 21
1050.5078430000001
  0
LINE
  8
_0-0_0
  6
CONTINUOUS
 62
    7
 10
-917.3671875
 20
1050.3985600000001
 11
-917.31372050000027
 21
1050.6725160000001
  0
LINE
  8
_0-0_0
  6
CONTINUOUS
 62
    7
 10
-917.55773950000014
 20
1050.536987
 11
-917.31372050000027
 21
1050.6725160000001
  0
LINE
  8
_0-0_0
  6
CONTINUOUS
 62
    7
 10
-917.55773950000014
 20
1050.536987
 11
-917.53320350000001
 21
1050.815063
  0
LINE
  8
_0-0_0
  6
CONTINUOUS
 62
    7
 10
-917.7617184999998
 20
1050.654755
 11
-917.53320350000001
 21
1050.815063
  0
LINE
  8
_0-0_0
  6
CONTINUOUS
 62
    7
 10
-917.7617184999998
 20
1050.654755
 11
-917.76635750000003
 21
1050.9338379999999
  0
LINE
  8
_0-0_0
  6
CONTINUOUS
 62
    7
 10
-917.97680649999973
 20
1050.7505489999999
 11
-917.76635750000003
 21
1050.9338379999999
  0
LINE
  8
_0-0_0
  6
CONTINUOUS
 62
    7
 10
-917.97680649999973
 20
1050.7505489999999
 11
-918.0106205000003
 21
1051.0276180000001
  0
LINE
  8
_0-0_0
  6
CONTINUOUS
 62
    7
 10
-918.2008055
 20
1050.8233029999999
 11
-918.0106205000003
 21
1051.0276180000001
  0
LINE
  8
_0-0_0
  6
CONTINUOUS
 62
    7
 10
-918.2008055
 20
1050.8233029999999
 11
-918.26342750000015
 21
1051.095337
  0
LINE
  8
_0-0_0
  6
CONTINUOUS
 62
    7
 10
-918.43115250000028
 20
1050.872284
 11
-918.26342750000015
 21
1051.095337
  0
LINE
  8
_0-0_0
  6
CONTINUOUS
 62
    7
 10
-918.43115250000028
 20
1050.872284
 11
-918.52185050000014
 21
1051.1362919999999
  0
LINE
  8
_0-0_0
  6
CONTINUOUS
 62
    7
 10
-918.66540549999991
 20
1050.8969119999999
 11
-918.52185050000014
 21
1051.1362919999999
  0
LINE
  8
_0-0_0
  6
CONTINUOUS
 62
    7
 10
-918.66540549999991
 20
1050.8969119999999
 11
-918.78320350000024
 21
1051.1499939999999
  0
LINE
  8
_0-0_0
  6
CONTINUOUS
 62
    7
 10
-918.90087949999986
 20
1050.8969119999999
 11
-918.78320350000024
 21
1051.1499939999999
  0
LINE
  8
_0-0_0
  6
CONTINUOUS
 62
    7
 10
-918.90087949999986
 20
1050.8969119999999
 11
-919.04443350000031
 21
1051.1362919999999
  0
LINE
  8
_0-0_0
  6
CONTINUOUS
 62
    7
 10
-919.13513150000017
 20
1050.872284
 11
-919.04443350000031
 21
1051.1362919999999
  0
LINE
  8
_0-0_0
  6
CONTINUOUS
 62
    7
 10
-919.13513150000017
 20
1050.872284
 11
-919.30297849999999
 21
1051.095337
  0
LINE
  8
_0-0_0
  6
CONTINUOUS
 62
    7
 10
-919.36547849999977
 20
1050.8233029999999
 11
-919.30297849999999
 21
1051.095337
  0
LINE
  8
_0-0_0
  6
CONTINUOUS
 62
    7
 10
-919.36547849999977
 20
1050.8233029999999
 11
-919.55566450000015
 21
1051.0276180000001
  0
LINE
  8
_0-0_0
  6
CONTINUOUS
 62
    7
 10
-919.5894774999997
 20
1050.7505489999999
 11
-919.55566450000015
 21
1051.0276180000001
  0
LINE
  8
_0-0_0
  6
CONTINUOUS
 62
    7
 10
-919.5894774999997
 20
1050.7505489999999
 11
-919.80004850000012
 21
1050.9338379999999
  0
LINE
  8
_0-0_0
  6
CONTINUOUS
 62
    7
 10
-919.8046875
 20
1050.654755
 11
-919.80004850000012
 21
1050.9338379999999
  0
LINE
  8
_0-0_0
  6
CONTINUOUS
 62
    7
 10
-919.8046875
 20
1050.654755
 11
-919.92419450000045
 21
1050.7385859999999
  0
LINE
  8
_0-0_0
  6
CONTINUOUS
 62
    7
 10
-918.20104950000007
 20
1047.6499939999999
 11
-919.36523450000004
 21
1047.6499939999999
  0
LINE
  8
_0-0_0
  6
CONTINUOUS
 62
    7
 10
-919.36523450000004
 20
1047.6499939999999
 11
-919.93310550000012
 21
1048.6499940000001
  0
LINE
  8
_0-0_0
  6
CONTINUOUS
 62
    7
 10
-919.93310550000012
 20
1048.6499940000001
 11
-919.36523450000004
 21
1049.6499939999999
  0
LINE
  8
_0-0_0
  6
CONTINUOUS
 62
    7
 10
-919.36523450000004
 20
1049.6499939999999
 11
-918.20104950000007
 21
1049.6499939999999
  0
LINE
  8
_0-0_0
  6
CONTINUOUS
 62
    7
 10
-918.20104950000007
 20
1049.6499939999999
 11
-917.63317850000033
 21
1048.6499940000001
  0
LINE
  8
_0-0_0
  6
CONTINUOUS
 62
    7
 10
-917.63317850000033
 20
1048.6499940000001
 11
-918.20104950000007
 21
1047.6499939999999
  0
LINE
  8
_0-0_0
  6
CONTINUOUS
 62
    7
 10
-904.08313050000015
 20
1066.050293
 11
-904.08313050000015
 21
1066.056274
  0
LINE
  8
_0-0_0
  6
CONTINUOUS
 62
    7
 10
-904.08313050000015
 20
1067.25
 11
-904.08349650000025
 21
1067.237885
  0
LINE
  8
_0-0_0
  6
CONTINUOUS
 62
    7
 10
-904.08349650000025
 20
1046.6621089999999
 11
-904.08313050000015
 21
1046.6499939999999
  0
ARC
  8
_0-0_0
  6
CONTINUOUS
 62
    7
 10
-919.28320350000013
 20
1065.75
 40
2
 50
90.000003000000007
 51
93.840255999999997
  0
ARC
  8
_0-0_0
  6
CONTINUOUS
 62
    7
 10
-906.28320350000001
 20
1048.1499939999999
 40
2
 50
269.99999700000001
 51
273.84026499999999
  0
ENDSEC
  0
EOF
