  0
SECTION
  2
HEADER
  9
$ACADVER
  1
AC1009
  9
$INSBASE
 10
0
 20
0
 30
0
  9
$EXTMIN
 10
0
 20
0
  9
$EXTMAX
 10
1682
 20
1188
  9
$LIMMIN
 10
0
 20
0
  9
$LIMMAX
 10
1682
 20
1188
  9
$LTSCALE
 40
2
  0
ENDSEC
  0
SECTION
  2
TABLES
  0
TABLE
  2
LTYPE
 70
     9
  0
LTYPE
  2
CONTINUOUS
 70
    64
  3
実線
 72
    65
 73
     0
 40
0.0
  0
LTYPE
  2
DASHED1
 70
    64
  3
--  --  --  --  --  --  --  --  
 72
    65
 73
     2
 40
2.5
 49
1.25
 49
-1.25
  0
LTYPE
  2
DASHED2
 70
    64
  3
----    ----    ----    ----    
 72
    65
 73
     2
 40
5.0
 49
2.5
 49
-2.5
  0
LTYPE
  2
DASHED3
 70
    64
  3
------  ------  ------  ------  
 72
    65
 73
     2
 40
5.0
 49
3.75
 49
-1.25
  0
LTYPE
  2
CENTER1
 70
    64
  3
----- - ----- - ----- - ----- - 
 72
    65
 73
     4
 40
10.0
 49
6.25
 49
-1.25
 49
1.25
 49
-1.25
  0
LTYPE
  2
CENTER2
 70
    64
  3
----------  --  ----------  --  
 72
    65
 73
     4
 40
20.0
 49
12.5
 49
-2.5
 49
2.5
 49
-2.5
  0
LTYPE
  2
PHANTOM1
 70
    64
  3
--- - - --- - - --- - - --- - - 
 72
    65
 73
     6
 40
10.0
 49
3.25
 49
-1.25
 49
1.25
 49
-1.25
 49
1.25
 49
-1.25
  0
LTYPE
  2
PHANTOM2
 70
    64
  3
--------  -  -  --------  -  -  
 72
    65
 73
     6
 40
20.0
 49
10.0
 49
-2.5
 49
1.25
 49
-2.5
 49
1.25
 49
-2.5
  0
LTYPE
  2
DOT
 70
    64
  3
-   -   -   -   -   -   -   -   
 72
    65
 73
     2
 40
2.5
 49
0.625
 49
-1.875
  0
LTYPE
  2
DUMMY
 70
    64
  3
ダミー
 72
    65
 73
     0
 40
0.0
  0
LTYPE
  2
RAND1
 70
    64
  3
ランダム線1
 72
    65
 73
     4
 40
10.0
 49
1.0
 49
-2.0
 49
3.0
 49
-4.0
  0
LTYPE
  2
RAND2
 70
    64
  3
ランダム線2
 72
    65
 73
     4
 40
14.0
 49
2.0
 49
-3.0
 49
4.0
 49
-5.0
  0
LTYPE
  2
RAND3
 70
    64
  3
ランダム線3
 72
    65
 73
     4
 40
18.0
 49
3.0
 49
-4.0
 49
5.0
 49
-6.0
  0
LTYPE
  2
RAND4
 70
    64
  3
ランダム線4
 72
    65
 73
     4
 40
22.0
 49
4.0
 49
-5.0
 49
6.0
 49
-7.0
  0
LTYPE
  2
RAND5
 70
    64
  3
ランダム線5
 72
    65
 73
     4
 40
26.0
 49
5.0
 49
-6.0
 49
7.0
 49
-8.0
  0
LTYPE
  2
LONG1
 70
    64
  3
----------  --  ----------  --  
 72
    65
 73
     4
 40
40.0
 49
32.5
 49
-2.5
 49
2.5
 49
-2.5
  0
LTYPE
  2
LONG2
 70
    64
  3
--------  -  -  --------  -  -  
 72
    65
 73
     6
 40
40.0
 49
30.0
 49
-2.5
 49
1.25
 49
-2.5
 49
1.25
 49
-2.5
  0
LTYPE
  2
LONG3
 70
    64
  3
+++++++++++++++..+++++++++++++++
 72
    65
 73
     2
 40
40.0
 49
37.5
 49
-2.5
  0
LTYPE
  2
LONG4
 70
    64
  3
+++++++++++++++..+++++++++++++++
 72
    65
 73
     2
 40
80.0
 49
75.0
 49
-5.0
  0
LTYPE
  2
LONG5
 70
    64
  3
----------  --  ----------  --  
 72
    65
 73
     4
 40
60.0
 49
37.5
 49
-7.5
 49
7.5
 49
-7.5
  0
LTYPE
  2
dashed
 70
   64
  3
-------   -------------   ------
 72
   65
 73
    2
 40
7.5
 49
6
 49
-1.5
  0
LTYPE
  2
dashed_spaced
 70
   64
  3
----        --------        ----
 72
   65
 73
    2
 40
12
 49
6
 49
-6
  0
LTYPE
  2
long_dashed_dotted
 70
   64
  3
------------- --- --------------
 72
   65
 73
    4
 40
15.25
 49
12
 49
-1.5
 49
0.25
 49
-1.5
  0
LTYPE
  2
long_dashed_double-dotted
 70
   64
  3
----------- --- --- ------------
 72
   65
 73
    6
 40
17
 49
12
 49
-1.5
 49
0.25
 49
-1.5
 49
0.25
 49
-1.5
  0
LTYPE
  2
long_dashed_triplicate-dotted
 70
   64
  3
--------- --- --- --- ----------
 72
   65
 73
    8
 40
18.75
 49
12
 49
-1.5
 49
0.25
 49
-1.5
 49
0.25
 49
-1.5
 49
0.25
 49
-1.5
  0
LTYPE
  2
dotted
 70
   64
  3
   -       -       -       -    
 72
   65
 73
    2
 40
1.75
 49
0.25
 49
-1.5
  0
LTYPE
  2
chain
 70
   64
  3
-------------- -- --------------
 72
   65
 73
    4
 40
18.5
 49
12
 49
-1.5
 49
3.5
 49
-1.5
  0
LTYPE
  2
chain_double_dash
 70
   64
  3
------------ -- -- -------------
 72
   65
 73
    6
 40
23.5
 49
12
 49
-1.5
 49
3.5
 49
-1.5
 49
3.5
 49
-1.5
  0
LTYPE
  2
dashed_dotted
 70
   64
  3
-----------     -     ----------
 72
   65
 73
    4
 40
9.25
 49
6
 49
-1.5
 49
0.25
 49
-1.5
  0
LTYPE
  2
double-dashed_dotted
 70
   64
  3
------   -----------   -   -----
 72
   65
 73
    6
 40
16.75
 49
6
 49
-1.5
 49
6
 49
-1.5
 49
0.25
 49
-1.5
  0
LTYPE
  2
dashed_double-dotted
 70
   64
  3
---------    -    -    ---------
 72
   65
 73
    6
 40
11
 49
6
 49
-1.5
 49
0.25
 49
-1.5
 49
0.25
 49
-1.5
  0
LTYPE
  2
double-dashed_double-dotted
 70
   64
  3
-----   ---------   -   -   ----
 72
   65
 73
    8
 40
18.5
 49
6
 49
-1.5
 49
6
 49
-1.5
 49
0.25
 49
-1.5
 49
0.25
 49
-1.5
  0
LTYPE
  2
dashed_triplicate-dotted
 70
   64
  3
-------    -    -    -    ------
 72
   65
 73
    8
 40
12.75
 49
6
 49
-1.5
 49
0.25
 49
-1.5
 49
0.25
 49
-1.5
 49
0.25
 49
-1.5
  0
LTYPE
  2
double-dashed_triplicate-dotted
 70
   64
  3
-----  ---------  -  -  -  -----
 72
   65
 73
   10
 40
20.25
 49
6
 49
-1.5
 49
6
 49
-1.5
 49
0.25
 49
-1.5
 49
0.25
 49
-1.5
 49
0.25
 49
-1.5
  0
LTYPE
  2
undefined
 70
   64
  3
--------------------------------
 72
   65
 73
    0
 40
0
  0
ENDTAB
  0
TABLE
  2
STYLE
  5
3
100
AcDbSymbolTable
 70
     1
  0
STYLE
  5
10
100
AcDbSymbolTableRecord
100
AcDbTextStyleTableRecord
  2
STANDARD
 70
     0
 40
0.0
 41
1.0
 50
0.0
 71
     0
 42
0.2
  3
txt
  4
bigfont.shx
  0
STYLE
  5
26
100
AcDbSymbolTableRecord
100
AcDbTextStyleTableRecord
  2
TATEGAKI
 70
    68
 40
0.0
 41
1.0
 50
0.0
 71
     0
 42
1.0
  3
txt
  4
bigfont.shx
  0
ENDTAB
  0
TABLE
  2
LAYER
 70
    2
  0
LAYER
  2
_0-0_0
 70
   64
 62
    7
  6
CONTINUOUS
  0
LAYER
  2
ADD_LINE
 70
   64
 62
    7
  6
CONTINUOUS
  0
ENDTAB
  0
ENDSEC
  0
SECTION
  2
BLOCKS
  0
ENDSEC
  0
SECTION
  2
ENTITIES
  0
ARC
  8
_0-0_0
  6
CONTINUOUS
 62
    7
 10
196.72778349999999
 20
765.34997599999997
 40
0.2
 50
269.99999700000001
 51
20.376440000000013
  0
LINE
  8
_0-0_0
  6
CONTINUOUS
 62
    7
 10
196.91526749999991
 20
765.41961700000002
 11
195.61526449999997
 21
768.91961700000002
  0
ARC
  8
_0-0_0
  6
CONTINUOUS
 62
    7
 10
195.42778049999993
 20
768.84997599999997
 40
0.2
 50
20.376439999999999
 51
159.62355600000001
  0
LINE
  8
_0-0_0
  6
CONTINUOUS
 62
    7
 10
193.94029249999994
 20
765.41961700000002
 11
195.2402955
 21
768.91961700000002
  0
ARC
  8
_0-0_0
  6
CONTINUOUS
 62
    7
 10
194.12777649999998
 20
765.34997599999997
 40
0.2
 50
159.62355600000001
 51
269.99999700000001
  0
LINE
  8
_0-0_0
  6
CONTINUOUS
 62
    7
 10
194.12777649999998
 20
765.14999399999999
 11
196.72778349999999
 21
765.14999399999999
  0
LINE
  8
_0-0_0
  6
CONTINUOUS
 62
    7
 10
31.494964499999924
 20
813.75271599999996
 11
31.494964499999924
 21
813.75170900000001
  0
LINE
  8
_0-0_0
  6
CONTINUOUS
 62
    7
 10
1514.4277345
 20
802.14999399999999
 11
1514.4277345
 21
789.14999399999999
  0
LINE
  8
_0-0_0
  6
CONTINUOUS
 62
    7
 10
141.42778049999993
 20
802.14999399999999
 11
141.42778049999993
 21
789.14999399999999
  0
LINE
  8
_0-0_0
  6
CONTINUOUS
 62
    7
 10
141.42778049999993
 20
802.14999399999999
 11
1514.4277345
 21
802.14999399999999
  0
LINE
  8
_0-0_0
  6
CONTINUOUS
 62
    7
 10
141.42778049999993
 20
802.14999399999999
 11
141.42778049999993
 21
820.75
  0
LINE
  8
_0-0_0
  6
CONTINUOUS
 62
    7
 10
141.42778049999993
 20
823.25
 11
141.42778049999993
 21
820.75
  0
LINE
  8
_0-0_0
  6
CONTINUOUS
 62
    7
 10
141.42778049999993
 20
823.75
 11
141.42778049999993
 21
823.25
  0
LINE
  8
_0-0_0
  6
CONTINUOUS
 62
    7
 10
141.42778049999993
 20
775.75
 11
141.42778049999993
 21
775.25
  0
LINE
  8
_0-0_0
  6
CONTINUOUS
 62
    7
 10
141.42778049999993
 20
780.75
 11
141.42778049999993
 21
775.75
  0
LINE
  8
_0-0_0
  6
CONTINUOUS
 62
    7
 10
141.42778049999993
 20
781.25
 11
141.42778049999993
 21
780.75
  0
LINE
  8
_0-0_0
  6
CONTINUOUS
 62
    7
 10
141.42778049999993
 20
781.75
 11
141.42778049999993
 21
781.25
  0
LINE
  8
_0-0_0
  6
CONTINUOUS
 62
    7
 10
141.42778049999993
 20
784.94998199999998
 11
141.42778049999993
 21
781.75
  0
LINE
  8
_0-0_0
  6
CONTINUOUS
 62
    7
 10
141.42778049999993
 20
784.94998199999998
 11
141.42778049999993
 21
789.14999399999999
  0
LINE
  8
_0-0_0
  6
CONTINUOUS
 62
    7
 10
141.42778049999993
 20
789.14999399999999
 11
1514.4277345
 21
789.14999399999999
  0
LINE
  8
_0-0_0
  6
CONTINUOUS
 62
    7
 10
1514.4277345
 20
784.94998199999998
 11
1514.4277345
 21
789.14999399999999
  0
LINE
  8
_0-0_0
  6
CONTINUOUS
 62
    7
 10
1514.4277345
 20
781.75
 11
1514.4277345
 21
784.94998199999998
  0
LINE
  8
_0-0_0
  6
CONTINUOUS
 62
    7
 10
1514.4277345
 20
781.75
 11
1514.4277345
 21
781.25
  0
LINE
  8
_0-0_0
  6
CONTINUOUS
 62
    7
 10
1514.4277345
 20
781.25
 11
1514.4277345
 21
780.75
  0
LINE
  8
_0-0_0
  6
CONTINUOUS
 62
    7
 10
1514.4277345
 20
780.75
 11
1514.4277345
 21
775.75
  0
LINE
  8
_0-0_0
  6
CONTINUOUS
 62
    7
 10
1514.4277345
 20
775.75
 11
1514.4277345
 21
775.25
  0
LINE
  8
_0-0_0
  6
CONTINUOUS
 62
    7
 10
1514.4277345
 20
823.75
 11
1514.4277345
 21
823.25
  0
LINE
  8
_0-0_0
  6
CONTINUOUS
 62
    7
 10
1514.4277345
 20
820.75
 11
1514.4277345
 21
823.25
  0
LINE
  8
_0-0_0
  6
CONTINUOUS
 62
    7
 10
1514.4277345
 20
802.14999399999999
 11
1514.4277345
 21
820.75
  0
CIRCLE
  8
_0-0_0
  6
CONTINUOUS
 62
    7
 10
1477.9277345
 20
811.25
 40
6
  0
CIRCLE
  8
_0-0_0
  6
CONTINUOUS
 62
    7
 10
1377.9277345
 20
811.25
 40
6
  0
CIRCLE
  8
_0-0_0
  6
CONTINUOUS
 62
    7
 10
1277.9277345
 20
811.25
 40
6
  0
CIRCLE
  8
_0-0_0
  6
CONTINUOUS
 62
    7
 10
1177.9277955
 20
811.25
 40
6
  0
CIRCLE
  8
_0-0_0
  6
CONTINUOUS
 62
    7
 10
1077.9277955
 20
811.25
 40
6
  0
CIRCLE
  8
_0-0_0
  6
CONTINUOUS
 62
    7
 10
977.9277955
 20
811.25
 40
6
  0
CIRCLE
  8
_0-0_0
  6
CONTINUOUS
 62
    7
 10
877.9277955
 20
811.25
 40
6
  0
CIRCLE
  8
_0-0_0
  6
CONTINUOUS
 62
    7
 10
777.9277955
 20
811.25
 40
6
  0
CIRCLE
  8
_0-0_0
  6
CONTINUOUS
 62
    7
 10
677.9277955
 20
811.25
 40
6
  0
CIRCLE
  8
_0-0_0
  6
CONTINUOUS
 62
    7
 10
577.9277955
 20
811.25
 40
6
  0
CIRCLE
  8
_0-0_0
  6
CONTINUOUS
 62
    7
 10
477.92779549999995
 20
811.25
 40
6
  0
CIRCLE
  8
_0-0_0
  6
CONTINUOUS
 62
    7
 10
377.92779549999995
 20
811.25
 40
6
  0
CIRCLE
  8
_0-0_0
  6
CONTINUOUS
 62
    7
 10
277.9277955
 20
811.25
 40
6
  0
CIRCLE
  8
_0-0_0
  6
CONTINUOUS
 62
    7
 10
177.92778049999993
 20
811.25
 40
6
  0
LINE
  8
_0-0_0
  6
CONTINUOUS
 62
    7
 10
141.42778049999993
 20
820.75
 11
1514.4277345
 21
820.75
  0
LINE
  8
_0-0_0
  6
CONTINUOUS
 62
    7
 10
141.42778049999993
 20
823.75
 11
1514.4277345
 21
823.75
  0
LINE
  8
_0-0_0
  6
CONTINUOUS
 62
    7
 10
141.42778049999993
 20
823.25
 11
138.92778049999993
 21
823.25
  0
LINE
  8
_0-0_0
  6
CONTINUOUS
 62
    7
 10
138.92778049999993
 20
823.25
 11
138.92778049999993
 21
822.75
  0
LINE
  8
_0-0_0
  6
CONTINUOUS
 62
    7
 10
138.92778049999993
 20
822.75
 11
138.92778049999993
 21
782.25
  0
LINE
  8
_0-0_0
  6
CONTINUOUS
 62
    7
 10
141.42778049999993
 20
781.75
 11
138.92778049999993
 21
781.75
  0
LINE
  8
_0-0_0
  6
CONTINUOUS
 62
    7
 10
138.92778049999993
 20
782.25
 11
138.92778049999993
 21
781.75
  0
LINE
  8
_0-0_0
  6
CONTINUOUS
 62
    7
 10
138.92778049999993
 20
781.75
 11
138.92778049999993
 21
780.75
  0
LINE
  8
_0-0_0
  6
CONTINUOUS
 62
    7
 10
138.92778049999993
 20
780.75
 11
138.92778049999993
 21
776.25
  0
LINE
  8
_0-0_0
  6
CONTINUOUS
 62
    7
 10
141.42778049999993
 20
775.75
 11
138.92778049999993
 21
775.75
  0
LINE
  8
_0-0_0
  6
CONTINUOUS
 62
    7
 10
138.92778049999993
 20
776.25
 11
138.92778049999993
 21
775.75
  0
LINE
  8
_0-0_0
  6
CONTINUOUS
 62
    7
 10
141.42778049999993
 20
775.25
 11
1514.4277345
 21
775.25
  0
LINE
  8
_0-0_0
  6
CONTINUOUS
 62
    7
 10
141.42778049999993
 20
781.25
 11
1514.4277345
 21
781.25
  0
LINE
  8
_0-0_0
  6
CONTINUOUS
 62
    7
 10
141.42778049999993
 20
784.94998199999998
 11
1514.4277345
 21
784.94998199999998
  0
LINE
  8
_0-0_0
  6
CONTINUOUS
 62
    7
 10
1514.4277345
 20
823.25
 11
1516.9277345
 21
823.25
  0
LINE
  8
_0-0_0
  6
CONTINUOUS
 62
    7
 10
1516.9277345
 20
823.25
 11
1516.9277345
 21
822.75
  0
LINE
  8
_0-0_0
  6
CONTINUOUS
 62
    7
 10
1516.9277345
 20
822.75
 11
1516.9277345
 21
782.25
  0
LINE
  8
_0-0_0
  6
CONTINUOUS
 62
    7
 10
1514.4277345
 20
781.75
 11
1516.9277345
 21
781.75
  0
LINE
  8
_0-0_0
  6
CONTINUOUS
 62
    7
 10
1516.9277345
 20
782.25
 11
1516.9277345
 21
781.75
  0
LINE
  8
_0-0_0
  6
CONTINUOUS
 62
    7
 10
1516.9277345
 20
781.75
 11
1516.9277345
 21
780.75
  0
LINE
  8
_0-0_0
  6
CONTINUOUS
 62
    7
 10
1516.9277345
 20
780.75
 11
1516.9277345
 21
776.25
  0
LINE
  8
_0-0_0
  6
CONTINUOUS
 62
    7
 10
1514.4277345
 20
775.75
 11
1516.9277345
 21
775.75
  0
LINE
  8
_0-0_0
  6
CONTINUOUS
 62
    7
 10
1516.9277345
 20
776.25
 11
1516.9277345
 21
775.75
  0
ARC
  8
_0-0_0
  6
CONTINUOUS
 62
    7
 10
198.92778049999993
 20
776.25
 40
0.5
 50
269.99999700000001
 51
0
  0
LINE
  8
_0-0_0
  6
CONTINUOUS
 62
    7
 10
198.92778049999993
 20
775.75
 11
191.92778049999993
 21
775.75
  0
ARC
  8
_0-0_0
  6
CONTINUOUS
 62
    7
 10
191.92778049999993
 20
776.25
 40
0.5
 50
179.99999099999999
 51
269.99999700000001
  0
LINE
  8
_0-0_0
  6
CONTINUOUS
 62
    7
 10
191.42778049999993
 20
780.25
 11
191.42778049999993
 21
776.25
  0
ARC
  8
_0-0_0
  6
CONTINUOUS
 62
    7
 10
191.92778049999993
 20
780.25
 40
0.5
 50
90.000003000000007
 51
179.99999099999999
  0
ARC
  8
_0-0_0
  6
CONTINUOUS
 62
    7
 10
198.92778049999993
 20
780.25
 40
0.5
 50
0
 51
90.000003000000007
  0
LINE
  8
_0-0_0
  6
CONTINUOUS
 62
    7
 10
191.92778049999993
 20
780.75
 11
198.92778049999993
 21
780.75
  0
LINE
  8
_0-0_0
  6
CONTINUOUS
 62
    7
 10
1514.4277345
 20
823.75
 11
1514.4277345
 21
823.44998199999998
  0
LINE
  8
_0-0_0
  6
CONTINUOUS
 62
    7
 10
1514.4277345
 20
823.44998199999998
 11
1514.4277345
 21
823.25
  0
CIRCLE
  8
_0-0_0
  6
CONTINUOUS
 62
    7
 10
1477.9277345
 20
811.25
 40
5.5
  0
CIRCLE
  8
_0-0_0
  6
CONTINUOUS
 62
    7
 10
1377.9277345
 20
811.25
 40
5.5
  0
CIRCLE
  8
_0-0_0
  6
CONTINUOUS
 62
    7
 10
1277.9277345
 20
811.25
 40
5.5
  0
CIRCLE
  8
_0-0_0
  6
CONTINUOUS
 62
    7
 10
1177.9277955
 20
811.25
 40
5.5
  0
CIRCLE
  8
_0-0_0
  6
CONTINUOUS
 62
    7
 10
1077.9277955
 20
811.25
 40
5.5
  0
CIRCLE
  8
_0-0_0
  6
CONTINUOUS
 62
    7
 10
977.9277955
 20
811.25
 40
5.5
  0
CIRCLE
  8
_0-0_0
  6
CONTINUOUS
 62
    7
 10
877.9277955
 20
811.25
 40
5.5
  0
CIRCLE
  8
_0-0_0
  6
CONTINUOUS
 62
    7
 10
777.9277955
 20
811.25
 40
5.5
  0
CIRCLE
  8
_0-0_0
  6
CONTINUOUS
 62
    7
 10
677.9277955
 20
811.25
 40
5.5
  0
CIRCLE
  8
_0-0_0
  6
CONTINUOUS
 62
    7
 10
577.9277955
 20
811.25
 40
5.5
  0
CIRCLE
  8
_0-0_0
  6
CONTINUOUS
 62
    7
 10
477.92779549999995
 20
811.25
 40
5.5
  0
CIRCLE
  8
_0-0_0
  6
CONTINUOUS
 62
    7
 10
377.92779549999995
 20
811.25
 40
5.5
  0
CIRCLE
  8
_0-0_0
  6
CONTINUOUS
 62
    7
 10
277.9277955
 20
811.25
 40
5.5
  0
CIRCLE
  8
_0-0_0
  6
CONTINUOUS
 62
    7
 10
177.92778049999993
 20
811.25
 40
5.5
  0
LINE
  8
_0-0_0
  6
CONTINUOUS
 62
    7
 10
199.42778049999993
 20
776.25
 11
199.42778049999993
 21
780.25
  0
CIRCLE
  8
_0-0_0
  6
CONTINUOUS
 62
    7
 10
1477.9277345
 20
811.25
 40
3.5
  0
CIRCLE
  8
_0-0_0
  6
CONTINUOUS
 62
    7
 10
1377.9277345
 20
811.25
 40
3.5
  0
CIRCLE
  8
_0-0_0
  6
CONTINUOUS
 62
    7
 10
1277.9277345
 20
811.25
 40
3.5
  0
CIRCLE
  8
_0-0_0
  6
CONTINUOUS
 62
    7
 10
1177.9277955
 20
811.25
 40
3.5
  0
CIRCLE
  8
_0-0_0
  6
CONTINUOUS
 62
    7
 10
1077.9277955
 20
811.25
 40
3.5
  0
CIRCLE
  8
_0-0_0
  6
CONTINUOUS
 62
    7
 10
977.9277955
 20
811.25
 40
3.5
  0
CIRCLE
  8
_0-0_0
  6
CONTINUOUS
 62
    7
 10
877.9277955
 20
811.25
 40
3.5
  0
CIRCLE
  8
_0-0_0
  6
CONTINUOUS
 62
    7
 10
777.9277955
 20
811.25
 40
3.5
  0
CIRCLE
  8
_0-0_0
  6
CONTINUOUS
 62
    7
 10
677.9277955
 20
811.25
 40
3.5
  0
CIRCLE
  8
_0-0_0
  6
CONTINUOUS
 62
    7
 10
577.9277955
 20
811.25
 40
3.5
  0
CIRCLE
  8
_0-0_0
  6
CONTINUOUS
 62
    7
 10
477.92779549999995
 20
811.25
 40
3.5
  0
CIRCLE
  8
_0-0_0
  6
CONTINUOUS
 62
    7
 10
377.92779549999995
 20
811.25
 40
3.5
  0
CIRCLE
  8
_0-0_0
  6
CONTINUOUS
 62
    7
 10
277.9277955
 20
811.25
 40
3.5
  0
CIRCLE
  8
_0-0_0
  6
CONTINUOUS
 62
    7
 10
177.92778049999993
 20
811.25
 40
3.5
  0
ARC
  8
_0-0_0
  6
CONTINUOUS
 62
    7
 10
196.72778349999999
 20
779.94998199999998
 40
0.2
 50
339.62356199999999
 51
90.000002999999978
  0
LINE
  8
_0-0_0
  6
CONTINUOUS
 62
    7
 10
196.91526749999991
 20
779.88034100000004
 11
195.61526449999997
 21
776.38034100000004
  0
ARC
  8
_0-0_0
  6
CONTINUOUS
 62
    7
 10
195.42778049999993
 20
776.44998199999998
 40
0.2
 50
200.37643
 51
339.62356199999999
  0
LINE
  8
_0-0_0
  6
CONTINUOUS
 62
    7
 10
193.94029249999994
 20
779.88034100000004
 11
195.2402955
 21
776.38034100000004
  0
ARC
  8
_0-0_0
  6
CONTINUOUS
 62
    7
 10
194.12777649999998
 20
779.94998199999998
 40
0.2
 50
90.000003000000007
 51
200.37643
  0
LINE
  8
_0-0_0
  6
CONTINUOUS
 62
    7
 10
194.12777649999998
 20
780.14999399999999
 11
196.72778349999999
 21
780.14999399999999
  0
ARC
  8
_0-0_0
  6
CONTINUOUS
 62
    7
 10
1434.1276854999999
 20
779.94998199999998
 40
0.2
 50
90.000003000000007
 51
200.37643
  0
LINE
  8
_0-0_0
  6
CONTINUOUS
 62
    7
 10
1434.1276854999999
 20
780.14999399999999
 11
1436.7277835
 21
780.14999399999999
  0
ARC
  8
_0-0_0
  6
CONTINUOUS
 62
    7
 10
1431.9277345
 20
780.25
 40
0.5
 50
90.000003000000007
 51
179.99999099999999
  0
LINE
  8
_0-0_0
  6
CONTINUOUS
 62
    7
 10
1431.4277345
 20
780.25
 11
1431.4277345
 21
776.25
  0
ARC
  8
_0-0_0
  6
CONTINUOUS
 62
    7
 10
1431.9277345
 20
776.25
 40
0.5
 50
179.99999099999999
 51
269.99999700000001
  0
LINE
  8
_0-0_0
  6
CONTINUOUS
 62
    7
 10
1438.9277345
 20
775.75
 11
1431.9277345
 21
775.75
  0
ARC
  8
_0-0_0
  6
CONTINUOUS
 62
    7
 10
1438.9277345
 20
776.25
 40
0.5
 50
269.99999700000001
 51
0
  0
LINE
  8
_0-0_0
  6
CONTINUOUS
 62
    7
 10
1439.4277345
 20
776.25
 11
1439.4277345
 21
780.25
  0
ARC
  8
_0-0_0
  6
CONTINUOUS
 62
    7
 10
1438.9277345
 20
780.25
 40
0.5
 50
0
 51
90.000003000000007
  0
LINE
  8
_0-0_0
  6
CONTINUOUS
 62
    7
 10
1431.9277345
 20
780.75
 11
1438.9277345
 21
780.75
  0
LINE
  8
_0-0_0
  6
CONTINUOUS
 62
    7
 10
1433.9403075
 20
779.88034100000004
 11
1435.2402345
 21
776.38034100000004
  0
ARC
  8
_0-0_0
  6
CONTINUOUS
 62
    7
 10
1435.4277345
 20
776.44998199999998
 40
0.2
 50
200.37643
 51
339.62356199999999
  0
LINE
  8
_0-0_0
  6
CONTINUOUS
 62
    7
 10
1436.9151615000001
 20
779.88034100000004
 11
1435.6152345
 21
776.38034100000004
  0
ARC
  8
_0-0_0
  6
CONTINUOUS
 62
    7
 10
1436.7277835
 20
779.94998199999998
 40
0.2
 50
339.62356199999999
 51
90.000002999999978
  0
LINE
  8
_0-0_0
  6
CONTINUOUS
 62
    7
 10
147.92778049999993
 20
773.25
 11
152.92778049999993
 21
773.25
  0
LINE
  8
_0-0_0
  6
CONTINUOUS
 62
    7
 10
152.92778049999993
 20
773.25
 11
154.72778349999999
 21
773.25
  0
LINE
  8
_0-0_0
  6
CONTINUOUS
 62
    7
 10
154.72778349999999
 20
773.25
 11
155.42778049999993
 21
773.25
  0
ARC
  8
_0-0_0
  6
CONTINUOUS
 62
    7
 10
154.72778349999999
 20
772.75
 40
0.5
 50
0
 51
90.000003000000007
  0
ARC
  8
_0-0_0
  6
CONTINUOUS
 62
    7
 10
147.92778049999993
 20
772.75
 40
0.5
 50
90.000003000000007
 51
179.99999099999999
  0
ARC
  8
_0-0_0
  6
CONTINUOUS
 62
    7
 10
251.42778049999993
 20
772.75
 40
0.5
 50
0
 51
90.000003000000007
  0
LINE
  8
_0-0_0
  6
CONTINUOUS
 62
    7
 10
155.42778049999993
 20
773.25
 11
155.42778049999993
 21
771.75
  0
LINE
  8
_0-0_0
  6
CONTINUOUS
 62
    7
 10
155.42778049999993
 20
773.75
 11
155.42778049999993
 21
773.25
  0
LINE
  8
_0-0_0
  6
CONTINUOUS
 62
    7
 10
155.42778049999993
 20
774.25
 11
155.42778049999993
 21
773.75
  0
LINE
  8
_0-0_0
  6
CONTINUOUS
 62
    7
 10
155.42778049999993
 20
775.25
 11
155.42778049999993
 21
774.25
  0
LINE
  8
_0-0_0
  6
CONTINUOUS
 62
    7
 10
159.42777949999993
 20
773.25
 11
160.12777649999998
 21
773.25
  0
LINE
  8
_0-0_0
  6
CONTINUOUS
 62
    7
 10
155.22778349999999
 20
772.75
 11
155.22778349999999
 21
771.75
  0
LINE
  8
_0-0_0
  6
CONTINUOUS
 62
    7
 10
158.42777949999993
 20
746.25
 11
158.42777949999993
 21
747.84997599999997
  0
LINE
  8
_0-0_0
  6
CONTINUOUS
 62
    7
 10
158.42777949999993
 20
746.25
 11
152.92778049999993
 21
746.25
  0
LINE
  8
_0-0_0
  6
CONTINUOUS
 62
    7
 10
174.42778049999993
 20
752.94998199999998
 11
216.42778049999993
 21
752.94998199999998
  0
LINE
  8
_0-0_0
  6
CONTINUOUS
 62
    7
 10
174.42778049999993
 20
772.54998799999998
 11
216.42778049999993
 21
772.54998799999998
  0
LINE
  8
_0-0_0
  6
CONTINUOUS
 62
    7
 10
237.92778049999993
 20
746.25
 11
228.42778049999993
 21
746.25
  0
LINE
  8
_0-0_0
  6
CONTINUOUS
 62
    7
 10
228.42778049999993
 20
746.25
 11
228.42778049999993
 21
747.84997599999997
  0
ARC
  8
_0-0_0
  6
CONTINUOUS
 62
    7
 10
228.12777649999998
 20
747.84997599999997
 40
0.2999999999999999
 50
0
 51
90.000003000000007
  0
LINE
  8
_0-0_0
  6
CONTINUOUS
 62
    7
 10
227.42778049999993
 20
748.14999399999999
 11
228.12777649999998
 21
748.14999399999999
  0
LINE
  8
_0-0_0
  6
CONTINUOUS
 62
    7
 10
226.92778049999993
 20
748.54998799999998
 11
227.42778049999993
 21
748.54998799999998
  0
LINE
  8
_0-0_0
  6
CONTINUOUS
 62
    7
 10
213.42778049999993
 20
748.54998799999998
 11
226.92778049999993
 21
748.54998799999998
  0
ARC
  8
_0-0_0
  6
CONTINUOUS
 62
    7
 10
210.92778049999993
 20
748.54998799999998
 40
2.5
 50
0
 51
90.000003000000007
  0
LINE
  8
_0-0_0
  6
CONTINUOUS
 62
    7
 10
179.92778049999993
 20
751.04998799999998
 11
210.92778049999993
 21
751.04998799999998
  0
ARC
  8
_0-0_0
  6
CONTINUOUS
 62
    7
 10
179.92778049999993
 20
748.54998799999998
 40
2.5
 50
90.000003000000007
 51
179.99999099999999
  0
LINE
  8
_0-0_0
  6
CONTINUOUS
 62
    7
 10
159.92777949999993
 20
748.54998799999998
 11
177.42778049999993
 21
748.54998799999998
  0
LINE
  8
_0-0_0
  6
CONTINUOUS
 62
    7
 10
159.42777949999993
 20
748.54998799999998
 11
159.92777949999993
 21
748.54998799999998
  0
LINE
  8
_0-0_0
  6
CONTINUOUS
 62
    7
 10
158.72778249999999
 20
748.14999399999999
 11
159.42777949999993
 21
748.14999399999999
  0
ARC
  8
_0-0_0
  6
CONTINUOUS
 62
    7
 10
158.72778249999999
 20
747.84997599999997
 40
0.2999999999999999
 50
90.000003000000007
 51
179.99999099999999
  0
LINE
  8
_0-0_0
  6
CONTINUOUS
 62
    7
 10
147.42778049999993
 20
770.97485400000005
 11
147.42778049999993
 21
772.75
  0
LINE
  8
_0-0_0
  6
CONTINUOUS
 62
    7
 10
152.42778049999993
 20
773.75
 11
152.42778049999993
 21
773.25
  0
LINE
  8
_0-0_0
  6
CONTINUOUS
 62
    7
 10
152.42778049999993
 20
769.80355800000007
 11
152.42778049999993
 21
769.90853900000002
  0
LINE
  8
_0-0_0
  6
CONTINUOUS
 62
    7
 10
152.42778049999993
 20
773.75
 11
152.42778049999993
 21
775.24996899999996
  0
LINE
  8
_0-0_0
  6
CONTINUOUS
 62
    7
 10
251.92778049999993
 20
775.24996899999996
 11
251.92778049999993
 21
773.75
  0
LINE
  8
_0-0_0
  6
CONTINUOUS
 62
    7
 10
251.92778049999993
 20
773.75
 11
251.92778049999993
 21
772.75
  0
LINE
  8
_0-0_0
  6
CONTINUOUS
 62
    7
 10
251.92778049999993
 20
771.94998199999998
 11
251.92778049999993
 21
772.75
  0
LINE
  8
_0-0_0
  6
CONTINUOUS
 62
    7
 10
251.42778049999993
 20
773.25
 11
251.92778049999993
 21
773.25
  0
LINE
  8
_0-0_0
  6
CONTINUOUS
 62
    7
 10
238.92778049999993
 20
773.25
 11
251.42778049999993
 21
773.25
  0
LINE
  8
_0-0_0
  6
CONTINUOUS
 62
    7
 10
251.92778049999993
 20
775.25
 11
251.92778049999993
 21
774.25
  0
LINE
  8
_0-0_0
  6
CONTINUOUS
 62
    7
 10
251.92778049999993
 20
773.75
 11
251.92778049999993
 21
773.25
  0
LINE
  8
_0-0_0
  6
CONTINUOUS
 62
    7
 10
251.92778049999993
 20
774.25
 11
251.92778049999993
 21
773.75
  0
ARC
  8
_0-0_0
  6
CONTINUOUS
 62
    7
 10
157.42777949999993
 20
771.75
 40
2
 50
179.99999099999999
 51
0
  0
LINE
  8
_0-0_0
  6
CONTINUOUS
 62
    7
 10
238.42778049999993
 20
773.25
 11
238.92778049999993
 21
773.25
  0
LINE
  8
_0-0_0
  6
CONTINUOUS
 62
    7
 10
238.42778049999993
 20
772.75
 11
238.42778049999993
 21
773.25
  0
LINE
  8
_0-0_0
  6
CONTINUOUS
 62
    7
 10
238.42778049999993
 20
771.75
 11
238.42778049999993
 21
771.94998199999998
  0
ARC
  8
_0-0_0
  6
CONTINUOUS
 62
    7
 10
236.42778049999993
 20
771.75
 40
2
 50
179.99999099999999
 51
0
  0
LINE
  8
_0-0_0
  6
CONTINUOUS
 62
    7
 10
234.42778049999993
 20
773.25
 11
234.42778049999993
 21
771.75
  0
LINE
  8
_0-0_0
  6
CONTINUOUS
 62
    7
 10
233.72778349999999
 20
773.25
 11
234.42778049999993
 21
773.25
  0
LINE
  8
_0-0_0
  6
CONTINUOUS
 62
    7
 10
159.42777949999993
 20
771.75
 11
159.42777949999993
 21
773.25
  0
LINE
  8
_0-0_0
  6
CONTINUOUS
 62
    7
 10
155.42778049999993
 20
774.25
 11
251.92778049999993
 21
774.25
  0
ARC
  8
_0-0_0
  6
CONTINUOUS
 62
    7
 10
160.12777649999998
 20
772.75
 40
0.5
 50
90.000003000000007
 51
179.99999099999999
  0
ARC
  8
_0-0_0
  6
CONTINUOUS
 62
    7
 10
157.42777949999993
 20
771.75
 40
2.2000000000000002
 50
179.99999099999999
 51
0
  0
LINE
  8
_0-0_0
  6
CONTINUOUS
 62
    7
 10
159.42777949999993
 20
748.14999399999999
 11
159.92777949999993
 21
748.14999399999999
  0
LINE
  8
_0-0_0
  6
CONTINUOUS
 62
    7
 10
159.92777949999993
 20
748.54998799999998
 11
159.92777949999993
 21
748.14999399999999
  0
LINE
  8
_0-0_0
  6
CONTINUOUS
 62
    7
 10
177.42778049999993
 20
748.54998799999998
 11
213.42778049999993
 21
748.54998799999998
  0
LINE
  8
_0-0_0
  6
CONTINUOUS
 62
    7
 10
226.92778049999993
 20
748.14999399999999
 11
227.42778049999993
 21
748.14999399999999
  0
LINE
  8
_0-0_0
  6
CONTINUOUS
 62
    7
 10
226.92778049999993
 20
748.54998799999998
 11
226.92778049999993
 21
748.14999399999999
  0
LINE
  8
_0-0_0
  6
CONTINUOUS
 62
    7
 10
237.92778049999993
 20
745.75
 11
228.92778049999993
 21
745.75
  0
ARC
  8
_0-0_0
  6
CONTINUOUS
 62
    7
 10
228.92778049999993
 20
746.25
 40
0.5
 50
179.99999099999999
 51
269.99999700000001
  0
LINE
  8
_0-0_0
  6
CONTINUOUS
 62
    7
 10
237.92778049999993
 20
746.25
 11
238.42778049999993
 21
746.25
  0
LINE
  8
_0-0_0
  6
CONTINUOUS
 62
    7
 10
238.42778049999993
 20
746.25
 11
238.42778049999993
 21
746.44998199999998
  0
LINE
  8
_0-0_0
  6
CONTINUOUS
 62
    7
 10
242.92778049999993
 20
746.64999399999999
 11
238.62777649999998
 21
746.64999399999999
  0
LINE
  8
_0-0_0
  6
CONTINUOUS
 62
    7
 10
243.42778049999993
 20
747.14999399999999
 11
243.42778049999993
 21
748.92511000000002
  0
ARC
  8
_0-0_0
  6
CONTINUOUS
 62
    7
 10
240.37982149999993
 20
748.86898799999994
 40
3.0490550000000001
 50
1.0548960000000001
 51
14.838094000000002
  0
LINE
  8
_0-0_0
  6
CONTINUOUS
 62
    7
 10
242.92778049999993
 20
749.84997599999997
 11
238.56024149999996
 21
749.84997599999997
  0
LINE
  8
_0-0_0
  6
CONTINUOUS
 62
    7
 10
238.42778049999993
 20
749.99142499999994
 11
238.42778049999993
 21
750.33367900000007
  0
ARC
  8
_0-0_0
  6
CONTINUOUS
 62
    7
 10
236.42778049999993
 20
771.75
 40
2.2000000000000002
 50
179.99999099999999
 51
303.74900400000001
  0
LINE
  8
_0-0_0
  6
CONTINUOUS
 62
    7
 10
234.22778349999999
 20
772.75
 11
234.22778349999999
 21
771.75
  0
LINE
  8
_0-0_0
  6
CONTINUOUS
 62
    7
 10
233.72778349999999
 20
773.25
 11
160.12777649999998
 21
773.25
  0
LINE
  8
_0-0_0
  6
CONTINUOUS
 62
    7
 10
159.62777649999998
 20
771.75
 11
159.62777649999998
 21
772.75
  0
LINE
  8
_0-0_0
  6
CONTINUOUS
 62
    7
 10
160.12777649999998
 20
771.54998799999998
 11
160.12777649999998
 21
771.75
  0
ARC
  8
_0-0_0
  6
CONTINUOUS
 62
    7
 10
161.12777649999998
 20
771.54998799999998
 40
1
 50
90.000003000000007
 51
179.99999099999999
  0
LINE
  8
_0-0_0
  6
CONTINUOUS
 62
    7
 10
161.12777649999998
 20
772.54998799999998
 11
174.42778049999993
 21
772.54998799999998
  0
LINE
  8
_0-0_0
  6
CONTINUOUS
 62
    7
 10
216.42778049999993
 20
772.54998799999998
 11
230.42778049999993
 21
772.54998799999998
  0
ARC
  8
_0-0_0
  6
CONTINUOUS
 62
    7
 10
230.42778049999993
 20
769.54998799999998
 40
3
 50
0
 51
90.000003000000007
  0
LINE
  8
_0-0_0
  6
CONTINUOUS
 62
    7
 10
233.42778049999993
 20
755.94998199999998
 11
233.42778049999993
 21
769.54998799999998
  0
ARC
  8
_0-0_0
  6
CONTINUOUS
 62
    7
 10
230.42778049999993
 20
755.94998199999998
 40
3
 50
269.99999700000001
 51
0
  0
LINE
  8
_0-0_0
  6
CONTINUOUS
 62
    7
 10
230.42778049999993
 20
752.94998199999998
 11
216.42778049999993
 21
752.94998199999998
  0
LINE
  8
_0-0_0
  6
CONTINUOUS
 62
    7
 10
174.42778049999993
 20
752.94998199999998
 11
160.42777949999993
 21
752.94998199999998
  0
ARC
  8
_0-0_0
  6
CONTINUOUS
 62
    7
 10
160.42777949999993
 20
755.94998199999998
 40
3
 50
179.99999099999999
 51
269.99999700000001
  0
LINE
  8
_0-0_0
  6
CONTINUOUS
 62
    7
 10
157.42777949999993
 20
768.18768299999999
 11
157.42777949999993
 21
755.94998199999998
  0
ARC
  8
_0-0_0
  6
CONTINUOUS
 62
    7
 10
158.42777949999993
 20
768.18768299999999
 40
1
 50
105.68034800000001
 51
179.99999100000002
  0
ARC
  8
_0-0_0
  6
CONTINUOUS
 62
    7
 10
150.4757535
 20
771.03097500000001
 40
3.0490550000000001
 50
181.05489
 51
194.838089
  0
LINE
  8
_0-0_0
  6
CONTINUOUS
 62
    7
 10
152.29531850000001
 20
770.04998799999998
 11
147.92778049999993
 21
770.04998799999998
  0
LINE
  8
_0-0_0
  6
CONTINUOUS
 62
    7
 10
152.42778049999993
 20
749.99142499999994
 11
152.42778049999993
 21
750.096405
  0
LINE
  8
_0-0_0
  6
CONTINUOUS
 62
    7
 10
152.29531850000001
 20
749.84997599999997
 11
147.92778049999993
 21
749.84997599999997
  0
ARC
  8
_0-0_0
  6
CONTINUOUS
 62
    7
 10
150.47692849999999
 20
748.86834700000009
 40
3.050319
 50
165.15540799999999
 51
178.932897
  0
LINE
  8
_0-0_0
  6
CONTINUOUS
 62
    7
 10
147.42778049999993
 20
747.14999399999999
 11
147.42778049999993
 21
748.92511000000002
  0
LINE
  8
_0-0_0
  6
CONTINUOUS
 62
    7
 10
152.22778349999999
 20
746.64999399999999
 11
147.92778049999993
 21
746.64999399999999
  0
LINE
  8
_0-0_0
  6
CONTINUOUS
 62
    7
 10
152.42778049999993
 20
746.25
 11
152.42778049999993
 21
746.44998199999998
  0
LINE
  8
_0-0_0
  6
CONTINUOUS
 62
    7
 10
152.42778049999993
 20
746.25
 11
152.92778049999993
 21
746.25
  0
LINE
  8
_0-0_0
  6
CONTINUOUS
 62
    7
 10
157.92777949999993
 20
745.75
 11
152.92778049999993
 21
745.75
  0
ARC
  8
_0-0_0
  6
CONTINUOUS
 62
    7
 10
157.92777949999993
 20
746.25
 40
0.5
 50
269.99999700000001
 51
0
  0
LINE
  8
_0-0_0
  6
CONTINUOUS
 62
    7
 10
147.74603249999996
 20
770.04998799999998
 11
147.72569249999992
 21
770.05099500000006
  0
LINE
  8
_0-0_0
  6
CONTINUOUS
 62
    7
 10
147.72569249999992
 20
770.05099500000006
 11
147.70527649999997
 21
770.05413799999997
  0
LINE
  8
_0-0_0
  6
CONTINUOUS
 62
    7
 10
147.70527649999997
 20
770.05413799999997
 11
147.67846650000001
 21
770.06173699999999
  0
LINE
  8
_0-0_0
  6
CONTINUOUS
 62
    7
 10
147.67846650000001
 20
770.06173699999999
 11
147.65281649999997
 21
770.07312000000002
  0
LINE
  8
_0-0_0
  6
CONTINUOUS
 62
    7
 10
147.65281649999997
 20
770.07312000000002
 11
147.62901249999993
 21
770.08798200000001
  0
LINE
  8
_0-0_0
  6
CONTINUOUS
 62
    7
 10
147.62901249999993
 20
770.08798200000001
 11
147.61225849999994
 21
770.10150099999998
  0
LINE
  8
_0-0_0
  6
CONTINUOUS
 62
    7
 10
147.61225849999994
 20
770.10150099999998
 11
147.59675549999997
 21
770.11672999999996
  0
LINE
  8
_0-0_0
  6
CONTINUOUS
 62
    7
 10
147.59675549999997
 20
770.11672999999996
 11
147.56985449999991
 21
770.15136699999994
  0
LINE
  8
_0-0_0
  6
CONTINUOUS
 62
    7
 10
147.56985449999991
 20
770.15136699999994
 11
147.54881249999994
 21
770.18969700000002
  0
LINE
  8
_0-0_0
  6
CONTINUOUS
 62
    7
 10
147.54881249999994
 20
770.18969700000002
 11
147.53681949999998
 21
770.21963499999993
  0
LINE
  8
_0-0_0
  6
CONTINUOUS
 62
    7
 10
147.53681949999998
 20
770.21963499999993
 11
147.52778649999993
 21
770.25
  0
LINE
  8
_0-0_0
  6
CONTINUOUS
 62
    7
 10
147.43897949999996
 20
770.75
 11
140.42778049999993
 21
770.75
  0
LINE
  8
_0-0_0
  6
CONTINUOUS
 62
    7
 10
140.42778049999993
 20
770.75
 11
135.75233449999996
 21
770.75
  0
LINE
  8
_0-0_0
  6
CONTINUOUS
 62
    7
 10
140.42778049999993
 20
770.75
 11
140.42778049999993
 21
768.75
  0
LINE
  8
_0-0_0
  6
CONTINUOUS
 62
    7
 10
152.42778049999993
 20
768.75
 11
152.42778049999993
 21
769.80355800000007
  0
ARC
  8
_0-0_0
  6
CONTINUOUS
 62
    7
 10
251.42778049999993
 20
771.94998199999998
 40
0.5
 50
269.99999700000001
 51
0
  0
ARC
  8
_0-0_0
  6
CONTINUOUS
 62
    7
 10
238.92778049999993
 20
772.75
 40
0.5
 50
90.000003000000007
 51
179.99999099999999
  0
LINE
  8
_0-0_0
  6
CONTINUOUS
 62
    7
 10
238.42778049999993
 20
771.94998199999998
 11
238.42778049999993
 21
772.75
  0
LINE
  8
_0-0_0
  6
CONTINUOUS
 62
    7
 10
158.62777649999998
 20
748.13284299999998
 11
158.62777649999998
 21
746.14999399999999
  0
LINE
  8
_0-0_0
  6
CONTINUOUS
 62
    7
 10
158.62777649999998
 20
746.14999399999999
 11
159.62777649999998
 21
746.14999399999999
  0
LINE
  8
_0-0_0
  6
CONTINUOUS
 62
    7
 10
159.92777949999993
 20
748.14999399999999
 11
226.92778049999993
 21
748.14999399999999
  0
LINE
  8
_0-0_0
  6
CONTINUOUS
 62
    7
 10
159.62777649999998
 20
746.14999399999999
 11
227.22778349999999
 21
746.14999399999999
  0
LINE
  8
_0-0_0
  6
CONTINUOUS
 62
    7
 10
227.22778349999999
 20
746.14999399999999
 11
228.22778349999999
 21
746.14999399999999
  0
LINE
  8
_0-0_0
  6
CONTINUOUS
 62
    7
 10
228.22778349999999
 20
748.13284299999998
 11
228.22778349999999
 21
746.14999399999999
  0
LINE
  8
_0-0_0
  6
CONTINUOUS
 62
    7
 10
238.42778049999993
 20
746.25
 11
237.92778049999993
 21
745.75
  0
ARC
  8
_0-0_0
  6
CONTINUOUS
 62
    7
 10
238.62777649999998
 20
746.44998199999998
 40
0.2
 50
90.000003000000007
 51
179.99999099999999
  0
ARC
  8
_0-0_0
  6
CONTINUOUS
 62
    7
 10
242.92778049999993
 20
747.14999399999999
 40
0.5
 50
269.99999700000001
 51
0
  0
LINE
  8
_0-0_0
  6
CONTINUOUS
 62
    7
 10
243.10952750000001
 20
749.84997599999997
 11
243.12988249999989
 21
749.84896900000001
  0
LINE
  8
_0-0_0
  6
CONTINUOUS
 62
    7
 10
243.12988249999989
 20
749.84896900000001
 11
243.1502835
 21
749.84582499999999
  0
LINE
  8
_0-0_0
  6
CONTINUOUS
 62
    7
 10
243.1502835
 20
749.84582499999999
 11
243.17710849999992
 21
749.83822600000008
  0
LINE
  8
_0-0_0
  6
CONTINUOUS
 62
    7
 10
243.17710849999992
 20
749.83822600000008
 11
243.2027435
 21
749.82687399999998
  0
LINE
  8
_0-0_0
  6
CONTINUOUS
 62
    7
 10
243.2027435
 20
749.82687399999998
 11
243.22654749999992
 21
749.81198100000006
  0
LINE
  8
_0-0_0
  6
CONTINUOUS
 62
    7
 10
243.22654749999992
 20
749.81198100000006
 11
243.24330149999992
 21
749.79846199999997
  0
LINE
  8
_0-0_0
  6
CONTINUOUS
 62
    7
 10
243.24330149999992
 20
749.79846199999997
 11
243.2588045
 21
749.78326399999992
  0
LINE
  8
_0-0_0
  6
CONTINUOUS
 62
    7
 10
243.2588045
 20
749.78326399999992
 11
243.28570549999995
 21
749.74859600000002
  0
LINE
  8
_0-0_0
  6
CONTINUOUS
 62
    7
 10
243.28570549999995
 20
749.74859600000002
 11
243.30674749999991
 21
749.71026600000005
  0
LINE
  8
_0-0_0
  6
CONTINUOUS
 62
    7
 10
243.30674749999991
 20
749.71026600000005
 11
243.31874049999999
 21
749.68035899999995
  0
LINE
  8
_0-0_0
  6
CONTINUOUS
 62
    7
 10
243.31874049999999
 20
749.68035899999995
 11
243.32778949999999
 21
749.64999399999999
  0
LINE
  8
_0-0_0
  6
CONTINUOUS
 62
    7
 10
243.10952750000001
 20
749.84997599999997
 11
242.92778049999993
 21
749.84997599999997
  0
LINE
  8
_0-0_0
  6
CONTINUOUS
 62
    7
 10
238.42778049999993
 20
768.29998799999998
 11
238.42778049999993
 21
770.79998799999998
  0
LINE
  8
_0-0_0
  6
CONTINUOUS
 62
    7
 10
238.42778049999993
 20
768.29998799999998
 11
238.42778049999993
 21
751.79998799999998
  0
LINE
  8
_0-0_0
  6
CONTINUOUS
 62
    7
 10
238.42778049999993
 20
750.33367900000007
 11
238.42778049999993
 21
751.79998799999998
  0
ARC
  8
_0-0_0
  6
CONTINUOUS
 62
    7
 10
237.92778049999993
 20
769.50500499999998
 40
0.5
 50
0
 51
123.74898500000002
  0
ARC
  8
_0-0_0
  6
CONTINUOUS
 62
    7
 10
238.59806849999995
 20
750.02328499999999
 40
0.1734229999999999
 50
181.12417600000003
 51
270.64883800000007
  0
LINE
  8
_0-0_0
  6
CONTINUOUS
 62
    7
 10
238.4237364999999
 20
750.04998799999998
 11
238.4238284999999
 21
750.01986699999998
  0
ARC
  8
_0-0_0
  6
CONTINUOUS
 62
    7
 10
233.72778349999999
 20
772.75
 40
0.5
 50
0
 51
90.000003000000007
  0
ARC
  8
_0-0_0
  6
CONTINUOUS
 62
    7
 10
157.42777949999993
 20
771.75
 40
2.7000000000000002
 50
285.68033600000007
 51
0.0000000000000381
  0
ARC
  8
_0-0_0
  6
CONTINUOUS
 62
    7
 10
174.42778049999993
 20
755.94998199999998
 40
3
 50
269.99999700000001
 51
0
  0
LINE
  8
_0-0_0
  6
CONTINUOUS
 62
    7
 10
177.42778049999993
 20
755.94998199999998
 11
177.42778049999993
 21
769.54998799999998
  0
ARC
  8
_0-0_0
  6
CONTINUOUS
 62
    7
 10
174.42778049999993
 20
769.54998799999998
 40
3
 50
0
 51
90.000003000000007
  0
ARC
  8
_0-0_0
  6
CONTINUOUS
 62
    7
 10
169.92777949999993
 20
765.25
 40
4.5
 50
269.99999700000001
 51
90.000002999999992
  0
LINE
  8
_0-0_0
  6
CONTINUOUS
 62
    7
 10
169.92777949999993
 20
760.75
 11
164.92777949999993
 21
760.75
  0
ARC
  8
_0-0_0
  6
CONTINUOUS
 62
    7
 10
164.92777949999993
 20
765.25
 40
4.5
 50
90.000003000000007
 51
269.99999700000006
  0
LINE
  8
_0-0_0
  6
CONTINUOUS
 62
    7
 10
164.92777949999993
 20
769.75
 11
169.92777949999993
 21
769.75
  0
ARC
  8
_0-0_0
  6
CONTINUOUS
 62
    7
 10
216.42778049999993
 20
755.94998199999998
 40
3
 50
179.99999099999999
 51
269.99999700000001
  0
LINE
  8
_0-0_0
  6
CONTINUOUS
 62
    7
 10
213.42778049999993
 20
769.54998799999998
 11
213.42778049999993
 21
755.94998199999998
  0
ARC
  8
_0-0_0
  6
CONTINUOUS
 62
    7
 10
216.42778049999993
 20
769.54998799999998
 40
3
 50
90.000003000000007
 51
179.99999099999999
  0
ARC
  8
_0-0_0
  6
CONTINUOUS
 62
    7
 10
225.92778049999993
 20
765.25
 40
4.5
 50
269.99999700000001
 51
90.000002999999992
  0
LINE
  8
_0-0_0
  6
CONTINUOUS
 62
    7
 10
225.92778049999993
 20
760.75
 11
220.92778049999993
 21
760.75
  0
ARC
  8
_0-0_0
  6
CONTINUOUS
 62
    7
 10
220.92778049999993
 20
765.25
 40
4.5
 50
90.000003000000007
 51
269.99999700000006
  0
LINE
  8
_0-0_0
  6
CONTINUOUS
 62
    7
 10
220.92778049999993
 20
769.75
 11
225.92778049999993
 21
769.75
  0
LINE
  8
_0-0_0
  6
CONTINUOUS
 62
    7
 10
147.92778049999993
 20
770.04998799999998
 11
147.74603249999996
 21
770.04998799999998
  0
LINE
  8
_0-0_0
  6
CONTINUOUS
 62
    7
 10
152.42778049999993
 20
768.75
 11
152.42778049999993
 21
751.14999399999999
  0
LINE
  8
_0-0_0
  6
CONTINUOUS
 62
    7
 10
152.42778049999993
 20
750.096405
 11
152.42778049999993
 21
751.14999399999999
  0
ARC
  8
_0-0_0
  6
CONTINUOUS
 62
    7
 10
152.25749150000001
 20
750.02328499999999
 40
0.1734209999999999
 50
269.35085600000002
 51
358.87625300000002
  0
LINE
  8
_0-0_0
  6
CONTINUOUS
 62
    7
 10
152.43182349999995
 20
750.04998799999998
 11
152.43174749999991
 21
750.01986699999998
  0
LINE
  8
_0-0_0
  6
CONTINUOUS
 62
    7
 10
152.43182349999995
 20
769.84997599999997
 11
152.43174749999991
 21
769.88012700000002
  0
ARC
  8
_0-0_0
  6
CONTINUOUS
 62
    7
 10
152.25749150000001
 20
769.87670900000001
 40
0.1734219999999999
 50
1.1236539999999999
 51
90.649110000000007
  0
LINE
  8
_0-0_0
  6
CONTINUOUS
 62
    7
 10
147.92778049999993
 20
749.84997599999997
 11
147.74603249999996
 21
749.84997599999997
  0
LINE
  8
_0-0_0
  6
CONTINUOUS
 62
    7
 10
147.74603249999996
 20
749.84997599999997
 11
147.72569249999992
 21
749.84896900000001
  0
LINE
  8
_0-0_0
  6
CONTINUOUS
 62
    7
 10
147.72569249999992
 20
749.84896900000001
 11
147.70527649999997
 21
749.84582499999999
  0
LINE
  8
_0-0_0
  6
CONTINUOUS
 62
    7
 10
147.70527649999997
 20
749.84582499999999
 11
147.67846650000001
 21
749.83822600000008
  0
LINE
  8
_0-0_0
  6
CONTINUOUS
 62
    7
 10
147.67846650000001
 20
749.83822600000008
 11
147.65281649999997
 21
749.82687399999998
  0
LINE
  8
_0-0_0
  6
CONTINUOUS
 62
    7
 10
147.65281649999997
 20
749.82687399999998
 11
147.62901249999993
 21
749.81198100000006
  0
LINE
  8
_0-0_0
  6
CONTINUOUS
 62
    7
 10
147.62901249999993
 20
749.81198100000006
 11
147.61225849999994
 21
749.79846199999997
  0
LINE
  8
_0-0_0
  6
CONTINUOUS
 62
    7
 10
147.61225849999994
 20
749.79846199999997
 11
147.59675549999997
 21
749.78326399999992
  0
LINE
  8
_0-0_0
  6
CONTINUOUS
 62
    7
 10
147.59675549999997
 20
749.78326399999992
 11
147.56985449999991
 21
749.74859600000002
  0
LINE
  8
_0-0_0
  6
CONTINUOUS
 62
    7
 10
147.56985449999991
 20
749.74859600000002
 11
147.54881249999994
 21
749.71026600000005
  0
LINE
  8
_0-0_0
  6
CONTINUOUS
 62
    7
 10
147.54881249999994
 20
749.71026600000005
 11
147.53681949999998
 21
749.68035899999995
  0
LINE
  8
_0-0_0
  6
CONTINUOUS
 62
    7
 10
147.53681949999998
 20
749.68035899999995
 11
147.52778649999993
 21
749.64999399999999
  0
ARC
  8
_0-0_0
  6
CONTINUOUS
 62
    7
 10
147.92778049999993
 20
747.14999399999999
 40
0.5
 50
179.99999099999999
 51
269.99999700000001
  0
ARC
  8
_0-0_0
  6
CONTINUOUS
 62
    7
 10
152.22778349999999
 20
746.44998199999998
 40
0.2
 50
0
 51
90.000003000000007
  0
LINE
  8
_0-0_0
  6
CONTINUOUS
 62
    7
 10
152.42778049999993
 20
746.25
 11
152.92778049999993
 21
745.75
  0
ARC
  8
_0-0_0
  6
CONTINUOUS
 62
    7
 10
135.75233449999996
 20
768.75
 40
2
 50
90.000003000000007
 51
108.434997
  0
LINE
  8
_0-0_0
  6
CONTINUOUS
 62
    7
 10
140.42778049999993
 20
768.25
 11
140.42778049999993
 21
768.75
  0
LINE
  8
_0-0_0
  6
CONTINUOUS
 62
    7
 10
140.42778049999993
 20
765.25
 11
140.42778049999993
 21
764.75
  0
LINE
  8
_0-0_0
  6
CONTINUOUS
 62
    7
 10
140.42778049999993
 20
765.25
 11
140.42778049999993
 21
768.25
  0
ARC
  8
_0-0_0
  6
CONTINUOUS
 62
    7
 10
146.4277955
 20
765.44998199999998
 40
0.500016
 50
0.001164
 51
179.99560600000004
  0
LINE
  8
_0-0_0
  6
CONTINUOUS
 62
    7
 10
145.92778049999993
 20
765.44998199999998
 11
145.92778049999993
 21
753.44998199999998
  0
ARC
  8
_0-0_0
  6
CONTINUOUS
 62
    7
 10
146.4277955
 20
753.45001200000002
 40
0.500016
 50
180.00117
 51
359.995611
  0
LINE
  8
_0-0_0
  6
CONTINUOUS
 62
    7
 10
146.92778049999993
 20
765.44998199999998
 11
146.92778049999993
 21
753.44998199999998
  0
ARC
  8
_0-0_0
  6
CONTINUOUS
 62
    7
 10
144.9277955
 20
765.44998199999998
 40
0.500016
 50
0.001164
 51
179.99560600000004
  0
LINE
  8
_0-0_0
  6
CONTINUOUS
 62
    7
 10
144.42778049999993
 20
765.44998199999998
 11
144.42778049999993
 21
753.44998199999998
  0
ARC
  8
_0-0_0
  6
CONTINUOUS
 62
    7
 10
144.9277955
 20
753.45001200000002
 40
0.500016
 50
180.00117
 51
359.995611
  0
LINE
  8
_0-0_0
  6
CONTINUOUS
 62
    7
 10
145.42778049999993
 20
765.44998199999998
 11
145.42778049999993
 21
753.44998199999998
  0
ARC
  8
_0-0_0
  6
CONTINUOUS
 62
    7
 10
143.4277955
 20
765.44998199999998
 40
0.500016
 50
0.001164
 51
179.99560600000004
  0
LINE
  8
_0-0_0
  6
CONTINUOUS
 62
    7
 10
142.92778049999993
 20
765.44998199999998
 11
142.92778049999993
 21
753.44998199999998
  0
ARC
  8
_0-0_0
  6
CONTINUOUS
 62
    7
 10
143.4277955
 20
753.45001200000002
 40
0.500016
 50
180.00117
 51
359.995611
  0
LINE
  8
_0-0_0
  6
CONTINUOUS
 62
    7
 10
143.92778049999993
 20
765.44998199999998
 11
143.92778049999993
 21
753.44998199999998
  0
ARC
  8
_0-0_0
  6
CONTINUOUS
 62
    7
 10
141.9277955
 20
765.44998199999998
 40
0.500016
 50
0.001164
 51
179.99560600000004
  0
LINE
  8
_0-0_0
  6
CONTINUOUS
 62
    7
 10
141.42778049999993
 20
765.44998199999998
 11
141.42778049999993
 21
753.44998199999998
  0
ARC
  8
_0-0_0
  6
CONTINUOUS
 62
    7
 10
141.9277955
 20
753.45001200000002
 40
0.500016
 50
180.00117
 51
359.995611
  0
LINE
  8
_0-0_0
  6
CONTINUOUS
 62
    7
 10
142.42778049999993
 20
765.44998199999998
 11
142.42778049999993
 21
753.44998199999998
  0
LINE
  8
_0-0_0
  6
CONTINUOUS
 62
    7
 10
238.42778049999993
 20
771.44998199999998
 11
238.92778049999993
 21
771.44998199999998
  0
LINE
  8
_0-0_0
  6
CONTINUOUS
 62
    7
 10
238.92778049999993
 20
771.44998199999998
 11
251.42778049999993
 21
771.44998199999998
  0
ARC
  8
_0-0_0
  6
CONTINUOUS
 62
    7
 10
238.92778049999993
 20
771.94998199999998
 40
0.5
 50
179.99999099999999
 51
269.99999700000001
  0
LINE
  8
_0-0_0
  6
CONTINUOUS
 62
    7
 10
238.42778049999993
 20
771.08395399999995
 11
238.42778049999993
 21
771.44998199999998
  0
LINE
  8
_0-0_0
  6
CONTINUOUS
 62
    7
 10
238.42778049999993
 20
770.83346600000004
 11
238.42778049999993
 21
770.79998799999998
  0
LINE
  8
_0-0_0
  6
CONTINUOUS
 62
    7
 10
238.42778049999993
 20
771.08395399999995
 11
238.42778049999993
 21
770.83346600000004
  0
CIRCLE
  8
_0-0_0
  6
CONTINUOUS
 62
    7
 10
157.42777949999993
 20
771.75
 40
1.4750000000000001
  0
CIRCLE
  8
_0-0_0
  6
CONTINUOUS
 62
    7
 10
236.42778049999993
 20
771.75
 40
1.4750000000000001
  0
LINE
  8
_0-0_0
  6
CONTINUOUS
 62
    7
 10
238.42778049999993
 20
746.09997599999997
 11
238.42778049999993
 21
746.25
  0
LINE
  8
_0-0_0
  6
CONTINUOUS
 62
    7
 10
243.92778049999993
 20
746.09997599999997
 11
238.42778049999993
 21
746.09997599999997
  0
LINE
  8
_0-0_0
  6
CONTINUOUS
 62
    7
 10
243.92778049999993
 20
748.64999399999999
 11
243.42778049999993
 21
748.64999399999999
  0
LINE
  8
_0-0_0
  6
CONTINUOUS
 62
    7
 10
238.92778049999993
 20
771.29998799999998
 11
238.42778049999993
 21
770.79998799999998
  0
LINE
  8
_0-0_0
  6
CONTINUOUS
 62
    7
 10
238.92778049999993
 20
771.29998799999998
 11
243.92778049999993
 21
771.29998799999998
  0
LINE
  8
_0-0_0
  6
CONTINUOUS
 62
    7
 10
147.43897949999996
 20
749.14999399999999
 11
135.75233449999996
 21
749.14999399999999
  0
LINE
  8
_0-0_0
  6
CONTINUOUS
 62
    7
 10
134.67778049999993
 20
770.49996899999996
 11
135.11987249999993
 21
770.64733899999999
  0
LINE
  8
_0-0_0
  6
CONTINUOUS
 62
    7
 10
130.95343049999997
 20
765.25
 11
130.26007049999998
 21
765.25
  0
LINE
  8
_0-0_0
  6
CONTINUOUS
 62
    7
 10
130.95343049999997
 20
765.25
 11
135.27799949999996
 21
765.25
  0
LINE
  8
_0-0_0
  6
CONTINUOUS
 62
    7
 10
135.75233449999996
 20
765.25
 11
135.27799949999996
 21
765.25
  0
LINE
  8
_0-0_0
  6
CONTINUOUS
 62
    7
 10
140.42778049999993
 20
765.25
 11
135.75233449999996
 21
765.25
  0
LINE
  8
_0-0_0
  6
CONTINUOUS
 62
    7
 10
238.42778049999993
 20
745.95355199999995
 11
238.42778049999993
 21
746.09997599999997
  0
LINE
  8
_0-0_0
  6
CONTINUOUS
 62
    7
 10
238.42778049999993
 20
745.89642300000003
 11
238.42778049999993
 21
745.95355199999995
  0
LINE
  8
_0-0_0
  6
CONTINUOUS
 62
    7
 10
238.42778049999993
 20
745.75
 11
238.42778049999993
 21
745.89642300000003
  0
ARC
  8
_0-0_0
  6
CONTINUOUS
 62
    7
 10
243.92778049999993
 20
746.59997599999997
 40
0.5
 50
269.99999700000001
 51
0
  0
LINE
  8
_0-0_0
  6
CONTINUOUS
 62
    7
 10
244.42778049999993
 20
748.15570100000002
 11
244.42778049999993
 21
746.59997599999997
  0
ARC
  8
_0-0_0
  6
CONTINUOUS
 62
    7
 10
243.94087249999995
 20
748.15234400000008
 40
0.4869939999999999
 50
0.394923
 51
23.93947
  0
ARC
  8
_0-0_0
  6
CONTINUOUS
 62
    7
 10
243.92778049999993
 20
748.14999399999999
 40
0.5
 50
23.578231000000002
 51
90.000002999999992
  0
LINE
  8
_0-0_0
  6
CONTINUOUS
 62
    7
 10
244.42778049999993
 20
768.29998799999998
 11
244.42778049999993
 21
770.79998799999998
  0
ARC
  8
_0-0_0
  6
CONTINUOUS
 62
    7
 10
243.92778049999993
 20
770.79998799999998
 40
0.5
 50
0
 51
90.000003000000007
  0
LINE
  8
_0-0_0
  6
CONTINUOUS
 62
    7
 10
243.92778049999993
 20
755
 11
241.72778349999999
 21
755
  0
LINE
  8
_0-0_0
  6
CONTINUOUS
 62
    7
 10
244.42778049999993
 20
768.29998799999998
 11
244.42778049999993
 21
755.5
  0
LINE
  8
_0-0_0
  6
CONTINUOUS
 62
    7
 10
241.42778049999993
 20
754.69998199999998
 11
241.42778049999993
 21
752.12167399999998
  0
LINE
  8
_0-0_0
  6
CONTINUOUS
 62
    7
 10
171.39932249999993
 20
761.14999399999999
 11
163.45623749999993
 21
761.14999399999999
  0
ARC
  8
_0-0_0
  6
CONTINUOUS
 62
    7
 10
163.45623749999993
 20
761.64999399999999
 40
0.5
 50
210.00000299999999
 51
269.99999700000001
  0
LINE
  8
_0-0_0
  6
CONTINUOUS
 62
    7
 10
163.02322349999997
 20
761.39999399999999
 11
160.94476249999991
 21
765
  0
ARC
  8
_0-0_0
  6
CONTINUOUS
 62
    7
 10
161.37777649999998
 20
765.25
 40
0.5
 50
149.99999700000001
 51
210.00000299999996
  0
LINE
  8
_0-0_0
  6
CONTINUOUS
 62
    7
 10
160.94476249999991
 20
765.5
 11
163.02322349999997
 21
769.09997599999997
  0
ARC
  8
_0-0_0
  6
CONTINUOUS
 62
    7
 10
163.45623749999993
 20
768.84997599999997
 40
0.5
 50
90.000003000000007
 51
149.99999700000001
  0
LINE
  8
_0-0_0
  6
CONTINUOUS
 62
    7
 10
163.45623749999993
 20
769.34997599999997
 11
171.39932249999993
 21
769.34997599999997
  0
ARC
  8
_0-0_0
  6
CONTINUOUS
 62
    7
 10
171.39932249999993
 20
768.84997599999997
 40
0.5
 50
30.000001000000001
 51
90.000003000000007
  0
LINE
  8
_0-0_0
  6
CONTINUOUS
 62
    7
 10
171.8323365
 20
769.09997599999997
 11
173.91079649999995
 21
765.5
  0
ARC
  8
_0-0_0
  6
CONTINUOUS
 62
    7
 10
173.47778349999999
 20
765.25
 40
0.5
 50
329.99998900000003
 51
30.000000999999983
  0
LINE
  8
_0-0_0
  6
CONTINUOUS
 62
    7
 10
173.91079649999995
 20
765
 11
171.8323365
 21
761.39999399999999
  0
ARC
  8
_0-0_0
  6
CONTINUOUS
 62
    7
 10
171.39932249999993
 20
761.64999399999999
 40
0.5
 50
269.99999700000001
 51
329.99998900000003
  0
ARC
  8
_0-0_0
  6
CONTINUOUS
 62
    7
 10
219.39851349999992
 20
761.75
 40
0.5
 50
210.00000299999999
 51
269.99999700000001
  0
LINE
  8
_0-0_0
  6
CONTINUOUS
 62
    7
 10
218.96549949999996
 20
761.5
 11
216.94477849999998
 21
765
  0
ARC
  8
_0-0_0
  6
CONTINUOUS
 62
    7
 10
217.37777649999998
 20
765.25
 40
0.5
 50
149.99999700000001
 51
210.00000299999996
  0
LINE
  8
_0-0_0
  6
CONTINUOUS
 62
    7
 10
216.94477849999998
 20
765.5
 11
218.96549949999996
 21
769
  0
ARC
  8
_0-0_0
  6
CONTINUOUS
 62
    7
 10
219.39851349999992
 20
768.75
 40
0.5
 50
90.000003000000007
 51
149.99999700000001
  0
LINE
  8
_0-0_0
  6
CONTINUOUS
 62
    7
 10
219.39851349999992
 20
769.25
 11
227.45706150000001
 21
769.25
  0
ARC
  8
_0-0_0
  6
CONTINUOUS
 62
    7
 10
227.45706150000001
 20
768.75
 40
0.5
 50
30.000001000000001
 51
90.000003000000007
  0
LINE
  8
_0-0_0
  6
CONTINUOUS
 62
    7
 10
227.89007549999997
 20
769
 11
229.91079649999995
 21
765.5
  0
ARC
  8
_0-0_0
  6
CONTINUOUS
 62
    7
 10
229.47778349999999
 20
765.25
 40
0.5
 50
329.99998900000003
 51
30.000000999999983
  0
LINE
  8
_0-0_0
  6
CONTINUOUS
 62
    7
 10
229.91079649999995
 20
765
 11
227.89007549999997
 21
761.5
  0
ARC
  8
_0-0_0
  6
CONTINUOUS
 62
    7
 10
227.45706150000001
 20
761.75
 40
0.5
 50
269.99999700000001
 51
329.99998900000003
  0
LINE
  8
_0-0_0
  6
CONTINUOUS
 62
    7
 10
227.45706150000001
 20
761.25
 11
219.39851349999992
 21
761.25
  0
LINE
  8
_0-0_0
  6
CONTINUOUS
 62
    7
 10
135.11987249999993
 20
749.25262500000008
 11
135.23936449999997
 21
749.21701000000007
  0
LINE
  8
_0-0_0
  6
CONTINUOUS
 62
    7
 10
135.23936449999997
 20
749.21701000000007
 11
135.36093149999999
 21
749.18911700000001
  0
LINE
  8
_0-0_0
  6
CONTINUOUS
 62
    7
 10
135.36093149999999
 20
749.18911700000001
 11
135.48405449999996
 21
749.16906700000004
  0
LINE
  8
_0-0_0
  6
CONTINUOUS
 62
    7
 10
135.48405449999996
 20
749.16906700000004
 11
135.60827649999999
 21
749.15695200000005
  0
LINE
  8
_0-0_0
  6
CONTINUOUS
 62
    7
 10
135.60827649999999
 20
749.15695200000005
 11
135.73310849999996
 21
749.15283199999999
  0
LINE
  8
_0-0_0
  6
CONTINUOUS
 62
    7
 10
135.73310849999996
 20
749.15283199999999
 11
135.75233449999996
 21
749.15289299999995
  0
ARC
  8
_0-0_0
  6
CONTINUOUS
 62
    7
 10
135.75233449999996
 20
751.14999399999999
 40
2
 50
251.56498899999997
 51
269.99999700000001
  0
LINE
  8
_0-0_0
  6
CONTINUOUS
 62
    7
 10
129.42778049999993
 20
766.00003100000004
 11
129.42778049999993
 21
764.87899800000002
  0
LINE
  8
_0-0_0
  6
CONTINUOUS
 62
    7
 10
157.62777649999998
 20
770.64999399999999
 11
157.22778249999999
 21
770.64999399999999
  0
LINE
  8
_0-0_0
  6
CONTINUOUS
 62
    7
 10
157.62777649999998
 20
770.64999399999999
 11
157.62777649999998
 21
771.29998799999998
  0
ARC
  8
_0-0_0
  6
CONTINUOUS
 62
    7
 10
157.87777649999998
 20
771.29998799999998
 40
0.25
 50
90.000003000000007
 51
179.99999099999999
  0
LINE
  8
_0-0_0
  6
CONTINUOUS
 62
    7
 10
157.87777649999998
 20
771.54998799999998
 11
158.52778549999994
 21
771.54998799999998
  0
LINE
  8
_0-0_0
  6
CONTINUOUS
 62
    7
 10
158.52778549999994
 20
771.54998799999998
 11
158.52778549999994
 21
771.94998199999998
  0
LINE
  8
_0-0_0
  6
CONTINUOUS
 62
    7
 10
157.87777649999998
 20
771.94998199999998
 11
158.52778549999994
 21
771.94998199999998
  0
ARC
  8
_0-0_0
  6
CONTINUOUS
 62
    7
 10
157.87777649999998
 20
772.19998199999998
 40
0.25
 50
179.99999099999999
 51
269.99999700000001
  0
LINE
  8
_0-0_0
  6
CONTINUOUS
 62
    7
 10
157.62777649999998
 20
772.84997599999997
 11
157.62777649999998
 21
772.19998199999998
  0
LINE
  8
_0-0_0
  6
CONTINUOUS
 62
    7
 10
157.62777649999998
 20
772.84997599999997
 11
157.22778249999999
 21
772.84997599999997
  0
LINE
  8
_0-0_0
  6
CONTINUOUS
 62
    7
 10
157.22778249999999
 20
772.84997599999997
 11
157.22778249999999
 21
772.19998199999998
  0
ARC
  8
_0-0_0
  6
CONTINUOUS
 62
    7
 10
156.97778349999999
 20
772.19998199999998
 40
0.25
 50
269.99999700000001
 51
0
  0
LINE
  8
_0-0_0
  6
CONTINUOUS
 62
    7
 10
156.97778349999999
 20
771.94998199999998
 11
156.32777349999992
 21
771.94998199999998
  0
LINE
  8
_0-0_0
  6
CONTINUOUS
 62
    7
 10
156.32777349999992
 20
771.54998799999998
 11
156.32777349999992
 21
771.94998199999998
  0
LINE
  8
_0-0_0
  6
CONTINUOUS
 62
    7
 10
156.97778349999999
 20
771.54998799999998
 11
156.32777349999992
 21
771.54998799999998
  0
ARC
  8
_0-0_0
  6
CONTINUOUS
 62
    7
 10
156.97778349999999
 20
771.29998799999998
 40
0.25
 50
0
 51
90.000003000000007
  0
LINE
  8
_0-0_0
  6
CONTINUOUS
 62
    7
 10
157.22778249999999
 20
770.64999399999999
 11
157.22778249999999
 21
771.29998799999998
  0
LINE
  8
_0-0_0
  6
CONTINUOUS
 62
    7
 10
236.62777649999998
 20
770.64999399999999
 11
236.22778349999999
 21
770.64999399999999
  0
LINE
  8
_0-0_0
  6
CONTINUOUS
 62
    7
 10
236.62777649999998
 20
770.64999399999999
 11
236.62777649999998
 21
771.29998799999998
  0
ARC
  8
_0-0_0
  6
CONTINUOUS
 62
    7
 10
236.87777649999998
 20
771.29998799999998
 40
0.25
 50
90.000003000000007
 51
179.99999099999999
  0
LINE
  8
_0-0_0
  6
CONTINUOUS
 62
    7
 10
236.87777649999998
 20
771.54998799999998
 11
237.52778649999993
 21
771.54998799999998
  0
LINE
  8
_0-0_0
  6
CONTINUOUS
 62
    7
 10
237.52778649999993
 20
771.54998799999998
 11
237.52778649999993
 21
771.94998199999998
  0
LINE
  8
_0-0_0
  6
CONTINUOUS
 62
    7
 10
236.87777649999998
 20
771.94998199999998
 11
237.52778649999993
 21
771.94998199999998
  0
ARC
  8
_0-0_0
  6
CONTINUOUS
 62
    7
 10
236.87777649999998
 20
772.19998199999998
 40
0.25
 50
179.99999099999999
 51
269.99999700000001
  0
LINE
  8
_0-0_0
  6
CONTINUOUS
 62
    7
 10
236.62777649999998
 20
772.84997599999997
 11
236.62777649999998
 21
772.19998199999998
  0
LINE
  8
_0-0_0
  6
CONTINUOUS
 62
    7
 10
236.62777649999998
 20
772.84997599999997
 11
236.22778349999999
 21
772.84997599999997
  0
LINE
  8
_0-0_0
  6
CONTINUOUS
 62
    7
 10
236.22778349999999
 20
772.84997599999997
 11
236.22778349999999
 21
772.19998199999998
  0
ARC
  8
_0-0_0
  6
CONTINUOUS
 62
    7
 10
235.97778349999999
 20
772.19998199999998
 40
0.25
 50
269.99999700000001
 51
0
  0
LINE
  8
_0-0_0
  6
CONTINUOUS
 62
    7
 10
235.97778349999999
 20
771.94998199999998
 11
235.32778949999999
 21
771.94998199999998
  0
LINE
  8
_0-0_0
  6
CONTINUOUS
 62
    7
 10
235.32778949999999
 20
771.54998799999998
 11
235.32778949999999
 21
771.94998199999998
  0
LINE
  8
_0-0_0
  6
CONTINUOUS
 62
    7
 10
235.97778349999999
 20
771.54998799999998
 11
235.32778949999999
 21
771.54998799999998
  0
ARC
  8
_0-0_0
  6
CONTINUOUS
 62
    7
 10
235.97778349999999
 20
771.29998799999998
 40
0.25
 50
0
 51
90.000003000000007
  0
LINE
  8
_0-0_0
  6
CONTINUOUS
 62
    7
 10
236.22778349999999
 20
770.64999399999999
 11
236.22778349999999
 21
771.29998799999998
  0
LINE
  8
_0-0_0
  6
CONTINUOUS
 62
    7
 10
243.92778049999993
 20
745.75
 11
238.42778049999993
 21
745.75
  0
LINE
  8
_0-0_0
  6
CONTINUOUS
 62
    7
 10
244.42778049999993
 20
752
 11
244.42778049999993
 21
755.5
  0
LINE
  8
_0-0_0
  6
CONTINUOUS
 62
    7
 10
244.42778049999993
 20
752
 11
244.42778049999993
 21
751.64999399999999
  0
LINE
  8
_0-0_0
  6
CONTINUOUS
 62
    7
 10
244.42778049999993
 20
748.15570100000002
 11
244.42778049999993
 21
751.64999399999999
  0
LINE
  8
_0-0_0
  6
CONTINUOUS
 62
    7
 10
244.42778049999993
 20
746.307098
 11
244.42778049999993
 21
746.59997599999997
  0
LINE
  8
_0-0_0
  6
CONTINUOUS
 62
    7
 10
244.42778049999993
 20
746.307098
 11
244.42778049999993
 21
746.25
  0
LINE
  8
_0-0_0
  6
CONTINUOUS
 62
    7
 10
241.42778049999993
 20
750.57128899999998
 11
241.42778049999993
 21
752.12167399999998
  0
LINE
  8
_0-0_0
  6
CONTINUOUS
 62
    7
 10
241.42778049999993
 20
749.85012800000004
 11
241.42778049999993
 21
750.57128899999998
  0
ARC
  8
_0-0_0
  6
CONTINUOUS
 62
    7
 10
243.92778049999993
 20
755.5
 40
0.5
 50
269.99999700000001
 51
0
  0
ARC
  8
_0-0_0
  6
CONTINUOUS
 62
    7
 10
241.72778349999999
 20
754.69998199999998
 40
0.2999999999999999
 50
90.000003000000007
 51
179.99999099999999
  0
LINE
  8
_0-0_0
  6
CONTINUOUS
 62
    7
 10
130.79531850000001
 20
750.69415299999991
 11
135.11987249999993
 21
749.25262500000008
  0
LINE
  8
_0-0_0
  6
CONTINUOUS
 62
    7
 10
129.42778049999993
 20
752.59149200000002
 11
129.42778049999993
 21
755.94229100000007
  0
LINE
  8
_0-0_0
  6
CONTINUOUS
 62
    7
 10
129.42778049999993
 20
763.957672
 11
129.42778049999993
 21
764.87899800000002
  0
ARC
  8
_0-0_0
  6
CONTINUOUS
 62
    7
 10
131.42778049999993
 20
752.59149200000002
 40
2
 50
179.99999099999999
 51
251.56498899999997
  0
LINE
  8
_0-0_0
  6
CONTINUOUS
 62
    7
 10
114.42778049999993
 20
769.47543300000007
 11
114.42778049999993
 21
769.32870500000001
  0
LINE
  8
_0-0_0
  6
CONTINUOUS
 62
    7
 10
114.42778049999993
 20
769.66595499999994
 11
114.42778049999993
 21
769.47543300000007
  0
LINE
  8
_0-0_0
  6
CONTINUOUS
 62
    7
 10
114.42778049999993
 20
769.84097300000008
 11
114.42778049999993
 21
769.66595499999994
  0
LINE
  8
_0-0_0
  6
CONTINUOUS
 62
    7
 10
114.42778049999993
 20
769.99856599999998
 11
114.42778049999993
 21
769.84097300000008
  0
LINE
  8
_0-0_0
  6
CONTINUOUS
 62
    7
 10
114.42778049999993
 20
770.13699300000007
 11
114.42778049999993
 21
769.99856599999998
  0
LINE
  8
_0-0_0
  6
CONTINUOUS
 62
    7
 10
114.42778049999993
 20
770.25476099999992
 11
114.42778049999993
 21
770.13699300000007
  0
LINE
  8
_0-0_0
  6
CONTINUOUS
 62
    7
 10
114.42778049999993
 20
770.35052500000006
 11
114.42778049999993
 21
770.25476099999992
  0
LINE
  8
_0-0_0
  6
CONTINUOUS
 62
    7
 10
114.42778049999993
 20
770.42330900000002
 11
114.42778049999993
 21
770.35052500000006
  0
LINE
  8
_0-0_0
  6
CONTINUOUS
 62
    7
 10
114.42778049999993
 20
770.47228999999993
 11
114.42778049999993
 21
770.42330900000002
  0
LINE
  8
_0-0_0
  6
CONTINUOUS
 62
    7
 10
114.42778049999993
 20
770.5
 11
114.42778049999993
 21
770.47228999999993
  0
LINE
  8
_0-0_0
  6
CONTINUOUS
 62
    7
 10
114.42778049999993
 20
770.5
 11
114.42778049999993
 21
770.49688700000002
  0
LINE
  8
_0-0_0
  6
CONTINUOUS
 62
    7
 10
114.42778049999993
 20
766.00305200000003
 11
114.42778049999993
 21
766
  0
LINE
  8
_0-0_0
  6
CONTINUOUS
 62
    7
 10
114.42778049999993
 20
766.02767900000003
 11
114.42778049999993
 21
766.00305200000003
  0
LINE
  8
_0-0_0
  6
CONTINUOUS
 62
    7
 10
114.42778049999993
 20
766.07665999999995
 11
114.42778049999993
 21
766
  0
LINE
  8
_0-0_0
  6
CONTINUOUS
 62
    7
 10
114.42778049999993
 20
766.14941399999998
 11
114.42778049999993
 21
766.07665999999995
  0
LINE
  8
_0-0_0
  6
CONTINUOUS
 62
    7
 10
114.42778049999993
 20
766.24520899999993
 11
114.42778049999993
 21
766.14941399999998
  0
LINE
  8
_0-0_0
  6
CONTINUOUS
 62
    7
 10
114.42778049999993
 20
766.27542100000005
 11
114.42778049999993
 21
766.24520899999993
  0
LINE
  8
_0-0_0
  6
CONTINUOUS
 62
    7
 10
114.42778049999993
 20
766.362976
 11
114.42778049999993
 21
766.27542100000005
  0
LINE
  8
_0-0_0
  6
CONTINUOUS
 62
    7
 10
114.42778049999993
 20
766.50140399999998
 11
114.42778049999993
 21
766.362976
  0
LINE
  8
_0-0_0
  6
CONTINUOUS
 62
    7
 10
114.42778049999993
 20
766.658997
 11
114.42778049999993
 21
766.50140399999998
  0
LINE
  8
_0-0_0
  6
CONTINUOUS
 62
    7
 10
114.42778049999993
 20
766.83401500000002
 11
114.42778049999993
 21
766.658997
  0
LINE
  8
_0-0_0
  6
CONTINUOUS
 62
    7
 10
114.42778049999993
 20
767.02453600000001
 11
114.42778049999993
 21
766.83401500000002
  0
LINE
  8
_0-0_0
  6
CONTINUOUS
 62
    7
 10
114.42778049999993
 20
767.22851600000001
 11
114.42778049999993
 21
767.02453600000001
  0
LINE
  8
_0-0_0
  6
CONTINUOUS
 62
    7
 10
114.42778049999993
 20
767.44366500000001
 11
114.42778049999993
 21
767.22851600000001
  0
LINE
  8
_0-0_0
  6
CONTINUOUS
 62
    7
 10
114.42778049999993
 20
767.66763300000002
 11
114.42778049999993
 21
767.44366500000001
  0
LINE
  8
_0-0_0
  6
CONTINUOUS
 62
    7
 10
114.42778049999993
 20
767.89801
 11
114.42778049999993
 21
767.66763300000002
  0
LINE
  8
_0-0_0
  6
CONTINUOUS
 62
    7
 10
114.42778049999993
 20
768.13223300000004
 11
114.42778049999993
 21
767.89801
  0
LINE
  8
_0-0_0
  6
CONTINUOUS
 62
    7
 10
114.42778049999993
 20
768.36773700000003
 11
114.42778049999993
 21
768.13223300000004
  0
LINE
  8
_0-0_0
  6
CONTINUOUS
 62
    7
 10
114.42778049999993
 20
768.60195900000008
 11
114.42778049999993
 21
768.36773700000003
  0
LINE
  8
_0-0_0
  6
CONTINUOUS
 62
    7
 10
114.42778049999993
 20
768.83233599999994
 11
114.42778049999993
 21
768.60195900000008
  0
LINE
  8
_0-0_0
  6
CONTINUOUS
 62
    7
 10
114.42778049999993
 20
769.05630500000007
 11
114.42778049999993
 21
768.83233599999994
  0
LINE
  8
_0-0_0
  6
CONTINUOUS
 62
    7
 10
114.42778049999993
 20
769.27145399999995
 11
114.42778049999993
 21
769.05630500000007
  0
LINE
  8
_0-0_0
  6
CONTINUOUS
 62
    7
 10
114.42778049999993
 20
769.32870500000001
 11
114.42778049999993
 21
769.27145399999995
  0
LINE
  8
_0-0_0
  6
CONTINUOUS
 62
    7
 10
129.72778349999999
 20
762.16198699999995
 11
129.66899049999995
 21
762.40881300000001
  0
LINE
  8
_0-0_0
  6
CONTINUOUS
 62
    7
 10
129.66899049999995
 20
762.40881300000001
 11
129.61921649999999
 21
762.601135
  0
LINE
  8
_0-0_0
  6
CONTINUOUS
 62
    7
 10
129.61921649999999
 20
762.601135
 11
129.54808049999997
 21
762.86694299999999
  0
LINE
  8
_0-0_0
  6
CONTINUOUS
 62
    7
 10
129.54808049999997
 20
762.86694299999999
 11
129.51512149999996
 21
762.993652
  0
LINE
  8
_0-0_0
  6
CONTINUOUS
 62
    7
 10
129.51512149999996
 20
762.993652
 11
129.48986849999994
 21
763.09707600000002
  0
LINE
  8
_0-0_0
  6
CONTINUOUS
 62
    7
 10
129.48986849999994
 20
763.09707600000002
 11
129.46783449999998
 21
763.19702099999995
  0
LINE
  8
_0-0_0
  6
CONTINUOUS
 62
    7
 10
129.46783449999998
 20
763.19702099999995
 11
129.44645649999995
 21
763.31472800000006
  0
LINE
  8
_0-0_0
  6
CONTINUOUS
 62
    7
 10
129.44645649999995
 20
763.31472800000006
 11
129.4378815
 21
763.37686200000007
  0
LINE
  8
_0-0_0
  6
CONTINUOUS
 62
    7
 10
129.4378815
 20
763.37686200000007
 11
129.43180849999999
 21
763.43746899999996
  0
LINE
  8
_0-0_0
  6
CONTINUOUS
 62
    7
 10
129.43180849999999
 20
763.43746899999996
 11
129.42880249999996
 21
763.48669399999994
  0
LINE
  8
_0-0_0
  6
CONTINUOUS
 62
    7
 10
129.42880249999996
 20
763.48669399999994
 11
129.42778049999993
 21
763.53491200000008
  0
LINE
  8
_0-0_0
  6
CONTINUOUS
 62
    7
 10
129.72778349999999
 20
757.737976
 11
129.81124849999992
 21
758.11663799999997
  0
LINE
  8
_0-0_0
  6
CONTINUOUS
 62
    7
 10
129.81124849999992
 20
758.11663799999997
 11
129.85133350000001
 21
758.30816700000003
  0
LINE
  8
_0-0_0
  6
CONTINUOUS
 62
    7
 10
129.85133350000001
 20
758.30816700000003
 11
129.90740949999997
 21
758.598206
  0
LINE
  8
_0-0_0
  6
CONTINUOUS
 62
    7
 10
129.90740949999997
 20
758.598206
 11
129.94500749999997
 21
758.81778000000008
  0
LINE
  8
_0-0_0
  6
CONTINUOUS
 62
    7
 10
129.94500749999997
 20
758.81778000000008
 11
129.97766149999995
 21
759.03903200000002
  0
LINE
  8
_0-0_0
  6
CONTINUOUS
 62
    7
 10
129.97766149999995
 20
759.03903200000002
 11
130.00482149999993
 21
759.26583900000003
  0
LINE
  8
_0-0_0
  6
CONTINUOUS
 62
    7
 10
130.00482149999993
 20
759.26583900000003
 11
130.02488649999998
 21
759.49322499999994
  0
LINE
  8
_0-0_0
  6
CONTINUOUS
 62
    7
 10
130.02488649999998
 20
759.49322499999994
 11
130.03204349999999
 21
759.60696400000006
  0
LINE
  8
_0-0_0
  6
CONTINUOUS
 62
    7
 10
130.03204349999999
 20
759.60696400000006
 11
130.03720049999993
 21
759.720642
  0
LINE
  8
_0-0_0
  6
CONTINUOUS
 62
    7
 10
130.03720049999993
 20
759.720642
 11
130.04092349999996
 21
759.87207000000001
  0
LINE
  8
_0-0_0
  6
CONTINUOUS
 62
    7
 10
130.04092349999996
 20
759.87207000000001
 11
130.04096949999996
 21
760.02331500000003
  0
LINE
  8
_0-0_0
  6
CONTINUOUS
 62
    7
 10
130.04096949999996
 20
760.02331500000003
 11
130.03739949999999
 21
760.17437700000005
  0
LINE
  8
_0-0_0
  6
CONTINUOUS
 62
    7
 10
130.03739949999999
 20
760.17437700000005
 11
130.02789250000001
 21
760.36291499999993
  0
LINE
  8
_0-0_0
  6
CONTINUOUS
 62
    7
 10
130.02789250000001
 20
760.36291499999993
 11
130.01303050000001
 21
760.55117799999994
  0
LINE
  8
_0-0_0
  6
CONTINUOUS
 62
    7
 10
130.01303050000001
 20
760.55117799999994
 11
129.99310249999996
 21
760.739105
  0
LINE
  8
_0-0_0
  6
CONTINUOUS
 62
    7
 10
129.99310249999996
 20
760.739105
 11
129.97671449999996
 21
760.86798099999999
  0
LINE
  8
_0-0_0
  6
CONTINUOUS
 62
    7
 10
129.97671449999996
 20
760.86798099999999
 11
129.95829749999996
 21
760.99664299999995
  0
LINE
  8
_0-0_0
  6
CONTINUOUS
 62
    7
 10
129.95829749999996
 20
760.99664299999995
 11
129.93414250000001
 21
761.14855999999997
  0
LINE
  8
_0-0_0
  6
CONTINUOUS
 62
    7
 10
129.93414250000001
 20
761.14855999999997
 11
129.90774549999992
 21
761.29992700000003
  0
LINE
  8
_0-0_0
  6
CONTINUOUS
 62
    7
 10
129.90774549999992
 20
761.29992700000003
 11
129.85157749999996
 21
761.59054600000002
  0
LINE
  8
_0-0_0
  6
CONTINUOUS
 62
    7
 10
129.85157749999996
 20
761.59054600000002
 11
129.81141649999995
 21
761.78250100000002
  0
LINE
  8
_0-0_0
  6
CONTINUOUS
 62
    7
 10
129.81141649999995
 20
761.78250100000002
 11
129.72778349999999
 21
762.16198699999995
  0
LINE
  8
_0-0_0
  6
CONTINUOUS
 62
    7
 10
129.72778349999999
 20
757.737976
 11
129.66897549999999
 21
757.49111900000003
  0
LINE
  8
_0-0_0
  6
CONTINUOUS
 62
    7
 10
129.66897549999999
 20
757.49111900000003
 11
129.61921649999999
 21
757.29879800000003
  0
LINE
  8
_0-0_0
  6
CONTINUOUS
 62
    7
 10
129.61921649999999
 20
757.29879800000003
 11
129.54809549999993
 21
757.033051
  0
LINE
  8
_0-0_0
  6
CONTINUOUS
 62
    7
 10
129.54809549999993
 20
757.033051
 11
129.51513649999993
 21
756.906342
  0
LINE
  8
_0-0_0
  6
CONTINUOUS
 62
    7
 10
129.51513649999993
 20
756.906342
 11
129.48986849999994
 21
756.80291699999998
  0
LINE
  8
_0-0_0
  6
CONTINUOUS
 62
    7
 10
129.48986849999994
 20
756.80291699999998
 11
129.46783449999998
 21
756.70294200000001
  0
LINE
  8
_0-0_0
  6
CONTINUOUS
 62
    7
 10
129.46783449999998
 20
756.70294200000001
 11
129.44645649999995
 21
756.58523600000001
  0
LINE
  8
_0-0_0
  6
CONTINUOUS
 62
    7
 10
129.44645649999995
 20
756.58523600000001
 11
129.4378815
 21
756.52310199999999
  0
LINE
  8
_0-0_0
  6
CONTINUOUS
 62
    7
 10
129.4378815
 20
756.52310199999999
 11
129.43180849999999
 21
756.46249399999999
  0
LINE
  8
_0-0_0
  6
CONTINUOUS
 62
    7
 10
129.43180849999999
 20
756.46249399999999
 11
129.42880249999996
 21
756.41326900000001
  0
LINE
  8
_0-0_0
  6
CONTINUOUS
 62
    7
 10
129.42880249999996
 20
756.41326900000001
 11
129.42778049999993
 21
756.36505099999999
  0
ARC
  8
_0-0_0
  6
CONTINUOUS
 62
    7
 10
243.92778049999993
 20
746.25
 40
0.5
 50
269.99999700000001
 51
0
  0
LINE
  8
_0-0_0
  6
CONTINUOUS
 62
    7
 10
243.88345349999997
 20
750.57128899999998
 11
243.88345349999997
 21
753.89999399999999
  0
LINE
  8
_0-0_0
  6
CONTINUOUS
 62
    7
 10
243.88345349999997
 20
749.39999399999999
 11
243.88345349999997
 21
750.57128899999998
  0
CIRCLE
  8
_0-0_0
  6
CONTINUOUS
 62
    7
 10
167.42777949999993
 20
765.25
 40
2.5
  0
CIRCLE
  8
_0-0_0
  6
CONTINUOUS
 62
    7
 10
223.42778049999993
 20
765.25
 40
2.5
  0
LINE
  8
_0-0_0
  6
CONTINUOUS
 62
    7
 10
129.42778049999993
 20
756.05767800000001
 11
119.71995549999997
 21
756.05767800000001
  0
LINE
  8
_0-0_0
  6
CONTINUOUS
 62
    7
 10
119.71995549999997
 20
753.44998199999998
 11
119.66547349999996
 21
753.51992799999994
  0
LINE
  8
_0-0_0
  6
CONTINUOUS
 62
    7
 10
119.66547349999996
 20
753.51992799999994
 11
119.61437249999994
 21
753.58874500000002
  0
LINE
  8
_0-0_0
  6
CONTINUOUS
 62
    7
 10
119.61437249999994
 20
753.58874500000002
 11
119.56673449999994
 21
753.65625
  0
LINE
  8
_0-0_0
  6
CONTINUOUS
 62
    7
 10
119.56673449999994
 20
753.65625
 11
119.52223149999998
 21
753.72280899999998
  0
LINE
  8
_0-0_0
  6
CONTINUOUS
 62
    7
 10
119.52223149999998
 20
753.72280899999998
 11
119.4675135
 21
753.81033300000001
  0
LINE
  8
_0-0_0
  6
CONTINUOUS
 62
    7
 10
119.4675135
 20
753.81033300000001
 11
119.41800649999993
 21
753.89645399999995
  0
LINE
  8
_0-0_0
  6
CONTINUOUS
 62
    7
 10
119.41800649999993
 20
753.89645399999995
 11
119.3735355
 21
753.98126200000002
  0
LINE
  8
_0-0_0
  6
CONTINUOUS
 62
    7
 10
119.3735355
 20
753.98126200000002
 11
119.32656850000001
 21
754.08160399999997
  0
LINE
  8
_0-0_0
  6
CONTINUOUS
 62
    7
 10
119.32656850000001
 20
754.08160399999997
 11
119.2863615
 21
754.18051100000002
  0
LINE
  8
_0-0_0
  6
CONTINUOUS
 62
    7
 10
119.2863615
 20
754.18051100000002
 11
119.25270049999995
 21
754.27825899999993
  0
LINE
  8
_0-0_0
  6
CONTINUOUS
 62
    7
 10
119.25270049999995
 20
754.27825899999993
 11
119.22541049999995
 21
754.375092
  0
LINE
  8
_0-0_0
  6
CONTINUOUS
 62
    7
 10
119.22541049999995
 20
754.375092
 11
119.20436050000001
 21
754.47113000000002
  0
LINE
  8
_0-0_0
  6
CONTINUOUS
 62
    7
 10
119.20436050000001
 20
754.47113000000002
 11
119.18843049999998
 21
754.57498199999998
  0
LINE
  8
_0-0_0
  6
CONTINUOUS
 62
    7
 10
119.18843049999998
 20
754.57498199999998
 11
119.17967949999991
 21
754.678406
  0
LINE
  8
_0-0_0
  6
CONTINUOUS
 62
    7
 10
119.17967949999991
 20
754.678406
 11
119.17803949999995
 21
754.78164700000002
  0
LINE
  8
_0-0_0
  6
CONTINUOUS
 62
    7
 10
119.17803949999995
 20
754.78164700000002
 11
119.1835094999999
 21
754.88494900000001
  0
LINE
  8
_0-0_0
  6
CONTINUOUS
 62
    7
 10
119.1835094999999
 20
754.88494900000001
 11
119.19611349999991
 21
754.98852499999998
  0
LINE
  8
_0-0_0
  6
CONTINUOUS
 62
    7
 10
119.19611349999991
 20
754.98852499999998
 11
119.2159345
 21
755.09268199999997
  0
LINE
  8
_0-0_0
  6
CONTINUOUS
 62
    7
 10
119.2159345
 20
755.09268199999997
 11
119.24308049999991
 21
755.197632
  0
LINE
  8
_0-0_0
  6
CONTINUOUS
 62
    7
 10
119.24308049999991
 20
755.197632
 11
119.27772549999997
 21
755.30367999999999
  0
LINE
  8
_0-0_0
  6
CONTINUOUS
 62
    7
 10
119.27772549999997
 20
755.30367999999999
 11
119.32007549999992
 21
755.41104100000007
  0
LINE
  8
_0-0_0
  6
CONTINUOUS
 62
    7
 10
119.32007549999992
 20
755.41104100000007
 11
119.37039149999998
 21
755.52005000000008
  0
LINE
  8
_0-0_0
  6
CONTINUOUS
 62
    7
 10
119.37039149999998
 20
755.52005000000008
 11
119.42463649999991
 21
755.623199
  0
LINE
  8
_0-0_0
  6
CONTINUOUS
 62
    7
 10
119.42463649999991
 20
755.623199
 11
119.48634349999998
 21
755.72824100000003
  0
LINE
  8
_0-0_0
  6
CONTINUOUS
 62
    7
 10
119.48634349999998
 20
755.72824100000003
 11
119.55586249999999
 21
755.83547999999996
  0
LINE
  8
_0-0_0
  6
CONTINUOUS
 62
    7
 10
119.55586249999999
 20
755.83547999999996
 11
119.63358249999999
 21
755.94519000000003
  0
LINE
  8
_0-0_0
  6
CONTINUOUS
 62
    7
 10
119.63358249999999
 20
755.94519000000003
 11
119.71995549999997
 21
756.05767800000001
  0
LINE
  8
_0-0_0
  6
CONTINUOUS
 62
    7
 10
129.42778049999993
 20
753.44998199999998
 11
119.71995549999997
 21
753.44998199999998
  0
LINE
  8
_0-0_0
  6
CONTINUOUS
 62
    7
 10
129.42778049999993
 20
755.94229100000007
 11
129.42778049999993
 21
756.05767800000001
  0
LINE
  8
_0-0_0
  6
CONTINUOUS
 62
    7
 10
119.67778049999993
 20
753.44998199999998
 11
119.71995549999997
 21
753.44998199999998
  0
LINE
  8
_0-0_0
  6
CONTINUOUS
 62
    7
 10
129.42778049999993
 20
763.84228499999995
 11
119.71995549999997
 21
763.84228499999995
  0
LINE
  8
_0-0_0
  6
CONTINUOUS
 62
    7
 10
129.42778049999993
 20
763.957672
 11
129.42778049999993
 21
763.84228499999995
  0
LINE
  8
_0-0_0
  6
CONTINUOUS
 62
    7
 10
119.71995549999997
 20
763.84228499999995
 11
119.66547349999996
 21
763.91223100000002
  0
LINE
  8
_0-0_0
  6
CONTINUOUS
 62
    7
 10
119.66547349999996
 20
763.91223100000002
 11
119.61437249999994
 21
763.98104899999998
  0
LINE
  8
_0-0_0
  6
CONTINUOUS
 62
    7
 10
119.61437249999994
 20
763.98104899999998
 11
119.56673449999994
 21
764.04855300000008
  0
LINE
  8
_0-0_0
  6
CONTINUOUS
 62
    7
 10
119.56673449999994
 20
764.04855300000008
 11
119.52223149999998
 21
764.11511199999995
  0
LINE
  8
_0-0_0
  6
CONTINUOUS
 62
    7
 10
119.52223149999998
 20
764.11511199999995
 11
119.4675135
 21
764.20263699999998
  0
LINE
  8
_0-0_0
  6
CONTINUOUS
 62
    7
 10
119.4675135
 20
764.20263699999998
 11
119.41800649999993
 21
764.28875700000003
  0
LINE
  8
_0-0_0
  6
CONTINUOUS
 62
    7
 10
119.41800649999993
 20
764.28875700000003
 11
119.3735355
 21
764.37359600000002
  0
LINE
  8
_0-0_0
  6
CONTINUOUS
 62
    7
 10
119.3735355
 20
764.37359600000002
 11
119.32656850000001
 21
764.47390700000005
  0
LINE
  8
_0-0_0
  6
CONTINUOUS
 62
    7
 10
119.32656850000001
 20
764.47390700000005
 11
119.2863615
 21
764.57281499999999
  0
LINE
  8
_0-0_0
  6
CONTINUOUS
 62
    7
 10
119.2863615
 20
764.57281499999999
 11
119.25270049999995
 21
764.67059300000005
  0
LINE
  8
_0-0_0
  6
CONTINUOUS
 62
    7
 10
119.25270049999995
 20
764.67059300000005
 11
119.22541049999995
 21
764.76739500000008
  0
LINE
  8
_0-0_0
  6
CONTINUOUS
 62
    7
 10
119.22541049999995
 20
764.76739500000008
 11
119.20436050000001
 21
764.86343399999998
  0
LINE
  8
_0-0_0
  6
CONTINUOUS
 62
    7
 10
119.20436050000001
 20
764.86343399999998
 11
119.18843049999998
 21
764.96728499999995
  0
LINE
  8
_0-0_0
  6
CONTINUOUS
 62
    7
 10
119.18843049999998
 20
764.96728499999995
 11
119.17967949999991
 21
765.07070900000008
  0
LINE
  8
_0-0_0
  6
CONTINUOUS
 62
    7
 10
119.17967949999991
 20
765.07070900000008
 11
119.17803949999995
 21
765.17394999999999
  0
LINE
  8
_0-0_0
  6
CONTINUOUS
 62
    7
 10
119.17803949999995
 20
765.17394999999999
 11
119.1835094999999
 21
765.27725199999998
  0
LINE
  8
_0-0_0
  6
CONTINUOUS
 62
    7
 10
119.1835094999999
 20
765.27725199999998
 11
119.19611349999991
 21
765.38082899999995
  0
LINE
  8
_0-0_0
  6
CONTINUOUS
 62
    7
 10
119.19611349999991
 20
765.38082899999995
 11
119.2159345
 21
765.48498500000005
  0
LINE
  8
_0-0_0
  6
CONTINUOUS
 62
    7
 10
119.2159345
 20
765.48498500000005
 11
119.24308049999991
 21
765.58993499999997
  0
LINE
  8
_0-0_0
  6
CONTINUOUS
 62
    7
 10
119.24308049999991
 20
765.58993499999997
 11
119.27772549999997
 21
765.69598399999995
  0
LINE
  8
_0-0_0
  6
CONTINUOUS
 62
    7
 10
119.27772549999997
 20
765.69598399999995
 11
119.32007549999992
 21
765.80334500000004
  0
LINE
  8
_0-0_0
  6
CONTINUOUS
 62
    7
 10
119.32007549999992
 20
765.80334500000004
 11
119.37039149999998
 21
765.91235400000005
  0
LINE
  8
_0-0_0
  6
CONTINUOUS
 62
    7
 10
119.37039149999998
 20
765.91235400000005
 11
119.41608450000001
 21
766
  0
LINE
  8
_0-0_0
  6
CONTINUOUS
 62
    7
 10
114.42778049999993
 20
769.47543300000007
 11
114.17778049999993
 21
769.5
  0
LINE
  8
_0-0_0
  6
CONTINUOUS
 62
    7
 10
114.42778049999993
 20
769.27145399999995
 11
114.17778049999993
 21
769.5
  0
LINE
  8
_0-0_0
  6
CONTINUOUS
 62
    7
 10
114.42778049999993
 20
769.66595499999994
 11
114.17778049999993
 21
769.71945200000005
  0
LINE
  8
_0-0_0
  6
CONTINUOUS
 62
    7
 10
114.42778049999993
 20
769.47543300000007
 11
114.17778049999993
 21
769.71945200000005
  0
LINE
  8
_0-0_0
  6
CONTINUOUS
 62
    7
 10
114.42778049999993
 20
769.84097300000008
 11
114.17778049999993
 21
769.922821
  0
LINE
  8
_0-0_0
  6
CONTINUOUS
 62
    7
 10
114.42778049999993
 20
769.66595499999994
 11
114.17778049999993
 21
769.922821
  0
LINE
  8
_0-0_0
  6
CONTINUOUS
 62
    7
 10
114.42778049999993
 20
769.99856599999998
 11
114.17778049999993
 21
770.10784899999999
  0
LINE
  8
_0-0_0
  6
CONTINUOUS
 62
    7
 10
114.42778049999993
 20
769.84097300000008
 11
114.17778049999993
 21
770.10784899999999
  0
LINE
  8
_0-0_0
  6
CONTINUOUS
 62
    7
 10
114.42778049999993
 20
770.13699300000007
 11
114.17778049999993
 21
770.27252199999998
  0
LINE
  8
_0-0_0
  6
CONTINUOUS
 62
    7
 10
114.42778049999993
 20
769.99856599999998
 11
114.17778049999993
 21
770.27252199999998
  0
LINE
  8
_0-0_0
  6
CONTINUOUS
 62
    7
 10
114.42778049999993
 20
770.25476099999992
 11
114.17778049999993
 21
770.41503899999998
  0
LINE
  8
_0-0_0
  6
CONTINUOUS
 62
    7
 10
114.42778049999993
 20
770.13699300000007
 11
114.17778049999993
 21
770.41503899999998
  0
LINE
  8
_0-0_0
  6
CONTINUOUS
 62
    7
 10
114.42778049999993
 20
770.35052500000006
 11
114.17778049999993
 21
770.53384400000004
  0
LINE
  8
_0-0_0
  6
CONTINUOUS
 62
    7
 10
114.42778049999993
 20
770.25476099999992
 11
114.17778049999993
 21
770.53384400000004
  0
LINE
  8
_0-0_0
  6
CONTINUOUS
 62
    7
 10
114.42778049999993
 20
770.42330900000002
 11
114.17778049999993
 21
770.62762500000008
  0
LINE
  8
_0-0_0
  6
CONTINUOUS
 62
    7
 10
114.42778049999993
 20
770.35052500000006
 11
114.17778049999993
 21
770.62762500000008
  0
LINE
  8
_0-0_0
  6
CONTINUOUS
 62
    7
 10
114.42778049999993
 20
770.47228999999993
 11
114.17778049999993
 21
770.69534299999998
  0
LINE
  8
_0-0_0
  6
CONTINUOUS
 62
    7
 10
114.42778049999993
 20
770.42330900000002
 11
114.17778049999993
 21
770.69534299999998
  0
LINE
  8
_0-0_0
  6
CONTINUOUS
 62
    7
 10
114.42778049999993
 20
770.49688700000002
 11
114.17778049999993
 21
770.73629800000003
  0
LINE
  8
_0-0_0
  6
CONTINUOUS
 62
    7
 10
114.42778049999993
 20
770.47228999999993
 11
114.17778049999993
 21
770.73629800000003
  0
LINE
  8
_0-0_0
  6
CONTINUOUS
 62
    7
 10
114.42778049999993
 20
770.49688700000002
 11
114.17778049999993
 21
770.75
  0
LINE
  8
_0-0_0
  6
CONTINUOUS
 62
    7
 10
114.42778049999993
 20
766.00305200000003
 11
114.17778049999993
 21
765.75
  0
LINE
  8
_0-0_0
  6
CONTINUOUS
 62
    7
 10
114.42778049999993
 20
766.02767900000003
 11
114.17778049999993
 21
765.76367200000004
  0
LINE
  8
_0-0_0
  6
CONTINUOUS
 62
    7
 10
114.42778049999993
 20
766.00305200000003
 11
114.17778049999993
 21
765.76367200000004
  0
LINE
  8
_0-0_0
  6
CONTINUOUS
 62
    7
 10
114.42778049999993
 20
766.07665999999995
 11
114.17778049999993
 21
765.80462599999998
  0
LINE
  8
_0-0_0
  6
CONTINUOUS
 62
    7
 10
114.42778049999993
 20
766.02767900000003
 11
114.17778049999993
 21
765.80462599999998
  0
LINE
  8
_0-0_0
  6
CONTINUOUS
 62
    7
 10
114.42778049999993
 20
766.14941399999998
 11
114.17778049999993
 21
765.872345
  0
LINE
  8
_0-0_0
  6
CONTINUOUS
 62
    7
 10
114.42778049999993
 20
766.07665999999995
 11
114.17778049999993
 21
765.872345
  0
LINE
  8
_0-0_0
  6
CONTINUOUS
 62
    7
 10
114.42778049999993
 20
766.24520899999993
 11
114.17778049999993
 21
765.96612499999992
  0
LINE
  8
_0-0_0
  6
CONTINUOUS
 62
    7
 10
114.42778049999993
 20
766.14941399999998
 11
114.17778049999993
 21
765.96612499999992
  0
LINE
  8
_0-0_0
  6
CONTINUOUS
 62
    7
 10
114.42778049999993
 20
766.24520899999993
 11
114.29782049999994
 21
766.16137700000002
  0
LINE
  8
_0-0_0
  6
CONTINUOUS
 62
    7
 10
114.42778049999993
 20
766.362976
 11
114.17778049999993
 21
766.08492999999999
  0
LINE
  8
_0-0_0
  6
CONTINUOUS
 62
    7
 10
114.29782049999994
 20
766.16137700000002
 11
114.17778049999993
 21
766.08492999999999
  0
LINE
  8
_0-0_0
  6
CONTINUOUS
 62
    7
 10
114.42778049999993
 20
766.50140399999998
 11
114.17778049999993
 21
766.22744799999998
  0
LINE
  8
_0-0_0
  6
CONTINUOUS
 62
    7
 10
114.42778049999993
 20
766.362976
 11
114.17778049999993
 21
766.22744799999998
  0
LINE
  8
_0-0_0
  6
CONTINUOUS
 62
    7
 10
114.42778049999993
 20
766.658997
 11
114.17778049999993
 21
766.39211999999998
  0
LINE
  8
_0-0_0
  6
CONTINUOUS
 62
    7
 10
114.42778049999993
 20
766.50140399999998
 11
114.17778049999993
 21
766.39211999999998
  0
LINE
  8
_0-0_0
  6
CONTINUOUS
 62
    7
 10
114.42778049999993
 20
766.83401500000002
 11
114.17778049999993
 21
766.57714800000008
  0
LINE
  8
_0-0_0
  6
CONTINUOUS
 62
    7
 10
114.42778049999993
 20
766.658997
 11
114.17778049999993
 21
766.57714800000008
  0
LINE
  8
_0-0_0
  6
CONTINUOUS
 62
    7
 10
114.42778049999993
 20
767.02453600000001
 11
114.17778049999993
 21
766.78051800000003
  0
LINE
  8
_0-0_0
  6
CONTINUOUS
 62
    7
 10
114.42778049999993
 20
766.83401500000002
 11
114.17778049999993
 21
766.78051800000003
  0
LINE
  8
_0-0_0
  6
CONTINUOUS
 62
    7
 10
114.42778049999993
 20
767.22851600000001
 11
114.17778049999993
 21
767
  0
LINE
  8
_0-0_0
  6
CONTINUOUS
 62
    7
 10
114.42778049999993
 20
767.02453600000001
 11
114.17778049999993
 21
767
  0
LINE
  8
_0-0_0
  6
CONTINUOUS
 62
    7
 10
114.42778049999993
 20
767.44366500000001
 11
114.17778049999993
 21
767.23315400000001
  0
LINE
  8
_0-0_0
  6
CONTINUOUS
 62
    7
 10
114.42778049999993
 20
767.22851600000001
 11
114.17778049999993
 21
767.23315400000001
  0
LINE
  8
_0-0_0
  6
CONTINUOUS
 62
    7
 10
114.42778049999993
 20
767.66763300000002
 11
114.17778049999993
 21
767.47744799999998
  0
LINE
  8
_0-0_0
  6
CONTINUOUS
 62
    7
 10
114.42778049999993
 20
767.44366500000001
 11
114.17778049999993
 21
767.47744799999998
  0
LINE
  8
_0-0_0
  6
CONTINUOUS
 62
    7
 10
114.42778049999993
 20
767.89801
 11
114.17778049999993
 21
767.73019399999998
  0
LINE
  8
_0-0_0
  6
CONTINUOUS
 62
    7
 10
114.42778049999993
 20
767.66763300000002
 11
114.17778049999993
 21
767.73019399999998
  0
LINE
  8
_0-0_0
  6
CONTINUOUS
 62
    7
 10
114.42778049999993
 20
768.13223300000004
 11
114.17778049999993
 21
767.98864700000001
  0
LINE
  8
_0-0_0
  6
CONTINUOUS
 62
    7
 10
114.42778049999993
 20
767.89801
 11
114.17778049999993
 21
767.98864700000001
  0
LINE
  8
_0-0_0
  6
CONTINUOUS
 62
    7
 10
114.42778049999993
 20
768.36773700000003
 11
114.17778049999993
 21
768.25
  0
LINE
  8
_0-0_0
  6
CONTINUOUS
 62
    7
 10
114.42778049999993
 20
768.13223300000004
 11
114.17778049999993
 21
768.25
  0
LINE
  8
_0-0_0
  6
CONTINUOUS
 62
    7
 10
114.42778049999993
 20
768.60195900000008
 11
114.17778049999993
 21
768.51129200000003
  0
LINE
  8
_0-0_0
  6
CONTINUOUS
 62
    7
 10
114.42778049999993
 20
768.36773700000003
 11
114.17778049999993
 21
768.51129200000003
  0
LINE
  8
_0-0_0
  6
CONTINUOUS
 62
    7
 10
114.42778049999993
 20
768.83233599999994
 11
114.17778049999993
 21
768.76977499999998
  0
LINE
  8
_0-0_0
  6
CONTINUOUS
 62
    7
 10
114.42778049999993
 20
768.60195900000008
 11
114.17778049999993
 21
768.76977499999998
  0
LINE
  8
_0-0_0
  6
CONTINUOUS
 62
    7
 10
114.42778049999993
 20
769.05630500000007
 11
114.17778049999993
 21
769.02252199999998
  0
LINE
  8
_0-0_0
  6
CONTINUOUS
 62
    7
 10
114.42778049999993
 20
768.83233599999994
 11
114.17778049999993
 21
769.02252199999998
  0
LINE
  8
_0-0_0
  6
CONTINUOUS
 62
    7
 10
114.42778049999993
 20
769.27145399999995
 11
114.17778049999993
 21
769.26681499999995
  0
LINE
  8
_0-0_0
  6
CONTINUOUS
 62
    7
 10
114.42778049999993
 20
769.05630500000007
 11
114.17778049999993
 21
769.26681499999995
  0
LINE
  8
_0-0_0
  6
CONTINUOUS
 62
    7
 10
129.42778049999993
 20
761.512024
 11
129.42778049999993
 21
762.55767800000001
  0
LINE
  8
_0-0_0
  6
CONTINUOUS
 62
    7
 10
129.42778049999993
 20
763.84228499999995
 11
129.42778049999993
 21
762.55767800000001
  0
LINE
  8
_0-0_0
  6
CONTINUOUS
 62
    7
 10
129.42778049999993
 20
761.512024
 11
129.42778049999993
 21
758.38793899999996
  0
LINE
  8
_0-0_0
  6
CONTINUOUS
 62
    7
 10
129.42778049999993
 20
757.34228499999995
 11
129.42778049999993
 21
756.05767800000001
  0
LINE
  8
_0-0_0
  6
CONTINUOUS
 62
    7
 10
129.42778049999993
 20
757.34228499999995
 11
129.42778049999993
 21
758.38793899999996
  0
LINE
  8
_0-0_0
  6
CONTINUOUS
 62
    7
 10
244.02778649999993
 20
750.69113199999993
 11
244.02778649999993
 21
753.64999399999999
  0
LINE
  8
_0-0_0
  6
CONTINUOUS
 62
    7
 10
244.02778649999993
 20
749.64999399999999
 11
244.02778649999993
 21
750.69113199999993
  0
LINE
  8
_0-0_0
  6
CONTINUOUS
 62
    7
 10
129.42778049999993
 20
757.34228499999995
 11
119.71995549999997
 21
757.34228499999995
  0
ARC
  8
_0-0_0
  6
CONTINUOUS
 62
    7
 10
124.60167649999994
 20
756.69909699999994
 40
4.9238749999999998
 50
172.49424200000001
 51
181.535968
  0
ARC
  8
_0-0_0
  6
CONTINUOUS
 62
    7
 10
124.63969449999991
 20
756.70404099999996
 40
4.9620009999999999
 50
181.58130700000004
 51
187.48478900000003
  0
LINE
  8
_0-0_0
  6
CONTINUOUS
 62
    7
 10
118.42778049999993
 20
757.21844499999997
 11
118.42778049999993
 21
754.69998199999998
  0
LINE
  8
_0-0_0
  6
CONTINUOUS
 62
    7
 10
118.42778049999993
 20
765.19998199999998
 11
118.42778049999993
 21
757.21844499999997
  0
LINE
  8
_0-0_0
  6
CONTINUOUS
 62
    7
 10
119.71995549999997
 20
762.55767800000001
 11
119.62561749999998
 21
762.31106599999998
  0
LINE
  8
_0-0_0
  6
CONTINUOUS
 62
    7
 10
119.62561749999998
 20
762.31106599999998
 11
119.54167150000001
 21
762.07110599999999
  0
LINE
  8
_0-0_0
  6
CONTINUOUS
 62
    7
 10
119.54167150000001
 20
762.07110599999999
 11
119.4675135
 21
761.83697499999994
  0
LINE
  8
_0-0_0
  6
CONTINUOUS
 62
    7
 10
119.4675135
 20
761.83697499999994
 11
119.40263349999998
 21
761.60794099999998
  0
LINE
  8
_0-0_0
  6
CONTINUOUS
 62
    7
 10
119.40263349999998
 20
761.60794099999998
 11
119.34659549999992
 21
761.38327000000004
  0
LINE
  8
_0-0_0
  6
CONTINUOUS
 62
    7
 10
119.34659549999992
 20
761.38327000000004
 11
119.29902649999997
 21
761.16229199999998
  0
LINE
  8
_0-0_0
  6
CONTINUOUS
 62
    7
 10
119.29902649999997
 20
761.16229199999998
 11
119.25962049999998
 21
760.94436599999995
  0
LINE
  8
_0-0_0
  6
CONTINUOUS
 62
    7
 10
119.25962049999998
 20
760.94436599999995
 11
119.22813450000001
 21
760.72891200000004
  0
LINE
  8
_0-0_0
  6
CONTINUOUS
 62
    7
 10
119.22813450000001
 20
760.72891200000004
 11
119.20436050000001
 21
760.51538099999993
  0
LINE
  8
_0-0_0
  6
CONTINUOUS
 62
    7
 10
119.20436050000001
 20
760.51538099999993
 11
119.18843049999998
 21
760.30767800000001
  0
LINE
  8
_0-0_0
  6
CONTINUOUS
 62
    7
 10
119.18843049999998
 20
760.30767800000001
 11
119.17967949999991
 21
760.10082999999997
  0
LINE
  8
_0-0_0
  6
CONTINUOUS
 62
    7
 10
119.17967949999991
 20
760.10082999999997
 11
119.17803949999995
 21
759.89434800000004
  0
LINE
  8
_0-0_0
  6
CONTINUOUS
 62
    7
 10
119.17803949999995
 20
759.89434800000004
 11
119.1835094999999
 21
759.68777499999999
  0
LINE
  8
_0-0_0
  6
CONTINUOUS
 62
    7
 10
119.1835094999999
 20
759.68777499999999
 11
119.19611349999991
 21
759.480591
  0
LINE
  8
_0-0_0
  6
CONTINUOUS
 62
    7
 10
119.19611349999991
 20
759.480591
 11
119.2159345
 21
759.27227799999991
  0
LINE
  8
_0-0_0
  6
CONTINUOUS
 62
    7
 10
119.2159345
 20
759.27227799999991
 11
119.24308049999991
 21
759.06237800000008
  0
LINE
  8
_0-0_0
  6
CONTINUOUS
 62
    7
 10
119.24308049999991
 20
759.06237800000008
 11
119.27772549999997
 21
758.85031099999992
  0
LINE
  8
_0-0_0
  6
CONTINUOUS
 62
    7
 10
119.27772549999997
 20
758.85031099999992
 11
119.32007549999992
 21
758.63555900000006
  0
LINE
  8
_0-0_0
  6
CONTINUOUS
 62
    7
 10
119.32007549999992
 20
758.63555900000006
 11
119.37039149999998
 21
758.41754200000003
  0
LINE
  8
_0-0_0
  6
CONTINUOUS
 62
    7
 10
119.37039149999998
 20
758.41754200000003
 11
119.42463649999991
 21
758.21124299999997
  0
LINE
  8
_0-0_0
  6
CONTINUOUS
 62
    7
 10
119.42463649999991
 20
758.21124299999997
 11
119.48634349999998
 21
758.00116000000003
  0
LINE
  8
_0-0_0
  6
CONTINUOUS
 62
    7
 10
119.48634349999998
 20
758.00116000000003
 11
119.55586249999999
 21
757.78668199999993
  0
LINE
  8
_0-0_0
  6
CONTINUOUS
 62
    7
 10
119.55586249999999
 20
757.78668199999993
 11
119.63358249999999
 21
757.56726099999992
  0
LINE
  8
_0-0_0
  6
CONTINUOUS
 62
    7
 10
119.63358249999999
 20
757.56726099999992
 11
119.71995549999997
 21
757.34228499999995
  0
ARC
  8
_0-0_0
  6
CONTINUOUS
 62
    7
 10
124.5915144999999
 20
763.19998199999998
 40
4.9136889999999998
 50
172.48898299999999
 51
187.51101699999998
  0
LINE
  8
_0-0_0
  6
CONTINUOUS
 62
    7
 10
129.42778049999993
 20
762.55767800000001
 11
119.71995549999997
 21
762.55767800000001
  0
LINE
  8
_0-0_0
  6
CONTINUOUS
 62
    7
 10
104.67778049999993
 20
769.47543300000007
 11
104.92778049999993
 21
769.5
  0
LINE
  8
_0-0_0
  6
CONTINUOUS
 62
    7
 10
104.92778049999993
 20
769.5
 11
114.17778049999993
 21
769.5
  0
LINE
  8
_0-0_0
  6
CONTINUOUS
 62
    7
 10
104.67778049999993
 20
769.27145399999995
 11
104.92778049999993
 21
769.5
  0
LINE
  8
_0-0_0
  6
CONTINUOUS
 62
    7
 10
104.67778049999993
 20
769.27145399999995
 11
114.42778049999993
 21
769.27145399999995
  0
LINE
  8
_0-0_0
  6
CONTINUOUS
 62
    7
 10
104.67778049999993
 20
769.66595499999994
 11
104.92778049999993
 21
769.71945200000005
  0
LINE
  8
_0-0_0
  6
CONTINUOUS
 62
    7
 10
104.92778049999993
 20
769.71945200000005
 11
114.17778049999993
 21
769.71945200000005
  0
LINE
  8
_0-0_0
  6
CONTINUOUS
 62
    7
 10
104.67778049999993
 20
769.47543300000007
 11
104.92778049999993
 21
769.71945200000005
  0
LINE
  8
_0-0_0
  6
CONTINUOUS
 62
    7
 10
104.67778049999993
 20
769.84097300000008
 11
104.92778049999993
 21
769.922821
  0
LINE
  8
_0-0_0
  6
CONTINUOUS
 62
    7
 10
104.92778049999993
 20
769.922821
 11
114.17778049999993
 21
769.922821
  0
LINE
  8
_0-0_0
  6
CONTINUOUS
 62
    7
 10
104.67778049999993
 20
769.66595499999994
 11
104.92778049999993
 21
769.922821
  0
LINE
  8
_0-0_0
  6
CONTINUOUS
 62
    7
 10
104.67778049999993
 20
769.99856599999998
 11
104.92778049999993
 21
770.10784899999999
  0
LINE
  8
_0-0_0
  6
CONTINUOUS
 62
    7
 10
104.92778049999993
 20
770.10784899999999
 11
114.17778049999993
 21
770.10784899999999
  0
LINE
  8
_0-0_0
  6
CONTINUOUS
 62
    7
 10
104.67778049999993
 20
769.84097300000008
 11
104.92778049999993
 21
770.10784899999999
  0
LINE
  8
_0-0_0
  6
CONTINUOUS
 62
    7
 10
104.67778049999993
 20
770.13699300000007
 11
104.92778049999993
 21
770.27252199999998
  0
LINE
  8
_0-0_0
  6
CONTINUOUS
 62
    7
 10
104.92778049999993
 20
770.27252199999998
 11
114.17778049999993
 21
770.27252199999998
  0
LINE
  8
_0-0_0
  6
CONTINUOUS
 62
    7
 10
104.67778049999993
 20
769.99856599999998
 11
104.92778049999993
 21
770.27252199999998
  0
LINE
  8
_0-0_0
  6
CONTINUOUS
 62
    7
 10
104.67778049999993
 20
770.25476099999992
 11
104.92778049999993
 21
770.41503899999998
  0
LINE
  8
_0-0_0
  6
CONTINUOUS
 62
    7
 10
104.92778049999993
 20
770.41503899999998
 11
114.17778049999993
 21
770.41503899999998
  0
LINE
  8
_0-0_0
  6
CONTINUOUS
 62
    7
 10
104.67778049999993
 20
770.13699300000007
 11
104.92778049999993
 21
770.41503899999998
  0
LINE
  8
_0-0_0
  6
CONTINUOUS
 62
    7
 10
104.67778049999993
 20
770.35052500000006
 11
104.92778049999993
 21
770.53384400000004
  0
LINE
  8
_0-0_0
  6
CONTINUOUS
 62
    7
 10
104.92778049999993
 20
770.53384400000004
 11
114.17778049999993
 21
770.53384400000004
  0
LINE
  8
_0-0_0
  6
CONTINUOUS
 62
    7
 10
104.67778049999993
 20
770.25476099999992
 11
104.92778049999993
 21
770.53384400000004
  0
LINE
  8
_0-0_0
  6
CONTINUOUS
 62
    7
 10
104.67778049999993
 20
770.42330900000002
 11
104.92778049999993
 21
770.62762500000008
  0
LINE
  8
_0-0_0
  6
CONTINUOUS
 62
    7
 10
104.92778049999993
 20
770.62762500000008
 11
114.17778049999993
 21
770.62762500000008
  0
LINE
  8
_0-0_0
  6
CONTINUOUS
 62
    7
 10
104.67778049999993
 20
770.35052500000006
 11
104.92778049999993
 21
770.62762500000008
  0
LINE
  8
_0-0_0
  6
CONTINUOUS
 62
    7
 10
104.67778049999993
 20
770.47228999999993
 11
104.92778049999993
 21
770.69534299999998
  0
LINE
  8
_0-0_0
  6
CONTINUOUS
 62
    7
 10
104.92778049999993
 20
770.69534299999998
 11
114.17778049999993
 21
770.69534299999998
  0
LINE
  8
_0-0_0
  6
CONTINUOUS
 62
    7
 10
104.67778049999993
 20
770.42330900000002
 11
104.92778049999993
 21
770.69534299999998
  0
LINE
  8
_0-0_0
  6
CONTINUOUS
 62
    7
 10
104.67778049999993
 20
770.49688700000002
 11
104.92778049999993
 21
770.73629800000003
  0
LINE
  8
_0-0_0
  6
CONTINUOUS
 62
    7
 10
104.92778049999993
 20
770.73629800000003
 11
114.17778049999993
 21
770.73629800000003
  0
LINE
  8
_0-0_0
  6
CONTINUOUS
 62
    7
 10
104.67778049999993
 20
770.47228999999993
 11
104.92778049999993
 21
770.73629800000003
  0
LINE
  8
_0-0_0
  6
CONTINUOUS
 62
    7
 10
104.92778049999993
 20
770.75
 11
114.17778049999993
 21
770.75
  0
LINE
  8
_0-0_0
  6
CONTINUOUS
 62
    7
 10
104.67778049999993
 20
770.49688700000002
 11
104.92778049999993
 21
770.75
  0
LINE
  8
_0-0_0
  6
CONTINUOUS
 62
    7
 10
104.67778049999993
 20
766.00305200000003
 11
104.92778049999993
 21
765.75
  0
LINE
  8
_0-0_0
  6
CONTINUOUS
 62
    7
 10
104.92778049999993
 20
765.75
 11
114.17778049999993
 21
765.75
  0
LINE
  8
_0-0_0
  6
CONTINUOUS
 62
    7
 10
104.67778049999993
 20
766.02767900000003
 11
104.92778049999993
 21
765.76367200000004
  0
LINE
  8
_0-0_0
  6
CONTINUOUS
 62
    7
 10
104.92778049999993
 20
765.76367200000004
 11
114.17778049999993
 21
765.76367200000004
  0
LINE
  8
_0-0_0
  6
CONTINUOUS
 62
    7
 10
104.67778049999993
 20
766.00305200000003
 11
104.92778049999993
 21
765.76367200000004
  0
LINE
  8
_0-0_0
  6
CONTINUOUS
 62
    7
 10
104.67778049999993
 20
766.07665999999995
 11
104.92778049999993
 21
765.80462599999998
  0
LINE
  8
_0-0_0
  6
CONTINUOUS
 62
    7
 10
104.92778049999993
 20
765.80462599999998
 11
114.17778049999993
 21
765.80462599999998
  0
LINE
  8
_0-0_0
  6
CONTINUOUS
 62
    7
 10
104.67778049999993
 20
766.02767900000003
 11
104.92778049999993
 21
765.80462599999998
  0
LINE
  8
_0-0_0
  6
CONTINUOUS
 62
    7
 10
104.67778049999993
 20
766.14941399999998
 11
104.92778049999993
 21
765.872345
  0
LINE
  8
_0-0_0
  6
CONTINUOUS
 62
    7
 10
104.92778049999993
 20
765.872345
 11
114.17778049999993
 21
765.872345
  0
LINE
  8
_0-0_0
  6
CONTINUOUS
 62
    7
 10
104.67778049999993
 20
766.07665999999995
 11
104.92778049999993
 21
765.872345
  0
LINE
  8
_0-0_0
  6
CONTINUOUS
 62
    7
 10
104.67778049999993
 20
766.24520899999993
 11
104.92778049999993
 21
765.96612499999992
  0
LINE
  8
_0-0_0
  6
CONTINUOUS
 62
    7
 10
104.92778049999993
 20
765.96612499999992
 11
114.17778049999993
 21
765.96612499999992
  0
LINE
  8
_0-0_0
  6
CONTINUOUS
 62
    7
 10
104.67778049999993
 20
766.14941399999998
 11
104.92778049999993
 21
765.96612499999992
  0
LINE
  8
_0-0_0
  6
CONTINUOUS
 62
    7
 10
104.92778049999993
 20
766.08492999999999
 11
114.17778049999993
 21
766.08492999999999
  0
LINE
  8
_0-0_0
  6
CONTINUOUS
 62
    7
 10
104.80774650000001
 20
766.16137700000002
 11
104.92778049999993
 21
766.08492999999999
  0
LINE
  8
_0-0_0
  6
CONTINUOUS
 62
    7
 10
104.67778049999993
 20
766.24520899999993
 11
104.80774650000001
 21
766.16137700000002
  0
LINE
  8
_0-0_0
  6
CONTINUOUS
 62
    7
 10
104.67778049999993
 20
766.362976
 11
104.92778049999993
 21
766.08492999999999
  0
LINE
  8
_0-0_0
  6
CONTINUOUS
 62
    7
 10
104.67778049999993
 20
766.50140399999998
 11
104.92778049999993
 21
766.22744799999998
  0
LINE
  8
_0-0_0
  6
CONTINUOUS
 62
    7
 10
104.92778049999993
 20
766.22744799999998
 11
114.17778049999993
 21
766.22744799999998
  0
LINE
  8
_0-0_0
  6
CONTINUOUS
 62
    7
 10
104.67778049999993
 20
766.362976
 11
104.92778049999993
 21
766.22744799999998
  0
LINE
  8
_0-0_0
  6
CONTINUOUS
 62
    7
 10
104.67778049999993
 20
766.658997
 11
104.92778049999993
 21
766.39211999999998
  0
LINE
  8
_0-0_0
  6
CONTINUOUS
 62
    7
 10
104.92778049999993
 20
766.39211999999998
 11
114.17778049999993
 21
766.39211999999998
  0
LINE
  8
_0-0_0
  6
CONTINUOUS
 62
    7
 10
104.67778049999993
 20
766.50140399999998
 11
104.92778049999993
 21
766.39211999999998
  0
LINE
  8
_0-0_0
  6
CONTINUOUS
 62
    7
 10
104.67778049999993
 20
766.83401500000002
 11
104.92778049999993
 21
766.57714800000008
  0
LINE
  8
_0-0_0
  6
CONTINUOUS
 62
    7
 10
104.92778049999993
 20
766.57714800000008
 11
114.17778049999993
 21
766.57714800000008
  0
LINE
  8
_0-0_0
  6
CONTINUOUS
 62
    7
 10
104.67778049999993
 20
766.658997
 11
104.92778049999993
 21
766.57714800000008
  0
LINE
  8
_0-0_0
  6
CONTINUOUS
 62
    7
 10
104.67778049999993
 20
767.02453600000001
 11
104.92778049999993
 21
766.78051800000003
  0
LINE
  8
_0-0_0
  6
CONTINUOUS
 62
    7
 10
104.92778049999993
 20
766.78051800000003
 11
114.17778049999993
 21
766.78051800000003
  0
LINE
  8
_0-0_0
  6
CONTINUOUS
 62
    7
 10
104.67778049999993
 20
766.83401500000002
 11
104.92778049999993
 21
766.78051800000003
  0
LINE
  8
_0-0_0
  6
CONTINUOUS
 62
    7
 10
104.67778049999993
 20
767.22851600000001
 11
104.92778049999993
 21
767
  0
LINE
  8
_0-0_0
  6
CONTINUOUS
 62
    7
 10
104.92778049999993
 20
767
 11
114.17778049999993
 21
767
  0
LINE
  8
_0-0_0
  6
CONTINUOUS
 62
    7
 10
104.67778049999993
 20
767.22851600000001
 11
114.42778049999993
 21
767.22851600000001
  0
LINE
  8
_0-0_0
  6
CONTINUOUS
 62
    7
 10
104.67778049999993
 20
767.02453600000001
 11
104.92778049999993
 21
767
  0
LINE
  8
_0-0_0
  6
CONTINUOUS
 62
    7
 10
104.67778049999993
 20
767.44366500000001
 11
104.92778049999993
 21
767.23315400000001
  0
LINE
  8
_0-0_0
  6
CONTINUOUS
 62
    7
 10
104.92778049999993
 20
767.23315400000001
 11
114.17778049999993
 21
767.23315400000001
  0
LINE
  8
_0-0_0
  6
CONTINUOUS
 62
    7
 10
104.67778049999993
 20
767.44366500000001
 11
114.42778049999993
 21
767.44366500000001
  0
LINE
  8
_0-0_0
  6
CONTINUOUS
 62
    7
 10
104.67778049999993
 20
767.22851600000001
 11
104.92778049999993
 21
767.23315400000001
  0
LINE
  8
_0-0_0
  6
CONTINUOUS
 62
    7
 10
104.67778049999993
 20
767.66763300000002
 11
104.92778049999993
 21
767.47744799999998
  0
LINE
  8
_0-0_0
  6
CONTINUOUS
 62
    7
 10
104.92778049999993
 20
767.47744799999998
 11
114.17778049999993
 21
767.47744799999998
  0
LINE
  8
_0-0_0
  6
CONTINUOUS
 62
    7
 10
104.67778049999993
 20
767.66763300000002
 11
114.42778049999993
 21
767.66763300000002
  0
LINE
  8
_0-0_0
  6
CONTINUOUS
 62
    7
 10
104.67778049999993
 20
767.44366500000001
 11
104.92778049999993
 21
767.47744799999998
  0
LINE
  8
_0-0_0
  6
CONTINUOUS
 62
    7
 10
104.67778049999993
 20
767.89801
 11
104.92778049999993
 21
767.73019399999998
  0
LINE
  8
_0-0_0
  6
CONTINUOUS
 62
    7
 10
104.92778049999993
 20
767.73019399999998
 11
114.17778049999993
 21
767.73019399999998
  0
LINE
  8
_0-0_0
  6
CONTINUOUS
 62
    7
 10
104.67778049999993
 20
767.89801
 11
114.42778049999993
 21
767.89801
  0
LINE
  8
_0-0_0
  6
CONTINUOUS
 62
    7
 10
104.67778049999993
 20
767.66763300000002
 11
104.92778049999993
 21
767.73019399999998
  0
LINE
  8
_0-0_0
  6
CONTINUOUS
 62
    7
 10
104.67778049999993
 20
768.13223300000004
 11
104.92778049999993
 21
767.98864700000001
  0
LINE
  8
_0-0_0
  6
CONTINUOUS
 62
    7
 10
104.92778049999993
 20
767.98864700000001
 11
114.17778049999993
 21
767.98864700000001
  0
LINE
  8
_0-0_0
  6
CONTINUOUS
 62
    7
 10
104.67778049999993
 20
768.13223300000004
 11
114.42778049999993
 21
768.13223300000004
  0
LINE
  8
_0-0_0
  6
CONTINUOUS
 62
    7
 10
104.67778049999993
 20
767.89801
 11
104.92778049999993
 21
767.98864700000001
  0
LINE
  8
_0-0_0
  6
CONTINUOUS
 62
    7
 10
104.67778049999993
 20
768.36773700000003
 11
104.92778049999993
 21
768.25
  0
LINE
  8
_0-0_0
  6
CONTINUOUS
 62
    7
 10
104.92778049999993
 20
768.25
 11
114.17778049999993
 21
768.25
  0
LINE
  8
_0-0_0
  6
CONTINUOUS
 62
    7
 10
104.67778049999993
 20
768.36773700000003
 11
114.42778049999993
 21
768.36773700000003
  0
LINE
  8
_0-0_0
  6
CONTINUOUS
 62
    7
 10
104.67778049999993
 20
768.13223300000004
 11
104.92778049999993
 21
768.25
  0
LINE
  8
_0-0_0
  6
CONTINUOUS
 62
    7
 10
104.67778049999993
 20
768.60195900000008
 11
104.92778049999993
 21
768.51129200000003
  0
LINE
  8
_0-0_0
  6
CONTINUOUS
 62
    7
 10
104.92778049999993
 20
768.51129200000003
 11
114.17778049999993
 21
768.51129200000003
  0
LINE
  8
_0-0_0
  6
CONTINUOUS
 62
    7
 10
104.67778049999993
 20
768.60195900000008
 11
114.42778049999993
 21
768.60195900000008
  0
LINE
  8
_0-0_0
  6
CONTINUOUS
 62
    7
 10
104.67778049999993
 20
768.36773700000003
 11
104.92778049999993
 21
768.51129200000003
  0
LINE
  8
_0-0_0
  6
CONTINUOUS
 62
    7
 10
104.67778049999993
 20
768.83233599999994
 11
104.92778049999993
 21
768.76977499999998
  0
LINE
  8
_0-0_0
  6
CONTINUOUS
 62
    7
 10
104.92778049999993
 20
768.76977499999998
 11
114.17778049999993
 21
768.76977499999998
  0
LINE
  8
_0-0_0
  6
CONTINUOUS
 62
    7
 10
104.67778049999993
 20
768.83233599999994
 11
114.42778049999993
 21
768.83233599999994
  0
LINE
  8
_0-0_0
  6
CONTINUOUS
 62
    7
 10
104.67778049999993
 20
768.60195900000008
 11
104.92778049999993
 21
768.76977499999998
  0
LINE
  8
_0-0_0
  6
CONTINUOUS
 62
    7
 10
104.67778049999993
 20
769.05630500000007
 11
104.92778049999993
 21
769.02252199999998
  0
LINE
  8
_0-0_0
  6
CONTINUOUS
 62
    7
 10
104.92778049999993
 20
769.02252199999998
 11
114.17778049999993
 21
769.02252199999998
  0
LINE
  8
_0-0_0
  6
CONTINUOUS
 62
    7
 10
104.67778049999993
 20
769.05630500000007
 11
114.42778049999993
 21
769.05630500000007
  0
LINE
  8
_0-0_0
  6
CONTINUOUS
 62
    7
 10
104.67778049999993
 20
768.83233599999994
 11
104.92778049999993
 21
769.02252199999998
  0
LINE
  8
_0-0_0
  6
CONTINUOUS
 62
    7
 10
104.67778049999993
 20
769.27145399999995
 11
104.92778049999993
 21
769.26681499999995
  0
LINE
  8
_0-0_0
  6
CONTINUOUS
 62
    7
 10
104.92778049999993
 20
769.26681499999995
 11
114.17778049999993
 21
769.26681499999995
  0
LINE
  8
_0-0_0
  6
CONTINUOUS
 62
    7
 10
104.67778049999993
 20
769.05630500000007
 11
104.92778049999993
 21
769.26681499999995
  0
LINE
  8
_0-0_0
  6
CONTINUOUS
 62
    7
 10
104.42778049999993
 20
770.25
 11
104.42778049999993
 21
766.49481200000002
  0
LINE
  8
_0-0_0
  6
CONTINUOUS
 62
    7
 10
104.42778049999993
 20
766.49481200000002
 11
104.42778049999993
 21
766.25
  0
LINE
  8
_0-0_0
  6
CONTINUOUS
 62
    7
 10
118.02777849999995
 20
764.94998199999998
 11
118.02777849999995
 21
762.44998199999998
  0
LINE
  8
_0-0_0
  6
CONTINUOUS
 62
    7
 10
118.02777849999995
 20
762.44998199999998
 11
118.02777849999995
 21
754.94998199999998
  0
LINE
  8
_0-0_0
  6
CONTINUOUS
 62
    7
 10
117.22778349999999
 20
764.48809800000004
 11
117.22778349999999
 21
762.21905500000003
  0
LINE
  8
_0-0_0
  6
CONTINUOUS
 62
    7
 10
117.22778349999999
 20
762.21905500000003
 11
117.22778349999999
 21
755.41186500000003
  0
LINE
  8
_0-0_0
  6
CONTINUOUS
 62
    7
 10
59.227783499999987
 20
763.94998199999998
 11
59.227783499999987
 21
763.94863899999996
  0
LINE
  8
_0-0_0
  6
CONTINUOUS
 62
    7
 10
59.227783499999987
 20
763.94863899999996
 11
59.227783499999987
 21
755.94998199999998
  0
LINE
  8
_0-0_0
  6
CONTINUOUS
 62
    7
 10
114.42778049999993
 20
749.40307600000006
 11
114.42778049999993
 21
749.39999399999999
  0
LINE
  8
_0-0_0
  6
CONTINUOUS
 62
    7
 10
114.42778049999993
 20
749.42770399999995
 11
114.42778049999993
 21
749.40307600000006
  0
LINE
  8
_0-0_0
  6
CONTINUOUS
 62
    7
 10
114.42778049999993
 20
749.47665400000005
 11
114.42778049999993
 21
749.39999399999999
  0
LINE
  8
_0-0_0
  6
CONTINUOUS
 62
    7
 10
114.42778049999993
 20
749.54943800000001
 11
114.42778049999993
 21
749.47665400000005
  0
LINE
  8
_0-0_0
  6
CONTINUOUS
 62
    7
 10
114.42778049999993
 20
749.64520300000004
 11
114.42778049999993
 21
749.54943800000001
  0
LINE
  8
_0-0_0
  6
CONTINUOUS
 62
    7
 10
114.42778049999993
 20
749.67541499999993
 11
114.42778049999993
 21
749.64520300000004
  0
LINE
  8
_0-0_0
  6
CONTINUOUS
 62
    7
 10
114.42778049999993
 20
749.76297
 11
114.42778049999993
 21
749.67541499999993
  0
LINE
  8
_0-0_0
  6
CONTINUOUS
 62
    7
 10
114.42778049999993
 20
749.90139799999997
 11
114.42778049999993
 21
749.76297
  0
LINE
  8
_0-0_0
  6
CONTINUOUS
 62
    7
 10
114.42778049999993
 20
750.05898999999999
 11
114.42778049999993
 21
749.90139799999997
  0
LINE
  8
_0-0_0
  6
CONTINUOUS
 62
    7
 10
114.42778049999993
 20
750.23400900000001
 11
114.42778049999993
 21
750.05898999999999
  0
LINE
  8
_0-0_0
  6
CONTINUOUS
 62
    7
 10
114.42778049999993
 20
750.42453
 11
114.42778049999993
 21
750.23400900000001
  0
LINE
  8
_0-0_0
  6
CONTINUOUS
 62
    7
 10
114.42778049999993
 20
750.62851000000001
 11
114.42778049999993
 21
750.42453
  0
LINE
  8
_0-0_0
  6
CONTINUOUS
 62
    7
 10
114.42778049999993
 20
750.843658
 11
114.42778049999993
 21
750.62851000000001
  0
LINE
  8
_0-0_0
  6
CONTINUOUS
 62
    7
 10
114.42778049999993
 20
751.06762700000002
 11
114.42778049999993
 21
750.843658
  0
LINE
  8
_0-0_0
  6
CONTINUOUS
 62
    7
 10
114.42778049999993
 20
751.29800399999999
 11
114.42778049999993
 21
751.06762700000002
  0
LINE
  8
_0-0_0
  6
CONTINUOUS
 62
    7
 10
114.42778049999993
 20
751.53222699999992
 11
114.42778049999993
 21
751.29800399999999
  0
LINE
  8
_0-0_0
  6
CONTINUOUS
 62
    7
 10
114.42778049999993
 20
751.76773100000003
 11
114.42778049999993
 21
751.53222699999992
  0
LINE
  8
_0-0_0
  6
CONTINUOUS
 62
    7
 10
114.42778049999993
 20
752.00195299999996
 11
114.42778049999993
 21
751.76773100000003
  0
LINE
  8
_0-0_0
  6
CONTINUOUS
 62
    7
 10
114.42778049999993
 20
752.23233000000005
 11
114.42778049999993
 21
752.00195299999996
  0
LINE
  8
_0-0_0
  6
CONTINUOUS
 62
    7
 10
114.42778049999993
 20
752.45629899999994
 11
114.42778049999993
 21
752.23233000000005
  0
LINE
  8
_0-0_0
  6
CONTINUOUS
 62
    7
 10
114.42778049999993
 20
752.67144800000005
 11
114.42778049999993
 21
752.45629899999994
  0
LINE
  8
_0-0_0
  6
CONTINUOUS
 62
    7
 10
114.42778049999993
 20
752.72869900000001
 11
114.42778049999993
 21
752.67144800000005
  0
LINE
  8
_0-0_0
  6
CONTINUOUS
 62
    7
 10
114.42778049999993
 20
749.40307600000006
 11
114.17778049999993
 21
749.14999399999999
  0
LINE
  8
_0-0_0
  6
CONTINUOUS
 62
    7
 10
114.42778049999993
 20
749.42770399999995
 11
114.17778049999993
 21
749.16369600000007
  0
LINE
  8
_0-0_0
  6
CONTINUOUS
 62
    7
 10
114.42778049999993
 20
749.40307600000006
 11
114.17778049999993
 21
749.16369600000007
  0
LINE
  8
_0-0_0
  6
CONTINUOUS
 62
    7
 10
114.42778049999993
 20
749.47665400000005
 11
114.17778049999993
 21
749.20461999999998
  0
LINE
  8
_0-0_0
  6
CONTINUOUS
 62
    7
 10
114.42778049999993
 20
749.42770399999995
 11
114.39672849999999
 21
749.39999399999999
  0
LINE
  8
_0-0_0
  6
CONTINUOUS
 62
    7
 10
114.42778049999993
 20
749.54943800000001
 11
114.17778049999993
 21
749.27233899999999
  0
LINE
  8
_0-0_0
  6
CONTINUOUS
 62
    7
 10
114.42778049999993
 20
749.47665400000005
 11
114.17778049999993
 21
749.27233899999999
  0
LINE
  8
_0-0_0
  6
CONTINUOUS
 62
    7
 10
114.42778049999993
 20
749.64520300000004
 11
114.17778049999993
 21
749.36611900000003
  0
LINE
  8
_0-0_0
  6
CONTINUOUS
 62
    7
 10
114.42778049999993
 20
749.54943800000001
 11
114.17778049999993
 21
749.36611900000003
  0
LINE
  8
_0-0_0
  6
CONTINUOUS
 62
    7
 10
114.42778049999993
 20
749.64520300000004
 11
114.29782049999994
 21
749.56137100000001
  0
LINE
  8
_0-0_0
  6
CONTINUOUS
 62
    7
 10
114.42778049999993
 20
749.76297
 11
114.17778049999993
 21
749.48492399999998
  0
LINE
  8
_0-0_0
  6
CONTINUOUS
 62
    7
 10
114.29782049999994
 20
749.56137100000001
 11
114.17778049999993
 21
749.48492399999998
  0
LINE
  8
_0-0_0
  6
CONTINUOUS
 62
    7
 10
114.42778049999993
 20
749.90139799999997
 11
114.17778049999993
 21
749.62744099999998
  0
LINE
  8
_0-0_0
  6
CONTINUOUS
 62
    7
 10
114.42778049999993
 20
749.76297
 11
114.17778049999993
 21
749.62744099999998
  0
LINE
  8
_0-0_0
  6
CONTINUOUS
 62
    7
 10
114.42778049999993
 20
750.05898999999999
 11
114.17778049999993
 21
749.79211400000008
  0
LINE
  8
_0-0_0
  6
CONTINUOUS
 62
    7
 10
114.42778049999993
 20
749.90139799999997
 11
114.17778049999993
 21
749.79211400000008
  0
LINE
  8
_0-0_0
  6
CONTINUOUS
 62
    7
 10
114.42778049999993
 20
750.23400900000001
 11
114.17778049999993
 21
749.97717299999999
  0
LINE
  8
_0-0_0
  6
CONTINUOUS
 62
    7
 10
114.42778049999993
 20
750.05898999999999
 11
114.17778049999993
 21
749.97717299999999
  0
LINE
  8
_0-0_0
  6
CONTINUOUS
 62
    7
 10
114.42778049999993
 20
750.42453
 11
114.17778049999993
 21
750.18051100000002
  0
LINE
  8
_0-0_0
  6
CONTINUOUS
 62
    7
 10
114.42778049999993
 20
750.23400900000001
 11
114.17778049999993
 21
750.18051100000002
  0
LINE
  8
_0-0_0
  6
CONTINUOUS
 62
    7
 10
114.42778049999993
 20
750.62851000000001
 11
114.17778049999993
 21
750.39999399999999
  0
LINE
  8
_0-0_0
  6
CONTINUOUS
 62
    7
 10
114.42778049999993
 20
750.42453
 11
114.17778049999993
 21
750.39999399999999
  0
LINE
  8
_0-0_0
  6
CONTINUOUS
 62
    7
 10
114.42778049999993
 20
750.843658
 11
114.17778049999993
 21
750.63314800000001
  0
LINE
  8
_0-0_0
  6
CONTINUOUS
 62
    7
 10
114.42778049999993
 20
750.62851000000001
 11
114.17778049999993
 21
750.63314800000001
  0
LINE
  8
_0-0_0
  6
CONTINUOUS
 62
    7
 10
114.42778049999993
 20
751.06762700000002
 11
114.17778049999993
 21
750.87744099999998
  0
LINE
  8
_0-0_0
  6
CONTINUOUS
 62
    7
 10
114.42778049999993
 20
750.843658
 11
114.17778049999993
 21
750.87744099999998
  0
LINE
  8
_0-0_0
  6
CONTINUOUS
 62
    7
 10
114.42778049999993
 20
751.29800399999999
 11
114.17778049999993
 21
751.13018799999998
  0
LINE
  8
_0-0_0
  6
CONTINUOUS
 62
    7
 10
114.42778049999993
 20
751.06762700000002
 11
114.17778049999993
 21
751.13018799999998
  0
LINE
  8
_0-0_0
  6
CONTINUOUS
 62
    7
 10
114.42778049999993
 20
751.53222699999992
 11
114.17778049999993
 21
751.38867200000004
  0
LINE
  8
_0-0_0
  6
CONTINUOUS
 62
    7
 10
114.42778049999993
 20
751.29800399999999
 11
114.17778049999993
 21
751.38867200000004
  0
LINE
  8
_0-0_0
  6
CONTINUOUS
 62
    7
 10
114.42778049999993
 20
751.76773100000003
 11
114.17778049999993
 21
751.64999399999999
  0
LINE
  8
_0-0_0
  6
CONTINUOUS
 62
    7
 10
114.42778049999993
 20
751.53222699999992
 11
114.17778049999993
 21
751.64999399999999
  0
LINE
  8
_0-0_0
  6
CONTINUOUS
 62
    7
 10
114.42778049999993
 20
752.00195299999996
 11
114.17778049999993
 21
751.91131599999994
  0
LINE
  8
_0-0_0
  6
CONTINUOUS
 62
    7
 10
114.42778049999993
 20
751.76773100000003
 11
114.17778049999993
 21
751.91131599999994
  0
LINE
  8
_0-0_0
  6
CONTINUOUS
 62
    7
 10
114.42778049999993
 20
752.23233000000005
 11
114.17778049999993
 21
752.16976899999997
  0
LINE
  8
_0-0_0
  6
CONTINUOUS
 62
    7
 10
114.42778049999993
 20
752.00195299999996
 11
114.17778049999993
 21
752.16976899999997
  0
LINE
  8
_0-0_0
  6
CONTINUOUS
 62
    7
 10
114.42778049999993
 20
752.45629899999994
 11
114.17778049999993
 21
752.42251599999997
  0
LINE
  8
_0-0_0
  6
CONTINUOUS
 62
    7
 10
114.42778049999993
 20
752.23233000000005
 11
114.17778049999993
 21
752.42251599999997
  0
LINE
  8
_0-0_0
  6
CONTINUOUS
 62
    7
 10
114.42778049999993
 20
752.67144800000005
 11
114.17778049999993
 21
752.66680900000006
  0
LINE
  8
_0-0_0
  6
CONTINUOUS
 62
    7
 10
114.42778049999993
 20
752.45629899999994
 11
114.17778049999993
 21
752.66680900000006
  0
LINE
  8
_0-0_0
  6
CONTINUOUS
 62
    7
 10
114.42778049999993
 20
752.87542699999995
 11
114.42778049999993
 21
752.72869900000001
  0
LINE
  8
_0-0_0
  6
CONTINUOUS
 62
    7
 10
114.42778049999993
 20
752.87542699999995
 11
114.17778049999993
 21
752.89999399999999
  0
LINE
  8
_0-0_0
  6
CONTINUOUS
 62
    7
 10
114.42778049999993
 20
752.67144800000005
 11
114.17778049999993
 21
752.89999399999999
  0
LINE
  8
_0-0_0
  6
CONTINUOUS
 62
    7
 10
114.42778049999993
 20
753.06594799999993
 11
114.42778049999993
 21
752.87542699999995
  0
LINE
  8
_0-0_0
  6
CONTINUOUS
 62
    7
 10
114.42778049999993
 20
753.24096699999996
 11
114.42778049999993
 21
753.06594799999993
  0
LINE
  8
_0-0_0
  6
CONTINUOUS
 62
    7
 10
114.42778049999993
 20
753.39855999999997
 11
114.42778049999993
 21
753.24096699999996
  0
LINE
  8
_0-0_0
  6
CONTINUOUS
 62
    7
 10
114.42778049999993
 20
753.53698699999995
 11
114.42778049999993
 21
753.39855999999997
  0
LINE
  8
_0-0_0
  6
CONTINUOUS
 62
    7
 10
114.42778049999993
 20
753.65475500000002
 11
114.42778049999993
 21
753.53698699999995
  0
LINE
  8
_0-0_0
  6
CONTINUOUS
 62
    7
 10
114.42778049999993
 20
753.75054899999998
 11
114.42778049999993
 21
753.65475500000002
  0
LINE
  8
_0-0_0
  6
CONTINUOUS
 62
    7
 10
114.42778049999993
 20
753.82330300000001
 11
114.42778049999993
 21
753.75054899999998
  0
LINE
  8
_0-0_0
  6
CONTINUOUS
 62
    7
 10
114.42778049999993
 20
753.87228400000004
 11
114.42778049999993
 21
753.82330300000001
  0
LINE
  8
_0-0_0
  6
CONTINUOUS
 62
    7
 10
114.42778049999993
 20
753.89999399999999
 11
114.42778049999993
 21
753.87228400000004
  0
LINE
  8
_0-0_0
  6
CONTINUOUS
 62
    7
 10
114.42778049999993
 20
753.89999399999999
 11
114.42778049999993
 21
753.89691199999993
  0
LINE
  8
_0-0_0
  6
CONTINUOUS
 62
    7
 10
104.67778049999993
 20
749.40307600000006
 11
104.92778049999993
 21
749.14999399999999
  0
LINE
  8
_0-0_0
  6
CONTINUOUS
 62
    7
 10
104.92778049999993
 20
749.14999399999999
 11
114.17778049999993
 21
749.14999399999999
  0
LINE
  8
_0-0_0
  6
CONTINUOUS
 62
    7
 10
104.67778049999993
 20
749.42770399999995
 11
104.92778049999993
 21
749.16369600000007
  0
LINE
  8
_0-0_0
  6
CONTINUOUS
 62
    7
 10
104.92778049999993
 20
749.16369600000007
 11
114.17778049999993
 21
749.16369600000007
  0
LINE
  8
_0-0_0
  6
CONTINUOUS
 62
    7
 10
104.67778049999993
 20
749.40307600000006
 11
104.92778049999993
 21
749.16369600000007
  0
LINE
  8
_0-0_0
  6
CONTINUOUS
 62
    7
 10
104.67778049999993
 20
749.47665400000005
 11
104.92778049999993
 21
749.20461999999998
  0
LINE
  8
_0-0_0
  6
CONTINUOUS
 62
    7
 10
104.92778049999993
 20
749.20461999999998
 11
114.17778049999993
 21
749.20461999999998
  0
LINE
  8
_0-0_0
  6
CONTINUOUS
 62
    7
 10
104.67778049999993
 20
749.42770399999995
 11
104.92778049999993
 21
749.20461999999998
  0
LINE
  8
_0-0_0
  6
CONTINUOUS
 62
    7
 10
104.67778049999993
 20
749.54943800000001
 11
104.92778049999993
 21
749.27233899999999
  0
LINE
  8
_0-0_0
  6
CONTINUOUS
 62
    7
 10
104.92778049999993
 20
749.27233899999999
 11
114.17778049999993
 21
749.27233899999999
  0
LINE
  8
_0-0_0
  6
CONTINUOUS
 62
    7
 10
104.67778049999993
 20
749.47665400000005
 11
104.92778049999993
 21
749.27233899999999
  0
LINE
  8
_0-0_0
  6
CONTINUOUS
 62
    7
 10
104.67778049999993
 20
749.64520300000004
 11
104.92778049999993
 21
749.36611900000003
  0
LINE
  8
_0-0_0
  6
CONTINUOUS
 62
    7
 10
104.92778049999993
 20
749.36611900000003
 11
114.17778049999993
 21
749.36611900000003
  0
LINE
  8
_0-0_0
  6
CONTINUOUS
 62
    7
 10
104.67778049999993
 20
749.54943800000001
 11
104.92778049999993
 21
749.36611900000003
  0
LINE
  8
_0-0_0
  6
CONTINUOUS
 62
    7
 10
104.92778049999993
 20
749.48492399999998
 11
114.17778049999993
 21
749.48492399999998
  0
LINE
  8
_0-0_0
  6
CONTINUOUS
 62
    7
 10
104.80774650000001
 20
749.56137100000001
 11
104.92778049999993
 21
749.48492399999998
  0
LINE
  8
_0-0_0
  6
CONTINUOUS
 62
    7
 10
104.67778049999993
 20
749.64520300000004
 11
104.80774650000001
 21
749.56137100000001
  0
LINE
  8
_0-0_0
  6
CONTINUOUS
 62
    7
 10
104.67778049999993
 20
749.76297
 11
104.92778049999993
 21
749.48492399999998
  0
LINE
  8
_0-0_0
  6
CONTINUOUS
 62
    7
 10
104.67778049999993
 20
749.90139799999997
 11
104.92778049999993
 21
749.62744099999998
  0
LINE
  8
_0-0_0
  6
CONTINUOUS
 62
    7
 10
104.92778049999993
 20
749.62744099999998
 11
114.17778049999993
 21
749.62744099999998
  0
LINE
  8
_0-0_0
  6
CONTINUOUS
 62
    7
 10
104.67778049999993
 20
749.76297
 11
104.92778049999993
 21
749.62744099999998
  0
LINE
  8
_0-0_0
  6
CONTINUOUS
 62
    7
 10
104.67778049999993
 20
750.05898999999999
 11
104.92778049999993
 21
749.79211400000008
  0
LINE
  8
_0-0_0
  6
CONTINUOUS
 62
    7
 10
104.92778049999993
 20
749.79211400000008
 11
114.17778049999993
 21
749.79211400000008
  0
LINE
  8
_0-0_0
  6
CONTINUOUS
 62
    7
 10
104.67778049999993
 20
749.90139799999997
 11
104.92778049999993
 21
749.79211400000008
  0
LINE
  8
_0-0_0
  6
CONTINUOUS
 62
    7
 10
104.67778049999993
 20
750.23400900000001
 11
104.92778049999993
 21
749.97717299999999
  0
LINE
  8
_0-0_0
  6
CONTINUOUS
 62
    7
 10
104.92778049999993
 20
749.97717299999999
 11
114.17778049999993
 21
749.97717299999999
  0
LINE
  8
_0-0_0
  6
CONTINUOUS
 62
    7
 10
104.67778049999993
 20
750.05898999999999
 11
104.92778049999993
 21
749.97717299999999
  0
LINE
  8
_0-0_0
  6
CONTINUOUS
 62
    7
 10
104.67778049999993
 20
750.42453
 11
104.92778049999993
 21
750.18051100000002
  0
LINE
  8
_0-0_0
  6
CONTINUOUS
 62
    7
 10
104.92778049999993
 20
750.18051100000002
 11
114.17778049999993
 21
750.18051100000002
  0
LINE
  8
_0-0_0
  6
CONTINUOUS
 62
    7
 10
104.67778049999993
 20
750.23400900000001
 11
104.92778049999993
 21
750.18051100000002
  0
LINE
  8
_0-0_0
  6
CONTINUOUS
 62
    7
 10
104.67778049999993
 20
750.62851000000001
 11
104.92778049999993
 21
750.39999399999999
  0
LINE
  8
_0-0_0
  6
CONTINUOUS
 62
    7
 10
104.92778049999993
 20
750.39999399999999
 11
114.17778049999993
 21
750.39999399999999
  0
LINE
  8
_0-0_0
  6
CONTINUOUS
 62
    7
 10
104.67778049999993
 20
750.62851000000001
 11
114.42778049999993
 21
750.62851000000001
  0
LINE
  8
_0-0_0
  6
CONTINUOUS
 62
    7
 10
104.67778049999993
 20
750.42453
 11
104.92778049999993
 21
750.39999399999999
  0
LINE
  8
_0-0_0
  6
CONTINUOUS
 62
    7
 10
104.67778049999993
 20
750.843658
 11
104.92778049999993
 21
750.63314800000001
  0
LINE
  8
_0-0_0
  6
CONTINUOUS
 62
    7
 10
104.92778049999993
 20
750.63314800000001
 11
114.17778049999993
 21
750.63314800000001
  0
LINE
  8
_0-0_0
  6
CONTINUOUS
 62
    7
 10
104.67778049999993
 20
750.843658
 11
114.42778049999993
 21
750.843658
  0
LINE
  8
_0-0_0
  6
CONTINUOUS
 62
    7
 10
104.67778049999993
 20
750.62851000000001
 11
104.92778049999993
 21
750.63314800000001
  0
LINE
  8
_0-0_0
  6
CONTINUOUS
 62
    7
 10
104.67778049999993
 20
751.06762700000002
 11
104.92778049999993
 21
750.87744099999998
  0
LINE
  8
_0-0_0
  6
CONTINUOUS
 62
    7
 10
104.92778049999993
 20
750.87744099999998
 11
114.17778049999993
 21
750.87744099999998
  0
LINE
  8
_0-0_0
  6
CONTINUOUS
 62
    7
 10
104.67778049999993
 20
751.06762700000002
 11
114.42778049999993
 21
751.06762700000002
  0
LINE
  8
_0-0_0
  6
CONTINUOUS
 62
    7
 10
104.67778049999993
 20
750.843658
 11
104.92778049999993
 21
750.87744099999998
  0
LINE
  8
_0-0_0
  6
CONTINUOUS
 62
    7
 10
104.67778049999993
 20
751.29800399999999
 11
104.92778049999993
 21
751.13018799999998
  0
LINE
  8
_0-0_0
  6
CONTINUOUS
 62
    7
 10
104.92778049999993
 20
751.13018799999998
 11
114.17778049999993
 21
751.13018799999998
  0
LINE
  8
_0-0_0
  6
CONTINUOUS
 62
    7
 10
104.67778049999993
 20
751.29800399999999
 11
114.42778049999993
 21
751.29800399999999
  0
LINE
  8
_0-0_0
  6
CONTINUOUS
 62
    7
 10
104.67778049999993
 20
751.06762700000002
 11
104.92778049999993
 21
751.13018799999998
  0
LINE
  8
_0-0_0
  6
CONTINUOUS
 62
    7
 10
104.67778049999993
 20
751.53222699999992
 11
104.92778049999993
 21
751.38867200000004
  0
LINE
  8
_0-0_0
  6
CONTINUOUS
 62
    7
 10
104.92778049999993
 20
751.38867200000004
 11
114.17778049999993
 21
751.38867200000004
  0
LINE
  8
_0-0_0
  6
CONTINUOUS
 62
    7
 10
104.67778049999993
 20
751.53222699999992
 11
114.42778049999993
 21
751.53222699999992
  0
LINE
  8
_0-0_0
  6
CONTINUOUS
 62
    7
 10
104.67778049999993
 20
751.29800399999999
 11
104.92778049999993
 21
751.38867200000004
  0
LINE
  8
_0-0_0
  6
CONTINUOUS
 62
    7
 10
104.67778049999993
 20
751.76773100000003
 11
104.92778049999993
 21
751.64999399999999
  0
LINE
  8
_0-0_0
  6
CONTINUOUS
 62
    7
 10
104.92778049999993
 20
751.64999399999999
 11
114.17778049999993
 21
751.64999399999999
  0
LINE
  8
_0-0_0
  6
CONTINUOUS
 62
    7
 10
104.67778049999993
 20
751.76773100000003
 11
114.42778049999993
 21
751.76773100000003
  0
LINE
  8
_0-0_0
  6
CONTINUOUS
 62
    7
 10
104.67778049999993
 20
751.53222699999992
 11
104.92778049999993
 21
751.64999399999999
  0
LINE
  8
_0-0_0
  6
CONTINUOUS
 62
    7
 10
104.67778049999993
 20
752.00195299999996
 11
104.92778049999993
 21
751.91131599999994
  0
LINE
  8
_0-0_0
  6
CONTINUOUS
 62
    7
 10
104.92778049999993
 20
751.91131599999994
 11
114.17778049999993
 21
751.91131599999994
  0
LINE
  8
_0-0_0
  6
CONTINUOUS
 62
    7
 10
104.67778049999993
 20
752.00195299999996
 11
114.42778049999993
 21
752.00195299999996
  0
LINE
  8
_0-0_0
  6
CONTINUOUS
 62
    7
 10
104.67778049999993
 20
751.76773100000003
 11
104.92778049999993
 21
751.91131599999994
  0
LINE
  8
_0-0_0
  6
CONTINUOUS
 62
    7
 10
104.67778049999993
 20
752.23233000000005
 11
104.92778049999993
 21
752.16976899999997
  0
LINE
  8
_0-0_0
  6
CONTINUOUS
 62
    7
 10
104.92778049999993
 20
752.16976899999997
 11
114.17778049999993
 21
752.16976899999997
  0
LINE
  8
_0-0_0
  6
CONTINUOUS
 62
    7
 10
104.67778049999993
 20
752.23233000000005
 11
114.42778049999993
 21
752.23233000000005
  0
LINE
  8
_0-0_0
  6
CONTINUOUS
 62
    7
 10
104.67778049999993
 20
752.00195299999996
 11
104.92778049999993
 21
752.16976899999997
  0
LINE
  8
_0-0_0
  6
CONTINUOUS
 62
    7
 10
104.67778049999993
 20
752.45629899999994
 11
104.92778049999993
 21
752.42251599999997
  0
LINE
  8
_0-0_0
  6
CONTINUOUS
 62
    7
 10
104.92778049999993
 20
752.42251599999997
 11
114.17778049999993
 21
752.42251599999997
  0
LINE
  8
_0-0_0
  6
CONTINUOUS
 62
    7
 10
104.67778049999993
 20
752.45629899999994
 11
114.42778049999993
 21
752.45629899999994
  0
LINE
  8
_0-0_0
  6
CONTINUOUS
 62
    7
 10
104.67778049999993
 20
752.23233000000005
 11
104.92778049999993
 21
752.42251599999997
  0
LINE
  8
_0-0_0
  6
CONTINUOUS
 62
    7
 10
104.67778049999993
 20
752.67144800000005
 11
104.92778049999993
 21
752.66680900000006
  0
LINE
  8
_0-0_0
  6
CONTINUOUS
 62
    7
 10
104.92778049999993
 20
752.66680900000006
 11
114.17778049999993
 21
752.66680900000006
  0
LINE
  8
_0-0_0
  6
CONTINUOUS
 62
    7
 10
104.67778049999993
 20
752.67144800000005
 11
114.42778049999993
 21
752.67144800000005
  0
LINE
  8
_0-0_0
  6
CONTINUOUS
 62
    7
 10
104.67778049999993
 20
752.45629899999994
 11
104.92778049999993
 21
752.66680900000006
  0
LINE
  8
_0-0_0
  6
CONTINUOUS
 62
    7
 10
104.67778049999993
 20
752.87542699999995
 11
104.92778049999993
 21
752.89999399999999
  0
LINE
  8
_0-0_0
  6
CONTINUOUS
 62
    7
 10
104.92778049999993
 20
752.89999399999999
 11
114.17778049999993
 21
752.89999399999999
  0
LINE
  8
_0-0_0
  6
CONTINUOUS
 62
    7
 10
104.67778049999993
 20
752.67144800000005
 11
104.92778049999993
 21
752.89999399999999
  0
LINE
  8
_0-0_0
  6
CONTINUOUS
 62
    7
 10
114.42778049999993
 20
753.06594799999993
 11
114.17778049999993
 21
753.11944599999993
  0
LINE
  8
_0-0_0
  6
CONTINUOUS
 62
    7
 10
114.42778049999993
 20
752.87542699999995
 11
114.17778049999993
 21
753.11944599999993
  0
LINE
  8
_0-0_0
  6
CONTINUOUS
 62
    7
 10
114.42778049999993
 20
753.24096699999996
 11
114.17778049999993
 21
753.32281499999999
  0
LINE
  8
_0-0_0
  6
CONTINUOUS
 62
    7
 10
114.42778049999993
 20
753.06594799999993
 11
114.17778049999993
 21
753.32281499999999
  0
LINE
  8
_0-0_0
  6
CONTINUOUS
 62
    7
 10
114.42778049999993
 20
753.39855999999997
 11
114.17778049999993
 21
753.50784299999998
  0
LINE
  8
_0-0_0
  6
CONTINUOUS
 62
    7
 10
114.42778049999993
 20
753.24096699999996
 11
114.17778049999993
 21
753.50784299999998
  0
LINE
  8
_0-0_0
  6
CONTINUOUS
 62
    7
 10
114.42778049999993
 20
753.53698699999995
 11
114.17778049999993
 21
753.67251599999997
  0
LINE
  8
_0-0_0
  6
CONTINUOUS
 62
    7
 10
114.42778049999993
 20
753.39855999999997
 11
114.17778049999993
 21
753.67251599999997
  0
LINE
  8
_0-0_0
  6
CONTINUOUS
 62
    7
 10
114.42778049999993
 20
753.65475500000002
 11
114.17778049999993
 21
753.81506300000001
  0
LINE
  8
_0-0_0
  6
CONTINUOUS
 62
    7
 10
114.42778049999993
 20
753.53698699999995
 11
114.17778049999993
 21
753.81506300000001
  0
LINE
  8
_0-0_0
  6
CONTINUOUS
 62
    7
 10
114.42778049999993
 20
753.75054899999998
 11
114.17778049999993
 21
753.93383799999992
  0
LINE
  8
_0-0_0
  6
CONTINUOUS
 62
    7
 10
114.42778049999993
 20
753.65475500000002
 11
114.17778049999993
 21
753.93383799999992
  0
LINE
  8
_0-0_0
  6
CONTINUOUS
 62
    7
 10
114.42778049999993
 20
753.82330300000001
 11
114.17778049999993
 21
754.02761800000007
  0
LINE
  8
_0-0_0
  6
CONTINUOUS
 62
    7
 10
114.42778049999993
 20
753.75054899999998
 11
114.17778049999993
 21
754.02761800000007
  0
LINE
  8
_0-0_0
  6
CONTINUOUS
 62
    7
 10
114.42778049999993
 20
753.87228400000004
 11
114.17778049999993
 21
754.09533699999997
  0
LINE
  8
_0-0_0
  6
CONTINUOUS
 62
    7
 10
114.42778049999993
 20
753.82330300000001
 11
114.17778049999993
 21
754.09533699999997
  0
LINE
  8
_0-0_0
  6
CONTINUOUS
 62
    7
 10
114.42778049999993
 20
753.89691199999993
 11
114.17778049999993
 21
754.13629200000003
  0
LINE
  8
_0-0_0
  6
CONTINUOUS
 62
    7
 10
114.42778049999993
 20
753.87228400000004
 11
114.17778049999993
 21
754.13629200000003
  0
LINE
  8
_0-0_0
  6
CONTINUOUS
 62
    7
 10
114.42778049999993
 20
753.89691199999993
 11
114.17778049999993
 21
754.14999399999999
  0
LINE
  8
_0-0_0
  6
CONTINUOUS
 62
    7
 10
104.42778049999993
 20
749.89483599999994
 11
104.42778049999993
 21
749.64999399999999
  0
LINE
  8
_0-0_0
  6
CONTINUOUS
 62
    7
 10
104.67778049999993
 20
752.87542699999995
 11
104.92778049999993
 21
753.11944599999993
  0
LINE
  8
_0-0_0
  6
CONTINUOUS
 62
    7
 10
104.67778049999993
 20
753.06594799999993
 11
104.92778049999993
 21
753.11944599999993
  0
LINE
  8
_0-0_0
  6
CONTINUOUS
 62
    7
 10
104.67778049999993
 20
753.06594799999993
 11
104.92778049999993
 21
753.32281499999999
  0
LINE
  8
_0-0_0
  6
CONTINUOUS
 62
    7
 10
104.67778049999993
 20
753.24096699999996
 11
104.92778049999993
 21
753.32281499999999
  0
LINE
  8
_0-0_0
  6
CONTINUOUS
 62
    7
 10
104.67778049999993
 20
753.24096699999996
 11
104.92778049999993
 21
753.50784299999998
  0
LINE
  8
_0-0_0
  6
CONTINUOUS
 62
    7
 10
104.67778049999993
 20
753.39855999999997
 11
104.92778049999993
 21
753.50784299999998
  0
LINE
  8
_0-0_0
  6
CONTINUOUS
 62
    7
 10
104.67778049999993
 20
753.39855999999997
 11
104.92778049999993
 21
753.67251599999997
  0
LINE
  8
_0-0_0
  6
CONTINUOUS
 62
    7
 10
104.67778049999993
 20
753.53698699999995
 11
104.92778049999993
 21
753.67251599999997
  0
LINE
  8
_0-0_0
  6
CONTINUOUS
 62
    7
 10
104.67778049999993
 20
753.53698699999995
 11
104.92778049999993
 21
753.81506300000001
  0
LINE
  8
_0-0_0
  6
CONTINUOUS
 62
    7
 10
104.67778049999993
 20
753.65475500000002
 11
104.92778049999993
 21
753.81506300000001
  0
LINE
  8
_0-0_0
  6
CONTINUOUS
 62
    7
 10
104.67778049999993
 20
753.65475500000002
 11
104.92778049999993
 21
753.93383799999992
  0
LINE
  8
_0-0_0
  6
CONTINUOUS
 62
    7
 10
104.67778049999993
 20
753.75054899999998
 11
104.92778049999993
 21
753.93383799999992
  0
LINE
  8
_0-0_0
  6
CONTINUOUS
 62
    7
 10
104.67778049999993
 20
753.75054899999998
 11
104.92778049999993
 21
754.02761800000007
  0
LINE
  8
_0-0_0
  6
CONTINUOUS
 62
    7
 10
104.67778049999993
 20
753.82330300000001
 11
104.92778049999993
 21
754.02761800000007
  0
LINE
  8
_0-0_0
  6
CONTINUOUS
 62
    7
 10
104.67778049999993
 20
753.82330300000001
 11
104.92778049999993
 21
754.09533699999997
  0
LINE
  8
_0-0_0
  6
CONTINUOUS
 62
    7
 10
104.67778049999993
 20
753.87228400000004
 11
104.92778049999993
 21
754.09533699999997
  0
LINE
  8
_0-0_0
  6
CONTINUOUS
 62
    7
 10
104.67778049999993
 20
753.87228400000004
 11
104.92778049999993
 21
754.13629200000003
  0
LINE
  8
_0-0_0
  6
CONTINUOUS
 62
    7
 10
104.67778049999993
 20
753.89691199999993
 11
104.92778049999993
 21
754.13629200000003
  0
LINE
  8
_0-0_0
  6
CONTINUOUS
 62
    7
 10
104.67778049999993
 20
753.89691199999993
 11
104.92778049999993
 21
754.14999399999999
  0
LINE
  8
_0-0_0
  6
CONTINUOUS
 62
    7
 10
104.42778049999993
 20
753.64999399999999
 11
104.42778049999993
 21
749.89483599999994
  0
LINE
  8
_0-0_0
  6
CONTINUOUS
 62
    7
 10
104.92778049999993
 20
753.11944599999993
 11
114.17778049999993
 21
753.11944599999993
  0
LINE
  8
_0-0_0
  6
CONTINUOUS
 62
    7
 10
104.92778049999993
 20
753.32281499999999
 11
114.17778049999993
 21
753.32281499999999
  0
LINE
  8
_0-0_0
  6
CONTINUOUS
 62
    7
 10
104.92778049999993
 20
753.50784299999998
 11
114.17778049999993
 21
753.50784299999998
  0
LINE
  8
_0-0_0
  6
CONTINUOUS
 62
    7
 10
104.92778049999993
 20
753.67251599999997
 11
114.17778049999993
 21
753.67251599999997
  0
LINE
  8
_0-0_0
  6
CONTINUOUS
 62
    7
 10
104.92778049999993
 20
753.81506300000001
 11
114.17778049999993
 21
753.81506300000001
  0
LINE
  8
_0-0_0
  6
CONTINUOUS
 62
    7
 10
104.92778049999993
 20
753.93383799999992
 11
114.17778049999993
 21
753.93383799999992
  0
LINE
  8
_0-0_0
  6
CONTINUOUS
 62
    7
 10
104.92778049999993
 20
754.02761800000007
 11
114.17778049999993
 21
754.02761800000007
  0
LINE
  8
_0-0_0
  6
CONTINUOUS
 62
    7
 10
104.92778049999993
 20
754.09533699999997
 11
114.17778049999993
 21
754.09533699999997
  0
LINE
  8
_0-0_0
  6
CONTINUOUS
 62
    7
 10
104.92778049999993
 20
754.13629200000003
 11
114.17778049999993
 21
754.13629200000003
  0
LINE
  8
_0-0_0
  6
CONTINUOUS
 62
    7
 10
104.92778049999993
 20
754.14999399999999
 11
114.17778049999993
 21
754.14999399999999
  0
LINE
  8
_0-0_0
  6
CONTINUOUS
 62
    7
 10
140.42778049999993
 20
770.5
 11
114.42778049999993
 21
770.5
  0
LINE
  8
_0-0_0
  6
CONTINUOUS
 62
    7
 10
140.42778049999993
 20
766
 11
114.42778049999993
 21
766
  0
LINE
  8
_0-0_0
  6
CONTINUOUS
 62
    7
 10
241.42778049999993
 20
753.89999399999999
 11
243.88345349999997
 21
753.89999399999999
  0
LINE
  8
_0-0_0
  6
CONTINUOUS
 62
    7
 10
243.38236949999998
 20
749.39999399999999
 11
243.88345349999997
 21
749.39999399999999
  0
LINE
  8
_0-0_0
  6
CONTINUOUS
 62
    7
 10
114.42778049999993
 20
770.5
 11
114.17778049999993
 21
770.75
  0
LINE
  8
_0-0_0
  6
CONTINUOUS
 62
    7
 10
114.42778049999993
 20
766
 11
114.17778049999993
 21
765.75
  0
LINE
  8
_0-0_0
  6
CONTINUOUS
 62
    7
 10
244.02778649999993
 20
753.64999399999999
 11
243.88345349999997
 21
753.89999399999999
  0
LINE
  8
_0-0_0
  6
CONTINUOUS
 62
    7
 10
244.02778649999993
 20
749.64999399999999
 11
243.88345349999997
 21
749.39999399999999
  0
LINE
  8
_0-0_0
  6
CONTINUOUS
 62
    7
 10
118.42778049999993
 20
754.69998199999998
 11
119.67778049999993
 21
753.44998199999998
  0
LINE
  8
_0-0_0
  6
CONTINUOUS
 62
    7
 10
118.42778049999993
 20
765.19998199999998
 11
119.22777550000001
 21
765.99996899999996
  0
LINE
  8
_0-0_0
  6
CONTINUOUS
 62
    7
 10
104.42778049999993
 20
770.25
 11
104.92762749999997
 21
770.74981700000001
  0
LINE
  8
_0-0_0
  6
CONTINUOUS
 62
    7
 10
104.42778049999993
 20
766.25
 11
104.92762749999997
 21
765.75015299999995
  0
LINE
  8
_0-0_0
  6
CONTINUOUS
 62
    7
 10
118.42778049999993
 20
764.94998199999998
 11
118.02777849999995
 21
764.94998199999998
  0
LINE
  8
_0-0_0
  6
CONTINUOUS
 62
    7
 10
118.42778049999993
 20
754.94998199999998
 11
118.02777849999995
 21
754.94998199999998
  0
LINE
  8
_0-0_0
  6
CONTINUOUS
 62
    7
 10
117.22778349999999
 20
764.48809800000004
 11
118.02777849999995
 21
764.94998199999998
  0
LINE
  8
_0-0_0
  6
CONTINUOUS
 62
    7
 10
117.22778349999999
 20
755.41186500000003
 11
118.02777849999995
 21
754.94998199999998
  0
LINE
  8
_0-0_0
  6
CONTINUOUS
 62
    7
 10
117.22778349999999
 20
763.94998199999998
 11
59.227783499999987
 21
763.94998199999998
  0
LINE
  8
_0-0_0
  6
CONTINUOUS
 62
    7
 10
117.22778349999999
 20
755.94998199999998
 11
59.227783499999987
 21
755.94998199999998
  0
LINE
  8
_0-0_0
  6
CONTINUOUS
 62
    7
 10
134.6777495
 20
749.39999399999999
 11
114.42778049999993
 21
749.39999399999999
  0
LINE
  8
_0-0_0
  6
CONTINUOUS
 62
    7
 10
114.42778049999993
 20
749.39999399999999
 11
114.17778049999993
 21
749.14999399999999
  0
LINE
  8
_0-0_0
  6
CONTINUOUS
 62
    7
 10
119.22777550000001
 20
753.89999399999999
 11
114.42778049999993
 21
753.89999399999999
  0
LINE
  8
_0-0_0
  6
CONTINUOUS
 62
    7
 10
114.42778049999993
 20
753.89999399999999
 11
114.17778049999993
 21
754.14999399999999
  0
LINE
  8
_0-0_0
  6
CONTINUOUS
 62
    7
 10
104.42778049999993
 20
749.64999399999999
 11
104.92762749999997
 21
749.15014599999995
  0
LINE
  8
_0-0_0
  6
CONTINUOUS
 62
    7
 10
104.42778049999993
 20
753.64999399999999
 11
104.92762749999997
 21
754.14984099999992
  0
LINE
  8
_0-0_0
  6
CONTINUOUS
 62
    7
 10
30.916778499999964
 20
802.14999399999999
 11
30.916778499999964
 21
789.14999399999999
  0
LINE
  8
_0-0_0
  6
CONTINUOUS
 62
    7
 10
31.116775499999903
 20
802.14999399999999
 11
30.916778499999964
 21
802.14999399999999
  0
LINE
  8
_0-0_0
  6
CONTINUOUS
 62
    7
 10
31.116775499999903
 20
789.14999399999999
 11
30.916778499999964
 21
789.14999399999999
  0
LINE
  8
_0-0_0
  6
CONTINUOUS
 62
    7
 10
31.116775499999903
 20
802.14999399999999
 11
31.116775499999903
 21
820.75
  0
LINE
  8
_0-0_0
  6
CONTINUOUS
 62
    7
 10
31.216781500000025
 20
820.75
 11
31.116775499999903
 21
820.75
  0
LINE
  8
_0-0_0
  6
CONTINUOUS
 62
    7
 10
31.216781500000025
 20
823.25
 11
31.216781500000025
 21
820.75
  0
ARC
  8
_0-0_0
  6
CONTINUOUS
 62
    7
 10
30.716781500000025
 20
823.25
 40
0.5
 50
0
 51
90.000003000000007
  0
LINE
  8
_0-0_0
  6
CONTINUOUS
 62
    7
 10
30.716781500000025
 20
823.75
 11
27.716781500000025
 21
823.75
  0
ARC
  8
_0-0_0
  6
CONTINUOUS
 62
    7
 10
27.716781500000025
 20
823.25
 40
0.5
 50
90.000003000000007
 51
179.99999099999999
  0
ARC
  8
_0-0_0
  6
CONTINUOUS
 62
    7
 10
23.216781500000025
 20
775.75
 40
0.5
 50
179.99999099999999
 51
269.99999700000001
  0
LINE
  8
_0-0_0
  6
CONTINUOUS
 62
    7
 10
25.716781500000025
 20
775.25
 11
23.216781500000025
 21
775.25
  0
ARC
  8
_0-0_0
  6
CONTINUOUS
 62
    7
 10
25.716781500000025
 20
775.75
 40
0.5
 50
269.99999700000001
 51
0
  0
LINE
  8
_0-0_0
  6
CONTINUOUS
 62
    7
 10
26.216781500000025
 20
780.75
 11
26.216781500000025
 21
775.75
  0
ARC
  8
_0-0_0
  6
CONTINUOUS
 62
    7
 10
26.716781500000025
 20
780.75
 40
0.5
 50
90.000003000000007
 51
179.99999099999999
  0
LINE
  8
_0-0_0
  6
CONTINUOUS
 62
    7
 10
30.716781500000025
 20
781.25
 11
26.716781500000025
 21
781.25
  0
ARC
  8
_0-0_0
  6
CONTINUOUS
 62
    7
 10
30.716781500000025
 20
781.75
 40
0.5
 50
269.99999700000001
 51
0
  0
LINE
  8
_0-0_0
  6
CONTINUOUS
 62
    7
 10
31.216781500000025
 20
784.94998199999998
 11
31.216781500000025
 21
781.75
  0
LINE
  8
_0-0_0
  6
CONTINUOUS
 62
    7
 10
31.116775499999903
 20
784.94998199999998
 11
31.216781500000025
 21
784.94998199999998
  0
LINE
  8
_0-0_0
  6
CONTINUOUS
 62
    7
 10
31.116775499999903
 20
784.94998199999998
 11
31.116775499999903
 21
789.14999399999999
  0
LINE
  8
_0-0_0
  6
CONTINUOUS
 62
    7
 10
30.216781500000025
 20
823.25
 11
12.416778499999964
 21
823.25
  0
ARC
  8
_0-0_0
  6
CONTINUOUS
 62
    7
 10
30.216781500000025
 20
822.75
 40
0.5
 50
0
 51
90.000003000000007
  0
LINE
  8
_0-0_0
  6
CONTINUOUS
 62
    7
 10
30.716781500000025
 20
822.75
 11
30.716781500000025
 21
782.25
  0
ARC
  8
_0-0_0
  6
CONTINUOUS
 62
    7
 10
30.216781500000025
 20
782.25
 40
0.5
 50
269.99999700000001
 51
0
  0
LINE
  8
_0-0_0
  6
CONTINUOUS
 62
    7
 10
26.716781500000025
 20
781.75
 11
30.216781500000025
 21
781.75
  0
ARC
  8
_0-0_0
  6
CONTINUOUS
 62
    7
 10
26.716781500000025
 20
780.75
 40
1
 50
90.000003000000007
 51
179.99999099999999
  0
LINE
  8
_0-0_0
  6
CONTINUOUS
 62
    7
 10
25.716781500000025
 20
780.75
 11
25.716781500000025
 21
776.25
  0
ARC
  8
_0-0_0
  6
CONTINUOUS
 62
    7
 10
25.216781500000025
 20
776.25
 40
0.5
 50
269.99999700000001
 51
0
  0
LINE
  8
_0-0_0
  6
CONTINUOUS
 62
    7
 10
8.2167815000000246
 20
775.75
 11
25.216781500000025
 21
775.75
  0
LINE
  8
_0-0_0
  6
CONTINUOUS
 62
    7
 10
26.716781500000025
 20
823.44998199999998
 11
26.716781500000025
 21
823.25
  0
ARC
  8
_0-0_0
  6
CONTINUOUS
 62
    7
 10
26.416778499999964
 20
823.44998199999998
 40
0.2999999999999999
 50
0
 51
90.000003000000007
  0
LINE
  8
_0-0_0
  6
CONTINUOUS
 62
    7
 10
26.416778499999964
 20
823.75
 11
11.716781500000025
 21
823.75
  0
ARC
  8
_0-0_0
  6
CONTINUOUS
 62
    7
 10
11.716781500000025
 20
823.44998199999998
 40
0.2999999999999999
 50
90.000003000000007
 51
179.99999099999999
  0
LINE
  8
_0-0_0
  6
CONTINUOUS
 62
    7
 10
11.416778499999964
 20
823.44998199999998
 11
11.416778499999964
 21
820.25
  0
LINE
  8
_0-0_0
  6
CONTINUOUS
 62
    7
 10
11.416778499999964
 20
820.25
 11
5.7167815000000246
 21
820.25
  0
LINE
  8
_0-0_0
  6
CONTINUOUS
 62
    7
 10
5.7167815000000246
 20
820.25
 11
4.916778499999964
 21
819.44998199999998
  0
ARC
  8
_0-0_0
  6
CONTINUOUS
 62
    7
 10
12.416778499999964
 20
822.75
 40
0.5
 50
90.000003000000007
 51
179.99999099999999
  0
LINE
  8
_0-0_0
  6
CONTINUOUS
 62
    7
 10
11.916778499999964
 20
822.75
 11
11.916778499999964
 21
819.94998199999998
  0
ARC
  8
_0-0_0
  6
CONTINUOUS
 62
    7
 10
11.416778499999964
 20
819.94998199999998
 40
0.5
 50
269.99999700000001
 51
0
  0
LINE
  8
_0-0_0
  6
CONTINUOUS
 62
    7
 10
11.416778499999964
 20
819.44998199999998
 11
3.2167815000000246
 21
819.44998199999998
  0
ARC
  8
_0-0_0
  6
CONTINUOUS
 62
    7
 10
3.2167815000000246
 20
818.94998199999998
 40
0.5
 50
90.000003000000007
 51
179.99999099999999
  0
LINE
  8
_0-0_0
  6
CONTINUOUS
 62
    7
 10
2.7167815000000246
 20
782.25
 11
2.7167815000000246
 21
818.94998199999998
  0
ARC
  8
_0-0_0
  6
CONTINUOUS
 62
    7
 10
3.2167815000000246
 20
782.25
 40
0.5
 50
179.99999099999999
 51
269.99999700000001
  0
LINE
  8
_0-0_0
  6
CONTINUOUS
 62
    7
 10
3.2167815000000246
 20
781.75
 11
6.7167815000000246
 21
781.75
  0
ARC
  8
_0-0_0
  6
CONTINUOUS
 62
    7
 10
6.7167815000000246
 20
780.75
 40
1
 50
0
 51
90.000003000000007
  0
LINE
  8
_0-0_0
  6
CONTINUOUS
 62
    7
 10
7.7167815000000246
 20
776.25
 11
7.7167815000000246
 21
780.75
  0
ARC
  8
_0-0_0
  6
CONTINUOUS
 62
    7
 10
8.2167815000000246
 20
776.25
 40
0.5
 50
179.99999099999999
 51
269.99999700000001
  0
CIRCLE
  8
_0-0_0
  6
CONTINUOUS
 62
    7
 10
16.716781500000025
 20
784.75
 40
2.0670000000000002
  0
LINE
  8
_0-0_0
  6
CONTINUOUS
 62
    7
 10
4.7167815000000246
 20
819.75
 11
4.7167815000000246
 21
819.44998199999998
  0
LINE
  8
_0-0_0
  6
CONTINUOUS
 62
    7
 10
4.7167815000000246
 20
819.75
 11
2.7167815000000246
 21
819.75
  0
ARC
  8
_0-0_0
  6
CONTINUOUS
 62
    7
 10
2.7167815000000246
 20
819.25
 40
0.5
 50
90.000003000000007
 51
179.99999099999999
  0
LINE
  8
_0-0_0
  6
CONTINUOUS
 62
    7
 10
2.2167815000000246
 20
819.25
 11
2.2167815000000246
 21
781.75
  0
ARC
  8
_0-0_0
  6
CONTINUOUS
 62
    7
 10
2.7167815000000246
 20
781.75
 40
0.5
 50
179.99999099999999
 51
269.99999700000001
  0
LINE
  8
_0-0_0
  6
CONTINUOUS
 62
    7
 10
6.7167815000000246
 20
781.25
 11
2.7167815000000246
 21
781.25
  0
ARC
  8
_0-0_0
  6
CONTINUOUS
 62
    7
 10
6.7167815000000246
 20
780.75
 40
0.5
 50
0
 51
90.000003000000007
  0
LINE
  8
_0-0_0
  6
CONTINUOUS
 62
    7
 10
7.2167815000000246
 20
775.75
 11
7.2167815000000246
 21
780.75
  0
ARC
  8
_0-0_0
  6
CONTINUOUS
 62
    7
 10
7.7167815000000246
 20
775.75
 40
0.5
 50
179.99999099999999
 51
269.99999700000001
  0
LINE
  8
_0-0_0
  6
CONTINUOUS
 62
    7
 10
7.7167815000000246
 20
775.25
 11
10.216781500000025
 21
775.25
  0
ARC
  8
_0-0_0
  6
CONTINUOUS
 62
    7
 10
10.216781500000025
 20
775.75
 40
0.5
 50
269.99999700000001
 51
0
  0
LINE
  8
_0-0_0
  6
CONTINUOUS
 62
    7
 10
26.216781500000025
 20
775.75
 11
26.316787499999919
 21
775.75
  0
LINE
  8
_0-0_0
  6
CONTINUOUS
 62
    7
 10
26.316787499999919
 20
775.75
 11
26.316787499999919
 21
776.25
  0
LINE
  8
_0-0_0
  6
CONTINUOUS
 62
    7
 10
26.316787499999919
 20
780.25
 11
26.316787499999919
 21
776.25
  0
LINE
  8
_0-0_0
  6
CONTINUOUS
 62
    7
 10
26.216781500000025
 20
780.75
 11
26.316787499999919
 21
780.75
  0
LINE
  8
_0-0_0
  6
CONTINUOUS
 62
    7
 10
26.316787499999919
 20
780.25
 11
26.316787499999919
 21
780.75
  0
LINE
  8
_0-0_0
  6
CONTINUOUS
 62
    7
 10
26.416778499999964
 20
776.25
 11
26.416778499999964
 21
776.38034100000004
  0
LINE
  8
_0-0_0
  6
CONTINUOUS
 62
    7
 10
26.416778499999964
 20
779.88034100000004
 11
26.416778499999964
 21
776.38034100000004
  0
LINE
  8
_0-0_0
  6
CONTINUOUS
 62
    7
 10
26.316787499999919
 20
780.14999399999999
 11
26.416778499999964
 21
780.14999399999999
  0
LINE
  8
_0-0_0
  6
CONTINUOUS
 62
    7
 10
26.416778499999964
 20
779.88034100000004
 11
26.416778499999964
 21
780.14999399999999
  0
LINE
  8
_0-0_0
  6
CONTINUOUS
 62
    7
 10
26.316787499999919
 20
776.25
 11
26.416778499999964
 21
776.25
  0
LINE
  8
_0-0_0
  6
CONTINUOUS
 62
    7
 10
26.316787499999919
 20
776.25
 11
26.416778499999964
 21
776.25
  0
LINE
  8
_0-0_0
  6
CONTINUOUS
 62
    7
 10
7.916778499999964
 20
773.25
 11
12.116775499999903
 21
773.25
  0
LINE
  8
_0-0_0
  6
CONTINUOUS
 62
    7
 10
23.716781500000025
 20
773.25
 11
21.316787499999919
 21
773.25
  0
LINE
  8
_0-0_0
  6
CONTINUOUS
 62
    7
 10
23.716781500000025
 20
773.25
 11
24.916778499999964
 21
773.25
  0
ARC
  8
_0-0_0
  6
CONTINUOUS
 62
    7
 10
24.916778499999964
 20
772.75
 40
0.5
 50
0
 51
90.000003000000007
  0
ARC
  8
_0-0_0
  6
CONTINUOUS
 62
    7
 10
23.716781500000025
 20
772.75
 40
0.5
 50
90.000003000000007
 51
179.99999099999999
  0
ARC
  8
_0-0_0
  6
CONTINUOUS
 62
    7
 10
21.316787499999919
 20
773.75
 40
0.5
 50
179.99999099999999
 51
269.99999700000001
  0
ARC
  8
_0-0_0
  6
CONTINUOUS
 62
    7
 10
12.116775499999903
 20
773.75
 40
0.5
 50
269.99999700000001
 51
0
  0
ARC
  8
_0-0_0
  6
CONTINUOUS
 62
    7
 10
7.916778499999964
 20
772.75
 40
0.5
 50
90.000003000000007
 51
179.99999099999999
  0
LINE
  8
_0-0_0
  6
CONTINUOUS
 62
    7
 10
8.916778499999964
 20
773.75
 11
8.916778499999964
 21
773.25
  0
ARC
  8
_0-0_0
  6
CONTINUOUS
 62
    7
 10
9.416778499999964
 20
773.75
 40
0.5
 50
90.000003000000007
 51
179.99999099999999
  0
LINE
  8
_0-0_0
  6
CONTINUOUS
 62
    7
 10
10.916778499999964
 20
774.25
 11
9.416778499999964
 21
774.25
  0
ARC
  8
_0-0_0
  6
CONTINUOUS
 62
    7
 10
10.916778499999964
 20
775.25
 40
1
 50
269.99999700000001
 51
0
  0
LINE
  8
_0-0_0
  6
CONTINUOUS
 62
    7
 10
11.916778499999964
 20
775.75
 11
11.916778499999964
 21
775.25
  0
LINE
  8
_0-0_0
  6
CONTINUOUS
 62
    7
 10
12.416778499999964
 20
775.75
 11
12.416778499999964
 21
774.75
  0
ARC
  8
_0-0_0
  6
CONTINUOUS
 62
    7
 10
10.916778499999964
 20
774.75
 40
1.5
 50
269.99999700000001
 51
0
  0
ARC
  8
_0-0_0
  6
CONTINUOUS
 62
    7
 10
22.516784499999972
 20
774.75
 40
1.5
 50
179.99999099999999
 51
269.99999700000001
  0
LINE
  8
_0-0_0
  6
CONTINUOUS
 62
    7
 10
24.516784499999972
 20
773.75
 11
24.516784499999972
 21
773.25
  0
ARC
  8
_0-0_0
  6
CONTINUOUS
 62
    7
 10
24.016784499999972
 20
773.75
 40
0.5
 50
0
 51
90.000003000000007
  0
LINE
  8
_0-0_0
  6
CONTINUOUS
 62
    7
 10
22.516784499999972
 20
774.25
 11
24.016784499999972
 21
774.25
  0
ARC
  8
_0-0_0
  6
CONTINUOUS
 62
    7
 10
22.516784499999972
 20
775.25
 40
1
 50
179.99999099999999
 51
269.99999700000001
  0
LINE
  8
_0-0_0
  6
CONTINUOUS
 62
    7
 10
21.516784499999972
 20
775.75
 11
21.516784499999972
 21
775.25
  0
LINE
  8
_0-0_0
  6
CONTINUOUS
 62
    7
 10
21.016784499999972
 20
775.75
 11
21.016784499999972
 21
774.75
  0
LINE
  8
_0-0_0
  6
CONTINUOUS
 62
    7
 10
25.416778499999964
 20
746.25
 11
25.416778499999964
 21
747.14999399999999
  0
LINE
  8
_0-0_0
  6
CONTINUOUS
 62
    7
 10
25.416778499999964
 20
747.14999399999999
 11
25.416778499999964
 21
749.64999399999999
  0
LINE
  8
_0-0_0
  6
CONTINUOUS
 62
    7
 10
25.416778499999964
 20
749.64999399999999
 11
25.416778499999964
 21
770.25
  0
LINE
  8
_0-0_0
  6
CONTINUOUS
 62
    7
 10
25.416778499999964
 20
770.25
 11
25.416778499999964
 21
772.75
  0
LINE
  8
_0-0_0
  6
CONTINUOUS
 62
    7
 10
23.216781500000025
 20
772.75
 11
23.216781500000025
 21
771.50497399999995
  0
LINE
  8
_0-0_0
  6
CONTINUOUS
 62
    7
 10
20.816787499999919
 20
773.75
 11
20.816787499999919
 21
775.54998799999998
  0
ARC
  8
_0-0_0
  6
CONTINUOUS
 62
    7
 10
20.316787499999919
 20
775.54998799999998
 40
0.5
 50
0
 51
23.579369
  0
LINE
  8
_0-0_0
  6
CONTINUOUS
 62
    7
 10
12.616775499999903
 20
773.75
 11
12.616775499999903
 21
775.54998799999998
  0
ARC
  8
_0-0_0
  6
CONTINUOUS
 62
    7
 10
13.116775499999903
 20
775.54998799999998
 40
0.5
 50
156.420635
 51
179.99999099999999
  0
LINE
  8
_0-0_0
  6
CONTINUOUS
 62
    7
 10
7.416778499999964
 20
746.25
 11
7.416778499999964
 21
756.44998199999998
  0
LINE
  8
_0-0_0
  6
CONTINUOUS
 62
    7
 10
7.416778499999964
 20
756.44998199999998
 11
7.416778499999964
 21
757.44998199999998
  0
LINE
  8
_0-0_0
  6
CONTINUOUS
 62
    7
 10
7.416778499999964
 20
757.44998199999998
 11
7.416778499999964
 21
762.44998199999998
  0
LINE
  8
_0-0_0
  6
CONTINUOUS
 62
    7
 10
7.416778499999964
 20
762.44998199999998
 11
7.416778499999964
 21
763.44998199999998
  0
LINE
  8
_0-0_0
  6
CONTINUOUS
 62
    7
 10
7.416778499999964
 20
772.75
 11
7.416778499999964
 21
763.44998199999998
  0
LINE
  8
_0-0_0
  6
CONTINUOUS
 62
    7
 10
26.216781500000025
 20
771.75
 11
25.416778499999964
 21
771.75
  0
LINE
  8
_0-0_0
  6
CONTINUOUS
 62
    7
 10
26.216781500000025
 20
772.54998799999998
 11
25.416778499999964
 21
772.54998799999998
  0
LINE
  8
_0-0_0
  6
CONTINUOUS
 62
    7
 10
26.216781500000025
 20
771.54998799999998
 11
26.216781500000025
 21
772.54998799999998
  0
LINE
  8
_0-0_0
  6
CONTINUOUS
 62
    7
 10
26.216781500000025
 20
752.94998199999998
 11
25.416778499999964
 21
752.94998199999998
  0
LINE
  8
_0-0_0
  6
CONTINUOUS
 62
    7
 10
26.216781500000025
 20
752.94998199999998
 11
26.216781500000025
 21
755.94998199999998
  0
LINE
  8
_0-0_0
  6
CONTINUOUS
 62
    7
 10
26.216781500000025
 20
768.18768299999999
 11
26.216781500000025
 21
755.94998199999998
  0
LINE
  8
_0-0_0
  6
CONTINUOUS
 62
    7
 10
26.216781500000025
 20
768.18768299999999
 11
26.216781500000025
 21
769.15045199999997
  0
LINE
  8
_0-0_0
  6
CONTINUOUS
 62
    7
 10
25.416778499999964
 20
769.15045199999997
 11
25.416778499999964
 21
771.75
  0
ARC
  8
_0-0_0
  6
CONTINUOUS
 62
    7
 10
19.801864499999965
 20
768.43203700000004
 40
5.7120379999999997
 50
18.558475999999999
 51
26.433648000000002
  0
ARC
  8
_0-0_0
  6
CONTINUOUS
 62
    7
 10
25.216781500000025
 20
770.25
 40
0.2
 50
269.99999700000001
 51
0
  0
ARC
  8
_0-0_0
  6
CONTINUOUS
 62
    7
 10
25.216781500000025
 20
749.64999399999999
 40
0.2
 50
0
 51
90.000003000000007
  0
ARC
  8
_0-0_0
  6
CONTINUOUS
 62
    7
 10
19.801971499999922
 20
751.46801800000003
 40
5.711964
 50
333.565022
 51
341.44031000000001
  0
ARC
  8
_0-0_0
  6
CONTINUOUS
 62
    7
 10
24.916778499999964
 20
747.14999399999999
 40
0.5
 50
269.99999700000001
 51
0
  0
LINE
  8
_0-0_0
  6
CONTINUOUS
 62
    7
 10
24.916778499999964
 20
746.25
 11
25.416778499999964
 21
746.25
  0
LINE
  8
_0-0_0
  6
CONTINUOUS
 62
    7
 10
25.416778499999964
 20
746.25
 11
24.916778499999964
 21
745.75
  0
ARC
  8
_0-0_0
  6
CONTINUOUS
 62
    7
 10
23.216781500000025
 20
768.75
 40
2.2999999999999998
 50
34.417387999999995
 51
79.713437000000013
  0
LINE
  8
_0-0_0
  6
CONTINUOUS
 62
    7
 10
25.155471499999976
 20
770.04998799999998
 11
25.114150499999937
 21
770.04998799999998
  0
LINE
  8
_0-0_0
  6
CONTINUOUS
 62
    7
 10
25.155471499999976
 20
770.04998799999998
 11
25.165023499999961
 21
770.05102499999998
  0
LINE
  8
_0-0_0
  6
CONTINUOUS
 62
    7
 10
25.165023499999961
 20
770.05102499999998
 11
25.174514499999987
 21
770.05419899999993
  0
LINE
  8
_0-0_0
  6
CONTINUOUS
 62
    7
 10
25.174514499999987
 20
770.05419899999993
 11
25.183761499999946
 21
770.05960099999993
  0
LINE
  8
_0-0_0
  6
CONTINUOUS
 62
    7
 10
25.183761499999946
 20
770.05960099999993
 11
25.192565500000001
 21
770.06710799999996
  0
LINE
  8
_0-0_0
  6
CONTINUOUS
 62
    7
 10
25.192565500000001
 20
770.06710799999996
 11
25.20796150000001
 21
770.08776899999998
  0
LINE
  8
_0-0_0
  6
CONTINUOUS
 62
    7
 10
25.20796150000001
 20
770.08776899999998
 11
25.219741499999941
 21
770.11502100000007
  0
LINE
  8
_0-0_0
  6
CONTINUOUS
 62
    7
 10
25.219741499999941
 20
770.11502100000007
 11
25.226928499999985
 21
770.147156
  0
LINE
  8
_0-0_0
  6
CONTINUOUS
 62
    7
 10
25.226928499999985
 20
770.147156
 11
25.228820499999983
 21
770.18221999999992
  0
LINE
  8
_0-0_0
  6
CONTINUOUS
 62
    7
 10
25.228820499999983
 20
770.18221999999992
 11
25.224960499999952
 21
770.21838400000001
  0
LINE
  8
_0-0_0
  6
CONTINUOUS
 62
    7
 10
25.224960499999952
 20
770.21838400000001
 11
25.216781500000025
 21
770.25
  0
ARC
  8
_0-0_0
  6
CONTINUOUS
 62
    7
 10
23.716781500000025
 20
771.50497399999995
 40
0.5
 50
179.99999099999999
 51
259.71343899999994
  0
LINE
  8
_0-0_0
  6
CONTINUOUS
 62
    7
 10
8.2167815000000246
 20
768.75
 11
8.2167815000000246
 21
755.14999399999999
  0
LINE
  8
_0-0_0
  6
CONTINUOUS
 62
    7
 10
8.2167815000000246
 20
754.64999399999999
 11
8.2167815000000246
 21
755.14999399999999
  0
LINE
  8
_0-0_0
  6
CONTINUOUS
 62
    7
 10
8.2167815000000246
 20
751.64999399999999
 11
8.2167815000000246
 21
754.64999399999999
  0
LINE
  8
_0-0_0
  6
CONTINUOUS
 62
    7
 10
8.2167815000000246
 20
751.14999399999999
 11
8.2167815000000246
 21
751.64999399999999
  0
ARC
  8
_0-0_0
  6
CONTINUOUS
 62
    7
 10
10.216781500000025
 20
768.75
 40
2
 50
93.840255999999997
 51
179.99999099999999
  0
LINE
  8
_0-0_0
  6
CONTINUOUS
 62
    7
 10
10.216781500000025
 20
770.75
 11
19.216781500000025
 21
770.75
  0
LINE
  8
_0-0_0
  6
CONTINUOUS
 62
    7
 10
23.216781500000025
 20
770.75
 11
22.716781500000025
 21
770.75
  0
LINE
  8
_0-0_0
  6
CONTINUOUS
 62
    7
 10
22.716781500000025
 20
770.75
 11
19.716781500000025
 21
770.75
  0
LINE
  8
_0-0_0
  6
CONTINUOUS
 62
    7
 10
19.216781500000025
 20
770.75
 11
19.716781500000025
 21
770.75
  0
ARC
  8
_0-0_0
  6
CONTINUOUS
 62
    7
 10
23.216781500000025
 20
768.75
 40
2
 50
0
 51
90.000003000000007
  0
LINE
  8
_0-0_0
  6
CONTINUOUS
 62
    7
 10
7.2167815000000246
 20
771.75
 11
7.416778499999964
 21
771.75
  0
LINE
  8
_0-0_0
  6
CONTINUOUS
 62
    7
 10
7.2167815000000246
 20
772.54998799999998
 11
7.416778499999964
 21
772.54998799999998
  0
LINE
  8
_0-0_0
  6
CONTINUOUS
 62
    7
 10
7.2167815000000246
 20
772.54998799999998
 11
7.2167815000000246
 21
771.75012199999992
  0
LINE
  8
_0-0_0
  6
CONTINUOUS
 62
    7
 10
7.2167815000000246
 20
752.94998199999998
 11
7.416778499999964
 21
752.94998199999998
  0
LINE
  8
_0-0_0
  6
CONTINUOUS
 62
    7
 10
7.2167815000000246
 20
755.94998199999998
 11
7.2167815000000246
 21
752.94998199999998
  0
LINE
  8
_0-0_0
  6
CONTINUOUS
 62
    7
 10
7.2167815000000246
 20
768.18768299999999
 11
7.2167815000000246
 21
755.94998199999998
  0
LINE
  8
_0-0_0
  6
CONTINUOUS
 62
    7
 10
7.2167815000000246
 20
769.15045199999997
 11
7.2167815000000246
 21
768.18768299999999
  0
ARC
  8
_0-0_0
  6
CONTINUOUS
 62
    7
 10
7.916778499999964
 20
762.44998199999998
 40
0.5
 50
90.000003000000007
 51
179.99999099999999
  0
ARC
  8
_0-0_0
  6
CONTINUOUS
 62
    7
 10
7.916778499999964
 20
757.44998199999998
 40
0.5
 50
179.99999099999999
 51
269.99999700000001
  0
LINE
  8
_0-0_0
  6
CONTINUOUS
 62
    7
 10
7.416778499999964
 20
746.25
 11
7.916778499999964
 21
746.25
  0
LINE
  8
_0-0_0
  6
CONTINUOUS
 62
    7
 10
7.416778499999964
 20
746.25
 11
7.916778499999964
 21
745.75
  0
LINE
  8
_0-0_0
  6
CONTINUOUS
 62
    7
 10
25.416778499999964
 20
752.95001200000002
 11
25.416778499999964
 21
751.79998799999998
  0
ARC
  8
_0-0_0
  6
CONTINUOUS
 62
    7
 10
23.016784499999972
 20
751.79998799999998
 40
2.3999999999999999
 50
359.58604600000001
 51
0.0000099999999787
  0
LINE
  8
_0-0_0
  6
CONTINUOUS
 62
    7
 10
26.216781500000025
 20
769.15045199999997
 11
26.216781500000025
 21
771.75
  0
LINE
  8
_0-0_0
  6
CONTINUOUS
 62
    7
 10
25.216781500000025
 20
770.04998799999998
 11
25.155471499999976
 21
770.04998799999998
  0
LINE
  8
_0-0_0
  6
CONTINUOUS
 62
    7
 10
25.114150499999937
 20
770.04998799999998
 11
25.111923499999989
 21
770.04998799999998
  0
LINE
  8
_0-0_0
  6
CONTINUOUS
 62
    7
 10
24.916778499999964
 20
746.25
 11
7.916778499999964
 21
746.25
  0
LINE
  8
_0-0_0
  6
CONTINUOUS
 62
    7
 10
24.980255499999998
 20
750.04998799999998
 11
25.017166499999917
 21
749.97976700000004
  0
LINE
  8
_0-0_0
  6
CONTINUOUS
 62
    7
 10
25.017166499999917
 20
749.97976700000004
 11
25.036773499999981
 21
749.94528200000002
  0
LINE
  8
_0-0_0
  6
CONTINUOUS
 62
    7
 10
25.036773499999981
 20
749.94528200000002
 11
25.062866499999927
 21
749.90344200000004
  0
LINE
  8
_0-0_0
  6
CONTINUOUS
 62
    7
 10
25.062866499999927
 20
749.90344200000004
 11
25.076171499999987
 21
749.88439900000003
  0
LINE
  8
_0-0_0
  6
CONTINUOUS
 62
    7
 10
25.076171499999987
 20
749.88439900000003
 11
25.094528500000024
 21
749.86200000000008
  0
LINE
  8
_0-0_0
  6
CONTINUOUS
 62
    7
 10
25.094528500000024
 20
749.86200000000008
 11
25.107314499999916
 21
749.85137899999995
  0
LINE
  8
_0-0_0
  6
CONTINUOUS
 62
    7
 10
25.107314499999916
 20
749.85137899999995
 11
25.111923499999989
 21
749.84997599999997
  0
LINE
  8
_0-0_0
  6
CONTINUOUS
 62
    7
 10
25.114150499999937
 20
749.84997599999997
 11
25.111923499999989
 21
749.84997599999997
  0
LINE
  8
_0-0_0
  6
CONTINUOUS
 62
    7
 10
24.980255499999998
 20
769.84997599999997
 11
25.017166499999917
 21
769.92022700000007
  0
LINE
  8
_0-0_0
  6
CONTINUOUS
 62
    7
 10
25.017166499999917
 20
769.92022700000007
 11
25.036773499999981
 21
769.95468099999994
  0
LINE
  8
_0-0_0
  6
CONTINUOUS
 62
    7
 10
25.036773499999981
 20
769.95468099999994
 11
25.062866499999927
 21
769.99652100000003
  0
LINE
  8
_0-0_0
  6
CONTINUOUS
 62
    7
 10
25.062866499999927
 20
769.99652100000003
 11
25.076171499999987
 21
770.01556400000004
  0
LINE
  8
_0-0_0
  6
CONTINUOUS
 62
    7
 10
25.076171499999987
 20
770.01556400000004
 11
25.094528500000024
 21
770.03796399999999
  0
LINE
  8
_0-0_0
  6
CONTINUOUS
 62
    7
 10
25.094528500000024
 20
770.03796399999999
 11
25.107314499999916
 21
770.04858400000001
  0
LINE
  8
_0-0_0
  6
CONTINUOUS
 62
    7
 10
25.107314499999916
 20
770.04858400000001
 11
25.111923499999989
 21
770.04998799999998
  0
LINE
  8
_0-0_0
  6
CONTINUOUS
 62
    7
 10
25.114150499999937
 20
749.84997599999997
 11
25.155471499999976
 21
749.84997599999997
  0
LINE
  8
_0-0_0
  6
CONTINUOUS
 62
    7
 10
25.216781500000025
 20
749.84997599999997
 11
25.155471499999976
 21
749.84997599999997
  0
LINE
  8
_0-0_0
  6
CONTINUOUS
 62
    7
 10
25.155471499999976
 20
749.84997599999997
 11
25.165023499999961
 21
749.84893799999998
  0
LINE
  8
_0-0_0
  6
CONTINUOUS
 62
    7
 10
25.165023499999961
 20
749.84893799999998
 11
25.174514499999987
 21
749.84576399999992
  0
LINE
  8
_0-0_0
  6
CONTINUOUS
 62
    7
 10
25.174514499999987
 20
749.84576399999992
 11
25.183761499999946
 21
749.84036300000002
  0
LINE
  8
_0-0_0
  6
CONTINUOUS
 62
    7
 10
25.183761499999946
 20
749.84036300000002
 11
25.192565500000001
 21
749.832855
  0
LINE
  8
_0-0_0
  6
CONTINUOUS
 62
    7
 10
25.192565500000001
 20
749.832855
 11
25.20796150000001
 21
749.81222500000001
  0
LINE
  8
_0-0_0
  6
CONTINUOUS
 62
    7
 10
25.20796150000001
 20
749.81222500000001
 11
25.219741499999941
 21
749.784943
  0
LINE
  8
_0-0_0
  6
CONTINUOUS
 62
    7
 10
25.219741499999941
 20
749.784943
 11
25.226928499999985
 21
749.75280799999996
  0
LINE
  8
_0-0_0
  6
CONTINUOUS
 62
    7
 10
25.226928499999985
 20
749.75280799999996
 11
25.228820499999983
 21
749.71774299999993
  0
LINE
  8
_0-0_0
  6
CONTINUOUS
 62
    7
 10
25.228820499999983
 20
749.71774299999993
 11
25.224960499999952
 21
749.68157999999994
  0
LINE
  8
_0-0_0
  6
CONTINUOUS
 62
    7
 10
25.224960499999952
 20
749.68157999999994
 11
25.216781500000025
 21
749.64999399999999
  0
ARC
  8
_0-0_0
  6
CONTINUOUS
 62
    7
 10
23.216781500000025
 20
751.14999399999999
 40
2.2999999999999998
 50
280.28656300000006
 51
325.58260500000006
  0
LINE
  8
_0-0_0
  6
CONTINUOUS
 62
    7
 10
24.916778499999964
 20
746.64999399999999
 11
23.716781500000025
 21
746.64999399999999
  0
LINE
  8
_0-0_0
  6
CONTINUOUS
 62
    7
 10
24.916778499999964
 20
745.75
 11
7.916778499999964
 21
745.75
  0
LINE
  8
_0-0_0
  6
CONTINUOUS
 62
    7
 10
8.2167664999999488
 20
762.94998199999998
 11
7.916778499999964
 21
762.94998199999998
  0
ARC
  8
_0-0_0
  6
CONTINUOUS
 62
    7
 10
8.7167815000000246
 20
755.14999399999999
 40
0.5
 50
179.99999099999999
 51
269.99999700000001
  0
CIRCLE
  8
_0-0_0
  6
CONTINUOUS
 62
    7
 10
10.716781500000025
 20
751.64999399999999
 40
2.5
  0
LINE
  8
_0-0_0
  6
CONTINUOUS
 62
    7
 10
13.716781500000025
 20
749.14999399999999
 11
10.716781500000025
 21
749.14999399999999
  0
LINE
  8
_0-0_0
  6
CONTINUOUS
 62
    7
 10
14.216781500000025
 20
749.14999399999999
 11
13.716781500000025
 21
749.14999399999999
  0
ARC
  8
_0-0_0
  6
CONTINUOUS
 62
    7
 10
10.216781500000025
 20
751.14999399999999
 40
2
 50
179.99999099999999
 51
269.99999700000001
  0
LINE
  8
_0-0_0
  6
CONTINUOUS
 62
    7
 10
10.716781500000025
 20
749.14999399999999
 11
10.216781500000025
 21
749.14999399999999
  0
LINE
  8
_0-0_0
  6
CONTINUOUS
 62
    7
 10
10.216781500000025
 20
770.64733899999999
 11
10.200897499999996
 21
770.67459099999996
  0
LINE
  8
_0-0_0
  6
CONTINUOUS
 62
    7
 10
10.200897499999996
 20
770.67459099999996
 11
10.185058499999968
 21
770.69757099999993
  0
LINE
  8
_0-0_0
  6
CONTINUOUS
 62
    7
 10
10.185058499999968
 20
770.69757099999993
 11
10.1710814999999
 21
770.71432499999992
  0
LINE
  8
_0-0_0
  6
CONTINUOUS
 62
    7
 10
10.1710814999999
 20
770.71432499999992
 11
10.157180499999981
 21
770.72766100000001
  0
LINE
  8
_0-0_0
  6
CONTINUOUS
 62
    7
 10
10.157180499999981
 20
770.72766100000001
 11
10.144958499999916
 21
770.73660300000006
  0
LINE
  8
_0-0_0
  6
CONTINUOUS
 62
    7
 10
10.144958499999916
 20
770.73660300000006
 11
10.132842499999924
 21
770.74279799999999
  0
LINE
  8
_0-0_0
  6
CONTINUOUS
 62
    7
 10
10.132842499999924
 20
770.74279799999999
 11
10.121978499999955
 21
770.74609400000008
  0
LINE
  8
_0-0_0
  6
CONTINUOUS
 62
    7
 10
10.121978499999955
 20
770.74609400000008
 11
10.111221499999942
 21
770.74713100000008
  0
LINE
  8
_0-0_0
  6
CONTINUOUS
 62
    7
 10
10.111221499999942
 20
770.74713100000008
 11
10.108749499999931
 21
770.74707000000001
  0
LINE
  8
_0-0_0
  6
CONTINUOUS
 62
    7
 10
25.216781500000025
 20
768.25
 11
25.216781500000025
 21
768.75
  0
CIRCLE
  8
_0-0_0
  6
CONTINUOUS
 62
    7
 10
22.716781500000025
 20
768.25
 40
2.5
  0
LINE
  8
_0-0_0
  6
CONTINUOUS
 62
    7
 10
25.216781500000025
 20
765.25
 11
25.216781500000025
 21
764.75
  0
LINE
  8
_0-0_0
  6
CONTINUOUS
 62
    7
 10
25.216781500000025
 20
765.25
 11
25.216781500000025
 21
768.25
  0
ARC
  8
_0-0_0
  6
CONTINUOUS
 62
    7
 10
19.216781500000025
 20
770.25
 40
0.5
 50
0
 51
90.000003000000007
  0
LINE
  8
_0-0_0
  6
CONTINUOUS
 62
    7
 10
25.216781500000025
 20
751.14999399999999
 11
25.216781500000025
 21
764.75
  0
LINE
  8
_0-0_0
  6
CONTINUOUS
 62
    7
 10
7.2167815000000246
 20
771.75
 11
7.2167815000000246
 21
769.15045199999997
  0
LINE
  8
_0-0_0
  6
CONTINUOUS
 62
    7
 10
7.916778499999964
 20
756.94998199999998
 11
8.2167664999999488
 21
756.94998199999998
  0
LINE
  8
_0-0_0
  6
CONTINUOUS
 62
    7
 10
25.416778499999964
 20
772.55004899999994
 11
25.416778499999964
 21
772.75
  0
ARC
  8
_0-0_0
  6
CONTINUOUS
 62
    7
 10
23.216781500000025
 20
751.14999399999999
 40
2
 50
273.84026500000004
 51
0.000010000000014
  0
LINE
  8
_0-0_0
  6
CONTINUOUS
 62
    7
 10
23.216781500000025
 20
749.14999399999999
 11
14.216781500000025
 21
749.14999399999999
  0
ARC
  8
_0-0_0
  6
CONTINUOUS
 62
    7
 10
23.716781500000025
 20
748.39498900000001
 40
0.5
 50
100.28656100000001
 51
179.99999099999999
  0
LINE
  8
_0-0_0
  6
CONTINUOUS
 62
    7
 10
23.216781500000025
 20
747.14999399999999
 11
23.216781500000025
 21
748.39498900000001
  0
ARC
  8
_0-0_0
  6
CONTINUOUS
 62
    7
 10
23.716781500000025
 20
747.14999399999999
 40
0.5
 50
179.99999099999999
 51
269.99999700000001
  0
LINE
  8
_0-0_0
  6
CONTINUOUS
 62
    7
 10
8.7937624999999571
 20
754.64999399999999
 11
8.7167815000000246
 21
754.64999399999999
  0
LINE
  8
_0-0_0
  6
CONTINUOUS
 62
    7
 10
10.716781500000025
 20
754.64999399999999
 11
10.235275499999943
 21
754.64999399999999
  0
LINE
  8
_0-0_0
  6
CONTINUOUS
 62
    7
 10
10.235275499999943
 20
754.64999399999999
 11
8.7937624999999571
 21
754.64999399999999
  0
LINE
  8
_0-0_0
  6
CONTINUOUS
 62
    7
 10
13.716781500000025
 20
749.64999399999999
 11
13.716781500000025
 21
749.72695900000008
  0
LINE
  8
_0-0_0
  6
CONTINUOUS
 62
    7
 10
13.716781500000025
 20
751.16848800000002
 11
13.716781500000025
 21
749.72695900000008
  0
LINE
  8
_0-0_0
  6
CONTINUOUS
 62
    7
 10
13.716781500000025
 20
751.16848800000002
 11
13.716781500000025
 21
751.64999399999999
  0
ARC
  8
_0-0_0
  6
CONTINUOUS
 62
    7
 10
10.716781500000025
 20
751.64999399999999
 40
3
 50
0
 51
89.999995999999996
  0
ARC
  8
_0-0_0
  6
CONTINUOUS
 62
    7
 10
14.216781500000025
 20
749.64999399999999
 40
0.5
 50
179.99999099999999
 51
269.99999700000001
  0
LINE
  8
_0-0_0
  6
CONTINUOUS
 62
    7
 10
19.716781500000025
 20
770.17300399999999
 11
19.716781500000025
 21
770.25
  0
LINE
  8
_0-0_0
  6
CONTINUOUS
 62
    7
 10
19.716781500000025
 20
768.73147599999993
 11
19.716781500000025
 21
770.17300399999999
  0
LINE
  8
_0-0_0
  6
CONTINUOUS
 62
    7
 10
19.716781500000025
 20
768.25
 11
19.716781500000025
 21
768.73147599999993
  0
ARC
  8
_0-0_0
  6
CONTINUOUS
 62
    7
 10
22.716781500000025
 20
768.25
 40
3
 50
179.99999099999999
 51
269.99999700000001
  0
LINE
  8
_0-0_0
  6
CONTINUOUS
 62
    7
 10
23.198287499999992
 20
765.25
 11
22.716781500000025
 21
765.25
  0
LINE
  8
_0-0_0
  6
CONTINUOUS
 62
    7
 10
23.198287499999992
 20
765.25
 11
24.639800499999978
 21
765.25
  0
LINE
  8
_0-0_0
  6
CONTINUOUS
 62
    7
 10
24.716781500000025
 20
765.25
 11
24.639800499999978
 21
765.25
  0
ARC
  8
_0-0_0
  6
CONTINUOUS
 62
    7
 10
24.716781500000025
 20
764.75
 40
0.5
 50
0
 51
90.000003000000007
  0
LINE
  8
_0-0_0
  6
CONTINUOUS
 62
    7
 10
23.216781500000025
 20
749.25262500000008
 11
23.232665499999939
 21
749.22537199999999
  0
LINE
  8
_0-0_0
  6
CONTINUOUS
 62
    7
 10
23.232665499999939
 20
749.22537199999999
 11
23.248504499999967
 21
749.20239300000003
  0
LINE
  8
_0-0_0
  6
CONTINUOUS
 62
    7
 10
23.248504499999967
 20
749.20239300000003
 11
23.262481499999922
 21
749.18563799999993
  0
LINE
  8
_0-0_0
  6
CONTINUOUS
 62
    7
 10
23.262481499999922
 20
749.18563799999993
 11
23.276382499999954
 21
749.17230199999995
  0
LINE
  8
_0-0_0
  6
CONTINUOUS
 62
    7
 10
23.276382499999954
 20
749.17230199999995
 11
23.288604500000019
 21
749.16339100000005
  0
LINE
  8
_0-0_0
  6
CONTINUOUS
 62
    7
 10
23.288604500000019
 20
749.16339100000005
 11
23.300720499999898
 21
749.15716599999996
  0
LINE
  8
_0-0_0
  6
CONTINUOUS
 62
    7
 10
23.300720499999898
 20
749.15716599999996
 11
23.311584499999981
 21
749.15390000000002
  0
LINE
  8
_0-0_0
  6
CONTINUOUS
 62
    7
 10
23.311584499999981
 20
749.15390000000002
 11
23.322341499999993
 21
749.15283199999999
  0
LINE
  8
_0-0_0
  6
CONTINUOUS
 62
    7
 10
23.322341499999993
 20
749.15283199999999
 11
23.324813499999891
 21
749.15289299999995
  0
ARC
  8
_0-0_0
  6
CONTINUOUS
 62
    7
 10
13.486663499999963
 20
758.77673299999992
 40
3.063399
 50
199.82113599999997
 51
205.28948099999999
  0
ARC
  8
_0-0_0
  6
CONTINUOUS
 62
    7
 10
13.486343499999975
 20
761.12335200000007
 40
3.0630549999999999
 50
154.710137
 51
160.17869999999999
  0
ARC
  8
_0-0_0
  6
CONTINUOUS
 62
    7
 10
16.716781500000025
 20
759.94998199999998
 40
6.5
 50
160.10415599999999
 51
199.895612
  0
ARC
  8
_0-0_0
  6
CONTINUOUS
 62
    7
 10
19.946899499999972
 20
761.12322999999992
 40
3.0633949999999999
 50
19.82113
 51
25.289566000000001
  0
ARC
  8
_0-0_0
  6
CONTINUOUS
 62
    7
 10
19.94721949999996
 20
758.776611
 40
3.0630519999999999
 50
334.71006
 51
340.17869200000001
  0
LINE
  8
_0-0_0
  6
CONTINUOUS
 62
    7
 10
17.458450500000026
 20
753.44998199999998
 11
21.975112500000023
 21
756.05767800000001
  0
LINE
  8
_0-0_0
  6
CONTINUOUS
 62
    7
 10
15.975112500000023
 20
753.44998199999998
 11
17.458450500000026
 21
753.44998199999998
  0
LINE
  8
_0-0_0
  6
CONTINUOUS
 62
    7
 10
11.458450500000026
 20
756.05767800000001
 11
15.975112500000023
 21
753.44998199999998
  0
LINE
  8
_0-0_0
  6
CONTINUOUS
 62
    7
 10
10.716781500000025
 20
762.55767800000001
 11
10.716781500000025
 21
757.34228499999995
  0
LINE
  8
_0-0_0
  6
CONTINUOUS
 62
    7
 10
11.458450500000026
 20
756.05767800000001
 11
10.716781500000025
 21
757.34228499999995
  0
LINE
  8
_0-0_0
  6
CONTINUOUS
 62
    7
 10
15.975112500000023
 20
766.44998199999998
 11
11.458450500000026
 21
763.84228499999995
  0
LINE
  8
_0-0_0
  6
CONTINUOUS
 62
    7
 10
11.164321499999915
 20
763.332855
 11
10.716781500000025
 21
762.55767800000001
  0
LINE
  8
_0-0_0
  6
CONTINUOUS
 62
    7
 10
11.164321499999915
 20
763.332855
 11
11.458450500000026
 21
763.84228499999995
  0
LINE
  8
_0-0_0
  6
CONTINUOUS
 62
    7
 10
17.458450500000026
 20
766.44998199999998
 11
15.975112500000023
 21
766.44998199999998
  0
LINE
  8
_0-0_0
  6
CONTINUOUS
 62
    7
 10
21.975112500000023
 20
763.84228499999995
 11
17.458450500000026
 21
766.44998199999998
  0
ARC
  8
_0-0_0
  6
CONTINUOUS
 62
    7
 10
16.716781500000025
 20
759.94998199999998
 40
6.5
 50
340.10416099999998
 51
19.895609999999952
  0
LINE
  8
_0-0_0
  6
CONTINUOUS
 62
    7
 10
22.269241499999907
 20
756.56710799999996
 11
22.716781500000025
 21
757.34228499999995
  0
LINE
  8
_0-0_0
  6
CONTINUOUS
 62
    7
 10
22.269241499999907
 20
756.56710799999996
 11
21.975112500000023
 21
756.05767800000001
  0
CIRCLE
  8
_0-0_0
  6
CONTINUOUS
 62
    7
 10
16.716781500000025
 20
759.94998199999998
 40
5.25
  0
LINE
  8
_0-0_0
  6
CONTINUOUS
 62
    7
 10
22.716781500000025
 20
762.55767800000001
 11
22.716781500000025
 21
757.34228499999995
  0
LINE
  8
_0-0_0
  6
CONTINUOUS
 62
    7
 10
21.975112500000023
 20
763.84228499999995
 11
22.716781500000025
 21
762.55767800000001
  0
LINE
  8
_0-0_0
  6
CONTINUOUS
 62
    7
 10
24.603790499999945
 20
769.47543300000007
 11
24.881851499999925
 21
769.5
  0
LINE
  8
_0-0_0
  6
CONTINUOUS
 62
    7
 10
24.721542499999941
 20
769.27145399999995
 11
24.881851499999925
 21
769.5
  0
LINE
  8
_0-0_0
  6
CONTINUOUS
 62
    7
 10
24.465362499999969
 20
769.66595499999994
 11
24.739318499999968
 21
769.71945200000005
  0
LINE
  8
_0-0_0
  6
CONTINUOUS
 62
    7
 10
24.603790499999945
 20
769.47543300000007
 11
24.739318499999968
 21
769.71945200000005
  0
LINE
  8
_0-0_0
  6
CONTINUOUS
 62
    7
 10
24.307769499999949
 20
769.84097300000008
 11
24.574645499999974
 21
769.922821
  0
LINE
  8
_0-0_0
  6
CONTINUOUS
 62
    7
 10
24.465362499999969
 20
769.66595499999994
 11
24.574645499999974
 21
769.922821
  0
LINE
  8
_0-0_0
  6
CONTINUOUS
 62
    7
 10
24.132751499999927
 20
769.99856599999998
 11
24.38960249999991
 21
770.10784899999999
  0
LINE
  8
_0-0_0
  6
CONTINUOUS
 62
    7
 10
24.307769499999949
 20
769.84097300000008
 11
24.38960249999991
 21
770.10784899999999
  0
LINE
  8
_0-0_0
  6
CONTINUOUS
 62
    7
 10
23.942214499999977
 20
770.13699300000007
 11
24.18624849999992
 21
770.27252199999998
  0
LINE
  8
_0-0_0
  6
CONTINUOUS
 62
    7
 10
24.132751499999927
 20
769.99856599999998
 11
24.18624849999992
 21
770.27252199999998
  0
LINE
  8
_0-0_0
  6
CONTINUOUS
 62
    7
 10
23.738265499999898
 20
770.25476099999992
 11
23.966781500000025
 21
770.41503899999998
  0
LINE
  8
_0-0_0
  6
CONTINUOUS
 62
    7
 10
23.942214499999977
 20
770.13699300000007
 11
23.966781500000025
 21
770.41503899999998
  0
LINE
  8
_0-0_0
  6
CONTINUOUS
 62
    7
 10
23.523116500000015
 20
770.35052500000006
 11
23.733627500000011
 21
770.53384400000004
  0
LINE
  8
_0-0_0
  6
CONTINUOUS
 62
    7
 10
23.738265499999898
 20
770.25476099999992
 11
23.733627500000011
 21
770.53384400000004
  0
LINE
  8
_0-0_0
  6
CONTINUOUS
 62
    7
 10
23.299117499999966
 20
770.42330900000002
 11
23.489318499999968
 21
770.62762500000008
  0
LINE
  8
_0-0_0
  6
CONTINUOUS
 62
    7
 10
23.523116500000015
 20
770.35052500000006
 11
23.489318499999968
 21
770.62762500000008
  0
LINE
  8
_0-0_0
  6
CONTINUOUS
 62
    7
 10
23.068755499999952
 20
770.47228999999993
 11
23.236556500000006
 21
770.69534299999998
  0
LINE
  8
_0-0_0
  6
CONTINUOUS
 62
    7
 10
23.299117499999966
 20
770.42330900000002
 11
23.236556500000006
 21
770.69534299999998
  0
LINE
  8
_0-0_0
  6
CONTINUOUS
 62
    7
 10
22.834533499999907
 20
770.49688700000002
 11
22.978103499999975
 21
770.73629800000003
  0
LINE
  8
_0-0_0
  6
CONTINUOUS
 62
    7
 10
23.068755499999952
 20
770.47228999999993
 11
22.978103499999975
 21
770.73629800000003
  0
LINE
  8
_0-0_0
  6
CONTINUOUS
 62
    7
 10
22.599029499999915
 20
770.49688700000002
 11
22.716781500000025
 21
770.75
  0
LINE
  8
_0-0_0
  6
CONTINUOUS
 62
    7
 10
22.834533499999907
 20
770.49688700000002
 11
22.716781500000025
 21
770.75
  0
LINE
  8
_0-0_0
  6
CONTINUOUS
 62
    7
 10
22.364807499999984
 20
770.47228999999993
 11
22.455459499999961
 21
770.73629800000003
  0
LINE
  8
_0-0_0
  6
CONTINUOUS
 62
    7
 10
22.599029499999915
 20
770.49688700000002
 11
22.455459499999961
 21
770.73629800000003
  0
LINE
  8
_0-0_0
  6
CONTINUOUS
 62
    7
 10
22.13444549999997
 20
770.42330900000002
 11
22.197006499999929
 21
770.69534299999998
  0
LINE
  8
_0-0_0
  6
CONTINUOUS
 62
    7
 10
22.364807499999984
 20
770.47228999999993
 11
22.197006499999929
 21
770.69534299999998
  0
LINE
  8
_0-0_0
  6
CONTINUOUS
 62
    7
 10
21.910446499999921
 20
770.35052500000006
 11
21.944244499999968
 21
770.62762500000008
  0
LINE
  8
_0-0_0
  6
CONTINUOUS
 62
    7
 10
22.13444549999997
 20
770.42330900000002
 11
21.944244499999968
 21
770.62762500000008
  0
LINE
  8
_0-0_0
  6
CONTINUOUS
 62
    7
 10
21.695297499999924
 20
770.25476099999992
 11
21.699935499999924
 21
770.53384400000004
  0
LINE
  8
_0-0_0
  6
CONTINUOUS
 62
    7
 10
21.910446499999921
 20
770.35052500000006
 11
21.699935499999924
 21
770.53384400000004
  0
LINE
  8
_0-0_0
  6
CONTINUOUS
 62
    7
 10
21.575759500000004
 20
770.33859299999995
 11
21.466781500000025
 21
770.41503899999998
  0
LINE
  8
_0-0_0
  6
CONTINUOUS
 62
    7
 10
21.695297499999924
 20
770.25476099999992
 11
21.575759500000004
 21
770.33859299999995
  0
LINE
  8
_0-0_0
  6
CONTINUOUS
 62
    7
 10
21.491348499999958
 20
770.13699300000007
 11
21.466781500000025
 21
770.41503899999998
  0
LINE
  8
_0-0_0
  6
CONTINUOUS
 62
    7
 10
21.300811500000009
 20
769.99856599999998
 11
21.247314499999902
 21
770.27252199999998
  0
LINE
  8
_0-0_0
  6
CONTINUOUS
 62
    7
 10
21.491348499999958
 20
770.13699300000007
 11
21.247314499999902
 21
770.27252199999998
  0
LINE
  8
_0-0_0
  6
CONTINUOUS
 62
    7
 10
21.125793499999986
 20
769.84097300000008
 11
21.043960499999912
 21
770.10784899999999
  0
LINE
  8
_0-0_0
  6
CONTINUOUS
 62
    7
 10
21.300811500000009
 20
769.99856599999998
 11
21.043960499999912
 21
770.10784899999999
  0
LINE
  8
_0-0_0
  6
CONTINUOUS
 62
    7
 10
20.968200499999966
 20
769.66595499999994
 11
20.858917499999961
 21
769.922821
  0
LINE
  8
_0-0_0
  6
CONTINUOUS
 62
    7
 10
21.125793499999986
 20
769.84097300000008
 11
20.858917499999961
 21
769.922821
  0
LINE
  8
_0-0_0
  6
CONTINUOUS
 62
    7
 10
20.82977249999999
 20
769.47543300000007
 11
20.694244499999968
 21
769.71945200000005
  0
LINE
  8
_0-0_0
  6
CONTINUOUS
 62
    7
 10
20.968200499999966
 20
769.66595499999994
 11
20.694244499999968
 21
769.71945200000005
  0
LINE
  8
_0-0_0
  6
CONTINUOUS
 62
    7
 10
20.712020499999994
 20
769.27145399999995
 11
20.55171150000001
 21
769.5
  0
LINE
  8
_0-0_0
  6
CONTINUOUS
 62
    7
 10
20.82977249999999
 20
769.47543300000007
 11
20.55171150000001
 21
769.5
  0
LINE
  8
_0-0_0
  6
CONTINUOUS
 62
    7
 10
20.616226499999925
 20
769.05630500000007
 11
20.432922499999904
 21
769.26681499999995
  0
LINE
  8
_0-0_0
  6
CONTINUOUS
 62
    7
 10
20.712020499999994
 20
769.27145399999995
 11
20.432922499999904
 21
769.26681499999995
  0
LINE
  8
_0-0_0
  6
CONTINUOUS
 62
    7
 10
20.543441499999972
 20
768.83233599999994
 11
20.339141499999982
 21
769.02252199999998
  0
LINE
  8
_0-0_0
  6
CONTINUOUS
 62
    7
 10
20.616226499999925
 20
769.05630500000007
 11
20.339141499999982
 21
769.02252199999998
  0
LINE
  8
_0-0_0
  6
CONTINUOUS
 62
    7
 10
20.494476500000019
 20
768.60195900000008
 11
20.271407499999896
 21
768.76977499999998
  0
LINE
  8
_0-0_0
  6
CONTINUOUS
 62
    7
 10
20.543441499999972
 20
768.83233599999994
 11
20.271407499999896
 21
768.76977499999998
  0
LINE
  8
_0-0_0
  6
CONTINUOUS
 62
    7
 10
20.494476500000019
 20
768.60195900000008
 11
20.230483499999991
 21
768.51129200000003
  0
LINE
  8
_0-0_0
  6
CONTINUOUS
 62
    7
 10
20.469863499999974
 20
768.36773700000003
 11
20.230483499999991
 21
768.51129200000003
  0
LINE
  8
_0-0_0
  6
CONTINUOUS
 62
    7
 10
20.469863499999974
 20
768.13223300000004
 11
20.216781500000025
 21
768.25
  0
LINE
  8
_0-0_0
  6
CONTINUOUS
 62
    7
 10
20.469863499999974
 20
768.36773700000003
 11
20.216781500000025
 21
768.25
  0
LINE
  8
_0-0_0
  6
CONTINUOUS
 62
    7
 10
20.494476500000019
 20
767.89801
 11
20.230483499999991
 21
767.98864700000001
  0
LINE
  8
_0-0_0
  6
CONTINUOUS
 62
    7
 10
20.469863499999974
 20
768.13223300000004
 11
20.230483499999991
 21
767.98864700000001
  0
LINE
  8
_0-0_0
  6
CONTINUOUS
 62
    7
 10
20.543441499999972
 20
767.66763300000002
 11
20.271407499999896
 21
767.73019399999998
  0
LINE
  8
_0-0_0
  6
CONTINUOUS
 62
    7
 10
20.494476500000019
 20
767.89801
 11
20.271407499999896
 21
767.73019399999998
  0
LINE
  8
_0-0_0
  6
CONTINUOUS
 62
    7
 10
20.616226499999925
 20
767.44366500000001
 11
20.339141499999982
 21
767.47744799999998
  0
LINE
  8
_0-0_0
  6
CONTINUOUS
 62
    7
 10
20.543441499999972
 20
767.66763300000002
 11
20.339141499999982
 21
767.47744799999998
  0
LINE
  8
_0-0_0
  6
CONTINUOUS
 62
    7
 10
20.712020499999994
 20
767.22851600000001
 11
20.432922499999904
 21
767.23315400000001
  0
LINE
  8
_0-0_0
  6
CONTINUOUS
 62
    7
 10
20.616226499999925
 20
767.44366500000001
 11
20.432922499999904
 21
767.23315400000001
  0
LINE
  8
_0-0_0
  6
CONTINUOUS
 62
    7
 10
20.82977249999999
 20
767.02453600000001
 11
20.55171150000001
 21
767
  0
LINE
  8
_0-0_0
  6
CONTINUOUS
 62
    7
 10
20.712020499999994
 20
767.22851600000001
 11
20.55171150000001
 21
767
  0
LINE
  8
_0-0_0
  6
CONTINUOUS
 62
    7
 10
20.968200499999966
 20
766.83401500000002
 11
20.694244499999968
 21
766.78051800000003
  0
LINE
  8
_0-0_0
  6
CONTINUOUS
 62
    7
 10
20.82977249999999
 20
767.02453600000001
 11
20.694244499999968
 21
766.78051800000003
  0
LINE
  8
_0-0_0
  6
CONTINUOUS
 62
    7
 10
21.125793499999986
 20
766.658997
 11
20.858917499999961
 21
766.57714800000008
  0
LINE
  8
_0-0_0
  6
CONTINUOUS
 62
    7
 10
20.968200499999966
 20
766.83401500000002
 11
20.858917499999961
 21
766.57714800000008
  0
LINE
  8
_0-0_0
  6
CONTINUOUS
 62
    7
 10
21.300811500000009
 20
766.50140399999998
 11
21.043960499999912
 21
766.39211999999998
  0
LINE
  8
_0-0_0
  6
CONTINUOUS
 62
    7
 10
21.125793499999986
 20
766.658997
 11
21.043960499999912
 21
766.39211999999998
  0
LINE
  8
_0-0_0
  6
CONTINUOUS
 62
    7
 10
21.491348499999958
 20
766.362976
 11
21.247314499999902
 21
766.22744799999998
  0
LINE
  8
_0-0_0
  6
CONTINUOUS
 62
    7
 10
21.300811500000009
 20
766.50140399999998
 11
21.247314499999902
 21
766.22744799999998
  0
LINE
  8
_0-0_0
  6
CONTINUOUS
 62
    7
 10
21.695297499999924
 20
766.24520899999993
 11
21.466781500000025
 21
766.08492999999999
  0
LINE
  8
_0-0_0
  6
CONTINUOUS
 62
    7
 10
21.491348499999958
 20
766.362976
 11
21.466781500000025
 21
766.08492999999999
  0
LINE
  8
_0-0_0
  6
CONTINUOUS
 62
    7
 10
21.910446499999921
 20
766.14941399999998
 11
21.699935499999924
 21
765.96612499999992
  0
LINE
  8
_0-0_0
  6
CONTINUOUS
 62
    7
 10
21.695297499999924
 20
766.24520899999993
 11
21.699935499999924
 21
765.96612499999992
  0
LINE
  8
_0-0_0
  6
CONTINUOUS
 62
    7
 10
22.13444549999997
 20
766.07665999999995
 11
21.944244499999968
 21
765.872345
  0
LINE
  8
_0-0_0
  6
CONTINUOUS
 62
    7
 10
21.910446499999921
 20
766.14941399999998
 11
21.944244499999968
 21
765.872345
  0
LINE
  8
_0-0_0
  6
CONTINUOUS
 62
    7
 10
22.364807499999984
 20
766.02767900000003
 11
22.197006499999929
 21
765.80462599999998
  0
LINE
  8
_0-0_0
  6
CONTINUOUS
 62
    7
 10
22.13444549999997
 20
766.07665999999995
 11
22.197006499999929
 21
765.80462599999998
  0
LINE
  8
_0-0_0
  6
CONTINUOUS
 62
    7
 10
22.599029499999915
 20
766.00305200000003
 11
22.455459499999961
 21
765.76367200000004
  0
LINE
  8
_0-0_0
  6
CONTINUOUS
 62
    7
 10
22.364807499999984
 20
766.02767900000003
 11
22.455459499999961
 21
765.76367200000004
  0
LINE
  8
_0-0_0
  6
CONTINUOUS
 62
    7
 10
22.834533499999907
 20
766.00305200000003
 11
22.716781500000025
 21
765.75
  0
LINE
  8
_0-0_0
  6
CONTINUOUS
 62
    7
 10
22.599029499999915
 20
766.00305200000003
 11
22.716781500000025
 21
765.75
  0
LINE
  8
_0-0_0
  6
CONTINUOUS
 62
    7
 10
23.068755499999952
 20
766.02767900000003
 11
22.978103499999975
 21
765.76367200000004
  0
LINE
  8
_0-0_0
  6
CONTINUOUS
 62
    7
 10
22.834533499999907
 20
766.00305200000003
 11
22.978103499999975
 21
765.76367200000004
  0
LINE
  8
_0-0_0
  6
CONTINUOUS
 62
    7
 10
23.299117499999966
 20
766.07665999999995
 11
23.236556500000006
 21
765.80462599999998
  0
LINE
  8
_0-0_0
  6
CONTINUOUS
 62
    7
 10
23.068755499999952
 20
766.02767900000003
 11
23.236556500000006
 21
765.80462599999998
  0
LINE
  8
_0-0_0
  6
CONTINUOUS
 62
    7
 10
23.523116500000015
 20
766.14941399999998
 11
23.489318499999968
 21
765.872345
  0
LINE
  8
_0-0_0
  6
CONTINUOUS
 62
    7
 10
23.299117499999966
 20
766.07665999999995
 11
23.489318499999968
 21
765.872345
  0
LINE
  8
_0-0_0
  6
CONTINUOUS
 62
    7
 10
23.738265499999898
 20
766.24520899999993
 11
23.733627500000011
 21
765.96612499999992
  0
LINE
  8
_0-0_0
  6
CONTINUOUS
 62
    7
 10
23.523116500000015
 20
766.14941399999998
 11
23.733627500000011
 21
765.96612499999992
  0
LINE
  8
_0-0_0
  6
CONTINUOUS
 62
    7
 10
23.857803499999932
 20
766.16137700000002
 11
23.966781500000025
 21
766.08492999999999
  0
LINE
  8
_0-0_0
  6
CONTINUOUS
 62
    7
 10
23.738265499999898
 20
766.24520899999993
 11
23.857803499999932
 21
766.16137700000002
  0
LINE
  8
_0-0_0
  6
CONTINUOUS
 62
    7
 10
23.942214499999977
 20
766.362976
 11
23.966781500000025
 21
766.08492999999999
  0
LINE
  8
_0-0_0
  6
CONTINUOUS
 62
    7
 10
24.132751499999927
 20
766.50140399999998
 11
24.18624849999992
 21
766.22744799999998
  0
LINE
  8
_0-0_0
  6
CONTINUOUS
 62
    7
 10
23.942214499999977
 20
766.362976
 11
24.18624849999992
 21
766.22744799999998
  0
LINE
  8
_0-0_0
  6
CONTINUOUS
 62
    7
 10
24.307769499999949
 20
766.658997
 11
24.38960249999991
 21
766.39211999999998
  0
LINE
  8
_0-0_0
  6
CONTINUOUS
 62
    7
 10
24.132751499999927
 20
766.50140399999998
 11
24.38960249999991
 21
766.39211999999998
  0
LINE
  8
_0-0_0
  6
CONTINUOUS
 62
    7
 10
24.465362499999969
 20
766.83401500000002
 11
24.574645499999974
 21
766.57714800000008
  0
LINE
  8
_0-0_0
  6
CONTINUOUS
 62
    7
 10
24.307769499999949
 20
766.658997
 11
24.574645499999974
 21
766.57714800000008
  0
LINE
  8
_0-0_0
  6
CONTINUOUS
 62
    7
 10
24.603790499999945
 20
767.02453600000001
 11
24.739318499999968
 21
766.78051800000003
  0
LINE
  8
_0-0_0
  6
CONTINUOUS
 62
    7
 10
24.465362499999969
 20
766.83401500000002
 11
24.739318499999968
 21
766.78051800000003
  0
LINE
  8
_0-0_0
  6
CONTINUOUS
 62
    7
 10
24.721542499999941
 20
767.22851600000001
 11
24.881851499999925
 21
767
  0
LINE
  8
_0-0_0
  6
CONTINUOUS
 62
    7
 10
24.603790499999945
 20
767.02453600000001
 11
24.881851499999925
 21
767
  0
LINE
  8
_0-0_0
  6
CONTINUOUS
 62
    7
 10
24.81733650000001
 20
767.44366500000001
 11
25.000640499999918
 21
767.23315400000001
  0
LINE
  8
_0-0_0
  6
CONTINUOUS
 62
    7
 10
24.721542499999941
 20
767.22851600000001
 11
25.000640499999918
 21
767.23315400000001
  0
LINE
  8
_0-0_0
  6
CONTINUOUS
 62
    7
 10
24.890121499999964
 20
767.66763300000002
 11
25.094421499999953
 21
767.47744799999998
  0
LINE
  8
_0-0_0
  6
CONTINUOUS
 62
    7
 10
24.81733650000001
 20
767.44366500000001
 11
25.094421499999953
 21
767.47744799999998
  0
LINE
  8
_0-0_0
  6
CONTINUOUS
 62
    7
 10
24.939086499999917
 20
767.89801
 11
25.162155499999926
 21
767.73019399999998
  0
LINE
  8
_0-0_0
  6
CONTINUOUS
 62
    7
 10
24.890121499999964
 20
767.66763300000002
 11
25.162155499999926
 21
767.73019399999998
  0
LINE
  8
_0-0_0
  6
CONTINUOUS
 62
    7
 10
24.963699499999962
 20
768.13223300000004
 11
25.203079499999944
 21
767.98864700000001
  0
LINE
  8
_0-0_0
  6
CONTINUOUS
 62
    7
 10
24.939086499999917
 20
767.89801
 11
25.203079499999944
 21
767.98864700000001
  0
LINE
  8
_0-0_0
  6
CONTINUOUS
 62
    7
 10
24.963699499999962
 20
768.36773700000003
 11
25.216781500000025
 21
768.25
  0
LINE
  8
_0-0_0
  6
CONTINUOUS
 62
    7
 10
24.963699499999962
 20
768.13223300000004
 11
25.216781500000025
 21
768.25
  0
LINE
  8
_0-0_0
  6
CONTINUOUS
 62
    7
 10
24.939086499999917
 20
768.60195900000008
 11
25.203079499999944
 21
768.51129200000003
  0
LINE
  8
_0-0_0
  6
CONTINUOUS
 62
    7
 10
24.963699499999962
 20
768.36773700000003
 11
25.203079499999944
 21
768.51129200000003
  0
LINE
  8
_0-0_0
  6
CONTINUOUS
 62
    7
 10
24.890121499999964
 20
768.83233599999994
 11
25.162155499999926
 21
768.76977499999998
  0
LINE
  8
_0-0_0
  6
CONTINUOUS
 62
    7
 10
24.939086499999917
 20
768.60195900000008
 11
25.162155499999926
 21
768.76977499999998
  0
LINE
  8
_0-0_0
  6
CONTINUOUS
 62
    7
 10
24.81733650000001
 20
769.05630500000007
 11
25.094421499999953
 21
769.02252199999998
  0
LINE
  8
_0-0_0
  6
CONTINUOUS
 62
    7
 10
24.890121499999964
 20
768.83233599999994
 11
25.094421499999953
 21
769.02252199999998
  0
LINE
  8
_0-0_0
  6
CONTINUOUS
 62
    7
 10
24.721542499999941
 20
769.27145399999995
 11
25.000640499999918
 21
769.26681499999995
  0
LINE
  8
_0-0_0
  6
CONTINUOUS
 62
    7
 10
24.81733650000001
 20
769.05630500000007
 11
25.000640499999918
 21
769.26681499999995
  0
CIRCLE
  8
_0-0_0
  6
CONTINUOUS
 62
    7
 10
22.716781500000025
 20
768.25
 40
2
  0
CIRCLE
  8
_0-0_0
  6
CONTINUOUS
 62
    7
 10
16.716781500000025
 20
759.94998199999998
 40
5
  0
LINE
  8
_0-0_0
  6
CONTINUOUS
 62
    7
 10
23.298889499999973
 20
767.25
 11
22.134673499999963
 21
767.25
  0
LINE
  8
_0-0_0
  6
CONTINUOUS
 62
    7
 10
22.134673499999963
 20
767.25
 11
21.566787499999919
 21
768.25
  0
LINE
  8
_0-0_0
  6
CONTINUOUS
 62
    7
 10
21.566787499999919
 20
768.25
 11
22.134673499999963
 21
769.25
  0
LINE
  8
_0-0_0
  6
CONTINUOUS
 62
    7
 10
22.134673499999963
 20
769.25
 11
23.298889499999973
 21
769.25
  0
LINE
  8
_0-0_0
  6
CONTINUOUS
 62
    7
 10
23.298889499999973
 20
769.25
 11
23.866775499999903
 21
768.25
  0
LINE
  8
_0-0_0
  6
CONTINUOUS
 62
    7
 10
23.866775499999903
 20
768.25
 11
23.298889499999973
 21
767.25
  0
CIRCLE
  8
_0-0_0
  6
CONTINUOUS
 62
    7
 10
16.716781500000025
 20
759.94998199999998
 40
4.5381200000000002
  0
CIRCLE
  8
_0-0_0
  6
CONTINUOUS
 62
    7
 10
16.716781500000025
 20
759.94998199999998
 40
4
  0
LINE
  8
_0-0_0
  6
CONTINUOUS
 62
    7
 10
8.82977249999999
 20
750.42453
 11
8.5517115000000103
 21
750.39999399999999
  0
LINE
  8
_0-0_0
  6
CONTINUOUS
 62
    7
 10
8.7120204999999942
 20
750.62851000000001
 11
8.5517115000000103
 21
750.39999399999999
  0
LINE
  8
_0-0_0
  6
CONTINUOUS
 62
    7
 10
8.9682004999999663
 20
750.23400900000001
 11
8.694244499999968
 21
750.18051100000002
  0
LINE
  8
_0-0_0
  6
CONTINUOUS
 62
    7
 10
8.82977249999999
 20
750.42453
 11
8.694244499999968
 21
750.18051100000002
  0
LINE
  8
_0-0_0
  6
CONTINUOUS
 62
    7
 10
9.1257934999999861
 20
750.05898999999999
 11
8.8589174999999614
 21
749.97717299999999
  0
LINE
  8
_0-0_0
  6
CONTINUOUS
 62
    7
 10
8.9682004999999663
 20
750.23400900000001
 11
8.8589174999999614
 21
749.97717299999999
  0
LINE
  8
_0-0_0
  6
CONTINUOUS
 62
    7
 10
9.3008115000000089
 20
749.90139799999997
 11
9.0439604999999119
 21
749.79211400000008
  0
LINE
  8
_0-0_0
  6
CONTINUOUS
 62
    7
 10
9.1257934999999861
 20
750.05898999999999
 11
9.0439604999999119
 21
749.79211400000008
  0
LINE
  8
_0-0_0
  6
CONTINUOUS
 62
    7
 10
9.4913484999999582
 20
749.76297
 11
9.2473144999999022
 21
749.62744099999998
  0
LINE
  8
_0-0_0
  6
CONTINUOUS
 62
    7
 10
9.3008115000000089
 20
749.90139799999997
 11
9.2473144999999022
 21
749.62744099999998
  0
LINE
  8
_0-0_0
  6
CONTINUOUS
 62
    7
 10
9.6952974999999242
 20
749.64520300000004
 11
9.4667815000000246
 21
749.48492399999998
  0
LINE
  8
_0-0_0
  6
CONTINUOUS
 62
    7
 10
9.4913484999999582
 20
749.76297
 11
9.4667815000000246
 21
749.48492399999998
  0
LINE
  8
_0-0_0
  6
CONTINUOUS
 62
    7
 10
9.9104614999999967
 20
749.54943800000001
 11
9.6999354999999241
 21
749.36611900000003
  0
LINE
  8
_0-0_0
  6
CONTINUOUS
 62
    7
 10
9.6952974999999242
 20
749.64520300000004
 11
9.6999354999999241
 21
749.36611900000003
  0
LINE
  8
_0-0_0
  6
CONTINUOUS
 62
    7
 10
10.13444549999997
 20
749.47665400000005
 11
9.944244499999968
 21
749.27233899999999
  0
LINE
  8
_0-0_0
  6
CONTINUOUS
 62
    7
 10
9.9104614999999967
 20
749.54943800000001
 11
9.944244499999968
 21
749.27233899999999
  0
LINE
  8
_0-0_0
  6
CONTINUOUS
 62
    7
 10
10.364807499999984
 20
749.42770399999995
 11
10.197006499999929
 21
749.20461999999998
  0
LINE
  8
_0-0_0
  6
CONTINUOUS
 62
    7
 10
10.13444549999997
 20
749.47665400000005
 11
10.197006499999929
 21
749.20461999999998
  0
LINE
  8
_0-0_0
  6
CONTINUOUS
 62
    7
 10
10.599029499999915
 20
749.40307600000006
 11
10.455459499999961
 21
749.16369600000007
  0
LINE
  8
_0-0_0
  6
CONTINUOUS
 62
    7
 10
10.364807499999984
 20
749.42770399999995
 11
10.455459499999961
 21
749.16369600000007
  0
LINE
  8
_0-0_0
  6
CONTINUOUS
 62
    7
 10
10.834533499999907
 20
749.40307600000006
 11
10.716781500000025
 21
749.14999399999999
  0
LINE
  8
_0-0_0
  6
CONTINUOUS
 62
    7
 10
10.599029499999915
 20
749.40307600000006
 11
10.716781500000025
 21
749.14999399999999
  0
LINE
  8
_0-0_0
  6
CONTINUOUS
 62
    7
 10
11.068755499999952
 20
749.42770399999995
 11
10.978103499999975
 21
749.16369600000007
  0
LINE
  8
_0-0_0
  6
CONTINUOUS
 62
    7
 10
10.834533499999907
 20
749.40307600000006
 11
10.978103499999975
 21
749.16369600000007
  0
LINE
  8
_0-0_0
  6
CONTINUOUS
 62
    7
 10
11.299117499999966
 20
749.47665400000005
 11
11.236556500000006
 21
749.20461999999998
  0
LINE
  8
_0-0_0
  6
CONTINUOUS
 62
    7
 10
11.068755499999952
 20
749.42770399999995
 11
11.236556500000006
 21
749.20461999999998
  0
LINE
  8
_0-0_0
  6
CONTINUOUS
 62
    7
 10
11.523116500000015
 20
749.54943800000001
 11
11.489318499999968
 21
749.27233899999999
  0
LINE
  8
_0-0_0
  6
CONTINUOUS
 62
    7
 10
11.299117499999966
 20
749.47665400000005
 11
11.489318499999968
 21
749.27233899999999
  0
LINE
  8
_0-0_0
  6
CONTINUOUS
 62
    7
 10
11.738265499999898
 20
749.64520300000004
 11
11.733627500000011
 21
749.36611900000003
  0
LINE
  8
_0-0_0
  6
CONTINUOUS
 62
    7
 10
11.523116500000015
 20
749.54943800000001
 11
11.733627500000011
 21
749.36611900000003
  0
LINE
  8
_0-0_0
  6
CONTINUOUS
 62
    7
 10
11.857803499999932
 20
749.56137100000001
 11
11.966781500000025
 21
749.48492399999998
  0
LINE
  8
_0-0_0
  6
CONTINUOUS
 62
    7
 10
11.738265499999898
 20
749.64520300000004
 11
11.857803499999932
 21
749.56137100000001
  0
LINE
  8
_0-0_0
  6
CONTINUOUS
 62
    7
 10
11.942214499999977
 20
749.76297
 11
11.966781500000025
 21
749.48492399999998
  0
LINE
  8
_0-0_0
  6
CONTINUOUS
 62
    7
 10
12.132751499999927
 20
749.90139799999997
 11
12.18624849999992
 21
749.62744099999998
  0
LINE
  8
_0-0_0
  6
CONTINUOUS
 62
    7
 10
11.942214499999977
 20
749.76297
 11
12.18624849999992
 21
749.62744099999998
  0
LINE
  8
_0-0_0
  6
CONTINUOUS
 62
    7
 10
12.307769499999949
 20
750.05898999999999
 11
12.38960249999991
 21
749.79211400000008
  0
LINE
  8
_0-0_0
  6
CONTINUOUS
 62
    7
 10
12.132751499999927
 20
749.90139799999997
 11
12.38960249999991
 21
749.79211400000008
  0
LINE
  8
_0-0_0
  6
CONTINUOUS
 62
    7
 10
12.465362499999969
 20
750.23400900000001
 11
12.574645499999974
 21
749.97717299999999
  0
LINE
  8
_0-0_0
  6
CONTINUOUS
 62
    7
 10
12.307769499999949
 20
750.05898999999999
 11
12.574645499999974
 21
749.97717299999999
  0
LINE
  8
_0-0_0
  6
CONTINUOUS
 62
    7
 10
12.603790499999945
 20
750.42453
 11
12.739318499999968
 21
750.18051100000002
  0
LINE
  8
_0-0_0
  6
CONTINUOUS
 62
    7
 10
12.465362499999969
 20
750.23400900000001
 11
12.739318499999968
 21
750.18051100000002
  0
LINE
  8
_0-0_0
  6
CONTINUOUS
 62
    7
 10
12.721542499999941
 20
750.62851000000001
 11
12.881851499999925
 21
750.39999399999999
  0
LINE
  8
_0-0_0
  6
CONTINUOUS
 62
    7
 10
12.603790499999945
 20
750.42453
 11
12.881851499999925
 21
750.39999399999999
  0
LINE
  8
_0-0_0
  6
CONTINUOUS
 62
    7
 10
12.81733650000001
 20
750.843658
 11
13.000640499999918
 21
750.63314800000001
  0
LINE
  8
_0-0_0
  6
CONTINUOUS
 62
    7
 10
12.721542499999941
 20
750.62851000000001
 11
13.000640499999918
 21
750.63314800000001
  0
LINE
  8
_0-0_0
  6
CONTINUOUS
 62
    7
 10
12.890121499999964
 20
751.06762700000002
 11
13.094421499999953
 21
750.87744099999998
  0
LINE
  8
_0-0_0
  6
CONTINUOUS
 62
    7
 10
12.81733650000001
 20
750.843658
 11
13.094421499999953
 21
750.87744099999998
  0
LINE
  8
_0-0_0
  6
CONTINUOUS
 62
    7
 10
12.939086499999917
 20
751.29800399999999
 11
13.162155499999926
 21
751.13018799999998
  0
LINE
  8
_0-0_0
  6
CONTINUOUS
 62
    7
 10
12.890121499999964
 20
751.06762700000002
 11
13.162155499999926
 21
751.13018799999998
  0
LINE
  8
_0-0_0
  6
CONTINUOUS
 62
    7
 10
12.963699499999962
 20
751.53222699999992
 11
13.203079499999944
 21
751.38867200000004
  0
LINE
  8
_0-0_0
  6
CONTINUOUS
 62
    7
 10
12.939086499999917
 20
751.29800399999999
 11
13.203079499999944
 21
751.38867200000004
  0
LINE
  8
_0-0_0
  6
CONTINUOUS
 62
    7
 10
12.963699499999962
 20
751.76773100000003
 11
13.216781500000025
 21
751.64999399999999
  0
LINE
  8
_0-0_0
  6
CONTINUOUS
 62
    7
 10
12.963699499999962
 20
751.53222699999992
 11
13.216781500000025
 21
751.64999399999999
  0
LINE
  8
_0-0_0
  6
CONTINUOUS
 62
    7
 10
12.939086499999917
 20
752.00195299999996
 11
13.203079499999944
 21
751.91131599999994
  0
LINE
  8
_0-0_0
  6
CONTINUOUS
 62
    7
 10
12.963699499999962
 20
751.76773100000003
 11
13.203079499999944
 21
751.91131599999994
  0
LINE
  8
_0-0_0
  6
CONTINUOUS
 62
    7
 10
12.890121499999964
 20
752.23233000000005
 11
13.162155499999926
 21
752.16976899999997
  0
LINE
  8
_0-0_0
  6
CONTINUOUS
 62
    7
 10
12.939086499999917
 20
752.00195299999996
 11
13.162155499999926
 21
752.16976899999997
  0
LINE
  8
_0-0_0
  6
CONTINUOUS
 62
    7
 10
12.81733650000001
 20
752.45629899999994
 11
13.094421499999953
 21
752.42251599999997
  0
LINE
  8
_0-0_0
  6
CONTINUOUS
 62
    7
 10
12.890121499999964
 20
752.23233000000005
 11
13.094421499999953
 21
752.42251599999997
  0
LINE
  8
_0-0_0
  6
CONTINUOUS
 62
    7
 10
12.721542499999941
 20
752.67144800000005
 11
13.000640499999918
 21
752.66680900000006
  0
LINE
  8
_0-0_0
  6
CONTINUOUS
 62
    7
 10
12.81733650000001
 20
752.45629899999994
 11
13.000640499999918
 21
752.66680900000006
  0
LINE
  8
_0-0_0
  6
CONTINUOUS
 62
    7
 10
12.603790499999945
 20
752.87542699999995
 11
12.881851499999925
 21
752.89999399999999
  0
LINE
  8
_0-0_0
  6
CONTINUOUS
 62
    7
 10
12.721542499999941
 20
752.67144800000005
 11
12.881851499999925
 21
752.89999399999999
  0
LINE
  8
_0-0_0
  6
CONTINUOUS
 62
    7
 10
9.3008115000000089
 20
753.39855999999997
 11
9.2473144999999022
 21
753.67251599999997
  0
LINE
  8
_0-0_0
  6
CONTINUOUS
 62
    7
 10
9.3008115000000089
 20
753.39855999999997
 11
9.0439604999999119
 21
753.50784299999998
  0
LINE
  8
_0-0_0
  6
CONTINUOUS
 62
    7
 10
9.1257934999999861
 20
753.24096699999996
 11
9.0439604999999119
 21
753.50784299999998
  0
LINE
  8
_0-0_0
  6
CONTINUOUS
 62
    7
 10
9.1257934999999861
 20
753.24096699999996
 11
8.8589174999999614
 21
753.32281499999999
  0
LINE
  8
_0-0_0
  6
CONTINUOUS
 62
    7
 10
8.9682004999999663
 20
753.06594799999993
 11
8.8589174999999614
 21
753.32281499999999
  0
LINE
  8
_0-0_0
  6
CONTINUOUS
 62
    7
 10
8.9682004999999663
 20
753.06594799999993
 11
8.694244499999968
 21
753.11944599999993
  0
LINE
  8
_0-0_0
  6
CONTINUOUS
 62
    7
 10
8.82977249999999
 20
752.87542699999995
 11
8.694244499999968
 21
753.11944599999993
  0
LINE
  8
_0-0_0
  6
CONTINUOUS
 62
    7
 10
8.82977249999999
 20
752.87542699999995
 11
8.5517115000000103
 21
752.89999399999999
  0
LINE
  8
_0-0_0
  6
CONTINUOUS
 62
    7
 10
8.7120204999999942
 20
752.67144800000005
 11
8.5517115000000103
 21
752.89999399999999
  0
LINE
  8
_0-0_0
  6
CONTINUOUS
 62
    7
 10
8.7120204999999942
 20
752.67144800000005
 11
8.4329224999999042
 21
752.66680900000006
  0
LINE
  8
_0-0_0
  6
CONTINUOUS
 62
    7
 10
8.6162264999999252
 20
752.45629899999994
 11
8.4329224999999042
 21
752.66680900000006
  0
LINE
  8
_0-0_0
  6
CONTINUOUS
 62
    7
 10
8.6162264999999252
 20
752.45629899999994
 11
8.3391414999999824
 21
752.42251599999997
  0
LINE
  8
_0-0_0
  6
CONTINUOUS
 62
    7
 10
8.5434414999999717
 20
752.23233000000005
 11
8.3391414999999824
 21
752.42251599999997
  0
LINE
  8
_0-0_0
  6
CONTINUOUS
 62
    7
 10
8.5434414999999717
 20
752.23233000000005
 11
8.2714074999998957
 21
752.16976899999997
  0
LINE
  8
_0-0_0
  6
CONTINUOUS
 62
    7
 10
8.4944765000000189
 20
752.00195299999996
 11
8.2714074999998957
 21
752.16976899999997
  0
LINE
  8
_0-0_0
  6
CONTINUOUS
 62
    7
 10
8.4944765000000189
 20
752.00195299999996
 11
8.2304834999999912
 21
751.91131599999994
  0
LINE
  8
_0-0_0
  6
CONTINUOUS
 62
    7
 10
8.469863499999974
 20
751.76773100000003
 11
8.2304834999999912
 21
751.91131599999994
  0
LINE
  8
_0-0_0
  6
CONTINUOUS
 62
    7
 10
8.469863499999974
 20
751.76773100000003
 11
8.2167815000000246
 21
751.64999399999999
  0
LINE
  8
_0-0_0
  6
CONTINUOUS
 62
    7
 10
8.469863499999974
 20
751.53222699999992
 11
8.2167815000000246
 21
751.64999399999999
  0
LINE
  8
_0-0_0
  6
CONTINUOUS
 62
    7
 10
8.469863499999974
 20
751.53222699999992
 11
8.2304834999999912
 21
751.38867200000004
  0
LINE
  8
_0-0_0
  6
CONTINUOUS
 62
    7
 10
8.4944765000000189
 20
751.29800399999999
 11
8.2304834999999912
 21
751.38867200000004
  0
LINE
  8
_0-0_0
  6
CONTINUOUS
 62
    7
 10
8.4944765000000189
 20
751.29800399999999
 11
8.2714074999998957
 21
751.13018799999998
  0
LINE
  8
_0-0_0
  6
CONTINUOUS
 62
    7
 10
8.5434414999999717
 20
751.06762700000002
 11
8.2714074999998957
 21
751.13018799999998
  0
LINE
  8
_0-0_0
  6
CONTINUOUS
 62
    7
 10
8.5434414999999717
 20
751.06762700000002
 11
8.3391414999999824
 21
750.87744099999998
  0
LINE
  8
_0-0_0
  6
CONTINUOUS
 62
    7
 10
8.6162264999999252
 20
750.843658
 11
8.3391414999999824
 21
750.87744099999998
  0
LINE
  8
_0-0_0
  6
CONTINUOUS
 62
    7
 10
8.6162264999999252
 20
750.843658
 11
8.4329224999999042
 21
750.63314800000001
  0
LINE
  8
_0-0_0
  6
CONTINUOUS
 62
    7
 10
8.7120204999999942
 20
750.62851000000001
 11
8.4329224999999042
 21
750.63314800000001
  0
CIRCLE
  8
_0-0_0
  6
CONTINUOUS
 62
    7
 10
10.716781500000025
 20
751.64999399999999
 40
2
  0
LINE
  8
_0-0_0
  6
CONTINUOUS
 62
    7
 10
9.5757595000000038
 20
753.73858599999994
 11
9.4667815000000246
 21
753.81506300000001
  0
LINE
  8
_0-0_0
  6
CONTINUOUS
 62
    7
 10
9.4913484999999582
 20
753.53698699999995
 11
9.4667815000000246
 21
753.81506300000001
  0
LINE
  8
_0-0_0
  6
CONTINUOUS
 62
    7
 10
9.4913484999999582
 20
753.53698699999995
 11
9.2473144999999022
 21
753.67251599999997
  0
LINE
  8
_0-0_0
  6
CONTINUOUS
 62
    7
 10
12.603790499999945
 20
752.87542699999995
 11
12.739318499999968
 21
753.11944599999993
  0
LINE
  8
_0-0_0
  6
CONTINUOUS
 62
    7
 10
12.465362499999969
 20
753.06594799999993
 11
12.739318499999968
 21
753.11944599999993
  0
LINE
  8
_0-0_0
  6
CONTINUOUS
 62
    7
 10
12.465362499999969
 20
753.06594799999993
 11
12.574645499999974
 21
753.32281499999999
  0
LINE
  8
_0-0_0
  6
CONTINUOUS
 62
    7
 10
12.307769499999949
 20
753.24096699999996
 11
12.574645499999974
 21
753.32281499999999
  0
LINE
  8
_0-0_0
  6
CONTINUOUS
 62
    7
 10
12.307769499999949
 20
753.24096699999996
 11
12.38960249999991
 21
753.50784299999998
  0
LINE
  8
_0-0_0
  6
CONTINUOUS
 62
    7
 10
12.132751499999927
 20
753.39855999999997
 11
12.38960249999991
 21
753.50784299999998
  0
LINE
  8
_0-0_0
  6
CONTINUOUS
 62
    7
 10
12.132751499999927
 20
753.39855999999997
 11
12.18624849999992
 21
753.67251599999997
  0
LINE
  8
_0-0_0
  6
CONTINUOUS
 62
    7
 10
11.942214499999977
 20
753.53698699999995
 11
12.18624849999992
 21
753.67251599999997
  0
LINE
  8
_0-0_0
  6
CONTINUOUS
 62
    7
 10
11.942214499999977
 20
753.53698699999995
 11
11.966781500000025
 21
753.81506300000001
  0
LINE
  8
_0-0_0
  6
CONTINUOUS
 62
    7
 10
11.738265499999898
 20
753.65475500000002
 11
11.966781500000025
 21
753.81506300000001
  0
LINE
  8
_0-0_0
  6
CONTINUOUS
 62
    7
 10
11.738265499999898
 20
753.65475500000002
 11
11.733627500000011
 21
753.93383799999992
  0
LINE
  8
_0-0_0
  6
CONTINUOUS
 62
    7
 10
11.523116500000015
 20
753.75054899999998
 11
11.733627500000011
 21
753.93383799999992
  0
LINE
  8
_0-0_0
  6
CONTINUOUS
 62
    7
 10
11.523116500000015
 20
753.75054899999998
 11
11.489318499999968
 21
754.02761800000007
  0
LINE
  8
_0-0_0
  6
CONTINUOUS
 62
    7
 10
11.299117499999966
 20
753.82330300000001
 11
11.489318499999968
 21
754.02761800000007
  0
LINE
  8
_0-0_0
  6
CONTINUOUS
 62
    7
 10
11.299117499999966
 20
753.82330300000001
 11
11.236556500000006
 21
754.09533699999997
  0
LINE
  8
_0-0_0
  6
CONTINUOUS
 62
    7
 10
11.068755499999952
 20
753.87228400000004
 11
11.236556500000006
 21
754.09533699999997
  0
LINE
  8
_0-0_0
  6
CONTINUOUS
 62
    7
 10
11.068755499999952
 20
753.87228400000004
 11
10.978103499999975
 21
754.13629200000003
  0
LINE
  8
_0-0_0
  6
CONTINUOUS
 62
    7
 10
10.834533499999907
 20
753.89691199999993
 11
10.978103499999975
 21
754.13629200000003
  0
LINE
  8
_0-0_0
  6
CONTINUOUS
 62
    7
 10
10.834533499999907
 20
753.89691199999993
 11
10.716781500000025
 21
754.14999399999999
  0
LINE
  8
_0-0_0
  6
CONTINUOUS
 62
    7
 10
10.599029499999915
 20
753.89691199999993
 11
10.716781500000025
 21
754.14999399999999
  0
LINE
  8
_0-0_0
  6
CONTINUOUS
 62
    7
 10
10.599029499999915
 20
753.89691199999993
 11
10.455459499999961
 21
754.13629200000003
  0
LINE
  8
_0-0_0
  6
CONTINUOUS
 62
    7
 10
10.364807499999984
 20
753.87228400000004
 11
10.455459499999961
 21
754.13629200000003
  0
LINE
  8
_0-0_0
  6
CONTINUOUS
 62
    7
 10
10.364807499999984
 20
753.87228400000004
 11
10.197006499999929
 21
754.09533699999997
  0
LINE
  8
_0-0_0
  6
CONTINUOUS
 62
    7
 10
10.13444549999997
 20
753.82330300000001
 11
10.197006499999929
 21
754.09533699999997
  0
LINE
  8
_0-0_0
  6
CONTINUOUS
 62
    7
 10
10.13444549999997
 20
753.82330300000001
 11
9.944244499999968
 21
754.02761800000007
  0
LINE
  8
_0-0_0
  6
CONTINUOUS
 62
    7
 10
9.9104614999999967
 20
753.75054899999998
 11
9.944244499999968
 21
754.02761800000007
  0
LINE
  8
_0-0_0
  6
CONTINUOUS
 62
    7
 10
9.9104614999999967
 20
753.75054899999998
 11
9.6999354999999241
 21
753.93383799999992
  0
LINE
  8
_0-0_0
  6
CONTINUOUS
 62
    7
 10
9.6952974999999242
 20
753.65475500000002
 11
9.6999354999999241
 21
753.93383799999992
  0
LINE
  8
_0-0_0
  6
CONTINUOUS
 62
    7
 10
9.6952974999999242
 20
753.65475500000002
 11
9.5757595000000038
 21
753.73858599999994
  0
LINE
  8
_0-0_0
  6
CONTINUOUS
 62
    7
 10
11.298889499999973
 20
750.64999399999999
 11
10.134673499999963
 21
750.64999399999999
  0
LINE
  8
_0-0_0
  6
CONTINUOUS
 62
    7
 10
10.134673499999963
 20
750.64999399999999
 11
9.5667874999999185
 21
751.64999399999999
  0
LINE
  8
_0-0_0
  6
CONTINUOUS
 62
    7
 10
9.5667874999999185
 20
751.64999399999999
 11
10.134673499999963
 21
752.64999399999999
  0
LINE
  8
_0-0_0
  6
CONTINUOUS
 62
    7
 10
10.134673499999963
 20
752.64999399999999
 11
11.298889499999973
 21
752.64999399999999
  0
LINE
  8
_0-0_0
  6
CONTINUOUS
 62
    7
 10
11.298889499999973
 20
752.64999399999999
 11
11.866775499999903
 21
751.64999399999999
  0
LINE
  8
_0-0_0
  6
CONTINUOUS
 62
    7
 10
11.866775499999903
 20
751.64999399999999
 11
11.298889499999973
 21
750.64999399999999
  0
LINE
  8
_0-0_0
  6
CONTINUOUS
 62
    7
 10
25.416778499999964
 20
769.05029300000001
 11
25.416778499999964
 21
769.05627400000003
  0
LINE
  8
_0-0_0
  6
CONTINUOUS
 62
    7
 10
25.416778499999964
 20
770.25
 11
25.416412499999979
 21
770.23788500000001
  0
LINE
  8
_0-0_0
  6
CONTINUOUS
 62
    7
 10
25.416412499999979
 20
749.66210899999999
 11
25.416778499999964
 21
749.64999399999999
  0
ARC
  8
_0-0_0
  6
CONTINUOUS
 62
    7
 10
10.216781500000025
 20
768.75
 40
2
 50
90.000003000000007
 51
93.840255999999997
  0
ARC
  8
_0-0_0
  6
CONTINUOUS
 62
    7
 10
23.216781500000025
 20
751.14999399999999
 40
2
 50
269.99999700000001
 51
273.84026499999999
  0
ENDSEC
  0
EOF
