  0
SECTION
  2
HEADER
  9
$ACADVER
  1
AC1009
  9
$INSBASE
 10
0
 20
0
 30
0
  9
$EXTMIN
 10
0
 20
0
  9
$EXTMAX
 10
841
 20
594
  9
$LIMMIN
 10
0
 20
0
  9
$LIMMAX
 10
841
 20
594
  9
$LTSCALE
 40
1
  0
ENDSEC
  0
SECTION
  2
TABLES
  0
TABLE
  2
LTYPE
 70
     9
  0
LTYPE
  2
CONTINUOUS
 70
    64
  3
実線
 72
    65
 73
     0
 40
0.0
  0
LTYPE
  2
DASHED1
 70
    64
  3
--  --  --  --  --  --  --  --  
 72
    65
 73
     2
 40
2.5
 49
1.25
 49
-1.25
  0
LTYPE
  2
DASHED2
 70
    64
  3
----    ----    ----    ----    
 72
    65
 73
     2
 40
5.0
 49
2.5
 49
-2.5
  0
LTYPE
  2
DASHED3
 70
    64
  3
------  ------  ------  ------  
 72
    65
 73
     2
 40
5.0
 49
3.75
 49
-1.25
  0
LTYPE
  2
CENTER1
 70
    64
  3
----- - ----- - ----- - ----- - 
 72
    65
 73
     4
 40
10.0
 49
6.25
 49
-1.25
 49
1.25
 49
-1.25
  0
LTYPE
  2
CENTER2
 70
    64
  3
----------  --  ----------  --  
 72
    65
 73
     4
 40
20.0
 49
12.5
 49
-2.5
 49
2.5
 49
-2.5
  0
LTYPE
  2
PHANTOM1
 70
    64
  3
--- - - --- - - --- - - --- - - 
 72
    65
 73
     6
 40
10.0
 49
3.25
 49
-1.25
 49
1.25
 49
-1.25
 49
1.25
 49
-1.25
  0
LTYPE
  2
PHANTOM2
 70
    64
  3
--------  -  -  --------  -  -  
 72
    65
 73
     6
 40
20.0
 49
10.0
 49
-2.5
 49
1.25
 49
-2.5
 49
1.25
 49
-2.5
  0
LTYPE
  2
DOT
 70
    64
  3
-   -   -   -   -   -   -   -   
 72
    65
 73
     2
 40
2.5
 49
0.625
 49
-1.875
  0
LTYPE
  2
DUMMY
 70
    64
  3
ダミー
 72
    65
 73
     0
 40
0.0
  0
LTYPE
  2
RAND1
 70
    64
  3
ランダム線1
 72
    65
 73
     4
 40
10.0
 49
1.0
 49
-2.0
 49
3.0
 49
-4.0
  0
LTYPE
  2
RAND2
 70
    64
  3
ランダム線2
 72
    65
 73
     4
 40
14.0
 49
2.0
 49
-3.0
 49
4.0
 49
-5.0
  0
LTYPE
  2
RAND3
 70
    64
  3
ランダム線3
 72
    65
 73
     4
 40
18.0
 49
3.0
 49
-4.0
 49
5.0
 49
-6.0
  0
LTYPE
  2
RAND4
 70
    64
  3
ランダム線4
 72
    65
 73
     4
 40
22.0
 49
4.0
 49
-5.0
 49
6.0
 49
-7.0
  0
LTYPE
  2
RAND5
 70
    64
  3
ランダム線5
 72
    65
 73
     4
 40
26.0
 49
5.0
 49
-6.0
 49
7.0
 49
-8.0
  0
LTYPE
  2
LONG1
 70
    64
  3
----------  --  ----------  --  
 72
    65
 73
     4
 40
40.0
 49
32.5
 49
-2.5
 49
2.5
 49
-2.5
  0
LTYPE
  2
LONG2
 70
    64
  3
--------  -  -  --------  -  -  
 72
    65
 73
     6
 40
40.0
 49
30.0
 49
-2.5
 49
1.25
 49
-2.5
 49
1.25
 49
-2.5
  0
LTYPE
  2
LONG3
 70
    64
  3
+++++++++++++++..+++++++++++++++
 72
    65
 73
     2
 40
40.0
 49
37.5
 49
-2.5
  0
LTYPE
  2
LONG4
 70
    64
  3
+++++++++++++++..+++++++++++++++
 72
    65
 73
     2
 40
80.0
 49
75.0
 49
-5.0
  0
LTYPE
  2
LONG5
 70
    64
  3
----------  --  ----------  --  
 72
    65
 73
     4
 40
60.0
 49
37.5
 49
-7.5
 49
7.5
 49
-7.5
  0
LTYPE
  2
dashed
 70
   64
  3
-------   -------------   ------
 72
   65
 73
    2
 40
7.5
 49
6
 49
-1.5
  0
LTYPE
  2
dashed_spaced
 70
   64
  3
----        --------        ----
 72
   65
 73
    2
 40
12
 49
6
 49
-6
  0
LTYPE
  2
long_dashed_dotted
 70
   64
  3
------------- --- --------------
 72
   65
 73
    4
 40
15.25
 49
12
 49
-1.5
 49
0.25
 49
-1.5
  0
LTYPE
  2
long_dashed_double-dotted
 70
   64
  3
----------- --- --- ------------
 72
   65
 73
    6
 40
17
 49
12
 49
-1.5
 49
0.25
 49
-1.5
 49
0.25
 49
-1.5
  0
LTYPE
  2
long_dashed_triplicate-dotted
 70
   64
  3
--------- --- --- --- ----------
 72
   65
 73
    8
 40
18.75
 49
12
 49
-1.5
 49
0.25
 49
-1.5
 49
0.25
 49
-1.5
 49
0.25
 49
-1.5
  0
LTYPE
  2
dotted
 70
   64
  3
   -       -       -       -    
 72
   65
 73
    2
 40
1.75
 49
0.25
 49
-1.5
  0
LTYPE
  2
chain
 70
   64
  3
-------------- -- --------------
 72
   65
 73
    4
 40
18.5
 49
12
 49
-1.5
 49
3.5
 49
-1.5
  0
LTYPE
  2
chain_double_dash
 70
   64
  3
------------ -- -- -------------
 72
   65
 73
    6
 40
23.5
 49
12
 49
-1.5
 49
3.5
 49
-1.5
 49
3.5
 49
-1.5
  0
LTYPE
  2
dashed_dotted
 70
   64
  3
-----------     -     ----------
 72
   65
 73
    4
 40
9.25
 49
6
 49
-1.5
 49
0.25
 49
-1.5
  0
LTYPE
  2
double-dashed_dotted
 70
   64
  3
------   -----------   -   -----
 72
   65
 73
    6
 40
16.75
 49
6
 49
-1.5
 49
6
 49
-1.5
 49
0.25
 49
-1.5
  0
LTYPE
  2
dashed_double-dotted
 70
   64
  3
---------    -    -    ---------
 72
   65
 73
    6
 40
11
 49
6
 49
-1.5
 49
0.25
 49
-1.5
 49
0.25
 49
-1.5
  0
LTYPE
  2
double-dashed_double-dotted
 70
   64
  3
-----   ---------   -   -   ----
 72
   65
 73
    8
 40
18.5
 49
6
 49
-1.5
 49
6
 49
-1.5
 49
0.25
 49
-1.5
 49
0.25
 49
-1.5
  0
LTYPE
  2
dashed_triplicate-dotted
 70
   64
  3
-------    -    -    -    ------
 72
   65
 73
    8
 40
12.75
 49
6
 49
-1.5
 49
0.25
 49
-1.5
 49
0.25
 49
-1.5
 49
0.25
 49
-1.5
  0
LTYPE
  2
double-dashed_triplicate-dotted
 70
   64
  3
-----  ---------  -  -  -  -----
 72
   65
 73
   10
 40
20.25
 49
6
 49
-1.5
 49
6
 49
-1.5
 49
0.25
 49
-1.5
 49
0.25
 49
-1.5
 49
0.25
 49
-1.5
  0
LTYPE
  2
undefined
 70
   64
  3
--------------------------------
 72
   65
 73
    0
 40
0
  0
ENDTAB
  0
TABLE
  2
STYLE
  5
3
100
AcDbSymbolTable
 70
     1
  0
STYLE
  5
10
100
AcDbSymbolTableRecord
100
AcDbTextStyleTableRecord
  2
STANDARD
 70
     0
 40
0.0
 41
1.0
 50
0.0
 71
     0
 42
0.2
  3
txt
  4
bigfont.shx
  0
STYLE
  5
26
100
AcDbSymbolTableRecord
100
AcDbTextStyleTableRecord
  2
TATEGAKI
 70
    68
 40
0.0
 41
1.0
 50
0.0
 71
     0
 42
1.0
  3
txt
  4
bigfont.shx
  0
ENDTAB
  0
TABLE
  2
LAYER
 70
    2
  0
LAYER
  2
_0-0_0
 70
   64
 62
    7
  6
CONTINUOUS
  0
LAYER
  2
ADD_LINE
 70
   64
 62
    7
  6
CONTINUOUS
  0
ENDTAB
  0
ENDSEC
  0
SECTION
  2
BLOCKS
  0
ENDSEC
  0
SECTION
  2
ENTITIES
  0
ARC
  8
_0-0_0
  6
CONTINUOUS
 62
    7
 10
1.2277674999999704
 20
468.34997600000003
 40
0.2
 50
269.99999700000001
 51
20.376440000000013
  0
LINE
  8
_0-0_0
  6
CONTINUOUS
 62
    7
 10
1.4152674999999704
 20
468.41961700000002
 11
0.1152494999999476
 21
471.91961700000002
  0
ARC
  8
_0-0_0
  6
CONTINUOUS
 62
    7
 10
-0.0722195000000738
 20
471.84997600000003
 40
0.2
 50
20.376439999999999
 51
159.62355600000001
  0
LINE
  8
_0-0_0
  6
CONTINUOUS
 62
    7
 10
-1.5597075000000586
 20
468.41961700000002
 11
-0.2597195000000738
 21
471.91961700000002
  0
ARC
  8
_0-0_0
  6
CONTINUOUS
 62
    7
 10
-1.3722385000000372
 20
468.34997600000003
 40
0.2
 50
159.62355600000001
 51
269.99999700000001
  0
LINE
  8
_0-0_0
  6
CONTINUOUS
 62
    7
 10
-1.3722385000000372
 20
468.14999399999999
 11
1.2277674999999704
 21
468.14999399999999
  0
LINE
  8
_0-0_0
  6
CONTINUOUS
 62
    7
 10
-164.00503950000007
 20
516.75271599999996
 11
-164.00503950000007
 21
516.75170900000001
  0
LINE
  8
_0-0_0
  6
CONTINUOUS
 62
    7
 10
1018.9277345
 20
505.14999399999999
 11
1018.9277345
 21
492.14999399999999
  0
LINE
  8
_0-0_0
  6
CONTINUOUS
 62
    7
 10
-54.072219500000074
 20
505.14999399999999
 11
-54.072219500000074
 21
492.14999399999999
  0
LINE
  8
_0-0_0
  6
CONTINUOUS
 62
    7
 10
-54.072219500000074
 20
505.14999399999999
 11
1018.9277345
 21
505.14999399999999
  0
LINE
  8
_0-0_0
  6
CONTINUOUS
 62
    7
 10
-54.072219500000074
 20
505.14999399999999
 11
-54.072219500000074
 21
523.75
  0
LINE
  8
_0-0_0
  6
CONTINUOUS
 62
    7
 10
-54.072219500000074
 20
526.25
 11
-54.072219500000074
 21
523.75
  0
LINE
  8
_0-0_0
  6
CONTINUOUS
 62
    7
 10
-54.072219500000074
 20
526.75
 11
-54.072219500000074
 21
526.25
  0
LINE
  8
_0-0_0
  6
CONTINUOUS
 62
    7
 10
-54.072219500000074
 20
478.75
 11
-54.072219500000074
 21
478.25
  0
LINE
  8
_0-0_0
  6
CONTINUOUS
 62
    7
 10
-54.072219500000074
 20
483.75
 11
-54.072219500000074
 21
478.75
  0
LINE
  8
_0-0_0
  6
CONTINUOUS
 62
    7
 10
-54.072219500000074
 20
484.25
 11
-54.072219500000074
 21
483.75
  0
LINE
  8
_0-0_0
  6
CONTINUOUS
 62
    7
 10
-54.072219500000074
 20
484.75
 11
-54.072219500000074
 21
484.25
  0
LINE
  8
_0-0_0
  6
CONTINUOUS
 62
    7
 10
-54.072219500000074
 20
487.94998199999998
 11
-54.072219500000074
 21
484.75
  0
LINE
  8
_0-0_0
  6
CONTINUOUS
 62
    7
 10
-54.072219500000074
 20
487.94998199999998
 11
-54.072219500000074
 21
492.14999399999999
  0
LINE
  8
_0-0_0
  6
CONTINUOUS
 62
    7
 10
-54.072219500000074
 20
492.14999399999999
 11
1018.9277345
 21
492.14999399999999
  0
LINE
  8
_0-0_0
  6
CONTINUOUS
 62
    7
 10
1018.9277345
 20
487.94998199999998
 11
1018.9277345
 21
492.14999399999999
  0
LINE
  8
_0-0_0
  6
CONTINUOUS
 62
    7
 10
1018.9277345
 20
484.75
 11
1018.9277345
 21
487.94998199999998
  0
LINE
  8
_0-0_0
  6
CONTINUOUS
 62
    7
 10
1018.9277345
 20
484.75
 11
1018.9277345
 21
484.25
  0
LINE
  8
_0-0_0
  6
CONTINUOUS
 62
    7
 10
1018.9277345
 20
484.25
 11
1018.9277345
 21
483.75
  0
LINE
  8
_0-0_0
  6
CONTINUOUS
 62
    7
 10
1018.9277345
 20
483.75
 11
1018.9277345
 21
478.75
  0
LINE
  8
_0-0_0
  6
CONTINUOUS
 62
    7
 10
1018.9277345
 20
478.75
 11
1018.9277345
 21
478.25
  0
LINE
  8
_0-0_0
  6
CONTINUOUS
 62
    7
 10
1018.9277345
 20
526.75
 11
1018.9277345
 21
526.25
  0
LINE
  8
_0-0_0
  6
CONTINUOUS
 62
    7
 10
1018.9277345
 20
523.75
 11
1018.9277345
 21
526.25
  0
LINE
  8
_0-0_0
  6
CONTINUOUS
 62
    7
 10
1018.9277345
 20
505.14999399999999
 11
1018.9277345
 21
523.75
  0
CIRCLE
  8
_0-0_0
  6
CONTINUOUS
 62
    7
 10
982.42773450000004
 20
514.25
 40
6
  0
CIRCLE
  8
_0-0_0
  6
CONTINUOUS
 62
    7
 10
882.42773450000004
 20
514.25
 40
6
  0
CIRCLE
  8
_0-0_0
  6
CONTINUOUS
 62
    7
 10
782.4277955
 20
514.25
 40
6
  0
CIRCLE
  8
_0-0_0
  6
CONTINUOUS
 62
    7
 10
682.4277955
 20
514.25
 40
6
  0
CIRCLE
  8
_0-0_0
  6
CONTINUOUS
 62
    7
 10
582.4277955
 20
514.25
 40
6
  0
CIRCLE
  8
_0-0_0
  6
CONTINUOUS
 62
    7
 10
482.4277955
 20
514.25
 40
6
  0
CIRCLE
  8
_0-0_0
  6
CONTINUOUS
 62
    7
 10
382.4277955
 20
514.25
 40
6
  0
CIRCLE
  8
_0-0_0
  6
CONTINUOUS
 62
    7
 10
282.42779549999995
 20
514.25
 40
6
  0
CIRCLE
  8
_0-0_0
  6
CONTINUOUS
 62
    7
 10
182.42779549999995
 20
514.25
 40
6
  0
CIRCLE
  8
_0-0_0
  6
CONTINUOUS
 62
    7
 10
82.427795499999945
 20
514.25
 40
6
  0
CIRCLE
  8
_0-0_0
  6
CONTINUOUS
 62
    7
 10
-17.572219500000074
 20
514.25
 40
6
  0
LINE
  8
_0-0_0
  6
CONTINUOUS
 62
    7
 10
-54.072219500000074
 20
523.75
 11
1018.9277345
 21
523.75
  0
LINE
  8
_0-0_0
  6
CONTINUOUS
 62
    7
 10
-54.072219500000074
 20
526.75
 11
1018.9277345
 21
526.75
  0
LINE
  8
_0-0_0
  6
CONTINUOUS
 62
    7
 10
-54.072219500000074
 20
526.25
 11
-56.572219500000074
 21
526.25
  0
LINE
  8
_0-0_0
  6
CONTINUOUS
 62
    7
 10
-56.572219500000074
 20
526.25
 11
-56.572219500000074
 21
525.75
  0
LINE
  8
_0-0_0
  6
CONTINUOUS
 62
    7
 10
-56.572219500000074
 20
525.75
 11
-56.572219500000074
 21
485.25
  0
LINE
  8
_0-0_0
  6
CONTINUOUS
 62
    7
 10
-54.072219500000074
 20
484.75
 11
-56.572219500000074
 21
484.75
  0
LINE
  8
_0-0_0
  6
CONTINUOUS
 62
    7
 10
-56.572219500000074
 20
485.25
 11
-56.572219500000074
 21
484.75
  0
LINE
  8
_0-0_0
  6
CONTINUOUS
 62
    7
 10
-56.572219500000074
 20
484.75
 11
-56.572219500000074
 21
483.75
  0
LINE
  8
_0-0_0
  6
CONTINUOUS
 62
    7
 10
-56.572219500000074
 20
483.75
 11
-56.572219500000074
 21
479.25
  0
LINE
  8
_0-0_0
  6
CONTINUOUS
 62
    7
 10
-54.072219500000074
 20
478.75
 11
-56.572219500000074
 21
478.75
  0
LINE
  8
_0-0_0
  6
CONTINUOUS
 62
    7
 10
-56.572219500000074
 20
479.25
 11
-56.572219500000074
 21
478.75
  0
LINE
  8
_0-0_0
  6
CONTINUOUS
 62
    7
 10
-54.072219500000074
 20
478.25
 11
1018.9277345
 21
478.25
  0
LINE
  8
_0-0_0
  6
CONTINUOUS
 62
    7
 10
-54.072219500000074
 20
484.25
 11
1018.9277345
 21
484.25
  0
LINE
  8
_0-0_0
  6
CONTINUOUS
 62
    7
 10
-54.072219500000074
 20
487.94998199999998
 11
1018.9277345
 21
487.94998199999998
  0
LINE
  8
_0-0_0
  6
CONTINUOUS
 62
    7
 10
1018.9277345
 20
526.25
 11
1021.4277345
 21
526.25
  0
LINE
  8
_0-0_0
  6
CONTINUOUS
 62
    7
 10
1021.4277345
 20
526.25
 11
1021.4277345
 21
525.75
  0
LINE
  8
_0-0_0
  6
CONTINUOUS
 62
    7
 10
1021.4277345
 20
525.75
 11
1021.4277345
 21
485.25
  0
LINE
  8
_0-0_0
  6
CONTINUOUS
 62
    7
 10
1018.9277345
 20
484.75
 11
1021.4277345
 21
484.75
  0
LINE
  8
_0-0_0
  6
CONTINUOUS
 62
    7
 10
1021.4277345
 20
485.25
 11
1021.4277345
 21
484.75
  0
LINE
  8
_0-0_0
  6
CONTINUOUS
 62
    7
 10
1021.4277345
 20
484.75
 11
1021.4277345
 21
483.75
  0
LINE
  8
_0-0_0
  6
CONTINUOUS
 62
    7
 10
1021.4277345
 20
483.75
 11
1021.4277345
 21
479.25
  0
LINE
  8
_0-0_0
  6
CONTINUOUS
 62
    7
 10
1018.9277345
 20
478.75
 11
1021.4277345
 21
478.75
  0
LINE
  8
_0-0_0
  6
CONTINUOUS
 62
    7
 10
1021.4277345
 20
479.25
 11
1021.4277345
 21
478.75
  0
ARC
  8
_0-0_0
  6
CONTINUOUS
 62
    7
 10
3.4277804999999262
 20
479.25
 40
0.5
 50
269.99999700000001
 51
0
  0
LINE
  8
_0-0_0
  6
CONTINUOUS
 62
    7
 10
3.4277804999999262
 20
478.75
 11
-3.5722195000000738
 21
478.75
  0
ARC
  8
_0-0_0
  6
CONTINUOUS
 62
    7
 10
-3.5722195000000738
 20
479.25
 40
0.5
 50
179.99999099999999
 51
269.99999700000001
  0
LINE
  8
_0-0_0
  6
CONTINUOUS
 62
    7
 10
-4.0722195000000738
 20
483.25
 11
-4.0722195000000738
 21
479.25
  0
ARC
  8
_0-0_0
  6
CONTINUOUS
 62
    7
 10
-3.5722195000000738
 20
483.25
 40
0.5
 50
90.000003000000007
 51
179.99999099999999
  0
ARC
  8
_0-0_0
  6
CONTINUOUS
 62
    7
 10
3.4277804999999262
 20
483.25
 40
0.5
 50
0
 51
90.000003000000007
  0
LINE
  8
_0-0_0
  6
CONTINUOUS
 62
    7
 10
-3.5722195000000738
 20
483.75
 11
3.4277804999999262
 21
483.75
  0
LINE
  8
_0-0_0
  6
CONTINUOUS
 62
    7
 10
1018.9277345
 20
526.75
 11
1018.9277345
 21
526.44998199999998
  0
LINE
  8
_0-0_0
  6
CONTINUOUS
 62
    7
 10
1018.9277345
 20
526.44998199999998
 11
1018.9277345
 21
526.25
  0
CIRCLE
  8
_0-0_0
  6
CONTINUOUS
 62
    7
 10
982.42773450000004
 20
514.25
 40
5.5
  0
CIRCLE
  8
_0-0_0
  6
CONTINUOUS
 62
    7
 10
882.42773450000004
 20
514.25
 40
5.5
  0
CIRCLE
  8
_0-0_0
  6
CONTINUOUS
 62
    7
 10
782.4277955
 20
514.25
 40
5.5
  0
CIRCLE
  8
_0-0_0
  6
CONTINUOUS
 62
    7
 10
682.4277955
 20
514.25
 40
5.5
  0
CIRCLE
  8
_0-0_0
  6
CONTINUOUS
 62
    7
 10
582.4277955
 20
514.25
 40
5.5
  0
CIRCLE
  8
_0-0_0
  6
CONTINUOUS
 62
    7
 10
482.4277955
 20
514.25
 40
5.5
  0
CIRCLE
  8
_0-0_0
  6
CONTINUOUS
 62
    7
 10
382.4277955
 20
514.25
 40
5.5
  0
CIRCLE
  8
_0-0_0
  6
CONTINUOUS
 62
    7
 10
282.42779549999995
 20
514.25
 40
5.5
  0
CIRCLE
  8
_0-0_0
  6
CONTINUOUS
 62
    7
 10
182.42779549999995
 20
514.25
 40
5.5
  0
CIRCLE
  8
_0-0_0
  6
CONTINUOUS
 62
    7
 10
82.427795499999945
 20
514.25
 40
5.5
  0
CIRCLE
  8
_0-0_0
  6
CONTINUOUS
 62
    7
 10
-17.572219500000074
 20
514.25
 40
5.5
  0
LINE
  8
_0-0_0
  6
CONTINUOUS
 62
    7
 10
3.9277804999999262
 20
479.25
 11
3.9277804999999262
 21
483.25
  0
CIRCLE
  8
_0-0_0
  6
CONTINUOUS
 62
    7
 10
982.42773450000004
 20
514.25
 40
3.5
  0
CIRCLE
  8
_0-0_0
  6
CONTINUOUS
 62
    7
 10
882.42773450000004
 20
514.25
 40
3.5
  0
CIRCLE
  8
_0-0_0
  6
CONTINUOUS
 62
    7
 10
782.4277955
 20
514.25
 40
3.5
  0
CIRCLE
  8
_0-0_0
  6
CONTINUOUS
 62
    7
 10
682.4277955
 20
514.25
 40
3.5
  0
CIRCLE
  8
_0-0_0
  6
CONTINUOUS
 62
    7
 10
582.4277955
 20
514.25
 40
3.5
  0
CIRCLE
  8
_0-0_0
  6
CONTINUOUS
 62
    7
 10
482.4277955
 20
514.25
 40
3.5
  0
CIRCLE
  8
_0-0_0
  6
CONTINUOUS
 62
    7
 10
382.4277955
 20
514.25
 40
3.5
  0
CIRCLE
  8
_0-0_0
  6
CONTINUOUS
 62
    7
 10
282.42779549999995
 20
514.25
 40
3.5
  0
CIRCLE
  8
_0-0_0
  6
CONTINUOUS
 62
    7
 10
182.42779549999995
 20
514.25
 40
3.5
  0
CIRCLE
  8
_0-0_0
  6
CONTINUOUS
 62
    7
 10
82.427795499999945
 20
514.25
 40
3.5
  0
CIRCLE
  8
_0-0_0
  6
CONTINUOUS
 62
    7
 10
-17.572219500000074
 20
514.25
 40
3.5
  0
ARC
  8
_0-0_0
  6
CONTINUOUS
 62
    7
 10
1.2277674999999704
 20
482.94998199999998
 40
0.2
 50
339.62356199999999
 51
90.000002999999978
  0
LINE
  8
_0-0_0
  6
CONTINUOUS
 62
    7
 10
1.4152674999999704
 20
482.88034099999999
 11
0.1152494999999476
 21
479.38034099999999
  0
ARC
  8
_0-0_0
  6
CONTINUOUS
 62
    7
 10
-0.0722195000000738
 20
479.44998199999998
 40
0.2
 50
200.37643
 51
339.62356199999999
  0
LINE
  8
_0-0_0
  6
CONTINUOUS
 62
    7
 10
-1.5597075000000586
 20
482.88034099999999
 11
-0.2597195000000738
 21
479.38034099999999
  0
ARC
  8
_0-0_0
  6
CONTINUOUS
 62
    7
 10
-1.3722385000000372
 20
482.94998199999998
 40
0.2
 50
90.000003000000007
 51
200.37643
  0
LINE
  8
_0-0_0
  6
CONTINUOUS
 62
    7
 10
-1.3722385000000372
 20
483.14999399999999
 11
1.2277674999999704
 21
483.14999399999999
  0
ARC
  8
_0-0_0
  6
CONTINUOUS
 62
    7
 10
938.62768549999987
 20
482.94998199999998
 40
0.2
 50
90.000003000000007
 51
200.37643
  0
LINE
  8
_0-0_0
  6
CONTINUOUS
 62
    7
 10
938.62768549999987
 20
483.14999399999999
 11
941.22766150000007
 21
483.14999399999999
  0
ARC
  8
_0-0_0
  6
CONTINUOUS
 62
    7
 10
936.42773450000004
 20
483.25
 40
0.5
 50
90.000003000000007
 51
179.99999099999999
  0
LINE
  8
_0-0_0
  6
CONTINUOUS
 62
    7
 10
935.92773450000004
 20
483.25
 11
935.92773450000004
 21
479.25
  0
ARC
  8
_0-0_0
  6
CONTINUOUS
 62
    7
 10
936.42773450000004
 20
479.25
 40
0.5
 50
179.99999099999999
 51
269.99999700000001
  0
LINE
  8
_0-0_0
  6
CONTINUOUS
 62
    7
 10
943.42773450000004
 20
478.75
 11
936.42773450000004
 21
478.75
  0
ARC
  8
_0-0_0
  6
CONTINUOUS
 62
    7
 10
943.42773450000004
 20
479.25
 40
0.5
 50
269.99999700000001
 51
0
  0
LINE
  8
_0-0_0
  6
CONTINUOUS
 62
    7
 10
943.92773450000004
 20
479.25
 11
943.92773450000004
 21
483.25
  0
ARC
  8
_0-0_0
  6
CONTINUOUS
 62
    7
 10
943.42773450000004
 20
483.25
 40
0.5
 50
0
 51
90.000003000000007
  0
LINE
  8
_0-0_0
  6
CONTINUOUS
 62
    7
 10
936.42773450000004
 20
483.75
 11
943.42773450000004
 21
483.75
  0
LINE
  8
_0-0_0
  6
CONTINUOUS
 62
    7
 10
938.44018549999987
 20
482.88034099999999
 11
939.74023450000004
 21
479.38034099999999
  0
ARC
  8
_0-0_0
  6
CONTINUOUS
 62
    7
 10
939.92773450000004
 20
479.44998199999998
 40
0.2
 50
200.37643
 51
339.62356199999999
  0
LINE
  8
_0-0_0
  6
CONTINUOUS
 62
    7
 10
941.41516150000007
 20
482.88034099999999
 11
940.11523450000004
 21
479.38034099999999
  0
ARC
  8
_0-0_0
  6
CONTINUOUS
 62
    7
 10
941.22766150000007
 20
482.94998199999998
 40
0.2
 50
339.62356199999999
 51
90.000002999999978
  0
LINE
  8
_0-0_0
  6
CONTINUOUS
 62
    7
 10
-47.572219500000074
 20
476.25
 11
-42.572219500000074
 21
476.25
  0
LINE
  8
_0-0_0
  6
CONTINUOUS
 62
    7
 10
-42.572219500000074
 20
476.25
 11
-40.77223250000003
 21
476.25
  0
LINE
  8
_0-0_0
  6
CONTINUOUS
 62
    7
 10
-40.77223250000003
 20
476.25
 11
-40.072219500000074
 21
476.25
  0
ARC
  8
_0-0_0
  6
CONTINUOUS
 62
    7
 10
-40.77223250000003
 20
475.75
 40
0.5
 50
0
 51
90.000003000000007
  0
ARC
  8
_0-0_0
  6
CONTINUOUS
 62
    7
 10
-47.572219500000074
 20
475.75
 40
0.5
 50
90.000003000000007
 51
179.99999099999999
  0
ARC
  8
_0-0_0
  6
CONTINUOUS
 62
    7
 10
55.927780499999926
 20
475.75
 40
0.5
 50
0
 51
90.000003000000007
  0
LINE
  8
_0-0_0
  6
CONTINUOUS
 62
    7
 10
-40.072219500000074
 20
476.25
 11
-40.072219500000074
 21
474.75
  0
LINE
  8
_0-0_0
  6
CONTINUOUS
 62
    7
 10
-40.072219500000074
 20
476.75
 11
-40.072219500000074
 21
476.25
  0
LINE
  8
_0-0_0
  6
CONTINUOUS
 62
    7
 10
-40.072219500000074
 20
477.25
 11
-40.072219500000074
 21
476.75
  0
LINE
  8
_0-0_0
  6
CONTINUOUS
 62
    7
 10
-40.072219500000074
 20
478.25
 11
-40.072219500000074
 21
477.25
  0
LINE
  8
_0-0_0
  6
CONTINUOUS
 62
    7
 10
-36.072219500000074
 20
476.25
 11
-35.372238500000037
 21
476.25
  0
LINE
  8
_0-0_0
  6
CONTINUOUS
 62
    7
 10
-40.27223250000003
 20
475.75
 11
-40.27223250000003
 21
474.75
  0
LINE
  8
_0-0_0
  6
CONTINUOUS
 62
    7
 10
-37.072219500000074
 20
449.25
 11
-37.072219500000074
 21
450.84997600000003
  0
LINE
  8
_0-0_0
  6
CONTINUOUS
 62
    7
 10
-37.072219500000074
 20
449.25
 11
-42.572219500000074
 21
449.25
  0
LINE
  8
_0-0_0
  6
CONTINUOUS
 62
    7
 10
-21.072219500000074
 20
455.94998199999998
 11
20.927780499999926
 21
455.94998199999998
  0
LINE
  8
_0-0_0
  6
CONTINUOUS
 62
    7
 10
-21.072219500000074
 20
475.54998799999998
 11
20.927780499999926
 21
475.54998799999998
  0
LINE
  8
_0-0_0
  6
CONTINUOUS
 62
    7
 10
42.427780499999926
 20
449.25
 11
32.927780499999926
 21
449.25
  0
LINE
  8
_0-0_0
  6
CONTINUOUS
 62
    7
 10
32.927780499999926
 20
449.25
 11
32.927780499999926
 21
450.84997600000003
  0
ARC
  8
_0-0_0
  6
CONTINUOUS
 62
    7
 10
32.627761499999963
 20
450.84997600000003
 40
0.2999999999999999
 50
0
 51
90.000003000000007
  0
LINE
  8
_0-0_0
  6
CONTINUOUS
 62
    7
 10
31.927780499999926
 20
451.14999399999999
 11
32.627761499999963
 21
451.14999399999999
  0
LINE
  8
_0-0_0
  6
CONTINUOUS
 62
    7
 10
31.427780499999926
 20
451.54998799999998
 11
31.927780499999926
 21
451.54998799999998
  0
LINE
  8
_0-0_0
  6
CONTINUOUS
 62
    7
 10
17.927780499999926
 20
451.54998799999998
 11
31.427780499999926
 21
451.54998799999998
  0
ARC
  8
_0-0_0
  6
CONTINUOUS
 62
    7
 10
15.427780499999926
 20
451.54998799999998
 40
2.5
 50
0
 51
90.000003000000007
  0
LINE
  8
_0-0_0
  6
CONTINUOUS
 62
    7
 10
-15.572219500000074
 20
454.04998799999998
 11
15.427780499999926
 21
454.04998799999998
  0
ARC
  8
_0-0_0
  6
CONTINUOUS
 62
    7
 10
-15.572219500000074
 20
451.54998799999998
 40
2.5
 50
90.000003000000007
 51
179.99999099999999
  0
LINE
  8
_0-0_0
  6
CONTINUOUS
 62
    7
 10
-35.572219500000074
 20
451.54998799999998
 11
-18.072219500000074
 21
451.54998799999998
  0
LINE
  8
_0-0_0
  6
CONTINUOUS
 62
    7
 10
-36.072219500000074
 20
451.54998799999998
 11
-35.572219500000074
 21
451.54998799999998
  0
LINE
  8
_0-0_0
  6
CONTINUOUS
 62
    7
 10
-36.77223250000003
 20
451.14999399999999
 11
-36.072219500000074
 21
451.14999399999999
  0
ARC
  8
_0-0_0
  6
CONTINUOUS
 62
    7
 10
-36.77223250000003
 20
450.84997600000003
 40
0.2999999999999999
 50
90.000003000000007
 51
179.99999099999999
  0
LINE
  8
_0-0_0
  6
CONTINUOUS
 62
    7
 10
-48.072219500000074
 20
473.97485399999999
 11
-48.072219500000074
 21
475.75
  0
LINE
  8
_0-0_0
  6
CONTINUOUS
 62
    7
 10
-43.072219500000074
 20
476.75
 11
-43.072219500000074
 21
476.25
  0
LINE
  8
_0-0_0
  6
CONTINUOUS
 62
    7
 10
-43.072219500000074
 20
472.80355800000001
 11
-43.072219500000074
 21
472.90853900000002
  0
LINE
  8
_0-0_0
  6
CONTINUOUS
 62
    7
 10
-43.072219500000074
 20
476.75
 11
-43.072219500000074
 21
478.24996900000002
  0
LINE
  8
_0-0_0
  6
CONTINUOUS
 62
    7
 10
56.427780499999926
 20
478.24996900000002
 11
56.427780499999926
 21
476.75
  0
LINE
  8
_0-0_0
  6
CONTINUOUS
 62
    7
 10
56.427780499999926
 20
476.75
 11
56.427780499999926
 21
475.75
  0
LINE
  8
_0-0_0
  6
CONTINUOUS
 62
    7
 10
56.427780499999926
 20
474.94998199999998
 11
56.427780499999926
 21
475.75
  0
LINE
  8
_0-0_0
  6
CONTINUOUS
 62
    7
 10
55.927780499999926
 20
476.25
 11
56.427780499999926
 21
476.25
  0
LINE
  8
_0-0_0
  6
CONTINUOUS
 62
    7
 10
43.427780499999926
 20
476.25
 11
55.927780499999926
 21
476.25
  0
LINE
  8
_0-0_0
  6
CONTINUOUS
 62
    7
 10
56.427780499999926
 20
478.25
 11
56.427780499999926
 21
477.25
  0
LINE
  8
_0-0_0
  6
CONTINUOUS
 62
    7
 10
56.427780499999926
 20
476.75
 11
56.427780499999926
 21
476.25
  0
LINE
  8
_0-0_0
  6
CONTINUOUS
 62
    7
 10
56.427780499999926
 20
477.25
 11
56.427780499999926
 21
476.75
  0
ARC
  8
_0-0_0
  6
CONTINUOUS
 62
    7
 10
-38.072219500000074
 20
474.75
 40
2
 50
179.99999099999999
 51
0
  0
LINE
  8
_0-0_0
  6
CONTINUOUS
 62
    7
 10
42.927780499999926
 20
476.25
 11
43.427780499999926
 21
476.25
  0
LINE
  8
_0-0_0
  6
CONTINUOUS
 62
    7
 10
42.927780499999926
 20
475.75
 11
42.927780499999926
 21
476.25
  0
LINE
  8
_0-0_0
  6
CONTINUOUS
 62
    7
 10
42.927780499999926
 20
474.75
 11
42.927780499999926
 21
474.94998199999998
  0
ARC
  8
_0-0_0
  6
CONTINUOUS
 62
    7
 10
40.927780499999926
 20
474.75
 40
2
 50
179.99999099999999
 51
0
  0
LINE
  8
_0-0_0
  6
CONTINUOUS
 62
    7
 10
38.927780499999926
 20
476.25
 11
38.927780499999926
 21
474.75
  0
LINE
  8
_0-0_0
  6
CONTINUOUS
 62
    7
 10
38.22776749999997
 20
476.25
 11
38.927780499999926
 21
476.25
  0
LINE
  8
_0-0_0
  6
CONTINUOUS
 62
    7
 10
-36.072219500000074
 20
474.75
 11
-36.072219500000074
 21
476.25
  0
LINE
  8
_0-0_0
  6
CONTINUOUS
 62
    7
 10
-40.072219500000074
 20
477.25
 11
56.427780499999926
 21
477.25
  0
ARC
  8
_0-0_0
  6
CONTINUOUS
 62
    7
 10
-35.372238500000037
 20
475.75
 40
0.5
 50
90.000003000000007
 51
179.99999099999999
  0
ARC
  8
_0-0_0
  6
CONTINUOUS
 62
    7
 10
-38.072219500000074
 20
474.75
 40
2.2000000000000002
 50
179.99999099999999
 51
0
  0
LINE
  8
_0-0_0
  6
CONTINUOUS
 62
    7
 10
-36.072219500000074
 20
451.14999399999999
 11
-35.572219500000074
 21
451.14999399999999
  0
LINE
  8
_0-0_0
  6
CONTINUOUS
 62
    7
 10
-35.572219500000074
 20
451.54998799999998
 11
-35.572219500000074
 21
451.14999399999999
  0
LINE
  8
_0-0_0
  6
CONTINUOUS
 62
    7
 10
-18.072219500000074
 20
451.54998799999998
 11
17.927780499999926
 21
451.54998799999998
  0
LINE
  8
_0-0_0
  6
CONTINUOUS
 62
    7
 10
31.427780499999926
 20
451.14999399999999
 11
31.927780499999926
 21
451.14999399999999
  0
LINE
  8
_0-0_0
  6
CONTINUOUS
 62
    7
 10
31.427780499999926
 20
451.54998799999998
 11
31.427780499999926
 21
451.14999399999999
  0
LINE
  8
_0-0_0
  6
CONTINUOUS
 62
    7
 10
42.427780499999926
 20
448.75
 11
33.427780499999926
 21
448.75
  0
ARC
  8
_0-0_0
  6
CONTINUOUS
 62
    7
 10
33.427780499999926
 20
449.25
 40
0.5
 50
179.99999099999999
 51
269.99999700000001
  0
LINE
  8
_0-0_0
  6
CONTINUOUS
 62
    7
 10
42.427780499999926
 20
449.25
 11
42.927780499999926
 21
449.25
  0
LINE
  8
_0-0_0
  6
CONTINUOUS
 62
    7
 10
42.927780499999926
 20
449.25
 11
42.927780499999926
 21
449.44998199999998
  0
LINE
  8
_0-0_0
  6
CONTINUOUS
 62
    7
 10
47.427780499999926
 20
449.64999399999999
 11
43.127761499999963
 21
449.64999399999999
  0
LINE
  8
_0-0_0
  6
CONTINUOUS
 62
    7
 10
47.927780499999926
 20
450.14999399999999
 11
47.927780499999926
 21
451.92511000000002
  0
ARC
  8
_0-0_0
  6
CONTINUOUS
 62
    7
 10
44.879806499999972
 20
451.868988
 40
3.0490550000000001
 50
1.0548960000000001
 51
14.838094000000002
  0
LINE
  8
_0-0_0
  6
CONTINUOUS
 62
    7
 10
47.427780499999926
 20
452.84997600000003
 11
43.060226499999999
 21
452.84997600000003
  0
LINE
  8
_0-0_0
  6
CONTINUOUS
 62
    7
 10
42.927780499999926
 20
452.99142499999999
 11
42.927780499999926
 21
453.33367900000002
  0
ARC
  8
_0-0_0
  6
CONTINUOUS
 62
    7
 10
40.927780499999926
 20
474.75
 40
2.2000000000000002
 50
179.99999099999999
 51
303.74900400000001
  0
LINE
  8
_0-0_0
  6
CONTINUOUS
 62
    7
 10
38.72776749999997
 20
475.75
 11
38.72776749999997
 21
474.75
  0
LINE
  8
_0-0_0
  6
CONTINUOUS
 62
    7
 10
38.22776749999997
 20
476.25
 11
-35.372238500000037
 21
476.25
  0
LINE
  8
_0-0_0
  6
CONTINUOUS
 62
    7
 10
-35.872238500000037
 20
474.75
 11
-35.872238500000037
 21
475.75
  0
LINE
  8
_0-0_0
  6
CONTINUOUS
 62
    7
 10
-35.372238500000037
 20
474.54998799999998
 11
-35.372238500000037
 21
474.75
  0
ARC
  8
_0-0_0
  6
CONTINUOUS
 62
    7
 10
-34.372238500000037
 20
474.54998799999998
 40
1
 50
90.000003000000007
 51
179.99999099999999
  0
LINE
  8
_0-0_0
  6
CONTINUOUS
 62
    7
 10
-34.372238500000037
 20
475.54998799999998
 11
-21.072219500000074
 21
475.54998799999998
  0
LINE
  8
_0-0_0
  6
CONTINUOUS
 62
    7
 10
20.927780499999926
 20
475.54998799999998
 11
34.927780499999926
 21
475.54998799999998
  0
ARC
  8
_0-0_0
  6
CONTINUOUS
 62
    7
 10
34.927780499999926
 20
472.54998799999998
 40
3
 50
0
 51
90.000003000000007
  0
LINE
  8
_0-0_0
  6
CONTINUOUS
 62
    7
 10
37.927780499999926
 20
458.94998199999998
 11
37.927780499999926
 21
472.54998799999998
  0
ARC
  8
_0-0_0
  6
CONTINUOUS
 62
    7
 10
34.927780499999926
 20
458.94998199999998
 40
3
 50
269.99999700000001
 51
0
  0
LINE
  8
_0-0_0
  6
CONTINUOUS
 62
    7
 10
34.927780499999926
 20
455.94998199999998
 11
20.927780499999926
 21
455.94998199999998
  0
LINE
  8
_0-0_0
  6
CONTINUOUS
 62
    7
 10
-21.072219500000074
 20
455.94998199999998
 11
-35.072219500000074
 21
455.94998199999998
  0
ARC
  8
_0-0_0
  6
CONTINUOUS
 62
    7
 10
-35.072219500000074
 20
458.94998199999998
 40
3
 50
179.99999099999999
 51
269.99999700000001
  0
LINE
  8
_0-0_0
  6
CONTINUOUS
 62
    7
 10
-38.072219500000074
 20
471.18768299999999
 11
-38.072219500000074
 21
458.94998199999998
  0
ARC
  8
_0-0_0
  6
CONTINUOUS
 62
    7
 10
-37.072219500000074
 20
471.18768299999999
 40
1
 50
105.68034800000001
 51
179.99999100000002
  0
ARC
  8
_0-0_0
  6
CONTINUOUS
 62
    7
 10
-45.024246500000004
 20
474.03097500000001
 40
3.0490550000000001
 50
181.05489
 51
194.838089
  0
LINE
  8
_0-0_0
  6
CONTINUOUS
 62
    7
 10
-43.204696500000068
 20
473.04998799999998
 11
-47.572219500000074
 21
473.04998799999998
  0
LINE
  8
_0-0_0
  6
CONTINUOUS
 62
    7
 10
-43.072219500000074
 20
452.99142499999999
 11
-43.072219500000074
 21
453.096405
  0
LINE
  8
_0-0_0
  6
CONTINUOUS
 62
    7
 10
-43.204696500000068
 20
452.84997600000003
 11
-47.572219500000074
 21
452.84997600000003
  0
ARC
  8
_0-0_0
  6
CONTINUOUS
 62
    7
 10
-45.023086500000034
 20
451.86834700000003
 40
3.050319
 50
165.15540799999999
 51
178.932897
  0
LINE
  8
_0-0_0
  6
CONTINUOUS
 62
    7
 10
-48.072219500000074
 20
450.14999399999999
 11
-48.072219500000074
 21
451.92511000000002
  0
LINE
  8
_0-0_0
  6
CONTINUOUS
 62
    7
 10
-43.27223250000003
 20
449.64999399999999
 11
-47.572219500000074
 21
449.64999399999999
  0
LINE
  8
_0-0_0
  6
CONTINUOUS
 62
    7
 10
-43.072219500000074
 20
449.25
 11
-43.072219500000074
 21
449.44998199999998
  0
LINE
  8
_0-0_0
  6
CONTINUOUS
 62
    7
 10
-43.072219500000074
 20
449.25
 11
-42.572219500000074
 21
449.25
  0
LINE
  8
_0-0_0
  6
CONTINUOUS
 62
    7
 10
-37.572219500000074
 20
448.75
 11
-42.572219500000074
 21
448.75
  0
ARC
  8
_0-0_0
  6
CONTINUOUS
 62
    7
 10
-37.572219500000074
 20
449.25
 40
0.5
 50
269.99999700000001
 51
0
  0
LINE
  8
_0-0_0
  6
CONTINUOUS
 62
    7
 10
-47.753982500000006
 20
473.04998799999998
 11
-47.774307500000077
 21
473.050995
  0
LINE
  8
_0-0_0
  6
CONTINUOUS
 62
    7
 10
-47.774307500000077
 20
473.050995
 11
-47.794723500000032
 21
473.05413800000002
  0
LINE
  8
_0-0_0
  6
CONTINUOUS
 62
    7
 10
-47.794723500000032
 20
473.05413800000002
 11
-47.821548500000063
 21
473.06173699999999
  0
LINE
  8
_0-0_0
  6
CONTINUOUS
 62
    7
 10
-47.821548500000063
 20
473.06173699999999
 11
-47.847183500000028
 21
473.07312000000002
  0
LINE
  8
_0-0_0
  6
CONTINUOUS
 62
    7
 10
-47.847183500000028
 20
473.07312000000002
 11
-47.870987500000069
 21
473.08798200000001
  0
LINE
  8
_0-0_0
  6
CONTINUOUS
 62
    7
 10
-47.870987500000069
 20
473.08798200000001
 11
-47.887741500000061
 21
473.10150099999998
  0
LINE
  8
_0-0_0
  6
CONTINUOUS
 62
    7
 10
-47.887741500000061
 20
473.10150099999998
 11
-47.903244500000028
 21
473.11673000000002
  0
LINE
  8
_0-0_0
  6
CONTINUOUS
 62
    7
 10
-47.903244500000028
 20
473.11673000000002
 11
-47.930160500000056
 21
473.15136699999999
  0
LINE
  8
_0-0_0
  6
CONTINUOUS
 62
    7
 10
-47.930160500000056
 20
473.15136699999999
 11
-47.95118750000006
 21
473.18969700000002
  0
LINE
  8
_0-0_0
  6
CONTINUOUS
 62
    7
 10
-47.95118750000006
 20
473.18969700000002
 11
-47.963180500000021
 21
473.21963499999998
  0
LINE
  8
_0-0_0
  6
CONTINUOUS
 62
    7
 10
-47.963180500000021
 20
473.21963499999998
 11
-47.972213500000066
 21
473.25
  0
LINE
  8
_0-0_0
  6
CONTINUOUS
 62
    7
 10
-48.061020500000041
 20
473.75
 11
-55.072219500000074
 21
473.75
  0
LINE
  8
_0-0_0
  6
CONTINUOUS
 62
    7
 10
-55.072219500000074
 20
473.75
 11
-59.747665500000039
 21
473.75
  0
LINE
  8
_0-0_0
  6
CONTINUOUS
 62
    7
 10
-55.072219500000074
 20
473.75
 11
-55.072219500000074
 21
471.75
  0
LINE
  8
_0-0_0
  6
CONTINUOUS
 62
    7
 10
-43.072219500000074
 20
471.75
 11
-43.072219500000074
 21
472.80355800000001
  0
ARC
  8
_0-0_0
  6
CONTINUOUS
 62
    7
 10
55.927780499999926
 20
474.94998199999998
 40
0.5
 50
269.99999700000001
 51
0
  0
ARC
  8
_0-0_0
  6
CONTINUOUS
 62
    7
 10
43.427780499999926
 20
475.75
 40
0.5
 50
90.000003000000007
 51
179.99999099999999
  0
LINE
  8
_0-0_0
  6
CONTINUOUS
 62
    7
 10
42.927780499999926
 20
474.94998199999998
 11
42.927780499999926
 21
475.75
  0
LINE
  8
_0-0_0
  6
CONTINUOUS
 62
    7
 10
-36.872238500000037
 20
451.13284299999998
 11
-36.872238500000037
 21
449.14999399999999
  0
LINE
  8
_0-0_0
  6
CONTINUOUS
 62
    7
 10
-36.872238500000037
 20
449.14999399999999
 11
-35.872238500000037
 21
449.14999399999999
  0
LINE
  8
_0-0_0
  6
CONTINUOUS
 62
    7
 10
-35.572219500000074
 20
451.14999399999999
 11
31.427780499999926
 21
451.14999399999999
  0
LINE
  8
_0-0_0
  6
CONTINUOUS
 62
    7
 10
-35.872238500000037
 20
449.14999399999999
 11
31.72776749999997
 21
449.14999399999999
  0
LINE
  8
_0-0_0
  6
CONTINUOUS
 62
    7
 10
31.72776749999997
 20
449.14999399999999
 11
32.72776749999997
 21
449.14999399999999
  0
LINE
  8
_0-0_0
  6
CONTINUOUS
 62
    7
 10
32.72776749999997
 20
451.13284299999998
 11
32.72776749999997
 21
449.14999399999999
  0
LINE
  8
_0-0_0
  6
CONTINUOUS
 62
    7
 10
42.927780499999926
 20
449.25
 11
42.427780499999926
 21
448.75
  0
ARC
  8
_0-0_0
  6
CONTINUOUS
 62
    7
 10
43.127761499999963
 20
449.44998199999998
 40
0.2
 50
90.000003000000007
 51
179.99999099999999
  0
ARC
  8
_0-0_0
  6
CONTINUOUS
 62
    7
 10
47.427780499999926
 20
450.14999399999999
 40
0.5
 50
269.99999700000001
 51
0
  0
LINE
  8
_0-0_0
  6
CONTINUOUS
 62
    7
 10
47.609512499999937
 20
452.84997600000003
 11
47.629867499999932
 21
452.84896900000001
  0
LINE
  8
_0-0_0
  6
CONTINUOUS
 62
    7
 10
47.629867499999932
 20
452.84896900000001
 11
47.650283499999944
 21
452.84582499999999
  0
LINE
  8
_0-0_0
  6
CONTINUOUS
 62
    7
 10
47.650283499999944
 20
452.84582499999999
 11
47.677108499999918
 21
452.83822600000002
  0
LINE
  8
_0-0_0
  6
CONTINUOUS
 62
    7
 10
47.677108499999918
 20
452.83822600000002
 11
47.702743499999997
 21
452.82687399999998
  0
LINE
  8
_0-0_0
  6
CONTINUOUS
 62
    7
 10
47.702743499999997
 20
452.82687399999998
 11
47.726547499999924
 21
452.811981
  0
LINE
  8
_0-0_0
  6
CONTINUOUS
 62
    7
 10
47.726547499999924
 20
452.811981
 11
47.743301499999916
 21
452.79846199999997
  0
LINE
  8
_0-0_0
  6
CONTINUOUS
 62
    7
 10
47.743301499999916
 20
452.79846199999997
 11
47.758804499999997
 21
452.78326399999997
  0
LINE
  8
_0-0_0
  6
CONTINUOUS
 62
    7
 10
47.758804499999997
 20
452.78326399999997
 11
47.785690499999987
 21
452.74859600000002
  0
LINE
  8
_0-0_0
  6
CONTINUOUS
 62
    7
 10
47.785690499999987
 20
452.74859600000002
 11
47.806747499999972
 21
452.71026599999999
  0
LINE
  8
_0-0_0
  6
CONTINUOUS
 62
    7
 10
47.806747499999972
 20
452.71026599999999
 11
47.81874049999999
 21
452.68035900000001
  0
LINE
  8
_0-0_0
  6
CONTINUOUS
 62
    7
 10
47.81874049999999
 20
452.68035900000001
 11
47.827773499999921
 21
452.64999399999999
  0
LINE
  8
_0-0_0
  6
CONTINUOUS
 62
    7
 10
47.609512499999937
 20
452.84997600000003
 11
47.427780499999926
 21
452.84997600000003
  0
LINE
  8
_0-0_0
  6
CONTINUOUS
 62
    7
 10
42.927780499999926
 20
471.29998799999998
 11
42.927780499999926
 21
473.79998799999998
  0
LINE
  8
_0-0_0
  6
CONTINUOUS
 62
    7
 10
42.927780499999926
 20
471.29998799999998
 11
42.927780499999926
 21
454.79998799999998
  0
LINE
  8
_0-0_0
  6
CONTINUOUS
 62
    7
 10
42.927780499999926
 20
453.33367900000002
 11
42.927780499999926
 21
454.79998799999998
  0
ARC
  8
_0-0_0
  6
CONTINUOUS
 62
    7
 10
42.427780499999926
 20
472.50500499999998
 40
0.5
 50
0
 51
123.74898500000002
  0
ARC
  8
_0-0_0
  6
CONTINUOUS
 62
    7
 10
43.098068499999954
 20
453.02328499999999
 40
0.1734229999999999
 50
181.12417600000003
 51
270.64883800000007
  0
LINE
  8
_0-0_0
  6
CONTINUOUS
 62
    7
 10
42.923721499999942
 20
453.04998799999998
 11
42.92381249999994
 21
453.01986699999998
  0
ARC
  8
_0-0_0
  6
CONTINUOUS
 62
    7
 10
38.22776749999997
 20
475.75
 40
0.5
 50
0
 51
90.000003000000007
  0
ARC
  8
_0-0_0
  6
CONTINUOUS
 62
    7
 10
-38.072219500000074
 20
474.75
 40
2.7000000000000002
 50
285.68033600000007
 51
0.0000000000000381
  0
ARC
  8
_0-0_0
  6
CONTINUOUS
 62
    7
 10
-21.072219500000074
 20
458.94998199999998
 40
3
 50
269.99999700000001
 51
0
  0
LINE
  8
_0-0_0
  6
CONTINUOUS
 62
    7
 10
-18.072219500000074
 20
458.94998199999998
 11
-18.072219500000074
 21
472.54998799999998
  0
ARC
  8
_0-0_0
  6
CONTINUOUS
 62
    7
 10
-21.072219500000074
 20
472.54998799999998
 40
3
 50
0
 51
90.000003000000007
  0
ARC
  8
_0-0_0
  6
CONTINUOUS
 62
    7
 10
-25.572219500000074
 20
468.25
 40
4.5
 50
269.99999700000001
 51
90.000002999999992
  0
LINE
  8
_0-0_0
  6
CONTINUOUS
 62
    7
 10
-25.572219500000074
 20
463.75
 11
-30.572219500000074
 21
463.75
  0
ARC
  8
_0-0_0
  6
CONTINUOUS
 62
    7
 10
-30.572219500000074
 20
468.25
 40
4.5
 50
90.000003000000007
 51
269.99999700000006
  0
LINE
  8
_0-0_0
  6
CONTINUOUS
 62
    7
 10
-30.572219500000074
 20
472.75
 11
-25.572219500000074
 21
472.75
  0
ARC
  8
_0-0_0
  6
CONTINUOUS
 62
    7
 10
20.927780499999926
 20
458.94998199999998
 40
3
 50
179.99999099999999
 51
269.99999700000001
  0
LINE
  8
_0-0_0
  6
CONTINUOUS
 62
    7
 10
17.927780499999926
 20
472.54998799999998
 11
17.927780499999926
 21
458.94998199999998
  0
ARC
  8
_0-0_0
  6
CONTINUOUS
 62
    7
 10
20.927780499999926
 20
472.54998799999998
 40
3
 50
90.000003000000007
 51
179.99999099999999
  0
ARC
  8
_0-0_0
  6
CONTINUOUS
 62
    7
 10
30.427780499999926
 20
468.25
 40
4.5
 50
269.99999700000001
 51
90.000002999999992
  0
LINE
  8
_0-0_0
  6
CONTINUOUS
 62
    7
 10
30.427780499999926
 20
463.75
 11
25.427780499999926
 21
463.75
  0
ARC
  8
_0-0_0
  6
CONTINUOUS
 62
    7
 10
25.427780499999926
 20
468.25
 40
4.5
 50
90.000003000000007
 51
269.99999700000006
  0
LINE
  8
_0-0_0
  6
CONTINUOUS
 62
    7
 10
25.427780499999926
 20
472.75
 11
30.427780499999926
 21
472.75
  0
LINE
  8
_0-0_0
  6
CONTINUOUS
 62
    7
 10
-47.572219500000074
 20
473.04998799999998
 11
-47.753982500000006
 21
473.04998799999998
  0
LINE
  8
_0-0_0
  6
CONTINUOUS
 62
    7
 10
-43.072219500000074
 20
471.75
 11
-43.072219500000074
 21
454.14999399999999
  0
LINE
  8
_0-0_0
  6
CONTINUOUS
 62
    7
 10
-43.072219500000074
 20
453.096405
 11
-43.072219500000074
 21
454.14999399999999
  0
ARC
  8
_0-0_0
  6
CONTINUOUS
 62
    7
 10
-43.242508500000042
 20
453.02328499999999
 40
0.1734209999999999
 50
269.35085600000002
 51
358.87625300000002
  0
LINE
  8
_0-0_0
  6
CONTINUOUS
 62
    7
 10
-43.068191500000012
 20
453.04998799999998
 11
-43.068252500000028
 21
453.01986699999998
  0
LINE
  8
_0-0_0
  6
CONTINUOUS
 62
    7
 10
-43.068191500000012
 20
472.84997600000003
 11
-43.068252500000028
 21
472.88012700000002
  0
ARC
  8
_0-0_0
  6
CONTINUOUS
 62
    7
 10
-43.242508500000042
 20
472.87670900000001
 40
0.1734219999999999
 50
1.1236539999999999
 51
90.649110000000007
  0
LINE
  8
_0-0_0
  6
CONTINUOUS
 62
    7
 10
-47.572219500000074
 20
452.84997600000003
 11
-47.753982500000006
 21
452.84997600000003
  0
LINE
  8
_0-0_0
  6
CONTINUOUS
 62
    7
 10
-47.753982500000006
 20
452.84997600000003
 11
-47.774307500000077
 21
452.84896900000001
  0
LINE
  8
_0-0_0
  6
CONTINUOUS
 62
    7
 10
-47.774307500000077
 20
452.84896900000001
 11
-47.794723500000032
 21
452.84582499999999
  0
LINE
  8
_0-0_0
  6
CONTINUOUS
 62
    7
 10
-47.794723500000032
 20
452.84582499999999
 11
-47.821548500000063
 21
452.83822600000002
  0
LINE
  8
_0-0_0
  6
CONTINUOUS
 62
    7
 10
-47.821548500000063
 20
452.83822600000002
 11
-47.847183500000028
 21
452.82687399999998
  0
LINE
  8
_0-0_0
  6
CONTINUOUS
 62
    7
 10
-47.847183500000028
 20
452.82687399999998
 11
-47.870987500000069
 21
452.811981
  0
LINE
  8
_0-0_0
  6
CONTINUOUS
 62
    7
 10
-47.870987500000069
 20
452.811981
 11
-47.887741500000061
 21
452.79846199999997
  0
LINE
  8
_0-0_0
  6
CONTINUOUS
 62
    7
 10
-47.887741500000061
 20
452.79846199999997
 11
-47.903244500000028
 21
452.78326399999997
  0
LINE
  8
_0-0_0
  6
CONTINUOUS
 62
    7
 10
-47.903244500000028
 20
452.78326399999997
 11
-47.930160500000056
 21
452.74859600000002
  0
LINE
  8
_0-0_0
  6
CONTINUOUS
 62
    7
 10
-47.930160500000056
 20
452.74859600000002
 11
-47.95118750000006
 21
452.71026599999999
  0
LINE
  8
_0-0_0
  6
CONTINUOUS
 62
    7
 10
-47.95118750000006
 20
452.71026599999999
 11
-47.963180500000021
 21
452.68035900000001
  0
LINE
  8
_0-0_0
  6
CONTINUOUS
 62
    7
 10
-47.963180500000021
 20
452.68035900000001
 11
-47.972213500000066
 21
452.64999399999999
  0
ARC
  8
_0-0_0
  6
CONTINUOUS
 62
    7
 10
-47.572219500000074
 20
450.14999399999999
 40
0.5
 50
179.99999099999999
 51
269.99999700000001
  0
ARC
  8
_0-0_0
  6
CONTINUOUS
 62
    7
 10
-43.27223250000003
 20
449.44998199999998
 40
0.2
 50
0
 51
90.000003000000007
  0
LINE
  8
_0-0_0
  6
CONTINUOUS
 62
    7
 10
-43.072219500000074
 20
449.25
 11
-42.572219500000074
 21
448.75
  0
ARC
  8
_0-0_0
  6
CONTINUOUS
 62
    7
 10
-59.747665500000039
 20
471.75
 40
2
 50
90.000003000000007
 51
108.434997
  0
LINE
  8
_0-0_0
  6
CONTINUOUS
 62
    7
 10
-55.072219500000074
 20
471.25
 11
-55.072219500000074
 21
471.75
  0
LINE
  8
_0-0_0
  6
CONTINUOUS
 62
    7
 10
-55.072219500000074
 20
468.25
 11
-55.072219500000074
 21
467.75
  0
LINE
  8
_0-0_0
  6
CONTINUOUS
 62
    7
 10
-55.072219500000074
 20
468.25
 11
-55.072219500000074
 21
471.25
  0
ARC
  8
_0-0_0
  6
CONTINUOUS
 62
    7
 10
-49.072219500000074
 20
468.44998199999998
 40
0.500016
 50
0.001164
 51
179.99560600000004
  0
LINE
  8
_0-0_0
  6
CONTINUOUS
 62
    7
 10
-49.572219500000074
 20
468.44998199999998
 11
-49.572219500000074
 21
456.44998199999998
  0
ARC
  8
_0-0_0
  6
CONTINUOUS
 62
    7
 10
-49.072219500000074
 20
456.45001200000002
 40
0.500016
 50
180.00117
 51
359.995611
  0
LINE
  8
_0-0_0
  6
CONTINUOUS
 62
    7
 10
-48.572219500000074
 20
468.44998199999998
 11
-48.572219500000074
 21
456.44998199999998
  0
ARC
  8
_0-0_0
  6
CONTINUOUS
 62
    7
 10
-50.572219500000074
 20
468.44998199999998
 40
0.500016
 50
0.001164
 51
179.99560600000004
  0
LINE
  8
_0-0_0
  6
CONTINUOUS
 62
    7
 10
-51.072219500000074
 20
468.44998199999998
 11
-51.072219500000074
 21
456.44998199999998
  0
ARC
  8
_0-0_0
  6
CONTINUOUS
 62
    7
 10
-50.572219500000074
 20
456.45001200000002
 40
0.500016
 50
180.00117
 51
359.995611
  0
LINE
  8
_0-0_0
  6
CONTINUOUS
 62
    7
 10
-50.072219500000074
 20
468.44998199999998
 11
-50.072219500000074
 21
456.44998199999998
  0
ARC
  8
_0-0_0
  6
CONTINUOUS
 62
    7
 10
-52.072219500000074
 20
468.44998199999998
 40
0.500016
 50
0.001164
 51
179.99560600000004
  0
LINE
  8
_0-0_0
  6
CONTINUOUS
 62
    7
 10
-52.572219500000074
 20
468.44998199999998
 11
-52.572219500000074
 21
456.44998199999998
  0
ARC
  8
_0-0_0
  6
CONTINUOUS
 62
    7
 10
-52.072219500000074
 20
456.45001200000002
 40
0.500016
 50
180.00117
 51
359.995611
  0
LINE
  8
_0-0_0
  6
CONTINUOUS
 62
    7
 10
-51.572219500000074
 20
468.44998199999998
 11
-51.572219500000074
 21
456.44998199999998
  0
ARC
  8
_0-0_0
  6
CONTINUOUS
 62
    7
 10
-53.572204500000055
 20
468.44998199999998
 40
0.500016
 50
0.001164
 51
179.99560600000004
  0
LINE
  8
_0-0_0
  6
CONTINUOUS
 62
    7
 10
-54.072219500000074
 20
468.44998199999998
 11
-54.072219500000074
 21
456.44998199999998
  0
ARC
  8
_0-0_0
  6
CONTINUOUS
 62
    7
 10
-53.572204500000055
 20
456.45001200000002
 40
0.500016
 50
180.00117
 51
359.995611
  0
LINE
  8
_0-0_0
  6
CONTINUOUS
 62
    7
 10
-53.072219500000074
 20
468.44998199999998
 11
-53.072219500000074
 21
456.44998199999998
  0
LINE
  8
_0-0_0
  6
CONTINUOUS
 62
    7
 10
42.927780499999926
 20
474.44998199999998
 11
43.427780499999926
 21
474.44998199999998
  0
LINE
  8
_0-0_0
  6
CONTINUOUS
 62
    7
 10
43.427780499999926
 20
474.44998199999998
 11
55.927780499999926
 21
474.44998199999998
  0
ARC
  8
_0-0_0
  6
CONTINUOUS
 62
    7
 10
43.427780499999926
 20
474.94998199999998
 40
0.5
 50
179.99999099999999
 51
269.99999700000001
  0
LINE
  8
_0-0_0
  6
CONTINUOUS
 62
    7
 10
42.927780499999926
 20
474.08395400000001
 11
42.927780499999926
 21
474.44998199999998
  0
LINE
  8
_0-0_0
  6
CONTINUOUS
 62
    7
 10
42.927780499999926
 20
473.83346599999999
 11
42.927780499999926
 21
473.79998799999998
  0
LINE
  8
_0-0_0
  6
CONTINUOUS
 62
    7
 10
42.927780499999926
 20
474.08395400000001
 11
42.927780499999926
 21
473.83346599999999
  0
CIRCLE
  8
_0-0_0
  6
CONTINUOUS
 62
    7
 10
-38.072219500000074
 20
474.75
 40
1.4750000000000001
  0
CIRCLE
  8
_0-0_0
  6
CONTINUOUS
 62
    7
 10
40.927780499999926
 20
474.75
 40
1.4750000000000001
  0
LINE
  8
_0-0_0
  6
CONTINUOUS
 62
    7
 10
42.927780499999926
 20
449.09997600000003
 11
42.927780499999926
 21
449.25
  0
LINE
  8
_0-0_0
  6
CONTINUOUS
 62
    7
 10
48.427780499999926
 20
449.09997600000003
 11
42.927780499999926
 21
449.09997600000003
  0
LINE
  8
_0-0_0
  6
CONTINUOUS
 62
    7
 10
48.427780499999926
 20
451.64999399999999
 11
47.927780499999926
 21
451.64999399999999
  0
LINE
  8
_0-0_0
  6
CONTINUOUS
 62
    7
 10
43.427780499999926
 20
474.29998799999998
 11
42.927780499999926
 21
473.79998799999998
  0
LINE
  8
_0-0_0
  6
CONTINUOUS
 62
    7
 10
43.427780499999926
 20
474.29998799999998
 11
48.427780499999926
 21
474.29998799999998
  0
LINE
  8
_0-0_0
  6
CONTINUOUS
 62
    7
 10
-48.061020500000041
 20
452.14999399999999
 11
-59.747665500000039
 21
452.14999399999999
  0
LINE
  8
_0-0_0
  6
CONTINUOUS
 62
    7
 10
-60.822219500000074
 20
473.49996900000002
 11
-60.380127500000071
 21
473.64733899999999
  0
LINE
  8
_0-0_0
  6
CONTINUOUS
 62
    7
 10
-64.546569500000032
 20
468.25
 11
-65.239929500000017
 21
468.25
  0
LINE
  8
_0-0_0
  6
CONTINUOUS
 62
    7
 10
-64.546569500000032
 20
468.25
 11
-60.222000500000036
 21
468.25
  0
LINE
  8
_0-0_0
  6
CONTINUOUS
 62
    7
 10
-59.747665500000039
 20
468.25
 11
-60.222000500000036
 21
468.25
  0
LINE
  8
_0-0_0
  6
CONTINUOUS
 62
    7
 10
-55.072219500000074
 20
468.25
 11
-59.747665500000039
 21
468.25
  0
LINE
  8
_0-0_0
  6
CONTINUOUS
 62
    7
 10
42.927780499999926
 20
448.953552
 11
42.927780499999926
 21
449.09997600000003
  0
LINE
  8
_0-0_0
  6
CONTINUOUS
 62
    7
 10
42.927780499999926
 20
448.89642300000003
 11
42.927780499999926
 21
448.953552
  0
LINE
  8
_0-0_0
  6
CONTINUOUS
 62
    7
 10
42.927780499999926
 20
448.75
 11
42.927780499999926
 21
448.89642300000003
  0
ARC
  8
_0-0_0
  6
CONTINUOUS
 62
    7
 10
48.427780499999926
 20
449.59997600000003
 40
0.5
 50
269.99999700000001
 51
0
  0
LINE
  8
_0-0_0
  6
CONTINUOUS
 62
    7
 10
48.927780499999926
 20
451.15570100000002
 11
48.927780499999926
 21
449.59997600000003
  0
ARC
  8
_0-0_0
  6
CONTINUOUS
 62
    7
 10
48.440872499999955
 20
451.15234400000003
 40
0.4869939999999999
 50
0.394923
 51
23.93947
  0
ARC
  8
_0-0_0
  6
CONTINUOUS
 62
    7
 10
48.427780499999926
 20
451.14999399999999
 40
0.5
 50
23.578231000000002
 51
90.000002999999992
  0
LINE
  8
_0-0_0
  6
CONTINUOUS
 62
    7
 10
48.927780499999926
 20
471.29998799999998
 11
48.927780499999926
 21
473.79998799999998
  0
ARC
  8
_0-0_0
  6
CONTINUOUS
 62
    7
 10
48.427780499999926
 20
473.79998799999998
 40
0.5
 50
0
 51
90.000003000000007
  0
LINE
  8
_0-0_0
  6
CONTINUOUS
 62
    7
 10
48.427780499999926
 20
458
 11
46.22776749999997
 21
458
  0
LINE
  8
_0-0_0
  6
CONTINUOUS
 62
    7
 10
48.927780499999926
 20
471.29998799999998
 11
48.927780499999926
 21
458.5
  0
LINE
  8
_0-0_0
  6
CONTINUOUS
 62
    7
 10
45.927780499999926
 20
457.69998199999998
 11
45.927780499999926
 21
455.12167399999998
  0
LINE
  8
_0-0_0
  6
CONTINUOUS
 62
    7
 10
-24.100692500000036
 20
464.14999399999999
 11
-32.043777500000033
 21
464.14999399999999
  0
ARC
  8
_0-0_0
  6
CONTINUOUS
 62
    7
 10
-32.043777500000033
 20
464.64999399999999
 40
0.5
 50
210.00000299999999
 51
269.99999700000001
  0
LINE
  8
_0-0_0
  6
CONTINUOUS
 62
    7
 10
-32.476791500000047
 20
464.39999399999999
 11
-34.555252500000051
 21
468
  0
ARC
  8
_0-0_0
  6
CONTINUOUS
 62
    7
 10
-34.122238500000037
 20
468.25
 40
0.5
 50
149.99999700000001
 51
210.00000299999996
  0
LINE
  8
_0-0_0
  6
CONTINUOUS
 62
    7
 10
-34.555252500000051
 20
468.5
 11
-32.476791500000047
 21
472.09997600000003
  0
ARC
  8
_0-0_0
  6
CONTINUOUS
 62
    7
 10
-32.043777500000033
 20
471.84997600000003
 40
0.5
 50
90.000003000000007
 51
149.99999700000001
  0
LINE
  8
_0-0_0
  6
CONTINUOUS
 62
    7
 10
-32.043777500000033
 20
472.34997600000003
 11
-24.100692500000036
 21
472.34997600000003
  0
ARC
  8
_0-0_0
  6
CONTINUOUS
 62
    7
 10
-24.100692500000036
 20
471.84997600000003
 40
0.5
 50
30.000001000000001
 51
90.000003000000007
  0
LINE
  8
_0-0_0
  6
CONTINUOUS
 62
    7
 10
-23.667678500000079
 20
472.09997600000003
 11
-21.589218500000015
 21
468.5
  0
ARC
  8
_0-0_0
  6
CONTINUOUS
 62
    7
 10
-22.02223250000003
 20
468.25
 40
0.5
 50
329.99998900000003
 51
30.000000999999983
  0
LINE
  8
_0-0_0
  6
CONTINUOUS
 62
    7
 10
-21.589218500000015
 20
468
 11
-23.667678500000079
 21
464.39999399999999
  0
ARC
  8
_0-0_0
  6
CONTINUOUS
 62
    7
 10
-24.100692500000036
 20
464.64999399999999
 40
0.5
 50
269.99999700000001
 51
329.99998900000003
  0
ARC
  8
_0-0_0
  6
CONTINUOUS
 62
    7
 10
23.898513499999922
 20
464.75
 40
0.5
 50
210.00000299999999
 51
269.99999700000001
  0
LINE
  8
_0-0_0
  6
CONTINUOUS
 62
    7
 10
23.465499499999964
 20
464.5
 11
21.444778499999984
 21
468
  0
ARC
  8
_0-0_0
  6
CONTINUOUS
 62
    7
 10
21.877761499999963
 20
468.25
 40
0.5
 50
149.99999700000001
 51
210.00000299999996
  0
LINE
  8
_0-0_0
  6
CONTINUOUS
 62
    7
 10
21.444778499999984
 20
468.5
 11
23.465499499999964
 21
472
  0
ARC
  8
_0-0_0
  6
CONTINUOUS
 62
    7
 10
23.898513499999922
 20
471.75
 40
0.5
 50
90.000003000000007
 51
149.99999700000001
  0
LINE
  8
_0-0_0
  6
CONTINUOUS
 62
    7
 10
23.898513499999922
 20
472.25
 11
31.957046499999933
 21
472.25
  0
ARC
  8
_0-0_0
  6
CONTINUOUS
 62
    7
 10
31.957046499999933
 20
471.75
 40
0.5
 50
30.000001000000001
 51
90.000003000000007
  0
LINE
  8
_0-0_0
  6
CONTINUOUS
 62
    7
 10
32.390060499999947
 20
472
 11
34.410781499999985
 21
468.5
  0
ARC
  8
_0-0_0
  6
CONTINUOUS
 62
    7
 10
33.97776749999997
 20
468.25
 40
0.5
 50
329.99998900000003
 51
30.000000999999983
  0
LINE
  8
_0-0_0
  6
CONTINUOUS
 62
    7
 10
34.410781499999985
 20
468
 11
32.390060499999947
 21
464.5
  0
ARC
  8
_0-0_0
  6
CONTINUOUS
 62
    7
 10
31.957046499999933
 20
464.75
 40
0.5
 50
269.99999700000001
 51
329.99998900000003
  0
LINE
  8
_0-0_0
  6
CONTINUOUS
 62
    7
 10
31.957046499999933
 20
464.25
 11
23.898513499999922
 21
464.25
  0
LINE
  8
_0-0_0
  6
CONTINUOUS
 62
    7
 10
-60.380127500000071
 20
452.25262500000002
 11
-60.260635500000035
 21
452.21701000000002
  0
LINE
  8
_0-0_0
  6
CONTINUOUS
 62
    7
 10
-60.260635500000035
 20
452.21701000000002
 11
-60.139068500000008
 21
452.18911700000001
  0
LINE
  8
_0-0_0
  6
CONTINUOUS
 62
    7
 10
-60.139068500000008
 20
452.18911700000001
 11
-60.015945500000043
 21
452.16906699999998
  0
LINE
  8
_0-0_0
  6
CONTINUOUS
 62
    7
 10
-60.015945500000043
 20
452.16906699999998
 11
-59.891723500000012
 21
452.15695199999999
  0
LINE
  8
_0-0_0
  6
CONTINUOUS
 62
    7
 10
-59.891723500000012
 20
452.15695199999999
 11
-59.766891500000042
 21
452.15283199999999
  0
LINE
  8
_0-0_0
  6
CONTINUOUS
 62
    7
 10
-59.766891500000042
 20
452.15283199999999
 11
-59.747665500000039
 21
452.15289300000001
  0
ARC
  8
_0-0_0
  6
CONTINUOUS
 62
    7
 10
-59.747665500000039
 20
454.14999399999999
 40
2
 50
251.56498899999997
 51
269.99999700000001
  0
LINE
  8
_0-0_0
  6
CONTINUOUS
 62
    7
 10
-66.072219500000074
 20
469.00003099999998
 11
-66.072219500000074
 21
467.87899800000002
  0
LINE
  8
_0-0_0
  6
CONTINUOUS
 62
    7
 10
-37.872238500000037
 20
473.64999399999999
 11
-38.27223250000003
 21
473.64999399999999
  0
LINE
  8
_0-0_0
  6
CONTINUOUS
 62
    7
 10
-37.872238500000037
 20
473.64999399999999
 11
-37.872238500000037
 21
474.29998799999998
  0
ARC
  8
_0-0_0
  6
CONTINUOUS
 62
    7
 10
-37.622238500000037
 20
474.29998799999998
 40
0.25
 50
90.000003000000007
 51
179.99999099999999
  0
LINE
  8
_0-0_0
  6
CONTINUOUS
 62
    7
 10
-37.622238500000037
 20
474.54998799999998
 11
-36.972213500000066
 21
474.54998799999998
  0
LINE
  8
_0-0_0
  6
CONTINUOUS
 62
    7
 10
-36.972213500000066
 20
474.54998799999998
 11
-36.972213500000066
 21
474.94998199999998
  0
LINE
  8
_0-0_0
  6
CONTINUOUS
 62
    7
 10
-37.622238500000037
 20
474.94998199999998
 11
-36.972213500000066
 21
474.94998199999998
  0
ARC
  8
_0-0_0
  6
CONTINUOUS
 62
    7
 10
-37.622238500000037
 20
475.19998199999998
 40
0.25
 50
179.99999099999999
 51
269.99999700000001
  0
LINE
  8
_0-0_0
  6
CONTINUOUS
 62
    7
 10
-37.872238500000037
 20
475.84997600000003
 11
-37.872238500000037
 21
475.19998199999998
  0
LINE
  8
_0-0_0
  6
CONTINUOUS
 62
    7
 10
-37.872238500000037
 20
475.84997600000003
 11
-38.27223250000003
 21
475.84997600000003
  0
LINE
  8
_0-0_0
  6
CONTINUOUS
 62
    7
 10
-38.27223250000003
 20
475.84997600000003
 11
-38.27223250000003
 21
475.19998199999998
  0
ARC
  8
_0-0_0
  6
CONTINUOUS
 62
    7
 10
-38.52223250000003
 20
475.19998199999998
 40
0.25
 50
269.99999700000001
 51
0
  0
LINE
  8
_0-0_0
  6
CONTINUOUS
 62
    7
 10
-38.52223250000003
 20
474.94998199999998
 11
-39.172226500000079
 21
474.94998199999998
  0
LINE
  8
_0-0_0
  6
CONTINUOUS
 62
    7
 10
-39.172226500000079
 20
474.54998799999998
 11
-39.172226500000079
 21
474.94998199999998
  0
LINE
  8
_0-0_0
  6
CONTINUOUS
 62
    7
 10
-38.52223250000003
 20
474.54998799999998
 11
-39.172226500000079
 21
474.54998799999998
  0
ARC
  8
_0-0_0
  6
CONTINUOUS
 62
    7
 10
-38.52223250000003
 20
474.29998799999998
 40
0.25
 50
0
 51
90.000003000000007
  0
LINE
  8
_0-0_0
  6
CONTINUOUS
 62
    7
 10
-38.27223250000003
 20
473.64999399999999
 11
-38.27223250000003
 21
474.29998799999998
  0
LINE
  8
_0-0_0
  6
CONTINUOUS
 62
    7
 10
41.127761499999963
 20
473.64999399999999
 11
40.72776749999997
 21
473.64999399999999
  0
LINE
  8
_0-0_0
  6
CONTINUOUS
 62
    7
 10
41.127761499999963
 20
473.64999399999999
 11
41.127761499999963
 21
474.29998799999998
  0
ARC
  8
_0-0_0
  6
CONTINUOUS
 62
    7
 10
41.377761499999963
 20
474.29998799999998
 40
0.25
 50
90.000003000000007
 51
179.99999099999999
  0
LINE
  8
_0-0_0
  6
CONTINUOUS
 62
    7
 10
41.377761499999963
 20
474.54998799999998
 11
42.027786499999934
 21
474.54998799999998
  0
LINE
  8
_0-0_0
  6
CONTINUOUS
 62
    7
 10
42.027786499999934
 20
474.54998799999998
 11
42.027786499999934
 21
474.94998199999998
  0
LINE
  8
_0-0_0
  6
CONTINUOUS
 62
    7
 10
41.377761499999963
 20
474.94998199999998
 11
42.027786499999934
 21
474.94998199999998
  0
ARC
  8
_0-0_0
  6
CONTINUOUS
 62
    7
 10
41.377761499999963
 20
475.19998199999998
 40
0.25
 50
179.99999099999999
 51
269.99999700000001
  0
LINE
  8
_0-0_0
  6
CONTINUOUS
 62
    7
 10
41.127761499999963
 20
475.84997600000003
 11
41.127761499999963
 21
475.19998199999998
  0
LINE
  8
_0-0_0
  6
CONTINUOUS
 62
    7
 10
41.127761499999963
 20
475.84997600000003
 11
40.72776749999997
 21
475.84997600000003
  0
LINE
  8
_0-0_0
  6
CONTINUOUS
 62
    7
 10
40.72776749999997
 20
475.84997600000003
 11
40.72776749999997
 21
475.19998199999998
  0
ARC
  8
_0-0_0
  6
CONTINUOUS
 62
    7
 10
40.47776749999997
 20
475.19998199999998
 40
0.25
 50
269.99999700000001
 51
0
  0
LINE
  8
_0-0_0
  6
CONTINUOUS
 62
    7
 10
40.47776749999997
 20
474.94998199999998
 11
39.827773499999921
 21
474.94998199999998
  0
LINE
  8
_0-0_0
  6
CONTINUOUS
 62
    7
 10
39.827773499999921
 20
474.54998799999998
 11
39.827773499999921
 21
474.94998199999998
  0
LINE
  8
_0-0_0
  6
CONTINUOUS
 62
    7
 10
40.47776749999997
 20
474.54998799999998
 11
39.827773499999921
 21
474.54998799999998
  0
ARC
  8
_0-0_0
  6
CONTINUOUS
 62
    7
 10
40.47776749999997
 20
474.29998799999998
 40
0.25
 50
0
 51
90.000003000000007
  0
LINE
  8
_0-0_0
  6
CONTINUOUS
 62
    7
 10
40.72776749999997
 20
473.64999399999999
 11
40.72776749999997
 21
474.29998799999998
  0
LINE
  8
_0-0_0
  6
CONTINUOUS
 62
    7
 10
48.427780499999926
 20
448.75
 11
42.927780499999926
 21
448.75
  0
LINE
  8
_0-0_0
  6
CONTINUOUS
 62
    7
 10
48.927780499999926
 20
455
 11
48.927780499999926
 21
458.5
  0
LINE
  8
_0-0_0
  6
CONTINUOUS
 62
    7
 10
48.927780499999926
 20
455
 11
48.927780499999926
 21
454.64999399999999
  0
LINE
  8
_0-0_0
  6
CONTINUOUS
 62
    7
 10
48.927780499999926
 20
451.15570100000002
 11
48.927780499999926
 21
454.64999399999999
  0
LINE
  8
_0-0_0
  6
CONTINUOUS
 62
    7
 10
48.927780499999926
 20
449.307098
 11
48.927780499999926
 21
449.59997600000003
  0
LINE
  8
_0-0_0
  6
CONTINUOUS
 62
    7
 10
48.927780499999926
 20
449.307098
 11
48.927780499999926
 21
449.25
  0
LINE
  8
_0-0_0
  6
CONTINUOUS
 62
    7
 10
45.927780499999926
 20
453.57128899999998
 11
45.927780499999926
 21
455.12167399999998
  0
LINE
  8
_0-0_0
  6
CONTINUOUS
 62
    7
 10
45.927780499999926
 20
452.85012799999998
 11
45.927780499999926
 21
453.57128899999998
  0
ARC
  8
_0-0_0
  6
CONTINUOUS
 62
    7
 10
48.427780499999926
 20
458.5
 40
0.5
 50
269.99999700000001
 51
0
  0
ARC
  8
_0-0_0
  6
CONTINUOUS
 62
    7
 10
46.22776749999997
 20
457.69998199999998
 40
0.2999999999999999
 50
90.000003000000007
 51
179.99999099999999
  0
LINE
  8
_0-0_0
  6
CONTINUOUS
 62
    7
 10
-64.704681500000049
 20
453.69415299999997
 11
-60.380127500000071
 21
452.25262500000002
  0
LINE
  8
_0-0_0
  6
CONTINUOUS
 62
    7
 10
-66.072219500000074
 20
455.59149200000002
 11
-66.072219500000074
 21
458.94229100000001
  0
LINE
  8
_0-0_0
  6
CONTINUOUS
 62
    7
 10
-66.072219500000074
 20
466.957672
 11
-66.072219500000074
 21
467.87899800000002
  0
ARC
  8
_0-0_0
  6
CONTINUOUS
 62
    7
 10
-64.072219500000074
 20
455.59149200000002
 40
2
 50
179.99999099999999
 51
251.56498899999997
  0
LINE
  8
_0-0_0
  6
CONTINUOUS
 62
    7
 10
-81.072219500000074
 20
472.47543300000001
 11
-81.072219500000074
 21
472.32870500000001
  0
LINE
  8
_0-0_0
  6
CONTINUOUS
 62
    7
 10
-81.072219500000074
 20
472.665955
 11
-81.072219500000074
 21
472.47543300000001
  0
LINE
  8
_0-0_0
  6
CONTINUOUS
 62
    7
 10
-81.072219500000074
 20
472.84097300000002
 11
-81.072219500000074
 21
472.665955
  0
LINE
  8
_0-0_0
  6
CONTINUOUS
 62
    7
 10
-81.072219500000074
 20
472.99856599999998
 11
-81.072219500000074
 21
472.84097300000002
  0
LINE
  8
_0-0_0
  6
CONTINUOUS
 62
    7
 10
-81.072219500000074
 20
473.13699300000002
 11
-81.072219500000074
 21
472.99856599999998
  0
LINE
  8
_0-0_0
  6
CONTINUOUS
 62
    7
 10
-81.072219500000074
 20
473.25476099999997
 11
-81.072219500000074
 21
473.13699300000002
  0
LINE
  8
_0-0_0
  6
CONTINUOUS
 62
    7
 10
-81.072219500000074
 20
473.350525
 11
-81.072219500000074
 21
473.25476099999997
  0
LINE
  8
_0-0_0
  6
CONTINUOUS
 62
    7
 10
-81.072219500000074
 20
473.42330900000002
 11
-81.072219500000074
 21
473.350525
  0
LINE
  8
_0-0_0
  6
CONTINUOUS
 62
    7
 10
-81.072219500000074
 20
473.5
 11
-81.072219500000074
 21
473.42330900000002
  0
LINE
  8
_0-0_0
  6
CONTINUOUS
 62
    7
 10
-81.072219500000074
 20
473.49688700000002
 11
-81.072219500000074
 21
473.47228999999999
  0
LINE
  8
_0-0_0
  6
CONTINUOUS
 62
    7
 10
-81.072219500000074
 20
473.5
 11
-81.072219500000074
 21
473.49688700000002
  0
LINE
  8
_0-0_0
  6
CONTINUOUS
 62
    7
 10
-81.072219500000074
 20
469.00305200000003
 11
-81.072219500000074
 21
469
  0
LINE
  8
_0-0_0
  6
CONTINUOUS
 62
    7
 10
-81.072219500000074
 20
469.02767899999998
 11
-81.072219500000074
 21
469.00305200000003
  0
LINE
  8
_0-0_0
  6
CONTINUOUS
 62
    7
 10
-81.072219500000074
 20
469.07666
 11
-81.072219500000074
 21
469.02767899999998
  0
LINE
  8
_0-0_0
  6
CONTINUOUS
 62
    7
 10
-81.072219500000074
 20
469.14941399999998
 11
-81.072219500000074
 21
469.07666
  0
LINE
  8
_0-0_0
  6
CONTINUOUS
 62
    7
 10
-81.072219500000074
 20
469.24520899999999
 11
-81.072219500000074
 21
469.14941399999998
  0
LINE
  8
_0-0_0
  6
CONTINUOUS
 62
    7
 10
-81.072219500000074
 20
469.27542099999999
 11
-81.072219500000074
 21
469.24520899999999
  0
LINE
  8
_0-0_0
  6
CONTINUOUS
 62
    7
 10
-81.072219500000074
 20
469.362976
 11
-81.072219500000074
 21
469.27542099999999
  0
LINE
  8
_0-0_0
  6
CONTINUOUS
 62
    7
 10
-81.072219500000074
 20
469.50140399999998
 11
-81.072219500000074
 21
469.362976
  0
LINE
  8
_0-0_0
  6
CONTINUOUS
 62
    7
 10
-81.072219500000074
 20
469.658997
 11
-81.072219500000074
 21
469.50140399999998
  0
LINE
  8
_0-0_0
  6
CONTINUOUS
 62
    7
 10
-81.072219500000074
 20
469.83401500000002
 11
-81.072219500000074
 21
469.658997
  0
LINE
  8
_0-0_0
  6
CONTINUOUS
 62
    7
 10
-81.072219500000074
 20
470.02453600000001
 11
-81.072219500000074
 21
469.83401500000002
  0
LINE
  8
_0-0_0
  6
CONTINUOUS
 62
    7
 10
-81.072219500000074
 20
470.22851600000001
 11
-81.072219500000074
 21
470.02453600000001
  0
LINE
  8
_0-0_0
  6
CONTINUOUS
 62
    7
 10
-81.072219500000074
 20
470.44366500000001
 11
-81.072219500000074
 21
470.22851600000001
  0
LINE
  8
_0-0_0
  6
CONTINUOUS
 62
    7
 10
-81.072219500000074
 20
470.66763300000002
 11
-81.072219500000074
 21
470.44366500000001
  0
LINE
  8
_0-0_0
  6
CONTINUOUS
 62
    7
 10
-81.072219500000074
 20
470.89801
 11
-81.072219500000074
 21
470.66763300000002
  0
LINE
  8
_0-0_0
  6
CONTINUOUS
 62
    7
 10
-81.072219500000074
 20
471.13223299999999
 11
-81.072219500000074
 21
470.89801
  0
LINE
  8
_0-0_0
  6
CONTINUOUS
 62
    7
 10
-81.072219500000074
 20
471.36773699999998
 11
-81.072219500000074
 21
471.13223299999999
  0
LINE
  8
_0-0_0
  6
CONTINUOUS
 62
    7
 10
-81.072219500000074
 20
471.60195900000002
 11
-81.072219500000074
 21
471.36773699999998
  0
LINE
  8
_0-0_0
  6
CONTINUOUS
 62
    7
 10
-81.072219500000074
 20
471.832336
 11
-81.072219500000074
 21
471.60195900000002
  0
LINE
  8
_0-0_0
  6
CONTINUOUS
 62
    7
 10
-81.072219500000074
 20
472.05630500000001
 11
-81.072219500000074
 21
471.832336
  0
LINE
  8
_0-0_0
  6
CONTINUOUS
 62
    7
 10
-81.072219500000074
 20
472.27145400000001
 11
-81.072219500000074
 21
472.05630500000001
  0
LINE
  8
_0-0_0
  6
CONTINUOUS
 62
    7
 10
-81.072219500000074
 20
472.32870500000001
 11
-81.072219500000074
 21
472.27145400000001
  0
LINE
  8
_0-0_0
  6
CONTINUOUS
 62
    7
 10
-65.772216500000013
 20
465.16198700000001
 11
-65.83100950000005
 21
465.40881300000001
  0
LINE
  8
_0-0_0
  6
CONTINUOUS
 62
    7
 10
-65.83100950000005
 20
465.40881300000001
 11
-65.880783500000007
 21
465.601135
  0
LINE
  8
_0-0_0
  6
CONTINUOUS
 62
    7
 10
-65.880783500000007
 20
465.601135
 11
-65.951919500000031
 21
465.86694299999999
  0
LINE
  8
_0-0_0
  6
CONTINUOUS
 62
    7
 10
-65.951919500000031
 20
465.86694299999999
 11
-65.984878500000036
 21
465.993652
  0
LINE
  8
_0-0_0
  6
CONTINUOUS
 62
    7
 10
-65.984878500000036
 20
465.993652
 11
-66.010131500000057
 21
466.09707600000002
  0
LINE
  8
_0-0_0
  6
CONTINUOUS
 62
    7
 10
-66.010131500000057
 20
466.09707600000002
 11
-66.032165500000019
 21
466.19702100000001
  0
LINE
  8
_0-0_0
  6
CONTINUOUS
 62
    7
 10
-66.032165500000019
 20
466.19702100000001
 11
-66.053543500000046
 21
466.314728
  0
LINE
  8
_0-0_0
  6
CONTINUOUS
 62
    7
 10
-66.053543500000046
 20
466.314728
 11
-66.062118500000054
 21
466.37686200000002
  0
LINE
  8
_0-0_0
  6
CONTINUOUS
 62
    7
 10
-66.062118500000054
 20
466.37686200000002
 11
-66.068191500000012
 21
466.43746900000002
  0
LINE
  8
_0-0_0
  6
CONTINUOUS
 62
    7
 10
-66.068191500000012
 20
466.43746900000002
 11
-66.071197500000039
 21
466.486694
  0
LINE
  8
_0-0_0
  6
CONTINUOUS
 62
    7
 10
-66.071197500000039
 20
466.486694
 11
-66.072219500000074
 21
466.53491200000002
  0
LINE
  8
_0-0_0
  6
CONTINUOUS
 62
    7
 10
-65.772216500000013
 20
460.737976
 11
-65.688751500000023
 21
461.11663800000002
  0
LINE
  8
_0-0_0
  6
CONTINUOUS
 62
    7
 10
-65.688751500000023
 20
461.11663800000002
 11
-65.648666500000047
 21
461.30816700000003
  0
LINE
  8
_0-0_0
  6
CONTINUOUS
 62
    7
 10
-65.648666500000047
 20
461.30816700000003
 11
-65.592590500000028
 21
461.598206
  0
LINE
  8
_0-0_0
  6
CONTINUOUS
 62
    7
 10
-65.592590500000028
 20
461.598206
 11
-65.554992500000026
 21
461.81778000000003
  0
LINE
  8
_0-0_0
  6
CONTINUOUS
 62
    7
 10
-65.554992500000026
 20
461.81778000000003
 11
-65.522338500000046
 21
462.03903200000002
  0
LINE
  8
_0-0_0
  6
CONTINUOUS
 62
    7
 10
-65.522338500000046
 20
462.03903200000002
 11
-65.495178500000065
 21
462.26583900000003
  0
LINE
  8
_0-0_0
  6
CONTINUOUS
 62
    7
 10
-65.495178500000065
 20
462.26583900000003
 11
-65.47511350000002
 21
462.493225
  0
LINE
  8
_0-0_0
  6
CONTINUOUS
 62
    7
 10
-65.47511350000002
 20
462.493225
 11
-65.467956500000014
 21
462.606964
  0
LINE
  8
_0-0_0
  6
CONTINUOUS
 62
    7
 10
-65.467956500000014
 20
462.606964
 11
-65.462799500000074
 21
462.720642
  0
LINE
  8
_0-0_0
  6
CONTINUOUS
 62
    7
 10
-65.462799500000074
 20
462.720642
 11
-65.459076500000037
 21
462.87207000000001
  0
LINE
  8
_0-0_0
  6
CONTINUOUS
 62
    7
 10
-65.459076500000037
 20
462.87207000000001
 11
-65.45903050000004
 21
463.02331500000003
  0
LINE
  8
_0-0_0
  6
CONTINUOUS
 62
    7
 10
-65.45903050000004
 20
463.02331500000003
 11
-65.462600500000008
 21
463.17437699999999
  0
LINE
  8
_0-0_0
  6
CONTINUOUS
 62
    7
 10
-65.462600500000008
 20
463.17437699999999
 11
-65.47210750000005
 21
463.36291499999999
  0
LINE
  8
_0-0_0
  6
CONTINUOUS
 62
    7
 10
-65.47210750000005
 20
463.36291499999999
 11
-65.486969500000043
 21
463.55117799999999
  0
LINE
  8
_0-0_0
  6
CONTINUOUS
 62
    7
 10
-65.486969500000043
 20
463.55117799999999
 11
-65.506897500000036
 21
463.739105
  0
LINE
  8
_0-0_0
  6
CONTINUOUS
 62
    7
 10
-65.506897500000036
 20
463.739105
 11
-65.523285500000043
 21
463.86798099999999
  0
LINE
  8
_0-0_0
  6
CONTINUOUS
 62
    7
 10
-65.523285500000043
 20
463.86798099999999
 11
-65.541702500000042
 21
463.99664300000001
  0
LINE
  8
_0-0_0
  6
CONTINUOUS
 62
    7
 10
-65.541702500000042
 20
463.99664300000001
 11
-65.56585750000005
 21
464.14855999999997
  0
LINE
  8
_0-0_0
  6
CONTINUOUS
 62
    7
 10
-65.56585750000005
 20
464.14855999999997
 11
-65.592254500000024
 21
464.29992700000003
  0
LINE
  8
_0-0_0
  6
CONTINUOUS
 62
    7
 10
-65.592254500000024
 20
464.29992700000003
 11
-65.648422500000038
 21
464.59054600000002
  0
LINE
  8
_0-0_0
  6
CONTINUOUS
 62
    7
 10
-65.648422500000038
 20
464.59054600000002
 11
-65.68858350000005
 21
464.78250100000002
  0
LINE
  8
_0-0_0
  6
CONTINUOUS
 62
    7
 10
-65.68858350000005
 20
464.78250100000002
 11
-65.772216500000013
 21
465.16198700000001
  0
LINE
  8
_0-0_0
  6
CONTINUOUS
 62
    7
 10
-65.772216500000013
 20
460.737976
 11
-65.831024500000012
 21
460.49111900000003
  0
LINE
  8
_0-0_0
  6
CONTINUOUS
 62
    7
 10
-65.831024500000012
 20
460.49111900000003
 11
-65.880783500000007
 21
460.29879799999998
  0
LINE
  8
_0-0_0
  6
CONTINUOUS
 62
    7
 10
-65.880783500000007
 20
460.29879799999998
 11
-65.951904500000069
 21
460.033051
  0
LINE
  8
_0-0_0
  6
CONTINUOUS
 62
    7
 10
-65.951904500000069
 20
460.033051
 11
-65.984863500000074
 21
459.906342
  0
LINE
  8
_0-0_0
  6
CONTINUOUS
 62
    7
 10
-65.984863500000074
 20
459.906342
 11
-66.010131500000057
 21
459.80291699999998
  0
LINE
  8
_0-0_0
  6
CONTINUOUS
 62
    7
 10
-66.010131500000057
 20
459.80291699999998
 11
-66.032165500000019
 21
459.70294200000001
  0
LINE
  8
_0-0_0
  6
CONTINUOUS
 62
    7
 10
-66.032165500000019
 20
459.70294200000001
 11
-66.053543500000046
 21
459.58523600000001
  0
LINE
  8
_0-0_0
  6
CONTINUOUS
 62
    7
 10
-66.053543500000046
 20
459.58523600000001
 11
-66.062118500000054
 21
459.52310199999999
  0
LINE
  8
_0-0_0
  6
CONTINUOUS
 62
    7
 10
-66.062118500000054
 20
459.52310199999999
 11
-66.068191500000012
 21
459.46249399999999
  0
LINE
  8
_0-0_0
  6
CONTINUOUS
 62
    7
 10
-66.068191500000012
 20
459.46249399999999
 11
-66.071197500000039
 21
459.41326900000001
  0
LINE
  8
_0-0_0
  6
CONTINUOUS
 62
    7
 10
-66.071197500000039
 20
459.41326900000001
 11
-66.072219500000074
 21
459.36505099999999
  0
ARC
  8
_0-0_0
  6
CONTINUOUS
 62
    7
 10
48.427780499999926
 20
449.25
 40
0.5
 50
269.99999700000001
 51
0
  0
LINE
  8
_0-0_0
  6
CONTINUOUS
 62
    7
 10
48.383437499999957
 20
453.57128899999998
 11
48.383437499999957
 21
456.89999399999999
  0
LINE
  8
_0-0_0
  6
CONTINUOUS
 62
    7
 10
48.383437499999957
 20
452.39999399999999
 11
48.383437499999957
 21
453.57128899999998
  0
CIRCLE
  8
_0-0_0
  6
CONTINUOUS
 62
    7
 10
-28.072219500000074
 20
468.25
 40
2.5
  0
CIRCLE
  8
_0-0_0
  6
CONTINUOUS
 62
    7
 10
27.927780499999926
 20
468.25
 40
2.5
  0
LINE
  8
_0-0_0
  6
CONTINUOUS
 62
    7
 10
-66.072219500000074
 20
459.05767800000001
 11
-75.780044500000031
 21
459.05767800000001
  0
LINE
  8
_0-0_0
  6
CONTINUOUS
 62
    7
 10
-75.780044500000031
 20
456.44998199999998
 11
-75.83453350000002
 21
456.51992799999999
  0
LINE
  8
_0-0_0
  6
CONTINUOUS
 62
    7
 10
-75.83453350000002
 20
456.51992799999999
 11
-75.885635500000035
 21
456.58874500000002
  0
LINE
  8
_0-0_0
  6
CONTINUOUS
 62
    7
 10
-75.885635500000035
 20
456.58874500000002
 11
-75.933273500000041
 21
456.65625
  0
LINE
  8
_0-0_0
  6
CONTINUOUS
 62
    7
 10
-75.933273500000041
 20
456.65625
 11
-75.977768500000025
 21
456.72280899999998
  0
LINE
  8
_0-0_0
  6
CONTINUOUS
 62
    7
 10
-75.977768500000025
 20
456.72280899999998
 11
-76.032486500000061
 21
456.81033300000001
  0
LINE
  8
_0-0_0
  6
CONTINUOUS
 62
    7
 10
-76.032486500000061
 20
456.81033300000001
 11
-76.082000500000049
 21
456.89645400000001
  0
LINE
  8
_0-0_0
  6
CONTINUOUS
 62
    7
 10
-76.082000500000049
 20
456.89645400000001
 11
-76.126464500000054
 21
456.98126200000002
  0
LINE
  8
_0-0_0
  6
CONTINUOUS
 62
    7
 10
-76.126464500000054
 20
456.98126200000002
 11
-76.173431500000049
 21
457.08160400000003
  0
LINE
  8
_0-0_0
  6
CONTINUOUS
 62
    7
 10
-76.173431500000049
 20
457.08160400000003
 11
-76.213638500000059
 21
457.18051100000002
  0
LINE
  8
_0-0_0
  6
CONTINUOUS
 62
    7
 10
-76.213638500000059
 20
457.18051100000002
 11
-76.247299500000054
 21
457.27825899999999
  0
LINE
  8
_0-0_0
  6
CONTINUOUS
 62
    7
 10
-76.247299500000054
 20
457.27825899999999
 11
-76.274597500000027
 21
457.375092
  0
LINE
  8
_0-0_0
  6
CONTINUOUS
 62
    7
 10
-76.274597500000027
 20
457.375092
 11
-76.29563950000005
 21
457.47113000000002
  0
LINE
  8
_0-0_0
  6
CONTINUOUS
 62
    7
 10
-76.29563950000005
 20
457.47113000000002
 11
-76.311569500000019
 21
457.57498199999998
  0
LINE
  8
_0-0_0
  6
CONTINUOUS
 62
    7
 10
-76.311569500000019
 20
457.57498199999998
 11
-76.320327500000076
 21
457.678406
  0
LINE
  8
_0-0_0
  6
CONTINUOUS
 62
    7
 10
-76.320327500000076
 20
457.678406
 11
-76.321960500000046
 21
457.78164700000002
  0
LINE
  8
_0-0_0
  6
CONTINUOUS
 62
    7
 10
-76.321960500000046
 20
457.78164700000002
 11
-76.316497500000025
 21
457.88494900000001
  0
LINE
  8
_0-0_0
  6
CONTINUOUS
 62
    7
 10
-76.316497500000025
 20
457.88494900000001
 11
-76.303894500000069
 21
457.98852499999998
  0
LINE
  8
_0-0_0
  6
CONTINUOUS
 62
    7
 10
-76.303894500000069
 20
457.98852499999998
 11
-76.284073500000034
 21
458.09268200000002
  0
LINE
  8
_0-0_0
  6
CONTINUOUS
 62
    7
 10
-76.284073500000034
 20
458.09268200000002
 11
-76.256927500000074
 21
458.197632
  0
LINE
  8
_0-0_0
  6
CONTINUOUS
 62
    7
 10
-76.256927500000074
 20
458.197632
 11
-76.222274500000026
 21
458.30367999999999
  0
LINE
  8
_0-0_0
  6
CONTINUOUS
 62
    7
 10
-76.222274500000026
 20
458.30367999999999
 11
-76.179931500000066
 21
458.41104100000001
  0
LINE
  8
_0-0_0
  6
CONTINUOUS
 62
    7
 10
-76.179931500000066
 20
458.41104100000001
 11
-76.129608500000018
 21
458.52005000000003
  0
LINE
  8
_0-0_0
  6
CONTINUOUS
 62
    7
 10
-76.129608500000018
 20
458.52005000000003
 11
-76.075363500000037
 21
458.623199
  0
LINE
  8
_0-0_0
  6
CONTINUOUS
 62
    7
 10
-76.075363500000037
 20
458.623199
 11
-76.013656500000025
 21
458.72824100000003
  0
LINE
  8
_0-0_0
  6
CONTINUOUS
 62
    7
 10
-76.013656500000025
 20
458.72824100000003
 11
-75.944137500000011
 21
458.83548000000002
  0
LINE
  8
_0-0_0
  6
CONTINUOUS
 62
    7
 10
-75.944137500000011
 20
458.83548000000002
 11
-75.866424500000051
 21
458.94519000000003
  0
LINE
  8
_0-0_0
  6
CONTINUOUS
 62
    7
 10
-75.866424500000051
 20
458.94519000000003
 11
-75.780044500000031
 21
459.05767800000001
  0
LINE
  8
_0-0_0
  6
CONTINUOUS
 62
    7
 10
-66.072219500000074
 20
456.44998199999998
 11
-75.780044500000031
 21
456.44998199999998
  0
LINE
  8
_0-0_0
  6
CONTINUOUS
 62
    7
 10
-66.072219500000074
 20
458.94229100000001
 11
-66.072219500000074
 21
459.05767800000001
  0
LINE
  8
_0-0_0
  6
CONTINUOUS
 62
    7
 10
-75.822219500000074
 20
456.44998199999998
 11
-75.780044500000031
 21
456.44998199999998
  0
LINE
  8
_0-0_0
  6
CONTINUOUS
 62
    7
 10
-66.072219500000074
 20
466.842285
 11
-75.780044500000031
 21
466.842285
  0
LINE
  8
_0-0_0
  6
CONTINUOUS
 62
    7
 10
-66.072219500000074
 20
466.957672
 11
-66.072219500000074
 21
466.842285
  0
LINE
  8
_0-0_0
  6
CONTINUOUS
 62
    7
 10
-75.780044500000031
 20
466.842285
 11
-75.83453350000002
 21
466.91223100000002
  0
LINE
  8
_0-0_0
  6
CONTINUOUS
 62
    7
 10
-75.83453350000002
 20
466.91223100000002
 11
-75.885635500000035
 21
466.98104899999998
  0
LINE
  8
_0-0_0
  6
CONTINUOUS
 62
    7
 10
-75.885635500000035
 20
466.98104899999998
 11
-75.933273500000041
 21
467.04855300000003
  0
LINE
  8
_0-0_0
  6
CONTINUOUS
 62
    7
 10
-75.933273500000041
 20
467.04855300000003
 11
-75.977768500000025
 21
467.11511200000001
  0
LINE
  8
_0-0_0
  6
CONTINUOUS
 62
    7
 10
-75.977768500000025
 20
467.11511200000001
 11
-76.032486500000061
 21
467.20263699999998
  0
LINE
  8
_0-0_0
  6
CONTINUOUS
 62
    7
 10
-76.032486500000061
 20
467.20263699999998
 11
-76.082000500000049
 21
467.28875699999998
  0
LINE
  8
_0-0_0
  6
CONTINUOUS
 62
    7
 10
-76.082000500000049
 20
467.28875699999998
 11
-76.126464500000054
 21
467.37359600000002
  0
LINE
  8
_0-0_0
  6
CONTINUOUS
 62
    7
 10
-76.126464500000054
 20
467.37359600000002
 11
-76.173431500000049
 21
467.473907
  0
LINE
  8
_0-0_0
  6
CONTINUOUS
 62
    7
 10
-76.173431500000049
 20
467.473907
 11
-76.213638500000059
 21
467.57281499999999
  0
LINE
  8
_0-0_0
  6
CONTINUOUS
 62
    7
 10
-76.213638500000059
 20
467.57281499999999
 11
-76.247299500000054
 21
467.670593
  0
LINE
  8
_0-0_0
  6
CONTINUOUS
 62
    7
 10
-76.247299500000054
 20
467.670593
 11
-76.274597500000027
 21
467.76739500000002
  0
LINE
  8
_0-0_0
  6
CONTINUOUS
 62
    7
 10
-76.274597500000027
 20
467.76739500000002
 11
-76.29563950000005
 21
467.86343399999998
  0
LINE
  8
_0-0_0
  6
CONTINUOUS
 62
    7
 10
-76.29563950000005
 20
467.86343399999998
 11
-76.311569500000019
 21
467.967285
  0
LINE
  8
_0-0_0
  6
CONTINUOUS
 62
    7
 10
-76.311569500000019
 20
467.967285
 11
-76.320327500000076
 21
468.07070900000002
  0
LINE
  8
_0-0_0
  6
CONTINUOUS
 62
    7
 10
-76.320327500000076
 20
468.07070900000002
 11
-76.321960500000046
 21
468.17394999999999
  0
LINE
  8
_0-0_0
  6
CONTINUOUS
 62
    7
 10
-76.321960500000046
 20
468.17394999999999
 11
-76.316497500000025
 21
468.27725199999998
  0
LINE
  8
_0-0_0
  6
CONTINUOUS
 62
    7
 10
-76.316497500000025
 20
468.27725199999998
 11
-76.303894500000069
 21
468.38082900000001
  0
LINE
  8
_0-0_0
  6
CONTINUOUS
 62
    7
 10
-76.303894500000069
 20
468.38082900000001
 11
-76.284073500000034
 21
468.48498499999999
  0
LINE
  8
_0-0_0
  6
CONTINUOUS
 62
    7
 10
-76.284073500000034
 20
468.48498499999999
 11
-76.256927500000074
 21
468.58993500000003
  0
LINE
  8
_0-0_0
  6
CONTINUOUS
 62
    7
 10
-76.256927500000074
 20
468.58993500000003
 11
-76.222274500000026
 21
468.69598400000001
  0
LINE
  8
_0-0_0
  6
CONTINUOUS
 62
    7
 10
-76.222274500000026
 20
468.69598400000001
 11
-76.179931500000066
 21
468.80334499999998
  0
LINE
  8
_0-0_0
  6
CONTINUOUS
 62
    7
 10
-76.179931500000066
 20
468.80334499999998
 11
-76.129608500000018
 21
468.91235399999999
  0
LINE
  8
_0-0_0
  6
CONTINUOUS
 62
    7
 10
-76.129608500000018
 20
468.91235399999999
 11
-76.083923500000026
 21
469
  0
LINE
  8
_0-0_0
  6
CONTINUOUS
 62
    7
 10
-81.072219500000074
 20
472.47543300000001
 11
-81.322219500000074
 21
472.5
  0
LINE
  8
_0-0_0
  6
CONTINUOUS
 62
    7
 10
-81.072219500000074
 20
472.27145400000001
 11
-81.322219500000074
 21
472.5
  0
LINE
  8
_0-0_0
  6
CONTINUOUS
 62
    7
 10
-81.072219500000074
 20
472.665955
 11
-81.322219500000074
 21
472.71945199999999
  0
LINE
  8
_0-0_0
  6
CONTINUOUS
 62
    7
 10
-81.072219500000074
 20
472.47543300000001
 11
-81.322219500000074
 21
472.71945199999999
  0
LINE
  8
_0-0_0
  6
CONTINUOUS
 62
    7
 10
-81.072219500000074
 20
472.84097300000002
 11
-81.322219500000074
 21
472.922821
  0
LINE
  8
_0-0_0
  6
CONTINUOUS
 62
    7
 10
-81.072219500000074
 20
472.665955
 11
-81.322219500000074
 21
472.922821
  0
LINE
  8
_0-0_0
  6
CONTINUOUS
 62
    7
 10
-81.072219500000074
 20
472.99856599999998
 11
-81.322219500000074
 21
473.10784899999999
  0
LINE
  8
_0-0_0
  6
CONTINUOUS
 62
    7
 10
-81.072219500000074
 20
472.84097300000002
 11
-81.322219500000074
 21
473.10784899999999
  0
LINE
  8
_0-0_0
  6
CONTINUOUS
 62
    7
 10
-81.072219500000074
 20
473.13699300000002
 11
-81.322219500000074
 21
473.27252199999998
  0
LINE
  8
_0-0_0
  6
CONTINUOUS
 62
    7
 10
-81.072219500000074
 20
472.99856599999998
 11
-81.322219500000074
 21
473.27252199999998
  0
LINE
  8
_0-0_0
  6
CONTINUOUS
 62
    7
 10
-81.072219500000074
 20
473.25476099999997
 11
-81.322219500000074
 21
473.41503899999998
  0
LINE
  8
_0-0_0
  6
CONTINUOUS
 62
    7
 10
-81.072219500000074
 20
473.13699300000002
 11
-81.322219500000074
 21
473.41503899999998
  0
LINE
  8
_0-0_0
  6
CONTINUOUS
 62
    7
 10
-81.072219500000074
 20
473.350525
 11
-81.322219500000074
 21
473.53384399999999
  0
LINE
  8
_0-0_0
  6
CONTINUOUS
 62
    7
 10
-81.072219500000074
 20
473.25476099999997
 11
-81.322219500000074
 21
473.53384399999999
  0
LINE
  8
_0-0_0
  6
CONTINUOUS
 62
    7
 10
-81.072219500000074
 20
473.42330900000002
 11
-81.322219500000074
 21
473.62762500000002
  0
LINE
  8
_0-0_0
  6
CONTINUOUS
 62
    7
 10
-81.072219500000074
 20
473.350525
 11
-81.322219500000074
 21
473.62762500000002
  0
LINE
  8
_0-0_0
  6
CONTINUOUS
 62
    7
 10
-81.072219500000074
 20
473.47228999999999
 11
-81.322219500000074
 21
473.69534299999998
  0
LINE
  8
_0-0_0
  6
CONTINUOUS
 62
    7
 10
-81.072219500000074
 20
473.42330900000002
 11
-81.322219500000074
 21
473.69534299999998
  0
LINE
  8
_0-0_0
  6
CONTINUOUS
 62
    7
 10
-81.072219500000074
 20
473.49688700000002
 11
-81.322219500000074
 21
473.73629799999998
  0
LINE
  8
_0-0_0
  6
CONTINUOUS
 62
    7
 10
-81.072219500000074
 20
473.47228999999999
 11
-81.322219500000074
 21
473.73629799999998
  0
LINE
  8
_0-0_0
  6
CONTINUOUS
 62
    7
 10
-81.072219500000074
 20
473.49688700000002
 11
-81.322219500000074
 21
473.75
  0
LINE
  8
_0-0_0
  6
CONTINUOUS
 62
    7
 10
-81.072219500000074
 20
469.00305200000003
 11
-81.322219500000074
 21
468.75
  0
LINE
  8
_0-0_0
  6
CONTINUOUS
 62
    7
 10
-81.072219500000074
 20
469.02767899999998
 11
-81.322219500000074
 21
468.76367199999999
  0
LINE
  8
_0-0_0
  6
CONTINUOUS
 62
    7
 10
-81.072219500000074
 20
469.00305200000003
 11
-81.322219500000074
 21
468.76367199999999
  0
LINE
  8
_0-0_0
  6
CONTINUOUS
 62
    7
 10
-81.072219500000074
 20
469.07666
 11
-81.322219500000074
 21
468.80462599999998
  0
LINE
  8
_0-0_0
  6
CONTINUOUS
 62
    7
 10
-81.072219500000074
 20
469.02767899999998
 11
-81.322219500000074
 21
468.80462599999998
  0
LINE
  8
_0-0_0
  6
CONTINUOUS
 62
    7
 10
-81.072219500000074
 20
469.14941399999998
 11
-81.322219500000074
 21
468.872345
  0
LINE
  8
_0-0_0
  6
CONTINUOUS
 62
    7
 10
-81.072219500000074
 20
469.07666
 11
-81.322219500000074
 21
468.872345
  0
LINE
  8
_0-0_0
  6
CONTINUOUS
 62
    7
 10
-81.072219500000074
 20
469.24520899999999
 11
-81.322219500000074
 21
468.96612499999998
  0
LINE
  8
_0-0_0
  6
CONTINUOUS
 62
    7
 10
-81.072219500000074
 20
469.14941399999998
 11
-81.322219500000074
 21
468.96612499999998
  0
LINE
  8
_0-0_0
  6
CONTINUOUS
 62
    7
 10
-81.072219500000074
 20
469.24520899999999
 11
-81.202179500000057
 21
469.16137700000002
  0
LINE
  8
_0-0_0
  6
CONTINUOUS
 62
    7
 10
-81.072219500000074
 20
469.362976
 11
-81.322219500000074
 21
469.08492999999999
  0
LINE
  8
_0-0_0
  6
CONTINUOUS
 62
    7
 10
-81.202179500000057
 20
469.16137700000002
 11
-81.322219500000074
 21
469.08492999999999
  0
LINE
  8
_0-0_0
  6
CONTINUOUS
 62
    7
 10
-81.072219500000074
 20
469.50140399999998
 11
-81.322219500000074
 21
469.22744799999998
  0
LINE
  8
_0-0_0
  6
CONTINUOUS
 62
    7
 10
-81.072219500000074
 20
469.362976
 11
-81.322219500000074
 21
469.22744799999998
  0
LINE
  8
_0-0_0
  6
CONTINUOUS
 62
    7
 10
-81.072219500000074
 20
469.658997
 11
-81.322219500000074
 21
469.39211999999998
  0
LINE
  8
_0-0_0
  6
CONTINUOUS
 62
    7
 10
-81.072219500000074
 20
469.50140399999998
 11
-81.322219500000074
 21
469.39211999999998
  0
LINE
  8
_0-0_0
  6
CONTINUOUS
 62
    7
 10
-81.072219500000074
 20
469.83401500000002
 11
-81.322219500000074
 21
469.57714800000002
  0
LINE
  8
_0-0_0
  6
CONTINUOUS
 62
    7
 10
-81.072219500000074
 20
469.658997
 11
-81.322219500000074
 21
469.57714800000002
  0
LINE
  8
_0-0_0
  6
CONTINUOUS
 62
    7
 10
-81.072219500000074
 20
470.02453600000001
 11
-81.322219500000074
 21
469.78051799999997
  0
LINE
  8
_0-0_0
  6
CONTINUOUS
 62
    7
 10
-81.072219500000074
 20
469.83401500000002
 11
-81.322219500000074
 21
469.78051799999997
  0
LINE
  8
_0-0_0
  6
CONTINUOUS
 62
    7
 10
-81.072219500000074
 20
470.22851600000001
 11
-81.322219500000074
 21
470
  0
LINE
  8
_0-0_0
  6
CONTINUOUS
 62
    7
 10
-81.072219500000074
 20
470.02453600000001
 11
-81.322219500000074
 21
470
  0
LINE
  8
_0-0_0
  6
CONTINUOUS
 62
    7
 10
-81.072219500000074
 20
470.44366500000001
 11
-81.322219500000074
 21
470.23315400000001
  0
LINE
  8
_0-0_0
  6
CONTINUOUS
 62
    7
 10
-81.072219500000074
 20
470.22851600000001
 11
-81.322219500000074
 21
470.23315400000001
  0
LINE
  8
_0-0_0
  6
CONTINUOUS
 62
    7
 10
-81.072219500000074
 20
470.66763300000002
 11
-81.322219500000074
 21
470.47744799999998
  0
LINE
  8
_0-0_0
  6
CONTINUOUS
 62
    7
 10
-81.072219500000074
 20
470.44366500000001
 11
-81.322219500000074
 21
470.47744799999998
  0
LINE
  8
_0-0_0
  6
CONTINUOUS
 62
    7
 10
-81.072219500000074
 20
470.89801
 11
-81.322219500000074
 21
470.73019399999998
  0
LINE
  8
_0-0_0
  6
CONTINUOUS
 62
    7
 10
-81.072219500000074
 20
470.66763300000002
 11
-81.322219500000074
 21
470.73019399999998
  0
LINE
  8
_0-0_0
  6
CONTINUOUS
 62
    7
 10
-81.072219500000074
 20
471.13223299999999
 11
-81.322219500000074
 21
470.98864700000001
  0
LINE
  8
_0-0_0
  6
CONTINUOUS
 62
    7
 10
-81.072219500000074
 20
470.89801
 11
-81.322219500000074
 21
470.98864700000001
  0
LINE
  8
_0-0_0
  6
CONTINUOUS
 62
    7
 10
-81.072219500000074
 20
471.36773699999998
 11
-81.322219500000074
 21
471.25
  0
LINE
  8
_0-0_0
  6
CONTINUOUS
 62
    7
 10
-81.072219500000074
 20
471.13223299999999
 11
-81.322219500000074
 21
471.25
  0
LINE
  8
_0-0_0
  6
CONTINUOUS
 62
    7
 10
-81.072219500000074
 20
471.60195900000002
 11
-81.322219500000074
 21
471.51129200000003
  0
LINE
  8
_0-0_0
  6
CONTINUOUS
 62
    7
 10
-81.072219500000074
 20
471.36773699999998
 11
-81.322219500000074
 21
471.51129200000003
  0
LINE
  8
_0-0_0
  6
CONTINUOUS
 62
    7
 10
-81.072219500000074
 20
471.832336
 11
-81.322219500000074
 21
471.76977499999998
  0
LINE
  8
_0-0_0
  6
CONTINUOUS
 62
    7
 10
-81.072219500000074
 20
471.60195900000002
 11
-81.322219500000074
 21
471.76977499999998
  0
LINE
  8
_0-0_0
  6
CONTINUOUS
 62
    7
 10
-81.072219500000074
 20
472.05630500000001
 11
-81.322219500000074
 21
472.02252199999998
  0
LINE
  8
_0-0_0
  6
CONTINUOUS
 62
    7
 10
-81.072219500000074
 20
471.832336
 11
-81.322219500000074
 21
472.02252199999998
  0
LINE
  8
_0-0_0
  6
CONTINUOUS
 62
    7
 10
-81.072219500000074
 20
472.27145400000001
 11
-81.322219500000074
 21
472.26681500000001
  0
LINE
  8
_0-0_0
  6
CONTINUOUS
 62
    7
 10
-81.072219500000074
 20
472.05630500000001
 11
-81.322219500000074
 21
472.26681500000001
  0
LINE
  8
_0-0_0
  6
CONTINUOUS
 62
    7
 10
-66.072219500000074
 20
464.512024
 11
-66.072219500000074
 21
465.55767800000001
  0
LINE
  8
_0-0_0
  6
CONTINUOUS
 62
    7
 10
-66.072219500000074
 20
466.842285
 11
-66.072219500000074
 21
465.55767800000001
  0
LINE
  8
_0-0_0
  6
CONTINUOUS
 62
    7
 10
-66.072219500000074
 20
464.512024
 11
-66.072219500000074
 21
461.38793900000002
  0
LINE
  8
_0-0_0
  6
CONTINUOUS
 62
    7
 10
-66.072219500000074
 20
460.342285
 11
-66.072219500000074
 21
459.05767800000001
  0
LINE
  8
_0-0_0
  6
CONTINUOUS
 62
    7
 10
-66.072219500000074
 20
460.342285
 11
-66.072219500000074
 21
461.38793900000002
  0
LINE
  8
_0-0_0
  6
CONTINUOUS
 62
    7
 10
48.527786499999934
 20
453.69113199999998
 11
48.527786499999934
 21
456.64999399999999
  0
LINE
  8
_0-0_0
  6
CONTINUOUS
 62
    7
 10
48.527786499999934
 20
452.64999399999999
 11
48.527786499999934
 21
453.69113199999998
  0
LINE
  8
_0-0_0
  6
CONTINUOUS
 62
    7
 10
-66.072219500000074
 20
460.342285
 11
-75.780044500000031
 21
460.342285
  0
ARC
  8
_0-0_0
  6
CONTINUOUS
 62
    7
 10
-70.898330500000043
 20
459.69909699999999
 40
4.9238749999999998
 50
172.49424200000001
 51
181.535968
  0
ARC
  8
_0-0_0
  6
CONTINUOUS
 62
    7
 10
-70.860305500000038
 20
459.70404100000002
 40
4.9620009999999999
 50
181.58130700000004
 51
187.48478900000003
  0
LINE
  8
_0-0_0
  6
CONTINUOUS
 62
    7
 10
-77.072219500000074
 20
460.21844499999997
 11
-77.072219500000074
 21
457.69998199999998
  0
LINE
  8
_0-0_0
  6
CONTINUOUS
 62
    7
 10
-77.072219500000074
 20
468.19998199999998
 11
-77.072219500000074
 21
460.21844499999997
  0
LINE
  8
_0-0_0
  6
CONTINUOUS
 62
    7
 10
-75.780044500000031
 20
465.55767800000001
 11
-75.874389500000063
 21
465.31106599999998
  0
LINE
  8
_0-0_0
  6
CONTINUOUS
 62
    7
 10
-75.874389500000063
 20
465.31106599999998
 11
-75.95832850000005
 21
465.07110599999999
  0
LINE
  8
_0-0_0
  6
CONTINUOUS
 62
    7
 10
-75.95832850000005
 20
465.07110599999999
 11
-76.032486500000061
 21
464.836975
  0
LINE
  8
_0-0_0
  6
CONTINUOUS
 62
    7
 10
-76.032486500000061
 20
464.836975
 11
-76.097366500000021
 21
464.60794099999998
  0
LINE
  8
_0-0_0
  6
CONTINUOUS
 62
    7
 10
-76.097366500000021
 20
464.60794099999998
 11
-76.153411500000061
 21
464.38326999999998
  0
LINE
  8
_0-0_0
  6
CONTINUOUS
 62
    7
 10
-76.153411500000061
 20
464.38326999999998
 11
-76.200973500000032
 21
464.16229199999998
  0
LINE
  8
_0-0_0
  6
CONTINUOUS
 62
    7
 10
-76.200973500000032
 20
464.16229199999998
 11
-76.240387500000054
 21
463.944366
  0
LINE
  8
_0-0_0
  6
CONTINUOUS
 62
    7
 10
-76.240387500000054
 20
463.944366
 11
-76.271865500000047
 21
463.72891199999998
  0
LINE
  8
_0-0_0
  6
CONTINUOUS
 62
    7
 10
-76.271865500000047
 20
463.72891199999998
 11
-76.29563950000005
 21
463.51538099999999
  0
LINE
  8
_0-0_0
  6
CONTINUOUS
 62
    7
 10
-76.29563950000005
 20
463.51538099999999
 11
-76.311569500000019
 21
463.30767800000001
  0
LINE
  8
_0-0_0
  6
CONTINUOUS
 62
    7
 10
-76.311569500000019
 20
463.30767800000001
 11
-76.320327500000076
 21
463.10082999999997
  0
LINE
  8
_0-0_0
  6
CONTINUOUS
 62
    7
 10
-76.320327500000076
 20
463.10082999999997
 11
-76.321960500000046
 21
462.89434799999998
  0
LINE
  8
_0-0_0
  6
CONTINUOUS
 62
    7
 10
-76.321960500000046
 20
462.89434799999998
 11
-76.316497500000025
 21
462.68777499999999
  0
LINE
  8
_0-0_0
  6
CONTINUOUS
 62
    7
 10
-76.316497500000025
 20
462.68777499999999
 11
-76.303894500000069
 21
462.480591
  0
LINE
  8
_0-0_0
  6
CONTINUOUS
 62
    7
 10
-76.303894500000069
 20
462.480591
 11
-76.284073500000034
 21
462.27227799999997
  0
LINE
  8
_0-0_0
  6
CONTINUOUS
 62
    7
 10
-76.284073500000034
 20
462.27227799999997
 11
-76.256927500000074
 21
462.06237800000002
  0
LINE
  8
_0-0_0
  6
CONTINUOUS
 62
    7
 10
-76.256927500000074
 20
462.06237800000002
 11
-76.222274500000026
 21
461.85031099999998
  0
LINE
  8
_0-0_0
  6
CONTINUOUS
 62
    7
 10
-76.222274500000026
 20
461.85031099999998
 11
-76.179931500000066
 21
461.635559
  0
LINE
  8
_0-0_0
  6
CONTINUOUS
 62
    7
 10
-76.179931500000066
 20
461.635559
 11
-76.129608500000018
 21
461.41754200000003
  0
LINE
  8
_0-0_0
  6
CONTINUOUS
 62
    7
 10
-76.129608500000018
 20
461.41754200000003
 11
-76.075363500000037
 21
461.21124300000002
  0
LINE
  8
_0-0_0
  6
CONTINUOUS
 62
    7
 10
-76.075363500000037
 20
461.21124300000002
 11
-76.013656500000025
 21
461.00116000000003
  0
LINE
  8
_0-0_0
  6
CONTINUOUS
 62
    7
 10
-76.013656500000025
 20
461.00116000000003
 11
-75.944137500000011
 21
460.78668199999998
  0
LINE
  8
_0-0_0
  6
CONTINUOUS
 62
    7
 10
-75.944137500000011
 20
460.78668199999998
 11
-75.866424500000051
 21
460.56726099999997
  0
LINE
  8
_0-0_0
  6
CONTINUOUS
 62
    7
 10
-75.866424500000051
 20
460.56726099999997
 11
-75.780044500000031
 21
460.342285
  0
ARC
  8
_0-0_0
  6
CONTINUOUS
 62
    7
 10
-70.908493500000077
 20
466.19998199999998
 40
4.9136889999999998
 50
172.48898299999999
 51
187.51101699999998
  0
LINE
  8
_0-0_0
  6
CONTINUOUS
 62
    7
 10
-66.072219500000074
 20
465.55767800000001
 11
-75.780044500000031
 21
465.55767800000001
  0
LINE
  8
_0-0_0
  6
CONTINUOUS
 62
    7
 10
-90.822219500000074
 20
472.47543300000001
 11
-90.572219500000074
 21
472.5
  0
LINE
  8
_0-0_0
  6
CONTINUOUS
 62
    7
 10
-90.572219500000074
 20
472.5
 11
-81.322219500000074
 21
472.5
  0
LINE
  8
_0-0_0
  6
CONTINUOUS
 62
    7
 10
-90.822219500000074
 20
472.27145400000001
 11
-90.572219500000074
 21
472.5
  0
LINE
  8
_0-0_0
  6
CONTINUOUS
 62
    7
 10
-90.822219500000074
 20
472.27145400000001
 11
-81.072219500000074
 21
472.27145400000001
  0
LINE
  8
_0-0_0
  6
CONTINUOUS
 62
    7
 10
-90.822219500000074
 20
472.665955
 11
-90.572219500000074
 21
472.71945199999999
  0
LINE
  8
_0-0_0
  6
CONTINUOUS
 62
    7
 10
-90.572219500000074
 20
472.71945199999999
 11
-81.322219500000074
 21
472.71945199999999
  0
LINE
  8
_0-0_0
  6
CONTINUOUS
 62
    7
 10
-90.822219500000074
 20
472.47543300000001
 11
-90.572219500000074
 21
472.71945199999999
  0
LINE
  8
_0-0_0
  6
CONTINUOUS
 62
    7
 10
-90.822219500000074
 20
472.84097300000002
 11
-90.572219500000074
 21
472.922821
  0
LINE
  8
_0-0_0
  6
CONTINUOUS
 62
    7
 10
-90.572219500000074
 20
472.922821
 11
-81.322219500000074
 21
472.922821
  0
LINE
  8
_0-0_0
  6
CONTINUOUS
 62
    7
 10
-90.822219500000074
 20
472.665955
 11
-90.572219500000074
 21
472.922821
  0
LINE
  8
_0-0_0
  6
CONTINUOUS
 62
    7
 10
-90.822219500000074
 20
472.99856599999998
 11
-90.572219500000074
 21
473.10784899999999
  0
LINE
  8
_0-0_0
  6
CONTINUOUS
 62
    7
 10
-90.572219500000074
 20
473.10784899999999
 11
-81.322219500000074
 21
473.10784899999999
  0
LINE
  8
_0-0_0
  6
CONTINUOUS
 62
    7
 10
-90.822219500000074
 20
472.84097300000002
 11
-90.572219500000074
 21
473.10784899999999
  0
LINE
  8
_0-0_0
  6
CONTINUOUS
 62
    7
 10
-90.822219500000074
 20
473.13699300000002
 11
-90.572219500000074
 21
473.27252199999998
  0
LINE
  8
_0-0_0
  6
CONTINUOUS
 62
    7
 10
-90.572219500000074
 20
473.27252199999998
 11
-81.322219500000074
 21
473.27252199999998
  0
LINE
  8
_0-0_0
  6
CONTINUOUS
 62
    7
 10
-90.822219500000074
 20
472.99856599999998
 11
-90.572219500000074
 21
473.27252199999998
  0
LINE
  8
_0-0_0
  6
CONTINUOUS
 62
    7
 10
-90.822219500000074
 20
473.25476099999997
 11
-90.572219500000074
 21
473.41503899999998
  0
LINE
  8
_0-0_0
  6
CONTINUOUS
 62
    7
 10
-90.572219500000074
 20
473.41503899999998
 11
-81.322219500000074
 21
473.41503899999998
  0
LINE
  8
_0-0_0
  6
CONTINUOUS
 62
    7
 10
-90.822219500000074
 20
473.13699300000002
 11
-90.572219500000074
 21
473.41503899999998
  0
LINE
  8
_0-0_0
  6
CONTINUOUS
 62
    7
 10
-90.822219500000074
 20
473.350525
 11
-90.572219500000074
 21
473.53384399999999
  0
LINE
  8
_0-0_0
  6
CONTINUOUS
 62
    7
 10
-90.572219500000074
 20
473.53384399999999
 11
-81.322219500000074
 21
473.53384399999999
  0
LINE
  8
_0-0_0
  6
CONTINUOUS
 62
    7
 10
-90.822219500000074
 20
473.25476099999997
 11
-90.572219500000074
 21
473.53384399999999
  0
LINE
  8
_0-0_0
  6
CONTINUOUS
 62
    7
 10
-90.822219500000074
 20
473.42330900000002
 11
-90.572219500000074
 21
473.62762500000002
  0
LINE
  8
_0-0_0
  6
CONTINUOUS
 62
    7
 10
-90.572219500000074
 20
473.62762500000002
 11
-81.322219500000074
 21
473.62762500000002
  0
LINE
  8
_0-0_0
  6
CONTINUOUS
 62
    7
 10
-90.822219500000074
 20
473.350525
 11
-90.572219500000074
 21
473.62762500000002
  0
LINE
  8
_0-0_0
  6
CONTINUOUS
 62
    7
 10
-90.822219500000074
 20
473.47228999999999
 11
-90.572219500000074
 21
473.69534299999998
  0
LINE
  8
_0-0_0
  6
CONTINUOUS
 62
    7
 10
-90.572219500000074
 20
473.69534299999998
 11
-81.322219500000074
 21
473.69534299999998
  0
LINE
  8
_0-0_0
  6
CONTINUOUS
 62
    7
 10
-90.822219500000074
 20
473.42330900000002
 11
-90.572219500000074
 21
473.69534299999998
  0
LINE
  8
_0-0_0
  6
CONTINUOUS
 62
    7
 10
-90.822219500000074
 20
473.49688700000002
 11
-90.572219500000074
 21
473.73629799999998
  0
LINE
  8
_0-0_0
  6
CONTINUOUS
 62
    7
 10
-90.572219500000074
 20
473.73629799999998
 11
-81.322219500000074
 21
473.73629799999998
  0
LINE
  8
_0-0_0
  6
CONTINUOUS
 62
    7
 10
-90.822219500000074
 20
473.47228999999999
 11
-90.572219500000074
 21
473.73629799999998
  0
LINE
  8
_0-0_0
  6
CONTINUOUS
 62
    7
 10
-90.572219500000074
 20
473.75
 11
-81.322219500000074
 21
473.75
  0
LINE
  8
_0-0_0
  6
CONTINUOUS
 62
    7
 10
-90.822219500000074
 20
473.49688700000002
 11
-90.572219500000074
 21
473.75
  0
LINE
  8
_0-0_0
  6
CONTINUOUS
 62
    7
 10
-90.822219500000074
 20
469.00305200000003
 11
-90.572219500000074
 21
468.75
  0
LINE
  8
_0-0_0
  6
CONTINUOUS
 62
    7
 10
-90.572219500000074
 20
468.75
 11
-81.322219500000074
 21
468.75
  0
LINE
  8
_0-0_0
  6
CONTINUOUS
 62
    7
 10
-90.822219500000074
 20
469.02767899999998
 11
-90.572219500000074
 21
468.76367199999999
  0
LINE
  8
_0-0_0
  6
CONTINUOUS
 62
    7
 10
-90.572219500000074
 20
468.76367199999999
 11
-81.322219500000074
 21
468.76367199999999
  0
LINE
  8
_0-0_0
  6
CONTINUOUS
 62
    7
 10
-90.822219500000074
 20
469.00305200000003
 11
-90.572219500000074
 21
468.76367199999999
  0
LINE
  8
_0-0_0
  6
CONTINUOUS
 62
    7
 10
-90.822219500000074
 20
469.07666
 11
-90.572219500000074
 21
468.80462599999998
  0
LINE
  8
_0-0_0
  6
CONTINUOUS
 62
    7
 10
-90.572219500000074
 20
468.80462599999998
 11
-81.322219500000074
 21
468.80462599999998
  0
LINE
  8
_0-0_0
  6
CONTINUOUS
 62
    7
 10
-90.822219500000074
 20
469.02767899999998
 11
-90.572219500000074
 21
468.80462599999998
  0
LINE
  8
_0-0_0
  6
CONTINUOUS
 62
    7
 10
-90.822219500000074
 20
469.14941399999998
 11
-90.572219500000074
 21
468.872345
  0
LINE
  8
_0-0_0
  6
CONTINUOUS
 62
    7
 10
-90.572219500000074
 20
468.872345
 11
-81.322219500000074
 21
468.872345
  0
LINE
  8
_0-0_0
  6
CONTINUOUS
 62
    7
 10
-90.822219500000074
 20
469.07666
 11
-90.572219500000074
 21
468.872345
  0
LINE
  8
_0-0_0
  6
CONTINUOUS
 62
    7
 10
-90.822219500000074
 20
469.24520899999999
 11
-90.572219500000074
 21
468.96612499999998
  0
LINE
  8
_0-0_0
  6
CONTINUOUS
 62
    7
 10
-90.572219500000074
 20
468.96612499999998
 11
-81.322219500000074
 21
468.96612499999998
  0
LINE
  8
_0-0_0
  6
CONTINUOUS
 62
    7
 10
-90.822219500000074
 20
469.14941399999998
 11
-90.572219500000074
 21
468.96612499999998
  0
LINE
  8
_0-0_0
  6
CONTINUOUS
 62
    7
 10
-90.572219500000074
 20
469.08492999999999
 11
-81.322219500000074
 21
469.08492999999999
  0
LINE
  8
_0-0_0
  6
CONTINUOUS
 62
    7
 10
-90.692260500000032
 20
469.16137700000002
 11
-90.572219500000074
 21
469.08492999999999
  0
LINE
  8
_0-0_0
  6
CONTINUOUS
 62
    7
 10
-90.822219500000074
 20
469.24520899999999
 11
-90.692260500000032
 21
469.16137700000002
  0
LINE
  8
_0-0_0
  6
CONTINUOUS
 62
    7
 10
-90.822219500000074
 20
469.362976
 11
-90.572219500000074
 21
469.08492999999999
  0
LINE
  8
_0-0_0
  6
CONTINUOUS
 62
    7
 10
-90.822219500000074
 20
469.50140399999998
 11
-90.572219500000074
 21
469.22744799999998
  0
LINE
  8
_0-0_0
  6
CONTINUOUS
 62
    7
 10
-90.572219500000074
 20
469.22744799999998
 11
-81.322219500000074
 21
469.22744799999998
  0
LINE
  8
_0-0_0
  6
CONTINUOUS
 62
    7
 10
-90.822219500000074
 20
469.362976
 11
-90.572219500000074
 21
469.22744799999998
  0
LINE
  8
_0-0_0
  6
CONTINUOUS
 62
    7
 10
-90.822219500000074
 20
469.658997
 11
-90.572219500000074
 21
469.39211999999998
  0
LINE
  8
_0-0_0
  6
CONTINUOUS
 62
    7
 10
-90.572219500000074
 20
469.39211999999998
 11
-81.322219500000074
 21
469.39211999999998
  0
LINE
  8
_0-0_0
  6
CONTINUOUS
 62
    7
 10
-90.822219500000074
 20
469.50140399999998
 11
-90.572219500000074
 21
469.39211999999998
  0
LINE
  8
_0-0_0
  6
CONTINUOUS
 62
    7
 10
-90.822219500000074
 20
469.83401500000002
 11
-90.572219500000074
 21
469.57714800000002
  0
LINE
  8
_0-0_0
  6
CONTINUOUS
 62
    7
 10
-90.572219500000074
 20
469.57714800000002
 11
-81.322219500000074
 21
469.57714800000002
  0
LINE
  8
_0-0_0
  6
CONTINUOUS
 62
    7
 10
-90.822219500000074
 20
469.658997
 11
-90.572219500000074
 21
469.57714800000002
  0
LINE
  8
_0-0_0
  6
CONTINUOUS
 62
    7
 10
-90.822219500000074
 20
470.02453600000001
 11
-90.572219500000074
 21
469.78051799999997
  0
LINE
  8
_0-0_0
  6
CONTINUOUS
 62
    7
 10
-90.572219500000074
 20
469.78051799999997
 11
-81.322219500000074
 21
469.78051799999997
  0
LINE
  8
_0-0_0
  6
CONTINUOUS
 62
    7
 10
-90.822219500000074
 20
469.83401500000002
 11
-90.572219500000074
 21
469.78051799999997
  0
LINE
  8
_0-0_0
  6
CONTINUOUS
 62
    7
 10
-90.822219500000074
 20
470.22851600000001
 11
-90.572219500000074
 21
470
  0
LINE
  8
_0-0_0
  6
CONTINUOUS
 62
    7
 10
-90.572219500000074
 20
470
 11
-81.322219500000074
 21
470
  0
LINE
  8
_0-0_0
  6
CONTINUOUS
 62
    7
 10
-90.822219500000074
 20
470.22851600000001
 11
-81.072219500000074
 21
470.22851600000001
  0
LINE
  8
_0-0_0
  6
CONTINUOUS
 62
    7
 10
-90.822219500000074
 20
470.02453600000001
 11
-90.572219500000074
 21
470
  0
LINE
  8
_0-0_0
  6
CONTINUOUS
 62
    7
 10
-90.822219500000074
 20
470.44366500000001
 11
-90.572219500000074
 21
470.23315400000001
  0
LINE
  8
_0-0_0
  6
CONTINUOUS
 62
    7
 10
-90.572219500000074
 20
470.23315400000001
 11
-81.322219500000074
 21
470.23315400000001
  0
LINE
  8
_0-0_0
  6
CONTINUOUS
 62
    7
 10
-90.822219500000074
 20
470.44366500000001
 11
-81.072219500000074
 21
470.44366500000001
  0
LINE
  8
_0-0_0
  6
CONTINUOUS
 62
    7
 10
-90.822219500000074
 20
470.22851600000001
 11
-90.572219500000074
 21
470.23315400000001
  0
LINE
  8
_0-0_0
  6
CONTINUOUS
 62
    7
 10
-90.822219500000074
 20
470.66763300000002
 11
-90.572219500000074
 21
470.47744799999998
  0
LINE
  8
_0-0_0
  6
CONTINUOUS
 62
    7
 10
-90.572219500000074
 20
470.47744799999998
 11
-81.322219500000074
 21
470.47744799999998
  0
LINE
  8
_0-0_0
  6
CONTINUOUS
 62
    7
 10
-90.822219500000074
 20
470.66763300000002
 11
-81.072219500000074
 21
470.66763300000002
  0
LINE
  8
_0-0_0
  6
CONTINUOUS
 62
    7
 10
-90.822219500000074
 20
470.44366500000001
 11
-90.572219500000074
 21
470.47744799999998
  0
LINE
  8
_0-0_0
  6
CONTINUOUS
 62
    7
 10
-90.822219500000074
 20
470.89801
 11
-90.572219500000074
 21
470.73019399999998
  0
LINE
  8
_0-0_0
  6
CONTINUOUS
 62
    7
 10
-90.572219500000074
 20
470.73019399999998
 11
-81.322219500000074
 21
470.73019399999998
  0
LINE
  8
_0-0_0
  6
CONTINUOUS
 62
    7
 10
-90.822219500000074
 20
470.89801
 11
-81.072219500000074
 21
470.89801
  0
LINE
  8
_0-0_0
  6
CONTINUOUS
 62
    7
 10
-90.822219500000074
 20
470.66763300000002
 11
-90.572219500000074
 21
470.73019399999998
  0
LINE
  8
_0-0_0
  6
CONTINUOUS
 62
    7
 10
-90.822219500000074
 20
471.13223299999999
 11
-90.572219500000074
 21
470.98864700000001
  0
LINE
  8
_0-0_0
  6
CONTINUOUS
 62
    7
 10
-90.572219500000074
 20
470.98864700000001
 11
-81.322219500000074
 21
470.98864700000001
  0
LINE
  8
_0-0_0
  6
CONTINUOUS
 62
    7
 10
-90.822219500000074
 20
471.13223299999999
 11
-81.072219500000074
 21
471.13223299999999
  0
LINE
  8
_0-0_0
  6
CONTINUOUS
 62
    7
 10
-90.822219500000074
 20
470.89801
 11
-90.572219500000074
 21
470.98864700000001
  0
LINE
  8
_0-0_0
  6
CONTINUOUS
 62
    7
 10
-90.822219500000074
 20
471.36773699999998
 11
-90.572219500000074
 21
471.25
  0
LINE
  8
_0-0_0
  6
CONTINUOUS
 62
    7
 10
-90.572219500000074
 20
471.25
 11
-81.322219500000074
 21
471.25
  0
LINE
  8
_0-0_0
  6
CONTINUOUS
 62
    7
 10
-90.822219500000074
 20
471.36773699999998
 11
-81.072219500000074
 21
471.36773699999998
  0
LINE
  8
_0-0_0
  6
CONTINUOUS
 62
    7
 10
-90.822219500000074
 20
471.13223299999999
 11
-90.572219500000074
 21
471.25
  0
LINE
  8
_0-0_0
  6
CONTINUOUS
 62
    7
 10
-90.822219500000074
 20
471.60195900000002
 11
-90.572219500000074
 21
471.51129200000003
  0
LINE
  8
_0-0_0
  6
CONTINUOUS
 62
    7
 10
-90.572219500000074
 20
471.51129200000003
 11
-81.322219500000074
 21
471.51129200000003
  0
LINE
  8
_0-0_0
  6
CONTINUOUS
 62
    7
 10
-90.822219500000074
 20
471.60195900000002
 11
-81.072219500000074
 21
471.60195900000002
  0
LINE
  8
_0-0_0
  6
CONTINUOUS
 62
    7
 10
-90.822219500000074
 20
471.36773699999998
 11
-90.572219500000074
 21
471.51129200000003
  0
LINE
  8
_0-0_0
  6
CONTINUOUS
 62
    7
 10
-90.822219500000074
 20
471.832336
 11
-90.572219500000074
 21
471.76977499999998
  0
LINE
  8
_0-0_0
  6
CONTINUOUS
 62
    7
 10
-90.572219500000074
 20
471.76977499999998
 11
-81.322219500000074
 21
471.76977499999998
  0
LINE
  8
_0-0_0
  6
CONTINUOUS
 62
    7
 10
-90.822219500000074
 20
471.832336
 11
-81.072219500000074
 21
471.832336
  0
LINE
  8
_0-0_0
  6
CONTINUOUS
 62
    7
 10
-90.822219500000074
 20
471.60195900000002
 11
-90.572219500000074
 21
471.76977499999998
  0
LINE
  8
_0-0_0
  6
CONTINUOUS
 62
    7
 10
-90.822219500000074
 20
472.05630500000001
 11
-90.572219500000074
 21
472.02252199999998
  0
LINE
  8
_0-0_0
  6
CONTINUOUS
 62
    7
 10
-90.572219500000074
 20
472.02252199999998
 11
-81.322219500000074
 21
472.02252199999998
  0
LINE
  8
_0-0_0
  6
CONTINUOUS
 62
    7
 10
-90.822219500000074
 20
472.05630500000001
 11
-81.072219500000074
 21
472.05630500000001
  0
LINE
  8
_0-0_0
  6
CONTINUOUS
 62
    7
 10
-90.822219500000074
 20
471.832336
 11
-90.572219500000074
 21
472.02252199999998
  0
LINE
  8
_0-0_0
  6
CONTINUOUS
 62
    7
 10
-90.822219500000074
 20
472.27145400000001
 11
-90.572219500000074
 21
472.26681500000001
  0
LINE
  8
_0-0_0
  6
CONTINUOUS
 62
    7
 10
-90.572219500000074
 20
472.26681500000001
 11
-81.322219500000074
 21
472.26681500000001
  0
LINE
  8
_0-0_0
  6
CONTINUOUS
 62
    7
 10
-90.822219500000074
 20
472.05630500000001
 11
-90.572219500000074
 21
472.26681500000001
  0
LINE
  8
_0-0_0
  6
CONTINUOUS
 62
    7
 10
-91.072219500000074
 20
473.25
 11
-91.072219500000074
 21
469.49481200000002
  0
LINE
  8
_0-0_0
  6
CONTINUOUS
 62
    7
 10
-91.072219500000074
 20
469.49481200000002
 11
-91.072219500000074
 21
469.25
  0
LINE
  8
_0-0_0
  6
CONTINUOUS
 62
    7
 10
-77.472229500000026
 20
467.94998199999998
 11
-77.472229500000026
 21
465.44998199999998
  0
LINE
  8
_0-0_0
  6
CONTINUOUS
 62
    7
 10
-77.472229500000026
 20
465.44998199999998
 11
-77.472229500000026
 21
457.94998199999998
  0
LINE
  8
_0-0_0
  6
CONTINUOUS
 62
    7
 10
-78.272216500000013
 20
467.48809799999998
 11
-78.272216500000013
 21
465.21905500000003
  0
LINE
  8
_0-0_0
  6
CONTINUOUS
 62
    7
 10
-78.272216500000013
 20
465.21905500000003
 11
-78.272216500000013
 21
458.41186499999998
  0
LINE
  8
_0-0_0
  6
CONTINUOUS
 62
    7
 10
-136.2722205
 20
466.94998199999998
 11
-136.2722205
 21
466.94863900000001
  0
LINE
  8
_0-0_0
  6
CONTINUOUS
 62
    7
 10
-136.2722205
 20
466.94863900000001
 11
-136.2722205
 21
458.94998199999998
  0
LINE
  8
_0-0_0
  6
CONTINUOUS
 62
    7
 10
-81.072219500000074
 20
452.403076
 11
-81.072219500000074
 21
452.39999399999999
  0
LINE
  8
_0-0_0
  6
CONTINUOUS
 62
    7
 10
-81.072219500000074
 20
452.42770400000001
 11
-81.072219500000074
 21
452.403076
  0
LINE
  8
_0-0_0
  6
CONTINUOUS
 62
    7
 10
-81.072219500000074
 20
452.476654
 11
-81.072219500000074
 21
452.42770400000001
  0
LINE
  8
_0-0_0
  6
CONTINUOUS
 62
    7
 10
-81.072219500000074
 20
452.54943800000001
 11
-81.072219500000074
 21
452.476654
  0
LINE
  8
_0-0_0
  6
CONTINUOUS
 62
    7
 10
-81.072219500000074
 20
452.64520299999998
 11
-81.072219500000074
 21
452.54943800000001
  0
LINE
  8
_0-0_0
  6
CONTINUOUS
 62
    7
 10
-81.072219500000074
 20
452.67541499999999
 11
-81.072219500000074
 21
452.64520299999998
  0
LINE
  8
_0-0_0
  6
CONTINUOUS
 62
    7
 10
-81.072219500000074
 20
452.76297
 11
-81.072219500000074
 21
452.67541499999999
  0
LINE
  8
_0-0_0
  6
CONTINUOUS
 62
    7
 10
-81.072219500000074
 20
452.90139799999997
 11
-81.072219500000074
 21
452.76297
  0
LINE
  8
_0-0_0
  6
CONTINUOUS
 62
    7
 10
-81.072219500000074
 20
453.05898999999999
 11
-81.072219500000074
 21
452.90139799999997
  0
LINE
  8
_0-0_0
  6
CONTINUOUS
 62
    7
 10
-81.072219500000074
 20
453.23400900000001
 11
-81.072219500000074
 21
453.05898999999999
  0
LINE
  8
_0-0_0
  6
CONTINUOUS
 62
    7
 10
-81.072219500000074
 20
453.42453
 11
-81.072219500000074
 21
453.23400900000001
  0
LINE
  8
_0-0_0
  6
CONTINUOUS
 62
    7
 10
-81.072219500000074
 20
453.62851000000001
 11
-81.072219500000074
 21
453.42453
  0
LINE
  8
_0-0_0
  6
CONTINUOUS
 62
    7
 10
-81.072219500000074
 20
453.843658
 11
-81.072219500000074
 21
453.62851000000001
  0
LINE
  8
_0-0_0
  6
CONTINUOUS
 62
    7
 10
-81.072219500000074
 20
454.06762700000002
 11
-81.072219500000074
 21
453.843658
  0
LINE
  8
_0-0_0
  6
CONTINUOUS
 62
    7
 10
-81.072219500000074
 20
454.29800399999999
 11
-81.072219500000074
 21
454.06762700000002
  0
LINE
  8
_0-0_0
  6
CONTINUOUS
 62
    7
 10
-81.072219500000074
 20
454.53222699999998
 11
-81.072219500000074
 21
454.29800399999999
  0
LINE
  8
_0-0_0
  6
CONTINUOUS
 62
    7
 10
-81.072219500000074
 20
454.76773100000003
 11
-81.072219500000074
 21
454.53222699999998
  0
LINE
  8
_0-0_0
  6
CONTINUOUS
 62
    7
 10
-81.072219500000074
 20
455.00195300000001
 11
-81.072219500000074
 21
454.76773100000003
  0
LINE
  8
_0-0_0
  6
CONTINUOUS
 62
    7
 10
-81.072219500000074
 20
455.23232999999999
 11
-81.072219500000074
 21
455.00195300000001
  0
LINE
  8
_0-0_0
  6
CONTINUOUS
 62
    7
 10
-81.072219500000074
 20
455.456299
 11
-81.072219500000074
 21
455.23232999999999
  0
LINE
  8
_0-0_0
  6
CONTINUOUS
 62
    7
 10
-81.072219500000074
 20
455.671448
 11
-81.072219500000074
 21
455.456299
  0
LINE
  8
_0-0_0
  6
CONTINUOUS
 62
    7
 10
-81.072219500000074
 20
455.72869900000001
 11
-81.072219500000074
 21
455.671448
  0
LINE
  8
_0-0_0
  6
CONTINUOUS
 62
    7
 10
-81.072219500000074
 20
452.403076
 11
-81.322219500000074
 21
452.14999399999999
  0
LINE
  8
_0-0_0
  6
CONTINUOUS
 62
    7
 10
-81.072219500000074
 20
452.42770400000001
 11
-81.322219500000074
 21
452.16369600000002
  0
LINE
  8
_0-0_0
  6
CONTINUOUS
 62
    7
 10
-81.072219500000074
 20
452.403076
 11
-81.322219500000074
 21
452.16369600000002
  0
LINE
  8
_0-0_0
  6
CONTINUOUS
 62
    7
 10
-81.072219500000074
 20
452.476654
 11
-81.322219500000074
 21
452.20461999999998
  0
LINE
  8
_0-0_0
  6
CONTINUOUS
 62
    7
 10
-81.072219500000074
 20
452.42770400000001
 11
-81.322219500000074
 21
452.20461999999998
  0
LINE
  8
_0-0_0
  6
CONTINUOUS
 62
    7
 10
-81.072219500000074
 20
452.54943800000001
 11
-81.322219500000074
 21
452.27233899999999
  0
LINE
  8
_0-0_0
  6
CONTINUOUS
 62
    7
 10
-81.072219500000074
 20
452.476654
 11
-81.322219500000074
 21
452.27233899999999
  0
LINE
  8
_0-0_0
  6
CONTINUOUS
 62
    7
 10
-81.072219500000074
 20
452.64520299999998
 11
-81.322219500000074
 21
452.36611900000003
  0
LINE
  8
_0-0_0
  6
CONTINUOUS
 62
    7
 10
-81.072219500000074
 20
452.54943800000001
 11
-81.322219500000074
 21
452.36611900000003
  0
LINE
  8
_0-0_0
  6
CONTINUOUS
 62
    7
 10
-81.072219500000074
 20
452.64520299999998
 11
-81.202179500000057
 21
452.56137100000001
  0
LINE
  8
_0-0_0
  6
CONTINUOUS
 62
    7
 10
-81.072219500000074
 20
452.76297
 11
-81.322219500000074
 21
452.48492399999998
  0
LINE
  8
_0-0_0
  6
CONTINUOUS
 62
    7
 10
-81.202179500000057
 20
452.56137100000001
 11
-81.322219500000074
 21
452.48492399999998
  0
LINE
  8
_0-0_0
  6
CONTINUOUS
 62
    7
 10
-81.072219500000074
 20
452.90139799999997
 11
-81.322219500000074
 21
452.62744099999998
  0
LINE
  8
_0-0_0
  6
CONTINUOUS
 62
    7
 10
-81.072219500000074
 20
452.76297
 11
-81.322219500000074
 21
452.62744099999998
  0
LINE
  8
_0-0_0
  6
CONTINUOUS
 62
    7
 10
-81.072219500000074
 20
453.05898999999999
 11
-81.322219500000074
 21
452.79211400000003
  0
LINE
  8
_0-0_0
  6
CONTINUOUS
 62
    7
 10
-81.072219500000074
 20
452.90139799999997
 11
-81.322219500000074
 21
452.79211400000003
  0
LINE
  8
_0-0_0
  6
CONTINUOUS
 62
    7
 10
-81.072219500000074
 20
453.23400900000001
 11
-81.322219500000074
 21
452.97717299999999
  0
LINE
  8
_0-0_0
  6
CONTINUOUS
 62
    7
 10
-81.072219500000074
 20
453.05898999999999
 11
-81.322219500000074
 21
452.97717299999999
  0
LINE
  8
_0-0_0
  6
CONTINUOUS
 62
    7
 10
-81.072219500000074
 20
453.42453
 11
-81.322219500000074
 21
453.18051100000002
  0
LINE
  8
_0-0_0
  6
CONTINUOUS
 62
    7
 10
-81.072219500000074
 20
453.23400900000001
 11
-81.322219500000074
 21
453.18051100000002
  0
LINE
  8
_0-0_0
  6
CONTINUOUS
 62
    7
 10
-81.072219500000074
 20
453.62851000000001
 11
-81.322219500000074
 21
453.39999399999999
  0
LINE
  8
_0-0_0
  6
CONTINUOUS
 62
    7
 10
-81.072219500000074
 20
453.42453
 11
-81.322219500000074
 21
453.39999399999999
  0
LINE
  8
_0-0_0
  6
CONTINUOUS
 62
    7
 10
-81.072219500000074
 20
453.843658
 11
-81.322219500000074
 21
453.63314800000001
  0
LINE
  8
_0-0_0
  6
CONTINUOUS
 62
    7
 10
-81.072219500000074
 20
453.62851000000001
 11
-81.322219500000074
 21
453.63314800000001
  0
LINE
  8
_0-0_0
  6
CONTINUOUS
 62
    7
 10
-81.072219500000074
 20
454.06762700000002
 11
-81.322219500000074
 21
453.87744099999998
  0
LINE
  8
_0-0_0
  6
CONTINUOUS
 62
    7
 10
-81.072219500000074
 20
453.843658
 11
-81.322219500000074
 21
453.87744099999998
  0
LINE
  8
_0-0_0
  6
CONTINUOUS
 62
    7
 10
-81.072219500000074
 20
454.29800399999999
 11
-81.322219500000074
 21
454.13018799999998
  0
LINE
  8
_0-0_0
  6
CONTINUOUS
 62
    7
 10
-81.072219500000074
 20
454.06762700000002
 11
-81.322219500000074
 21
454.13018799999998
  0
LINE
  8
_0-0_0
  6
CONTINUOUS
 62
    7
 10
-81.072219500000074
 20
454.53222699999998
 11
-81.322219500000074
 21
454.38867199999999
  0
LINE
  8
_0-0_0
  6
CONTINUOUS
 62
    7
 10
-81.072219500000074
 20
454.29800399999999
 11
-81.322219500000074
 21
454.38867199999999
  0
LINE
  8
_0-0_0
  6
CONTINUOUS
 62
    7
 10
-81.072219500000074
 20
454.76773100000003
 11
-81.322219500000074
 21
454.64999399999999
  0
LINE
  8
_0-0_0
  6
CONTINUOUS
 62
    7
 10
-81.072219500000074
 20
454.53222699999998
 11
-81.322219500000074
 21
454.64999399999999
  0
LINE
  8
_0-0_0
  6
CONTINUOUS
 62
    7
 10
-81.072219500000074
 20
455.00195300000001
 11
-81.322219500000074
 21
454.911316
  0
LINE
  8
_0-0_0
  6
CONTINUOUS
 62
    7
 10
-81.072219500000074
 20
454.76773100000003
 11
-81.322219500000074
 21
454.911316
  0
LINE
  8
_0-0_0
  6
CONTINUOUS
 62
    7
 10
-81.072219500000074
 20
455.23232999999999
 11
-81.322219500000074
 21
455.16976899999997
  0
LINE
  8
_0-0_0
  6
CONTINUOUS
 62
    7
 10
-81.072219500000074
 20
455.00195300000001
 11
-81.322219500000074
 21
455.16976899999997
  0
LINE
  8
_0-0_0
  6
CONTINUOUS
 62
    7
 10
-81.072219500000074
 20
455.456299
 11
-81.322219500000074
 21
455.42251599999997
  0
LINE
  8
_0-0_0
  6
CONTINUOUS
 62
    7
 10
-81.072219500000074
 20
455.23232999999999
 11
-81.322219500000074
 21
455.42251599999997
  0
LINE
  8
_0-0_0
  6
CONTINUOUS
 62
    7
 10
-81.072219500000074
 20
455.671448
 11
-81.322219500000074
 21
455.666809
  0
LINE
  8
_0-0_0
  6
CONTINUOUS
 62
    7
 10
-81.072219500000074
 20
455.456299
 11
-81.322219500000074
 21
455.666809
  0
LINE
  8
_0-0_0
  6
CONTINUOUS
 62
    7
 10
-81.072219500000074
 20
455.875427
 11
-81.072219500000074
 21
455.72869900000001
  0
LINE
  8
_0-0_0
  6
CONTINUOUS
 62
    7
 10
-81.072219500000074
 20
455.875427
 11
-81.322219500000074
 21
455.89999399999999
  0
LINE
  8
_0-0_0
  6
CONTINUOUS
 62
    7
 10
-81.072219500000074
 20
455.671448
 11
-81.322219500000074
 21
455.89999399999999
  0
LINE
  8
_0-0_0
  6
CONTINUOUS
 62
    7
 10
-81.072219500000074
 20
456.06594799999999
 11
-81.072219500000074
 21
455.875427
  0
LINE
  8
_0-0_0
  6
CONTINUOUS
 62
    7
 10
-81.072219500000074
 20
456.24096700000001
 11
-81.072219500000074
 21
456.06594799999999
  0
LINE
  8
_0-0_0
  6
CONTINUOUS
 62
    7
 10
-81.072219500000074
 20
456.39855999999997
 11
-81.072219500000074
 21
456.24096700000001
  0
LINE
  8
_0-0_0
  6
CONTINUOUS
 62
    7
 10
-81.072219500000074
 20
456.53698700000001
 11
-81.072219500000074
 21
456.39855999999997
  0
LINE
  8
_0-0_0
  6
CONTINUOUS
 62
    7
 10
-81.072219500000074
 20
456.65475500000002
 11
-81.072219500000074
 21
456.53698700000001
  0
LINE
  8
_0-0_0
  6
CONTINUOUS
 62
    7
 10
-81.072219500000074
 20
456.75054899999998
 11
-81.072219500000074
 21
456.65475500000002
  0
LINE
  8
_0-0_0
  6
CONTINUOUS
 62
    7
 10
-81.072219500000074
 20
456.82330300000001
 11
-81.072219500000074
 21
456.75054899999998
  0
LINE
  8
_0-0_0
  6
CONTINUOUS
 62
    7
 10
-81.072219500000074
 20
456.87228399999998
 11
-81.072219500000074
 21
456.82330300000001
  0
LINE
  8
_0-0_0
  6
CONTINUOUS
 62
    7
 10
-81.072219500000074
 20
456.89691199999999
 11
-81.072219500000074
 21
456.87228399999998
  0
LINE
  8
_0-0_0
  6
CONTINUOUS
 62
    7
 10
-81.072219500000074
 20
456.89999399999999
 11
-81.072219500000074
 21
456.89691199999999
  0
LINE
  8
_0-0_0
  6
CONTINUOUS
 62
    7
 10
-90.822219500000074
 20
452.403076
 11
-90.572219500000074
 21
452.14999399999999
  0
LINE
  8
_0-0_0
  6
CONTINUOUS
 62
    7
 10
-90.572219500000074
 20
452.14999399999999
 11
-81.322219500000074
 21
452.14999399999999
  0
LINE
  8
_0-0_0
  6
CONTINUOUS
 62
    7
 10
-90.822219500000074
 20
452.42770400000001
 11
-90.572219500000074
 21
452.16369600000002
  0
LINE
  8
_0-0_0
  6
CONTINUOUS
 62
    7
 10
-90.572219500000074
 20
452.16369600000002
 11
-81.322219500000074
 21
452.16369600000002
  0
LINE
  8
_0-0_0
  6
CONTINUOUS
 62
    7
 10
-90.822219500000074
 20
452.403076
 11
-90.572219500000074
 21
452.16369600000002
  0
LINE
  8
_0-0_0
  6
CONTINUOUS
 62
    7
 10
-90.822219500000074
 20
452.476654
 11
-90.572219500000074
 21
452.20461999999998
  0
LINE
  8
_0-0_0
  6
CONTINUOUS
 62
    7
 10
-90.572219500000074
 20
452.20461999999998
 11
-81.322219500000074
 21
452.20461999999998
  0
LINE
  8
_0-0_0
  6
CONTINUOUS
 62
    7
 10
-90.822219500000074
 20
452.42770400000001
 11
-90.572219500000074
 21
452.20461999999998
  0
LINE
  8
_0-0_0
  6
CONTINUOUS
 62
    7
 10
-90.822219500000074
 20
452.54943800000001
 11
-90.572219500000074
 21
452.27233899999999
  0
LINE
  8
_0-0_0
  6
CONTINUOUS
 62
    7
 10
-90.572219500000074
 20
452.27233899999999
 11
-81.322219500000074
 21
452.27233899999999
  0
LINE
  8
_0-0_0
  6
CONTINUOUS
 62
    7
 10
-90.822219500000074
 20
452.476654
 11
-90.572219500000074
 21
452.27233899999999
  0
LINE
  8
_0-0_0
  6
CONTINUOUS
 62
    7
 10
-90.822219500000074
 20
452.64520299999998
 11
-90.572219500000074
 21
452.36611900000003
  0
LINE
  8
_0-0_0
  6
CONTINUOUS
 62
    7
 10
-90.572219500000074
 20
452.36611900000003
 11
-81.322219500000074
 21
452.36611900000003
  0
LINE
  8
_0-0_0
  6
CONTINUOUS
 62
    7
 10
-90.822219500000074
 20
452.54943800000001
 11
-90.572219500000074
 21
452.36611900000003
  0
LINE
  8
_0-0_0
  6
CONTINUOUS
 62
    7
 10
-90.572219500000074
 20
452.48492399999998
 11
-81.322219500000074
 21
452.48492399999998
  0
LINE
  8
_0-0_0
  6
CONTINUOUS
 62
    7
 10
-90.692260500000032
 20
452.56137100000001
 11
-90.572219500000074
 21
452.48492399999998
  0
LINE
  8
_0-0_0
  6
CONTINUOUS
 62
    7
 10
-90.822219500000074
 20
452.64520299999998
 11
-90.692260500000032
 21
452.56137100000001
  0
LINE
  8
_0-0_0
  6
CONTINUOUS
 62
    7
 10
-90.822219500000074
 20
452.76297
 11
-90.572219500000074
 21
452.48492399999998
  0
LINE
  8
_0-0_0
  6
CONTINUOUS
 62
    7
 10
-90.822219500000074
 20
452.90139799999997
 11
-90.572219500000074
 21
452.62744099999998
  0
LINE
  8
_0-0_0
  6
CONTINUOUS
 62
    7
 10
-90.572219500000074
 20
452.62744099999998
 11
-81.322219500000074
 21
452.62744099999998
  0
LINE
  8
_0-0_0
  6
CONTINUOUS
 62
    7
 10
-90.822219500000074
 20
452.76297
 11
-90.572219500000074
 21
452.62744099999998
  0
LINE
  8
_0-0_0
  6
CONTINUOUS
 62
    7
 10
-90.822219500000074
 20
453.05898999999999
 11
-90.572219500000074
 21
452.79211400000003
  0
LINE
  8
_0-0_0
  6
CONTINUOUS
 62
    7
 10
-90.572219500000074
 20
452.79211400000003
 11
-81.322219500000074
 21
452.79211400000003
  0
LINE
  8
_0-0_0
  6
CONTINUOUS
 62
    7
 10
-90.822219500000074
 20
452.90139799999997
 11
-90.572219500000074
 21
452.79211400000003
  0
LINE
  8
_0-0_0
  6
CONTINUOUS
 62
    7
 10
-90.822219500000074
 20
453.23400900000001
 11
-90.572219500000074
 21
452.97717299999999
  0
LINE
  8
_0-0_0
  6
CONTINUOUS
 62
    7
 10
-90.572219500000074
 20
452.97717299999999
 11
-81.322219500000074
 21
452.97717299999999
  0
LINE
  8
_0-0_0
  6
CONTINUOUS
 62
    7
 10
-90.822219500000074
 20
453.05898999999999
 11
-90.572219500000074
 21
452.97717299999999
  0
LINE
  8
_0-0_0
  6
CONTINUOUS
 62
    7
 10
-90.822219500000074
 20
453.42453
 11
-90.572219500000074
 21
453.18051100000002
  0
LINE
  8
_0-0_0
  6
CONTINUOUS
 62
    7
 10
-90.572219500000074
 20
453.18051100000002
 11
-81.322219500000074
 21
453.18051100000002
  0
LINE
  8
_0-0_0
  6
CONTINUOUS
 62
    7
 10
-90.822219500000074
 20
453.23400900000001
 11
-90.572219500000074
 21
453.18051100000002
  0
LINE
  8
_0-0_0
  6
CONTINUOUS
 62
    7
 10
-90.822219500000074
 20
453.62851000000001
 11
-90.572219500000074
 21
453.39999399999999
  0
LINE
  8
_0-0_0
  6
CONTINUOUS
 62
    7
 10
-90.572219500000074
 20
453.39999399999999
 11
-81.322219500000074
 21
453.39999399999999
  0
LINE
  8
_0-0_0
  6
CONTINUOUS
 62
    7
 10
-90.822219500000074
 20
453.62851000000001
 11
-81.072219500000074
 21
453.62851000000001
  0
LINE
  8
_0-0_0
  6
CONTINUOUS
 62
    7
 10
-90.822219500000074
 20
453.42453
 11
-90.572219500000074
 21
453.39999399999999
  0
LINE
  8
_0-0_0
  6
CONTINUOUS
 62
    7
 10
-90.822219500000074
 20
453.843658
 11
-90.572219500000074
 21
453.63314800000001
  0
LINE
  8
_0-0_0
  6
CONTINUOUS
 62
    7
 10
-90.572219500000074
 20
453.63314800000001
 11
-81.322219500000074
 21
453.63314800000001
  0
LINE
  8
_0-0_0
  6
CONTINUOUS
 62
    7
 10
-90.822219500000074
 20
453.843658
 11
-81.072219500000074
 21
453.843658
  0
LINE
  8
_0-0_0
  6
CONTINUOUS
 62
    7
 10
-90.822219500000074
 20
453.62851000000001
 11
-90.572219500000074
 21
453.63314800000001
  0
LINE
  8
_0-0_0
  6
CONTINUOUS
 62
    7
 10
-90.822219500000074
 20
454.06762700000002
 11
-90.572219500000074
 21
453.87744099999998
  0
LINE
  8
_0-0_0
  6
CONTINUOUS
 62
    7
 10
-90.572219500000074
 20
453.87744099999998
 11
-81.322219500000074
 21
453.87744099999998
  0
LINE
  8
_0-0_0
  6
CONTINUOUS
 62
    7
 10
-90.822219500000074
 20
454.06762700000002
 11
-81.072219500000074
 21
454.06762700000002
  0
LINE
  8
_0-0_0
  6
CONTINUOUS
 62
    7
 10
-90.822219500000074
 20
453.843658
 11
-90.572219500000074
 21
453.87744099999998
  0
LINE
  8
_0-0_0
  6
CONTINUOUS
 62
    7
 10
-90.822219500000074
 20
454.29800399999999
 11
-90.572219500000074
 21
454.13018799999998
  0
LINE
  8
_0-0_0
  6
CONTINUOUS
 62
    7
 10
-90.572219500000074
 20
454.13018799999998
 11
-81.322219500000074
 21
454.13018799999998
  0
LINE
  8
_0-0_0
  6
CONTINUOUS
 62
    7
 10
-90.822219500000074
 20
454.29800399999999
 11
-81.072219500000074
 21
454.29800399999999
  0
LINE
  8
_0-0_0
  6
CONTINUOUS
 62
    7
 10
-90.822219500000074
 20
454.06762700000002
 11
-90.572219500000074
 21
454.13018799999998
  0
LINE
  8
_0-0_0
  6
CONTINUOUS
 62
    7
 10
-90.822219500000074
 20
454.53222699999998
 11
-90.572219500000074
 21
454.38867199999999
  0
LINE
  8
_0-0_0
  6
CONTINUOUS
 62
    7
 10
-90.572219500000074
 20
454.38867199999999
 11
-81.322219500000074
 21
454.38867199999999
  0
LINE
  8
_0-0_0
  6
CONTINUOUS
 62
    7
 10
-90.822219500000074
 20
454.53222699999998
 11
-81.072219500000074
 21
454.53222699999998
  0
LINE
  8
_0-0_0
  6
CONTINUOUS
 62
    7
 10
-90.822219500000074
 20
454.29800399999999
 11
-90.572219500000074
 21
454.38867199999999
  0
LINE
  8
_0-0_0
  6
CONTINUOUS
 62
    7
 10
-90.822219500000074
 20
454.76773100000003
 11
-90.572219500000074
 21
454.64999399999999
  0
LINE
  8
_0-0_0
  6
CONTINUOUS
 62
    7
 10
-90.572219500000074
 20
454.64999399999999
 11
-81.322219500000074
 21
454.64999399999999
  0
LINE
  8
_0-0_0
  6
CONTINUOUS
 62
    7
 10
-90.822219500000074
 20
454.76773100000003
 11
-81.072219500000074
 21
454.76773100000003
  0
LINE
  8
_0-0_0
  6
CONTINUOUS
 62
    7
 10
-90.822219500000074
 20
454.53222699999998
 11
-90.572219500000074
 21
454.64999399999999
  0
LINE
  8
_0-0_0
  6
CONTINUOUS
 62
    7
 10
-90.822219500000074
 20
455.00195300000001
 11
-90.572219500000074
 21
454.911316
  0
LINE
  8
_0-0_0
  6
CONTINUOUS
 62
    7
 10
-90.572219500000074
 20
454.911316
 11
-81.322219500000074
 21
454.911316
  0
LINE
  8
_0-0_0
  6
CONTINUOUS
 62
    7
 10
-90.822219500000074
 20
455.00195300000001
 11
-81.072219500000074
 21
455.00195300000001
  0
LINE
  8
_0-0_0
  6
CONTINUOUS
 62
    7
 10
-90.822219500000074
 20
454.76773100000003
 11
-90.572219500000074
 21
454.911316
  0
LINE
  8
_0-0_0
  6
CONTINUOUS
 62
    7
 10
-90.822219500000074
 20
455.23232999999999
 11
-90.572219500000074
 21
455.16976899999997
  0
LINE
  8
_0-0_0
  6
CONTINUOUS
 62
    7
 10
-90.572219500000074
 20
455.16976899999997
 11
-81.322219500000074
 21
455.16976899999997
  0
LINE
  8
_0-0_0
  6
CONTINUOUS
 62
    7
 10
-90.822219500000074
 20
455.23232999999999
 11
-81.072219500000074
 21
455.23232999999999
  0
LINE
  8
_0-0_0
  6
CONTINUOUS
 62
    7
 10
-90.822219500000074
 20
455.00195300000001
 11
-90.572219500000074
 21
455.16976899999997
  0
LINE
  8
_0-0_0
  6
CONTINUOUS
 62
    7
 10
-90.822219500000074
 20
455.456299
 11
-90.572219500000074
 21
455.42251599999997
  0
LINE
  8
_0-0_0
  6
CONTINUOUS
 62
    7
 10
-90.572219500000074
 20
455.42251599999997
 11
-81.322219500000074
 21
455.42251599999997
  0
LINE
  8
_0-0_0
  6
CONTINUOUS
 62
    7
 10
-90.822219500000074
 20
455.456299
 11
-81.072219500000074
 21
455.456299
  0
LINE
  8
_0-0_0
  6
CONTINUOUS
 62
    7
 10
-90.822219500000074
 20
455.23232999999999
 11
-90.572219500000074
 21
455.42251599999997
  0
LINE
  8
_0-0_0
  6
CONTINUOUS
 62
    7
 10
-90.822219500000074
 20
455.671448
 11
-90.572219500000074
 21
455.666809
  0
LINE
  8
_0-0_0
  6
CONTINUOUS
 62
    7
 10
-90.572219500000074
 20
455.666809
 11
-81.322219500000074
 21
455.666809
  0
LINE
  8
_0-0_0
  6
CONTINUOUS
 62
    7
 10
-90.822219500000074
 20
455.671448
 11
-81.072219500000074
 21
455.671448
  0
LINE
  8
_0-0_0
  6
CONTINUOUS
 62
    7
 10
-90.822219500000074
 20
455.456299
 11
-90.572219500000074
 21
455.666809
  0
LINE
  8
_0-0_0
  6
CONTINUOUS
 62
    7
 10
-90.822219500000074
 20
455.875427
 11
-90.572219500000074
 21
455.89999399999999
  0
LINE
  8
_0-0_0
  6
CONTINUOUS
 62
    7
 10
-90.572219500000074
 20
455.89999399999999
 11
-81.322219500000074
 21
455.89999399999999
  0
LINE
  8
_0-0_0
  6
CONTINUOUS
 62
    7
 10
-90.822219500000074
 20
455.671448
 11
-90.572219500000074
 21
455.89999399999999
  0
LINE
  8
_0-0_0
  6
CONTINUOUS
 62
    7
 10
-81.072219500000074
 20
456.06594799999999
 11
-81.322219500000074
 21
456.11944599999998
  0
LINE
  8
_0-0_0
  6
CONTINUOUS
 62
    7
 10
-81.072219500000074
 20
455.875427
 11
-81.322219500000074
 21
456.11944599999998
  0
LINE
  8
_0-0_0
  6
CONTINUOUS
 62
    7
 10
-81.072219500000074
 20
456.24096700000001
 11
-81.322219500000074
 21
456.32281499999999
  0
LINE
  8
_0-0_0
  6
CONTINUOUS
 62
    7
 10
-81.072219500000074
 20
456.06594799999999
 11
-81.322219500000074
 21
456.32281499999999
  0
LINE
  8
_0-0_0
  6
CONTINUOUS
 62
    7
 10
-81.072219500000074
 20
456.39855999999997
 11
-81.322219500000074
 21
456.50784299999998
  0
LINE
  8
_0-0_0
  6
CONTINUOUS
 62
    7
 10
-81.072219500000074
 20
456.24096700000001
 11
-81.322219500000074
 21
456.50784299999998
  0
LINE
  8
_0-0_0
  6
CONTINUOUS
 62
    7
 10
-81.072219500000074
 20
456.53698700000001
 11
-81.322219500000074
 21
456.67251599999997
  0
LINE
  8
_0-0_0
  6
CONTINUOUS
 62
    7
 10
-81.072219500000074
 20
456.39855999999997
 11
-81.322219500000074
 21
456.67251599999997
  0
LINE
  8
_0-0_0
  6
CONTINUOUS
 62
    7
 10
-81.072219500000074
 20
456.65475500000002
 11
-81.322219500000074
 21
456.81506300000001
  0
LINE
  8
_0-0_0
  6
CONTINUOUS
 62
    7
 10
-81.072219500000074
 20
456.53698700000001
 11
-81.322219500000074
 21
456.81506300000001
  0
LINE
  8
_0-0_0
  6
CONTINUOUS
 62
    7
 10
-81.072219500000074
 20
456.75054899999998
 11
-81.322219500000074
 21
456.93383799999998
  0
LINE
  8
_0-0_0
  6
CONTINUOUS
 62
    7
 10
-81.072219500000074
 20
456.65475500000002
 11
-81.322219500000074
 21
456.93383799999998
  0
LINE
  8
_0-0_0
  6
CONTINUOUS
 62
    7
 10
-81.072219500000074
 20
456.82330300000001
 11
-81.322219500000074
 21
457.02761800000002
  0
LINE
  8
_0-0_0
  6
CONTINUOUS
 62
    7
 10
-81.072219500000074
 20
456.75054899999998
 11
-81.322219500000074
 21
457.02761800000002
  0
LINE
  8
_0-0_0
  6
CONTINUOUS
 62
    7
 10
-81.072219500000074
 20
456.87228399999998
 11
-81.322219500000074
 21
457.09533699999997
  0
LINE
  8
_0-0_0
  6
CONTINUOUS
 62
    7
 10
-81.072219500000074
 20
456.82330300000001
 11
-81.322219500000074
 21
457.09533699999997
  0
LINE
  8
_0-0_0
  6
CONTINUOUS
 62
    7
 10
-81.072219500000074
 20
456.89691199999999
 11
-81.322219500000074
 21
457.13629200000003
  0
LINE
  8
_0-0_0
  6
CONTINUOUS
 62
    7
 10
-81.072219500000074
 20
456.87228399999998
 11
-81.322219500000074
 21
457.13629200000003
  0
LINE
  8
_0-0_0
  6
CONTINUOUS
 62
    7
 10
-81.072219500000074
 20
456.89691199999999
 11
-81.322219500000074
 21
457.14999399999999
  0
LINE
  8
_0-0_0
  6
CONTINUOUS
 62
    7
 10
-91.072219500000074
 20
452.894836
 11
-91.072219500000074
 21
452.64999399999999
  0
LINE
  8
_0-0_0
  6
CONTINUOUS
 62
    7
 10
-90.822219500000074
 20
455.875427
 11
-90.572219500000074
 21
456.11944599999998
  0
LINE
  8
_0-0_0
  6
CONTINUOUS
 62
    7
 10
-90.822219500000074
 20
456.06594799999999
 11
-90.572219500000074
 21
456.11944599999998
  0
LINE
  8
_0-0_0
  6
CONTINUOUS
 62
    7
 10
-90.822219500000074
 20
456.06594799999999
 11
-90.572219500000074
 21
456.32281499999999
  0
LINE
  8
_0-0_0
  6
CONTINUOUS
 62
    7
 10
-90.822219500000074
 20
456.24096700000001
 11
-90.572219500000074
 21
456.32281499999999
  0
LINE
  8
_0-0_0
  6
CONTINUOUS
 62
    7
 10
-90.822219500000074
 20
456.24096700000001
 11
-90.572219500000074
 21
456.50784299999998
  0
LINE
  8
_0-0_0
  6
CONTINUOUS
 62
    7
 10
-90.822219500000074
 20
456.39855999999997
 11
-90.572219500000074
 21
456.50784299999998
  0
LINE
  8
_0-0_0
  6
CONTINUOUS
 62
    7
 10
-90.822219500000074
 20
456.39855999999997
 11
-90.572219500000074
 21
456.67251599999997
  0
LINE
  8
_0-0_0
  6
CONTINUOUS
 62
    7
 10
-90.822219500000074
 20
456.53698700000001
 11
-90.572219500000074
 21
456.67251599999997
  0
LINE
  8
_0-0_0
  6
CONTINUOUS
 62
    7
 10
-90.822219500000074
 20
456.53698700000001
 11
-90.572219500000074
 21
456.81506300000001
  0
LINE
  8
_0-0_0
  6
CONTINUOUS
 62
    7
 10
-90.822219500000074
 20
456.65475500000002
 11
-90.572219500000074
 21
456.81506300000001
  0
LINE
  8
_0-0_0
  6
CONTINUOUS
 62
    7
 10
-90.822219500000074
 20
456.65475500000002
 11
-90.572219500000074
 21
456.93383799999998
  0
LINE
  8
_0-0_0
  6
CONTINUOUS
 62
    7
 10
-90.822219500000074
 20
456.75054899999998
 11
-90.572219500000074
 21
456.93383799999998
  0
LINE
  8
_0-0_0
  6
CONTINUOUS
 62
    7
 10
-90.822219500000074
 20
456.75054899999998
 11
-90.572219500000074
 21
457.02761800000002
  0
LINE
  8
_0-0_0
  6
CONTINUOUS
 62
    7
 10
-90.822219500000074
 20
456.82330300000001
 11
-90.572219500000074
 21
457.02761800000002
  0
LINE
  8
_0-0_0
  6
CONTINUOUS
 62
    7
 10
-90.822219500000074
 20
456.82330300000001
 11
-90.572219500000074
 21
457.09533699999997
  0
LINE
  8
_0-0_0
  6
CONTINUOUS
 62
    7
 10
-90.822219500000074
 20
456.87228399999998
 11
-90.572219500000074
 21
457.09533699999997
  0
LINE
  8
_0-0_0
  6
CONTINUOUS
 62
    7
 10
-90.822219500000074
 20
456.87228399999998
 11
-90.572219500000074
 21
457.13629200000003
  0
LINE
  8
_0-0_0
  6
CONTINUOUS
 62
    7
 10
-90.822219500000074
 20
456.89691199999999
 11
-90.572219500000074
 21
457.13629200000003
  0
LINE
  8
_0-0_0
  6
CONTINUOUS
 62
    7
 10
-90.822219500000074
 20
456.89691199999999
 11
-90.572219500000074
 21
457.14999399999999
  0
LINE
  8
_0-0_0
  6
CONTINUOUS
 62
    7
 10
-91.072219500000074
 20
456.64999399999999
 11
-91.072219500000074
 21
452.894836
  0
LINE
  8
_0-0_0
  6
CONTINUOUS
 62
    7
 10
-90.572219500000074
 20
456.11944599999998
 11
-81.322219500000074
 21
456.11944599999998
  0
LINE
  8
_0-0_0
  6
CONTINUOUS
 62
    7
 10
-90.572219500000074
 20
456.32281499999999
 11
-81.322219500000074
 21
456.32281499999999
  0
LINE
  8
_0-0_0
  6
CONTINUOUS
 62
    7
 10
-90.572219500000074
 20
456.50784299999998
 11
-81.322219500000074
 21
456.50784299999998
  0
LINE
  8
_0-0_0
  6
CONTINUOUS
 62
    7
 10
-90.572219500000074
 20
456.67251599999997
 11
-81.322219500000074
 21
456.67251599999997
  0
LINE
  8
_0-0_0
  6
CONTINUOUS
 62
    7
 10
-90.572219500000074
 20
456.81506300000001
 11
-81.322219500000074
 21
456.81506300000001
  0
LINE
  8
_0-0_0
  6
CONTINUOUS
 62
    7
 10
-90.572219500000074
 20
456.93383799999998
 11
-81.322219500000074
 21
456.93383799999998
  0
LINE
  8
_0-0_0
  6
CONTINUOUS
 62
    7
 10
-90.572219500000074
 20
457.02761800000002
 11
-81.322219500000074
 21
457.02761800000002
  0
LINE
  8
_0-0_0
  6
CONTINUOUS
 62
    7
 10
-90.572219500000074
 20
457.09533699999997
 11
-81.322219500000074
 21
457.09533699999997
  0
LINE
  8
_0-0_0
  6
CONTINUOUS
 62
    7
 10
-90.572219500000074
 20
457.13629200000003
 11
-81.322219500000074
 21
457.13629200000003
  0
LINE
  8
_0-0_0
  6
CONTINUOUS
 62
    7
 10
-90.572219500000074
 20
457.14999399999999
 11
-81.322219500000074
 21
457.14999399999999
  0
LINE
  8
_0-0_0
  6
CONTINUOUS
 62
    7
 10
-55.072219500000074
 20
473.5
 11
-81.072219500000074
 21
473.5
  0
LINE
  8
_0-0_0
  6
CONTINUOUS
 62
    7
 10
-55.072219500000074
 20
469
 11
-81.072219500000074
 21
469
  0
LINE
  8
_0-0_0
  6
CONTINUOUS
 62
    7
 10
45.927780499999926
 20
456.89999399999999
 11
48.383437499999957
 21
456.89999399999999
  0
LINE
  8
_0-0_0
  6
CONTINUOUS
 62
    7
 10
47.882369499999982
 20
452.39999399999999
 11
48.383437499999957
 21
452.39999399999999
  0
LINE
  8
_0-0_0
  6
CONTINUOUS
 62
    7
 10
-81.072219500000074
 20
473.5
 11
-81.322219500000074
 21
473.75
  0
LINE
  8
_0-0_0
  6
CONTINUOUS
 62
    7
 10
-81.072219500000074
 20
469
 11
-81.322219500000074
 21
468.75
  0
LINE
  8
_0-0_0
  6
CONTINUOUS
 62
    7
 10
48.527786499999934
 20
456.64999399999999
 11
48.383437499999957
 21
456.89999399999999
  0
LINE
  8
_0-0_0
  6
CONTINUOUS
 62
    7
 10
48.527786499999934
 20
452.64999399999999
 11
48.383437499999957
 21
452.39999399999999
  0
LINE
  8
_0-0_0
  6
CONTINUOUS
 62
    7
 10
-77.072219500000074
 20
457.69998199999998
 11
-75.822219500000074
 21
456.44998199999998
  0
LINE
  8
_0-0_0
  6
CONTINUOUS
 62
    7
 10
-77.072219500000074
 20
468.19998199999998
 11
-76.27223250000003
 21
468.99996900000002
  0
LINE
  8
_0-0_0
  6
CONTINUOUS
 62
    7
 10
-91.072219500000074
 20
473.25
 11
-90.572372500000029
 21
473.74981700000001
  0
LINE
  8
_0-0_0
  6
CONTINUOUS
 62
    7
 10
-91.072219500000074
 20
469.25
 11
-90.572372500000029
 21
468.75015300000001
  0
LINE
  8
_0-0_0
  6
CONTINUOUS
 62
    7
 10
-77.072219500000074
 20
467.94998199999998
 11
-77.472229500000026
 21
467.94998199999998
  0
LINE
  8
_0-0_0
  6
CONTINUOUS
 62
    7
 10
-77.072219500000074
 20
457.94998199999998
 11
-77.472229500000026
 21
457.94998199999998
  0
LINE
  8
_0-0_0
  6
CONTINUOUS
 62
    7
 10
-78.272216500000013
 20
467.48809799999998
 11
-77.472229500000026
 21
467.94998199999998
  0
LINE
  8
_0-0_0
  6
CONTINUOUS
 62
    7
 10
-78.272216500000013
 20
458.41186499999998
 11
-77.472229500000026
 21
457.94998199999998
  0
LINE
  8
_0-0_0
  6
CONTINUOUS
 62
    7
 10
-78.272216500000013
 20
466.94998199999998
 11
-136.2722205
 21
466.94998199999998
  0
LINE
  8
_0-0_0
  6
CONTINUOUS
 62
    7
 10
-78.272216500000013
 20
458.94998199999998
 11
-136.2722205
 21
458.94998199999998
  0
LINE
  8
_0-0_0
  6
CONTINUOUS
 62
    7
 10
-60.822250500000052
 20
452.39999399999999
 11
-81.072219500000074
 21
452.39999399999999
  0
LINE
  8
_0-0_0
  6
CONTINUOUS
 62
    7
 10
-81.072219500000074
 20
452.39999399999999
 11
-81.322219500000074
 21
452.14999399999999
  0
LINE
  8
_0-0_0
  6
CONTINUOUS
 62
    7
 10
-76.27223250000003
 20
456.89999399999999
 11
-81.072219500000074
 21
456.89999399999999
  0
LINE
  8
_0-0_0
  6
CONTINUOUS
 62
    7
 10
-81.072219500000074
 20
456.89999399999999
 11
-81.322219500000074
 21
457.14999399999999
  0
LINE
  8
_0-0_0
  6
CONTINUOUS
 62
    7
 10
-91.072219500000074
 20
452.64999399999999
 11
-90.572372500000029
 21
452.15014600000001
  0
LINE
  8
_0-0_0
  6
CONTINUOUS
 62
    7
 10
-91.072219500000074
 20
456.64999399999999
 11
-90.572372500000029
 21
457.14984099999998
  0
LINE
  8
_0-0_0
  6
CONTINUOUS
 62
    7
 10
-164.58322150000004
 20
505.14999399999999
 11
-164.58322150000004
 21
492.14999399999999
  0
LINE
  8
_0-0_0
  6
CONTINUOUS
 62
    7
 10
-164.3832245000001
 20
505.14999399999999
 11
-164.58322150000004
 21
505.14999399999999
  0
LINE
  8
_0-0_0
  6
CONTINUOUS
 62
    7
 10
-164.3832245000001
 20
492.14999399999999
 11
-164.58322150000004
 21
492.14999399999999
  0
LINE
  8
_0-0_0
  6
CONTINUOUS
 62
    7
 10
-164.3832245000001
 20
505.14999399999999
 11
-164.3832245000001
 21
523.75
  0
LINE
  8
_0-0_0
  6
CONTINUOUS
 62
    7
 10
-164.28322250000008
 20
523.75
 11
-164.3832245000001
 21
523.75
  0
LINE
  8
_0-0_0
  6
CONTINUOUS
 62
    7
 10
-164.28322250000008
 20
526.25
 11
-164.28322250000008
 21
523.75
  0
ARC
  8
_0-0_0
  6
CONTINUOUS
 62
    7
 10
-164.78322250000008
 20
526.25
 40
0.5
 50
0
 51
90.000003000000007
  0
LINE
  8
_0-0_0
  6
CONTINUOUS
 62
    7
 10
-164.78322250000008
 20
526.75
 11
-167.78322250000008
 21
526.75
  0
ARC
  8
_0-0_0
  6
CONTINUOUS
 62
    7
 10
-167.78322250000008
 20
526.25
 40
0.5
 50
90.000003000000007
 51
179.99999099999999
  0
ARC
  8
_0-0_0
  6
CONTINUOUS
 62
    7
 10
-172.28322250000008
 20
478.75
 40
0.5
 50
179.99999099999999
 51
269.99999700000001
  0
LINE
  8
_0-0_0
  6
CONTINUOUS
 62
    7
 10
-169.78322250000008
 20
478.25
 11
-172.28322250000008
 21
478.25
  0
ARC
  8
_0-0_0
  6
CONTINUOUS
 62
    7
 10
-169.78322250000008
 20
478.75
 40
0.5
 50
269.99999700000001
 51
0
  0
LINE
  8
_0-0_0
  6
CONTINUOUS
 62
    7
 10
-169.28322250000008
 20
483.75
 11
-169.28322250000008
 21
478.75
  0
ARC
  8
_0-0_0
  6
CONTINUOUS
 62
    7
 10
-168.78322250000008
 20
483.75
 40
0.5
 50
90.000003000000007
 51
179.99999099999999
  0
LINE
  8
_0-0_0
  6
CONTINUOUS
 62
    7
 10
-164.78322250000008
 20
484.25
 11
-168.78322250000008
 21
484.25
  0
ARC
  8
_0-0_0
  6
CONTINUOUS
 62
    7
 10
-164.78322250000008
 20
484.75
 40
0.5
 50
269.99999700000001
 51
0
  0
LINE
  8
_0-0_0
  6
CONTINUOUS
 62
    7
 10
-164.28322250000008
 20
487.94998199999998
 11
-164.28322250000008
 21
484.75
  0
LINE
  8
_0-0_0
  6
CONTINUOUS
 62
    7
 10
-164.3832245000001
 20
487.94998199999998
 11
-164.28322250000008
 21
487.94998199999998
  0
LINE
  8
_0-0_0
  6
CONTINUOUS
 62
    7
 10
-164.3832245000001
 20
487.94998199999998
 11
-164.3832245000001
 21
492.14999399999999
  0
LINE
  8
_0-0_0
  6
CONTINUOUS
 62
    7
 10
-165.28322250000008
 20
526.25
 11
-183.08322250000003
 21
526.25
  0
ARC
  8
_0-0_0
  6
CONTINUOUS
 62
    7
 10
-165.28322250000008
 20
525.75
 40
0.5
 50
0
 51
90.000003000000007
  0
LINE
  8
_0-0_0
  6
CONTINUOUS
 62
    7
 10
-164.78322250000008
 20
525.75
 11
-164.78322250000008
 21
485.25
  0
ARC
  8
_0-0_0
  6
CONTINUOUS
 62
    7
 10
-165.28322250000008
 20
485.25
 40
0.5
 50
269.99999700000001
 51
0
  0
LINE
  8
_0-0_0
  6
CONTINUOUS
 62
    7
 10
-168.78322250000008
 20
484.75
 11
-165.28322250000008
 21
484.75
  0
ARC
  8
_0-0_0
  6
CONTINUOUS
 62
    7
 10
-168.78322250000008
 20
483.75
 40
1
 50
90.000003000000007
 51
179.99999099999999
  0
LINE
  8
_0-0_0
  6
CONTINUOUS
 62
    7
 10
-169.78322250000008
 20
483.75
 11
-169.78322250000008
 21
479.25
  0
ARC
  8
_0-0_0
  6
CONTINUOUS
 62
    7
 10
-170.28322250000008
 20
479.25
 40
0.5
 50
269.99999700000001
 51
0
  0
LINE
  8
_0-0_0
  6
CONTINUOUS
 62
    7
 10
-187.28322250000008
 20
478.75
 11
-170.28322250000008
 21
478.75
  0
LINE
  8
_0-0_0
  6
CONTINUOUS
 62
    7
 10
-168.78322250000008
 20
526.44998199999998
 11
-168.78322250000008
 21
526.25
  0
ARC
  8
_0-0_0
  6
CONTINUOUS
 62
    7
 10
-169.08322150000004
 20
526.44998199999998
 40
0.2999999999999999
 50
0
 51
90.000003000000007
  0
LINE
  8
_0-0_0
  6
CONTINUOUS
 62
    7
 10
-169.08322150000004
 20
526.75
 11
-183.78322250000008
 21
526.75
  0
ARC
  8
_0-0_0
  6
CONTINUOUS
 62
    7
 10
-183.78322250000008
 20
526.44998199999998
 40
0.2999999999999999
 50
90.000003000000007
 51
179.99999099999999
  0
LINE
  8
_0-0_0
  6
CONTINUOUS
 62
    7
 10
-184.08322250000003
 20
526.44998199999998
 11
-184.08322250000003
 21
523.25
  0
LINE
  8
_0-0_0
  6
CONTINUOUS
 62
    7
 10
-184.08322250000003
 20
523.25
 11
-189.78322250000008
 21
523.25
  0
LINE
  8
_0-0_0
  6
CONTINUOUS
 62
    7
 10
-189.78322250000008
 20
523.25
 11
-190.58322250000003
 21
522.44998199999998
  0
ARC
  8
_0-0_0
  6
CONTINUOUS
 62
    7
 10
-183.08322250000003
 20
525.75
 40
0.5
 50
90.000003000000007
 51
179.99999099999999
  0
LINE
  8
_0-0_0
  6
CONTINUOUS
 62
    7
 10
-183.58322250000003
 20
525.75
 11
-183.58322250000003
 21
522.94998199999998
  0
ARC
  8
_0-0_0
  6
CONTINUOUS
 62
    7
 10
-184.08322250000003
 20
522.94998199999998
 40
0.5
 50
269.99999700000001
 51
0
  0
LINE
  8
_0-0_0
  6
CONTINUOUS
 62
    7
 10
-184.08322250000003
 20
522.44998199999998
 11
-192.28322250000008
 21
522.44998199999998
  0
ARC
  8
_0-0_0
  6
CONTINUOUS
 62
    7
 10
-192.28322250000008
 20
521.94998199999998
 40
0.5
 50
90.000003000000007
 51
179.99999099999999
  0
LINE
  8
_0-0_0
  6
CONTINUOUS
 62
    7
 10
-192.78322250000008
 20
485.25
 11
-192.78322250000008
 21
521.94998199999998
  0
ARC
  8
_0-0_0
  6
CONTINUOUS
 62
    7
 10
-192.28322250000008
 20
485.25
 40
0.5
 50
179.99999099999999
 51
269.99999700000001
  0
LINE
  8
_0-0_0
  6
CONTINUOUS
 62
    7
 10
-192.28322250000008
 20
484.75
 11
-188.78322250000008
 21
484.75
  0
ARC
  8
_0-0_0
  6
CONTINUOUS
 62
    7
 10
-188.78322250000008
 20
483.75
 40
1
 50
0
 51
90.000003000000007
  0
LINE
  8
_0-0_0
  6
CONTINUOUS
 62
    7
 10
-187.78322250000008
 20
479.25
 11
-187.78322250000008
 21
483.75
  0
ARC
  8
_0-0_0
  6
CONTINUOUS
 62
    7
 10
-187.28322250000008
 20
479.25
 40
0.5
 50
179.99999099999999
 51
269.99999700000001
  0
CIRCLE
  8
_0-0_0
  6
CONTINUOUS
 62
    7
 10
-178.78322250000008
 20
487.75
 40
2.0670000000000002
  0
LINE
  8
_0-0_0
  6
CONTINUOUS
 62
    7
 10
-190.78322250000008
 20
522.75
 11
-190.78322250000008
 21
522.44998199999998
  0
LINE
  8
_0-0_0
  6
CONTINUOUS
 62
    7
 10
-190.78322250000008
 20
522.75
 11
-192.78322250000008
 21
522.75
  0
ARC
  8
_0-0_0
  6
CONTINUOUS
 62
    7
 10
-192.78322250000008
 20
522.25
 40
0.5
 50
90.000003000000007
 51
179.99999099999999
  0
LINE
  8
_0-0_0
  6
CONTINUOUS
 62
    7
 10
-193.28322250000008
 20
522.25
 11
-193.28322250000008
 21
484.75
  0
ARC
  8
_0-0_0
  6
CONTINUOUS
 62
    7
 10
-192.78322250000008
 20
484.75
 40
0.5
 50
179.99999099999999
 51
269.99999700000001
  0
LINE
  8
_0-0_0
  6
CONTINUOUS
 62
    7
 10
-188.78322250000008
 20
484.25
 11
-192.78322250000008
 21
484.25
  0
ARC
  8
_0-0_0
  6
CONTINUOUS
 62
    7
 10
-188.78322250000008
 20
483.75
 40
0.5
 50
0
 51
90.000003000000007
  0
LINE
  8
_0-0_0
  6
CONTINUOUS
 62
    7
 10
-188.28322250000008
 20
478.75
 11
-188.28322250000008
 21
483.75
  0
ARC
  8
_0-0_0
  6
CONTINUOUS
 62
    7
 10
-187.78322250000008
 20
478.75
 40
0.5
 50
179.99999099999999
 51
269.99999700000001
  0
LINE
  8
_0-0_0
  6
CONTINUOUS
 62
    7
 10
-187.78322250000008
 20
478.25
 11
-185.28322250000008
 21
478.25
  0
ARC
  8
_0-0_0
  6
CONTINUOUS
 62
    7
 10
-185.28322250000008
 20
478.75
 40
0.5
 50
269.99999700000001
 51
0
  0
LINE
  8
_0-0_0
  6
CONTINUOUS
 62
    7
 10
-169.28322250000008
 20
478.75
 11
-169.18322250000006
 21
478.75
  0
LINE
  8
_0-0_0
  6
CONTINUOUS
 62
    7
 10
-169.18322250000006
 20
478.75
 11
-169.18322250000006
 21
479.25
  0
LINE
  8
_0-0_0
  6
CONTINUOUS
 62
    7
 10
-169.18322250000006
 20
483.25
 11
-169.18322250000006
 21
479.25
  0
LINE
  8
_0-0_0
  6
CONTINUOUS
 62
    7
 10
-169.28322250000008
 20
483.75
 11
-169.18322250000006
 21
483.75
  0
LINE
  8
_0-0_0
  6
CONTINUOUS
 62
    7
 10
-169.18322250000006
 20
483.25
 11
-169.18322250000006
 21
483.75
  0
LINE
  8
_0-0_0
  6
CONTINUOUS
 62
    7
 10
-169.08322150000004
 20
479.25
 11
-169.08322150000004
 21
479.38034099999999
  0
LINE
  8
_0-0_0
  6
CONTINUOUS
 62
    7
 10
-169.08322150000004
 20
482.88034099999999
 11
-169.08322150000004
 21
479.38034099999999
  0
LINE
  8
_0-0_0
  6
CONTINUOUS
 62
    7
 10
-169.18322250000006
 20
483.14999399999999
 11
-169.08322150000004
 21
483.14999399999999
  0
LINE
  8
_0-0_0
  6
CONTINUOUS
 62
    7
 10
-169.08322150000004
 20
482.88034099999999
 11
-169.08322150000004
 21
483.14999399999999
  0
LINE
  8
_0-0_0
  6
CONTINUOUS
 62
    7
 10
-169.18322250000006
 20
479.25
 11
-169.08322150000004
 21
479.25
  0
LINE
  8
_0-0_0
  6
CONTINUOUS
 62
    7
 10
-169.18322250000006
 20
479.25
 11
-169.08322150000004
 21
479.25
  0
LINE
  8
_0-0_0
  6
CONTINUOUS
 62
    7
 10
-187.58322250000003
 20
476.25
 11
-183.38322249999999
 21
476.25
  0
LINE
  8
_0-0_0
  6
CONTINUOUS
 62
    7
 10
-171.78322250000008
 20
476.25
 11
-174.18322250000006
 21
476.25
  0
LINE
  8
_0-0_0
  6
CONTINUOUS
 62
    7
 10
-171.78322250000008
 20
476.25
 11
-170.58322150000004
 21
476.25
  0
ARC
  8
_0-0_0
  6
CONTINUOUS
 62
    7
 10
-170.58322150000004
 20
475.75
 40
0.5
 50
0
 51
90.000003000000007
  0
ARC
  8
_0-0_0
  6
CONTINUOUS
 62
    7
 10
-171.78322250000008
 20
475.75
 40
0.5
 50
90.000003000000007
 51
179.99999099999999
  0
ARC
  8
_0-0_0
  6
CONTINUOUS
 62
    7
 10
-174.18322250000006
 20
476.75
 40
0.5
 50
179.99999099999999
 51
269.99999700000001
  0
ARC
  8
_0-0_0
  6
CONTINUOUS
 62
    7
 10
-183.38322249999999
 20
476.75
 40
0.5
 50
269.99999700000001
 51
0
  0
ARC
  8
_0-0_0
  6
CONTINUOUS
 62
    7
 10
-187.58322250000003
 20
475.75
 40
0.5
 50
90.000003000000007
 51
179.99999099999999
  0
LINE
  8
_0-0_0
  6
CONTINUOUS
 62
    7
 10
-186.58322250000003
 20
476.75
 11
-186.58322250000003
 21
476.25
  0
ARC
  8
_0-0_0
  6
CONTINUOUS
 62
    7
 10
-186.08322250000003
 20
476.75
 40
0.5
 50
90.000003000000007
 51
179.99999099999999
  0
LINE
  8
_0-0_0
  6
CONTINUOUS
 62
    7
 10
-184.58322250000003
 20
477.25
 11
-186.08322250000003
 21
477.25
  0
ARC
  8
_0-0_0
  6
CONTINUOUS
 62
    7
 10
-184.58322250000003
 20
478.25
 40
1
 50
269.99999700000001
 51
0
  0
LINE
  8
_0-0_0
  6
CONTINUOUS
 62
    7
 10
-183.58322250000003
 20
478.75
 11
-183.58322250000003
 21
478.25
  0
LINE
  8
_0-0_0
  6
CONTINUOUS
 62
    7
 10
-183.08322250000003
 20
478.75
 11
-183.08322250000003
 21
477.75
  0
ARC
  8
_0-0_0
  6
CONTINUOUS
 62
    7
 10
-184.58322250000003
 20
477.75
 40
1.5
 50
269.99999700000001
 51
0
  0
ARC
  8
_0-0_0
  6
CONTINUOUS
 62
    7
 10
-172.98322350000001
 20
477.75
 40
1.5
 50
179.99999099999999
 51
269.99999700000001
  0
LINE
  8
_0-0_0
  6
CONTINUOUS
 62
    7
 10
-170.98322350000001
 20
476.75
 11
-170.98322350000001
 21
476.25
  0
ARC
  8
_0-0_0
  6
CONTINUOUS
 62
    7
 10
-171.48322350000001
 20
476.75
 40
0.5
 50
0
 51
90.000003000000007
  0
LINE
  8
_0-0_0
  6
CONTINUOUS
 62
    7
 10
-172.98322350000001
 20
477.25
 11
-171.48322350000001
 21
477.25
  0
ARC
  8
_0-0_0
  6
CONTINUOUS
 62
    7
 10
-172.98322350000001
 20
478.25
 40
1
 50
179.99999099999999
 51
269.99999700000001
  0
LINE
  8
_0-0_0
  6
CONTINUOUS
 62
    7
 10
-173.98322350000001
 20
478.75
 11
-173.98322350000001
 21
478.25
  0
LINE
  8
_0-0_0
  6
CONTINUOUS
 62
    7
 10
-174.48322350000001
 20
478.75
 11
-174.48322350000001
 21
477.75
  0
LINE
  8
_0-0_0
  6
CONTINUOUS
 62
    7
 10
-170.08322150000004
 20
449.25
 11
-170.08322150000004
 21
450.14999399999999
  0
LINE
  8
_0-0_0
  6
CONTINUOUS
 62
    7
 10
-170.08322150000004
 20
450.14999399999999
 11
-170.08322150000004
 21
452.64999399999999
  0
LINE
  8
_0-0_0
  6
CONTINUOUS
 62
    7
 10
-170.08322150000004
 20
452.64999399999999
 11
-170.08322150000004
 21
473.25
  0
LINE
  8
_0-0_0
  6
CONTINUOUS
 62
    7
 10
-170.08322150000004
 20
473.25
 11
-170.08322150000004
 21
475.75
  0
LINE
  8
_0-0_0
  6
CONTINUOUS
 62
    7
 10
-172.28322250000008
 20
475.75
 11
-172.28322250000008
 21
474.504974
  0
LINE
  8
_0-0_0
  6
CONTINUOUS
 62
    7
 10
-174.68322250000006
 20
476.75
 11
-174.68322250000006
 21
478.54998799999998
  0
ARC
  8
_0-0_0
  6
CONTINUOUS
 62
    7
 10
-175.18322250000006
 20
478.54998799999998
 40
0.5
 50
0
 51
23.579369
  0
LINE
  8
_0-0_0
  6
CONTINUOUS
 62
    7
 10
-182.88322249999999
 20
476.75
 11
-182.88322249999999
 21
478.54998799999998
  0
ARC
  8
_0-0_0
  6
CONTINUOUS
 62
    7
 10
-182.38322249999999
 20
478.54998799999998
 40
0.5
 50
156.420635
 51
179.99999099999999
  0
LINE
  8
_0-0_0
  6
CONTINUOUS
 62
    7
 10
-188.08322250000003
 20
449.25
 11
-188.08322250000003
 21
459.44998199999998
  0
LINE
  8
_0-0_0
  6
CONTINUOUS
 62
    7
 10
-188.08322250000003
 20
459.44998199999998
 11
-188.08322250000003
 21
460.44998199999998
  0
LINE
  8
_0-0_0
  6
CONTINUOUS
 62
    7
 10
-188.08322250000003
 20
460.44998199999998
 11
-188.08322250000003
 21
465.44998199999998
  0
LINE
  8
_0-0_0
  6
CONTINUOUS
 62
    7
 10
-188.08322250000003
 20
465.44998199999998
 11
-188.08322250000003
 21
466.44998199999998
  0
LINE
  8
_0-0_0
  6
CONTINUOUS
 62
    7
 10
-188.08322250000003
 20
475.75
 11
-188.08322250000003
 21
466.44998199999998
  0
LINE
  8
_0-0_0
  6
CONTINUOUS
 62
    7
 10
-169.28322250000008
 20
474.75
 11
-170.08322150000004
 21
474.75
  0
LINE
  8
_0-0_0
  6
CONTINUOUS
 62
    7
 10
-169.28322250000008
 20
475.54998799999998
 11
-170.08322150000004
 21
475.54998799999998
  0
LINE
  8
_0-0_0
  6
CONTINUOUS
 62
    7
 10
-169.28322250000008
 20
474.54998799999998
 11
-169.28322250000008
 21
475.54998799999998
  0
LINE
  8
_0-0_0
  6
CONTINUOUS
 62
    7
 10
-169.28322250000008
 20
455.94998199999998
 11
-170.08322150000004
 21
455.94998199999998
  0
LINE
  8
_0-0_0
  6
CONTINUOUS
 62
    7
 10
-169.28322250000008
 20
455.94998199999998
 11
-169.28322250000008
 21
458.94998199999998
  0
LINE
  8
_0-0_0
  6
CONTINUOUS
 62
    7
 10
-169.28322250000008
 20
471.18768299999999
 11
-169.28322250000008
 21
458.94998199999998
  0
LINE
  8
_0-0_0
  6
CONTINUOUS
 62
    7
 10
-169.28322250000008
 20
471.18768299999999
 11
-169.28322250000008
 21
472.15045199999997
  0
LINE
  8
_0-0_0
  6
CONTINUOUS
 62
    7
 10
-170.08322150000004
 20
472.15045199999997
 11
-170.08322150000004
 21
474.75
  0
ARC
  8
_0-0_0
  6
CONTINUOUS
 62
    7
 10
-175.6981475
 20
471.43203699999998
 40
5.7120379999999997
 50
18.558475999999999
 51
26.433648000000002
  0
ARC
  8
_0-0_0
  6
CONTINUOUS
 62
    7
 10
-170.28322250000008
 20
473.25
 40
0.2
 50
269.99999700000001
 51
0
  0
ARC
  8
_0-0_0
  6
CONTINUOUS
 62
    7
 10
-170.28322250000008
 20
452.64999399999999
 40
0.2
 50
0
 51
90.000003000000007
  0
ARC
  8
_0-0_0
  6
CONTINUOUS
 62
    7
 10
-175.69803050000007
 20
454.46801799999997
 40
5.711964
 50
333.565022
 51
341.44031000000001
  0
ARC
  8
_0-0_0
  6
CONTINUOUS
 62
    7
 10
-170.58322150000004
 20
450.14999399999999
 40
0.5
 50
269.99999700000001
 51
0
  0
LINE
  8
_0-0_0
  6
CONTINUOUS
 62
    7
 10
-170.58322150000004
 20
449.25
 11
-170.08322150000004
 21
449.25
  0
LINE
  8
_0-0_0
  6
CONTINUOUS
 62
    7
 10
-170.08322150000004
 20
449.25
 11
-170.58322150000004
 21
448.75
  0
ARC
  8
_0-0_0
  6
CONTINUOUS
 62
    7
 10
-172.28322250000008
 20
471.75
 40
2.2999999999999998
 50
34.417387999999995
 51
79.713437000000013
  0
LINE
  8
_0-0_0
  6
CONTINUOUS
 62
    7
 10
-170.3445395
 20
473.04998799999998
 11
-170.38585450000005
 21
473.04998799999998
  0
LINE
  8
_0-0_0
  6
CONTINUOUS
 62
    7
 10
-170.3445395
 20
473.04998799999998
 11
-170.33498050000003
 21
473.05102499999998
  0
LINE
  8
_0-0_0
  6
CONTINUOUS
 62
    7
 10
-170.33498050000003
 20
473.05102499999998
 11
-170.3254895
 21
473.05419899999998
  0
LINE
  8
_0-0_0
  6
CONTINUOUS
 62
    7
 10
-170.3254895
 20
473.05419899999998
 11
-170.31623450000006
 21
473.05960099999999
  0
LINE
  8
_0-0_0
  6
CONTINUOUS
 62
    7
 10
-170.31623450000006
 20
473.05960099999999
 11
-170.30743849999999
 21
473.06710800000002
  0
LINE
  8
_0-0_0
  6
CONTINUOUS
 62
    7
 10
-170.30743849999999
 20
473.06710800000002
 11
-170.29203849999999
 21
473.08776899999998
  0
LINE
  8
_0-0_0
  6
CONTINUOUS
 62
    7
 10
-170.29203849999999
 20
473.08776899999998
 11
-170.28026250000005
 21
473.11502100000001
  0
LINE
  8
_0-0_0
  6
CONTINUOUS
 62
    7
 10
-170.28026250000005
 20
473.11502100000001
 11
-170.27308049999999
 21
473.147156
  0
LINE
  8
_0-0_0
  6
CONTINUOUS
 62
    7
 10
-170.27308049999999
 20
473.147156
 11
-170.27118849999999
 21
473.18221999999997
  0
LINE
  8
_0-0_0
  6
CONTINUOUS
 62
    7
 10
-170.27118849999999
 20
473.18221999999997
 11
-170.27503750000005
 21
473.21838400000001
  0
LINE
  8
_0-0_0
  6
CONTINUOUS
 62
    7
 10
-170.27503750000005
 20
473.21838400000001
 11
-170.28322450000007
 21
473.25
  0
ARC
  8
_0-0_0
  6
CONTINUOUS
 62
    7
 10
-171.78322250000008
 20
474.504974
 40
0.5
 50
179.99999099999999
 51
259.71343899999994
  0
LINE
  8
_0-0_0
  6
CONTINUOUS
 62
    7
 10
-187.28322250000008
 20
471.75
 11
-187.28322250000008
 21
458.14999399999999
  0
LINE
  8
_0-0_0
  6
CONTINUOUS
 62
    7
 10
-187.28322250000008
 20
457.64999399999999
 11
-187.28322250000008
 21
458.14999399999999
  0
LINE
  8
_0-0_0
  6
CONTINUOUS
 62
    7
 10
-187.28322250000008
 20
454.64999399999999
 11
-187.28322250000008
 21
457.64999399999999
  0
LINE
  8
_0-0_0
  6
CONTINUOUS
 62
    7
 10
-187.28322250000008
 20
454.14999399999999
 11
-187.28322250000008
 21
454.64999399999999
  0
ARC
  8
_0-0_0
  6
CONTINUOUS
 62
    7
 10
-185.28322250000008
 20
471.75
 40
2
 50
93.840255999999997
 51
179.99999099999999
  0
LINE
  8
_0-0_0
  6
CONTINUOUS
 62
    7
 10
-185.28322250000008
 20
473.75
 11
-176.28322250000008
 21
473.75
  0
LINE
  8
_0-0_0
  6
CONTINUOUS
 62
    7
 10
-172.28322250000008
 20
473.75
 11
-172.78322250000008
 21
473.75
  0
LINE
  8
_0-0_0
  6
CONTINUOUS
 62
    7
 10
-172.78322250000008
 20
473.75
 11
-175.78322250000008
 21
473.75
  0
LINE
  8
_0-0_0
  6
CONTINUOUS
 62
    7
 10
-176.28322250000008
 20
473.75
 11
-175.78322250000008
 21
473.75
  0
ARC
  8
_0-0_0
  6
CONTINUOUS
 62
    7
 10
-172.28322250000008
 20
471.75
 40
2
 50
0
 51
90.000003000000007
  0
LINE
  8
_0-0_0
  6
CONTINUOUS
 62
    7
 10
-188.28322250000008
 20
474.75
 11
-188.08322250000003
 21
474.75
  0
LINE
  8
_0-0_0
  6
CONTINUOUS
 62
    7
 10
-188.28322250000008
 20
475.54998799999998
 11
-188.08322250000003
 21
475.54998799999998
  0
LINE
  8
_0-0_0
  6
CONTINUOUS
 62
    7
 10
-188.28322250000008
 20
475.54998799999998
 11
-188.28322250000008
 21
474.75012199999998
  0
LINE
  8
_0-0_0
  6
CONTINUOUS
 62
    7
 10
-188.28322250000008
 20
455.94998199999998
 11
-188.08322250000003
 21
455.94998199999998
  0
LINE
  8
_0-0_0
  6
CONTINUOUS
 62
    7
 10
-188.28322250000008
 20
458.94998199999998
 11
-188.28322250000008
 21
455.94998199999998
  0
LINE
  8
_0-0_0
  6
CONTINUOUS
 62
    7
 10
-188.28322250000008
 20
471.18768299999999
 11
-188.28322250000008
 21
458.94998199999998
  0
LINE
  8
_0-0_0
  6
CONTINUOUS
 62
    7
 10
-188.28322250000008
 20
472.15045199999997
 11
-188.28322250000008
 21
471.18768299999999
  0
ARC
  8
_0-0_0
  6
CONTINUOUS
 62
    7
 10
-187.58322250000003
 20
465.44998199999998
 40
0.5
 50
90.000003000000007
 51
179.99999099999999
  0
ARC
  8
_0-0_0
  6
CONTINUOUS
 62
    7
 10
-187.58322250000003
 20
460.44998199999998
 40
0.5
 50
179.99999099999999
 51
269.99999700000001
  0
LINE
  8
_0-0_0
  6
CONTINUOUS
 62
    7
 10
-188.08322250000003
 20
449.25
 11
-187.58322250000003
 21
449.25
  0
LINE
  8
_0-0_0
  6
CONTINUOUS
 62
    7
 10
-188.08322250000003
 20
449.25
 11
-187.58322250000003
 21
448.75
  0
LINE
  8
_0-0_0
  6
CONTINUOUS
 62
    7
 10
-170.08322150000004
 20
455.95001200000002
 11
-170.08322150000004
 21
454.79998799999998
  0
ARC
  8
_0-0_0
  6
CONTINUOUS
 62
    7
 10
-172.48322350000001
 20
454.79998799999998
 40
2.3999999999999999
 50
359.58604600000001
 51
0.0000099999999787
  0
LINE
  8
_0-0_0
  6
CONTINUOUS
 62
    7
 10
-169.28322250000008
 20
472.15045199999997
 11
-169.28322250000008
 21
474.75
  0
LINE
  8
_0-0_0
  6
CONTINUOUS
 62
    7
 10
-170.28322250000008
 20
473.04998799999998
 11
-170.3445395
 21
473.04998799999998
  0
LINE
  8
_0-0_0
  6
CONTINUOUS
 62
    7
 10
-170.38585450000005
 20
473.04998799999998
 11
-170.38807850000001
 21
473.04998799999998
  0
LINE
  8
_0-0_0
  6
CONTINUOUS
 62
    7
 10
-170.58322150000004
 20
449.25
 11
-187.58322250000003
 21
449.25
  0
LINE
  8
_0-0_0
  6
CONTINUOUS
 62
    7
 10
-170.51975450000009
 20
453.04998799999998
 11
-170.48283050000009
 21
452.97976699999998
  0
LINE
  8
_0-0_0
  6
CONTINUOUS
 62
    7
 10
-170.48283050000009
 20
452.97976699999998
 11
-170.46322650000002
 21
452.94528200000002
  0
LINE
  8
_0-0_0
  6
CONTINUOUS
 62
    7
 10
-170.46322650000002
 20
452.94528200000002
 11
-170.43714150000005
 21
452.90344199999998
  0
LINE
  8
_0-0_0
  6
CONTINUOUS
 62
    7
 10
-170.43714150000005
 20
452.90344199999998
 11
-170.4238325
 21
452.88439899999997
  0
LINE
  8
_0-0_0
  6
CONTINUOUS
 62
    7
 10
-170.4238325
 20
452.88439899999997
 11
-170.40547350000008
 21
452.86200000000002
  0
LINE
  8
_0-0_0
  6
CONTINUOUS
 62
    7
 10
-170.40547350000008
 20
452.86200000000002
 11
-170.39268150000009
 21
452.85137900000001
  0
LINE
  8
_0-0_0
  6
CONTINUOUS
 62
    7
 10
-170.39268150000009
 20
452.85137900000001
 11
-170.38807850000001
 21
452.84997600000003
  0
LINE
  8
_0-0_0
  6
CONTINUOUS
 62
    7
 10
-170.38585450000005
 20
452.84997600000003
 11
-170.38807850000001
 21
452.84997600000003
  0
LINE
  8
_0-0_0
  6
CONTINUOUS
 62
    7
 10
-170.51975450000009
 20
472.84997600000003
 11
-170.48283050000009
 21
472.92022700000001
  0
LINE
  8
_0-0_0
  6
CONTINUOUS
 62
    7
 10
-170.48283050000009
 20
472.92022700000001
 11
-170.46322450000002
 21
472.95468099999999
  0
LINE
  8
_0-0_0
  6
CONTINUOUS
 62
    7
 10
-170.46322450000002
 20
472.95468099999999
 11
-170.43714150000005
 21
472.99652099999997
  0
LINE
  8
_0-0_0
  6
CONTINUOUS
 62
    7
 10
-170.43714150000005
 20
472.99652099999997
 11
-170.4238335
 21
473.01556399999998
  0
LINE
  8
_0-0_0
  6
CONTINUOUS
 62
    7
 10
-170.4238335
 20
473.01556399999998
 11
-170.40547350000008
 21
473.03796399999999
  0
LINE
  8
_0-0_0
  6
CONTINUOUS
 62
    7
 10
-170.40547350000008
 20
473.03796399999999
 11
-170.39268150000009
 21
473.04858400000001
  0
LINE
  8
_0-0_0
  6
CONTINUOUS
 62
    7
 10
-170.39268150000009
 20
473.04858400000001
 11
-170.38807850000001
 21
473.04998799999998
  0
LINE
  8
_0-0_0
  6
CONTINUOUS
 62
    7
 10
-170.38585450000005
 20
452.84997600000003
 11
-170.3445395
 21
452.84997600000003
  0
LINE
  8
_0-0_0
  6
CONTINUOUS
 62
    7
 10
-170.28322250000008
 20
452.84997600000003
 11
-170.3445395
 21
452.84997600000003
  0
LINE
  8
_0-0_0
  6
CONTINUOUS
 62
    7
 10
-170.3445395
 20
452.84997600000003
 11
-170.33497850000003
 21
452.84893799999998
  0
LINE
  8
_0-0_0
  6
CONTINUOUS
 62
    7
 10
-170.33497850000003
 20
452.84893799999998
 11
-170.32548750000001
 21
452.84576399999997
  0
LINE
  8
_0-0_0
  6
CONTINUOUS
 62
    7
 10
-170.32548750000001
 20
452.84576399999997
 11
-170.31623450000006
 21
452.84036300000002
  0
LINE
  8
_0-0_0
  6
CONTINUOUS
 62
    7
 10
-170.31623450000006
 20
452.84036300000002
 11
-170.30743849999999
 21
452.832855
  0
LINE
  8
_0-0_0
  6
CONTINUOUS
 62
    7
 10
-170.30743849999999
 20
452.832855
 11
-170.29203849999999
 21
452.81222500000001
  0
LINE
  8
_0-0_0
  6
CONTINUOUS
 62
    7
 10
-170.29203849999999
 20
452.81222500000001
 11
-170.28026250000005
 21
452.784943
  0
LINE
  8
_0-0_0
  6
CONTINUOUS
 62
    7
 10
-170.28026250000005
 20
452.784943
 11
-170.27308049999999
 21
452.75280800000002
  0
LINE
  8
_0-0_0
  6
CONTINUOUS
 62
    7
 10
-170.27308049999999
 20
452.75280800000002
 11
-170.27118849999999
 21
452.71774299999998
  0
LINE
  8
_0-0_0
  6
CONTINUOUS
 62
    7
 10
-170.27118849999999
 20
452.71774299999998
 11
-170.27503750000005
 21
452.68158
  0
LINE
  8
_0-0_0
  6
CONTINUOUS
 62
    7
 10
-170.27503750000005
 20
452.68158
 11
-170.28322450000007
 21
452.64999399999999
  0
ARC
  8
_0-0_0
  6
CONTINUOUS
 62
    7
 10
-172.28322250000008
 20
454.14999399999999
 40
2.2999999999999998
 50
280.28656300000006
 51
325.58260500000006
  0
LINE
  8
_0-0_0
  6
CONTINUOUS
 62
    7
 10
-170.58322150000004
 20
449.64999399999999
 11
-171.78322250000008
 21
449.64999399999999
  0
LINE
  8
_0-0_0
  6
CONTINUOUS
 62
    7
 10
-170.58322150000004
 20
448.75
 11
-187.58322250000003
 21
448.75
  0
LINE
  8
_0-0_0
  6
CONTINUOUS
 62
    7
 10
-187.28323150000006
 20
465.94998199999998
 11
-187.58322250000003
 21
465.94998199999998
  0
ARC
  8
_0-0_0
  6
CONTINUOUS
 62
    7
 10
-186.78322250000008
 20
458.14999399999999
 40
0.5
 50
179.99999099999999
 51
269.99999700000001
  0
CIRCLE
  8
_0-0_0
  6
CONTINUOUS
 62
    7
 10
-184.78322250000008
 20
454.64999399999999
 40
2.5
  0
LINE
  8
_0-0_0
  6
CONTINUOUS
 62
    7
 10
-181.78322250000008
 20
452.14999399999999
 11
-184.78322250000008
 21
452.14999399999999
  0
LINE
  8
_0-0_0
  6
CONTINUOUS
 62
    7
 10
-181.28322250000008
 20
452.14999399999999
 11
-181.78322250000008
 21
452.14999399999999
  0
ARC
  8
_0-0_0
  6
CONTINUOUS
 62
    7
 10
-185.28322250000008
 20
454.14999399999999
 40
2
 50
179.99999099999999
 51
269.99999700000001
  0
LINE
  8
_0-0_0
  6
CONTINUOUS
 62
    7
 10
-184.78322250000008
 20
452.14999399999999
 11
-185.28322250000008
 21
452.14999399999999
  0
LINE
  8
_0-0_0
  6
CONTINUOUS
 62
    7
 10
-185.28322250000008
 20
473.64733899999999
 11
-185.2991025
 21
473.67459100000002
  0
LINE
  8
_0-0_0
  6
CONTINUOUS
 62
    7
 10
-185.2991025
 20
473.67459100000002
 11
-185.31494950000001
 21
473.69757099999998
  0
LINE
  8
_0-0_0
  6
CONTINUOUS
 62
    7
 10
-185.31494950000001
 20
473.69757099999998
 11
-185.32892850000007
 21
473.71432499999997
  0
LINE
  8
_0-0_0
  6
CONTINUOUS
 62
    7
 10
-185.32892850000007
 20
473.71432499999997
 11
-185.3428275
 21
473.72766100000001
  0
LINE
  8
_0-0_0
  6
CONTINUOUS
 62
    7
 10
-185.3428275
 20
473.72766100000001
 11
-185.35504550000007
 21
473.736603
  0
LINE
  8
_0-0_0
  6
CONTINUOUS
 62
    7
 10
-185.35504550000007
 20
473.736603
 11
-185.36716350000006
 21
473.74279799999999
  0
LINE
  8
_0-0_0
  6
CONTINUOUS
 62
    7
 10
-185.36716350000006
 20
473.74279799999999
 11
-185.37802950000003
 21
473.74609400000003
  0
LINE
  8
_0-0_0
  6
CONTINUOUS
 62
    7
 10
-185.37802950000003
 20
473.74609400000003
 11
-185.38878950000003
 21
473.74713100000002
  0
LINE
  8
_0-0_0
  6
CONTINUOUS
 62
    7
 10
-185.38878950000003
 20
473.74713100000002
 11
-185.39125050000007
 21
473.74707000000001
  0
LINE
  8
_0-0_0
  6
CONTINUOUS
 62
    7
 10
-170.28322250000008
 20
471.25
 11
-170.28322250000008
 21
471.75
  0
CIRCLE
  8
_0-0_0
  6
CONTINUOUS
 62
    7
 10
-172.78322250000008
 20
471.25
 40
2.5
  0
LINE
  8
_0-0_0
  6
CONTINUOUS
 62
    7
 10
-170.28322250000008
 20
468.25
 11
-170.28322250000008
 21
467.75
  0
LINE
  8
_0-0_0
  6
CONTINUOUS
 62
    7
 10
-170.28322250000008
 20
468.25
 11
-170.28322250000008
 21
471.25
  0
ARC
  8
_0-0_0
  6
CONTINUOUS
 62
    7
 10
-176.28322250000008
 20
473.25
 40
0.5
 50
0
 51
90.000003000000007
  0
LINE
  8
_0-0_0
  6
CONTINUOUS
 62
    7
 10
-170.28322250000008
 20
454.14999399999999
 11
-170.28322250000008
 21
467.75
  0
LINE
  8
_0-0_0
  6
CONTINUOUS
 62
    7
 10
-188.28322250000008
 20
474.75
 11
-188.28322250000008
 21
472.15045199999997
  0
LINE
  8
_0-0_0
  6
CONTINUOUS
 62
    7
 10
-187.58322250000003
 20
459.94998199999998
 11
-187.28323150000006
 21
459.94998199999998
  0
LINE
  8
_0-0_0
  6
CONTINUOUS
 62
    7
 10
-170.08322150000004
 20
475.550049
 11
-170.08322150000004
 21
475.75
  0
ARC
  8
_0-0_0
  6
CONTINUOUS
 62
    7
 10
-172.28322250000008
 20
454.14999399999999
 40
2
 50
273.84026500000004
 51
0.000010000000014
  0
LINE
  8
_0-0_0
  6
CONTINUOUS
 62
    7
 10
-172.28322250000008
 20
452.14999399999999
 11
-181.28322250000008
 21
452.14999399999999
  0
ARC
  8
_0-0_0
  6
CONTINUOUS
 62
    7
 10
-171.78322250000008
 20
451.39498900000001
 40
0.5
 50
100.28656100000001
 51
179.99999099999999
  0
LINE
  8
_0-0_0
  6
CONTINUOUS
 62
    7
 10
-172.28322250000008
 20
450.14999399999999
 11
-172.28322250000008
 21
451.39498900000001
  0
ARC
  8
_0-0_0
  6
CONTINUOUS
 62
    7
 10
-171.78322250000008
 20
450.14999399999999
 40
0.5
 50
179.99999099999999
 51
269.99999700000001
  0
LINE
  8
_0-0_0
  6
CONTINUOUS
 62
    7
 10
-186.70624750000002
 20
457.64999399999999
 11
-186.78322250000008
 21
457.64999399999999
  0
LINE
  8
_0-0_0
  6
CONTINUOUS
 62
    7
 10
-184.78322250000008
 20
457.64999399999999
 11
-185.26472350000006
 21
457.64999399999999
  0
LINE
  8
_0-0_0
  6
CONTINUOUS
 62
    7
 10
-185.26472350000006
 20
457.64999399999999
 11
-186.70624750000002
 21
457.64999399999999
  0
LINE
  8
_0-0_0
  6
CONTINUOUS
 62
    7
 10
-181.78322250000008
 20
452.64999399999999
 11
-181.78322250000008
 21
452.72695900000002
  0
LINE
  8
_0-0_0
  6
CONTINUOUS
 62
    7
 10
-181.78322250000008
 20
454.16848800000002
 11
-181.78322250000008
 21
452.72695900000002
  0
LINE
  8
_0-0_0
  6
CONTINUOUS
 62
    7
 10
-181.78322250000008
 20
454.16848800000002
 11
-181.78322250000008
 21
454.64999399999999
  0
ARC
  8
_0-0_0
  6
CONTINUOUS
 62
    7
 10
-184.78322250000008
 20
454.64999399999999
 40
3
 50
0
 51
89.999995999999996
  0
ARC
  8
_0-0_0
  6
CONTINUOUS
 62
    7
 10
-181.28322250000008
 20
452.64999399999999
 40
0.5
 50
179.99999099999999
 51
269.99999700000001
  0
LINE
  8
_0-0_0
  6
CONTINUOUS
 62
    7
 10
-175.78322250000008
 20
473.17300399999999
 11
-175.78322250000008
 21
473.25
  0
LINE
  8
_0-0_0
  6
CONTINUOUS
 62
    7
 10
-175.78322250000008
 20
471.73147599999999
 11
-175.78322250000008
 21
473.17300399999999
  0
LINE
  8
_0-0_0
  6
CONTINUOUS
 62
    7
 10
-175.78322250000008
 20
471.25
 11
-175.78322250000008
 21
471.73147599999999
  0
ARC
  8
_0-0_0
  6
CONTINUOUS
 62
    7
 10
-172.78322250000008
 20
471.25
 40
3
 50
179.99999099999999
 51
269.99999700000001
  0
LINE
  8
_0-0_0
  6
CONTINUOUS
 62
    7
 10
-172.30172149999999
 20
468.25
 11
-172.78322250000008
 21
468.25
  0
LINE
  8
_0-0_0
  6
CONTINUOUS
 62
    7
 10
-172.30172149999999
 20
468.25
 11
-170.86019750000003
 21
468.25
  0
LINE
  8
_0-0_0
  6
CONTINUOUS
 62
    7
 10
-170.78322250000008
 20
468.25
 11
-170.86019750000003
 21
468.25
  0
ARC
  8
_0-0_0
  6
CONTINUOUS
 62
    7
 10
-170.78322250000008
 20
467.75
 40
0.5
 50
0
 51
90.000003000000007
  0
LINE
  8
_0-0_0
  6
CONTINUOUS
 62
    7
 10
-172.28322250000008
 20
452.25262500000002
 11
-172.26734150000004
 21
452.22537199999999
  0
LINE
  8
_0-0_0
  6
CONTINUOUS
 62
    7
 10
-172.26734150000004
 20
452.22537199999999
 11
-172.25149550000003
 21
452.20239299999997
  0
LINE
  8
_0-0_0
  6
CONTINUOUS
 62
    7
 10
-172.25149550000003
 20
452.20239299999997
 11
-172.23751650000008
 21
452.18563799999998
  0
LINE
  8
_0-0_0
  6
CONTINUOUS
 62
    7
 10
-172.23751650000008
 20
452.18563799999998
 11
-172.22361750000005
 21
452.172302
  0
LINE
  8
_0-0_0
  6
CONTINUOUS
 62
    7
 10
-172.22361750000005
 20
452.172302
 11
-172.21140150000008
 21
452.16339099999999
  0
LINE
  8
_0-0_0
  6
CONTINUOUS
 62
    7
 10
-172.21140150000008
 20
452.16339099999999
 11
-172.1992815000001
 21
452.15716600000002
  0
LINE
  8
_0-0_0
  6
CONTINUOUS
 62
    7
 10
-172.1992815000001
 20
452.15716600000002
 11
-172.18841550000002
 21
452.15390000000002
  0
LINE
  8
_0-0_0
  6
CONTINUOUS
 62
    7
 10
-172.18841550000002
 20
452.15390000000002
 11
-172.17765650000001
 21
452.15283199999999
  0
LINE
  8
_0-0_0
  6
CONTINUOUS
 62
    7
 10
-172.17765650000001
 20
452.15283199999999
 11
-172.17519550000009
 21
452.15289300000001
  0
ARC
  8
_0-0_0
  6
CONTINUOUS
 62
    7
 10
-182.01333650000004
 20
461.77673299999998
 40
3.063399
 50
199.82113599999997
 51
205.28948099999999
  0
ARC
  8
_0-0_0
  6
CONTINUOUS
 62
    7
 10
-182.01365650000002
 20
464.12335200000001
 40
3.0630549999999999
 50
154.710137
 51
160.17869999999999
  0
ARC
  8
_0-0_0
  6
CONTINUOUS
 62
    7
 10
-178.78322250000008
 20
462.94998199999998
 40
6.5
 50
160.10415599999999
 51
199.895612
  0
ARC
  8
_0-0_0
  6
CONTINUOUS
 62
    7
 10
-175.55310450000002
 20
464.12322999999998
 40
3.0633949999999999
 50
19.82113
 51
25.289566000000001
  0
ARC
  8
_0-0_0
  6
CONTINUOUS
 62
    7
 10
-175.55278650000002
 20
461.776611
 40
3.0630519999999999
 50
334.71006
 51
340.17869200000001
  0
LINE
  8
_0-0_0
  6
CONTINUOUS
 62
    7
 10
-178.04155350000008
 20
456.44998199999998
 11
-173.52489350000008
 21
459.05767800000001
  0
LINE
  8
_0-0_0
  6
CONTINUOUS
 62
    7
 10
-179.52489350000008
 20
456.44998199999998
 11
-178.04155350000008
 21
456.44998199999998
  0
LINE
  8
_0-0_0
  6
CONTINUOUS
 62
    7
 10
-184.04155250000008
 20
459.05767800000001
 11
-179.52489350000008
 21
456.44998199999998
  0
LINE
  8
_0-0_0
  6
CONTINUOUS
 62
    7
 10
-184.78322250000008
 20
465.55767800000001
 11
-184.78322250000008
 21
460.342285
  0
LINE
  8
_0-0_0
  6
CONTINUOUS
 62
    7
 10
-184.04155250000008
 20
459.05767800000001
 11
-184.78322250000008
 21
460.342285
  0
LINE
  8
_0-0_0
  6
CONTINUOUS
 62
    7
 10
-179.52489350000008
 20
469.44998199999998
 11
-184.04155250000008
 21
466.842285
  0
LINE
  8
_0-0_0
  6
CONTINUOUS
 62
    7
 10
-184.33567750000009
 20
466.332855
 11
-184.78322250000008
 21
465.55767800000001
  0
LINE
  8
_0-0_0
  6
CONTINUOUS
 62
    7
 10
-184.33567750000009
 20
466.332855
 11
-184.04155250000008
 21
466.842285
  0
LINE
  8
_0-0_0
  6
CONTINUOUS
 62
    7
 10
-178.04155350000008
 20
469.44998199999998
 11
-179.52489350000008
 21
469.44998199999998
  0
LINE
  8
_0-0_0
  6
CONTINUOUS
 62
    7
 10
-173.52489350000008
 20
466.842285
 11
-178.04155350000008
 21
469.44998199999998
  0
ARC
  8
_0-0_0
  6
CONTINUOUS
 62
    7
 10
-178.78322250000008
 20
462.94998199999998
 40
6.5
 50
340.10416099999998
 51
19.895609999999952
  0
LINE
  8
_0-0_0
  6
CONTINUOUS
 62
    7
 10
-173.23076850000007
 20
459.56710800000002
 11
-172.78322250000008
 21
460.342285
  0
LINE
  8
_0-0_0
  6
CONTINUOUS
 62
    7
 10
-173.23076850000007
 20
459.56710800000002
 11
-173.52489350000008
 21
459.05767800000001
  0
CIRCLE
  8
_0-0_0
  6
CONTINUOUS
 62
    7
 10
-178.78322250000008
 20
462.94998199999998
 40
5.25
  0
LINE
  8
_0-0_0
  6
CONTINUOUS
 62
    7
 10
-172.78322250000008
 20
465.55767800000001
 11
-172.78322250000008
 21
460.342285
  0
LINE
  8
_0-0_0
  6
CONTINUOUS
 62
    7
 10
-173.52489350000008
 20
466.842285
 11
-172.78322250000008
 21
465.55767800000001
  0
LINE
  8
_0-0_0
  6
CONTINUOUS
 62
    7
 10
-170.89621350000004
 20
472.47543300000001
 11
-170.61815850000005
 21
472.5
  0
LINE
  8
_0-0_0
  6
CONTINUOUS
 62
    7
 10
-170.77845750000006
 20
472.27145400000001
 11
-170.61815850000005
 21
472.5
  0
LINE
  8
_0-0_0
  6
CONTINUOUS
 62
    7
 10
-171.03464350000002
 20
472.665955
 11
-170.76067950000004
 21
472.71945199999999
  0
LINE
  8
_0-0_0
  6
CONTINUOUS
 62
    7
 10
-170.89621350000004
 20
472.47543300000001
 11
-170.76067950000004
 21
472.71945199999999
  0
LINE
  8
_0-0_0
  6
CONTINUOUS
 62
    7
 10
-171.19223250000005
 20
472.84097300000002
 11
-170.92535950000001
 21
472.922821
  0
LINE
  8
_0-0_0
  6
CONTINUOUS
 62
    7
 10
-171.03464350000002
 20
472.665955
 11
-170.92535950000001
 21
472.922821
  0
LINE
  8
_0-0_0
  6
CONTINUOUS
 62
    7
 10
-171.36725050000007
 20
472.99856599999998
 11
-171.1103955000001
 21
473.10784899999999
  0
LINE
  8
_0-0_0
  6
CONTINUOUS
 62
    7
 10
-171.19223250000005
 20
472.84097300000002
 11
-171.1103955000001
 21
473.10784899999999
  0
LINE
  8
_0-0_0
  6
CONTINUOUS
 62
    7
 10
-171.55778550000002
 20
473.13699300000002
 11
-171.31375850000006
 21
473.27252199999998
  0
LINE
  8
_0-0_0
  6
CONTINUOUS
 62
    7
 10
-171.36725050000007
 20
472.99856599999998
 11
-171.31375850000006
 21
473.27252199999998
  0
LINE
  8
_0-0_0
  6
CONTINUOUS
 62
    7
 10
-171.76174350000008
 20
473.25476099999997
 11
-171.53322250000008
 21
473.41503899999998
  0
LINE
  8
_0-0_0
  6
CONTINUOUS
 62
    7
 10
-171.55778550000002
 20
473.13699300000002
 11
-171.53322250000008
 21
473.41503899999998
  0
LINE
  8
_0-0_0
  6
CONTINUOUS
 62
    7
 10
-171.97689450000007
 20
473.350525
 11
-171.76638050000008
 21
473.53384399999999
  0
LINE
  8
_0-0_0
  6
CONTINUOUS
 62
    7
 10
-171.76174350000008
 20
473.25476099999997
 11
-171.76638050000008
 21
473.53384399999999
  0
LINE
  8
_0-0_0
  6
CONTINUOUS
 62
    7
 10
-172.20088050000004
 20
473.42330900000002
 11
-172.01067950000004
 21
473.62762500000002
  0
LINE
  8
_0-0_0
  6
CONTINUOUS
 62
    7
 10
-171.97689450000007
 20
473.350525
 11
-172.01067950000004
 21
473.62762500000002
  0
LINE
  8
_0-0_0
  6
CONTINUOUS
 62
    7
 10
-172.43124450000005
 20
473.47228999999999
 11
-172.26344349999999
 21
473.69534299999998
  0
LINE
  8
_0-0_0
  6
CONTINUOUS
 62
    7
 10
-172.20088050000004
 20
473.42330900000002
 11
-172.26344349999999
 21
473.69534299999998
  0
LINE
  8
_0-0_0
  6
CONTINUOUS
 62
    7
 10
-172.66546650000009
 20
473.49688700000002
 11
-172.52190050000002
 21
473.73629799999998
  0
LINE
  8
_0-0_0
  6
CONTINUOUS
 62
    7
 10
-172.43124450000005
 20
473.47228999999999
 11
-172.52190050000002
 21
473.73629799999998
  0
LINE
  8
_0-0_0
  6
CONTINUOUS
 62
    7
 10
-172.90097850000006
 20
473.49688700000002
 11
-172.78322250000008
 21
473.75
  0
LINE
  8
_0-0_0
  6
CONTINUOUS
 62
    7
 10
-172.66546650000009
 20
473.49688700000002
 11
-172.78322250000008
 21
473.75
  0
LINE
  8
_0-0_0
  6
CONTINUOUS
 62
    7
 10
-173.1352005
 20
473.47228999999999
 11
-173.04454450000003
 21
473.73629799999998
  0
LINE
  8
_0-0_0
  6
CONTINUOUS
 62
    7
 10
-172.90097850000006
 20
473.49688700000002
 11
-173.04454450000003
 21
473.73629799999998
  0
LINE
  8
_0-0_0
  6
CONTINUOUS
 62
    7
 10
-173.3655645
 20
473.42330900000002
 11
-173.30300150000005
 21
473.69534299999998
  0
LINE
  8
_0-0_0
  6
CONTINUOUS
 62
    7
 10
-173.1352005
 20
473.47228999999999
 11
-173.30300150000005
 21
473.69534299999998
  0
LINE
  8
_0-0_0
  6
CONTINUOUS
 62
    7
 10
-173.58955050000009
 20
473.350525
 11
-173.55576550000001
 21
473.62762500000002
  0
LINE
  8
_0-0_0
  6
CONTINUOUS
 62
    7
 10
-173.3655645
 20
473.42330900000002
 11
-173.55576550000001
 21
473.62762500000002
  0
LINE
  8
_0-0_0
  6
CONTINUOUS
 62
    7
 10
-173.80470150000008
 20
473.25476099999997
 11
-173.80006450000008
 21
473.53384399999999
  0
LINE
  8
_0-0_0
  6
CONTINUOUS
 62
    7
 10
-173.58955050000009
 20
473.350525
 11
-173.80006450000008
 21
473.53384399999999
  0
LINE
  8
_0-0_0
  6
CONTINUOUS
 62
    7
 10
-173.9242385
 20
473.338593
 11
-174.03322250000008
 21
473.41503899999998
  0
LINE
  8
_0-0_0
  6
CONTINUOUS
 62
    7
 10
-173.80470150000008
 20
473.25476099999997
 11
-173.9242385
 21
473.338593
  0
LINE
  8
_0-0_0
  6
CONTINUOUS
 62
    7
 10
-174.00865950000002
 20
473.13699300000002
 11
-174.03322250000008
 21
473.41503899999998
  0
LINE
  8
_0-0_0
  6
CONTINUOUS
 62
    7
 10
-174.19919450000009
 20
472.99856599999998
 11
-174.2526855000001
 21
473.27252199999998
  0
LINE
  8
_0-0_0
  6
CONTINUOUS
 62
    7
 10
-174.00865950000002
 20
473.13699300000002
 11
-174.2526855000001
 21
473.27252199999998
  0
LINE
  8
_0-0_0
  6
CONTINUOUS
 62
    7
 10
-174.3742125
 20
472.84097300000002
 11
-174.45604950000006
 21
473.10784899999999
  0
LINE
  8
_0-0_0
  6
CONTINUOUS
 62
    7
 10
-174.19919450000009
 20
472.99856599999998
 11
-174.45604950000006
 21
473.10784899999999
  0
LINE
  8
_0-0_0
  6
CONTINUOUS
 62
    7
 10
-174.53180150000003
 20
472.665955
 11
-174.64108450000003
 21
472.922821
  0
LINE
  8
_0-0_0
  6
CONTINUOUS
 62
    7
 10
-174.3742125
 20
472.84097300000002
 11
-174.64108450000003
 21
472.922821
  0
LINE
  8
_0-0_0
  6
CONTINUOUS
 62
    7
 10
-174.6702315
 20
472.47543300000001
 11
-174.80576550000001
 21
472.71945199999999
  0
LINE
  8
_0-0_0
  6
CONTINUOUS
 62
    7
 10
-174.53180150000003
 20
472.665955
 11
-174.80576550000001
 21
472.71945199999999
  0
LINE
  8
_0-0_0
  6
CONTINUOUS
 62
    7
 10
-174.78798649999999
 20
472.27145400000001
 11
-174.94828649999999
 21
472.5
  0
LINE
  8
_0-0_0
  6
CONTINUOUS
 62
    7
 10
-174.6702315
 20
472.47543300000001
 11
-174.94828649999999
 21
472.5
  0
LINE
  8
_0-0_0
  6
CONTINUOUS
 62
    7
 10
-174.88377750000006
 20
472.05630500000001
 11
-175.06708550000008
 21
472.26681500000001
  0
LINE
  8
_0-0_0
  6
CONTINUOUS
 62
    7
 10
-174.78798649999999
 20
472.27145400000001
 11
-175.06708550000008
 21
472.26681500000001
  0
LINE
  8
_0-0_0
  6
CONTINUOUS
 62
    7
 10
-174.95655450000004
 20
471.832336
 11
-175.1608645
 21
472.02252199999998
  0
LINE
  8
_0-0_0
  6
CONTINUOUS
 62
    7
 10
-174.88377750000006
 20
472.05630500000001
 11
-175.1608645
 21
472.02252199999998
  0
LINE
  8
_0-0_0
  6
CONTINUOUS
 62
    7
 10
-175.00552149999999
 20
471.60195900000002
 11
-175.22859249999999
 21
471.76977499999998
  0
LINE
  8
_0-0_0
  6
CONTINUOUS
 62
    7
 10
-174.95655450000004
 20
471.832336
 11
-175.22859249999999
 21
471.76977499999998
  0
LINE
  8
_0-0_0
  6
CONTINUOUS
 62
    7
 10
-175.00552149999999
 20
471.60195900000002
 11
-175.26952750000009
 21
471.51129200000003
  0
LINE
  8
_0-0_0
  6
CONTINUOUS
 62
    7
 10
-175.03013850000002
 20
471.36773699999998
 11
-175.26952750000009
 21
471.51129200000003
  0
LINE
  8
_0-0_0
  6
CONTINUOUS
 62
    7
 10
-175.03013850000002
 20
471.13223299999999
 11
-175.28322250000008
 21
471.25
  0
LINE
  8
_0-0_0
  6
CONTINUOUS
 62
    7
 10
-175.03013850000002
 20
471.36773699999998
 11
-175.28322250000008
 21
471.25
  0
LINE
  8
_0-0_0
  6
CONTINUOUS
 62
    7
 10
-175.00552149999999
 20
470.89801
 11
-175.26952750000009
 21
470.98864700000001
  0
LINE
  8
_0-0_0
  6
CONTINUOUS
 62
    7
 10
-175.03013850000002
 20
471.13223299999999
 11
-175.26952750000009
 21
470.98864700000001
  0
LINE
  8
_0-0_0
  6
CONTINUOUS
 62
    7
 10
-174.95655450000004
 20
470.66763300000002
 11
-175.22859249999999
 21
470.73019399999998
  0
LINE
  8
_0-0_0
  6
CONTINUOUS
 62
    7
 10
-175.00552149999999
 20
470.89801
 11
-175.22859249999999
 21
470.73019399999998
  0
LINE
  8
_0-0_0
  6
CONTINUOUS
 62
    7
 10
-174.88377750000006
 20
470.44366500000001
 11
-175.1608645
 21
470.47744799999998
  0
LINE
  8
_0-0_0
  6
CONTINUOUS
 62
    7
 10
-174.95655450000004
 20
470.66763300000002
 11
-175.1608645
 21
470.47744799999998
  0
LINE
  8
_0-0_0
  6
CONTINUOUS
 62
    7
 10
-174.78798649999999
 20
470.22851600000001
 11
-175.06708550000008
 21
470.23315400000001
  0
LINE
  8
_0-0_0
  6
CONTINUOUS
 62
    7
 10
-174.88377750000006
 20
470.44366500000001
 11
-175.06708550000008
 21
470.23315400000001
  0
LINE
  8
_0-0_0
  6
CONTINUOUS
 62
    7
 10
-174.6702315
 20
470.02453600000001
 11
-174.94828649999999
 21
470
  0
LINE
  8
_0-0_0
  6
CONTINUOUS
 62
    7
 10
-174.78798649999999
 20
470.22851600000001
 11
-174.94828649999999
 21
470
  0
LINE
  8
_0-0_0
  6
CONTINUOUS
 62
    7
 10
-174.53180150000003
 20
469.83401500000002
 11
-174.80576550000001
 21
469.78051799999997
  0
LINE
  8
_0-0_0
  6
CONTINUOUS
 62
    7
 10
-174.6702315
 20
470.02453600000001
 11
-174.80576550000001
 21
469.78051799999997
  0
LINE
  8
_0-0_0
  6
CONTINUOUS
 62
    7
 10
-174.3742125
 20
469.658997
 11
-174.64108450000003
 21
469.57714800000002
  0
LINE
  8
_0-0_0
  6
CONTINUOUS
 62
    7
 10
-174.53180150000003
 20
469.83401500000002
 11
-174.64108450000003
 21
469.57714800000002
  0
LINE
  8
_0-0_0
  6
CONTINUOUS
 62
    7
 10
-174.19919450000009
 20
469.50140399999998
 11
-174.45604950000006
 21
469.39211999999998
  0
LINE
  8
_0-0_0
  6
CONTINUOUS
 62
    7
 10
-174.3742125
 20
469.658997
 11
-174.45604950000006
 21
469.39211999999998
  0
LINE
  8
_0-0_0
  6
CONTINUOUS
 62
    7
 10
-174.00865950000002
 20
469.362976
 11
-174.2526855000001
 21
469.22744799999998
  0
LINE
  8
_0-0_0
  6
CONTINUOUS
 62
    7
 10
-174.19919450000009
 20
469.50140399999998
 11
-174.2526855000001
 21
469.22744799999998
  0
LINE
  8
_0-0_0
  6
CONTINUOUS
 62
    7
 10
-173.80470150000008
 20
469.24520899999999
 11
-174.03322250000008
 21
469.08492999999999
  0
LINE
  8
_0-0_0
  6
CONTINUOUS
 62
    7
 10
-174.00865950000002
 20
469.362976
 11
-174.03322250000008
 21
469.08492999999999
  0
LINE
  8
_0-0_0
  6
CONTINUOUS
 62
    7
 10
-173.58955050000009
 20
469.14941399999998
 11
-173.80006450000008
 21
468.96612499999998
  0
LINE
  8
_0-0_0
  6
CONTINUOUS
 62
    7
 10
-173.80470150000008
 20
469.24520899999999
 11
-173.80006450000008
 21
468.96612499999998
  0
LINE
  8
_0-0_0
  6
CONTINUOUS
 62
    7
 10
-173.3655645
 20
469.07666
 11
-173.55576550000001
 21
468.872345
  0
LINE
  8
_0-0_0
  6
CONTINUOUS
 62
    7
 10
-173.58955050000009
 20
469.14941399999998
 11
-173.55576550000001
 21
468.872345
  0
LINE
  8
_0-0_0
  6
CONTINUOUS
 62
    7
 10
-173.1352005
 20
469.02767899999998
 11
-173.30300150000005
 21
468.80462599999998
  0
LINE
  8
_0-0_0
  6
CONTINUOUS
 62
    7
 10
-173.3655645
 20
469.07666
 11
-173.30300150000005
 21
468.80462599999998
  0
LINE
  8
_0-0_0
  6
CONTINUOUS
 62
    7
 10
-172.90097850000006
 20
469.00305200000003
 11
-173.04454450000003
 21
468.76367199999999
  0
LINE
  8
_0-0_0
  6
CONTINUOUS
 62
    7
 10
-173.1352005
 20
469.02767899999998
 11
-173.04454450000003
 21
468.76367199999999
  0
LINE
  8
_0-0_0
  6
CONTINUOUS
 62
    7
 10
-172.66546650000009
 20
469.00305200000003
 11
-172.78322250000008
 21
468.75
  0
LINE
  8
_0-0_0
  6
CONTINUOUS
 62
    7
 10
-172.90097850000006
 20
469.00305200000003
 11
-172.78322250000008
 21
468.75
  0
LINE
  8
_0-0_0
  6
CONTINUOUS
 62
    7
 10
-172.43124450000005
 20
469.02767899999998
 11
-172.52190050000002
 21
468.76367199999999
  0
LINE
  8
_0-0_0
  6
CONTINUOUS
 62
    7
 10
-172.66546650000009
 20
469.00305200000003
 11
-172.52190050000002
 21
468.76367199999999
  0
LINE
  8
_0-0_0
  6
CONTINUOUS
 62
    7
 10
-172.20088050000004
 20
469.07666
 11
-172.26344349999999
 21
468.80462599999998
  0
LINE
  8
_0-0_0
  6
CONTINUOUS
 62
    7
 10
-172.43124450000005
 20
469.02767899999998
 11
-172.26344349999999
 21
468.80462599999998
  0
LINE
  8
_0-0_0
  6
CONTINUOUS
 62
    7
 10
-171.97689450000007
 20
469.14941399999998
 11
-172.01067950000004
 21
468.872345
  0
LINE
  8
_0-0_0
  6
CONTINUOUS
 62
    7
 10
-172.20088050000004
 20
469.07666
 11
-172.01067950000004
 21
468.872345
  0
LINE
  8
_0-0_0
  6
CONTINUOUS
 62
    7
 10
-171.76174350000008
 20
469.24520899999999
 11
-171.76638050000008
 21
468.96612499999998
  0
LINE
  8
_0-0_0
  6
CONTINUOUS
 62
    7
 10
-171.97689450000007
 20
469.14941399999998
 11
-171.76638050000008
 21
468.96612499999998
  0
LINE
  8
_0-0_0
  6
CONTINUOUS
 62
    7
 10
-171.64220650000004
 20
469.16137700000002
 11
-171.53322250000008
 21
469.08492999999999
  0
LINE
  8
_0-0_0
  6
CONTINUOUS
 62
    7
 10
-171.76174350000008
 20
469.24520899999999
 11
-171.64220650000004
 21
469.16137700000002
  0
LINE
  8
_0-0_0
  6
CONTINUOUS
 62
    7
 10
-171.55778550000002
 20
469.362976
 11
-171.53322250000008
 21
469.08492999999999
  0
LINE
  8
_0-0_0
  6
CONTINUOUS
 62
    7
 10
-171.36725050000007
 20
469.50140399999998
 11
-171.31375850000006
 21
469.22744799999998
  0
LINE
  8
_0-0_0
  6
CONTINUOUS
 62
    7
 10
-171.55778550000002
 20
469.362976
 11
-171.31375850000006
 21
469.22744799999998
  0
LINE
  8
_0-0_0
  6
CONTINUOUS
 62
    7
 10
-171.19223250000005
 20
469.658997
 11
-171.1103955000001
 21
469.39211999999998
  0
LINE
  8
_0-0_0
  6
CONTINUOUS
 62
    7
 10
-171.36725050000007
 20
469.50140399999998
 11
-171.1103955000001
 21
469.39211999999998
  0
LINE
  8
_0-0_0
  6
CONTINUOUS
 62
    7
 10
-171.03464350000002
 20
469.83401500000002
 11
-170.92535950000001
 21
469.57714800000002
  0
LINE
  8
_0-0_0
  6
CONTINUOUS
 62
    7
 10
-171.19223250000005
 20
469.658997
 11
-170.92535950000001
 21
469.57714800000002
  0
LINE
  8
_0-0_0
  6
CONTINUOUS
 62
    7
 10
-170.89621350000004
 20
470.02453600000001
 11
-170.76067950000004
 21
469.78051799999997
  0
LINE
  8
_0-0_0
  6
CONTINUOUS
 62
    7
 10
-171.03464350000002
 20
469.83401500000002
 11
-170.76067950000004
 21
469.78051799999997
  0
LINE
  8
_0-0_0
  6
CONTINUOUS
 62
    7
 10
-170.77845750000006
 20
470.22851600000001
 11
-170.61815850000005
 21
470
  0
LINE
  8
_0-0_0
  6
CONTINUOUS
 62
    7
 10
-170.89621350000004
 20
470.02453600000001
 11
-170.61815850000005
 21
470
  0
LINE
  8
_0-0_0
  6
CONTINUOUS
 62
    7
 10
-170.68266549999998
 20
470.44366500000001
 11
-170.49935950000008
 21
470.23315400000001
  0
LINE
  8
_0-0_0
  6
CONTINUOUS
 62
    7
 10
-170.77845750000006
 20
470.22851600000001
 11
-170.49935950000008
 21
470.23315400000001
  0
LINE
  8
_0-0_0
  6
CONTINUOUS
 62
    7
 10
-170.60989050000001
 20
470.66763300000002
 11
-170.40558050000004
 21
470.47744799999998
  0
LINE
  8
_0-0_0
  6
CONTINUOUS
 62
    7
 10
-170.68266549999998
 20
470.44366500000001
 11
-170.40558050000004
 21
470.47744799999998
  0
LINE
  8
_0-0_0
  6
CONTINUOUS
 62
    7
 10
-170.56092250000006
 20
470.89801
 11
-170.33785250000005
 21
470.73019399999998
  0
LINE
  8
_0-0_0
  6
CONTINUOUS
 62
    7
 10
-170.60989050000001
 20
470.66763300000002
 11
-170.33785250000005
 21
470.73019399999998
  0
LINE
  8
_0-0_0
  6
CONTINUOUS
 62
    7
 10
-170.53630650000002
 20
471.13223299999999
 11
-170.29691750000006
 21
470.98864700000001
  0
LINE
  8
_0-0_0
  6
CONTINUOUS
 62
    7
 10
-170.56092250000006
 20
470.89801
 11
-170.29691750000006
 21
470.98864700000001
  0
LINE
  8
_0-0_0
  6
CONTINUOUS
 62
    7
 10
-170.53630650000002
 20
471.36773699999998
 11
-170.28322250000008
 21
471.25
  0
LINE
  8
_0-0_0
  6
CONTINUOUS
 62
    7
 10
-170.53630650000002
 20
471.13223299999999
 11
-170.28322250000008
 21
471.25
  0
LINE
  8
_0-0_0
  6
CONTINUOUS
 62
    7
 10
-170.56092250000006
 20
471.60195900000002
 11
-170.29691750000006
 21
471.51129200000003
  0
LINE
  8
_0-0_0
  6
CONTINUOUS
 62
    7
 10
-170.53630650000002
 20
471.36773699999998
 11
-170.29691750000006
 21
471.51129200000003
  0
LINE
  8
_0-0_0
  6
CONTINUOUS
 62
    7
 10
-170.60989050000001
 20
471.832336
 11
-170.33785250000005
 21
471.76977499999998
  0
LINE
  8
_0-0_0
  6
CONTINUOUS
 62
    7
 10
-170.56092250000006
 20
471.60195900000002
 11
-170.33785250000005
 21
471.76977499999998
  0
LINE
  8
_0-0_0
  6
CONTINUOUS
 62
    7
 10
-170.68266549999998
 20
472.05630500000001
 11
-170.40558050000004
 21
472.02252199999998
  0
LINE
  8
_0-0_0
  6
CONTINUOUS
 62
    7
 10
-170.60989050000001
 20
471.832336
 11
-170.40558050000004
 21
472.02252199999998
  0
LINE
  8
_0-0_0
  6
CONTINUOUS
 62
    7
 10
-170.77845750000006
 20
472.27145400000001
 11
-170.49935950000008
 21
472.26681500000001
  0
LINE
  8
_0-0_0
  6
CONTINUOUS
 62
    7
 10
-170.68266549999998
 20
472.05630500000001
 11
-170.49935950000008
 21
472.26681500000001
  0
CIRCLE
  8
_0-0_0
  6
CONTINUOUS
 62
    7
 10
-172.78322250000008
 20
471.25
 40
2
  0
CIRCLE
  8
_0-0_0
  6
CONTINUOUS
 62
    7
 10
-178.78322250000008
 20
462.94998199999998
 40
5
  0
LINE
  8
_0-0_0
  6
CONTINUOUS
 62
    7
 10
-172.20111250000002
 20
470.25
 11
-173.36533150000002
 21
470.25
  0
LINE
  8
_0-0_0
  6
CONTINUOUS
 62
    7
 10
-173.36533150000002
 20
470.25
 11
-173.93322250000006
 21
471.25
  0
LINE
  8
_0-0_0
  6
CONTINUOUS
 62
    7
 10
-173.93322250000006
 20
471.25
 11
-173.36533150000002
 21
472.25
  0
LINE
  8
_0-0_0
  6
CONTINUOUS
 62
    7
 10
-173.36533150000002
 20
472.25
 11
-172.20111250000002
 21
472.25
  0
LINE
  8
_0-0_0
  6
CONTINUOUS
 62
    7
 10
-172.20111250000002
 20
472.25
 11
-171.63322249999999
 21
471.25
  0
LINE
  8
_0-0_0
  6
CONTINUOUS
 62
    7
 10
-171.63322249999999
 20
471.25
 11
-172.20111250000002
 21
470.25
  0
CIRCLE
  8
_0-0_0
  6
CONTINUOUS
 62
    7
 10
-178.78322250000008
 20
462.94998199999998
 40
4.5381200000000002
  0
CIRCLE
  8
_0-0_0
  6
CONTINUOUS
 62
    7
 10
-178.78322250000008
 20
462.94998199999998
 40
4
  0
LINE
  8
_0-0_0
  6
CONTINUOUS
 62
    7
 10
-186.6702315
 20
453.42453
 11
-186.94828649999999
 21
453.39999399999999
  0
LINE
  8
_0-0_0
  6
CONTINUOUS
 62
    7
 10
-186.78798649999999
 20
453.62851000000001
 11
-186.94828649999999
 21
453.39999399999999
  0
LINE
  8
_0-0_0
  6
CONTINUOUS
 62
    7
 10
-186.53180150000003
 20
453.23400900000001
 11
-186.80576550000001
 21
453.18051100000002
  0
LINE
  8
_0-0_0
  6
CONTINUOUS
 62
    7
 10
-186.6702315
 20
453.42453
 11
-186.80576550000001
 21
453.18051100000002
  0
LINE
  8
_0-0_0
  6
CONTINUOUS
 62
    7
 10
-186.3742125
 20
453.05898999999999
 11
-186.64108450000003
 21
452.97717299999999
  0
LINE
  8
_0-0_0
  6
CONTINUOUS
 62
    7
 10
-186.53180150000003
 20
453.23400900000001
 11
-186.64108450000003
 21
452.97717299999999
  0
LINE
  8
_0-0_0
  6
CONTINUOUS
 62
    7
 10
-186.19919250000009
 20
452.90139799999997
 11
-186.45604950000006
 21
452.79211400000003
  0
LINE
  8
_0-0_0
  6
CONTINUOUS
 62
    7
 10
-186.3742125
 20
453.05898999999999
 11
-186.45604950000006
 21
452.79211400000003
  0
LINE
  8
_0-0_0
  6
CONTINUOUS
 62
    7
 10
-186.00866050000002
 20
452.76297
 11
-186.2526855000001
 21
452.62744099999998
  0
LINE
  8
_0-0_0
  6
CONTINUOUS
 62
    7
 10
-186.19919250000009
 20
452.90139799999997
 11
-186.2526855000001
 21
452.62744099999998
  0
LINE
  8
_0-0_0
  6
CONTINUOUS
 62
    7
 10
-185.80470150000008
 20
452.64520299999998
 11
-186.03322250000008
 21
452.48492399999998
  0
LINE
  8
_0-0_0
  6
CONTINUOUS
 62
    7
 10
-186.00866050000002
 20
452.76297
 11
-186.03322250000008
 21
452.48492399999998
  0
LINE
  8
_0-0_0
  6
CONTINUOUS
 62
    7
 10
-185.58954950000009
 20
452.54943800000001
 11
-185.80006450000008
 21
452.36611900000003
  0
LINE
  8
_0-0_0
  6
CONTINUOUS
 62
    7
 10
-185.80470150000008
 20
452.64520299999998
 11
-185.80006450000008
 21
452.36611900000003
  0
LINE
  8
_0-0_0
  6
CONTINUOUS
 62
    7
 10
-185.3655655
 20
452.476654
 11
-185.55576550000001
 21
452.27233899999999
  0
LINE
  8
_0-0_0
  6
CONTINUOUS
 62
    7
 10
-185.58954950000009
 20
452.54943800000001
 11
-185.55576550000001
 21
452.27233899999999
  0
LINE
  8
_0-0_0
  6
CONTINUOUS
 62
    7
 10
-185.1351995
 20
452.42770400000001
 11
-185.30300150000005
 21
452.20461999999998
  0
LINE
  8
_0-0_0
  6
CONTINUOUS
 62
    7
 10
-185.3655655
 20
452.476654
 11
-185.30300150000005
 21
452.20461999999998
  0
LINE
  8
_0-0_0
  6
CONTINUOUS
 62
    7
 10
-184.90097850000006
 20
452.403076
 11
-185.04454350000003
 21
452.16369600000002
  0
LINE
  8
_0-0_0
  6
CONTINUOUS
 62
    7
 10
-185.1351995
 20
452.42770400000001
 11
-185.04454350000003
 21
452.16369600000002
  0
LINE
  8
_0-0_0
  6
CONTINUOUS
 62
    7
 10
-184.66546650000009
 20
452.403076
 11
-184.78322250000008
 21
452.14999399999999
  0
LINE
  8
_0-0_0
  6
CONTINUOUS
 62
    7
 10
-184.90097850000006
 20
452.403076
 11
-184.78322250000008
 21
452.14999399999999
  0
LINE
  8
_0-0_0
  6
CONTINUOUS
 62
    7
 10
-184.43124550000005
 20
452.42770400000001
 11
-184.52190150000001
 21
452.16369600000002
  0
LINE
  8
_0-0_0
  6
CONTINUOUS
 62
    7
 10
-184.66546650000009
 20
452.403076
 11
-184.52190150000001
 21
452.16369600000002
  0
LINE
  8
_0-0_0
  6
CONTINUOUS
 62
    7
 10
-184.20087950000004
 20
452.476654
 11
-184.26344349999999
 21
452.20461999999998
  0
LINE
  8
_0-0_0
  6
CONTINUOUS
 62
    7
 10
-184.43124550000005
 20
452.42770400000001
 11
-184.26344349999999
 21
452.20461999999998
  0
LINE
  8
_0-0_0
  6
CONTINUOUS
 62
    7
 10
-183.97689450000007
 20
452.54943800000001
 11
-184.01067950000004
 21
452.27233899999999
  0
LINE
  8
_0-0_0
  6
CONTINUOUS
 62
    7
 10
-184.20087950000004
 20
452.476654
 11
-184.01067950000004
 21
452.27233899999999
  0
LINE
  8
_0-0_0
  6
CONTINUOUS
 62
    7
 10
-183.76174350000008
 20
452.64520299999998
 11
-183.76638050000008
 21
452.36611900000003
  0
LINE
  8
_0-0_0
  6
CONTINUOUS
 62
    7
 10
-183.97689450000007
 20
452.54943800000001
 11
-183.76638050000008
 21
452.36611900000003
  0
LINE
  8
_0-0_0
  6
CONTINUOUS
 62
    7
 10
-183.64220650000004
 20
452.56137100000001
 11
-183.53322250000008
 21
452.48492399999998
  0
LINE
  8
_0-0_0
  6
CONTINUOUS
 62
    7
 10
-183.76174350000008
 20
452.64520299999998
 11
-183.64220650000004
 21
452.56137100000001
  0
LINE
  8
_0-0_0
  6
CONTINUOUS
 62
    7
 10
-183.55778450000003
 20
452.76297
 11
-183.53322250000008
 21
452.48492399999998
  0
LINE
  8
_0-0_0
  6
CONTINUOUS
 62
    7
 10
-183.36725150000007
 20
452.90139799999997
 11
-183.31375950000006
 21
452.62744099999998
  0
LINE
  8
_0-0_0
  6
CONTINUOUS
 62
    7
 10
-183.55778450000003
 20
452.76297
 11
-183.31375950000006
 21
452.62744099999998
  0
LINE
  8
_0-0_0
  6
CONTINUOUS
 62
    7
 10
-183.19223250000005
 20
453.05898999999999
 11
-183.1103955000001
 21
452.79211400000003
  0
LINE
  8
_0-0_0
  6
CONTINUOUS
 62
    7
 10
-183.36725150000007
 20
452.90139799999997
 11
-183.1103955000001
 21
452.79211400000003
  0
LINE
  8
_0-0_0
  6
CONTINUOUS
 62
    7
 10
-183.03464450000001
 20
453.23400900000001
 11
-182.92535950000001
 21
452.97717299999999
  0
LINE
  8
_0-0_0
  6
CONTINUOUS
 62
    7
 10
-183.19223250000005
 20
453.05898999999999
 11
-182.92535950000001
 21
452.97717299999999
  0
LINE
  8
_0-0_0
  6
CONTINUOUS
 62
    7
 10
-182.89621350000004
 20
453.42453
 11
-182.76067950000004
 21
453.18051100000002
  0
LINE
  8
_0-0_0
  6
CONTINUOUS
 62
    7
 10
-183.03464450000001
 20
453.23400900000001
 11
-182.76067950000004
 21
453.18051100000002
  0
LINE
  8
_0-0_0
  6
CONTINUOUS
 62
    7
 10
-182.77845750000006
 20
453.62851000000001
 11
-182.61815850000005
 21
453.39999399999999
  0
LINE
  8
_0-0_0
  6
CONTINUOUS
 62
    7
 10
-182.89621350000004
 20
453.42453
 11
-182.61815850000005
 21
453.39999399999999
  0
LINE
  8
_0-0_0
  6
CONTINUOUS
 62
    7
 10
-182.6826665000001
 20
453.843658
 11
-182.49935850000008
 21
453.63314800000001
  0
LINE
  8
_0-0_0
  6
CONTINUOUS
 62
    7
 10
-182.77845750000006
 20
453.62851000000001
 11
-182.49935850000008
 21
453.63314800000001
  0
LINE
  8
_0-0_0
  6
CONTINUOUS
 62
    7
 10
-182.60989050000001
 20
454.06762700000002
 11
-182.40558050000004
 21
453.87744099999998
  0
LINE
  8
_0-0_0
  6
CONTINUOUS
 62
    7
 10
-182.6826665000001
 20
453.843658
 11
-182.40558050000004
 21
453.87744099999998
  0
LINE
  8
_0-0_0
  6
CONTINUOUS
 62
    7
 10
-182.56092350000006
 20
454.29800399999999
 11
-182.33785350000005
 21
454.13018799999998
  0
LINE
  8
_0-0_0
  6
CONTINUOUS
 62
    7
 10
-182.60989050000001
 20
454.06762700000002
 11
-182.33785350000005
 21
454.13018799999998
  0
LINE
  8
_0-0_0
  6
CONTINUOUS
 62
    7
 10
-182.53630550000003
 20
454.53222699999998
 11
-182.29691850000006
 21
454.38867199999999
  0
LINE
  8
_0-0_0
  6
CONTINUOUS
 62
    7
 10
-182.56092350000006
 20
454.29800399999999
 11
-182.29691850000006
 21
454.38867199999999
  0
LINE
  8
_0-0_0
  6
CONTINUOUS
 62
    7
 10
-182.53630550000003
 20
454.76773100000003
 11
-182.28322250000008
 21
454.64999399999999
  0
LINE
  8
_0-0_0
  6
CONTINUOUS
 62
    7
 10
-182.53630550000003
 20
454.53222699999998
 11
-182.28322250000008
 21
454.64999399999999
  0
LINE
  8
_0-0_0
  6
CONTINUOUS
 62
    7
 10
-182.56092350000006
 20
455.00195300000001
 11
-182.29691850000006
 21
454.911316
  0
LINE
  8
_0-0_0
  6
CONTINUOUS
 62
    7
 10
-182.53630550000003
 20
454.76773100000003
 11
-182.29691850000006
 21
454.911316
  0
LINE
  8
_0-0_0
  6
CONTINUOUS
 62
    7
 10
-182.60989050000001
 20
455.23232999999999
 11
-182.33785350000005
 21
455.16976899999997
  0
LINE
  8
_0-0_0
  6
CONTINUOUS
 62
    7
 10
-182.56092350000006
 20
455.00195300000001
 11
-182.33785350000005
 21
455.16976899999997
  0
LINE
  8
_0-0_0
  6
CONTINUOUS
 62
    7
 10
-182.6826665000001
 20
455.456299
 11
-182.40558050000004
 21
455.42251599999997
  0
LINE
  8
_0-0_0
  6
CONTINUOUS
 62
    7
 10
-182.60989050000001
 20
455.23232999999999
 11
-182.40558050000004
 21
455.42251599999997
  0
LINE
  8
_0-0_0
  6
CONTINUOUS
 62
    7
 10
-182.77845750000006
 20
455.671448
 11
-182.49935850000008
 21
455.666809
  0
LINE
  8
_0-0_0
  6
CONTINUOUS
 62
    7
 10
-182.6826665000001
 20
455.456299
 11
-182.49935850000008
 21
455.666809
  0
LINE
  8
_0-0_0
  6
CONTINUOUS
 62
    7
 10
-182.89621350000004
 20
455.875427
 11
-182.61815850000005
 21
455.89999399999999
  0
LINE
  8
_0-0_0
  6
CONTINUOUS
 62
    7
 10
-182.77845750000006
 20
455.671448
 11
-182.61815850000005
 21
455.89999399999999
  0
LINE
  8
_0-0_0
  6
CONTINUOUS
 62
    7
 10
-186.19919250000009
 20
456.39855999999997
 11
-186.2526855000001
 21
456.67251599999997
  0
LINE
  8
_0-0_0
  6
CONTINUOUS
 62
    7
 10
-186.19919250000009
 20
456.39855999999997
 11
-186.45604950000006
 21
456.50784299999998
  0
LINE
  8
_0-0_0
  6
CONTINUOUS
 62
    7
 10
-186.3742125
 20
456.24096700000001
 11
-186.45604950000006
 21
456.50784299999998
  0
LINE
  8
_0-0_0
  6
CONTINUOUS
 62
    7
 10
-186.3742125
 20
456.24096700000001
 11
-186.64108450000003
 21
456.32281499999999
  0
LINE
  8
_0-0_0
  6
CONTINUOUS
 62
    7
 10
-186.53180150000003
 20
456.06594799999999
 11
-186.64108450000003
 21
456.32281499999999
  0
LINE
  8
_0-0_0
  6
CONTINUOUS
 62
    7
 10
-186.53180150000003
 20
456.06594799999999
 11
-186.80576550000001
 21
456.11944599999998
  0
LINE
  8
_0-0_0
  6
CONTINUOUS
 62
    7
 10
-186.6702315
 20
455.875427
 11
-186.80576550000001
 21
456.11944599999998
  0
LINE
  8
_0-0_0
  6
CONTINUOUS
 62
    7
 10
-186.6702315
 20
455.875427
 11
-186.94828649999999
 21
455.89999399999999
  0
LINE
  8
_0-0_0
  6
CONTINUOUS
 62
    7
 10
-186.78798649999999
 20
455.671448
 11
-186.94828649999999
 21
455.89999399999999
  0
LINE
  8
_0-0_0
  6
CONTINUOUS
 62
    7
 10
-186.78798649999999
 20
455.671448
 11
-187.06708650000007
 21
455.666809
  0
LINE
  8
_0-0_0
  6
CONTINUOUS
 62
    7
 10
-186.88377850000006
 20
455.456299
 11
-187.06708650000007
 21
455.666809
  0
LINE
  8
_0-0_0
  6
CONTINUOUS
 62
    7
 10
-186.88377850000006
 20
455.456299
 11
-187.1608645
 21
455.42251599999997
  0
LINE
  8
_0-0_0
  6
CONTINUOUS
 62
    7
 10
-186.95655550000004
 20
455.23232999999999
 11
-187.1608645
 21
455.42251599999997
  0
LINE
  8
_0-0_0
  6
CONTINUOUS
 62
    7
 10
-186.95655550000004
 20
455.23232999999999
 11
-187.22859149999999
 21
455.16976899999997
  0
LINE
  8
_0-0_0
  6
CONTINUOUS
 62
    7
 10
-187.00552149999999
 20
455.00195300000001
 11
-187.22859149999999
 21
455.16976899999997
  0
LINE
  8
_0-0_0
  6
CONTINUOUS
 62
    7
 10
-187.00552149999999
 20
455.00195300000001
 11
-187.26952750000009
 21
454.911316
  0
LINE
  8
_0-0_0
  6
CONTINUOUS
 62
    7
 10
-187.03013950000002
 20
454.76773100000003
 11
-187.26952750000009
 21
454.911316
  0
LINE
  8
_0-0_0
  6
CONTINUOUS
 62
    7
 10
-187.03013950000002
 20
454.76773100000003
 11
-187.28322250000008
 21
454.64999399999999
  0
LINE
  8
_0-0_0
  6
CONTINUOUS
 62
    7
 10
-187.03013950000002
 20
454.53222699999998
 11
-187.28322250000008
 21
454.64999399999999
  0
LINE
  8
_0-0_0
  6
CONTINUOUS
 62
    7
 10
-187.03013950000002
 20
454.53222699999998
 11
-187.26952750000009
 21
454.38867199999999
  0
LINE
  8
_0-0_0
  6
CONTINUOUS
 62
    7
 10
-187.00552149999999
 20
454.29800399999999
 11
-187.26952750000009
 21
454.38867199999999
  0
LINE
  8
_0-0_0
  6
CONTINUOUS
 62
    7
 10
-187.00552149999999
 20
454.29800399999999
 11
-187.22859149999999
 21
454.13018799999998
  0
LINE
  8
_0-0_0
  6
CONTINUOUS
 62
    7
 10
-186.95655550000004
 20
454.06762700000002
 11
-187.22859149999999
 21
454.13018799999998
  0
LINE
  8
_0-0_0
  6
CONTINUOUS
 62
    7
 10
-186.95655550000004
 20
454.06762700000002
 11
-187.1608645
 21
453.87744099999998
  0
LINE
  8
_0-0_0
  6
CONTINUOUS
 62
    7
 10
-186.88377850000006
 20
453.843658
 11
-187.1608645
 21
453.87744099999998
  0
LINE
  8
_0-0_0
  6
CONTINUOUS
 62
    7
 10
-186.88377850000006
 20
453.843658
 11
-187.06708650000007
 21
453.63314800000001
  0
LINE
  8
_0-0_0
  6
CONTINUOUS
 62
    7
 10
-186.78798649999999
 20
453.62851000000001
 11
-187.06708650000007
 21
453.63314800000001
  0
CIRCLE
  8
_0-0_0
  6
CONTINUOUS
 62
    7
 10
-184.78322250000008
 20
454.64999399999999
 40
2
  0
LINE
  8
_0-0_0
  6
CONTINUOUS
 62
    7
 10
-185.9242385
 20
456.738586
 11
-186.03322250000008
 21
456.81506300000001
  0
LINE
  8
_0-0_0
  6
CONTINUOUS
 62
    7
 10
-186.00866050000002
 20
456.53698700000001
 11
-186.03322250000008
 21
456.81506300000001
  0
LINE
  8
_0-0_0
  6
CONTINUOUS
 62
    7
 10
-186.00866050000002
 20
456.53698700000001
 11
-186.2526855000001
 21
456.67251599999997
  0
LINE
  8
_0-0_0
  6
CONTINUOUS
 62
    7
 10
-182.89621350000004
 20
455.875427
 11
-182.76067950000004
 21
456.11944599999998
  0
LINE
  8
_0-0_0
  6
CONTINUOUS
 62
    7
 10
-183.03464450000001
 20
456.06594799999999
 11
-182.76067950000004
 21
456.11944599999998
  0
LINE
  8
_0-0_0
  6
CONTINUOUS
 62
    7
 10
-183.03464450000001
 20
456.06594799999999
 11
-182.92535950000001
 21
456.32281499999999
  0
LINE
  8
_0-0_0
  6
CONTINUOUS
 62
    7
 10
-183.19223250000005
 20
456.24096700000001
 11
-182.92535950000001
 21
456.32281499999999
  0
LINE
  8
_0-0_0
  6
CONTINUOUS
 62
    7
 10
-183.19223250000005
 20
456.24096700000001
 11
-183.1103955000001
 21
456.50784299999998
  0
LINE
  8
_0-0_0
  6
CONTINUOUS
 62
    7
 10
-183.36725150000007
 20
456.39855999999997
 11
-183.1103955000001
 21
456.50784299999998
  0
LINE
  8
_0-0_0
  6
CONTINUOUS
 62
    7
 10
-183.36725150000007
 20
456.39855999999997
 11
-183.31375950000006
 21
456.67251599999997
  0
LINE
  8
_0-0_0
  6
CONTINUOUS
 62
    7
 10
-183.55778450000003
 20
456.53698700000001
 11
-183.31375950000006
 21
456.67251599999997
  0
LINE
  8
_0-0_0
  6
CONTINUOUS
 62
    7
 10
-183.55778450000003
 20
456.53698700000001
 11
-183.53322250000008
 21
456.81506300000001
  0
LINE
  8
_0-0_0
  6
CONTINUOUS
 62
    7
 10
-183.76174350000008
 20
456.65475500000002
 11
-183.53322250000008
 21
456.81506300000001
  0
LINE
  8
_0-0_0
  6
CONTINUOUS
 62
    7
 10
-183.76174350000008
 20
456.65475500000002
 11
-183.76638050000008
 21
456.93383799999998
  0
LINE
  8
_0-0_0
  6
CONTINUOUS
 62
    7
 10
-183.97689450000007
 20
456.75054899999998
 11
-183.76638050000008
 21
456.93383799999998
  0
LINE
  8
_0-0_0
  6
CONTINUOUS
 62
    7
 10
-183.97689450000007
 20
456.75054899999998
 11
-184.01067950000004
 21
457.02761800000002
  0
LINE
  8
_0-0_0
  6
CONTINUOUS
 62
    7
 10
-184.20087950000004
 20
456.82330300000001
 11
-184.01067950000004
 21
457.02761800000002
  0
LINE
  8
_0-0_0
  6
CONTINUOUS
 62
    7
 10
-184.20087950000004
 20
456.82330300000001
 11
-184.26344349999999
 21
457.09533699999997
  0
LINE
  8
_0-0_0
  6
CONTINUOUS
 62
    7
 10
-184.43124550000005
 20
456.87228399999998
 11
-184.26344349999999
 21
457.09533699999997
  0
LINE
  8
_0-0_0
  6
CONTINUOUS
 62
    7
 10
-184.43124550000005
 20
456.87228399999998
 11
-184.52190150000001
 21
457.13629200000003
  0
LINE
  8
_0-0_0
  6
CONTINUOUS
 62
    7
 10
-184.66546650000009
 20
456.89691199999999
 11
-184.52190150000001
 21
457.13629200000003
  0
LINE
  8
_0-0_0
  6
CONTINUOUS
 62
    7
 10
-184.66546650000009
 20
456.89691199999999
 11
-184.78322250000008
 21
457.14999399999999
  0
LINE
  8
_0-0_0
  6
CONTINUOUS
 62
    7
 10
-184.90097850000006
 20
456.89691199999999
 11
-184.78322250000008
 21
457.14999399999999
  0
LINE
  8
_0-0_0
  6
CONTINUOUS
 62
    7
 10
-184.90097850000006
 20
456.89691199999999
 11
-185.04454350000003
 21
457.13629200000003
  0
LINE
  8
_0-0_0
  6
CONTINUOUS
 62
    7
 10
-185.1351995
 20
456.87228399999998
 11
-185.04454350000003
 21
457.13629200000003
  0
LINE
  8
_0-0_0
  6
CONTINUOUS
 62
    7
 10
-185.1351995
 20
456.87228399999998
 11
-185.30300150000005
 21
457.09533699999997
  0
LINE
  8
_0-0_0
  6
CONTINUOUS
 62
    7
 10
-185.3655655
 20
456.82330300000001
 11
-185.30300150000005
 21
457.09533699999997
  0
LINE
  8
_0-0_0
  6
CONTINUOUS
 62
    7
 10
-185.3655655
 20
456.82330300000001
 11
-185.55576550000001
 21
457.02761800000002
  0
LINE
  8
_0-0_0
  6
CONTINUOUS
 62
    7
 10
-185.58954950000009
 20
456.75054899999998
 11
-185.55576550000001
 21
457.02761800000002
  0
LINE
  8
_0-0_0
  6
CONTINUOUS
 62
    7
 10
-185.58954950000009
 20
456.75054899999998
 11
-185.80006450000008
 21
456.93383799999998
  0
LINE
  8
_0-0_0
  6
CONTINUOUS
 62
    7
 10
-185.80470150000008
 20
456.65475500000002
 11
-185.80006450000008
 21
456.93383799999998
  0
LINE
  8
_0-0_0
  6
CONTINUOUS
 62
    7
 10
-185.80470150000008
 20
456.65475500000002
 11
-185.9242385
 21
456.738586
  0
LINE
  8
_0-0_0
  6
CONTINUOUS
 62
    7
 10
-184.20111250000002
 20
453.64999399999999
 11
-185.36533150000002
 21
453.64999399999999
  0
LINE
  8
_0-0_0
  6
CONTINUOUS
 62
    7
 10
-185.36533150000002
 20
453.64999399999999
 11
-185.93322250000006
 21
454.64999399999999
  0
LINE
  8
_0-0_0
  6
CONTINUOUS
 62
    7
 10
-185.93322250000006
 20
454.64999399999999
 11
-185.36533150000002
 21
455.64999399999999
  0
LINE
  8
_0-0_0
  6
CONTINUOUS
 62
    7
 10
-185.36533150000002
 20
455.64999399999999
 11
-184.20111250000002
 21
455.64999399999999
  0
LINE
  8
_0-0_0
  6
CONTINUOUS
 62
    7
 10
-184.20111250000002
 20
455.64999399999999
 11
-183.63322249999999
 21
454.64999399999999
  0
LINE
  8
_0-0_0
  6
CONTINUOUS
 62
    7
 10
-183.63322249999999
 20
454.64999399999999
 11
-184.20111250000002
 21
453.64999399999999
  0
LINE
  8
_0-0_0
  6
CONTINUOUS
 62
    7
 10
-170.08322350000003
 20
472.05029300000001
 11
-170.08322150000004
 21
472.05627399999997
  0
LINE
  8
_0-0_0
  6
CONTINUOUS
 62
    7
 10
-170.08322150000004
 20
473.25
 11
-170.08358950000002
 21
473.23788500000001
  0
LINE
  8
_0-0_0
  6
CONTINUOUS
 62
    7
 10
-170.08358950000002
 20
452.66210899999999
 11
-170.08322150000004
 21
452.64999399999999
  0
ARC
  8
_0-0_0
  6
CONTINUOUS
 62
    7
 10
-185.28322250000008
 20
471.75
 40
2
 50
90.000003000000007
 51
93.840255999999997
  0
ARC
  8
_0-0_0
  6
CONTINUOUS
 62
    7
 10
-172.28322250000008
 20
454.14999399999999
 40
2
 50
269.99999700000001
 51
273.84026499999999
  0
ENDSEC
  0
EOF
