  0
SECTION
  2
HEADER
  9
$ACADVER
  1
AC1009
  9
$INSBASE
 10
0
 20
0
 30
0
  9
$EXTMIN
 10
0
 20
0
  9
$EXTMAX
 10
841
 20
594
  9
$LIMMIN
 10
0
 20
0
  9
$LIMMAX
 10
841
 20
594
  9
$LTSCALE
 40
1
  0
ENDSEC
  0
SECTION
  2
TABLES
  0
TABLE
  2
LTYPE
 70
     9
  0
LTYPE
  2
CONTINUOUS
 70
    64
  3
実線
 72
    65
 73
     0
 40
0.0
  0
LTYPE
  2
DASHED1
 70
    64
  3
--  --  --  --  --  --  --  --  
 72
    65
 73
     2
 40
2.5
 49
1.25
 49
-1.25
  0
LTYPE
  2
DASHED2
 70
    64
  3
----    ----    ----    ----    
 72
    65
 73
     2
 40
5.0
 49
2.5
 49
-2.5
  0
LTYPE
  2
DASHED3
 70
    64
  3
------  ------  ------  ------  
 72
    65
 73
     2
 40
5.0
 49
3.75
 49
-1.25
  0
LTYPE
  2
CENTER1
 70
    64
  3
----- - ----- - ----- - ----- - 
 72
    65
 73
     4
 40
10.0
 49
6.25
 49
-1.25
 49
1.25
 49
-1.25
  0
LTYPE
  2
CENTER2
 70
    64
  3
----------  --  ----------  --  
 72
    65
 73
     4
 40
20.0
 49
12.5
 49
-2.5
 49
2.5
 49
-2.5
  0
LTYPE
  2
PHANTOM1
 70
    64
  3
--- - - --- - - --- - - --- - - 
 72
    65
 73
     6
 40
10.0
 49
3.25
 49
-1.25
 49
1.25
 49
-1.25
 49
1.25
 49
-1.25
  0
LTYPE
  2
PHANTOM2
 70
    64
  3
--------  -  -  --------  -  -  
 72
    65
 73
     6
 40
20.0
 49
10.0
 49
-2.5
 49
1.25
 49
-2.5
 49
1.25
 49
-2.5
  0
LTYPE
  2
DOT
 70
    64
  3
-   -   -   -   -   -   -   -   
 72
    65
 73
     2
 40
2.5
 49
0.625
 49
-1.875
  0
LTYPE
  2
DUMMY
 70
    64
  3
ダミー
 72
    65
 73
     0
 40
0.0
  0
LTYPE
  2
RAND1
 70
    64
  3
ランダム線1
 72
    65
 73
     4
 40
10.0
 49
1.0
 49
-2.0
 49
3.0
 49
-4.0
  0
LTYPE
  2
RAND2
 70
    64
  3
ランダム線2
 72
    65
 73
     4
 40
14.0
 49
2.0
 49
-3.0
 49
4.0
 49
-5.0
  0
LTYPE
  2
RAND3
 70
    64
  3
ランダム線3
 72
    65
 73
     4
 40
18.0
 49
3.0
 49
-4.0
 49
5.0
 49
-6.0
  0
LTYPE
  2
RAND4
 70
    64
  3
ランダム線4
 72
    65
 73
     4
 40
22.0
 49
4.0
 49
-5.0
 49
6.0
 49
-7.0
  0
LTYPE
  2
RAND5
 70
    64
  3
ランダム線5
 72
    65
 73
     4
 40
26.0
 49
5.0
 49
-6.0
 49
7.0
 49
-8.0
  0
LTYPE
  2
LONG1
 70
    64
  3
----------  --  ----------  --  
 72
    65
 73
     4
 40
40.0
 49
32.5
 49
-2.5
 49
2.5
 49
-2.5
  0
LTYPE
  2
LONG2
 70
    64
  3
--------  -  -  --------  -  -  
 72
    65
 73
     6
 40
40.0
 49
30.0
 49
-2.5
 49
1.25
 49
-2.5
 49
1.25
 49
-2.5
  0
LTYPE
  2
LONG3
 70
    64
  3
+++++++++++++++..+++++++++++++++
 72
    65
 73
     2
 40
40.0
 49
37.5
 49
-2.5
  0
LTYPE
  2
LONG4
 70
    64
  3
+++++++++++++++..+++++++++++++++
 72
    65
 73
     2
 40
80.0
 49
75.0
 49
-5.0
  0
LTYPE
  2
LONG5
 70
    64
  3
----------  --  ----------  --  
 72
    65
 73
     4
 40
60.0
 49
37.5
 49
-7.5
 49
7.5
 49
-7.5
  0
LTYPE
  2
dashed
 70
   64
  3
-------   -------------   ------
 72
   65
 73
    2
 40
7.5
 49
6
 49
-1.5
  0
LTYPE
  2
dashed_spaced
 70
   64
  3
----        --------        ----
 72
   65
 73
    2
 40
12
 49
6
 49
-6
  0
LTYPE
  2
long_dashed_dotted
 70
   64
  3
------------- --- --------------
 72
   65
 73
    4
 40
15.25
 49
12
 49
-1.5
 49
0.25
 49
-1.5
  0
LTYPE
  2
long_dashed_double-dotted
 70
   64
  3
----------- --- --- ------------
 72
   65
 73
    6
 40
17
 49
12
 49
-1.5
 49
0.25
 49
-1.5
 49
0.25
 49
-1.5
  0
LTYPE
  2
long_dashed_triplicate-dotted
 70
   64
  3
--------- --- --- --- ----------
 72
   65
 73
    8
 40
18.75
 49
12
 49
-1.5
 49
0.25
 49
-1.5
 49
0.25
 49
-1.5
 49
0.25
 49
-1.5
  0
LTYPE
  2
dotted
 70
   64
  3
   -       -       -       -    
 72
   65
 73
    2
 40
1.75
 49
0.25
 49
-1.5
  0
LTYPE
  2
chain
 70
   64
  3
-------------- -- --------------
 72
   65
 73
    4
 40
18.5
 49
12
 49
-1.5
 49
3.5
 49
-1.5
  0
LTYPE
  2
chain_double_dash
 70
   64
  3
------------ -- -- -------------
 72
   65
 73
    6
 40
23.5
 49
12
 49
-1.5
 49
3.5
 49
-1.5
 49
3.5
 49
-1.5
  0
LTYPE
  2
dashed_dotted
 70
   64
  3
-----------     -     ----------
 72
   65
 73
    4
 40
9.25
 49
6
 49
-1.5
 49
0.25
 49
-1.5
  0
LTYPE
  2
double-dashed_dotted
 70
   64
  3
------   -----------   -   -----
 72
   65
 73
    6
 40
16.75
 49
6
 49
-1.5
 49
6
 49
-1.5
 49
0.25
 49
-1.5
  0
LTYPE
  2
dashed_double-dotted
 70
   64
  3
---------    -    -    ---------
 72
   65
 73
    6
 40
11
 49
6
 49
-1.5
 49
0.25
 49
-1.5
 49
0.25
 49
-1.5
  0
LTYPE
  2
double-dashed_double-dotted
 70
   64
  3
-----   ---------   -   -   ----
 72
   65
 73
    8
 40
18.5
 49
6
 49
-1.5
 49
6
 49
-1.5
 49
0.25
 49
-1.5
 49
0.25
 49
-1.5
  0
LTYPE
  2
dashed_triplicate-dotted
 70
   64
  3
-------    -    -    -    ------
 72
   65
 73
    8
 40
12.75
 49
6
 49
-1.5
 49
0.25
 49
-1.5
 49
0.25
 49
-1.5
 49
0.25
 49
-1.5
  0
LTYPE
  2
double-dashed_triplicate-dotted
 70
   64
  3
-----  ---------  -  -  -  -----
 72
   65
 73
   10
 40
20.25
 49
6
 49
-1.5
 49
6
 49
-1.5
 49
0.25
 49
-1.5
 49
0.25
 49
-1.5
 49
0.25
 49
-1.5
  0
LTYPE
  2
undefined
 70
   64
  3
--------------------------------
 72
   65
 73
    0
 40
0
  0
ENDTAB
  0
TABLE
  2
STYLE
  5
3
100
AcDbSymbolTable
 70
     1
  0
STYLE
  5
10
100
AcDbSymbolTableRecord
100
AcDbTextStyleTableRecord
  2
STANDARD
 70
     0
 40
0.0
 41
1.0
 50
0.0
 71
     0
 42
0.2
  3
txt
  4
bigfont.shx
  0
STYLE
  5
26
100
AcDbSymbolTableRecord
100
AcDbTextStyleTableRecord
  2
TATEGAKI
 70
    68
 40
0.0
 41
1.0
 50
0.0
 71
     0
 42
1.0
  3
txt
  4
bigfont.shx
  0
ENDTAB
  0
TABLE
  2
LAYER
 70
    2
  0
LAYER
  2
_0-0_0
 70
   64
 62
    7
  6
CONTINUOUS
  0
LAYER
  2
ADD_LINE
 70
   64
 62
    7
  6
CONTINUOUS
  0
ENDTAB
  0
ENDSEC
  0
SECTION
  2
BLOCKS
  0
ENDSEC
  0
SECTION
  2
ENTITIES
  0
ARC
  8
_0-0_0
  6
CONTINUOUS
 62
    7
 10
214.22770699999998
 20
406.59997600000003
 40
0.2
 50
269.99999700000001
 51
20.376440000000013
  0
LINE
  8
_0-0_0
  6
CONTINUOUS
 62
    7
 10
214.41520699999998
 20
406.66961700000002
 11
213.11518799999999
 21
410.16961700000002
  0
ARC
  8
_0-0_0
  6
CONTINUOUS
 62
    7
 10
212.92771899999997
 20
410.09997600000003
 40
0.2
 50
20.376439999999999
 51
159.62355600000001
  0
LINE
  8
_0-0_0
  6
CONTINUOUS
 62
    7
 10
211.44023099999998
 20
406.66961700000002
 11
212.74021899999997
 21
410.16961700000002
  0
ARC
  8
_0-0_0
  6
CONTINUOUS
 62
    7
 10
211.62770099999997
 20
406.59997600000003
 40
0.2
 50
159.62355600000001
 51
269.99999700000001
  0
LINE
  8
_0-0_0
  6
CONTINUOUS
 62
    7
 10
211.62770099999997
 20
406.39999399999999
 11
214.22770699999998
 21
406.39999399999999
  0
LINE
  8
_0-0_0
  6
CONTINUOUS
 62
    7
 10
48.994899999999973
 20
455.00271600000002
 11
48.994899999999973
 21
455.00170900000001
  0
LINE
  8
_0-0_0
  6
CONTINUOUS
 62
    7
 10
831.92776500000002
 20
443.39999399999999
 11
831.92776500000002
 21
430.39999399999999
  0
LINE
  8
_0-0_0
  6
CONTINUOUS
 62
    7
 10
158.92771899999997
 20
443.39999399999999
 11
158.92771899999997
 21
430.39999399999999
  0
LINE
  8
_0-0_0
  6
CONTINUOUS
 62
    7
 10
158.92771899999997
 20
443.39999399999999
 11
831.92776500000002
 21
443.39999399999999
  0
LINE
  8
_0-0_0
  6
CONTINUOUS
 62
    7
 10
158.92771899999997
 20
443.39999399999999
 11
158.92771899999997
 21
462
  0
LINE
  8
_0-0_0
  6
CONTINUOUS
 62
    7
 10
158.92771899999997
 20
464.5
 11
158.92771899999997
 21
462
  0
LINE
  8
_0-0_0
  6
CONTINUOUS
 62
    7
 10
158.92771899999997
 20
465
 11
158.92771899999997
 21
464.5
  0
LINE
  8
_0-0_0
  6
CONTINUOUS
 62
    7
 10
158.92771899999997
 20
417
 11
158.92771899999997
 21
416.5
  0
LINE
  8
_0-0_0
  6
CONTINUOUS
 62
    7
 10
158.92771899999997
 20
422
 11
158.92771899999997
 21
417
  0
LINE
  8
_0-0_0
  6
CONTINUOUS
 62
    7
 10
158.92771899999997
 20
422.5
 11
158.92771899999997
 21
422
  0
LINE
  8
_0-0_0
  6
CONTINUOUS
 62
    7
 10
158.92771899999997
 20
423
 11
158.92771899999997
 21
422.5
  0
LINE
  8
_0-0_0
  6
CONTINUOUS
 62
    7
 10
158.92771899999997
 20
426.19998199999998
 11
158.92771899999997
 21
423
  0
LINE
  8
_0-0_0
  6
CONTINUOUS
 62
    7
 10
158.92771899999997
 20
426.19998199999998
 11
158.92771899999997
 21
430.39999399999999
  0
LINE
  8
_0-0_0
  6
CONTINUOUS
 62
    7
 10
158.92771899999997
 20
430.39999399999999
 11
831.92776500000002
 21
430.39999399999999
  0
LINE
  8
_0-0_0
  6
CONTINUOUS
 62
    7
 10
831.92776500000002
 20
426.19998199999998
 11
831.92776500000002
 21
430.39999399999999
  0
LINE
  8
_0-0_0
  6
CONTINUOUS
 62
    7
 10
831.92776500000002
 20
423
 11
831.92776500000002
 21
426.19998199999998
  0
LINE
  8
_0-0_0
  6
CONTINUOUS
 62
    7
 10
831.92776500000002
 20
423
 11
831.92776500000002
 21
422.5
  0
LINE
  8
_0-0_0
  6
CONTINUOUS
 62
    7
 10
831.92776500000002
 20
422.5
 11
831.92776500000002
 21
422
  0
LINE
  8
_0-0_0
  6
CONTINUOUS
 62
    7
 10
831.92776500000002
 20
422
 11
831.92776500000002
 21
417
  0
LINE
  8
_0-0_0
  6
CONTINUOUS
 62
    7
 10
831.92776500000002
 20
417
 11
831.92776500000002
 21
416.5
  0
LINE
  8
_0-0_0
  6
CONTINUOUS
 62
    7
 10
831.92776500000002
 20
465
 11
831.92776500000002
 21
464.5
  0
LINE
  8
_0-0_0
  6
CONTINUOUS
 62
    7
 10
831.92776500000002
 20
462
 11
831.92776500000002
 21
464.5
  0
LINE
  8
_0-0_0
  6
CONTINUOUS
 62
    7
 10
831.92776500000002
 20
443.39999399999999
 11
831.92776500000002
 21
462
  0
CIRCLE
  8
_0-0_0
  6
CONTINUOUS
 62
    7
 10
795.42776500000002
 20
452.5
 40
6
  0
CIRCLE
  8
_0-0_0
  6
CONTINUOUS
 62
    7
 10
695.42776500000002
 20
452.5
 40
6
  0
CIRCLE
  8
_0-0_0
  6
CONTINUOUS
 62
    7
 10
595.42776500000002
 20
452.5
 40
6
  0
CIRCLE
  8
_0-0_0
  6
CONTINUOUS
 62
    7
 10
495.42773399999999
 20
452.5
 40
6
  0
CIRCLE
  8
_0-0_0
  6
CONTINUOUS
 62
    7
 10
395.42773399999999
 20
452.5
 40
6
  0
CIRCLE
  8
_0-0_0
  6
CONTINUOUS
 62
    7
 10
295.42773399999999
 20
452.5
 40
6
  0
CIRCLE
  8
_0-0_0
  6
CONTINUOUS
 62
    7
 10
195.42771899999997
 20
452.5
 40
6
  0
LINE
  8
_0-0_0
  6
CONTINUOUS
 62
    7
 10
158.92771899999997
 20
462
 11
831.92776500000002
 21
462
  0
LINE
  8
_0-0_0
  6
CONTINUOUS
 62
    7
 10
158.92771899999997
 20
465
 11
831.92776500000002
 21
465
  0
LINE
  8
_0-0_0
  6
CONTINUOUS
 62
    7
 10
158.92771899999997
 20
464.5
 11
156.42771899999997
 21
464.5
  0
LINE
  8
_0-0_0
  6
CONTINUOUS
 62
    7
 10
156.42771899999997
 20
464.5
 11
156.42771899999997
 21
464
  0
LINE
  8
_0-0_0
  6
CONTINUOUS
 62
    7
 10
156.42771899999997
 20
464
 11
156.42771899999997
 21
423.5
  0
LINE
  8
_0-0_0
  6
CONTINUOUS
 62
    7
 10
158.92771899999997
 20
423
 11
156.42771899999997
 21
423
  0
LINE
  8
_0-0_0
  6
CONTINUOUS
 62
    7
 10
156.42771899999997
 20
423.5
 11
156.42771899999997
 21
423
  0
LINE
  8
_0-0_0
  6
CONTINUOUS
 62
    7
 10
156.42771899999997
 20
423
 11
156.42771899999997
 21
422
  0
LINE
  8
_0-0_0
  6
CONTINUOUS
 62
    7
 10
156.42771899999997
 20
422
 11
156.42771899999997
 21
417.5
  0
LINE
  8
_0-0_0
  6
CONTINUOUS
 62
    7
 10
158.92771899999997
 20
417
 11
156.42771899999997
 21
417
  0
LINE
  8
_0-0_0
  6
CONTINUOUS
 62
    7
 10
156.42771899999997
 20
417.5
 11
156.42771899999997
 21
417
  0
LINE
  8
_0-0_0
  6
CONTINUOUS
 62
    7
 10
158.92771899999997
 20
416.5
 11
831.92776500000002
 21
416.5
  0
LINE
  8
_0-0_0
  6
CONTINUOUS
 62
    7
 10
158.92771899999997
 20
422.5
 11
831.92776500000002
 21
422.5
  0
LINE
  8
_0-0_0
  6
CONTINUOUS
 62
    7
 10
158.92771899999997
 20
426.19998199999998
 11
831.92776500000002
 21
426.19998199999998
  0
LINE
  8
_0-0_0
  6
CONTINUOUS
 62
    7
 10
831.92776500000002
 20
464.5
 11
834.42776500000002
 21
464.5
  0
LINE
  8
_0-0_0
  6
CONTINUOUS
 62
    7
 10
834.42776500000002
 20
464.5
 11
834.42776500000002
 21
464
  0
LINE
  8
_0-0_0
  6
CONTINUOUS
 62
    7
 10
834.42776500000002
 20
464
 11
834.42776500000002
 21
423.5
  0
LINE
  8
_0-0_0
  6
CONTINUOUS
 62
    7
 10
831.92776500000002
 20
423
 11
834.42776500000002
 21
423
  0
LINE
  8
_0-0_0
  6
CONTINUOUS
 62
    7
 10
834.42776500000002
 20
423.5
 11
834.42776500000002
 21
423
  0
LINE
  8
_0-0_0
  6
CONTINUOUS
 62
    7
 10
834.42776500000002
 20
423
 11
834.42776500000002
 21
422
  0
LINE
  8
_0-0_0
  6
CONTINUOUS
 62
    7
 10
834.42776500000002
 20
422
 11
834.42776500000002
 21
417.5
  0
LINE
  8
_0-0_0
  6
CONTINUOUS
 62
    7
 10
831.92776500000002
 20
417
 11
834.42776500000002
 21
417
  0
LINE
  8
_0-0_0
  6
CONTINUOUS
 62
    7
 10
834.42776500000002
 20
417.5
 11
834.42776500000002
 21
417
  0
ARC
  8
_0-0_0
  6
CONTINUOUS
 62
    7
 10
216.42771899999997
 20
417.5
 40
0.5
 50
269.99999700000001
 51
0
  0
LINE
  8
_0-0_0
  6
CONTINUOUS
 62
    7
 10
216.42771899999997
 20
417
 11
209.42771899999997
 21
417
  0
ARC
  8
_0-0_0
  6
CONTINUOUS
 62
    7
 10
209.42771899999997
 20
417.5
 40
0.5
 50
179.99999099999999
 51
269.99999700000001
  0
LINE
  8
_0-0_0
  6
CONTINUOUS
 62
    7
 10
208.92771899999997
 20
421.5
 11
208.92771899999997
 21
417.5
  0
ARC
  8
_0-0_0
  6
CONTINUOUS
 62
    7
 10
209.42771899999997
 20
421.5
 40
0.5
 50
90.000003000000007
 51
179.99999099999999
  0
ARC
  8
_0-0_0
  6
CONTINUOUS
 62
    7
 10
216.42771899999997
 20
421.5
 40
0.5
 50
0
 51
90.000003000000007
  0
LINE
  8
_0-0_0
  6
CONTINUOUS
 62
    7
 10
209.42771899999997
 20
422
 11
216.42771899999997
 21
422
  0
LINE
  8
_0-0_0
  6
CONTINUOUS
 62
    7
 10
831.92776500000002
 20
465
 11
831.92776500000002
 21
464.69998199999998
  0
LINE
  8
_0-0_0
  6
CONTINUOUS
 62
    7
 10
831.92776500000002
 20
464.69998199999998
 11
831.92776500000002
 21
464.5
  0
CIRCLE
  8
_0-0_0
  6
CONTINUOUS
 62
    7
 10
795.42776500000002
 20
452.5
 40
5.5
  0
CIRCLE
  8
_0-0_0
  6
CONTINUOUS
 62
    7
 10
695.42776500000002
 20
452.5
 40
5.5
  0
CIRCLE
  8
_0-0_0
  6
CONTINUOUS
 62
    7
 10
595.42776500000002
 20
452.5
 40
5.5
  0
CIRCLE
  8
_0-0_0
  6
CONTINUOUS
 62
    7
 10
495.42773399999999
 20
452.5
 40
5.5
  0
CIRCLE
  8
_0-0_0
  6
CONTINUOUS
 62
    7
 10
395.42773399999999
 20
452.5
 40
5.5
  0
CIRCLE
  8
_0-0_0
  6
CONTINUOUS
 62
    7
 10
295.42773399999999
 20
452.5
 40
5.5
  0
CIRCLE
  8
_0-0_0
  6
CONTINUOUS
 62
    7
 10
195.42771899999997
 20
452.5
 40
5.5
  0
LINE
  8
_0-0_0
  6
CONTINUOUS
 62
    7
 10
216.92771899999997
 20
417.5
 11
216.92771899999997
 21
421.5
  0
CIRCLE
  8
_0-0_0
  6
CONTINUOUS
 62
    7
 10
795.42776500000002
 20
452.5
 40
3.5
  0
CIRCLE
  8
_0-0_0
  6
CONTINUOUS
 62
    7
 10
695.42776500000002
 20
452.5
 40
3.5
  0
CIRCLE
  8
_0-0_0
  6
CONTINUOUS
 62
    7
 10
595.42776500000002
 20
452.5
 40
3.5
  0
CIRCLE
  8
_0-0_0
  6
CONTINUOUS
 62
    7
 10
495.42773399999999
 20
452.5
 40
3.5
  0
CIRCLE
  8
_0-0_0
  6
CONTINUOUS
 62
    7
 10
395.42773399999999
 20
452.5
 40
3.5
  0
CIRCLE
  8
_0-0_0
  6
CONTINUOUS
 62
    7
 10
295.42773399999999
 20
452.5
 40
3.5
  0
CIRCLE
  8
_0-0_0
  6
CONTINUOUS
 62
    7
 10
195.42771899999997
 20
452.5
 40
3.5
  0
ARC
  8
_0-0_0
  6
CONTINUOUS
 62
    7
 10
214.22770699999998
 20
421.19998199999998
 40
0.2
 50
339.62356199999999
 51
90.000002999999978
  0
LINE
  8
_0-0_0
  6
CONTINUOUS
 62
    7
 10
214.41520699999998
 20
421.13034099999999
 11
213.11518799999999
 21
417.63034099999999
  0
ARC
  8
_0-0_0
  6
CONTINUOUS
 62
    7
 10
212.92771899999997
 20
417.69998199999998
 40
0.2
 50
200.37643
 51
339.62356199999999
  0
LINE
  8
_0-0_0
  6
CONTINUOUS
 62
    7
 10
211.44023099999998
 20
421.13034099999999
 11
212.74021899999997
 21
417.63034099999999
  0
ARC
  8
_0-0_0
  6
CONTINUOUS
 62
    7
 10
211.62770099999997
 20
421.19998199999998
 40
0.2
 50
90.000003000000007
 51
200.37643
  0
LINE
  8
_0-0_0
  6
CONTINUOUS
 62
    7
 10
211.62770099999997
 20
421.39999399999999
 11
214.22770699999998
 21
421.39999399999999
  0
ARC
  8
_0-0_0
  6
CONTINUOUS
 62
    7
 10
751.62777699999992
 20
421.19998199999998
 40
0.2
 50
90.000003000000007
 51
200.37643
  0
LINE
  8
_0-0_0
  6
CONTINUOUS
 62
    7
 10
751.62777699999992
 20
421.39999399999999
 11
754.22775300000001
 21
421.39999399999999
  0
ARC
  8
_0-0_0
  6
CONTINUOUS
 62
    7
 10
749.42776500000002
 20
421.5
 40
0.5
 50
90.000003000000007
 51
179.99999099999999
  0
LINE
  8
_0-0_0
  6
CONTINUOUS
 62
    7
 10
748.92776500000002
 20
421.5
 11
748.92776500000002
 21
417.5
  0
ARC
  8
_0-0_0
  6
CONTINUOUS
 62
    7
 10
749.42776500000002
 20
417.5
 40
0.5
 50
179.99999099999999
 51
269.99999700000001
  0
LINE
  8
_0-0_0
  6
CONTINUOUS
 62
    7
 10
756.42776500000002
 20
417
 11
749.42776500000002
 21
417
  0
ARC
  8
_0-0_0
  6
CONTINUOUS
 62
    7
 10
756.42776500000002
 20
417.5
 40
0.5
 50
269.99999700000001
 51
0
  0
LINE
  8
_0-0_0
  6
CONTINUOUS
 62
    7
 10
756.92776500000002
 20
417.5
 11
756.92776500000002
 21
421.5
  0
ARC
  8
_0-0_0
  6
CONTINUOUS
 62
    7
 10
756.42776500000002
 20
421.5
 40
0.5
 50
0
 51
90.000003000000007
  0
LINE
  8
_0-0_0
  6
CONTINUOUS
 62
    7
 10
749.42776500000002
 20
422
 11
756.42776500000002
 21
422
  0
LINE
  8
_0-0_0
  6
CONTINUOUS
 62
    7
 10
751.44027699999992
 20
421.13034099999999
 11
752.74026500000002
 21
417.63034099999999
  0
ARC
  8
_0-0_0
  6
CONTINUOUS
 62
    7
 10
752.92776500000002
 20
417.69998199999998
 40
0.2
 50
200.37643
 51
339.62356199999999
  0
LINE
  8
_0-0_0
  6
CONTINUOUS
 62
    7
 10
754.41525300000001
 20
421.13034099999999
 11
753.11526500000002
 21
417.63034099999999
  0
ARC
  8
_0-0_0
  6
CONTINUOUS
 62
    7
 10
754.22775300000001
 20
421.19998199999998
 40
0.2
 50
339.62356199999999
 51
90.000002999999978
  0
LINE
  8
_0-0_0
  6
CONTINUOUS
 62
    7
 10
165.42771899999997
 20
414.5
 11
170.42771899999997
 21
414.5
  0
LINE
  8
_0-0_0
  6
CONTINUOUS
 62
    7
 10
170.42771899999997
 20
414.5
 11
172.22770699999998
 21
414.5
  0
LINE
  8
_0-0_0
  6
CONTINUOUS
 62
    7
 10
172.22770699999998
 20
414.5
 11
172.92771899999997
 21
414.5
  0
ARC
  8
_0-0_0
  6
CONTINUOUS
 62
    7
 10
172.22770699999998
 20
414
 40
0.5
 50
0
 51
90.000003000000007
  0
ARC
  8
_0-0_0
  6
CONTINUOUS
 62
    7
 10
165.42771899999997
 20
414
 40
0.5
 50
90.000003000000007
 51
179.99999099999999
  0
ARC
  8
_0-0_0
  6
CONTINUOUS
 62
    7
 10
268.92773399999999
 20
414
 40
0.5
 50
0
 51
90.000003000000007
  0
LINE
  8
_0-0_0
  6
CONTINUOUS
 62
    7
 10
172.92771899999997
 20
414.5
 11
172.92771899999997
 21
413
  0
LINE
  8
_0-0_0
  6
CONTINUOUS
 62
    7
 10
172.92771899999997
 20
415
 11
172.92771899999997
 21
414.5
  0
LINE
  8
_0-0_0
  6
CONTINUOUS
 62
    7
 10
172.92771899999997
 20
415.5
 11
172.92771899999997
 21
415
  0
LINE
  8
_0-0_0
  6
CONTINUOUS
 62
    7
 10
172.92771899999997
 20
416.5
 11
172.92771899999997
 21
415.5
  0
LINE
  8
_0-0_0
  6
CONTINUOUS
 62
    7
 10
176.92771899999997
 20
414.5
 11
177.62770099999997
 21
414.5
  0
LINE
  8
_0-0_0
  6
CONTINUOUS
 62
    7
 10
172.72770699999998
 20
414
 11
172.72770699999998
 21
413
  0
LINE
  8
_0-0_0
  6
CONTINUOUS
 62
    7
 10
175.92771899999997
 20
387.5
 11
175.92771899999997
 21
389.09997600000003
  0
LINE
  8
_0-0_0
  6
CONTINUOUS
 62
    7
 10
175.92771899999997
 20
387.5
 11
170.42771899999997
 21
387.5
  0
LINE
  8
_0-0_0
  6
CONTINUOUS
 62
    7
 10
191.92771899999997
 20
394.19998199999998
 11
233.92771899999997
 21
394.19998199999998
  0
LINE
  8
_0-0_0
  6
CONTINUOUS
 62
    7
 10
191.92771899999997
 20
413.79998799999998
 11
233.92771899999997
 21
413.79998799999998
  0
LINE
  8
_0-0_0
  6
CONTINUOUS
 62
    7
 10
255.42771899999997
 20
387.5
 11
245.92771899999997
 21
387.5
  0
LINE
  8
_0-0_0
  6
CONTINUOUS
 62
    7
 10
245.92771899999997
 20
387.5
 11
245.92771899999997
 21
389.09997600000003
  0
ARC
  8
_0-0_0
  6
CONTINUOUS
 62
    7
 10
245.62770099999997
 20
389.09997600000003
 40
0.2999999999999999
 50
0
 51
90.000003000000007
  0
LINE
  8
_0-0_0
  6
CONTINUOUS
 62
    7
 10
244.92771899999997
 20
389.39999399999999
 11
245.62770099999997
 21
389.39999399999999
  0
LINE
  8
_0-0_0
  6
CONTINUOUS
 62
    7
 10
244.42771899999997
 20
389.79998799999998
 11
244.92771899999997
 21
389.79998799999998
  0
LINE
  8
_0-0_0
  6
CONTINUOUS
 62
    7
 10
230.92771899999997
 20
389.79998799999998
 11
244.42771899999997
 21
389.79998799999998
  0
ARC
  8
_0-0_0
  6
CONTINUOUS
 62
    7
 10
228.42771899999997
 20
389.79998799999998
 40
2.5
 50
0
 51
90.000003000000007
  0
LINE
  8
_0-0_0
  6
CONTINUOUS
 62
    7
 10
197.42771899999997
 20
392.29998799999998
 11
228.42771899999997
 21
392.29998799999998
  0
ARC
  8
_0-0_0
  6
CONTINUOUS
 62
    7
 10
197.42771899999997
 20
389.79998799999998
 40
2.5
 50
90.000003000000007
 51
179.99999099999999
  0
LINE
  8
_0-0_0
  6
CONTINUOUS
 62
    7
 10
177.42771899999997
 20
389.79998799999998
 11
194.92771899999997
 21
389.79998799999998
  0
LINE
  8
_0-0_0
  6
CONTINUOUS
 62
    7
 10
176.92771899999997
 20
389.79998799999998
 11
177.42771899999997
 21
389.79998799999998
  0
LINE
  8
_0-0_0
  6
CONTINUOUS
 62
    7
 10
176.22770699999998
 20
389.39999399999999
 11
176.92771899999997
 21
389.39999399999999
  0
ARC
  8
_0-0_0
  6
CONTINUOUS
 62
    7
 10
176.22770699999998
 20
389.09997600000003
 40
0.2999999999999999
 50
90.000003000000007
 51
179.99999099999999
  0
LINE
  8
_0-0_0
  6
CONTINUOUS
 62
    7
 10
164.92771899999997
 20
412.22485399999999
 11
164.92771899999997
 21
414
  0
LINE
  8
_0-0_0
  6
CONTINUOUS
 62
    7
 10
169.92771899999997
 20
415
 11
169.92771899999997
 21
414.5
  0
LINE
  8
_0-0_0
  6
CONTINUOUS
 62
    7
 10
169.92771899999997
 20
411.05355800000001
 11
169.92771899999997
 21
411.15853900000002
  0
LINE
  8
_0-0_0
  6
CONTINUOUS
 62
    7
 10
169.92771899999997
 20
415
 11
169.92771899999997
 21
416.49996900000002
  0
LINE
  8
_0-0_0
  6
CONTINUOUS
 62
    7
 10
269.42773399999999
 20
416.49996900000002
 11
269.42773399999999
 21
415
  0
LINE
  8
_0-0_0
  6
CONTINUOUS
 62
    7
 10
269.42773399999999
 20
415
 11
269.42773399999999
 21
414
  0
LINE
  8
_0-0_0
  6
CONTINUOUS
 62
    7
 10
269.42773399999999
 20
413.19998199999998
 11
269.42773399999999
 21
414
  0
LINE
  8
_0-0_0
  6
CONTINUOUS
 62
    7
 10
268.92773399999999
 20
414.5
 11
269.42773399999999
 21
414.5
  0
LINE
  8
_0-0_0
  6
CONTINUOUS
 62
    7
 10
256.42771899999997
 20
414.5
 11
268.92773399999999
 21
414.5
  0
LINE
  8
_0-0_0
  6
CONTINUOUS
 62
    7
 10
269.42773399999999
 20
416.5
 11
269.42773399999999
 21
415.5
  0
LINE
  8
_0-0_0
  6
CONTINUOUS
 62
    7
 10
269.42773399999999
 20
415
 11
269.42773399999999
 21
414.5
  0
LINE
  8
_0-0_0
  6
CONTINUOUS
 62
    7
 10
269.42773399999999
 20
415.5
 11
269.42773399999999
 21
415
  0
ARC
  8
_0-0_0
  6
CONTINUOUS
 62
    7
 10
174.92771899999997
 20
413
 40
2
 50
179.99999099999999
 51
0
  0
LINE
  8
_0-0_0
  6
CONTINUOUS
 62
    7
 10
255.92771899999997
 20
414.5
 11
256.42771899999997
 21
414.5
  0
LINE
  8
_0-0_0
  6
CONTINUOUS
 62
    7
 10
255.92771899999997
 20
414
 11
255.92771899999997
 21
414.5
  0
LINE
  8
_0-0_0
  6
CONTINUOUS
 62
    7
 10
255.92771899999997
 20
413
 11
255.92771899999997
 21
413.19998199999998
  0
ARC
  8
_0-0_0
  6
CONTINUOUS
 62
    7
 10
253.92771899999997
 20
413
 40
2
 50
179.99999099999999
 51
0
  0
LINE
  8
_0-0_0
  6
CONTINUOUS
 62
    7
 10
251.92771899999997
 20
414.5
 11
251.92771899999997
 21
413
  0
LINE
  8
_0-0_0
  6
CONTINUOUS
 62
    7
 10
251.22770699999998
 20
414.5
 11
251.92771899999997
 21
414.5
  0
LINE
  8
_0-0_0
  6
CONTINUOUS
 62
    7
 10
176.92771899999997
 20
413
 11
176.92771899999997
 21
414.5
  0
LINE
  8
_0-0_0
  6
CONTINUOUS
 62
    7
 10
172.92771899999997
 20
415.5
 11
269.42773399999999
 21
415.5
  0
ARC
  8
_0-0_0
  6
CONTINUOUS
 62
    7
 10
177.62770099999997
 20
414
 40
0.5
 50
90.000003000000007
 51
179.99999099999999
  0
ARC
  8
_0-0_0
  6
CONTINUOUS
 62
    7
 10
174.92771899999997
 20
413
 40
2.2000000000000002
 50
179.99999099999999
 51
0
  0
LINE
  8
_0-0_0
  6
CONTINUOUS
 62
    7
 10
176.92771899999997
 20
389.39999399999999
 11
177.42771899999997
 21
389.39999399999999
  0
LINE
  8
_0-0_0
  6
CONTINUOUS
 62
    7
 10
177.42771899999997
 20
389.79998799999998
 11
177.42771899999997
 21
389.39999399999999
  0
LINE
  8
_0-0_0
  6
CONTINUOUS
 62
    7
 10
194.92771899999997
 20
389.79998799999998
 11
230.92771899999997
 21
389.79998799999998
  0
LINE
  8
_0-0_0
  6
CONTINUOUS
 62
    7
 10
244.42771899999997
 20
389.39999399999999
 11
244.92771899999997
 21
389.39999399999999
  0
LINE
  8
_0-0_0
  6
CONTINUOUS
 62
    7
 10
244.42771899999997
 20
389.79998799999998
 11
244.42771899999997
 21
389.39999399999999
  0
LINE
  8
_0-0_0
  6
CONTINUOUS
 62
    7
 10
255.42771899999997
 20
387
 11
246.42771899999997
 21
387
  0
ARC
  8
_0-0_0
  6
CONTINUOUS
 62
    7
 10
246.42771899999997
 20
387.5
 40
0.5
 50
179.99999099999999
 51
269.99999700000001
  0
LINE
  8
_0-0_0
  6
CONTINUOUS
 62
    7
 10
255.42771899999997
 20
387.5
 11
255.92771899999997
 21
387.5
  0
LINE
  8
_0-0_0
  6
CONTINUOUS
 62
    7
 10
255.92771899999997
 20
387.5
 11
255.92771899999997
 21
387.69998199999998
  0
LINE
  8
_0-0_0
  6
CONTINUOUS
 62
    7
 10
260.42771899999997
 20
387.89999399999999
 11
256.127701
 21
387.89999399999999
  0
LINE
  8
_0-0_0
  6
CONTINUOUS
 62
    7
 10
260.92771899999997
 20
388.39999399999999
 11
260.92771899999997
 21
390.17511000000002
  0
ARC
  8
_0-0_0
  6
CONTINUOUS
 62
    7
 10
257.87974499999996
 20
390.118988
 40
3.0490550000000001
 50
1.0548960000000001
 51
14.838094000000002
  0
LINE
  8
_0-0_0
  6
CONTINUOUS
 62
    7
 10
260.42771899999997
 20
391.09997600000003
 11
256.06016499999998
 21
391.09997600000003
  0
LINE
  8
_0-0_0
  6
CONTINUOUS
 62
    7
 10
255.92771899999997
 20
391.24142499999999
 11
255.92771899999997
 21
391.58367900000002
  0
ARC
  8
_0-0_0
  6
CONTINUOUS
 62
    7
 10
253.92771899999997
 20
413
 40
2.2000000000000002
 50
179.99999099999999
 51
303.74900400000001
  0
LINE
  8
_0-0_0
  6
CONTINUOUS
 62
    7
 10
251.72770699999998
 20
414
 11
251.72770699999998
 21
413
  0
LINE
  8
_0-0_0
  6
CONTINUOUS
 62
    7
 10
251.22770699999998
 20
414.5
 11
177.62770099999997
 21
414.5
  0
LINE
  8
_0-0_0
  6
CONTINUOUS
 62
    7
 10
177.12770099999997
 20
413
 11
177.12770099999997
 21
414
  0
LINE
  8
_0-0_0
  6
CONTINUOUS
 62
    7
 10
177.62770099999997
 20
412.79998799999998
 11
177.62770099999997
 21
413
  0
ARC
  8
_0-0_0
  6
CONTINUOUS
 62
    7
 10
178.62770099999997
 20
412.79998799999998
 40
1
 50
90.000003000000007
 51
179.99999099999999
  0
LINE
  8
_0-0_0
  6
CONTINUOUS
 62
    7
 10
178.62770099999997
 20
413.79998799999998
 11
191.92771899999997
 21
413.79998799999998
  0
LINE
  8
_0-0_0
  6
CONTINUOUS
 62
    7
 10
233.92771899999997
 20
413.79998799999998
 11
247.92771899999997
 21
413.79998799999998
  0
ARC
  8
_0-0_0
  6
CONTINUOUS
 62
    7
 10
247.92771899999997
 20
410.79998799999998
 40
3
 50
0
 51
90.000003000000007
  0
LINE
  8
_0-0_0
  6
CONTINUOUS
 62
    7
 10
250.92771899999997
 20
397.19998199999998
 11
250.92771899999997
 21
410.79998799999998
  0
ARC
  8
_0-0_0
  6
CONTINUOUS
 62
    7
 10
247.92771899999997
 20
397.19998199999998
 40
3
 50
269.99999700000001
 51
0
  0
LINE
  8
_0-0_0
  6
CONTINUOUS
 62
    7
 10
247.92771899999997
 20
394.19998199999998
 11
233.92771899999997
 21
394.19998199999998
  0
LINE
  8
_0-0_0
  6
CONTINUOUS
 62
    7
 10
191.92771899999997
 20
394.19998199999998
 11
177.92771899999997
 21
394.19998199999998
  0
ARC
  8
_0-0_0
  6
CONTINUOUS
 62
    7
 10
177.92771899999997
 20
397.19998199999998
 40
3
 50
179.99999099999999
 51
269.99999700000001
  0
LINE
  8
_0-0_0
  6
CONTINUOUS
 62
    7
 10
174.92771899999997
 20
409.43768299999999
 11
174.92771899999997
 21
397.19998199999998
  0
ARC
  8
_0-0_0
  6
CONTINUOUS
 62
    7
 10
175.92771899999997
 20
409.43768299999999
 40
1
 50
105.68034800000001
 51
179.99999100000002
  0
ARC
  8
_0-0_0
  6
CONTINUOUS
 62
    7
 10
167.97569299999998
 20
412.28097500000001
 40
3.0490550000000001
 50
181.05489
 51
194.838089
  0
LINE
  8
_0-0_0
  6
CONTINUOUS
 62
    7
 10
169.79524199999997
 20
411.29998799999998
 11
165.42771899999997
 21
411.29998799999998
  0
LINE
  8
_0-0_0
  6
CONTINUOUS
 62
    7
 10
169.92771899999997
 20
391.24142499999999
 11
169.92771899999997
 21
391.346405
  0
LINE
  8
_0-0_0
  6
CONTINUOUS
 62
    7
 10
169.79524199999997
 20
391.09997600000003
 11
165.42771899999997
 21
391.09997600000003
  0
ARC
  8
_0-0_0
  6
CONTINUOUS
 62
    7
 10
167.97685199999998
 20
390.11834700000003
 40
3.050319
 50
165.15540799999999
 51
178.932897
  0
LINE
  8
_0-0_0
  6
CONTINUOUS
 62
    7
 10
164.92771899999997
 20
388.39999399999999
 11
164.92771899999997
 21
390.17511000000002
  0
LINE
  8
_0-0_0
  6
CONTINUOUS
 62
    7
 10
169.72770699999998
 20
387.89999399999999
 11
165.42771899999997
 21
387.89999399999999
  0
LINE
  8
_0-0_0
  6
CONTINUOUS
 62
    7
 10
169.92771899999997
 20
387.5
 11
169.92771899999997
 21
387.69998199999998
  0
LINE
  8
_0-0_0
  6
CONTINUOUS
 62
    7
 10
169.92771899999997
 20
387.5
 11
170.42771899999997
 21
387.5
  0
LINE
  8
_0-0_0
  6
CONTINUOUS
 62
    7
 10
175.42771899999997
 20
387
 11
170.42771899999997
 21
387
  0
ARC
  8
_0-0_0
  6
CONTINUOUS
 62
    7
 10
175.42771899999997
 20
387.5
 40
0.5
 50
269.99999700000001
 51
0
  0
LINE
  8
_0-0_0
  6
CONTINUOUS
 62
    7
 10
165.24595599999998
 20
411.29998799999998
 11
165.22563199999999
 21
411.300995
  0
LINE
  8
_0-0_0
  6
CONTINUOUS
 62
    7
 10
165.22563199999999
 20
411.300995
 11
165.20521499999998
 21
411.30413800000002
  0
LINE
  8
_0-0_0
  6
CONTINUOUS
 62
    7
 10
165.20521499999998
 20
411.30413800000002
 11
165.17838999999998
 21
411.31173699999999
  0
LINE
  8
_0-0_0
  6
CONTINUOUS
 62
    7
 10
165.17838999999998
 20
411.31173699999999
 11
165.15275599999998
 21
411.32312000000002
  0
LINE
  8
_0-0_0
  6
CONTINUOUS
 62
    7
 10
165.15275599999998
 20
411.32312000000002
 11
165.12895199999997
 21
411.33798200000001
  0
LINE
  8
_0-0_0
  6
CONTINUOUS
 62
    7
 10
165.12895199999997
 20
411.33798200000001
 11
165.11219799999998
 21
411.35150099999998
  0
LINE
  8
_0-0_0
  6
CONTINUOUS
 62
    7
 10
165.11219799999998
 20
411.35150099999998
 11
165.09669499999998
 21
411.36673000000002
  0
LINE
  8
_0-0_0
  6
CONTINUOUS
 62
    7
 10
165.09669499999998
 20
411.36673000000002
 11
165.06977799999999
 21
411.40136699999999
  0
LINE
  8
_0-0_0
  6
CONTINUOUS
 62
    7
 10
165.06977799999999
 20
411.40136699999999
 11
165.04875199999998
 21
411.43969700000002
  0
LINE
  8
_0-0_0
  6
CONTINUOUS
 62
    7
 10
165.04875199999998
 20
411.43969700000002
 11
165.03675799999999
 21
411.46963499999998
  0
LINE
  8
_0-0_0
  6
CONTINUOUS
 62
    7
 10
165.03675799999999
 20
411.46963499999998
 11
165.02772499999998
 21
411.5
  0
LINE
  8
_0-0_0
  6
CONTINUOUS
 62
    7
 10
164.93891899999997
 20
412
 11
157.92771899999997
 21
412
  0
LINE
  8
_0-0_0
  6
CONTINUOUS
 62
    7
 10
157.92771899999997
 20
412
 11
153.25227299999995
 21
412
  0
LINE
  8
_0-0_0
  6
CONTINUOUS
 62
    7
 10
157.92771899999997
 20
412
 11
157.92771899999997
 21
410
  0
LINE
  8
_0-0_0
  6
CONTINUOUS
 62
    7
 10
169.92771899999997
 20
410
 11
169.92771899999997
 21
411.05355800000001
  0
ARC
  8
_0-0_0
  6
CONTINUOUS
 62
    7
 10
268.92773399999999
 20
413.19998199999998
 40
0.5
 50
269.99999700000001
 51
0
  0
ARC
  8
_0-0_0
  6
CONTINUOUS
 62
    7
 10
256.42771899999997
 20
414
 40
0.5
 50
90.000003000000007
 51
179.99999099999999
  0
LINE
  8
_0-0_0
  6
CONTINUOUS
 62
    7
 10
255.92771899999997
 20
413.19998199999998
 11
255.92771899999997
 21
414
  0
LINE
  8
_0-0_0
  6
CONTINUOUS
 62
    7
 10
176.12770099999997
 20
389.38284299999998
 11
176.12770099999997
 21
387.39999399999999
  0
LINE
  8
_0-0_0
  6
CONTINUOUS
 62
    7
 10
176.12770099999997
 20
387.39999399999999
 11
177.12770099999997
 21
387.39999399999999
  0
LINE
  8
_0-0_0
  6
CONTINUOUS
 62
    7
 10
177.42771899999997
 20
389.39999399999999
 11
244.42771899999997
 21
389.39999399999999
  0
LINE
  8
_0-0_0
  6
CONTINUOUS
 62
    7
 10
177.12770099999997
 20
387.39999399999999
 11
244.72770699999998
 21
387.39999399999999
  0
LINE
  8
_0-0_0
  6
CONTINUOUS
 62
    7
 10
244.72770699999998
 20
387.39999399999999
 11
245.72770699999998
 21
387.39999399999999
  0
LINE
  8
_0-0_0
  6
CONTINUOUS
 62
    7
 10
245.72770699999998
 20
389.38284299999998
 11
245.72770699999998
 21
387.39999399999999
  0
LINE
  8
_0-0_0
  6
CONTINUOUS
 62
    7
 10
255.92771899999997
 20
387.5
 11
255.42771899999997
 21
387
  0
ARC
  8
_0-0_0
  6
CONTINUOUS
 62
    7
 10
256.127701
 20
387.69998199999998
 40
0.2
 50
90.000003000000007
 51
179.99999099999999
  0
ARC
  8
_0-0_0
  6
CONTINUOUS
 62
    7
 10
260.42771899999997
 20
388.39999399999999
 40
0.5
 50
269.99999700000001
 51
0
  0
LINE
  8
_0-0_0
  6
CONTINUOUS
 62
    7
 10
260.60945099999998
 20
391.09997600000003
 11
260.62980599999997
 21
391.09896900000001
  0
LINE
  8
_0-0_0
  6
CONTINUOUS
 62
    7
 10
260.62980599999997
 20
391.09896900000001
 11
260.65022299999998
 21
391.09582499999999
  0
LINE
  8
_0-0_0
  6
CONTINUOUS
 62
    7
 10
260.65022299999998
 20
391.09582499999999
 11
260.67704800000001
 21
391.08822600000002
  0
LINE
  8
_0-0_0
  6
CONTINUOUS
 62
    7
 10
260.67704800000001
 20
391.08822600000002
 11
260.70268199999998
 21
391.07687399999998
  0
LINE
  8
_0-0_0
  6
CONTINUOUS
 62
    7
 10
260.70268199999998
 20
391.07687399999998
 11
260.72648599999997
 21
391.061981
  0
LINE
  8
_0-0_0
  6
CONTINUOUS
 62
    7
 10
260.72648599999997
 20
391.061981
 11
260.74324000000001
 21
391.04846199999997
  0
LINE
  8
_0-0_0
  6
CONTINUOUS
 62
    7
 10
260.74324000000001
 20
391.04846199999997
 11
260.75874299999998
 21
391.03326399999997
  0
LINE
  8
_0-0_0
  6
CONTINUOUS
 62
    7
 10
260.75874299999998
 20
391.03326399999997
 11
260.78562899999997
 21
390.99859600000002
  0
LINE
  8
_0-0_0
  6
CONTINUOUS
 62
    7
 10
260.78562899999997
 20
390.99859600000002
 11
260.80668600000001
 21
390.96026599999999
  0
LINE
  8
_0-0_0
  6
CONTINUOUS
 62
    7
 10
260.80668600000001
 20
390.96026599999999
 11
260.81867999999997
 21
390.93035900000001
  0
LINE
  8
_0-0_0
  6
CONTINUOUS
 62
    7
 10
260.81867999999997
 20
390.93035900000001
 11
260.82771300000002
 21
390.89999399999999
  0
LINE
  8
_0-0_0
  6
CONTINUOUS
 62
    7
 10
260.60945099999998
 20
391.09997600000003
 11
260.42771899999997
 21
391.09997600000003
  0
LINE
  8
_0-0_0
  6
CONTINUOUS
 62
    7
 10
255.92771899999997
 20
409.54998799999998
 11
255.92771899999997
 21
412.04998799999998
  0
LINE
  8
_0-0_0
  6
CONTINUOUS
 62
    7
 10
255.92771899999997
 20
409.54998799999998
 11
255.92771899999997
 21
393.04998799999998
  0
LINE
  8
_0-0_0
  6
CONTINUOUS
 62
    7
 10
255.92771899999997
 20
391.58367900000002
 11
255.92771899999997
 21
393.04998799999998
  0
ARC
  8
_0-0_0
  6
CONTINUOUS
 62
    7
 10
255.42771899999997
 20
410.75500499999998
 40
0.5
 50
0
 51
123.74898500000002
  0
ARC
  8
_0-0_0
  6
CONTINUOUS
 62
    7
 10
256.09800699999994
 20
391.27328499999999
 40
0.1734229999999999
 50
181.12417600000003
 51
270.64883800000007
  0
LINE
  8
_0-0_0
  6
CONTINUOUS
 62
    7
 10
255.92365999999998
 20
391.29998799999998
 11
255.92375199999998
 21
391.26986699999998
  0
ARC
  8
_0-0_0
  6
CONTINUOUS
 62
    7
 10
251.22770699999998
 20
414
 40
0.5
 50
0
 51
90.000003000000007
  0
ARC
  8
_0-0_0
  6
CONTINUOUS
 62
    7
 10
174.92771899999997
 20
413
 40
2.7000000000000002
 50
285.68033600000007
 51
0.0000000000000381
  0
ARC
  8
_0-0_0
  6
CONTINUOUS
 62
    7
 10
191.92771899999997
 20
397.19998199999998
 40
3
 50
269.99999700000001
 51
0
  0
LINE
  8
_0-0_0
  6
CONTINUOUS
 62
    7
 10
194.92771899999997
 20
397.19998199999998
 11
194.92771899999997
 21
410.79998799999998
  0
ARC
  8
_0-0_0
  6
CONTINUOUS
 62
    7
 10
191.92771899999997
 20
410.79998799999998
 40
3
 50
0
 51
90.000003000000007
  0
ARC
  8
_0-0_0
  6
CONTINUOUS
 62
    7
 10
187.42771899999997
 20
406.5
 40
4.5
 50
269.99999700000001
 51
90.000002999999992
  0
LINE
  8
_0-0_0
  6
CONTINUOUS
 62
    7
 10
187.42771899999997
 20
402
 11
182.42771899999997
 21
402
  0
ARC
  8
_0-0_0
  6
CONTINUOUS
 62
    7
 10
182.42771899999997
 20
406.5
 40
4.5
 50
90.000003000000007
 51
269.99999700000006
  0
LINE
  8
_0-0_0
  6
CONTINUOUS
 62
    7
 10
182.42771899999997
 20
411
 11
187.42771899999997
 21
411
  0
ARC
  8
_0-0_0
  6
CONTINUOUS
 62
    7
 10
233.92771899999997
 20
397.19998199999998
 40
3
 50
179.99999099999999
 51
269.99999700000001
  0
LINE
  8
_0-0_0
  6
CONTINUOUS
 62
    7
 10
230.92771899999997
 20
410.79998799999998
 11
230.92771899999997
 21
397.19998199999998
  0
ARC
  8
_0-0_0
  6
CONTINUOUS
 62
    7
 10
233.92771899999997
 20
410.79998799999998
 40
3
 50
90.000003000000007
 51
179.99999099999999
  0
ARC
  8
_0-0_0
  6
CONTINUOUS
 62
    7
 10
243.42771899999997
 20
406.5
 40
4.5
 50
269.99999700000001
 51
90.000002999999992
  0
LINE
  8
_0-0_0
  6
CONTINUOUS
 62
    7
 10
243.42771899999997
 20
402
 11
238.42771899999997
 21
402
  0
ARC
  8
_0-0_0
  6
CONTINUOUS
 62
    7
 10
238.42771899999997
 20
406.5
 40
4.5
 50
90.000003000000007
 51
269.99999700000006
  0
LINE
  8
_0-0_0
  6
CONTINUOUS
 62
    7
 10
238.42771899999997
 20
411
 11
243.42771899999997
 21
411
  0
LINE
  8
_0-0_0
  6
CONTINUOUS
 62
    7
 10
165.42771899999997
 20
411.29998799999998
 11
165.24595599999998
 21
411.29998799999998
  0
LINE
  8
_0-0_0
  6
CONTINUOUS
 62
    7
 10
169.92771899999997
 20
410
 11
169.92771899999997
 21
392.39999399999999
  0
LINE
  8
_0-0_0
  6
CONTINUOUS
 62
    7
 10
169.92771899999997
 20
391.346405
 11
169.92771899999997
 21
392.39999399999999
  0
ARC
  8
_0-0_0
  6
CONTINUOUS
 62
    7
 10
169.75743099999997
 20
391.27328499999999
 40
0.1734209999999999
 50
269.35085600000002
 51
358.87625300000002
  0
LINE
  8
_0-0_0
  6
CONTINUOUS
 62
    7
 10
169.93174699999997
 20
391.29998799999998
 11
169.93168599999998
 21
391.26986699999998
  0
LINE
  8
_0-0_0
  6
CONTINUOUS
 62
    7
 10
169.93174699999997
 20
411.09997600000003
 11
169.93168599999998
 21
411.13012700000002
  0
ARC
  8
_0-0_0
  6
CONTINUOUS
 62
    7
 10
169.75743099999997
 20
411.12670900000001
 40
0.1734219999999999
 50
1.1236539999999999
 51
90.649110000000007
  0
LINE
  8
_0-0_0
  6
CONTINUOUS
 62
    7
 10
165.42771899999997
 20
391.09997600000003
 11
165.24595599999998
 21
391.09997600000003
  0
LINE
  8
_0-0_0
  6
CONTINUOUS
 62
    7
 10
165.24595599999998
 20
391.09997600000003
 11
165.22563199999999
 21
391.09896900000001
  0
LINE
  8
_0-0_0
  6
CONTINUOUS
 62
    7
 10
165.22563199999999
 20
391.09896900000001
 11
165.20521499999998
 21
391.09582499999999
  0
LINE
  8
_0-0_0
  6
CONTINUOUS
 62
    7
 10
165.20521499999998
 20
391.09582499999999
 11
165.17838999999998
 21
391.08822600000002
  0
LINE
  8
_0-0_0
  6
CONTINUOUS
 62
    7
 10
165.17838999999998
 20
391.08822600000002
 11
165.15275599999998
 21
391.07687399999998
  0
LINE
  8
_0-0_0
  6
CONTINUOUS
 62
    7
 10
165.15275599999998
 20
391.07687399999998
 11
165.12895199999997
 21
391.061981
  0
LINE
  8
_0-0_0
  6
CONTINUOUS
 62
    7
 10
165.12895199999997
 20
391.061981
 11
165.11219799999998
 21
391.04846199999997
  0
LINE
  8
_0-0_0
  6
CONTINUOUS
 62
    7
 10
165.11219799999998
 20
391.04846199999997
 11
165.09669499999998
 21
391.03326399999997
  0
LINE
  8
_0-0_0
  6
CONTINUOUS
 62
    7
 10
165.09669499999998
 20
391.03326399999997
 11
165.06977799999999
 21
390.99859600000002
  0
LINE
  8
_0-0_0
  6
CONTINUOUS
 62
    7
 10
165.06977799999999
 20
390.99859600000002
 11
165.04875199999998
 21
390.96026599999999
  0
LINE
  8
_0-0_0
  6
CONTINUOUS
 62
    7
 10
165.04875199999998
 20
390.96026599999999
 11
165.03675799999999
 21
390.93035900000001
  0
LINE
  8
_0-0_0
  6
CONTINUOUS
 62
    7
 10
165.03675799999999
 20
390.93035900000001
 11
165.02772499999998
 21
390.89999399999999
  0
ARC
  8
_0-0_0
  6
CONTINUOUS
 62
    7
 10
165.42771899999997
 20
388.39999399999999
 40
0.5
 50
179.99999099999999
 51
269.99999700000001
  0
ARC
  8
_0-0_0
  6
CONTINUOUS
 62
    7
 10
169.72770699999998
 20
387.69998199999998
 40
0.2
 50
0
 51
90.000003000000007
  0
LINE
  8
_0-0_0
  6
CONTINUOUS
 62
    7
 10
169.92771899999997
 20
387.5
 11
170.42771899999997
 21
387
  0
ARC
  8
_0-0_0
  6
CONTINUOUS
 62
    7
 10
153.25227299999995
 20
410
 40
2
 50
90.000003000000007
 51
108.434997
  0
LINE
  8
_0-0_0
  6
CONTINUOUS
 62
    7
 10
157.92771899999997
 20
409.5
 11
157.92771899999997
 21
410
  0
LINE
  8
_0-0_0
  6
CONTINUOUS
 62
    7
 10
157.92771899999997
 20
406.5
 11
157.92771899999997
 21
406
  0
LINE
  8
_0-0_0
  6
CONTINUOUS
 62
    7
 10
157.92771899999997
 20
406.5
 11
157.92771899999997
 21
409.5
  0
ARC
  8
_0-0_0
  6
CONTINUOUS
 62
    7
 10
163.92771899999997
 20
406.69998199999998
 40
0.500016
 50
0.001164
 51
179.99560600000004
  0
LINE
  8
_0-0_0
  6
CONTINUOUS
 62
    7
 10
163.42771899999997
 20
406.69998199999998
 11
163.42771899999997
 21
394.69998199999998
  0
ARC
  8
_0-0_0
  6
CONTINUOUS
 62
    7
 10
163.92771899999997
 20
394.70001200000002
 40
0.500016
 50
180.00117
 51
359.995611
  0
LINE
  8
_0-0_0
  6
CONTINUOUS
 62
    7
 10
164.42771899999997
 20
406.69998199999998
 11
164.42771899999997
 21
394.69998199999998
  0
ARC
  8
_0-0_0
  6
CONTINUOUS
 62
    7
 10
162.42771899999997
 20
406.69998199999998
 40
0.500016
 50
0.001164
 51
179.99560600000004
  0
LINE
  8
_0-0_0
  6
CONTINUOUS
 62
    7
 10
161.92771899999997
 20
406.69998199999998
 11
161.92771899999997
 21
394.69998199999998
  0
ARC
  8
_0-0_0
  6
CONTINUOUS
 62
    7
 10
162.42771899999997
 20
394.70001200000002
 40
0.500016
 50
180.00117
 51
359.995611
  0
LINE
  8
_0-0_0
  6
CONTINUOUS
 62
    7
 10
162.92771899999997
 20
406.69998199999998
 11
162.92771899999997
 21
394.69998199999998
  0
ARC
  8
_0-0_0
  6
CONTINUOUS
 62
    7
 10
160.92771899999997
 20
406.69998199999998
 40
0.500016
 50
0.001164
 51
179.99560600000004
  0
LINE
  8
_0-0_0
  6
CONTINUOUS
 62
    7
 10
160.42771899999997
 20
406.69998199999998
 11
160.42771899999997
 21
394.69998199999998
  0
ARC
  8
_0-0_0
  6
CONTINUOUS
 62
    7
 10
160.92771899999997
 20
394.70001200000002
 40
0.500016
 50
180.00117
 51
359.995611
  0
LINE
  8
_0-0_0
  6
CONTINUOUS
 62
    7
 10
161.42771899999997
 20
406.69998199999998
 11
161.42771899999997
 21
394.69998199999998
  0
ARC
  8
_0-0_0
  6
CONTINUOUS
 62
    7
 10
159.42771899999997
 20
406.69998199999998
 40
0.500016
 50
0.001164
 51
179.99560600000004
  0
LINE
  8
_0-0_0
  6
CONTINUOUS
 62
    7
 10
158.92771899999997
 20
406.69998199999998
 11
158.92771899999997
 21
394.69998199999998
  0
ARC
  8
_0-0_0
  6
CONTINUOUS
 62
    7
 10
159.42771899999997
 20
394.70001200000002
 40
0.500016
 50
180.00117
 51
359.995611
  0
LINE
  8
_0-0_0
  6
CONTINUOUS
 62
    7
 10
159.92771899999997
 20
406.69998199999998
 11
159.92771899999997
 21
394.69998199999998
  0
LINE
  8
_0-0_0
  6
CONTINUOUS
 62
    7
 10
255.92771899999997
 20
412.69998199999998
 11
256.42771899999997
 21
412.69998199999998
  0
LINE
  8
_0-0_0
  6
CONTINUOUS
 62
    7
 10
256.42771899999997
 20
412.69998199999998
 11
268.92773399999999
 21
412.69998199999998
  0
ARC
  8
_0-0_0
  6
CONTINUOUS
 62
    7
 10
256.42771899999997
 20
413.19998199999998
 40
0.5
 50
179.99999099999999
 51
269.99999700000001
  0
LINE
  8
_0-0_0
  6
CONTINUOUS
 62
    7
 10
255.92771899999997
 20
412.33395400000001
 11
255.92771899999997
 21
412.69998199999998
  0
LINE
  8
_0-0_0
  6
CONTINUOUS
 62
    7
 10
255.92771899999997
 20
412.08346599999999
 11
255.92771899999997
 21
412.04998799999998
  0
LINE
  8
_0-0_0
  6
CONTINUOUS
 62
    7
 10
255.92771899999997
 20
412.33395400000001
 11
255.92771899999997
 21
412.08346599999999
  0
CIRCLE
  8
_0-0_0
  6
CONTINUOUS
 62
    7
 10
174.92771899999997
 20
413
 40
1.4750000000000001
  0
CIRCLE
  8
_0-0_0
  6
CONTINUOUS
 62
    7
 10
253.92771899999997
 20
413
 40
1.4750000000000001
  0
LINE
  8
_0-0_0
  6
CONTINUOUS
 62
    7
 10
255.92771899999997
 20
387.34997600000003
 11
255.92771899999997
 21
387.5
  0
LINE
  8
_0-0_0
  6
CONTINUOUS
 62
    7
 10
261.42771899999997
 20
387.34997600000003
 11
255.92771899999997
 21
387.34997600000003
  0
LINE
  8
_0-0_0
  6
CONTINUOUS
 62
    7
 10
261.42771899999997
 20
389.89999399999999
 11
260.92771899999997
 21
389.89999399999999
  0
LINE
  8
_0-0_0
  6
CONTINUOUS
 62
    7
 10
256.42771899999997
 20
412.54998799999998
 11
255.92771899999997
 21
412.04998799999998
  0
LINE
  8
_0-0_0
  6
CONTINUOUS
 62
    7
 10
256.42771899999997
 20
412.54998799999998
 11
261.42771899999997
 21
412.54998799999998
  0
LINE
  8
_0-0_0
  6
CONTINUOUS
 62
    7
 10
164.93891899999997
 20
390.39999399999999
 11
153.25227299999995
 21
390.39999399999999
  0
LINE
  8
_0-0_0
  6
CONTINUOUS
 62
    7
 10
152.17771899999997
 20
411.74996900000002
 11
152.61979699999995
 21
411.89733899999999
  0
LINE
  8
_0-0_0
  6
CONTINUOUS
 62
    7
 10
148.45335399999999
 20
406.5
 11
147.75999400000001
 21
406.5
  0
LINE
  8
_0-0_0
  6
CONTINUOUS
 62
    7
 10
148.45335399999999
 20
406.5
 11
152.77793899999995
 21
406.5
  0
LINE
  8
_0-0_0
  6
CONTINUOUS
 62
    7
 10
153.25227299999995
 20
406.5
 11
152.77793899999995
 21
406.5
  0
LINE
  8
_0-0_0
  6
CONTINUOUS
 62
    7
 10
157.92771899999997
 20
406.5
 11
153.25227299999995
 21
406.5
  0
LINE
  8
_0-0_0
  6
CONTINUOUS
 62
    7
 10
255.92771899999997
 20
387.203552
 11
255.92771899999997
 21
387.34997600000003
  0
LINE
  8
_0-0_0
  6
CONTINUOUS
 62
    7
 10
255.92771899999997
 20
387.14642300000003
 11
255.92771899999997
 21
387.203552
  0
LINE
  8
_0-0_0
  6
CONTINUOUS
 62
    7
 10
255.92771899999997
 20
387
 11
255.92771899999997
 21
387.14642300000003
  0
ARC
  8
_0-0_0
  6
CONTINUOUS
 62
    7
 10
261.42771899999997
 20
387.84997600000003
 40
0.5
 50
269.99999700000001
 51
0
  0
LINE
  8
_0-0_0
  6
CONTINUOUS
 62
    7
 10
261.92771899999997
 20
389.40570100000002
 11
261.92771899999997
 21
387.84997600000003
  0
ARC
  8
_0-0_0
  6
CONTINUOUS
 62
    7
 10
261.44081099999994
 20
389.40234400000003
 40
0.4869939999999999
 50
0.394923
 51
23.93947
  0
ARC
  8
_0-0_0
  6
CONTINUOUS
 62
    7
 10
261.42771899999997
 20
389.39999399999999
 40
0.5
 50
23.578231000000002
 51
90.000002999999992
  0
LINE
  8
_0-0_0
  6
CONTINUOUS
 62
    7
 10
261.92771899999997
 20
409.54998799999998
 11
261.92771899999997
 21
412.04998799999998
  0
ARC
  8
_0-0_0
  6
CONTINUOUS
 62
    7
 10
261.42771899999997
 20
412.04998799999998
 40
0.5
 50
0
 51
90.000003000000007
  0
LINE
  8
_0-0_0
  6
CONTINUOUS
 62
    7
 10
261.42771899999997
 20
396.25
 11
259.22770700000001
 21
396.25
  0
LINE
  8
_0-0_0
  6
CONTINUOUS
 62
    7
 10
261.92771899999997
 20
409.54998799999998
 11
261.92771899999997
 21
396.75
  0
LINE
  8
_0-0_0
  6
CONTINUOUS
 62
    7
 10
258.92771899999997
 20
395.94998199999998
 11
258.92771899999997
 21
393.37167399999998
  0
LINE
  8
_0-0_0
  6
CONTINUOUS
 62
    7
 10
188.89924599999998
 20
402.39999399999999
 11
180.95616099999998
 21
402.39999399999999
  0
ARC
  8
_0-0_0
  6
CONTINUOUS
 62
    7
 10
180.95616099999998
 20
402.89999399999999
 40
0.5
 50
210.00000299999999
 51
269.99999700000001
  0
LINE
  8
_0-0_0
  6
CONTINUOUS
 62
    7
 10
180.52314699999997
 20
402.64999399999999
 11
178.44468699999999
 21
406.25
  0
ARC
  8
_0-0_0
  6
CONTINUOUS
 62
    7
 10
178.87770099999997
 20
406.5
 40
0.5
 50
149.99999700000001
 51
210.00000299999996
  0
LINE
  8
_0-0_0
  6
CONTINUOUS
 62
    7
 10
178.44468699999999
 20
406.75
 11
180.52314699999997
 21
410.34997600000003
  0
ARC
  8
_0-0_0
  6
CONTINUOUS
 62
    7
 10
180.95616099999998
 20
410.09997600000003
 40
0.5
 50
90.000003000000007
 51
149.99999700000001
  0
LINE
  8
_0-0_0
  6
CONTINUOUS
 62
    7
 10
180.95616099999998
 20
410.59997600000003
 11
188.89924599999998
 21
410.59997600000003
  0
ARC
  8
_0-0_0
  6
CONTINUOUS
 62
    7
 10
188.89924599999998
 20
410.09997600000003
 40
0.5
 50
30.000001000000001
 51
90.000003000000007
  0
LINE
  8
_0-0_0
  6
CONTINUOUS
 62
    7
 10
189.33225999999999
 20
410.34997600000003
 11
191.41072099999997
 21
406.75
  0
ARC
  8
_0-0_0
  6
CONTINUOUS
 62
    7
 10
190.97770699999998
 20
406.5
 40
0.5
 50
329.99998900000003
 51
30.000000999999983
  0
LINE
  8
_0-0_0
  6
CONTINUOUS
 62
    7
 10
191.41072099999997
 20
406.25
 11
189.33225999999999
 21
402.64999399999999
  0
ARC
  8
_0-0_0
  6
CONTINUOUS
 62
    7
 10
188.89924599999998
 20
402.89999399999999
 40
0.5
 50
269.99999700000001
 51
329.99998900000003
  0
ARC
  8
_0-0_0
  6
CONTINUOUS
 62
    7
 10
236.89845299999999
 20
403
 40
0.5
 50
210.00000299999999
 51
269.99999700000001
  0
LINE
  8
_0-0_0
  6
CONTINUOUS
 62
    7
 10
236.46543899999998
 20
402.75
 11
234.44471699999997
 21
406.25
  0
ARC
  8
_0-0_0
  6
CONTINUOUS
 62
    7
 10
234.87770099999997
 20
406.5
 40
0.5
 50
149.99999700000001
 51
210.00000299999996
  0
LINE
  8
_0-0_0
  6
CONTINUOUS
 62
    7
 10
234.44471699999997
 20
406.75
 11
236.46543899999998
 21
410.25
  0
ARC
  8
_0-0_0
  6
CONTINUOUS
 62
    7
 10
236.89845299999999
 20
410
 40
0.5
 50
90.000003000000007
 51
149.99999700000001
  0
LINE
  8
_0-0_0
  6
CONTINUOUS
 62
    7
 10
236.89845299999999
 20
410.5
 11
244.95698499999997
 21
410.5
  0
ARC
  8
_0-0_0
  6
CONTINUOUS
 62
    7
 10
244.95698499999997
 20
410
 40
0.5
 50
30.000001000000001
 51
90.000003000000007
  0
LINE
  8
_0-0_0
  6
CONTINUOUS
 62
    7
 10
245.38999899999999
 20
410.25
 11
247.41072099999997
 21
406.75
  0
ARC
  8
_0-0_0
  6
CONTINUOUS
 62
    7
 10
246.97770699999998
 20
406.5
 40
0.5
 50
329.99998900000003
 51
30.000000999999983
  0
LINE
  8
_0-0_0
  6
CONTINUOUS
 62
    7
 10
247.41072099999997
 20
406.25
 11
245.38999899999999
 21
402.75
  0
ARC
  8
_0-0_0
  6
CONTINUOUS
 62
    7
 10
244.95698499999997
 20
403
 40
0.5
 50
269.99999700000001
 51
329.99998900000003
  0
LINE
  8
_0-0_0
  6
CONTINUOUS
 62
    7
 10
244.95698499999997
 20
402.5
 11
236.89845299999999
 21
402.5
  0
LINE
  8
_0-0_0
  6
CONTINUOUS
 62
    7
 10
152.61979699999995
 20
390.50262500000002
 11
152.73930299999995
 21
390.46701000000002
  0
LINE
  8
_0-0_0
  6
CONTINUOUS
 62
    7
 10
152.73930299999995
 20
390.46701000000002
 11
152.86085500000002
 21
390.43911700000001
  0
LINE
  8
_0-0_0
  6
CONTINUOUS
 62
    7
 10
152.86085500000002
 20
390.43911700000001
 11
152.98399299999994
 21
390.41906699999998
  0
LINE
  8
_0-0_0
  6
CONTINUOUS
 62
    7
 10
152.98399299999994
 20
390.41906699999998
 11
153.10820000000001
 21
390.40695199999999
  0
LINE
  8
_0-0_0
  6
CONTINUOUS
 62
    7
 10
153.10820000000001
 20
390.40695199999999
 11
153.23304699999994
 21
390.40283199999999
  0
LINE
  8
_0-0_0
  6
CONTINUOUS
 62
    7
 10
153.23304699999994
 20
390.40283199999999
 11
153.25227299999995
 21
390.40289300000001
  0
ARC
  8
_0-0_0
  6
CONTINUOUS
 62
    7
 10
153.25227299999995
 20
392.39999399999999
 40
2
 50
251.56498899999997
 51
269.99999700000001
  0
LINE
  8
_0-0_0
  6
CONTINUOUS
 62
    7
 10
146.92771899999997
 20
407.25003099999998
 11
146.92771899999997
 21
406.12899800000002
  0
LINE
  8
_0-0_0
  6
CONTINUOUS
 62
    7
 10
175.12770099999997
 20
411.89999399999999
 11
174.72770699999998
 21
411.89999399999999
  0
LINE
  8
_0-0_0
  6
CONTINUOUS
 62
    7
 10
175.12770099999997
 20
411.89999399999999
 11
175.12770099999997
 21
412.54998799999998
  0
ARC
  8
_0-0_0
  6
CONTINUOUS
 62
    7
 10
175.37770099999997
 20
412.54998799999998
 40
0.25
 50
90.000003000000007
 51
179.99999099999999
  0
LINE
  8
_0-0_0
  6
CONTINUOUS
 62
    7
 10
175.37770099999997
 20
412.79998799999998
 11
176.02772499999998
 21
412.79998799999998
  0
LINE
  8
_0-0_0
  6
CONTINUOUS
 62
    7
 10
176.02772499999998
 20
412.79998799999998
 11
176.02772499999998
 21
413.19998199999998
  0
LINE
  8
_0-0_0
  6
CONTINUOUS
 62
    7
 10
175.37770099999997
 20
413.19998199999998
 11
176.02772499999998
 21
413.19998199999998
  0
ARC
  8
_0-0_0
  6
CONTINUOUS
 62
    7
 10
175.37770099999997
 20
413.44998199999998
 40
0.25
 50
179.99999099999999
 51
269.99999700000001
  0
LINE
  8
_0-0_0
  6
CONTINUOUS
 62
    7
 10
175.12770099999997
 20
414.09997600000003
 11
175.12770099999997
 21
413.44998199999998
  0
LINE
  8
_0-0_0
  6
CONTINUOUS
 62
    7
 10
175.12770099999997
 20
414.09997600000003
 11
174.72770699999998
 21
414.09997600000003
  0
LINE
  8
_0-0_0
  6
CONTINUOUS
 62
    7
 10
174.72770699999998
 20
414.09997600000003
 11
174.72770699999998
 21
413.44998199999998
  0
ARC
  8
_0-0_0
  6
CONTINUOUS
 62
    7
 10
174.47770699999998
 20
413.44998199999998
 40
0.25
 50
269.99999700000001
 51
0
  0
LINE
  8
_0-0_0
  6
CONTINUOUS
 62
    7
 10
174.47770699999998
 20
413.19998199999998
 11
173.82771299999999
 21
413.19998199999998
  0
LINE
  8
_0-0_0
  6
CONTINUOUS
 62
    7
 10
173.82771299999999
 20
412.79998799999998
 11
173.82771299999999
 21
413.19998199999998
  0
LINE
  8
_0-0_0
  6
CONTINUOUS
 62
    7
 10
174.47770699999998
 20
412.79998799999998
 11
173.82771299999999
 21
412.79998799999998
  0
ARC
  8
_0-0_0
  6
CONTINUOUS
 62
    7
 10
174.47770699999998
 20
412.54998799999998
 40
0.25
 50
0
 51
90.000003000000007
  0
LINE
  8
_0-0_0
  6
CONTINUOUS
 62
    7
 10
174.72770699999998
 20
411.89999399999999
 11
174.72770699999998
 21
412.54998799999998
  0
LINE
  8
_0-0_0
  6
CONTINUOUS
 62
    7
 10
254.12770099999997
 20
411.89999399999999
 11
253.72770699999998
 21
411.89999399999999
  0
LINE
  8
_0-0_0
  6
CONTINUOUS
 62
    7
 10
254.12770099999997
 20
411.89999399999999
 11
254.12770099999997
 21
412.54998799999998
  0
ARC
  8
_0-0_0
  6
CONTINUOUS
 62
    7
 10
254.37770099999997
 20
412.54998799999998
 40
0.25
 50
90.000003000000007
 51
179.99999099999999
  0
LINE
  8
_0-0_0
  6
CONTINUOUS
 62
    7
 10
254.37770099999997
 20
412.79998799999998
 11
255.02772499999998
 21
412.79998799999998
  0
LINE
  8
_0-0_0
  6
CONTINUOUS
 62
    7
 10
255.02772499999998
 20
412.79998799999998
 11
255.02772499999998
 21
413.19998199999998
  0
LINE
  8
_0-0_0
  6
CONTINUOUS
 62
    7
 10
254.37770099999997
 20
413.19998199999998
 11
255.02772499999998
 21
413.19998199999998
  0
ARC
  8
_0-0_0
  6
CONTINUOUS
 62
    7
 10
254.37770099999997
 20
413.44998199999998
 40
0.25
 50
179.99999099999999
 51
269.99999700000001
  0
LINE
  8
_0-0_0
  6
CONTINUOUS
 62
    7
 10
254.12770099999997
 20
414.09997600000003
 11
254.12770099999997
 21
413.44998199999998
  0
LINE
  8
_0-0_0
  6
CONTINUOUS
 62
    7
 10
254.12770099999997
 20
414.09997600000003
 11
253.72770699999998
 21
414.09997600000003
  0
LINE
  8
_0-0_0
  6
CONTINUOUS
 62
    7
 10
253.72770699999998
 20
414.09997600000003
 11
253.72770699999998
 21
413.44998199999998
  0
ARC
  8
_0-0_0
  6
CONTINUOUS
 62
    7
 10
253.47770699999998
 20
413.44998199999998
 40
0.25
 50
269.99999700000001
 51
0
  0
LINE
  8
_0-0_0
  6
CONTINUOUS
 62
    7
 10
253.47770699999998
 20
413.19998199999998
 11
252.82771299999999
 21
413.19998199999998
  0
LINE
  8
_0-0_0
  6
CONTINUOUS
 62
    7
 10
252.82771299999999
 20
412.79998799999998
 11
252.82771299999999
 21
413.19998199999998
  0
LINE
  8
_0-0_0
  6
CONTINUOUS
 62
    7
 10
253.47770699999998
 20
412.79998799999998
 11
252.82771299999999
 21
412.79998799999998
  0
ARC
  8
_0-0_0
  6
CONTINUOUS
 62
    7
 10
253.47770699999998
 20
412.54998799999998
 40
0.25
 50
0
 51
90.000003000000007
  0
LINE
  8
_0-0_0
  6
CONTINUOUS
 62
    7
 10
253.72770699999998
 20
411.89999399999999
 11
253.72770699999998
 21
412.54998799999998
  0
LINE
  8
_0-0_0
  6
CONTINUOUS
 62
    7
 10
261.42771899999997
 20
387
 11
255.92771899999997
 21
387
  0
LINE
  8
_0-0_0
  6
CONTINUOUS
 62
    7
 10
261.92771899999997
 20
393.25
 11
261.92771899999997
 21
396.75
  0
LINE
  8
_0-0_0
  6
CONTINUOUS
 62
    7
 10
261.92771899999997
 20
393.25
 11
261.92771899999997
 21
392.89999399999999
  0
LINE
  8
_0-0_0
  6
CONTINUOUS
 62
    7
 10
261.92771899999997
 20
389.40570100000002
 11
261.92771899999997
 21
392.89999399999999
  0
LINE
  8
_0-0_0
  6
CONTINUOUS
 62
    7
 10
261.92771899999997
 20
387.557098
 11
261.92771899999997
 21
387.84997600000003
  0
LINE
  8
_0-0_0
  6
CONTINUOUS
 62
    7
 10
261.92771899999997
 20
387.557098
 11
261.92771899999997
 21
387.5
  0
LINE
  8
_0-0_0
  6
CONTINUOUS
 62
    7
 10
258.92771899999997
 20
391.82128899999998
 11
258.92771899999997
 21
393.37167399999998
  0
LINE
  8
_0-0_0
  6
CONTINUOUS
 62
    7
 10
258.92771899999997
 20
391.10012799999998
 11
258.92771899999997
 21
391.82128899999998
  0
ARC
  8
_0-0_0
  6
CONTINUOUS
 62
    7
 10
261.42771899999997
 20
396.75
 40
0.5
 50
269.99999700000001
 51
0
  0
ARC
  8
_0-0_0
  6
CONTINUOUS
 62
    7
 10
259.22770700000001
 20
395.94998199999998
 40
0.2999999999999999
 50
90.000003000000007
 51
179.99999099999999
  0
LINE
  8
_0-0_0
  6
CONTINUOUS
 62
    7
 10
148.29524199999997
 20
391.94415299999997
 11
152.61979699999995
 21
390.50262500000002
  0
LINE
  8
_0-0_0
  6
CONTINUOUS
 62
    7
 10
146.92771899999997
 20
393.84149200000002
 11
146.92771899999997
 21
397.19229100000001
  0
LINE
  8
_0-0_0
  6
CONTINUOUS
 62
    7
 10
146.92771899999997
 20
405.207672
 11
146.92771899999997
 21
406.12899800000002
  0
ARC
  8
_0-0_0
  6
CONTINUOUS
 62
    7
 10
148.92771899999997
 20
393.84149200000002
 40
2
 50
179.99999099999999
 51
251.56498899999997
  0
LINE
  8
_0-0_0
  6
CONTINUOUS
 62
    7
 10
131.92771899999997
 20
410.72543300000001
 11
131.92771899999997
 21
410.57870500000001
  0
LINE
  8
_0-0_0
  6
CONTINUOUS
 62
    7
 10
131.92771899999997
 20
410.915955
 11
131.92771899999997
 21
410.72543300000001
  0
LINE
  8
_0-0_0
  6
CONTINUOUS
 62
    7
 10
131.92771899999997
 20
411.09097300000002
 11
131.92771899999997
 21
410.915955
  0
LINE
  8
_0-0_0
  6
CONTINUOUS
 62
    7
 10
131.92771899999997
 20
411.24856599999998
 11
131.92771899999997
 21
411.09097300000002
  0
LINE
  8
_0-0_0
  6
CONTINUOUS
 62
    7
 10
131.92771899999997
 20
411.38699300000002
 11
131.92771899999997
 21
411.24856599999998
  0
LINE
  8
_0-0_0
  6
CONTINUOUS
 62
    7
 10
131.92771899999997
 20
411.50476099999997
 11
131.92771899999997
 21
411.38699300000002
  0
LINE
  8
_0-0_0
  6
CONTINUOUS
 62
    7
 10
131.92771899999997
 20
411.600525
 11
131.92771899999997
 21
411.50476099999997
  0
LINE
  8
_0-0_0
  6
CONTINUOUS
 62
    7
 10
131.92771899999997
 20
411.67330900000002
 11
131.92771899999997
 21
411.600525
  0
LINE
  8
_0-0_0
  6
CONTINUOUS
 62
    7
 10
131.92771899999997
 20
411.72228999999999
 11
131.92771899999997
 21
411.67330900000002
  0
LINE
  8
_0-0_0
  6
CONTINUOUS
 62
    7
 10
131.92771899999997
 20
411.74688700000002
 11
131.92771899999997
 21
411.72228999999999
  0
LINE
  8
_0-0_0
  6
CONTINUOUS
 62
    7
 10
131.92771899999997
 20
411.75
 11
131.92771899999997
 21
411.74688700000002
  0
LINE
  8
_0-0_0
  6
CONTINUOUS
 62
    7
 10
131.92771899999997
 20
407.25305200000003
 11
131.92771899999997
 21
407.25
  0
LINE
  8
_0-0_0
  6
CONTINUOUS
 62
    7
 10
131.92771899999997
 20
407.27767899999998
 11
131.92771899999997
 21
407.25305200000003
  0
LINE
  8
_0-0_0
  6
CONTINUOUS
 62
    7
 10
131.92771899999997
 20
407.32666
 11
131.92771899999997
 21
407.25
  0
LINE
  8
_0-0_0
  6
CONTINUOUS
 62
    7
 10
131.92771899999997
 20
407.39941399999998
 11
131.92771899999997
 21
407.32666
  0
LINE
  8
_0-0_0
  6
CONTINUOUS
 62
    7
 10
131.92771899999997
 20
407.49520899999999
 11
131.92771899999997
 21
407.39941399999998
  0
LINE
  8
_0-0_0
  6
CONTINUOUS
 62
    7
 10
131.92771899999997
 20
407.52542099999999
 11
131.92771899999997
 21
407.49520899999999
  0
LINE
  8
_0-0_0
  6
CONTINUOUS
 62
    7
 10
131.92771899999997
 20
407.612976
 11
131.92771899999997
 21
407.52542099999999
  0
LINE
  8
_0-0_0
  6
CONTINUOUS
 62
    7
 10
131.92771899999997
 20
407.75140399999998
 11
131.92771899999997
 21
407.612976
  0
LINE
  8
_0-0_0
  6
CONTINUOUS
 62
    7
 10
131.92771899999997
 20
407.908997
 11
131.92771899999997
 21
407.75140399999998
  0
LINE
  8
_0-0_0
  6
CONTINUOUS
 62
    7
 10
131.92771899999997
 20
408.08401500000002
 11
131.92771899999997
 21
407.908997
  0
LINE
  8
_0-0_0
  6
CONTINUOUS
 62
    7
 10
131.92771899999997
 20
408.27453600000001
 11
131.92771899999997
 21
408.08401500000002
  0
LINE
  8
_0-0_0
  6
CONTINUOUS
 62
    7
 10
131.92771899999997
 20
408.47851600000001
 11
131.92771899999997
 21
408.27453600000001
  0
LINE
  8
_0-0_0
  6
CONTINUOUS
 62
    7
 10
131.92771899999997
 20
408.69366500000001
 11
131.92771899999997
 21
408.47851600000001
  0
LINE
  8
_0-0_0
  6
CONTINUOUS
 62
    7
 10
131.92771899999997
 20
408.91763300000002
 11
131.92771899999997
 21
408.69366500000001
  0
LINE
  8
_0-0_0
  6
CONTINUOUS
 62
    7
 10
131.92771899999997
 20
409.14801
 11
131.92771899999997
 21
408.91763300000002
  0
LINE
  8
_0-0_0
  6
CONTINUOUS
 62
    7
 10
131.92771899999997
 20
409.38223299999999
 11
131.92771899999997
 21
409.14801
  0
LINE
  8
_0-0_0
  6
CONTINUOUS
 62
    7
 10
131.92771899999997
 20
409.61773699999998
 11
131.92771899999997
 21
409.38223299999999
  0
LINE
  8
_0-0_0
  6
CONTINUOUS
 62
    7
 10
131.92771899999997
 20
409.85195900000002
 11
131.92771899999997
 21
409.61773699999998
  0
LINE
  8
_0-0_0
  6
CONTINUOUS
 62
    7
 10
131.92771899999997
 20
410.082336
 11
131.92771899999997
 21
409.85195900000002
  0
LINE
  8
_0-0_0
  6
CONTINUOUS
 62
    7
 10
131.92771899999997
 20
410.30630500000001
 11
131.92771899999997
 21
410.082336
  0
LINE
  8
_0-0_0
  6
CONTINUOUS
 62
    7
 10
131.92771899999997
 20
410.52145400000001
 11
131.92771899999997
 21
410.30630500000001
  0
LINE
  8
_0-0_0
  6
CONTINUOUS
 62
    7
 10
131.92771899999997
 20
410.57870500000001
 11
131.92771899999997
 21
410.52145400000001
  0
LINE
  8
_0-0_0
  6
CONTINUOUS
 62
    7
 10
147.22770700000001
 20
403.41198700000001
 11
147.16892999999999
 21
403.65881300000001
  0
LINE
  8
_0-0_0
  6
CONTINUOUS
 62
    7
 10
147.16892999999999
 20
403.65881300000001
 11
147.11915599999998
 21
403.851135
  0
LINE
  8
_0-0_0
  6
CONTINUOUS
 62
    7
 10
147.11915599999998
 20
403.851135
 11
147.04801899999995
 21
404.11694299999999
  0
LINE
  8
_0-0_0
  6
CONTINUOUS
 62
    7
 10
147.04801899999995
 20
404.11694299999999
 11
147.01505999999995
 21
404.243652
  0
LINE
  8
_0-0_0
  6
CONTINUOUS
 62
    7
 10
147.01505999999995
 20
404.243652
 11
146.98979199999997
 21
404.34707600000002
  0
LINE
  8
_0-0_0
  6
CONTINUOUS
 62
    7
 10
146.98979199999997
 20
404.34707600000002
 11
146.967758
 21
404.44702100000001
  0
LINE
  8
_0-0_0
  6
CONTINUOUS
 62
    7
 10
146.967758
 20
404.44702100000001
 11
146.94639599999994
 21
404.564728
  0
LINE
  8
_0-0_0
  6
CONTINUOUS
 62
    7
 10
146.94639599999994
 20
404.564728
 11
146.93781999999999
 21
404.62686200000002
  0
LINE
  8
_0-0_0
  6
CONTINUOUS
 62
    7
 10
146.93781999999999
 20
404.62686200000002
 11
146.93174699999997
 21
404.68746900000002
  0
LINE
  8
_0-0_0
  6
CONTINUOUS
 62
    7
 10
146.93174699999997
 20
404.68746900000002
 11
146.92872599999998
 21
404.736694
  0
LINE
  8
_0-0_0
  6
CONTINUOUS
 62
    7
 10
146.92872599999998
 20
404.736694
 11
146.92771899999997
 21
404.78491200000002
  0
LINE
  8
_0-0_0
  6
CONTINUOUS
 62
    7
 10
147.22770700000001
 20
398.987976
 11
147.31117199999994
 21
399.36663800000002
  0
LINE
  8
_0-0_0
  6
CONTINUOUS
 62
    7
 10
147.31117199999994
 20
399.36663800000002
 11
147.35127199999999
 21
399.55816700000003
  0
LINE
  8
_0-0_0
  6
CONTINUOUS
 62
    7
 10
147.35127199999999
 20
399.55816700000003
 11
147.40733299999999
 21
399.848206
  0
LINE
  8
_0-0_0
  6
CONTINUOUS
 62
    7
 10
147.40733299999999
 20
399.848206
 11
147.444931
 21
400.06778000000003
  0
LINE
  8
_0-0_0
  6
CONTINUOUS
 62
    7
 10
147.444931
 20
400.06778000000003
 11
147.47758499999998
 21
400.28903200000002
  0
LINE
  8
_0-0_0
  6
CONTINUOUS
 62
    7
 10
147.47758499999998
 20
400.28903200000002
 11
147.50474499999996
 21
400.51583900000003
  0
LINE
  8
_0-0_0
  6
CONTINUOUS
 62
    7
 10
147.50474499999996
 20
400.51583900000003
 11
147.52482599999996
 21
400.743225
  0
LINE
  8
_0-0_0
  6
CONTINUOUS
 62
    7
 10
147.52482599999996
 20
400.743225
 11
147.53196700000001
 21
400.856964
  0
LINE
  8
_0-0_0
  6
CONTINUOUS
 62
    7
 10
147.53196700000001
 20
400.856964
 11
147.53712499999995
 21
400.970642
  0
LINE
  8
_0-0_0
  6
CONTINUOUS
 62
    7
 10
147.53712499999995
 20
400.970642
 11
147.54084799999998
 21
401.12207000000001
  0
LINE
  8
_0-0_0
  6
CONTINUOUS
 62
    7
 10
147.54084799999998
 20
401.12207000000001
 11
147.54090899999994
 21
401.27331500000003
  0
LINE
  8
_0-0_0
  6
CONTINUOUS
 62
    7
 10
147.54090899999994
 20
401.27331500000003
 11
147.53733799999998
 21
401.42437699999999
  0
LINE
  8
_0-0_0
  6
CONTINUOUS
 62
    7
 10
147.53733799999998
 20
401.42437699999999
 11
147.52781699999997
 21
401.61291499999999
  0
LINE
  8
_0-0_0
  6
CONTINUOUS
 62
    7
 10
147.52781699999997
 20
401.61291499999999
 11
147.51295499999998
 21
401.80117799999999
  0
LINE
  8
_0-0_0
  6
CONTINUOUS
 62
    7
 10
147.51295499999998
 20
401.80117799999999
 11
147.49302699999998
 21
401.989105
  0
LINE
  8
_0-0_0
  6
CONTINUOUS
 62
    7
 10
147.49302699999998
 20
401.989105
 11
147.47663899999998
 21
402.11798099999999
  0
LINE
  8
_0-0_0
  6
CONTINUOUS
 62
    7
 10
147.47663899999998
 20
402.11798099999999
 11
147.45823699999994
 21
402.24664300000001
  0
LINE
  8
_0-0_0
  6
CONTINUOUS
 62
    7
 10
147.45823699999994
 20
402.24664300000001
 11
147.43406699999997
 21
402.39855999999997
  0
LINE
  8
_0-0_0
  6
CONTINUOUS
 62
    7
 10
147.43406699999997
 20
402.39855999999997
 11
147.40766899999994
 21
402.54992700000003
  0
LINE
  8
_0-0_0
  6
CONTINUOUS
 62
    7
 10
147.40766899999994
 20
402.54992700000003
 11
147.35151699999994
 21
402.84054600000002
  0
LINE
  8
_0-0_0
  6
CONTINUOUS
 62
    7
 10
147.35151699999994
 20
402.84054600000002
 11
147.31135499999999
 21
403.03250100000002
  0
LINE
  8
_0-0_0
  6
CONTINUOUS
 62
    7
 10
147.31135499999999
 20
403.03250100000002
 11
147.22770700000001
 21
403.41198700000001
  0
LINE
  8
_0-0_0
  6
CONTINUOUS
 62
    7
 10
147.22770700000001
 20
398.987976
 11
147.16889900000001
 21
398.74111900000003
  0
LINE
  8
_0-0_0
  6
CONTINUOUS
 62
    7
 10
147.16889900000001
 20
398.74111900000003
 11
147.11915599999998
 21
398.54879799999998
  0
LINE
  8
_0-0_0
  6
CONTINUOUS
 62
    7
 10
147.11915599999998
 20
398.54879799999998
 11
147.04801899999995
 21
398.283051
  0
LINE
  8
_0-0_0
  6
CONTINUOUS
 62
    7
 10
147.04801899999995
 20
398.283051
 11
147.01505999999995
 21
398.156342
  0
LINE
  8
_0-0_0
  6
CONTINUOUS
 62
    7
 10
147.01505999999995
 20
398.156342
 11
146.98979199999997
 21
398.05291699999998
  0
LINE
  8
_0-0_0
  6
CONTINUOUS
 62
    7
 10
146.98979199999997
 20
398.05291699999998
 11
146.967758
 21
397.95294200000001
  0
LINE
  8
_0-0_0
  6
CONTINUOUS
 62
    7
 10
146.967758
 20
397.95294200000001
 11
146.94639599999994
 21
397.83523600000001
  0
LINE
  8
_0-0_0
  6
CONTINUOUS
 62
    7
 10
146.94639599999994
 20
397.83523600000001
 11
146.93781999999999
 21
397.77310199999999
  0
LINE
  8
_0-0_0
  6
CONTINUOUS
 62
    7
 10
146.93781999999999
 20
397.77310199999999
 11
146.93174699999997
 21
397.71249399999999
  0
LINE
  8
_0-0_0
  6
CONTINUOUS
 62
    7
 10
146.93174699999997
 20
397.71249399999999
 11
146.92872599999998
 21
397.66326900000001
  0
LINE
  8
_0-0_0
  6
CONTINUOUS
 62
    7
 10
146.92872599999998
 20
397.66326900000001
 11
146.92771899999997
 21
397.61505099999999
  0
ARC
  8
_0-0_0
  6
CONTINUOUS
 62
    7
 10
261.42771899999997
 20
387.5
 40
0.5
 50
269.99999700000001
 51
0
  0
LINE
  8
_0-0_0
  6
CONTINUOUS
 62
    7
 10
261.383377
 20
391.82128899999998
 11
261.383377
 21
395.14999399999999
  0
LINE
  8
_0-0_0
  6
CONTINUOUS
 62
    7
 10
261.383377
 20
390.64999399999999
 11
261.383377
 21
391.82128899999998
  0
CIRCLE
  8
_0-0_0
  6
CONTINUOUS
 62
    7
 10
184.92771899999997
 20
406.5
 40
2.5
  0
CIRCLE
  8
_0-0_0
  6
CONTINUOUS
 62
    7
 10
240.92771899999997
 20
406.5
 40
2.5
  0
LINE
  8
_0-0_0
  6
CONTINUOUS
 62
    7
 10
146.92771899999997
 20
397.30767800000001
 11
137.21989399999995
 21
397.30767800000001
  0
LINE
  8
_0-0_0
  6
CONTINUOUS
 62
    7
 10
137.21989399999995
 20
394.69998199999998
 11
137.16540499999996
 21
394.76992799999999
  0
LINE
  8
_0-0_0
  6
CONTINUOUS
 62
    7
 10
137.16540499999996
 20
394.76992799999999
 11
137.11430299999995
 21
394.83874500000002
  0
LINE
  8
_0-0_0
  6
CONTINUOUS
 62
    7
 10
137.11430299999995
 20
394.83874500000002
 11
137.06666599999994
 21
394.90625
  0
LINE
  8
_0-0_0
  6
CONTINUOUS
 62
    7
 10
137.06666599999994
 20
394.90625
 11
137.02217099999996
 21
394.97280899999998
  0
LINE
  8
_0-0_0
  6
CONTINUOUS
 62
    7
 10
137.02217099999996
 20
394.97280899999998
 11
136.96745299999998
 21
395.06033300000001
  0
LINE
  8
_0-0_0
  6
CONTINUOUS
 62
    7
 10
136.96745299999998
 20
395.06033300000001
 11
136.91793799999994
 21
395.14645400000001
  0
LINE
  8
_0-0_0
  6
CONTINUOUS
 62
    7
 10
136.91793799999994
 20
395.14645400000001
 11
136.87345899999997
 21
395.23126200000002
  0
LINE
  8
_0-0_0
  6
CONTINUOUS
 62
    7
 10
136.87345899999997
 20
395.23126200000002
 11
136.82649199999997
 21
395.33160400000003
  0
LINE
  8
_0-0_0
  6
CONTINUOUS
 62
    7
 10
136.82649199999997
 20
395.33160400000003
 11
136.78630099999998
 21
395.43051100000002
  0
LINE
  8
_0-0_0
  6
CONTINUOUS
 62
    7
 10
136.78630099999998
 20
395.43051100000002
 11
136.75263999999999
 21
395.52825899999999
  0
LINE
  8
_0-0_0
  6
CONTINUOUS
 62
    7
 10
136.75263999999999
 20
395.52825899999999
 11
136.72534199999996
 21
395.625092
  0
LINE
  8
_0-0_0
  6
CONTINUOUS
 62
    7
 10
136.72534199999996
 20
395.625092
 11
136.70429999999999
 21
395.72113000000002
  0
LINE
  8
_0-0_0
  6
CONTINUOUS
 62
    7
 10
136.70429999999999
 20
395.72113000000002
 11
136.68836999999996
 21
395.82498199999998
  0
LINE
  8
_0-0_0
  6
CONTINUOUS
 62
    7
 10
136.68836999999996
 20
395.82498199999998
 11
136.67961099999997
 21
395.928406
  0
LINE
  8
_0-0_0
  6
CONTINUOUS
 62
    7
 10
136.67961099999997
 20
395.928406
 11
136.67796299999998
 21
396.03164700000002
  0
LINE
  8
_0-0_0
  6
CONTINUOUS
 62
    7
 10
136.67796299999998
 20
396.03164700000002
 11
136.68344100000002
 21
396.13494900000001
  0
LINE
  8
_0-0_0
  6
CONTINUOUS
 62
    7
 10
136.68344100000002
 20
396.13494900000001
 11
136.69604499999997
 21
396.23852499999998
  0
LINE
  8
_0-0_0
  6
CONTINUOUS
 62
    7
 10
136.69604499999997
 20
396.23852499999998
 11
136.71586600000001
 21
396.34268200000002
  0
LINE
  8
_0-0_0
  6
CONTINUOUS
 62
    7
 10
136.71586600000001
 20
396.34268200000002
 11
136.74301099999997
 21
396.447632
  0
LINE
  8
_0-0_0
  6
CONTINUOUS
 62
    7
 10
136.74301099999997
 20
396.447632
 11
136.77766399999996
 21
396.55367999999999
  0
LINE
  8
_0-0_0
  6
CONTINUOUS
 62
    7
 10
136.77766399999996
 20
396.55367999999999
 11
136.82000699999998
 21
396.66104100000001
  0
LINE
  8
_0-0_0
  6
CONTINUOUS
 62
    7
 10
136.82000699999998
 20
396.66104100000001
 11
136.87031500000001
 21
396.77005000000003
  0
LINE
  8
_0-0_0
  6
CONTINUOUS
 62
    7
 10
136.87031500000001
 20
396.77005000000003
 11
136.924576
 21
396.873199
  0
LINE
  8
_0-0_0
  6
CONTINUOUS
 62
    7
 10
136.924576
 20
396.873199
 11
136.98628199999996
 21
396.97824100000003
  0
LINE
  8
_0-0_0
  6
CONTINUOUS
 62
    7
 10
136.98628199999996
 20
396.97824100000003
 11
137.05580099999997
 21
397.08548000000002
  0
LINE
  8
_0-0_0
  6
CONTINUOUS
 62
    7
 10
137.05580099999997
 20
397.08548000000002
 11
137.13351399999999
 21
397.19519000000003
  0
LINE
  8
_0-0_0
  6
CONTINUOUS
 62
    7
 10
137.13351399999999
 20
397.19519000000003
 11
137.21989399999995
 21
397.30767800000001
  0
LINE
  8
_0-0_0
  6
CONTINUOUS
 62
    7
 10
146.92771899999997
 20
394.69998199999998
 11
137.21989399999995
 21
394.69998199999998
  0
LINE
  8
_0-0_0
  6
CONTINUOUS
 62
    7
 10
146.92771899999997
 20
397.19229100000001
 11
146.92771899999997
 21
397.30767800000001
  0
LINE
  8
_0-0_0
  6
CONTINUOUS
 62
    7
 10
137.17771899999997
 20
394.69998199999998
 11
137.21989399999995
 21
394.69998199999998
  0
LINE
  8
_0-0_0
  6
CONTINUOUS
 62
    7
 10
146.92771899999997
 20
405.092285
 11
137.21989399999995
 21
405.092285
  0
LINE
  8
_0-0_0
  6
CONTINUOUS
 62
    7
 10
146.92771899999997
 20
405.207672
 11
146.92771899999997
 21
405.092285
  0
LINE
  8
_0-0_0
  6
CONTINUOUS
 62
    7
 10
137.21989399999995
 20
405.092285
 11
137.16540499999996
 21
405.16223100000002
  0
LINE
  8
_0-0_0
  6
CONTINUOUS
 62
    7
 10
137.16540499999996
 20
405.16223100000002
 11
137.11430299999995
 21
405.23104899999998
  0
LINE
  8
_0-0_0
  6
CONTINUOUS
 62
    7
 10
137.11430299999995
 20
405.23104899999998
 11
137.06666599999994
 21
405.29855300000003
  0
LINE
  8
_0-0_0
  6
CONTINUOUS
 62
    7
 10
137.06666599999994
 20
405.29855300000003
 11
137.02217099999996
 21
405.36511200000001
  0
LINE
  8
_0-0_0
  6
CONTINUOUS
 62
    7
 10
137.02217099999996
 20
405.36511200000001
 11
136.96745299999998
 21
405.45263699999998
  0
LINE
  8
_0-0_0
  6
CONTINUOUS
 62
    7
 10
136.96745299999998
 20
405.45263699999998
 11
136.91793799999994
 21
405.53875699999998
  0
LINE
  8
_0-0_0
  6
CONTINUOUS
 62
    7
 10
136.91793799999994
 20
405.53875699999998
 11
136.87345899999997
 21
405.62359600000002
  0
LINE
  8
_0-0_0
  6
CONTINUOUS
 62
    7
 10
136.87345899999997
 20
405.62359600000002
 11
136.82649199999997
 21
405.723907
  0
LINE
  8
_0-0_0
  6
CONTINUOUS
 62
    7
 10
136.82649199999997
 20
405.723907
 11
136.78630099999998
 21
405.82281499999999
  0
LINE
  8
_0-0_0
  6
CONTINUOUS
 62
    7
 10
136.78630099999998
 20
405.82281499999999
 11
136.75263999999999
 21
405.920593
  0
LINE
  8
_0-0_0
  6
CONTINUOUS
 62
    7
 10
136.75263999999999
 20
405.920593
 11
136.72534199999996
 21
406.01739500000002
  0
LINE
  8
_0-0_0
  6
CONTINUOUS
 62
    7
 10
136.72534199999996
 20
406.01739500000002
 11
136.70429999999999
 21
406.11343399999998
  0
LINE
  8
_0-0_0
  6
CONTINUOUS
 62
    7
 10
136.70429999999999
 20
406.11343399999998
 11
136.68836999999996
 21
406.217285
  0
LINE
  8
_0-0_0
  6
CONTINUOUS
 62
    7
 10
136.68836999999996
 20
406.217285
 11
136.67961099999997
 21
406.32070900000002
  0
LINE
  8
_0-0_0
  6
CONTINUOUS
 62
    7
 10
136.67961099999997
 20
406.32070900000002
 11
136.67796299999998
 21
406.42394999999999
  0
LINE
  8
_0-0_0
  6
CONTINUOUS
 62
    7
 10
136.67796299999998
 20
406.42394999999999
 11
136.68344100000002
 21
406.52725199999998
  0
LINE
  8
_0-0_0
  6
CONTINUOUS
 62
    7
 10
136.68344100000002
 20
406.52725199999998
 11
136.69604499999997
 21
406.63082900000001
  0
LINE
  8
_0-0_0
  6
CONTINUOUS
 62
    7
 10
136.69604499999997
 20
406.63082900000001
 11
136.71586600000001
 21
406.73498499999999
  0
LINE
  8
_0-0_0
  6
CONTINUOUS
 62
    7
 10
136.71586600000001
 20
406.73498499999999
 11
136.74301099999997
 21
406.83993500000003
  0
LINE
  8
_0-0_0
  6
CONTINUOUS
 62
    7
 10
136.74301099999997
 20
406.83993500000003
 11
136.77766399999996
 21
406.94598400000001
  0
LINE
  8
_0-0_0
  6
CONTINUOUS
 62
    7
 10
136.77766399999996
 20
406.94598400000001
 11
136.82000699999998
 21
407.05334499999998
  0
LINE
  8
_0-0_0
  6
CONTINUOUS
 62
    7
 10
136.82000699999998
 20
407.05334499999998
 11
136.87031500000001
 21
407.16235399999999
  0
LINE
  8
_0-0_0
  6
CONTINUOUS
 62
    7
 10
136.87031500000001
 20
407.16235399999999
 11
136.91601600000001
 21
407.25
  0
LINE
  8
_0-0_0
  6
CONTINUOUS
 62
    7
 10
131.92771899999997
 20
410.72543300000001
 11
131.67771899999997
 21
410.75
  0
LINE
  8
_0-0_0
  6
CONTINUOUS
 62
    7
 10
131.92771899999997
 20
410.52145400000001
 11
131.67771899999997
 21
410.75
  0
LINE
  8
_0-0_0
  6
CONTINUOUS
 62
    7
 10
131.92771899999997
 20
410.915955
 11
131.67771899999997
 21
410.96945199999999
  0
LINE
  8
_0-0_0
  6
CONTINUOUS
 62
    7
 10
131.92771899999997
 20
410.72543300000001
 11
131.67771899999997
 21
410.96945199999999
  0
LINE
  8
_0-0_0
  6
CONTINUOUS
 62
    7
 10
131.92771899999997
 20
411.09097300000002
 11
131.67771899999997
 21
411.172821
  0
LINE
  8
_0-0_0
  6
CONTINUOUS
 62
    7
 10
131.92771899999997
 20
410.915955
 11
131.67771899999997
 21
411.172821
  0
LINE
  8
_0-0_0
  6
CONTINUOUS
 62
    7
 10
131.92771899999997
 20
411.24856599999998
 11
131.67771899999997
 21
411.35784899999999
  0
LINE
  8
_0-0_0
  6
CONTINUOUS
 62
    7
 10
131.92771899999997
 20
411.09097300000002
 11
131.67771899999997
 21
411.35784899999999
  0
LINE
  8
_0-0_0
  6
CONTINUOUS
 62
    7
 10
131.92771899999997
 20
411.38699300000002
 11
131.67771899999997
 21
411.52252199999998
  0
LINE
  8
_0-0_0
  6
CONTINUOUS
 62
    7
 10
131.92771899999997
 20
411.24856599999998
 11
131.67771899999997
 21
411.52252199999998
  0
LINE
  8
_0-0_0
  6
CONTINUOUS
 62
    7
 10
131.92771899999997
 20
411.50476099999997
 11
131.67771899999997
 21
411.66503899999998
  0
LINE
  8
_0-0_0
  6
CONTINUOUS
 62
    7
 10
131.92771899999997
 20
411.38699300000002
 11
131.67771899999997
 21
411.66503899999998
  0
LINE
  8
_0-0_0
  6
CONTINUOUS
 62
    7
 10
131.92771899999997
 20
411.600525
 11
131.67771899999997
 21
411.78384399999999
  0
LINE
  8
_0-0_0
  6
CONTINUOUS
 62
    7
 10
131.92771899999997
 20
411.50476099999997
 11
131.67771899999997
 21
411.78384399999999
  0
LINE
  8
_0-0_0
  6
CONTINUOUS
 62
    7
 10
131.92771899999997
 20
411.67330900000002
 11
131.67771899999997
 21
411.87762500000002
  0
LINE
  8
_0-0_0
  6
CONTINUOUS
 62
    7
 10
131.92771899999997
 20
411.600525
 11
131.67771899999997
 21
411.87762500000002
  0
LINE
  8
_0-0_0
  6
CONTINUOUS
 62
    7
 10
131.92771899999997
 20
411.72228999999999
 11
131.67771899999997
 21
411.94534299999998
  0
LINE
  8
_0-0_0
  6
CONTINUOUS
 62
    7
 10
131.92771899999997
 20
411.67330900000002
 11
131.67771899999997
 21
411.94534299999998
  0
LINE
  8
_0-0_0
  6
CONTINUOUS
 62
    7
 10
131.92771899999997
 20
411.74688700000002
 11
131.67771899999997
 21
411.98629799999998
  0
LINE
  8
_0-0_0
  6
CONTINUOUS
 62
    7
 10
131.92771899999997
 20
411.72228999999999
 11
131.90147400000001
 21
411.75
  0
LINE
  8
_0-0_0
  6
CONTINUOUS
 62
    7
 10
131.92771899999997
 20
411.74688700000002
 11
131.924667
 21
411.75
  0
LINE
  8
_0-0_0
  6
CONTINUOUS
 62
    7
 10
131.92771899999997
 20
407.25305200000003
 11
131.67771899999997
 21
407
  0
LINE
  8
_0-0_0
  6
CONTINUOUS
 62
    7
 10
131.92771899999997
 20
407.27767899999998
 11
131.67771899999997
 21
407.01367199999999
  0
LINE
  8
_0-0_0
  6
CONTINUOUS
 62
    7
 10
131.92771899999997
 20
407.25305200000003
 11
131.67771899999997
 21
407.01367199999999
  0
LINE
  8
_0-0_0
  6
CONTINUOUS
 62
    7
 10
131.92771899999997
 20
407.32666
 11
131.67771899999997
 21
407.05462599999998
  0
LINE
  8
_0-0_0
  6
CONTINUOUS
 62
    7
 10
131.92771899999997
 20
407.27767899999998
 11
131.67771899999997
 21
407.05462599999998
  0
LINE
  8
_0-0_0
  6
CONTINUOUS
 62
    7
 10
131.92771899999997
 20
407.39941399999998
 11
131.67771899999997
 21
407.122345
  0
LINE
  8
_0-0_0
  6
CONTINUOUS
 62
    7
 10
131.92771899999997
 20
407.32666
 11
131.67771899999997
 21
407.122345
  0
LINE
  8
_0-0_0
  6
CONTINUOUS
 62
    7
 10
131.92771899999997
 20
407.49520899999999
 11
131.67771899999997
 21
407.21612499999998
  0
LINE
  8
_0-0_0
  6
CONTINUOUS
 62
    7
 10
131.92771899999997
 20
407.39941399999998
 11
131.67771899999997
 21
407.21612499999998
  0
LINE
  8
_0-0_0
  6
CONTINUOUS
 62
    7
 10
131.92771899999997
 20
407.49520899999999
 11
131.79775999999998
 21
407.41137700000002
  0
LINE
  8
_0-0_0
  6
CONTINUOUS
 62
    7
 10
131.92771899999997
 20
407.612976
 11
131.67771899999997
 21
407.33492999999999
  0
LINE
  8
_0-0_0
  6
CONTINUOUS
 62
    7
 10
131.79775999999998
 20
407.41137700000002
 11
131.67771899999997
 21
407.33492999999999
  0
LINE
  8
_0-0_0
  6
CONTINUOUS
 62
    7
 10
131.92771899999997
 20
407.75140399999998
 11
131.67771899999997
 21
407.47744799999998
  0
LINE
  8
_0-0_0
  6
CONTINUOUS
 62
    7
 10
131.92771899999997
 20
407.612976
 11
131.67771899999997
 21
407.47744799999998
  0
LINE
  8
_0-0_0
  6
CONTINUOUS
 62
    7
 10
131.92771899999997
 20
407.908997
 11
131.67771899999997
 21
407.64211999999998
  0
LINE
  8
_0-0_0
  6
CONTINUOUS
 62
    7
 10
131.92771899999997
 20
407.75140399999998
 11
131.67771899999997
 21
407.64211999999998
  0
LINE
  8
_0-0_0
  6
CONTINUOUS
 62
    7
 10
131.92771899999997
 20
408.08401500000002
 11
131.67771899999997
 21
407.82714800000002
  0
LINE
  8
_0-0_0
  6
CONTINUOUS
 62
    7
 10
131.92771899999997
 20
407.908997
 11
131.67771899999997
 21
407.82714800000002
  0
LINE
  8
_0-0_0
  6
CONTINUOUS
 62
    7
 10
131.92771899999997
 20
408.27453600000001
 11
131.67771899999997
 21
408.03051799999997
  0
LINE
  8
_0-0_0
  6
CONTINUOUS
 62
    7
 10
131.92771899999997
 20
408.08401500000002
 11
131.67771899999997
 21
408.03051799999997
  0
LINE
  8
_0-0_0
  6
CONTINUOUS
 62
    7
 10
131.92771899999997
 20
408.47851600000001
 11
131.67771899999997
 21
408.25
  0
LINE
  8
_0-0_0
  6
CONTINUOUS
 62
    7
 10
131.92771899999997
 20
408.27453600000001
 11
131.67771899999997
 21
408.25
  0
LINE
  8
_0-0_0
  6
CONTINUOUS
 62
    7
 10
131.92771899999997
 20
408.69366500000001
 11
131.67771899999997
 21
408.48315400000001
  0
LINE
  8
_0-0_0
  6
CONTINUOUS
 62
    7
 10
131.92771899999997
 20
408.47851600000001
 11
131.67771899999997
 21
408.48315400000001
  0
LINE
  8
_0-0_0
  6
CONTINUOUS
 62
    7
 10
131.92771899999997
 20
408.91763300000002
 11
131.67771899999997
 21
408.72744799999998
  0
LINE
  8
_0-0_0
  6
CONTINUOUS
 62
    7
 10
131.92771899999997
 20
408.69366500000001
 11
131.67771899999997
 21
408.72744799999998
  0
LINE
  8
_0-0_0
  6
CONTINUOUS
 62
    7
 10
131.92771899999997
 20
409.14801
 11
131.67771899999997
 21
408.98019399999998
  0
LINE
  8
_0-0_0
  6
CONTINUOUS
 62
    7
 10
131.92771899999997
 20
408.91763300000002
 11
131.67771899999997
 21
408.98019399999998
  0
LINE
  8
_0-0_0
  6
CONTINUOUS
 62
    7
 10
131.92771899999997
 20
409.38223299999999
 11
131.67771899999997
 21
409.23864700000001
  0
LINE
  8
_0-0_0
  6
CONTINUOUS
 62
    7
 10
131.92771899999997
 20
409.14801
 11
131.67771899999997
 21
409.23864700000001
  0
LINE
  8
_0-0_0
  6
CONTINUOUS
 62
    7
 10
131.92771899999997
 20
409.61773699999998
 11
131.67771899999997
 21
409.5
  0
LINE
  8
_0-0_0
  6
CONTINUOUS
 62
    7
 10
131.92771899999997
 20
409.38223299999999
 11
131.67771899999997
 21
409.5
  0
LINE
  8
_0-0_0
  6
CONTINUOUS
 62
    7
 10
131.92771899999997
 20
409.85195900000002
 11
131.67771899999997
 21
409.76129200000003
  0
LINE
  8
_0-0_0
  6
CONTINUOUS
 62
    7
 10
131.92771899999997
 20
409.61773699999998
 11
131.67771899999997
 21
409.76129200000003
  0
LINE
  8
_0-0_0
  6
CONTINUOUS
 62
    7
 10
131.92771899999997
 20
410.082336
 11
131.67771899999997
 21
410.01977499999998
  0
LINE
  8
_0-0_0
  6
CONTINUOUS
 62
    7
 10
131.92771899999997
 20
409.85195900000002
 11
131.67771899999997
 21
410.01977499999998
  0
LINE
  8
_0-0_0
  6
CONTINUOUS
 62
    7
 10
131.92771899999997
 20
410.30630500000001
 11
131.67771899999997
 21
410.27252199999998
  0
LINE
  8
_0-0_0
  6
CONTINUOUS
 62
    7
 10
131.92771899999997
 20
410.082336
 11
131.67771899999997
 21
410.27252199999998
  0
LINE
  8
_0-0_0
  6
CONTINUOUS
 62
    7
 10
131.92771899999997
 20
410.52145400000001
 11
131.67771899999997
 21
410.51681500000001
  0
LINE
  8
_0-0_0
  6
CONTINUOUS
 62
    7
 10
131.92771899999997
 20
410.30630500000001
 11
131.67771899999997
 21
410.51681500000001
  0
LINE
  8
_0-0_0
  6
CONTINUOUS
 62
    7
 10
146.92771899999997
 20
402.762024
 11
146.92771899999997
 21
403.80767800000001
  0
LINE
  8
_0-0_0
  6
CONTINUOUS
 62
    7
 10
146.92771899999997
 20
405.092285
 11
146.92771899999997
 21
403.80767800000001
  0
LINE
  8
_0-0_0
  6
CONTINUOUS
 62
    7
 10
146.92771899999997
 20
402.762024
 11
146.92771899999997
 21
399.63793900000002
  0
LINE
  8
_0-0_0
  6
CONTINUOUS
 62
    7
 10
146.92771899999997
 20
398.592285
 11
146.92771899999997
 21
397.30767800000001
  0
LINE
  8
_0-0_0
  6
CONTINUOUS
 62
    7
 10
146.92771899999997
 20
398.592285
 11
146.92771899999997
 21
399.63793900000002
  0
LINE
  8
_0-0_0
  6
CONTINUOUS
 62
    7
 10
261.52772499999998
 20
391.94113199999998
 11
261.52772499999998
 21
394.89999399999999
  0
LINE
  8
_0-0_0
  6
CONTINUOUS
 62
    7
 10
261.52772499999998
 20
390.89999399999999
 11
261.52772499999998
 21
391.94113199999998
  0
LINE
  8
_0-0_0
  6
CONTINUOUS
 62
    7
 10
146.92771899999997
 20
398.592285
 11
137.21989399999995
 21
398.592285
  0
ARC
  8
_0-0_0
  6
CONTINUOUS
 62
    7
 10
142.10160799999994
 20
397.94909699999999
 40
4.9238749999999998
 50
172.49424200000001
 51
181.535968
  0
ARC
  8
_0-0_0
  6
CONTINUOUS
 62
    7
 10
142.139633
 20
397.95404100000002
 40
4.9620009999999999
 50
181.58130700000004
 51
187.48478900000003
  0
LINE
  8
_0-0_0
  6
CONTINUOUS
 62
    7
 10
135.92771899999997
 20
398.46844499999997
 11
135.92771899999997
 21
395.94998199999998
  0
LINE
  8
_0-0_0
  6
CONTINUOUS
 62
    7
 10
135.92771899999997
 20
406.44998199999998
 11
135.92771899999997
 21
398.46844499999997
  0
LINE
  8
_0-0_0
  6
CONTINUOUS
 62
    7
 10
137.21989399999995
 20
403.80767800000001
 11
137.12554899999998
 21
403.56106599999998
  0
LINE
  8
_0-0_0
  6
CONTINUOUS
 62
    7
 10
137.12554899999998
 20
403.56106599999998
 11
137.04161099999999
 21
403.32110599999999
  0
LINE
  8
_0-0_0
  6
CONTINUOUS
 62
    7
 10
137.04161099999999
 20
403.32110599999999
 11
136.96745299999998
 21
403.086975
  0
LINE
  8
_0-0_0
  6
CONTINUOUS
 62
    7
 10
136.96745299999998
 20
403.086975
 11
136.90257299999996
 21
402.85794099999998
  0
LINE
  8
_0-0_0
  6
CONTINUOUS
 62
    7
 10
136.90257299999996
 20
402.85794099999998
 11
136.84652699999998
 21
402.63326999999998
  0
LINE
  8
_0-0_0
  6
CONTINUOUS
 62
    7
 10
136.84652699999998
 20
402.63326999999998
 11
136.79896499999995
 21
402.41229199999998
  0
LINE
  8
_0-0_0
  6
CONTINUOUS
 62
    7
 10
136.79896499999995
 20
402.41229199999998
 11
136.75955199999999
 21
402.194366
  0
LINE
  8
_0-0_0
  6
CONTINUOUS
 62
    7
 10
136.75955199999999
 20
402.194366
 11
136.72807299999999
 21
401.97891199999998
  0
LINE
  8
_0-0_0
  6
CONTINUOUS
 62
    7
 10
136.72807299999999
 20
401.97891199999998
 11
136.70429999999999
 21
401.76538099999999
  0
LINE
  8
_0-0_0
  6
CONTINUOUS
 62
    7
 10
136.70429999999999
 20
401.76538099999999
 11
136.68836999999996
 21
401.55767800000001
  0
LINE
  8
_0-0_0
  6
CONTINUOUS
 62
    7
 10
136.68836999999996
 20
401.55767800000001
 11
136.67961099999997
 21
401.35082999999997
  0
LINE
  8
_0-0_0
  6
CONTINUOUS
 62
    7
 10
136.67961099999997
 20
401.35082999999997
 11
136.67796299999998
 21
401.14434799999998
  0
LINE
  8
_0-0_0
  6
CONTINUOUS
 62
    7
 10
136.67796299999998
 20
401.14434799999998
 11
136.68344100000002
 21
400.93777499999999
  0
LINE
  8
_0-0_0
  6
CONTINUOUS
 62
    7
 10
136.68344100000002
 20
400.93777499999999
 11
136.69604499999997
 21
400.730591
  0
LINE
  8
_0-0_0
  6
CONTINUOUS
 62
    7
 10
136.69604499999997
 20
400.730591
 11
136.71586600000001
 21
400.52227799999997
  0
LINE
  8
_0-0_0
  6
CONTINUOUS
 62
    7
 10
136.71586600000001
 20
400.52227799999997
 11
136.74301099999997
 21
400.31237800000002
  0
LINE
  8
_0-0_0
  6
CONTINUOUS
 62
    7
 10
136.74301099999997
 20
400.31237800000002
 11
136.77766399999996
 21
400.10031099999998
  0
LINE
  8
_0-0_0
  6
CONTINUOUS
 62
    7
 10
136.77766399999996
 20
400.10031099999998
 11
136.82000699999998
 21
399.885559
  0
LINE
  8
_0-0_0
  6
CONTINUOUS
 62
    7
 10
136.82000699999998
 20
399.885559
 11
136.87031500000001
 21
399.66754200000003
  0
LINE
  8
_0-0_0
  6
CONTINUOUS
 62
    7
 10
136.87031500000001
 20
399.66754200000003
 11
136.924576
 21
399.46124300000002
  0
LINE
  8
_0-0_0
  6
CONTINUOUS
 62
    7
 10
136.924576
 20
399.46124300000002
 11
136.98628199999996
 21
399.25116000000003
  0
LINE
  8
_0-0_0
  6
CONTINUOUS
 62
    7
 10
136.98628199999996
 20
399.25116000000003
 11
137.05580099999997
 21
399.03668199999998
  0
LINE
  8
_0-0_0
  6
CONTINUOUS
 62
    7
 10
137.05580099999997
 20
399.03668199999998
 11
137.13351399999999
 21
398.81726099999997
  0
LINE
  8
_0-0_0
  6
CONTINUOUS
 62
    7
 10
137.13351399999999
 20
398.81726099999997
 11
137.21989399999995
 21
398.592285
  0
ARC
  8
_0-0_0
  6
CONTINUOUS
 62
    7
 10
142.09144600000002
 20
404.44998199999998
 40
4.9136889999999998
 50
172.48898299999999
 51
187.51101699999998
  0
LINE
  8
_0-0_0
  6
CONTINUOUS
 62
    7
 10
146.92771899999997
 20
403.80767800000001
 11
137.21989399999995
 21
403.80767800000001
  0
LINE
  8
_0-0_0
  6
CONTINUOUS
 62
    7
 10
122.17771899999997
 20
410.72543300000001
 11
122.42771899999997
 21
410.75
  0
LINE
  8
_0-0_0
  6
CONTINUOUS
 62
    7
 10
122.42771899999997
 20
410.75
 11
131.67771899999997
 21
410.75
  0
LINE
  8
_0-0_0
  6
CONTINUOUS
 62
    7
 10
122.17771899999997
 20
410.52145400000001
 11
122.42771899999997
 21
410.75
  0
LINE
  8
_0-0_0
  6
CONTINUOUS
 62
    7
 10
122.17771899999997
 20
410.52145400000001
 11
131.92771899999997
 21
410.52145400000001
  0
LINE
  8
_0-0_0
  6
CONTINUOUS
 62
    7
 10
122.17771899999997
 20
410.915955
 11
122.42771899999997
 21
410.96945199999999
  0
LINE
  8
_0-0_0
  6
CONTINUOUS
 62
    7
 10
122.42771899999997
 20
410.96945199999999
 11
131.67771899999997
 21
410.96945199999999
  0
LINE
  8
_0-0_0
  6
CONTINUOUS
 62
    7
 10
122.17771899999997
 20
410.72543300000001
 11
122.42771899999997
 21
410.96945199999999
  0
LINE
  8
_0-0_0
  6
CONTINUOUS
 62
    7
 10
122.17771899999997
 20
411.09097300000002
 11
122.42771899999997
 21
411.172821
  0
LINE
  8
_0-0_0
  6
CONTINUOUS
 62
    7
 10
122.42771899999997
 20
411.172821
 11
131.67771899999997
 21
411.172821
  0
LINE
  8
_0-0_0
  6
CONTINUOUS
 62
    7
 10
122.17771899999997
 20
410.915955
 11
122.42771899999997
 21
411.172821
  0
LINE
  8
_0-0_0
  6
CONTINUOUS
 62
    7
 10
122.17771899999997
 20
411.24856599999998
 11
122.42771899999997
 21
411.35784899999999
  0
LINE
  8
_0-0_0
  6
CONTINUOUS
 62
    7
 10
122.42771899999997
 20
411.35784899999999
 11
131.67771899999997
 21
411.35784899999999
  0
LINE
  8
_0-0_0
  6
CONTINUOUS
 62
    7
 10
122.17771899999997
 20
411.09097300000002
 11
122.42771899999997
 21
411.35784899999999
  0
LINE
  8
_0-0_0
  6
CONTINUOUS
 62
    7
 10
122.17771899999997
 20
411.38699300000002
 11
122.42771899999997
 21
411.52252199999998
  0
LINE
  8
_0-0_0
  6
CONTINUOUS
 62
    7
 10
122.42771899999997
 20
411.52252199999998
 11
131.67771899999997
 21
411.52252199999998
  0
LINE
  8
_0-0_0
  6
CONTINUOUS
 62
    7
 10
122.17771899999997
 20
411.24856599999998
 11
122.42771899999997
 21
411.52252199999998
  0
LINE
  8
_0-0_0
  6
CONTINUOUS
 62
    7
 10
122.17771899999997
 20
411.50476099999997
 11
122.42771899999997
 21
411.66503899999998
  0
LINE
  8
_0-0_0
  6
CONTINUOUS
 62
    7
 10
122.42771899999997
 20
411.66503899999998
 11
131.67771899999997
 21
411.66503899999998
  0
LINE
  8
_0-0_0
  6
CONTINUOUS
 62
    7
 10
122.17771899999997
 20
411.38699300000002
 11
122.42771899999997
 21
411.66503899999998
  0
LINE
  8
_0-0_0
  6
CONTINUOUS
 62
    7
 10
122.17771899999997
 20
411.600525
 11
122.42771899999997
 21
411.78384399999999
  0
LINE
  8
_0-0_0
  6
CONTINUOUS
 62
    7
 10
122.42771899999997
 20
411.78384399999999
 11
131.67771899999997
 21
411.78384399999999
  0
LINE
  8
_0-0_0
  6
CONTINUOUS
 62
    7
 10
122.17771899999997
 20
411.50476099999997
 11
122.42771899999997
 21
411.78384399999999
  0
LINE
  8
_0-0_0
  6
CONTINUOUS
 62
    7
 10
122.17771899999997
 20
411.67330900000002
 11
122.42771899999997
 21
411.87762500000002
  0
LINE
  8
_0-0_0
  6
CONTINUOUS
 62
    7
 10
122.42771899999997
 20
411.87762500000002
 11
131.67771899999997
 21
411.87762500000002
  0
LINE
  8
_0-0_0
  6
CONTINUOUS
 62
    7
 10
122.17771899999997
 20
411.600525
 11
122.42771899999997
 21
411.87762500000002
  0
LINE
  8
_0-0_0
  6
CONTINUOUS
 62
    7
 10
122.17771899999997
 20
411.72228999999999
 11
122.42771899999997
 21
411.94534299999998
  0
LINE
  8
_0-0_0
  6
CONTINUOUS
 62
    7
 10
122.42771899999997
 20
411.94534299999998
 11
131.67771899999997
 21
411.94534299999998
  0
LINE
  8
_0-0_0
  6
CONTINUOUS
 62
    7
 10
122.17771899999997
 20
411.67330900000002
 11
122.42771899999997
 21
411.94534299999998
  0
LINE
  8
_0-0_0
  6
CONTINUOUS
 62
    7
 10
122.17771899999997
 20
411.74688700000002
 11
122.42771899999997
 21
411.98629799999998
  0
LINE
  8
_0-0_0
  6
CONTINUOUS
 62
    7
 10
122.42771899999997
 20
411.98629799999998
 11
131.67771899999997
 21
411.98629799999998
  0
LINE
  8
_0-0_0
  6
CONTINUOUS
 62
    7
 10
122.17771899999997
 20
411.72228999999999
 11
122.42771899999997
 21
411.98629799999998
  0
LINE
  8
_0-0_0
  6
CONTINUOUS
 62
    7
 10
122.42771899999997
 20
412
 11
131.67771899999997
 21
412
  0
LINE
  8
_0-0_0
  6
CONTINUOUS
 62
    7
 10
122.17771899999997
 20
411.74688700000002
 11
122.42771899999997
 21
412
  0
LINE
  8
_0-0_0
  6
CONTINUOUS
 62
    7
 10
122.17771899999997
 20
407.25305200000003
 11
122.42771899999997
 21
407
  0
LINE
  8
_0-0_0
  6
CONTINUOUS
 62
    7
 10
122.42771899999997
 20
407
 11
131.67771899999997
 21
407
  0
LINE
  8
_0-0_0
  6
CONTINUOUS
 62
    7
 10
122.17771899999997
 20
407.27767899999998
 11
122.42771899999997
 21
407.01367199999999
  0
LINE
  8
_0-0_0
  6
CONTINUOUS
 62
    7
 10
122.42771899999997
 20
407.01367199999999
 11
131.67771899999997
 21
407.01367199999999
  0
LINE
  8
_0-0_0
  6
CONTINUOUS
 62
    7
 10
122.17771899999997
 20
407.25305200000003
 11
122.42771899999997
 21
407.01367199999999
  0
LINE
  8
_0-0_0
  6
CONTINUOUS
 62
    7
 10
122.17771899999997
 20
407.32666
 11
122.42771899999997
 21
407.05462599999998
  0
LINE
  8
_0-0_0
  6
CONTINUOUS
 62
    7
 10
122.42771899999997
 20
407.05462599999998
 11
131.67771899999997
 21
407.05462599999998
  0
LINE
  8
_0-0_0
  6
CONTINUOUS
 62
    7
 10
122.17771899999997
 20
407.27767899999998
 11
122.42771899999997
 21
407.05462599999998
  0
LINE
  8
_0-0_0
  6
CONTINUOUS
 62
    7
 10
122.17771899999997
 20
407.39941399999998
 11
122.42771899999997
 21
407.122345
  0
LINE
  8
_0-0_0
  6
CONTINUOUS
 62
    7
 10
122.42771899999997
 20
407.122345
 11
131.67771899999997
 21
407.122345
  0
LINE
  8
_0-0_0
  6
CONTINUOUS
 62
    7
 10
122.17771899999997
 20
407.32666
 11
122.42771899999997
 21
407.122345
  0
LINE
  8
_0-0_0
  6
CONTINUOUS
 62
    7
 10
122.17771899999997
 20
407.49520899999999
 11
122.42771899999997
 21
407.21612499999998
  0
LINE
  8
_0-0_0
  6
CONTINUOUS
 62
    7
 10
122.42771899999997
 20
407.21612499999998
 11
131.67771899999997
 21
407.21612499999998
  0
LINE
  8
_0-0_0
  6
CONTINUOUS
 62
    7
 10
122.17771899999997
 20
407.39941399999998
 11
122.42771899999997
 21
407.21612499999998
  0
LINE
  8
_0-0_0
  6
CONTINUOUS
 62
    7
 10
122.42771899999997
 20
407.33492999999999
 11
131.67771899999997
 21
407.33492999999999
  0
LINE
  8
_0-0_0
  6
CONTINUOUS
 62
    7
 10
122.30767800000001
 20
407.41137700000002
 11
122.42771899999997
 21
407.33492999999999
  0
LINE
  8
_0-0_0
  6
CONTINUOUS
 62
    7
 10
122.17771899999997
 20
407.49520899999999
 11
122.30767800000001
 21
407.41137700000002
  0
LINE
  8
_0-0_0
  6
CONTINUOUS
 62
    7
 10
122.17771899999997
 20
407.612976
 11
122.42771899999997
 21
407.33492999999999
  0
LINE
  8
_0-0_0
  6
CONTINUOUS
 62
    7
 10
122.17771899999997
 20
407.75140399999998
 11
122.42771899999997
 21
407.47744799999998
  0
LINE
  8
_0-0_0
  6
CONTINUOUS
 62
    7
 10
122.42771899999997
 20
407.47744799999998
 11
131.67771899999997
 21
407.47744799999998
  0
LINE
  8
_0-0_0
  6
CONTINUOUS
 62
    7
 10
122.17771899999997
 20
407.612976
 11
122.42771899999997
 21
407.47744799999998
  0
LINE
  8
_0-0_0
  6
CONTINUOUS
 62
    7
 10
122.17771899999997
 20
407.908997
 11
122.42771899999997
 21
407.64211999999998
  0
LINE
  8
_0-0_0
  6
CONTINUOUS
 62
    7
 10
122.42771899999997
 20
407.64211999999998
 11
131.67771899999997
 21
407.64211999999998
  0
LINE
  8
_0-0_0
  6
CONTINUOUS
 62
    7
 10
122.17771899999997
 20
407.75140399999998
 11
122.42771899999997
 21
407.64211999999998
  0
LINE
  8
_0-0_0
  6
CONTINUOUS
 62
    7
 10
122.17771899999997
 20
408.08401500000002
 11
122.42771899999997
 21
407.82714800000002
  0
LINE
  8
_0-0_0
  6
CONTINUOUS
 62
    7
 10
122.42771899999997
 20
407.82714800000002
 11
131.67771899999997
 21
407.82714800000002
  0
LINE
  8
_0-0_0
  6
CONTINUOUS
 62
    7
 10
122.17771899999997
 20
407.908997
 11
122.42771899999997
 21
407.82714800000002
  0
LINE
  8
_0-0_0
  6
CONTINUOUS
 62
    7
 10
122.17771899999997
 20
408.27453600000001
 11
122.42771899999997
 21
408.03051799999997
  0
LINE
  8
_0-0_0
  6
CONTINUOUS
 62
    7
 10
122.42771899999997
 20
408.03051799999997
 11
131.67771899999997
 21
408.03051799999997
  0
LINE
  8
_0-0_0
  6
CONTINUOUS
 62
    7
 10
122.17771899999997
 20
408.08401500000002
 11
122.42771899999997
 21
408.03051799999997
  0
LINE
  8
_0-0_0
  6
CONTINUOUS
 62
    7
 10
122.17771899999997
 20
408.47851600000001
 11
122.42771899999997
 21
408.25
  0
LINE
  8
_0-0_0
  6
CONTINUOUS
 62
    7
 10
122.42771899999997
 20
408.25
 11
131.67771899999997
 21
408.25
  0
LINE
  8
_0-0_0
  6
CONTINUOUS
 62
    7
 10
122.17771899999997
 20
408.47851600000001
 11
131.92771899999997
 21
408.47851600000001
  0
LINE
  8
_0-0_0
  6
CONTINUOUS
 62
    7
 10
122.17771899999997
 20
408.27453600000001
 11
122.42771899999997
 21
408.25
  0
LINE
  8
_0-0_0
  6
CONTINUOUS
 62
    7
 10
122.17771899999997
 20
408.69366500000001
 11
122.42771899999997
 21
408.48315400000001
  0
LINE
  8
_0-0_0
  6
CONTINUOUS
 62
    7
 10
122.42771899999997
 20
408.48315400000001
 11
131.67771899999997
 21
408.48315400000001
  0
LINE
  8
_0-0_0
  6
CONTINUOUS
 62
    7
 10
122.17771899999997
 20
408.69366500000001
 11
131.92771899999997
 21
408.69366500000001
  0
LINE
  8
_0-0_0
  6
CONTINUOUS
 62
    7
 10
122.17771899999997
 20
408.47851600000001
 11
122.42771899999997
 21
408.48315400000001
  0
LINE
  8
_0-0_0
  6
CONTINUOUS
 62
    7
 10
122.17771899999997
 20
408.91763300000002
 11
122.42771899999997
 21
408.72744799999998
  0
LINE
  8
_0-0_0
  6
CONTINUOUS
 62
    7
 10
122.42771899999997
 20
408.72744799999998
 11
131.67771899999997
 21
408.72744799999998
  0
LINE
  8
_0-0_0
  6
CONTINUOUS
 62
    7
 10
122.17771899999997
 20
408.91763300000002
 11
131.92771899999997
 21
408.91763300000002
  0
LINE
  8
_0-0_0
  6
CONTINUOUS
 62
    7
 10
122.17771899999997
 20
408.69366500000001
 11
122.42771899999997
 21
408.72744799999998
  0
LINE
  8
_0-0_0
  6
CONTINUOUS
 62
    7
 10
122.17771899999997
 20
409.14801
 11
122.42771899999997
 21
408.98019399999998
  0
LINE
  8
_0-0_0
  6
CONTINUOUS
 62
    7
 10
122.42771899999997
 20
408.98019399999998
 11
131.67771899999997
 21
408.98019399999998
  0
LINE
  8
_0-0_0
  6
CONTINUOUS
 62
    7
 10
122.17771899999997
 20
409.14801
 11
131.92771899999997
 21
409.14801
  0
LINE
  8
_0-0_0
  6
CONTINUOUS
 62
    7
 10
122.17771899999997
 20
408.91763300000002
 11
122.42771899999997
 21
408.98019399999998
  0
LINE
  8
_0-0_0
  6
CONTINUOUS
 62
    7
 10
122.17771899999997
 20
409.38223299999999
 11
122.42771899999997
 21
409.23864700000001
  0
LINE
  8
_0-0_0
  6
CONTINUOUS
 62
    7
 10
122.42771899999997
 20
409.23864700000001
 11
131.67771899999997
 21
409.23864700000001
  0
LINE
  8
_0-0_0
  6
CONTINUOUS
 62
    7
 10
122.17771899999997
 20
409.38223299999999
 11
131.92771899999997
 21
409.38223299999999
  0
LINE
  8
_0-0_0
  6
CONTINUOUS
 62
    7
 10
122.17771899999997
 20
409.14801
 11
122.42771899999997
 21
409.23864700000001
  0
LINE
  8
_0-0_0
  6
CONTINUOUS
 62
    7
 10
122.17771899999997
 20
409.61773699999998
 11
122.42771899999997
 21
409.5
  0
LINE
  8
_0-0_0
  6
CONTINUOUS
 62
    7
 10
122.42771899999997
 20
409.5
 11
131.67771899999997
 21
409.5
  0
LINE
  8
_0-0_0
  6
CONTINUOUS
 62
    7
 10
122.17771899999997
 20
409.61773699999998
 11
131.92771899999997
 21
409.61773699999998
  0
LINE
  8
_0-0_0
  6
CONTINUOUS
 62
    7
 10
122.17771899999997
 20
409.38223299999999
 11
122.42771899999997
 21
409.5
  0
LINE
  8
_0-0_0
  6
CONTINUOUS
 62
    7
 10
122.17771899999997
 20
409.85195900000002
 11
122.42771899999997
 21
409.76129200000003
  0
LINE
  8
_0-0_0
  6
CONTINUOUS
 62
    7
 10
122.42771899999997
 20
409.76129200000003
 11
131.67771899999997
 21
409.76129200000003
  0
LINE
  8
_0-0_0
  6
CONTINUOUS
 62
    7
 10
122.17771899999997
 20
409.85195900000002
 11
131.92771899999997
 21
409.85195900000002
  0
LINE
  8
_0-0_0
  6
CONTINUOUS
 62
    7
 10
122.17771899999997
 20
409.61773699999998
 11
122.42771899999997
 21
409.76129200000003
  0
LINE
  8
_0-0_0
  6
CONTINUOUS
 62
    7
 10
122.17771899999997
 20
410.082336
 11
122.42771899999997
 21
410.01977499999998
  0
LINE
  8
_0-0_0
  6
CONTINUOUS
 62
    7
 10
122.42771899999997
 20
410.01977499999998
 11
131.67771899999997
 21
410.01977499999998
  0
LINE
  8
_0-0_0
  6
CONTINUOUS
 62
    7
 10
122.17771899999997
 20
410.082336
 11
131.92771899999997
 21
410.082336
  0
LINE
  8
_0-0_0
  6
CONTINUOUS
 62
    7
 10
122.17771899999997
 20
409.85195900000002
 11
122.42771899999997
 21
410.01977499999998
  0
LINE
  8
_0-0_0
  6
CONTINUOUS
 62
    7
 10
122.17771899999997
 20
410.30630500000001
 11
122.42771899999997
 21
410.27252199999998
  0
LINE
  8
_0-0_0
  6
CONTINUOUS
 62
    7
 10
122.42771899999997
 20
410.27252199999998
 11
131.67771899999997
 21
410.27252199999998
  0
LINE
  8
_0-0_0
  6
CONTINUOUS
 62
    7
 10
122.17771899999997
 20
410.30630500000001
 11
131.92771899999997
 21
410.30630500000001
  0
LINE
  8
_0-0_0
  6
CONTINUOUS
 62
    7
 10
122.17771899999997
 20
410.082336
 11
122.42771899999997
 21
410.27252199999998
  0
LINE
  8
_0-0_0
  6
CONTINUOUS
 62
    7
 10
122.17771899999997
 20
410.52145400000001
 11
122.42771899999997
 21
410.51681500000001
  0
LINE
  8
_0-0_0
  6
CONTINUOUS
 62
    7
 10
122.42771899999997
 20
410.51681500000001
 11
131.67771899999997
 21
410.51681500000001
  0
LINE
  8
_0-0_0
  6
CONTINUOUS
 62
    7
 10
122.17771899999997
 20
410.30630500000001
 11
122.42771899999997
 21
410.51681500000001
  0
LINE
  8
_0-0_0
  6
CONTINUOUS
 62
    7
 10
121.92771899999997
 20
411.5
 11
121.92771899999997
 21
407.74481200000002
  0
LINE
  8
_0-0_0
  6
CONTINUOUS
 62
    7
 10
121.92771899999997
 20
407.74481200000002
 11
121.92771899999997
 21
407.5
  0
LINE
  8
_0-0_0
  6
CONTINUOUS
 62
    7
 10
135.52770999999996
 20
406.19998199999998
 11
135.52770999999996
 21
403.69998199999998
  0
LINE
  8
_0-0_0
  6
CONTINUOUS
 62
    7
 10
135.52770999999996
 20
403.69998199999998
 11
135.52770999999996
 21
396.19998199999998
  0
LINE
  8
_0-0_0
  6
CONTINUOUS
 62
    7
 10
134.72770700000001
 20
405.73809799999998
 11
134.72770700000001
 21
403.46905500000003
  0
LINE
  8
_0-0_0
  6
CONTINUOUS
 62
    7
 10
134.72770700000001
 20
403.46905500000003
 11
134.72770700000001
 21
396.66186499999998
  0
LINE
  8
_0-0_0
  6
CONTINUOUS
 62
    7
 10
76.727721999999972
 20
405.19998199999998
 11
76.727721999999972
 21
405.19863900000001
  0
LINE
  8
_0-0_0
  6
CONTINUOUS
 62
    7
 10
76.727721999999972
 20
405.19863900000001
 11
76.727721999999972
 21
397.19998199999998
  0
LINE
  8
_0-0_0
  6
CONTINUOUS
 62
    7
 10
131.92771899999997
 20
390.653076
 11
131.92771899999997
 21
390.64999399999999
  0
LINE
  8
_0-0_0
  6
CONTINUOUS
 62
    7
 10
131.92771899999997
 20
390.67770400000001
 11
131.92771899999997
 21
390.653076
  0
LINE
  8
_0-0_0
  6
CONTINUOUS
 62
    7
 10
131.92771899999997
 20
390.726654
 11
131.92771899999997
 21
390.64999399999999
  0
LINE
  8
_0-0_0
  6
CONTINUOUS
 62
    7
 10
131.92771899999997
 20
390.79943800000001
 11
131.92771899999997
 21
390.726654
  0
LINE
  8
_0-0_0
  6
CONTINUOUS
 62
    7
 10
131.92771899999997
 20
390.89520299999998
 11
131.92771899999997
 21
390.79943800000001
  0
LINE
  8
_0-0_0
  6
CONTINUOUS
 62
    7
 10
131.92771899999997
 20
390.92541499999999
 11
131.92771899999997
 21
390.89520299999998
  0
LINE
  8
_0-0_0
  6
CONTINUOUS
 62
    7
 10
131.92771899999997
 20
391.01297
 11
131.92771899999997
 21
390.92541499999999
  0
LINE
  8
_0-0_0
  6
CONTINUOUS
 62
    7
 10
131.92771899999997
 20
391.15139799999997
 11
131.92771899999997
 21
391.01297
  0
LINE
  8
_0-0_0
  6
CONTINUOUS
 62
    7
 10
131.92771899999997
 20
391.30898999999999
 11
131.92771899999997
 21
391.15139799999997
  0
LINE
  8
_0-0_0
  6
CONTINUOUS
 62
    7
 10
131.92771899999997
 20
391.48400900000001
 11
131.92771899999997
 21
391.30898999999999
  0
LINE
  8
_0-0_0
  6
CONTINUOUS
 62
    7
 10
131.92771899999997
 20
391.67453
 11
131.92771899999997
 21
391.48400900000001
  0
LINE
  8
_0-0_0
  6
CONTINUOUS
 62
    7
 10
131.92771899999997
 20
391.87851000000001
 11
131.92771899999997
 21
391.67453
  0
LINE
  8
_0-0_0
  6
CONTINUOUS
 62
    7
 10
131.92771899999997
 20
392.093658
 11
131.92771899999997
 21
391.87851000000001
  0
LINE
  8
_0-0_0
  6
CONTINUOUS
 62
    7
 10
131.92771899999997
 20
392.31762700000002
 11
131.92771899999997
 21
392.093658
  0
LINE
  8
_0-0_0
  6
CONTINUOUS
 62
    7
 10
131.92771899999997
 20
392.54800399999999
 11
131.92771899999997
 21
392.31762700000002
  0
LINE
  8
_0-0_0
  6
CONTINUOUS
 62
    7
 10
131.92771899999997
 20
392.78222699999998
 11
131.92771899999997
 21
392.54800399999999
  0
LINE
  8
_0-0_0
  6
CONTINUOUS
 62
    7
 10
131.92771899999997
 20
393.01773100000003
 11
131.92771899999997
 21
392.78222699999998
  0
LINE
  8
_0-0_0
  6
CONTINUOUS
 62
    7
 10
131.92771899999997
 20
393.25195300000001
 11
131.92771899999997
 21
393.01773100000003
  0
LINE
  8
_0-0_0
  6
CONTINUOUS
 62
    7
 10
131.92771899999997
 20
393.48232999999999
 11
131.92771899999997
 21
393.25195300000001
  0
LINE
  8
_0-0_0
  6
CONTINUOUS
 62
    7
 10
131.92771899999997
 20
393.706299
 11
131.92771899999997
 21
393.48232999999999
  0
LINE
  8
_0-0_0
  6
CONTINUOUS
 62
    7
 10
131.92771899999997
 20
393.921448
 11
131.92771899999997
 21
393.706299
  0
LINE
  8
_0-0_0
  6
CONTINUOUS
 62
    7
 10
131.92771899999997
 20
393.97869900000001
 11
131.92771899999997
 21
393.921448
  0
LINE
  8
_0-0_0
  6
CONTINUOUS
 62
    7
 10
131.92771899999997
 20
390.653076
 11
131.67771899999997
 21
390.39999399999999
  0
LINE
  8
_0-0_0
  6
CONTINUOUS
 62
    7
 10
131.92771899999997
 20
390.67770400000001
 11
131.67771899999997
 21
390.41369600000002
  0
LINE
  8
_0-0_0
  6
CONTINUOUS
 62
    7
 10
131.92771899999997
 20
390.653076
 11
131.67771899999997
 21
390.41369600000002
  0
LINE
  8
_0-0_0
  6
CONTINUOUS
 62
    7
 10
131.92771899999997
 20
390.726654
 11
131.67771899999997
 21
390.45461999999998
  0
LINE
  8
_0-0_0
  6
CONTINUOUS
 62
    7
 10
131.92771899999997
 20
390.67770400000001
 11
131.67771899999997
 21
390.45461999999998
  0
LINE
  8
_0-0_0
  6
CONTINUOUS
 62
    7
 10
131.92771899999997
 20
390.79943800000001
 11
131.67771899999997
 21
390.52233899999999
  0
LINE
  8
_0-0_0
  6
CONTINUOUS
 62
    7
 10
131.92771899999997
 20
390.726654
 11
131.67771899999997
 21
390.52233899999999
  0
LINE
  8
_0-0_0
  6
CONTINUOUS
 62
    7
 10
131.92771899999997
 20
390.89520299999998
 11
131.67771899999997
 21
390.61611900000003
  0
LINE
  8
_0-0_0
  6
CONTINUOUS
 62
    7
 10
131.92771899999997
 20
390.79943800000001
 11
131.67771899999997
 21
390.61611900000003
  0
LINE
  8
_0-0_0
  6
CONTINUOUS
 62
    7
 10
131.92771899999997
 20
390.89520299999998
 11
131.79775999999998
 21
390.81137100000001
  0
LINE
  8
_0-0_0
  6
CONTINUOUS
 62
    7
 10
131.92771899999997
 20
391.01297
 11
131.67771899999997
 21
390.73492399999998
  0
LINE
  8
_0-0_0
  6
CONTINUOUS
 62
    7
 10
131.79775999999998
 20
390.81137100000001
 11
131.67771899999997
 21
390.73492399999998
  0
LINE
  8
_0-0_0
  6
CONTINUOUS
 62
    7
 10
131.92771899999997
 20
391.15139799999997
 11
131.67771899999997
 21
390.87744099999998
  0
LINE
  8
_0-0_0
  6
CONTINUOUS
 62
    7
 10
131.92771899999997
 20
391.01297
 11
131.67771899999997
 21
390.87744099999998
  0
LINE
  8
_0-0_0
  6
CONTINUOUS
 62
    7
 10
131.92771899999997
 20
391.30898999999999
 11
131.67771899999997
 21
391.04211400000003
  0
LINE
  8
_0-0_0
  6
CONTINUOUS
 62
    7
 10
131.92771899999997
 20
391.15139799999997
 11
131.67771899999997
 21
391.04211400000003
  0
LINE
  8
_0-0_0
  6
CONTINUOUS
 62
    7
 10
131.92771899999997
 20
391.48400900000001
 11
131.67771899999997
 21
391.22717299999999
  0
LINE
  8
_0-0_0
  6
CONTINUOUS
 62
    7
 10
131.92771899999997
 20
391.30898999999999
 11
131.67771899999997
 21
391.22717299999999
  0
LINE
  8
_0-0_0
  6
CONTINUOUS
 62
    7
 10
131.92771899999997
 20
391.67453
 11
131.67771899999997
 21
391.43051100000002
  0
LINE
  8
_0-0_0
  6
CONTINUOUS
 62
    7
 10
131.92771899999997
 20
391.48400900000001
 11
131.67771899999997
 21
391.43051100000002
  0
LINE
  8
_0-0_0
  6
CONTINUOUS
 62
    7
 10
131.92771899999997
 20
391.87851000000001
 11
131.67771899999997
 21
391.64999399999999
  0
LINE
  8
_0-0_0
  6
CONTINUOUS
 62
    7
 10
131.92771899999997
 20
391.67453
 11
131.67771899999997
 21
391.64999399999999
  0
LINE
  8
_0-0_0
  6
CONTINUOUS
 62
    7
 10
131.92771899999997
 20
392.093658
 11
131.67771899999997
 21
391.88314800000001
  0
LINE
  8
_0-0_0
  6
CONTINUOUS
 62
    7
 10
131.92771899999997
 20
391.87851000000001
 11
131.67771899999997
 21
391.88314800000001
  0
LINE
  8
_0-0_0
  6
CONTINUOUS
 62
    7
 10
131.92771899999997
 20
392.31762700000002
 11
131.67771899999997
 21
392.12744099999998
  0
LINE
  8
_0-0_0
  6
CONTINUOUS
 62
    7
 10
131.92771899999997
 20
392.093658
 11
131.67771899999997
 21
392.12744099999998
  0
LINE
  8
_0-0_0
  6
CONTINUOUS
 62
    7
 10
131.92771899999997
 20
392.54800399999999
 11
131.67771899999997
 21
392.38018799999998
  0
LINE
  8
_0-0_0
  6
CONTINUOUS
 62
    7
 10
131.92771899999997
 20
392.31762700000002
 11
131.67771899999997
 21
392.38018799999998
  0
LINE
  8
_0-0_0
  6
CONTINUOUS
 62
    7
 10
131.92771899999997
 20
392.78222699999998
 11
131.67771899999997
 21
392.63867199999999
  0
LINE
  8
_0-0_0
  6
CONTINUOUS
 62
    7
 10
131.92771899999997
 20
392.54800399999999
 11
131.67771899999997
 21
392.63867199999999
  0
LINE
  8
_0-0_0
  6
CONTINUOUS
 62
    7
 10
131.92771899999997
 20
393.01773100000003
 11
131.67771899999997
 21
392.89999399999999
  0
LINE
  8
_0-0_0
  6
CONTINUOUS
 62
    7
 10
131.92771899999997
 20
392.78222699999998
 11
131.67771899999997
 21
392.89999399999999
  0
LINE
  8
_0-0_0
  6
CONTINUOUS
 62
    7
 10
131.92771899999997
 20
393.25195300000001
 11
131.67771899999997
 21
393.161316
  0
LINE
  8
_0-0_0
  6
CONTINUOUS
 62
    7
 10
131.92771899999997
 20
393.01773100000003
 11
131.67771899999997
 21
393.161316
  0
LINE
  8
_0-0_0
  6
CONTINUOUS
 62
    7
 10
131.92771899999997
 20
393.48232999999999
 11
131.67771899999997
 21
393.41976899999997
  0
LINE
  8
_0-0_0
  6
CONTINUOUS
 62
    7
 10
131.92771899999997
 20
393.25195300000001
 11
131.67771899999997
 21
393.41976899999997
  0
LINE
  8
_0-0_0
  6
CONTINUOUS
 62
    7
 10
131.92771899999997
 20
393.706299
 11
131.67771899999997
 21
393.67251599999997
  0
LINE
  8
_0-0_0
  6
CONTINUOUS
 62
    7
 10
131.92771899999997
 20
393.48232999999999
 11
131.67771899999997
 21
393.67251599999997
  0
LINE
  8
_0-0_0
  6
CONTINUOUS
 62
    7
 10
131.92771899999997
 20
393.921448
 11
131.67771899999997
 21
393.916809
  0
LINE
  8
_0-0_0
  6
CONTINUOUS
 62
    7
 10
131.92771899999997
 20
393.706299
 11
131.67771899999997
 21
393.916809
  0
LINE
  8
_0-0_0
  6
CONTINUOUS
 62
    7
 10
131.92771899999997
 20
394.125427
 11
131.92771899999997
 21
393.97869900000001
  0
LINE
  8
_0-0_0
  6
CONTINUOUS
 62
    7
 10
131.92771899999997
 20
394.125427
 11
131.67771899999997
 21
394.14999399999999
  0
LINE
  8
_0-0_0
  6
CONTINUOUS
 62
    7
 10
131.92771899999997
 20
393.921448
 11
131.67771899999997
 21
394.14999399999999
  0
LINE
  8
_0-0_0
  6
CONTINUOUS
 62
    7
 10
131.92771899999997
 20
394.31594799999999
 11
131.92771899999997
 21
394.125427
  0
LINE
  8
_0-0_0
  6
CONTINUOUS
 62
    7
 10
131.92771899999997
 20
394.49096700000001
 11
131.92771899999997
 21
394.31594799999999
  0
LINE
  8
_0-0_0
  6
CONTINUOUS
 62
    7
 10
131.92771899999997
 20
394.64855999999997
 11
131.92771899999997
 21
394.49096700000001
  0
LINE
  8
_0-0_0
  6
CONTINUOUS
 62
    7
 10
131.92771899999997
 20
394.78698700000001
 11
131.92771899999997
 21
394.64855999999997
  0
LINE
  8
_0-0_0
  6
CONTINUOUS
 62
    7
 10
131.92771899999997
 20
394.90475500000002
 11
131.92771899999997
 21
394.78698700000001
  0
LINE
  8
_0-0_0
  6
CONTINUOUS
 62
    7
 10
131.92771899999997
 20
395.00054899999998
 11
131.92771899999997
 21
394.90475500000002
  0
LINE
  8
_0-0_0
  6
CONTINUOUS
 62
    7
 10
131.92771899999997
 20
395.07330300000001
 11
131.92771899999997
 21
395.00054899999998
  0
LINE
  8
_0-0_0
  6
CONTINUOUS
 62
    7
 10
131.92771899999997
 20
395.12228399999998
 11
131.92771899999997
 21
395.07330300000001
  0
LINE
  8
_0-0_0
  6
CONTINUOUS
 62
    7
 10
131.92771899999997
 20
395.14999399999999
 11
131.92771899999997
 21
395.12228399999998
  0
LINE
  8
_0-0_0
  6
CONTINUOUS
 62
    7
 10
131.92771899999997
 20
395.14999399999999
 11
131.92771899999997
 21
395.14691199999999
  0
LINE
  8
_0-0_0
  6
CONTINUOUS
 62
    7
 10
122.17771899999997
 20
390.653076
 11
122.42771899999997
 21
390.39999399999999
  0
LINE
  8
_0-0_0
  6
CONTINUOUS
 62
    7
 10
122.42771899999997
 20
390.39999399999999
 11
131.67771899999997
 21
390.39999399999999
  0
LINE
  8
_0-0_0
  6
CONTINUOUS
 62
    7
 10
122.17771899999997
 20
390.67770400000001
 11
122.42771899999997
 21
390.41369600000002
  0
LINE
  8
_0-0_0
  6
CONTINUOUS
 62
    7
 10
122.42771899999997
 20
390.41369600000002
 11
131.67771899999997
 21
390.41369600000002
  0
LINE
  8
_0-0_0
  6
CONTINUOUS
 62
    7
 10
122.17771899999997
 20
390.653076
 11
122.42771899999997
 21
390.41369600000002
  0
LINE
  8
_0-0_0
  6
CONTINUOUS
 62
    7
 10
122.17771899999997
 20
390.726654
 11
122.42771899999997
 21
390.45461999999998
  0
LINE
  8
_0-0_0
  6
CONTINUOUS
 62
    7
 10
122.42771899999997
 20
390.45461999999998
 11
131.67771899999997
 21
390.45461999999998
  0
LINE
  8
_0-0_0
  6
CONTINUOUS
 62
    7
 10
122.17771899999997
 20
390.67770400000001
 11
122.42771899999997
 21
390.45461999999998
  0
LINE
  8
_0-0_0
  6
CONTINUOUS
 62
    7
 10
122.17771899999997
 20
390.79943800000001
 11
122.42771899999997
 21
390.52233899999999
  0
LINE
  8
_0-0_0
  6
CONTINUOUS
 62
    7
 10
122.42771899999997
 20
390.52233899999999
 11
131.67771899999997
 21
390.52233899999999
  0
LINE
  8
_0-0_0
  6
CONTINUOUS
 62
    7
 10
122.17771899999997
 20
390.726654
 11
122.42771899999997
 21
390.52233899999999
  0
LINE
  8
_0-0_0
  6
CONTINUOUS
 62
    7
 10
122.17771899999997
 20
390.89520299999998
 11
122.42771899999997
 21
390.61611900000003
  0
LINE
  8
_0-0_0
  6
CONTINUOUS
 62
    7
 10
122.42771899999997
 20
390.61611900000003
 11
131.67771899999997
 21
390.61611900000003
  0
LINE
  8
_0-0_0
  6
CONTINUOUS
 62
    7
 10
122.17771899999997
 20
390.79943800000001
 11
122.42771899999997
 21
390.61611900000003
  0
LINE
  8
_0-0_0
  6
CONTINUOUS
 62
    7
 10
122.42771899999997
 20
390.73492399999998
 11
131.67771899999997
 21
390.73492399999998
  0
LINE
  8
_0-0_0
  6
CONTINUOUS
 62
    7
 10
122.30767800000001
 20
390.81137100000001
 11
122.42771899999997
 21
390.73492399999998
  0
LINE
  8
_0-0_0
  6
CONTINUOUS
 62
    7
 10
122.17771899999997
 20
390.89520299999998
 11
122.30767800000001
 21
390.81137100000001
  0
LINE
  8
_0-0_0
  6
CONTINUOUS
 62
    7
 10
122.17771899999997
 20
391.01297
 11
122.42771899999997
 21
390.73492399999998
  0
LINE
  8
_0-0_0
  6
CONTINUOUS
 62
    7
 10
122.17771899999997
 20
391.15139799999997
 11
122.42771899999997
 21
390.87744099999998
  0
LINE
  8
_0-0_0
  6
CONTINUOUS
 62
    7
 10
122.42771899999997
 20
390.87744099999998
 11
131.67771899999997
 21
390.87744099999998
  0
LINE
  8
_0-0_0
  6
CONTINUOUS
 62
    7
 10
122.17771899999997
 20
391.01297
 11
122.42771899999997
 21
390.87744099999998
  0
LINE
  8
_0-0_0
  6
CONTINUOUS
 62
    7
 10
122.17771899999997
 20
391.30898999999999
 11
122.42771899999997
 21
391.04211400000003
  0
LINE
  8
_0-0_0
  6
CONTINUOUS
 62
    7
 10
122.42771899999997
 20
391.04211400000003
 11
131.67771899999997
 21
391.04211400000003
  0
LINE
  8
_0-0_0
  6
CONTINUOUS
 62
    7
 10
122.17771899999997
 20
391.15139799999997
 11
122.42771899999997
 21
391.04211400000003
  0
LINE
  8
_0-0_0
  6
CONTINUOUS
 62
    7
 10
122.17771899999997
 20
391.48400900000001
 11
122.42771899999997
 21
391.22717299999999
  0
LINE
  8
_0-0_0
  6
CONTINUOUS
 62
    7
 10
122.42771899999997
 20
391.22717299999999
 11
131.67771899999997
 21
391.22717299999999
  0
LINE
  8
_0-0_0
  6
CONTINUOUS
 62
    7
 10
122.17771899999997
 20
391.30898999999999
 11
122.42771899999997
 21
391.22717299999999
  0
LINE
  8
_0-0_0
  6
CONTINUOUS
 62
    7
 10
122.17771899999997
 20
391.67453
 11
122.42771899999997
 21
391.43051100000002
  0
LINE
  8
_0-0_0
  6
CONTINUOUS
 62
    7
 10
122.42771899999997
 20
391.43051100000002
 11
131.67771899999997
 21
391.43051100000002
  0
LINE
  8
_0-0_0
  6
CONTINUOUS
 62
    7
 10
122.17771899999997
 20
391.48400900000001
 11
122.42771899999997
 21
391.43051100000002
  0
LINE
  8
_0-0_0
  6
CONTINUOUS
 62
    7
 10
122.17771899999997
 20
391.87851000000001
 11
122.42771899999997
 21
391.64999399999999
  0
LINE
  8
_0-0_0
  6
CONTINUOUS
 62
    7
 10
122.42771899999997
 20
391.64999399999999
 11
131.67771899999997
 21
391.64999399999999
  0
LINE
  8
_0-0_0
  6
CONTINUOUS
 62
    7
 10
122.17771899999997
 20
391.87851000000001
 11
131.92771899999997
 21
391.87851000000001
  0
LINE
  8
_0-0_0
  6
CONTINUOUS
 62
    7
 10
122.17771899999997
 20
391.67453
 11
122.42771899999997
 21
391.64999399999999
  0
LINE
  8
_0-0_0
  6
CONTINUOUS
 62
    7
 10
122.17771899999997
 20
392.093658
 11
122.42771899999997
 21
391.88314800000001
  0
LINE
  8
_0-0_0
  6
CONTINUOUS
 62
    7
 10
122.42771899999997
 20
391.88314800000001
 11
131.67771899999997
 21
391.88314800000001
  0
LINE
  8
_0-0_0
  6
CONTINUOUS
 62
    7
 10
122.17771899999997
 20
392.093658
 11
131.92771899999997
 21
392.093658
  0
LINE
  8
_0-0_0
  6
CONTINUOUS
 62
    7
 10
122.17771899999997
 20
391.87851000000001
 11
122.42771899999997
 21
391.88314800000001
  0
LINE
  8
_0-0_0
  6
CONTINUOUS
 62
    7
 10
122.17771899999997
 20
392.31762700000002
 11
122.42771899999997
 21
392.12744099999998
  0
LINE
  8
_0-0_0
  6
CONTINUOUS
 62
    7
 10
122.42771899999997
 20
392.12744099999998
 11
131.67771899999997
 21
392.12744099999998
  0
LINE
  8
_0-0_0
  6
CONTINUOUS
 62
    7
 10
122.17771899999997
 20
392.31762700000002
 11
131.92771899999997
 21
392.31762700000002
  0
LINE
  8
_0-0_0
  6
CONTINUOUS
 62
    7
 10
122.17771899999997
 20
392.093658
 11
122.42771899999997
 21
392.12744099999998
  0
LINE
  8
_0-0_0
  6
CONTINUOUS
 62
    7
 10
122.17771899999997
 20
392.54800399999999
 11
122.42771899999997
 21
392.38018799999998
  0
LINE
  8
_0-0_0
  6
CONTINUOUS
 62
    7
 10
122.42771899999997
 20
392.38018799999998
 11
131.67771899999997
 21
392.38018799999998
  0
LINE
  8
_0-0_0
  6
CONTINUOUS
 62
    7
 10
122.17771899999997
 20
392.54800399999999
 11
131.92771899999997
 21
392.54800399999999
  0
LINE
  8
_0-0_0
  6
CONTINUOUS
 62
    7
 10
122.17771899999997
 20
392.31762700000002
 11
122.42771899999997
 21
392.38018799999998
  0
LINE
  8
_0-0_0
  6
CONTINUOUS
 62
    7
 10
122.17771899999997
 20
392.78222699999998
 11
122.42771899999997
 21
392.63867199999999
  0
LINE
  8
_0-0_0
  6
CONTINUOUS
 62
    7
 10
122.42771899999997
 20
392.63867199999999
 11
131.67771899999997
 21
392.63867199999999
  0
LINE
  8
_0-0_0
  6
CONTINUOUS
 62
    7
 10
122.17771899999997
 20
392.78222699999998
 11
131.92771899999997
 21
392.78222699999998
  0
LINE
  8
_0-0_0
  6
CONTINUOUS
 62
    7
 10
122.17771899999997
 20
392.54800399999999
 11
122.42771899999997
 21
392.63867199999999
  0
LINE
  8
_0-0_0
  6
CONTINUOUS
 62
    7
 10
122.17771899999997
 20
393.01773100000003
 11
122.42771899999997
 21
392.89999399999999
  0
LINE
  8
_0-0_0
  6
CONTINUOUS
 62
    7
 10
122.42771899999997
 20
392.89999399999999
 11
131.67771899999997
 21
392.89999399999999
  0
LINE
  8
_0-0_0
  6
CONTINUOUS
 62
    7
 10
122.17771899999997
 20
393.01773100000003
 11
131.92771899999997
 21
393.01773100000003
  0
LINE
  8
_0-0_0
  6
CONTINUOUS
 62
    7
 10
122.17771899999997
 20
392.78222699999998
 11
122.42771899999997
 21
392.89999399999999
  0
LINE
  8
_0-0_0
  6
CONTINUOUS
 62
    7
 10
122.17771899999997
 20
393.25195300000001
 11
122.42771899999997
 21
393.161316
  0
LINE
  8
_0-0_0
  6
CONTINUOUS
 62
    7
 10
122.42771899999997
 20
393.161316
 11
131.67771899999997
 21
393.161316
  0
LINE
  8
_0-0_0
  6
CONTINUOUS
 62
    7
 10
122.17771899999997
 20
393.25195300000001
 11
131.92771899999997
 21
393.25195300000001
  0
LINE
  8
_0-0_0
  6
CONTINUOUS
 62
    7
 10
122.17771899999997
 20
393.01773100000003
 11
122.42771899999997
 21
393.161316
  0
LINE
  8
_0-0_0
  6
CONTINUOUS
 62
    7
 10
122.17771899999997
 20
393.48232999999999
 11
122.42771899999997
 21
393.41976899999997
  0
LINE
  8
_0-0_0
  6
CONTINUOUS
 62
    7
 10
122.42771899999997
 20
393.41976899999997
 11
131.67771899999997
 21
393.41976899999997
  0
LINE
  8
_0-0_0
  6
CONTINUOUS
 62
    7
 10
122.17771899999997
 20
393.48232999999999
 11
131.92771899999997
 21
393.48232999999999
  0
LINE
  8
_0-0_0
  6
CONTINUOUS
 62
    7
 10
122.17771899999997
 20
393.25195300000001
 11
122.42771899999997
 21
393.41976899999997
  0
LINE
  8
_0-0_0
  6
CONTINUOUS
 62
    7
 10
122.17771899999997
 20
393.706299
 11
122.42771899999997
 21
393.67251599999997
  0
LINE
  8
_0-0_0
  6
CONTINUOUS
 62
    7
 10
122.42771899999997
 20
393.67251599999997
 11
131.67771899999997
 21
393.67251599999997
  0
LINE
  8
_0-0_0
  6
CONTINUOUS
 62
    7
 10
122.17771899999997
 20
393.706299
 11
131.92771899999997
 21
393.706299
  0
LINE
  8
_0-0_0
  6
CONTINUOUS
 62
    7
 10
122.17771899999997
 20
393.48232999999999
 11
122.42771899999997
 21
393.67251599999997
  0
LINE
  8
_0-0_0
  6
CONTINUOUS
 62
    7
 10
122.17771899999997
 20
393.921448
 11
122.42771899999997
 21
393.916809
  0
LINE
  8
_0-0_0
  6
CONTINUOUS
 62
    7
 10
122.42771899999997
 20
393.916809
 11
131.67771899999997
 21
393.916809
  0
LINE
  8
_0-0_0
  6
CONTINUOUS
 62
    7
 10
122.17771899999997
 20
393.921448
 11
131.92771899999997
 21
393.921448
  0
LINE
  8
_0-0_0
  6
CONTINUOUS
 62
    7
 10
122.17771899999997
 20
393.706299
 11
122.42771899999997
 21
393.916809
  0
LINE
  8
_0-0_0
  6
CONTINUOUS
 62
    7
 10
122.17771899999997
 20
394.125427
 11
122.42771899999997
 21
394.14999399999999
  0
LINE
  8
_0-0_0
  6
CONTINUOUS
 62
    7
 10
122.42771899999997
 20
394.14999399999999
 11
131.67771899999997
 21
394.14999399999999
  0
LINE
  8
_0-0_0
  6
CONTINUOUS
 62
    7
 10
122.17771899999997
 20
393.921448
 11
122.42771899999997
 21
394.14999399999999
  0
LINE
  8
_0-0_0
  6
CONTINUOUS
 62
    7
 10
131.92771899999997
 20
394.31594799999999
 11
131.67771899999997
 21
394.36944599999998
  0
LINE
  8
_0-0_0
  6
CONTINUOUS
 62
    7
 10
131.92771899999997
 20
394.125427
 11
131.67771899999997
 21
394.36944599999998
  0
LINE
  8
_0-0_0
  6
CONTINUOUS
 62
    7
 10
131.92771899999997
 20
394.49096700000001
 11
131.67771899999997
 21
394.57281499999999
  0
LINE
  8
_0-0_0
  6
CONTINUOUS
 62
    7
 10
131.92771899999997
 20
394.31594799999999
 11
131.67771899999997
 21
394.57281499999999
  0
LINE
  8
_0-0_0
  6
CONTINUOUS
 62
    7
 10
131.92771899999997
 20
394.64855999999997
 11
131.67771899999997
 21
394.75784299999998
  0
LINE
  8
_0-0_0
  6
CONTINUOUS
 62
    7
 10
131.92771899999997
 20
394.49096700000001
 11
131.67771899999997
 21
394.75784299999998
  0
LINE
  8
_0-0_0
  6
CONTINUOUS
 62
    7
 10
131.92771899999997
 20
394.78698700000001
 11
131.67771899999997
 21
394.92251599999997
  0
LINE
  8
_0-0_0
  6
CONTINUOUS
 62
    7
 10
131.92771899999997
 20
394.64855999999997
 11
131.67771899999997
 21
394.92251599999997
  0
LINE
  8
_0-0_0
  6
CONTINUOUS
 62
    7
 10
131.92771899999997
 20
394.90475500000002
 11
131.67771899999997
 21
395.06506300000001
  0
LINE
  8
_0-0_0
  6
CONTINUOUS
 62
    7
 10
131.92771899999997
 20
394.78698700000001
 11
131.67771899999997
 21
395.06506300000001
  0
LINE
  8
_0-0_0
  6
CONTINUOUS
 62
    7
 10
131.92771899999997
 20
395.00054899999998
 11
131.67771899999997
 21
395.18383799999998
  0
LINE
  8
_0-0_0
  6
CONTINUOUS
 62
    7
 10
131.92771899999997
 20
394.90475500000002
 11
131.67771899999997
 21
395.18383799999998
  0
LINE
  8
_0-0_0
  6
CONTINUOUS
 62
    7
 10
131.92771899999997
 20
395.07330300000001
 11
131.67771899999997
 21
395.27761800000002
  0
LINE
  8
_0-0_0
  6
CONTINUOUS
 62
    7
 10
131.92771899999997
 20
395.00054899999998
 11
131.67771899999997
 21
395.27761800000002
  0
LINE
  8
_0-0_0
  6
CONTINUOUS
 62
    7
 10
131.92771899999997
 20
395.12228399999998
 11
131.67771899999997
 21
395.34533699999997
  0
LINE
  8
_0-0_0
  6
CONTINUOUS
 62
    7
 10
131.92771899999997
 20
395.07330300000001
 11
131.67771899999997
 21
395.34533699999997
  0
LINE
  8
_0-0_0
  6
CONTINUOUS
 62
    7
 10
131.92771899999997
 20
395.14691199999999
 11
131.67771899999997
 21
395.38629200000003
  0
LINE
  8
_0-0_0
  6
CONTINUOUS
 62
    7
 10
131.92771899999997
 20
395.12228399999998
 11
131.67771899999997
 21
395.38629200000003
  0
LINE
  8
_0-0_0
  6
CONTINUOUS
 62
    7
 10
131.92771899999997
 20
395.14691199999999
 11
131.67771899999997
 21
395.39999399999999
  0
LINE
  8
_0-0_0
  6
CONTINUOUS
 62
    7
 10
121.92771899999997
 20
391.144836
 11
121.92771899999997
 21
390.89999399999999
  0
LINE
  8
_0-0_0
  6
CONTINUOUS
 62
    7
 10
122.17771899999997
 20
394.125427
 11
122.42771899999997
 21
394.36944599999998
  0
LINE
  8
_0-0_0
  6
CONTINUOUS
 62
    7
 10
122.17771899999997
 20
394.31594799999999
 11
122.42771899999997
 21
394.36944599999998
  0
LINE
  8
_0-0_0
  6
CONTINUOUS
 62
    7
 10
122.17771899999997
 20
394.31594799999999
 11
122.42771899999997
 21
394.57281499999999
  0
LINE
  8
_0-0_0
  6
CONTINUOUS
 62
    7
 10
122.17771899999997
 20
394.49096700000001
 11
122.42771899999997
 21
394.57281499999999
  0
LINE
  8
_0-0_0
  6
CONTINUOUS
 62
    7
 10
122.17771899999997
 20
394.49096700000001
 11
122.42771899999997
 21
394.75784299999998
  0
LINE
  8
_0-0_0
  6
CONTINUOUS
 62
    7
 10
122.17771899999997
 20
394.64855999999997
 11
122.42771899999997
 21
394.75784299999998
  0
LINE
  8
_0-0_0
  6
CONTINUOUS
 62
    7
 10
122.17771899999997
 20
394.64855999999997
 11
122.42771899999997
 21
394.92251599999997
  0
LINE
  8
_0-0_0
  6
CONTINUOUS
 62
    7
 10
122.17771899999997
 20
394.78698700000001
 11
122.42771899999997
 21
394.92251599999997
  0
LINE
  8
_0-0_0
  6
CONTINUOUS
 62
    7
 10
122.17771899999997
 20
394.78698700000001
 11
122.42771899999997
 21
395.06506300000001
  0
LINE
  8
_0-0_0
  6
CONTINUOUS
 62
    7
 10
122.17771899999997
 20
394.90475500000002
 11
122.42771899999997
 21
395.06506300000001
  0
LINE
  8
_0-0_0
  6
CONTINUOUS
 62
    7
 10
122.17771899999997
 20
394.90475500000002
 11
122.42771899999997
 21
395.18383799999998
  0
LINE
  8
_0-0_0
  6
CONTINUOUS
 62
    7
 10
122.17771899999997
 20
395.00054899999998
 11
122.42771899999997
 21
395.18383799999998
  0
LINE
  8
_0-0_0
  6
CONTINUOUS
 62
    7
 10
122.17771899999997
 20
395.00054899999998
 11
122.42771899999997
 21
395.27761800000002
  0
LINE
  8
_0-0_0
  6
CONTINUOUS
 62
    7
 10
122.17771899999997
 20
395.07330300000001
 11
122.42771899999997
 21
395.27761800000002
  0
LINE
  8
_0-0_0
  6
CONTINUOUS
 62
    7
 10
122.17771899999997
 20
395.07330300000001
 11
122.42771899999997
 21
395.34533699999997
  0
LINE
  8
_0-0_0
  6
CONTINUOUS
 62
    7
 10
122.17771899999997
 20
395.12228399999998
 11
122.42771899999997
 21
395.34533699999997
  0
LINE
  8
_0-0_0
  6
CONTINUOUS
 62
    7
 10
122.17771899999997
 20
395.12228399999998
 11
122.42771899999997
 21
395.38629200000003
  0
LINE
  8
_0-0_0
  6
CONTINUOUS
 62
    7
 10
122.17771899999997
 20
395.14691199999999
 11
122.42771899999997
 21
395.38629200000003
  0
LINE
  8
_0-0_0
  6
CONTINUOUS
 62
    7
 10
122.17771899999997
 20
395.14691199999999
 11
122.42771899999997
 21
395.39999399999999
  0
LINE
  8
_0-0_0
  6
CONTINUOUS
 62
    7
 10
121.92771899999997
 20
394.89999399999999
 11
121.92771899999997
 21
391.144836
  0
LINE
  8
_0-0_0
  6
CONTINUOUS
 62
    7
 10
122.42771899999997
 20
394.36944599999998
 11
131.67771899999997
 21
394.36944599999998
  0
LINE
  8
_0-0_0
  6
CONTINUOUS
 62
    7
 10
122.42771899999997
 20
394.57281499999999
 11
131.67771899999997
 21
394.57281499999999
  0
LINE
  8
_0-0_0
  6
CONTINUOUS
 62
    7
 10
122.42771899999997
 20
394.75784299999998
 11
131.67771899999997
 21
394.75784299999998
  0
LINE
  8
_0-0_0
  6
CONTINUOUS
 62
    7
 10
122.42771899999997
 20
394.92251599999997
 11
131.67771899999997
 21
394.92251599999997
  0
LINE
  8
_0-0_0
  6
CONTINUOUS
 62
    7
 10
122.42771899999997
 20
395.06506300000001
 11
131.67771899999997
 21
395.06506300000001
  0
LINE
  8
_0-0_0
  6
CONTINUOUS
 62
    7
 10
122.42771899999997
 20
395.18383799999998
 11
131.67771899999997
 21
395.18383799999998
  0
LINE
  8
_0-0_0
  6
CONTINUOUS
 62
    7
 10
122.42771899999997
 20
395.27761800000002
 11
131.67771899999997
 21
395.27761800000002
  0
LINE
  8
_0-0_0
  6
CONTINUOUS
 62
    7
 10
122.42771899999997
 20
395.34533699999997
 11
131.67771899999997
 21
395.34533699999997
  0
LINE
  8
_0-0_0
  6
CONTINUOUS
 62
    7
 10
122.42771899999997
 20
395.38629200000003
 11
131.67771899999997
 21
395.38629200000003
  0
LINE
  8
_0-0_0
  6
CONTINUOUS
 62
    7
 10
122.42771899999997
 20
395.39999399999999
 11
131.67771899999997
 21
395.39999399999999
  0
LINE
  8
_0-0_0
  6
CONTINUOUS
 62
    7
 10
157.92771899999997
 20
411.75
 11
131.924667
 21
411.75
  0
LINE
  8
_0-0_0
  6
CONTINUOUS
 62
    7
 10
157.92771899999997
 20
407.25
 11
131.92771899999997
 21
407.25
  0
LINE
  8
_0-0_0
  6
CONTINUOUS
 62
    7
 10
258.92771899999997
 20
395.14999399999999
 11
261.383377
 21
395.14999399999999
  0
LINE
  8
_0-0_0
  6
CONTINUOUS
 62
    7
 10
260.88230899999996
 20
390.64999399999999
 11
261.383377
 21
390.64999399999999
  0
LINE
  8
_0-0_0
  6
CONTINUOUS
 62
    7
 10
131.92771899999997
 20
411.75
 11
131.67771899999997
 21
412
  0
LINE
  8
_0-0_0
  6
CONTINUOUS
 62
    7
 10
131.92771899999997
 20
407.25
 11
131.67771899999997
 21
407
  0
LINE
  8
_0-0_0
  6
CONTINUOUS
 62
    7
 10
261.52772499999998
 20
394.89999399999999
 11
261.383377
 21
395.14999399999999
  0
LINE
  8
_0-0_0
  6
CONTINUOUS
 62
    7
 10
261.52772499999998
 20
390.89999399999999
 11
261.383377
 21
390.64999399999999
  0
LINE
  8
_0-0_0
  6
CONTINUOUS
 62
    7
 10
135.92771899999997
 20
395.94998199999998
 11
137.17771899999997
 21
394.69998199999998
  0
LINE
  8
_0-0_0
  6
CONTINUOUS
 62
    7
 10
135.92771899999997
 20
406.44998199999998
 11
136.72770700000001
 21
407.24996900000002
  0
LINE
  8
_0-0_0
  6
CONTINUOUS
 62
    7
 10
121.92771899999997
 20
411.5
 11
122.42756599999996
 21
411.99981700000001
  0
LINE
  8
_0-0_0
  6
CONTINUOUS
 62
    7
 10
121.92771899999997
 20
407.5
 11
122.42756599999996
 21
407.00015300000001
  0
LINE
  8
_0-0_0
  6
CONTINUOUS
 62
    7
 10
135.92771899999997
 20
406.19998199999998
 11
135.52770999999996
 21
406.19998199999998
  0
LINE
  8
_0-0_0
  6
CONTINUOUS
 62
    7
 10
135.92771899999997
 20
396.19998199999998
 11
135.52770999999996
 21
396.19998199999998
  0
LINE
  8
_0-0_0
  6
CONTINUOUS
 62
    7
 10
134.72770700000001
 20
405.73809799999998
 11
135.52770999999996
 21
406.19998199999998
  0
LINE
  8
_0-0_0
  6
CONTINUOUS
 62
    7
 10
134.72770700000001
 20
396.66186499999998
 11
135.52770999999996
 21
396.19998199999998
  0
LINE
  8
_0-0_0
  6
CONTINUOUS
 62
    7
 10
134.72770700000001
 20
405.19998199999998
 11
76.727721999999972
 21
405.19998199999998
  0
LINE
  8
_0-0_0
  6
CONTINUOUS
 62
    7
 10
134.72770700000001
 20
397.19998199999998
 11
76.727721999999972
 21
397.19998199999998
  0
LINE
  8
_0-0_0
  6
CONTINUOUS
 62
    7
 10
152.17768799999999
 20
390.64999399999999
 11
131.92771899999997
 21
390.64999399999999
  0
LINE
  8
_0-0_0
  6
CONTINUOUS
 62
    7
 10
131.92771899999997
 20
390.64999399999999
 11
131.67771899999997
 21
390.39999399999999
  0
LINE
  8
_0-0_0
  6
CONTINUOUS
 62
    7
 10
136.72770700000001
 20
395.14999399999999
 11
131.92771899999997
 21
395.14999399999999
  0
LINE
  8
_0-0_0
  6
CONTINUOUS
 62
    7
 10
131.92771899999997
 20
395.14999399999999
 11
131.67771899999997
 21
395.39999399999999
  0
LINE
  8
_0-0_0
  6
CONTINUOUS
 62
    7
 10
121.92771899999997
 20
390.89999399999999
 11
122.42756599999996
 21
390.40014600000001
  0
LINE
  8
_0-0_0
  6
CONTINUOUS
 62
    7
 10
121.92771899999997
 20
394.89999399999999
 11
122.42756599999996
 21
395.39984099999998
  0
LINE
  8
_0-0_0
  6
CONTINUOUS
 62
    7
 10
48.416716999999949
 20
443.39999399999999
 11
48.416716999999949
 21
430.39999399999999
  0
LINE
  8
_0-0_0
  6
CONTINUOUS
 62
    7
 10
48.616714000000002
 20
443.39999399999999
 11
48.416716999999949
 21
443.39999399999999
  0
LINE
  8
_0-0_0
  6
CONTINUOUS
 62
    7
 10
48.616714000000002
 20
430.39999399999999
 11
48.416716999999949
 21
430.39999399999999
  0
LINE
  8
_0-0_0
  6
CONTINUOUS
 62
    7
 10
48.616714000000002
 20
443.39999399999999
 11
48.616714000000002
 21
462
  0
LINE
  8
_0-0_0
  6
CONTINUOUS
 62
    7
 10
48.71671699999996
 20
462
 11
48.616714000000002
 21
462
  0
LINE
  8
_0-0_0
  6
CONTINUOUS
 62
    7
 10
48.71671699999996
 20
464.5
 11
48.71671699999996
 21
462
  0
ARC
  8
_0-0_0
  6
CONTINUOUS
 62
    7
 10
48.21671699999996
 20
464.5
 40
0.5
 50
0
 51
90.000003000000007
  0
LINE
  8
_0-0_0
  6
CONTINUOUS
 62
    7
 10
48.21671699999996
 20
465
 11
45.21671699999996
 21
465
  0
ARC
  8
_0-0_0
  6
CONTINUOUS
 62
    7
 10
45.21671699999996
 20
464.5
 40
0.5
 50
90.000003000000007
 51
179.99999099999999
  0
ARC
  8
_0-0_0
  6
CONTINUOUS
 62
    7
 10
40.71671699999996
 20
417
 40
0.5
 50
179.99999099999999
 51
269.99999700000001
  0
LINE
  8
_0-0_0
  6
CONTINUOUS
 62
    7
 10
43.21671699999996
 20
416.5
 11
40.71671699999996
 21
416.5
  0
ARC
  8
_0-0_0
  6
CONTINUOUS
 62
    7
 10
43.21671699999996
 20
417
 40
0.5
 50
269.99999700000001
 51
0
  0
LINE
  8
_0-0_0
  6
CONTINUOUS
 62
    7
 10
43.71671699999996
 20
422
 11
43.71671699999996
 21
417
  0
ARC
  8
_0-0_0
  6
CONTINUOUS
 62
    7
 10
44.21671699999996
 20
422
 40
0.5
 50
90.000003000000007
 51
179.99999099999999
  0
LINE
  8
_0-0_0
  6
CONTINUOUS
 62
    7
 10
48.21671699999996
 20
422.5
 11
44.21671699999996
 21
422.5
  0
ARC
  8
_0-0_0
  6
CONTINUOUS
 62
    7
 10
48.21671699999996
 20
423
 40
0.5
 50
269.99999700000001
 51
0
  0
LINE
  8
_0-0_0
  6
CONTINUOUS
 62
    7
 10
48.71671699999996
 20
426.19998199999998
 11
48.71671699999996
 21
423
  0
LINE
  8
_0-0_0
  6
CONTINUOUS
 62
    7
 10
48.616714000000002
 20
426.19998199999998
 11
48.71671699999996
 21
426.19998199999998
  0
LINE
  8
_0-0_0
  6
CONTINUOUS
 62
    7
 10
48.616714000000002
 20
426.19998199999998
 11
48.616714000000002
 21
430.39999399999999
  0
LINE
  8
_0-0_0
  6
CONTINUOUS
 62
    7
 10
47.71671699999996
 20
464.5
 11
29.916716999999949
 21
464.5
  0
ARC
  8
_0-0_0
  6
CONTINUOUS
 62
    7
 10
47.71671699999996
 20
464
 40
0.5
 50
0
 51
90.000003000000007
  0
LINE
  8
_0-0_0
  6
CONTINUOUS
 62
    7
 10
48.21671699999996
 20
464
 11
48.21671699999996
 21
423.5
  0
ARC
  8
_0-0_0
  6
CONTINUOUS
 62
    7
 10
47.71671699999996
 20
423.5
 40
0.5
 50
269.99999700000001
 51
0
  0
LINE
  8
_0-0_0
  6
CONTINUOUS
 62
    7
 10
44.21671699999996
 20
423
 11
47.71671699999996
 21
423
  0
ARC
  8
_0-0_0
  6
CONTINUOUS
 62
    7
 10
44.21671699999996
 20
422
 40
1
 50
90.000003000000007
 51
179.99999099999999
  0
LINE
  8
_0-0_0
  6
CONTINUOUS
 62
    7
 10
43.21671699999996
 20
422
 11
43.21671699999996
 21
417.5
  0
ARC
  8
_0-0_0
  6
CONTINUOUS
 62
    7
 10
42.71671699999996
 20
417.5
 40
0.5
 50
269.99999700000001
 51
0
  0
LINE
  8
_0-0_0
  6
CONTINUOUS
 62
    7
 10
25.71671699999996
 20
417
 11
42.71671699999996
 21
417
  0
LINE
  8
_0-0_0
  6
CONTINUOUS
 62
    7
 10
44.21671699999996
 20
464.69998199999998
 11
44.21671699999996
 21
464.5
  0
ARC
  8
_0-0_0
  6
CONTINUOUS
 62
    7
 10
43.916716999999949
 20
464.69998199999998
 40
0.2999999999999999
 50
0
 51
90.000003000000007
  0
LINE
  8
_0-0_0
  6
CONTINUOUS
 62
    7
 10
43.916716999999949
 20
465
 11
29.21671699999996
 21
465
  0
ARC
  8
_0-0_0
  6
CONTINUOUS
 62
    7
 10
29.21671699999996
 20
464.69998199999998
 40
0.2999999999999999
 50
90.000003000000007
 51
179.99999099999999
  0
LINE
  8
_0-0_0
  6
CONTINUOUS
 62
    7
 10
28.916716999999949
 20
464.69998199999998
 11
28.916716999999949
 21
461.5
  0
LINE
  8
_0-0_0
  6
CONTINUOUS
 62
    7
 10
28.916716999999949
 20
461.5
 11
23.21671699999996
 21
461.5
  0
LINE
  8
_0-0_0
  6
CONTINUOUS
 62
    7
 10
23.21671699999996
 20
461.5
 11
22.416715999999951
 21
460.69998199999998
  0
ARC
  8
_0-0_0
  6
CONTINUOUS
 62
    7
 10
29.916716999999949
 20
464
 40
0.5
 50
90.000003000000007
 51
179.99999099999999
  0
LINE
  8
_0-0_0
  6
CONTINUOUS
 62
    7
 10
29.416716999999949
 20
464
 11
29.416716999999949
 21
461.19998199999998
  0
ARC
  8
_0-0_0
  6
CONTINUOUS
 62
    7
 10
28.916716999999949
 20
461.19998199999998
 40
0.5
 50
269.99999700000001
 51
0
  0
LINE
  8
_0-0_0
  6
CONTINUOUS
 62
    7
 10
28.916716999999949
 20
460.69998199999998
 11
20.71671699999996
 21
460.69998199999998
  0
ARC
  8
_0-0_0
  6
CONTINUOUS
 62
    7
 10
20.71671699999996
 20
460.19998199999998
 40
0.5
 50
90.000003000000007
 51
179.99999099999999
  0
LINE
  8
_0-0_0
  6
CONTINUOUS
 62
    7
 10
20.21671699999996
 20
423.5
 11
20.21671699999996
 21
460.19998199999998
  0
ARC
  8
_0-0_0
  6
CONTINUOUS
 62
    7
 10
20.71671699999996
 20
423.5
 40
0.5
 50
179.99999099999999
 51
269.99999700000001
  0
LINE
  8
_0-0_0
  6
CONTINUOUS
 62
    7
 10
20.71671699999996
 20
423
 11
24.21671699999996
 21
423
  0
ARC
  8
_0-0_0
  6
CONTINUOUS
 62
    7
 10
24.21671699999996
 20
422
 40
1
 50
0
 51
90.000003000000007
  0
LINE
  8
_0-0_0
  6
CONTINUOUS
 62
    7
 10
25.21671699999996
 20
417.5
 11
25.21671699999996
 21
422
  0
ARC
  8
_0-0_0
  6
CONTINUOUS
 62
    7
 10
25.71671699999996
 20
417.5
 40
0.5
 50
179.99999099999999
 51
269.99999700000001
  0
CIRCLE
  8
_0-0_0
  6
CONTINUOUS
 62
    7
 10
34.21671699999996
 20
426
 40
2.0670000000000002
  0
LINE
  8
_0-0_0
  6
CONTINUOUS
 62
    7
 10
22.21671699999996
 20
461
 11
22.21671699999996
 21
460.69998199999998
  0
LINE
  8
_0-0_0
  6
CONTINUOUS
 62
    7
 10
22.21671699999996
 20
461
 11
20.21671699999996
 21
461
  0
ARC
  8
_0-0_0
  6
CONTINUOUS
 62
    7
 10
20.21671699999996
 20
460.5
 40
0.5
 50
90.000003000000007
 51
179.99999099999999
  0
LINE
  8
_0-0_0
  6
CONTINUOUS
 62
    7
 10
19.71671699999996
 20
460.5
 11
19.71671699999996
 21
423
  0
ARC
  8
_0-0_0
  6
CONTINUOUS
 62
    7
 10
20.21671699999996
 20
423
 40
0.5
 50
179.99999099999999
 51
269.99999700000001
  0
LINE
  8
_0-0_0
  6
CONTINUOUS
 62
    7
 10
24.21671699999996
 20
422.5
 11
20.21671699999996
 21
422.5
  0
ARC
  8
_0-0_0
  6
CONTINUOUS
 62
    7
 10
24.21671699999996
 20
422
 40
0.5
 50
0
 51
90.000003000000007
  0
LINE
  8
_0-0_0
  6
CONTINUOUS
 62
    7
 10
24.71671699999996
 20
417
 11
24.71671699999996
 21
422
  0
ARC
  8
_0-0_0
  6
CONTINUOUS
 62
    7
 10
25.21671699999996
 20
417
 40
0.5
 50
179.99999099999999
 51
269.99999700000001
  0
LINE
  8
_0-0_0
  6
CONTINUOUS
 62
    7
 10
25.21671699999996
 20
416.5
 11
27.71671699999996
 21
416.5
  0
ARC
  8
_0-0_0
  6
CONTINUOUS
 62
    7
 10
27.71671699999996
 20
417
 40
0.5
 50
269.99999700000001
 51
0
  0
LINE
  8
_0-0_0
  6
CONTINUOUS
 62
    7
 10
43.71671699999996
 20
417
 11
43.816714999999988
 21
417
  0
LINE
  8
_0-0_0
  6
CONTINUOUS
 62
    7
 10
43.816714999999988
 20
417
 11
43.816714999999988
 21
417.5
  0
LINE
  8
_0-0_0
  6
CONTINUOUS
 62
    7
 10
43.816714999999988
 20
421.5
 11
43.816714999999988
 21
417.5
  0
LINE
  8
_0-0_0
  6
CONTINUOUS
 62
    7
 10
43.71671699999996
 20
422
 11
43.816714999999988
 21
422
  0
LINE
  8
_0-0_0
  6
CONTINUOUS
 62
    7
 10
43.816714999999988
 20
421.5
 11
43.816714999999988
 21
422
  0
LINE
  8
_0-0_0
  6
CONTINUOUS
 62
    7
 10
43.916716999999949
 20
417.5
 11
43.916716999999949
 21
417.63034099999999
  0
LINE
  8
_0-0_0
  6
CONTINUOUS
 62
    7
 10
43.916716999999949
 20
421.13034099999999
 11
43.916716999999949
 21
417.63034099999999
  0
LINE
  8
_0-0_0
  6
CONTINUOUS
 62
    7
 10
43.816714999999988
 20
421.39999399999999
 11
43.916716999999949
 21
421.39999399999999
  0
LINE
  8
_0-0_0
  6
CONTINUOUS
 62
    7
 10
43.916716999999949
 20
421.13034099999999
 11
43.916716999999949
 21
421.39999399999999
  0
LINE
  8
_0-0_0
  6
CONTINUOUS
 62
    7
 10
43.816714999999988
 20
417.5
 11
43.916716999999949
 21
417.5
  0
LINE
  8
_0-0_0
  6
CONTINUOUS
 62
    7
 10
43.816714999999988
 20
417.5
 11
43.916716999999949
 21
417.5
  0
LINE
  8
_0-0_0
  6
CONTINUOUS
 62
    7
 10
25.416716999999949
 20
414.5
 11
29.616715999999997
 21
414.5
  0
LINE
  8
_0-0_0
  6
CONTINUOUS
 62
    7
 10
41.21671699999996
 20
414.5
 11
38.816714999999988
 21
414.5
  0
LINE
  8
_0-0_0
  6
CONTINUOUS
 62
    7
 10
41.21671699999996
 20
414.5
 11
42.416716999999949
 21
414.5
  0
ARC
  8
_0-0_0
  6
CONTINUOUS
 62
    7
 10
42.416716999999949
 20
414
 40
0.5
 50
0
 51
90.000003000000007
  0
ARC
  8
_0-0_0
  6
CONTINUOUS
 62
    7
 10
41.21671699999996
 20
414
 40
0.5
 50
90.000003000000007
 51
179.99999099999999
  0
ARC
  8
_0-0_0
  6
CONTINUOUS
 62
    7
 10
38.816714999999988
 20
415
 40
0.5
 50
179.99999099999999
 51
269.99999700000001
  0
ARC
  8
_0-0_0
  6
CONTINUOUS
 62
    7
 10
29.616715999999997
 20
415
 40
0.5
 50
269.99999700000001
 51
0
  0
ARC
  8
_0-0_0
  6
CONTINUOUS
 62
    7
 10
25.416716999999949
 20
414
 40
0.5
 50
90.000003000000007
 51
179.99999099999999
  0
LINE
  8
_0-0_0
  6
CONTINUOUS
 62
    7
 10
26.416716999999949
 20
415
 11
26.416716999999949
 21
414.5
  0
ARC
  8
_0-0_0
  6
CONTINUOUS
 62
    7
 10
26.916716999999949
 20
415
 40
0.5
 50
90.000003000000007
 51
179.99999099999999
  0
LINE
  8
_0-0_0
  6
CONTINUOUS
 62
    7
 10
28.416716999999949
 20
415.5
 11
26.916716999999949
 21
415.5
  0
ARC
  8
_0-0_0
  6
CONTINUOUS
 62
    7
 10
28.416716999999949
 20
416.5
 40
1
 50
269.99999700000001
 51
0
  0
LINE
  8
_0-0_0
  6
CONTINUOUS
 62
    7
 10
29.416716999999949
 20
417
 11
29.416716999999949
 21
416.5
  0
LINE
  8
_0-0_0
  6
CONTINUOUS
 62
    7
 10
29.916716999999949
 20
417
 11
29.916716999999949
 21
416
  0
ARC
  8
_0-0_0
  6
CONTINUOUS
 62
    7
 10
28.416716999999949
 20
416
 40
1.5
 50
269.99999700000001
 51
0
  0
ARC
  8
_0-0_0
  6
CONTINUOUS
 62
    7
 10
40.016715999999974
 20
416
 40
1.5
 50
179.99999099999999
 51
269.99999700000001
  0
LINE
  8
_0-0_0
  6
CONTINUOUS
 62
    7
 10
42.016715999999974
 20
415
 11
42.016715999999974
 21
414.5
  0
ARC
  8
_0-0_0
  6
CONTINUOUS
 62
    7
 10
41.516715999999974
 20
415
 40
0.5
 50
0
 51
90.000003000000007
  0
LINE
  8
_0-0_0
  6
CONTINUOUS
 62
    7
 10
40.016715999999974
 20
415.5
 11
41.516715999999974
 21
415.5
  0
ARC
  8
_0-0_0
  6
CONTINUOUS
 62
    7
 10
40.016715999999974
 20
416.5
 40
1
 50
179.99999099999999
 51
269.99999700000001
  0
LINE
  8
_0-0_0
  6
CONTINUOUS
 62
    7
 10
39.016715999999974
 20
417
 11
39.016715999999974
 21
416.5
  0
LINE
  8
_0-0_0
  6
CONTINUOUS
 62
    7
 10
38.516715999999974
 20
417
 11
38.516715999999974
 21
416
  0
LINE
  8
_0-0_0
  6
CONTINUOUS
 62
    7
 10
42.916716999999949
 20
387.5
 11
42.916716999999949
 21
388.39999399999999
  0
LINE
  8
_0-0_0
  6
CONTINUOUS
 62
    7
 10
42.916716999999949
 20
388.39999399999999
 11
42.916716999999949
 21
390.89999399999999
  0
LINE
  8
_0-0_0
  6
CONTINUOUS
 62
    7
 10
42.916716999999949
 20
390.89999399999999
 11
42.916716999999949
 21
411.5
  0
LINE
  8
_0-0_0
  6
CONTINUOUS
 62
    7
 10
42.916716999999949
 20
411.5
 11
42.916716999999949
 21
414
  0
LINE
  8
_0-0_0
  6
CONTINUOUS
 62
    7
 10
40.71671699999996
 20
414
 11
40.71671699999996
 21
412.754974
  0
LINE
  8
_0-0_0
  6
CONTINUOUS
 62
    7
 10
38.316716999999983
 20
415
 11
38.316716999999983
 21
416.79998799999998
  0
ARC
  8
_0-0_0
  6
CONTINUOUS
 62
    7
 10
37.816716999999983
 20
416.79998799999998
 40
0.5
 50
0
 51
23.579369
  0
LINE
  8
_0-0_0
  6
CONTINUOUS
 62
    7
 10
30.116715999999997
 20
415
 11
30.116715999999997
 21
416.79998799999998
  0
ARC
  8
_0-0_0
  6
CONTINUOUS
 62
    7
 10
30.616715999999997
 20
416.79998799999998
 40
0.5
 50
156.420635
 51
179.99999099999999
  0
LINE
  8
_0-0_0
  6
CONTINUOUS
 62
    7
 10
24.916716999999949
 20
387.5
 11
24.916716999999949
 21
397.69998199999998
  0
LINE
  8
_0-0_0
  6
CONTINUOUS
 62
    7
 10
24.916716999999949
 20
397.69998199999998
 11
24.916716999999949
 21
398.69998199999998
  0
LINE
  8
_0-0_0
  6
CONTINUOUS
 62
    7
 10
24.916716999999949
 20
398.69998199999998
 11
24.916716999999949
 21
403.69998199999998
  0
LINE
  8
_0-0_0
  6
CONTINUOUS
 62
    7
 10
24.916716999999949
 20
403.69998199999998
 11
24.916716999999949
 21
404.69998199999998
  0
LINE
  8
_0-0_0
  6
CONTINUOUS
 62
    7
 10
24.916716999999949
 20
414
 11
24.916716999999949
 21
404.69998199999998
  0
LINE
  8
_0-0_0
  6
CONTINUOUS
 62
    7
 10
43.71671699999996
 20
413
 11
42.916716999999949
 21
413
  0
LINE
  8
_0-0_0
  6
CONTINUOUS
 62
    7
 10
43.71671699999996
 20
413.79998799999998
 11
42.916716999999949
 21
413.79998799999998
  0
LINE
  8
_0-0_0
  6
CONTINUOUS
 62
    7
 10
43.71671699999996
 20
412.79998799999998
 11
43.71671699999996
 21
413.79998799999998
  0
LINE
  8
_0-0_0
  6
CONTINUOUS
 62
    7
 10
43.71671699999996
 20
394.19998199999998
 11
42.916716999999949
 21
394.19998199999998
  0
LINE
  8
_0-0_0
  6
CONTINUOUS
 62
    7
 10
43.71671699999996
 20
394.19998199999998
 11
43.71671699999996
 21
397.19998199999998
  0
LINE
  8
_0-0_0
  6
CONTINUOUS
 62
    7
 10
43.71671699999996
 20
409.43768299999999
 11
43.71671699999996
 21
397.19998199999998
  0
LINE
  8
_0-0_0
  6
CONTINUOUS
 62
    7
 10
43.71671699999996
 20
409.43768299999999
 11
43.71671699999996
 21
410.40045199999997
  0
LINE
  8
_0-0_0
  6
CONTINUOUS
 62
    7
 10
42.916716999999949
 20
410.40045199999997
 11
42.916716999999949
 21
413
  0
ARC
  8
_0-0_0
  6
CONTINUOUS
 62
    7
 10
37.301791999999978
 20
409.68203699999998
 40
5.7120379999999997
 50
18.558475999999999
 51
26.433648000000002
  0
ARC
  8
_0-0_0
  6
CONTINUOUS
 62
    7
 10
42.71671699999996
 20
411.5
 40
0.2
 50
269.99999700000001
 51
0
  0
ARC
  8
_0-0_0
  6
CONTINUOUS
 62
    7
 10
42.71671699999996
 20
390.89999399999999
 40
0.2
 50
0
 51
90.000003000000007
  0
ARC
  8
_0-0_0
  6
CONTINUOUS
 62
    7
 10
37.301907999999969
 20
392.71801799999997
 40
5.711964
 50
333.565022
 51
341.44031000000001
  0
ARC
  8
_0-0_0
  6
CONTINUOUS
 62
    7
 10
42.416716999999949
 20
388.39999399999999
 40
0.5
 50
269.99999700000001
 51
0
  0
LINE
  8
_0-0_0
  6
CONTINUOUS
 62
    7
 10
42.416716999999949
 20
387.5
 11
42.916716999999949
 21
387.5
  0
LINE
  8
_0-0_0
  6
CONTINUOUS
 62
    7
 10
42.916716999999949
 20
387.5
 11
42.416716999999949
 21
387
  0
ARC
  8
_0-0_0
  6
CONTINUOUS
 62
    7
 10
40.71671699999996
 20
410
 40
2.2999999999999998
 50
34.417387999999995
 51
79.713437000000013
  0
LINE
  8
_0-0_0
  6
CONTINUOUS
 62
    7
 10
42.655398999999989
 20
411.29998799999998
 11
42.614085999999986
 21
411.29998799999998
  0
LINE
  8
_0-0_0
  6
CONTINUOUS
 62
    7
 10
42.655398999999989
 20
411.29998799999998
 11
42.664958999999953
 21
411.30102499999998
  0
LINE
  8
_0-0_0
  6
CONTINUOUS
 62
    7
 10
42.664958999999953
 20
411.30102499999998
 11
42.674449999999979
 21
411.30419899999998
  0
LINE
  8
_0-0_0
  6
CONTINUOUS
 62
    7
 10
42.674449999999979
 20
411.30419899999998
 11
42.683703999999977
 21
411.30960099999999
  0
LINE
  8
_0-0_0
  6
CONTINUOUS
 62
    7
 10
42.683703999999977
 20
411.30960099999999
 11
42.692500999999993
 21
411.31710800000002
  0
LINE
  8
_0-0_0
  6
CONTINUOUS
 62
    7
 10
42.692500999999993
 20
411.31710800000002
 11
42.707900999999993
 21
411.33776899999998
  0
LINE
  8
_0-0_0
  6
CONTINUOUS
 62
    7
 10
42.707900999999993
 20
411.33776899999998
 11
42.71967699999999
 21
411.36502100000001
  0
LINE
  8
_0-0_0
  6
CONTINUOUS
 62
    7
 10
42.71967699999999
 20
411.36502100000001
 11
42.726855999999998
 21
411.397156
  0
LINE
  8
_0-0_0
  6
CONTINUOUS
 62
    7
 10
42.726855999999998
 20
411.397156
 11
42.728747999999996
 21
411.43221999999997
  0
LINE
  8
_0-0_0
  6
CONTINUOUS
 62
    7
 10
42.728747999999996
 20
411.43221999999997
 11
42.724902999999983
 21
411.46838400000001
  0
LINE
  8
_0-0_0
  6
CONTINUOUS
 62
    7
 10
42.724902999999983
 20
411.46838400000001
 11
42.71671699999996
 21
411.5
  0
ARC
  8
_0-0_0
  6
CONTINUOUS
 62
    7
 10
41.21671699999996
 20
412.754974
 40
0.5
 50
179.99999099999999
 51
259.71343899999994
  0
LINE
  8
_0-0_0
  6
CONTINUOUS
 62
    7
 10
25.71671699999996
 20
410
 11
25.71671699999996
 21
396.39999399999999
  0
LINE
  8
_0-0_0
  6
CONTINUOUS
 62
    7
 10
25.71671699999996
 20
395.89999399999999
 11
25.71671699999996
 21
396.39999399999999
  0
LINE
  8
_0-0_0
  6
CONTINUOUS
 62
    7
 10
25.71671699999996
 20
392.89999399999999
 11
25.71671699999996
 21
395.89999399999999
  0
LINE
  8
_0-0_0
  6
CONTINUOUS
 62
    7
 10
25.71671699999996
 20
392.39999399999999
 11
25.71671699999996
 21
392.89999399999999
  0
ARC
  8
_0-0_0
  6
CONTINUOUS
 62
    7
 10
27.71671699999996
 20
410
 40
2
 50
93.840255999999997
 51
179.99999099999999
  0
LINE
  8
_0-0_0
  6
CONTINUOUS
 62
    7
 10
27.71671699999996
 20
412
 11
36.71671699999996
 21
412
  0
LINE
  8
_0-0_0
  6
CONTINUOUS
 62
    7
 10
40.71671699999996
 20
412
 11
40.21671699999996
 21
412
  0
LINE
  8
_0-0_0
  6
CONTINUOUS
 62
    7
 10
40.21671699999996
 20
412
 11
37.21671699999996
 21
412
  0
LINE
  8
_0-0_0
  6
CONTINUOUS
 62
    7
 10
36.71671699999996
 20
412
 11
37.21671699999996
 21
412
  0
ARC
  8
_0-0_0
  6
CONTINUOUS
 62
    7
 10
40.71671699999996
 20
410
 40
2
 50
0
 51
90.000003000000007
  0
LINE
  8
_0-0_0
  6
CONTINUOUS
 62
    7
 10
24.71671699999996
 20
413
 11
24.916716999999949
 21
413
  0
LINE
  8
_0-0_0
  6
CONTINUOUS
 62
    7
 10
24.71671699999996
 20
413.79998799999998
 11
24.916716999999949
 21
413.79998799999998
  0
LINE
  8
_0-0_0
  6
CONTINUOUS
 62
    7
 10
24.71671699999996
 20
413.79998799999998
 11
24.71671699999996
 21
413.00012199999998
  0
LINE
  8
_0-0_0
  6
CONTINUOUS
 62
    7
 10
24.71671699999996
 20
394.19998199999998
 11
24.916716999999949
 21
394.19998199999998
  0
LINE
  8
_0-0_0
  6
CONTINUOUS
 62
    7
 10
24.71671699999996
 20
397.19998199999998
 11
24.71671699999996
 21
394.19998199999998
  0
LINE
  8
_0-0_0
  6
CONTINUOUS
 62
    7
 10
24.71671699999996
 20
409.43768299999999
 11
24.71671699999996
 21
397.19998199999998
  0
LINE
  8
_0-0_0
  6
CONTINUOUS
 62
    7
 10
24.71671699999996
 20
410.40045199999997
 11
24.71671699999996
 21
409.43768299999999
  0
ARC
  8
_0-0_0
  6
CONTINUOUS
 62
    7
 10
25.416716999999949
 20
403.69998199999998
 40
0.5
 50
90.000003000000007
 51
179.99999099999999
  0
ARC
  8
_0-0_0
  6
CONTINUOUS
 62
    7
 10
25.416716999999949
 20
398.69998199999998
 40
0.5
 50
179.99999099999999
 51
269.99999700000001
  0
LINE
  8
_0-0_0
  6
CONTINUOUS
 62
    7
 10
24.916716999999949
 20
387.5
 11
25.416716999999949
 21
387.5
  0
LINE
  8
_0-0_0
  6
CONTINUOUS
 62
    7
 10
24.916716999999949
 20
387.5
 11
25.416716999999949
 21
387
  0
LINE
  8
_0-0_0
  6
CONTINUOUS
 62
    7
 10
42.916716999999949
 20
394.20001200000002
 11
42.916716999999949
 21
393.04998799999998
  0
ARC
  8
_0-0_0
  6
CONTINUOUS
 62
    7
 10
40.516715999999974
 20
393.04998799999998
 40
2.3999999999999999
 50
359.58604600000001
 51
0.0000099999999787
  0
LINE
  8
_0-0_0
  6
CONTINUOUS
 62
    7
 10
43.71671699999996
 20
410.40045199999997
 11
43.71671699999996
 21
413
  0
LINE
  8
_0-0_0
  6
CONTINUOUS
 62
    7
 10
42.71671699999996
 20
411.29998799999998
 11
42.655398999999989
 21
411.29998799999998
  0
LINE
  8
_0-0_0
  6
CONTINUOUS
 62
    7
 10
42.614085999999986
 20
411.29998799999998
 11
42.611857999999984
 21
411.29998799999998
  0
LINE
  8
_0-0_0
  6
CONTINUOUS
 62
    7
 10
42.416716999999949
 20
387.5
 11
25.416716999999949
 21
387.5
  0
LINE
  8
_0-0_0
  6
CONTINUOUS
 62
    7
 10
42.480182999999954
 20
391.29998799999998
 11
42.517109000000005
 21
391.22976699999998
  0
LINE
  8
_0-0_0
  6
CONTINUOUS
 62
    7
 10
42.517109000000005
 20
391.22976699999998
 11
42.536712999999963
 21
391.19528200000002
  0
LINE
  8
_0-0_0
  6
CONTINUOUS
 62
    7
 10
42.536712999999963
 20
391.19528200000002
 11
42.562796999999989
 21
391.15344199999998
  0
LINE
  8
_0-0_0
  6
CONTINUOUS
 62
    7
 10
42.562796999999989
 20
391.15344199999998
 11
42.576106999999979
 21
391.13439899999997
  0
LINE
  8
_0-0_0
  6
CONTINUOUS
 62
    7
 10
42.576106999999979
 20
391.13439899999997
 11
42.594462999999962
 21
391.11200000000002
  0
LINE
  8
_0-0_0
  6
CONTINUOUS
 62
    7
 10
42.594462999999962
 20
391.11200000000002
 11
42.607258000000002
 21
391.10137900000001
  0
LINE
  8
_0-0_0
  6
CONTINUOUS
 62
    7
 10
42.607258000000002
 20
391.10137900000001
 11
42.611857999999984
 21
391.09997600000003
  0
LINE
  8
_0-0_0
  6
CONTINUOUS
 62
    7
 10
42.614085999999986
 20
391.09997600000003
 11
42.611857999999984
 21
391.09997600000003
  0
LINE
  8
_0-0_0
  6
CONTINUOUS
 62
    7
 10
42.480182999999954
 20
411.09997600000003
 11
42.517109000000005
 21
411.17022700000001
  0
LINE
  8
_0-0_0
  6
CONTINUOUS
 62
    7
 10
42.517109000000005
 20
411.17022700000001
 11
42.536715999999956
 21
411.20468099999999
  0
LINE
  8
_0-0_0
  6
CONTINUOUS
 62
    7
 10
42.536715999999956
 20
411.20468099999999
 11
42.562796999999989
 21
411.24652099999997
  0
LINE
  8
_0-0_0
  6
CONTINUOUS
 62
    7
 10
42.562796999999989
 20
411.24652099999997
 11
42.576106999999979
 21
411.26556399999998
  0
LINE
  8
_0-0_0
  6
CONTINUOUS
 62
    7
 10
42.576106999999979
 20
411.26556399999998
 11
42.594462999999962
 21
411.28796399999999
  0
LINE
  8
_0-0_0
  6
CONTINUOUS
 62
    7
 10
42.594462999999962
 20
411.28796399999999
 11
42.607258000000002
 21
411.29858400000001
  0
LINE
  8
_0-0_0
  6
CONTINUOUS
 62
    7
 10
42.607258000000002
 20
411.29858400000001
 11
42.611857999999984
 21
411.29998799999998
  0
LINE
  8
_0-0_0
  6
CONTINUOUS
 62
    7
 10
42.614085999999986
 20
391.09997600000003
 11
42.655398999999989
 21
391.09997600000003
  0
LINE
  8
_0-0_0
  6
CONTINUOUS
 62
    7
 10
42.71671699999996
 20
391.09997600000003
 11
42.655398999999989
 21
391.09997600000003
  0
LINE
  8
_0-0_0
  6
CONTINUOUS
 62
    7
 10
42.655398999999989
 20
391.09997600000003
 11
42.664958999999953
 21
391.09893799999998
  0
LINE
  8
_0-0_0
  6
CONTINUOUS
 62
    7
 10
42.664958999999953
 20
391.09893799999998
 11
42.674449999999979
 21
391.09576399999997
  0
LINE
  8
_0-0_0
  6
CONTINUOUS
 62
    7
 10
42.674449999999979
 20
391.09576399999997
 11
42.683703999999977
 21
391.09036300000002
  0
LINE
  8
_0-0_0
  6
CONTINUOUS
 62
    7
 10
42.683703999999977
 20
391.09036300000002
 11
42.692500999999993
 21
391.082855
  0
LINE
  8
_0-0_0
  6
CONTINUOUS
 62
    7
 10
42.692500999999993
 20
391.082855
 11
42.707900999999993
 21
391.06222500000001
  0
LINE
  8
_0-0_0
  6
CONTINUOUS
 62
    7
 10
42.707900999999993
 20
391.06222500000001
 11
42.71967699999999
 21
391.034943
  0
LINE
  8
_0-0_0
  6
CONTINUOUS
 62
    7
 10
42.71967699999999
 20
391.034943
 11
42.726855999999998
 21
391.00280800000002
  0
LINE
  8
_0-0_0
  6
CONTINUOUS
 62
    7
 10
42.726855999999998
 20
391.00280800000002
 11
42.728747999999996
 21
390.96774299999998
  0
LINE
  8
_0-0_0
  6
CONTINUOUS
 62
    7
 10
42.728747999999996
 20
390.96774299999998
 11
42.724902999999983
 21
390.93158
  0
LINE
  8
_0-0_0
  6
CONTINUOUS
 62
    7
 10
42.724902999999983
 20
390.93158
 11
42.71671699999996
 21
390.89999399999999
  0
ARC
  8
_0-0_0
  6
CONTINUOUS
 62
    7
 10
40.71671699999996
 20
392.39999399999999
 40
2.2999999999999998
 50
280.28656300000006
 51
325.58260500000006
  0
LINE
  8
_0-0_0
  6
CONTINUOUS
 62
    7
 10
42.416716999999949
 20
387.89999399999999
 11
41.21671699999996
 21
387.89999399999999
  0
LINE
  8
_0-0_0
  6
CONTINUOUS
 62
    7
 10
42.416716999999949
 20
387
 11
25.416716999999949
 21
387
  0
LINE
  8
_0-0_0
  6
CONTINUOUS
 62
    7
 10
25.716706999999985
 20
404.19998199999998
 11
25.416716999999949
 21
404.19998199999998
  0
ARC
  8
_0-0_0
  6
CONTINUOUS
 62
    7
 10
26.21671699999996
 20
396.39999399999999
 40
0.5
 50
179.99999099999999
 51
269.99999700000001
  0
CIRCLE
  8
_0-0_0
  6
CONTINUOUS
 62
    7
 10
28.21671699999996
 20
392.89999399999999
 40
2.5
  0
LINE
  8
_0-0_0
  6
CONTINUOUS
 62
    7
 10
31.21671699999996
 20
390.39999399999999
 11
28.21671699999996
 21
390.39999399999999
  0
LINE
  8
_0-0_0
  6
CONTINUOUS
 62
    7
 10
31.71671699999996
 20
390.39999399999999
 11
31.21671699999996
 21
390.39999399999999
  0
ARC
  8
_0-0_0
  6
CONTINUOUS
 62
    7
 10
27.71671699999996
 20
392.39999399999999
 40
2
 50
179.99999099999999
 51
269.99999700000001
  0
LINE
  8
_0-0_0
  6
CONTINUOUS
 62
    7
 10
28.21671699999996
 20
390.39999399999999
 11
27.71671699999996
 21
390.39999399999999
  0
LINE
  8
_0-0_0
  6
CONTINUOUS
 62
    7
 10
27.71671699999996
 20
411.89733899999999
 11
27.700835999999981
 21
411.92459100000002
  0
LINE
  8
_0-0_0
  6
CONTINUOUS
 62
    7
 10
27.700835999999981
 20
411.92459100000002
 11
27.684989999999971
 21
411.94757099999998
  0
LINE
  8
_0-0_0
  6
CONTINUOUS
 62
    7
 10
27.684989999999971
 20
411.94757099999998
 11
27.671010999999964
 21
411.96432499999997
  0
LINE
  8
_0-0_0
  6
CONTINUOUS
 62
    7
 10
27.671010999999964
 20
411.96432499999997
 11
27.657111999999984
 21
411.97766100000001
  0
LINE
  8
_0-0_0
  6
CONTINUOUS
 62
    7
 10
27.657111999999984
 20
411.97766100000001
 11
27.644893999999965
 21
411.986603
  0
LINE
  8
_0-0_0
  6
CONTINUOUS
 62
    7
 10
27.644893999999965
 20
411.986603
 11
27.632773999999984
 21
411.99279799999999
  0
LINE
  8
_0-0_0
  6
CONTINUOUS
 62
    7
 10
27.632773999999984
 20
411.99279799999999
 11
27.621909999999957
 21
411.99609400000003
  0
LINE
  8
_0-0_0
  6
CONTINUOUS
 62
    7
 10
27.621909999999957
 20
411.99609400000003
 11
27.611148999999955
 21
411.99713100000002
  0
LINE
  8
_0-0_0
  6
CONTINUOUS
 62
    7
 10
27.611148999999955
 20
411.99713100000002
 11
27.608687999999972
 21
411.99707000000001
  0
LINE
  8
_0-0_0
  6
CONTINUOUS
 62
    7
 10
42.71671699999996
 20
409.5
 11
42.71671699999996
 21
410
  0
CIRCLE
  8
_0-0_0
  6
CONTINUOUS
 62
    7
 10
40.21671699999996
 20
409.5
 40
2.5
  0
LINE
  8
_0-0_0
  6
CONTINUOUS
 62
    7
 10
42.71671699999996
 20
406.5
 11
42.71671699999996
 21
406
  0
LINE
  8
_0-0_0
  6
CONTINUOUS
 62
    7
 10
42.71671699999996
 20
406.5
 11
42.71671699999996
 21
409.5
  0
ARC
  8
_0-0_0
  6
CONTINUOUS
 62
    7
 10
36.71671699999996
 20
411.5
 40
0.5
 50
0
 51
90.000003000000007
  0
LINE
  8
_0-0_0
  6
CONTINUOUS
 62
    7
 10
42.71671699999996
 20
392.39999399999999
 11
42.71671699999996
 21
406
  0
LINE
  8
_0-0_0
  6
CONTINUOUS
 62
    7
 10
24.71671699999996
 20
413
 11
24.71671699999996
 21
410.40045199999997
  0
LINE
  8
_0-0_0
  6
CONTINUOUS
 62
    7
 10
25.416716999999949
 20
398.19998199999998
 11
25.716706999999985
 21
398.19998199999998
  0
LINE
  8
_0-0_0
  6
CONTINUOUS
 62
    7
 10
42.916716999999949
 20
413.800049
 11
42.916716999999949
 21
414
  0
ARC
  8
_0-0_0
  6
CONTINUOUS
 62
    7
 10
40.71671699999996
 20
392.39999399999999
 40
2
 50
273.84026500000004
 51
0.000010000000014
  0
LINE
  8
_0-0_0
  6
CONTINUOUS
 62
    7
 10
40.71671699999996
 20
390.39999399999999
 11
31.71671699999996
 21
390.39999399999999
  0
ARC
  8
_0-0_0
  6
CONTINUOUS
 62
    7
 10
41.21671699999996
 20
389.64498900000001
 40
0.5
 50
100.28656100000001
 51
179.99999099999999
  0
LINE
  8
_0-0_0
  6
CONTINUOUS
 62
    7
 10
40.71671699999996
 20
388.39999399999999
 11
40.71671699999996
 21
389.64498900000001
  0
ARC
  8
_0-0_0
  6
CONTINUOUS
 62
    7
 10
41.21671699999996
 20
388.39999399999999
 40
0.5
 50
179.99999099999999
 51
269.99999700000001
  0
LINE
  8
_0-0_0
  6
CONTINUOUS
 62
    7
 10
26.293691999999965
 20
395.89999399999999
 11
26.21671699999996
 21
395.89999399999999
  0
LINE
  8
_0-0_0
  6
CONTINUOUS
 62
    7
 10
28.21671699999996
 20
395.89999399999999
 11
27.735213999999985
 21
395.89999399999999
  0
LINE
  8
_0-0_0
  6
CONTINUOUS
 62
    7
 10
27.735213999999985
 20
395.89999399999999
 11
26.293691999999965
 21
395.89999399999999
  0
LINE
  8
_0-0_0
  6
CONTINUOUS
 62
    7
 10
31.21671699999996
 20
390.89999399999999
 11
31.21671699999996
 21
390.97695900000002
  0
LINE
  8
_0-0_0
  6
CONTINUOUS
 62
    7
 10
31.21671699999996
 20
392.41848800000002
 11
31.21671699999996
 21
390.97695900000002
  0
LINE
  8
_0-0_0
  6
CONTINUOUS
 62
    7
 10
31.21671699999996
 20
392.41848800000002
 11
31.21671699999996
 21
392.89999399999999
  0
ARC
  8
_0-0_0
  6
CONTINUOUS
 62
    7
 10
28.21671699999996
 20
392.89999399999999
 40
3
 50
0
 51
89.999995999999996
  0
ARC
  8
_0-0_0
  6
CONTINUOUS
 62
    7
 10
31.71671699999996
 20
390.89999399999999
 40
0.5
 50
179.99999099999999
 51
269.99999700000001
  0
LINE
  8
_0-0_0
  6
CONTINUOUS
 62
    7
 10
37.21671699999996
 20
411.42300399999999
 11
37.21671699999996
 21
411.5
  0
LINE
  8
_0-0_0
  6
CONTINUOUS
 62
    7
 10
37.21671699999996
 20
409.98147599999999
 11
37.21671699999996
 21
411.42300399999999
  0
LINE
  8
_0-0_0
  6
CONTINUOUS
 62
    7
 10
37.21671699999996
 20
409.5
 11
37.21671699999996
 21
409.98147599999999
  0
ARC
  8
_0-0_0
  6
CONTINUOUS
 62
    7
 10
40.21671699999996
 20
409.5
 40
3
 50
179.99999099999999
 51
269.99999700000001
  0
LINE
  8
_0-0_0
  6
CONTINUOUS
 62
    7
 10
40.698215000000005
 20
406.5
 11
40.21671699999996
 21
406.5
  0
LINE
  8
_0-0_0
  6
CONTINUOUS
 62
    7
 10
40.698215000000005
 20
406.5
 11
42.139743999999951
 21
406.5
  0
LINE
  8
_0-0_0
  6
CONTINUOUS
 62
    7
 10
42.21671699999996
 20
406.5
 11
42.139743999999951
 21
406.5
  0
ARC
  8
_0-0_0
  6
CONTINUOUS
 62
    7
 10
42.21671699999996
 20
406
 40
0.5
 50
0
 51
90.000003000000007
  0
LINE
  8
_0-0_0
  6
CONTINUOUS
 62
    7
 10
40.71671699999996
 20
390.50262500000002
 11
40.732596999999998
 21
390.47537199999999
  0
LINE
  8
_0-0_0
  6
CONTINUOUS
 62
    7
 10
40.732596999999998
 20
390.47537199999999
 11
40.748442999999952
 21
390.45239299999997
  0
LINE
  8
_0-0_0
  6
CONTINUOUS
 62
    7
 10
40.748442999999952
 20
390.45239299999997
 11
40.762423999999953
 21
390.43563799999998
  0
LINE
  8
_0-0_0
  6
CONTINUOUS
 62
    7
 10
40.762423999999953
 20
390.43563799999998
 11
40.776320999999996
 21
390.422302
  0
LINE
  8
_0-0_0
  6
CONTINUOUS
 62
    7
 10
40.776320999999996
 20
390.422302
 11
40.788539999999955
 21
390.41339099999999
  0
LINE
  8
_0-0_0
  6
CONTINUOUS
 62
    7
 10
40.788539999999955
 20
390.41339099999999
 11
40.800655000000006
 21
390.40716600000002
  0
LINE
  8
_0-0_0
  6
CONTINUOUS
 62
    7
 10
40.800655000000006
 20
390.40716600000002
 11
40.811522999999966
 21
390.40390000000002
  0
LINE
  8
_0-0_0
  6
CONTINUOUS
 62
    7
 10
40.811522999999966
 20
390.40390000000002
 11
40.822284999999965
 21
390.40283199999999
  0
LINE
  8
_0-0_0
  6
CONTINUOUS
 62
    7
 10
40.822284999999965
 20
390.40283199999999
 11
40.82474099999996
 21
390.40289300000001
  0
ARC
  8
_0-0_0
  6
CONTINUOUS
 62
    7
 10
30.986603000000002
 20
400.02673299999998
 40
3.063399
 50
199.82113599999997
 51
205.28948099999999
  0
ARC
  8
_0-0_0
  6
CONTINUOUS
 62
    7
 10
30.98628199999996
 20
402.37335200000001
 40
3.0630549999999999
 50
154.710137
 51
160.17869999999999
  0
ARC
  8
_0-0_0
  6
CONTINUOUS
 62
    7
 10
34.21671699999996
 20
401.19998199999998
 40
6.5
 50
160.10415599999999
 51
199.895612
  0
ARC
  8
_0-0_0
  6
CONTINUOUS
 62
    7
 10
37.446833999999967
 20
402.37322999999998
 40
3.0633949999999999
 50
19.82113
 51
25.289566000000001
  0
ARC
  8
_0-0_0
  6
CONTINUOUS
 62
    7
 10
37.447152999999958
 20
400.026611
 40
3.0630519999999999
 50
334.71006
 51
340.17869200000001
  0
LINE
  8
_0-0_0
  6
CONTINUOUS
 62
    7
 10
34.958384999999964
 20
394.69998199999998
 11
39.475047999999958
 21
397.30767800000001
  0
LINE
  8
_0-0_0
  6
CONTINUOUS
 62
    7
 10
33.475045999999963
 20
394.69998199999998
 11
34.958384999999964
 21
394.69998199999998
  0
LINE
  8
_0-0_0
  6
CONTINUOUS
 62
    7
 10
28.958384999999964
 20
397.30767800000001
 11
33.475045999999963
 21
394.69998199999998
  0
LINE
  8
_0-0_0
  6
CONTINUOUS
 62
    7
 10
28.21671699999996
 20
403.80767800000001
 11
28.21671699999996
 21
398.592285
  0
LINE
  8
_0-0_0
  6
CONTINUOUS
 62
    7
 10
28.958384999999964
 20
397.30767800000001
 11
28.21671699999996
 21
398.592285
  0
LINE
  8
_0-0_0
  6
CONTINUOUS
 62
    7
 10
33.475045999999963
 20
407.69998199999998
 11
28.958384999999964
 21
405.092285
  0
LINE
  8
_0-0_0
  6
CONTINUOUS
 62
    7
 10
28.664260999999954
 20
404.582855
 11
28.21671699999996
 21
403.80767800000001
  0
LINE
  8
_0-0_0
  6
CONTINUOUS
 62
    7
 10
28.664260999999954
 20
404.582855
 11
28.958384999999964
 21
405.092285
  0
LINE
  8
_0-0_0
  6
CONTINUOUS
 62
    7
 10
34.958384999999964
 20
407.69998199999998
 11
33.475045999999963
 21
407.69998199999998
  0
LINE
  8
_0-0_0
  6
CONTINUOUS
 62
    7
 10
39.475047999999958
 20
405.092285
 11
34.958384999999964
 21
407.69998199999998
  0
ARC
  8
_0-0_0
  6
CONTINUOUS
 62
    7
 10
34.21671699999996
 20
401.19998199999998
 40
6.5
 50
340.10416099999998
 51
19.895609999999952
  0
LINE
  8
_0-0_0
  6
CONTINUOUS
 62
    7
 10
39.769168999999977
 20
397.81710800000002
 11
40.21671699999996
 21
398.592285
  0
LINE
  8
_0-0_0
  6
CONTINUOUS
 62
    7
 10
39.769168999999977
 20
397.81710800000002
 11
39.475047999999958
 21
397.30767800000001
  0
CIRCLE
  8
_0-0_0
  6
CONTINUOUS
 62
    7
 10
34.21671699999996
 20
401.19998199999998
 40
5.25
  0
LINE
  8
_0-0_0
  6
CONTINUOUS
 62
    7
 10
40.21671699999996
 20
403.80767800000001
 11
40.21671699999996
 21
398.592285
  0
LINE
  8
_0-0_0
  6
CONTINUOUS
 62
    7
 10
39.475047999999958
 20
405.092285
 11
40.21671699999996
 21
403.80767800000001
  0
LINE
  8
_0-0_0
  6
CONTINUOUS
 62
    7
 10
42.103724999999997
 20
410.72543300000001
 11
42.381778999999995
 21
410.75
  0
LINE
  8
_0-0_0
  6
CONTINUOUS
 62
    7
 10
42.221480999999983
 20
410.52145400000001
 11
42.381778999999995
 21
410.75
  0
LINE
  8
_0-0_0
  6
CONTINUOUS
 62
    7
 10
41.965297999999962
 20
410.915955
 11
42.239261999999997
 21
410.96945199999999
  0
LINE
  8
_0-0_0
  6
CONTINUOUS
 62
    7
 10
42.103724999999997
 20
410.72543300000001
 11
42.239261999999997
 21
410.96945199999999
  0
LINE
  8
_0-0_0
  6
CONTINUOUS
 62
    7
 10
41.807704999999999
 20
411.09097300000002
 11
42.074580999999966
 21
411.172821
  0
LINE
  8
_0-0_0
  6
CONTINUOUS
 62
    7
 10
41.965297999999962
 20
410.915955
 11
42.074580999999966
 21
411.172821
  0
LINE
  8
_0-0_0
  6
CONTINUOUS
 62
    7
 10
41.632686999999976
 20
411.24856599999998
 11
41.889544999999998
 21
411.35784899999999
  0
LINE
  8
_0-0_0
  6
CONTINUOUS
 62
    7
 10
41.807704999999999
 20
411.09097300000002
 11
41.889544999999998
 21
411.35784899999999
  0
LINE
  8
_0-0_0
  6
CONTINUOUS
 62
    7
 10
41.44215399999996
 20
411.38699300000002
 11
41.686179999999979
 21
411.52252199999998
  0
LINE
  8
_0-0_0
  6
CONTINUOUS
 62
    7
 10
41.632686999999976
 20
411.24856599999998
 11
41.686179999999979
 21
411.52252199999998
  0
LINE
  8
_0-0_0
  6
CONTINUOUS
 62
    7
 10
41.238192999999967
 20
411.50476099999997
 11
41.46671699999996
 21
411.66503899999998
  0
LINE
  8
_0-0_0
  6
CONTINUOUS
 62
    7
 10
41.44215399999996
 20
411.38699300000002
 11
41.46671699999996
 21
411.66503899999998
  0
LINE
  8
_0-0_0
  6
CONTINUOUS
 62
    7
 10
41.02304399999997
 20
411.600525
 11
41.233558999999957
 21
411.78384399999999
  0
LINE
  8
_0-0_0
  6
CONTINUOUS
 62
    7
 10
41.238192999999967
 20
411.50476099999997
 11
41.233558999999957
 21
411.78384399999999
  0
LINE
  8
_0-0_0
  6
CONTINUOUS
 62
    7
 10
40.799060999999995
 20
411.67330900000002
 11
40.989261999999997
 21
411.87762500000002
  0
LINE
  8
_0-0_0
  6
CONTINUOUS
 62
    7
 10
41.02304399999997
 20
411.600525
 11
40.989261999999997
 21
411.87762500000002
  0
LINE
  8
_0-0_0
  6
CONTINUOUS
 62
    7
 10
40.568694999999991
 20
411.72228999999999
 11
40.736495999999988
 21
411.94534299999998
  0
LINE
  8
_0-0_0
  6
CONTINUOUS
 62
    7
 10
40.799060999999995
 20
411.67330900000002
 11
40.736495999999988
 21
411.94534299999998
  0
LINE
  8
_0-0_0
  6
CONTINUOUS
 62
    7
 10
40.334473000000003
 20
411.74688700000002
 11
40.478038999999967
 21
411.98629799999998
  0
LINE
  8
_0-0_0
  6
CONTINUOUS
 62
    7
 10
40.568694999999991
 20
411.72228999999999
 11
40.478038999999967
 21
411.98629799999998
  0
LINE
  8
_0-0_0
  6
CONTINUOUS
 62
    7
 10
40.098960999999974
 20
411.74688700000002
 11
40.21671699999996
 21
412
  0
LINE
  8
_0-0_0
  6
CONTINUOUS
 62
    7
 10
40.334473000000003
 20
411.74688700000002
 11
40.21671699999996
 21
412
  0
LINE
  8
_0-0_0
  6
CONTINUOUS
 62
    7
 10
39.864737999999988
 20
411.72228999999999
 11
39.955394999999953
 21
411.98629799999998
  0
LINE
  8
_0-0_0
  6
CONTINUOUS
 62
    7
 10
40.098960999999974
 20
411.74688700000002
 11
39.955394999999953
 21
411.98629799999998
  0
LINE
  8
_0-0_0
  6
CONTINUOUS
 62
    7
 10
39.634372999999982
 20
411.67330900000002
 11
39.696936999999991
 21
411.94534299999998
  0
LINE
  8
_0-0_0
  6
CONTINUOUS
 62
    7
 10
39.864737999999988
 20
411.72228999999999
 11
39.696936999999991
 21
411.94534299999998
  0
LINE
  8
_0-0_0
  6
CONTINUOUS
 62
    7
 10
39.410389000000009
 20
411.600525
 11
39.44417199999998
 21
411.87762500000002
  0
LINE
  8
_0-0_0
  6
CONTINUOUS
 62
    7
 10
39.634372999999982
 20
411.67330900000002
 11
39.44417199999998
 21
411.87762500000002
  0
LINE
  8
_0-0_0
  6
CONTINUOUS
 62
    7
 10
39.195239999999956
 20
411.50476099999997
 11
39.199874999999963
 21
411.78384399999999
  0
LINE
  8
_0-0_0
  6
CONTINUOUS
 62
    7
 10
39.410389000000009
 20
411.600525
 11
39.199874999999963
 21
411.78384399999999
  0
LINE
  8
_0-0_0
  6
CONTINUOUS
 62
    7
 10
39.075702999999976
 20
411.588593
 11
38.96671699999996
 21
411.66503899999998
  0
LINE
  8
_0-0_0
  6
CONTINUOUS
 62
    7
 10
39.195239999999956
 20
411.50476099999997
 11
39.075702999999976
 21
411.588593
  0
LINE
  8
_0-0_0
  6
CONTINUOUS
 62
    7
 10
38.991278999999963
 20
411.38699300000002
 11
38.96671699999996
 21
411.66503899999998
  0
LINE
  8
_0-0_0
  6
CONTINUOUS
 62
    7
 10
38.800747000000001
 20
411.24856599999998
 11
38.747253000000001
 21
411.52252199999998
  0
LINE
  8
_0-0_0
  6
CONTINUOUS
 62
    7
 10
38.991278999999963
 20
411.38699300000002
 11
38.747253000000001
 21
411.52252199999998
  0
LINE
  8
_0-0_0
  6
CONTINUOUS
 62
    7
 10
38.625727999999981
 20
411.09097300000002
 11
38.543889999999976
 21
411.35784899999999
  0
LINE
  8
_0-0_0
  6
CONTINUOUS
 62
    7
 10
38.800747000000001
 20
411.24856599999998
 11
38.543889999999976
 21
411.35784899999999
  0
LINE
  8
_0-0_0
  6
CONTINUOUS
 62
    7
 10
38.468137999999954
 20
410.915955
 11
38.358853999999951
 21
411.172821
  0
LINE
  8
_0-0_0
  6
CONTINUOUS
 62
    7
 10
38.625727999999981
 20
411.09097300000002
 11
38.358853999999951
 21
411.172821
  0
LINE
  8
_0-0_0
  6
CONTINUOUS
 62
    7
 10
38.329707999999982
 20
410.72543300000001
 11
38.194173999999975
 21
410.96945199999999
  0
LINE
  8
_0-0_0
  6
CONTINUOUS
 62
    7
 10
38.468137999999954
 20
410.915955
 11
38.194173999999975
 21
410.96945199999999
  0
LINE
  8
_0-0_0
  6
CONTINUOUS
 62
    7
 10
38.211951999999997
 20
410.52145400000001
 11
38.051652999999988
 21
410.75
  0
LINE
  8
_0-0_0
  6
CONTINUOUS
 62
    7
 10
38.329707999999982
 20
410.72543300000001
 11
38.051652999999988
 21
410.75
  0
LINE
  8
_0-0_0
  6
CONTINUOUS
 62
    7
 10
38.116160999999977
 20
410.30630500000001
 11
37.932853999999963
 21
410.51681500000001
  0
LINE
  8
_0-0_0
  6
CONTINUOUS
 62
    7
 10
38.211951999999997
 20
410.52145400000001
 11
37.932853999999963
 21
410.51681500000001
  0
LINE
  8
_0-0_0
  6
CONTINUOUS
 62
    7
 10
38.043384000000003
 20
410.082336
 11
37.83907499999998
 21
410.27252199999998
  0
LINE
  8
_0-0_0
  6
CONTINUOUS
 62
    7
 10
38.116160999999977
 20
410.30630500000001
 11
37.83907499999998
 21
410.27252199999998
  0
LINE
  8
_0-0_0
  6
CONTINUOUS
 62
    7
 10
37.994416999999999
 20
409.85195900000002
 11
37.771346999999992
 21
410.01977499999998
  0
LINE
  8
_0-0_0
  6
CONTINUOUS
 62
    7
 10
38.043384000000003
 20
410.082336
 11
37.771346999999992
 21
410.01977499999998
  0
LINE
  8
_0-0_0
  6
CONTINUOUS
 62
    7
 10
37.994416999999999
 20
409.85195900000002
 11
37.730411000000004
 21
409.76129200000003
  0
LINE
  8
_0-0_0
  6
CONTINUOUS
 62
    7
 10
37.969800999999961
 20
409.61773699999998
 11
37.730411000000004
 21
409.76129200000003
  0
LINE
  8
_0-0_0
  6
CONTINUOUS
 62
    7
 10
37.969800999999961
 20
409.38223299999999
 11
37.71671699999996
 21
409.5
  0
LINE
  8
_0-0_0
  6
CONTINUOUS
 62
    7
 10
37.969800999999961
 20
409.61773699999998
 11
37.71671699999996
 21
409.5
  0
LINE
  8
_0-0_0
  6
CONTINUOUS
 62
    7
 10
37.994416999999999
 20
409.14801
 11
37.730411000000004
 21
409.23864700000001
  0
LINE
  8
_0-0_0
  6
CONTINUOUS
 62
    7
 10
37.969800999999961
 20
409.38223299999999
 11
37.730411000000004
 21
409.23864700000001
  0
LINE
  8
_0-0_0
  6
CONTINUOUS
 62
    7
 10
38.043384000000003
 20
408.91763300000002
 11
37.771346999999992
 21
408.98019399999998
  0
LINE
  8
_0-0_0
  6
CONTINUOUS
 62
    7
 10
37.994416999999999
 20
409.14801
 11
37.771346999999992
 21
408.98019399999998
  0
LINE
  8
_0-0_0
  6
CONTINUOUS
 62
    7
 10
38.116160999999977
 20
408.69366500000001
 11
37.83907499999998
 21
408.72744799999998
  0
LINE
  8
_0-0_0
  6
CONTINUOUS
 62
    7
 10
38.043384000000003
 20
408.91763300000002
 11
37.83907499999998
 21
408.72744799999998
  0
LINE
  8
_0-0_0
  6
CONTINUOUS
 62
    7
 10
38.211951999999997
 20
408.47851600000001
 11
37.932853999999963
 21
408.48315400000001
  0
LINE
  8
_0-0_0
  6
CONTINUOUS
 62
    7
 10
38.116160999999977
 20
408.69366500000001
 11
37.932853999999963
 21
408.48315400000001
  0
LINE
  8
_0-0_0
  6
CONTINUOUS
 62
    7
 10
38.329707999999982
 20
408.27453600000001
 11
38.051652999999988
 21
408.25
  0
LINE
  8
_0-0_0
  6
CONTINUOUS
 62
    7
 10
38.211951999999997
 20
408.47851600000001
 11
38.051652999999988
 21
408.25
  0
LINE
  8
_0-0_0
  6
CONTINUOUS
 62
    7
 10
38.468137999999954
 20
408.08401500000002
 11
38.194173999999975
 21
408.03051799999997
  0
LINE
  8
_0-0_0
  6
CONTINUOUS
 62
    7
 10
38.329707999999982
 20
408.27453600000001
 11
38.194173999999975
 21
408.03051799999997
  0
LINE
  8
_0-0_0
  6
CONTINUOUS
 62
    7
 10
38.625727999999981
 20
407.908997
 11
38.358853999999951
 21
407.82714800000002
  0
LINE
  8
_0-0_0
  6
CONTINUOUS
 62
    7
 10
38.468137999999954
 20
408.08401500000002
 11
38.358853999999951
 21
407.82714800000002
  0
LINE
  8
_0-0_0
  6
CONTINUOUS
 62
    7
 10
38.800747000000001
 20
407.75140399999998
 11
38.543889999999976
 21
407.64211999999998
  0
LINE
  8
_0-0_0
  6
CONTINUOUS
 62
    7
 10
38.625727999999981
 20
407.908997
 11
38.543889999999976
 21
407.64211999999998
  0
LINE
  8
_0-0_0
  6
CONTINUOUS
 62
    7
 10
38.991278999999963
 20
407.612976
 11
38.747253000000001
 21
407.47744799999998
  0
LINE
  8
_0-0_0
  6
CONTINUOUS
 62
    7
 10
38.800747000000001
 20
407.75140399999998
 11
38.747253000000001
 21
407.47744799999998
  0
LINE
  8
_0-0_0
  6
CONTINUOUS
 62
    7
 10
39.195239999999956
 20
407.49520899999999
 11
38.96671699999996
 21
407.33492999999999
  0
LINE
  8
_0-0_0
  6
CONTINUOUS
 62
    7
 10
38.991278999999963
 20
407.612976
 11
38.96671699999996
 21
407.33492999999999
  0
LINE
  8
_0-0_0
  6
CONTINUOUS
 62
    7
 10
39.410389000000009
 20
407.39941399999998
 11
39.199874999999963
 21
407.21612499999998
  0
LINE
  8
_0-0_0
  6
CONTINUOUS
 62
    7
 10
39.195239999999956
 20
407.49520899999999
 11
39.199874999999963
 21
407.21612499999998
  0
LINE
  8
_0-0_0
  6
CONTINUOUS
 62
    7
 10
39.634372999999982
 20
407.32666
 11
39.44417199999998
 21
407.122345
  0
LINE
  8
_0-0_0
  6
CONTINUOUS
 62
    7
 10
39.410389000000009
 20
407.39941399999998
 11
39.44417199999998
 21
407.122345
  0
LINE
  8
_0-0_0
  6
CONTINUOUS
 62
    7
 10
39.864737999999988
 20
407.27767899999998
 11
39.696936999999991
 21
407.05462599999998
  0
LINE
  8
_0-0_0
  6
CONTINUOUS
 62
    7
 10
39.634372999999982
 20
407.32666
 11
39.696936999999991
 21
407.05462599999998
  0
LINE
  8
_0-0_0
  6
CONTINUOUS
 62
    7
 10
40.098960999999974
 20
407.25305200000003
 11
39.955394999999953
 21
407.01367199999999
  0
LINE
  8
_0-0_0
  6
CONTINUOUS
 62
    7
 10
39.864737999999988
 20
407.27767899999998
 11
39.955394999999953
 21
407.01367199999999
  0
LINE
  8
_0-0_0
  6
CONTINUOUS
 62
    7
 10
40.334473000000003
 20
407.25305200000003
 11
40.21671699999996
 21
407
  0
LINE
  8
_0-0_0
  6
CONTINUOUS
 62
    7
 10
40.098960999999974
 20
407.25305200000003
 11
40.21671699999996
 21
407
  0
LINE
  8
_0-0_0
  6
CONTINUOUS
 62
    7
 10
40.568694999999991
 20
407.27767899999998
 11
40.478038999999967
 21
407.01367199999999
  0
LINE
  8
_0-0_0
  6
CONTINUOUS
 62
    7
 10
40.334473000000003
 20
407.25305200000003
 11
40.478038999999967
 21
407.01367199999999
  0
LINE
  8
_0-0_0
  6
CONTINUOUS
 62
    7
 10
40.799060999999995
 20
407.32666
 11
40.736495999999988
 21
407.05462599999998
  0
LINE
  8
_0-0_0
  6
CONTINUOUS
 62
    7
 10
40.568694999999991
 20
407.27767899999998
 11
40.736495999999988
 21
407.05462599999998
  0
LINE
  8
_0-0_0
  6
CONTINUOUS
 62
    7
 10
41.02304399999997
 20
407.39941399999998
 11
40.989261999999997
 21
407.122345
  0
LINE
  8
_0-0_0
  6
CONTINUOUS
 62
    7
 10
40.799060999999995
 20
407.32666
 11
40.989261999999997
 21
407.122345
  0
LINE
  8
_0-0_0
  6
CONTINUOUS
 62
    7
 10
41.238192999999967
 20
407.49520899999999
 11
41.233558999999957
 21
407.21612499999998
  0
LINE
  8
_0-0_0
  6
CONTINUOUS
 62
    7
 10
41.02304399999997
 20
407.39941399999998
 11
41.233558999999957
 21
407.21612499999998
  0
LINE
  8
_0-0_0
  6
CONTINUOUS
 62
    7
 10
41.357731000000001
 20
407.41137700000002
 11
41.46671699999996
 21
407.33492999999999
  0
LINE
  8
_0-0_0
  6
CONTINUOUS
 62
    7
 10
41.238192999999967
 20
407.49520899999999
 11
41.357731000000001
 21
407.41137700000002
  0
LINE
  8
_0-0_0
  6
CONTINUOUS
 62
    7
 10
41.44215399999996
 20
407.612976
 11
41.46671699999996
 21
407.33492999999999
  0
LINE
  8
_0-0_0
  6
CONTINUOUS
 62
    7
 10
41.632686999999976
 20
407.75140399999998
 11
41.686179999999979
 21
407.47744799999998
  0
LINE
  8
_0-0_0
  6
CONTINUOUS
 62
    7
 10
41.44215399999996
 20
407.612976
 11
41.686179999999979
 21
407.47744799999998
  0
LINE
  8
_0-0_0
  6
CONTINUOUS
 62
    7
 10
41.807704999999999
 20
407.908997
 11
41.889544999999998
 21
407.64211999999998
  0
LINE
  8
_0-0_0
  6
CONTINUOUS
 62
    7
 10
41.632686999999976
 20
407.75140399999998
 11
41.889544999999998
 21
407.64211999999998
  0
LINE
  8
_0-0_0
  6
CONTINUOUS
 62
    7
 10
41.965297999999962
 20
408.08401500000002
 11
42.074580999999966
 21
407.82714800000002
  0
LINE
  8
_0-0_0
  6
CONTINUOUS
 62
    7
 10
41.807704999999999
 20
407.908997
 11
42.074580999999966
 21
407.82714800000002
  0
LINE
  8
_0-0_0
  6
CONTINUOUS
 62
    7
 10
42.103724999999997
 20
408.27453600000001
 11
42.239261999999997
 21
408.03051799999997
  0
LINE
  8
_0-0_0
  6
CONTINUOUS
 62
    7
 10
41.965297999999962
 20
408.08401500000002
 11
42.239261999999997
 21
408.03051799999997
  0
LINE
  8
_0-0_0
  6
CONTINUOUS
 62
    7
 10
42.221480999999983
 20
408.47851600000001
 11
42.381778999999995
 21
408.25
  0
LINE
  8
_0-0_0
  6
CONTINUOUS
 62
    7
 10
42.103724999999997
 20
408.27453600000001
 11
42.381778999999995
 21
408.25
  0
LINE
  8
_0-0_0
  6
CONTINUOUS
 62
    7
 10
42.317272000000003
 20
408.69366500000001
 11
42.500579999999957
 21
408.48315400000001
  0
LINE
  8
_0-0_0
  6
CONTINUOUS
 62
    7
 10
42.221480999999983
 20
408.47851600000001
 11
42.500579999999957
 21
408.48315400000001
  0
LINE
  8
_0-0_0
  6
CONTINUOUS
 62
    7
 10
42.390048999999976
 20
408.91763300000002
 11
42.594355999999948
 21
408.72744799999998
  0
LINE
  8
_0-0_0
  6
CONTINUOUS
 62
    7
 10
42.317272000000003
 20
408.69366500000001
 11
42.594355999999948
 21
408.72744799999998
  0
LINE
  8
_0-0_0
  6
CONTINUOUS
 62
    7
 10
42.439013999999986
 20
409.14801
 11
42.662085999999988
 21
408.98019399999998
  0
LINE
  8
_0-0_0
  6
CONTINUOUS
 62
    7
 10
42.390048999999976
 20
408.91763300000002
 11
42.662085999999988
 21
408.98019399999998
  0
LINE
  8
_0-0_0
  6
CONTINUOUS
 62
    7
 10
42.463633999999956
 20
409.38223299999999
 11
42.703021999999976
 21
409.23864700000001
  0
LINE
  8
_0-0_0
  6
CONTINUOUS
 62
    7
 10
42.439013999999986
 20
409.14801
 11
42.703021999999976
 21
409.23864700000001
  0
LINE
  8
_0-0_0
  6
CONTINUOUS
 62
    7
 10
42.463633999999956
 20
409.61773699999998
 11
42.71671699999996
 21
409.5
  0
LINE
  8
_0-0_0
  6
CONTINUOUS
 62
    7
 10
42.463633999999956
 20
409.38223299999999
 11
42.71671699999996
 21
409.5
  0
LINE
  8
_0-0_0
  6
CONTINUOUS
 62
    7
 10
42.439013999999986
 20
409.85195900000002
 11
42.703021999999976
 21
409.76129200000003
  0
LINE
  8
_0-0_0
  6
CONTINUOUS
 62
    7
 10
42.463633999999956
 20
409.61773699999998
 11
42.703021999999976
 21
409.76129200000003
  0
LINE
  8
_0-0_0
  6
CONTINUOUS
 62
    7
 10
42.390048999999976
 20
410.082336
 11
42.662085999999988
 21
410.01977499999998
  0
LINE
  8
_0-0_0
  6
CONTINUOUS
 62
    7
 10
42.439013999999986
 20
409.85195900000002
 11
42.662085999999988
 21
410.01977499999998
  0
LINE
  8
_0-0_0
  6
CONTINUOUS
 62
    7
 10
42.317272000000003
 20
410.30630500000001
 11
42.594355999999948
 21
410.27252199999998
  0
LINE
  8
_0-0_0
  6
CONTINUOUS
 62
    7
 10
42.390048999999976
 20
410.082336
 11
42.594355999999948
 21
410.27252199999998
  0
LINE
  8
_0-0_0
  6
CONTINUOUS
 62
    7
 10
42.221480999999983
 20
410.52145400000001
 11
42.500579999999957
 21
410.51681500000001
  0
LINE
  8
_0-0_0
  6
CONTINUOUS
 62
    7
 10
42.317272000000003
 20
410.30630500000001
 11
42.500579999999957
 21
410.51681500000001
  0
CIRCLE
  8
_0-0_0
  6
CONTINUOUS
 62
    7
 10
40.21671699999996
 20
409.5
 40
2
  0
CIRCLE
  8
_0-0_0
  6
CONTINUOUS
 62
    7
 10
34.21671699999996
 20
401.19998199999998
 40
5
  0
LINE
  8
_0-0_0
  6
CONTINUOUS
 62
    7
 10
40.798823999999968
 20
408.5
 11
39.634608999999955
 21
408.5
  0
LINE
  8
_0-0_0
  6
CONTINUOUS
 62
    7
 10
39.634608999999955
 20
408.5
 11
39.066714999999988
 21
409.5
  0
LINE
  8
_0-0_0
  6
CONTINUOUS
 62
    7
 10
39.066714999999988
 20
409.5
 11
39.634608999999955
 21
410.5
  0
LINE
  8
_0-0_0
  6
CONTINUOUS
 62
    7
 10
39.634608999999955
 20
410.5
 11
40.798823999999968
 21
410.5
  0
LINE
  8
_0-0_0
  6
CONTINUOUS
 62
    7
 10
40.798823999999968
 20
410.5
 11
41.366717999999992
 21
409.5
  0
LINE
  8
_0-0_0
  6
CONTINUOUS
 62
    7
 10
41.366717999999992
 20
409.5
 11
40.798823999999968
 21
408.5
  0
CIRCLE
  8
_0-0_0
  6
CONTINUOUS
 62
    7
 10
34.21671699999996
 20
401.19998199999998
 40
4.5381200000000002
  0
CIRCLE
  8
_0-0_0
  6
CONTINUOUS
 62
    7
 10
34.21671699999996
 20
401.19998199999998
 40
4
  0
LINE
  8
_0-0_0
  6
CONTINUOUS
 62
    7
 10
26.329707999999982
 20
391.67453
 11
26.051652999999988
 21
391.64999399999999
  0
LINE
  8
_0-0_0
  6
CONTINUOUS
 62
    7
 10
26.211951999999997
 20
391.87851000000001
 11
26.051652999999988
 21
391.64999399999999
  0
LINE
  8
_0-0_0
  6
CONTINUOUS
 62
    7
 10
26.468137999999954
 20
391.48400900000001
 11
26.194173999999975
 21
391.43051100000002
  0
LINE
  8
_0-0_0
  6
CONTINUOUS
 62
    7
 10
26.329707999999982
 20
391.67453
 11
26.194173999999975
 21
391.43051100000002
  0
LINE
  8
_0-0_0
  6
CONTINUOUS
 62
    7
 10
26.625726999999983
 20
391.30898999999999
 11
26.358853999999951
 21
391.22717299999999
  0
LINE
  8
_0-0_0
  6
CONTINUOUS
 62
    7
 10
26.468137999999954
 20
391.48400900000001
 11
26.358853999999951
 21
391.22717299999999
  0
LINE
  8
_0-0_0
  6
CONTINUOUS
 62
    7
 10
26.800747000000001
 20
391.15139799999997
 11
26.543889999999976
 21
391.04211400000003
  0
LINE
  8
_0-0_0
  6
CONTINUOUS
 62
    7
 10
26.625726999999983
 20
391.30898999999999
 11
26.543889999999976
 21
391.04211400000003
  0
LINE
  8
_0-0_0
  6
CONTINUOUS
 62
    7
 10
26.991278999999963
 20
391.01297
 11
26.747253000000001
 21
390.87744099999998
  0
LINE
  8
_0-0_0
  6
CONTINUOUS
 62
    7
 10
26.800747000000001
 20
391.15139799999997
 11
26.747253000000001
 21
390.87744099999998
  0
LINE
  8
_0-0_0
  6
CONTINUOUS
 62
    7
 10
27.195237999999961
 20
390.89520299999998
 11
26.96671699999996
 21
390.73492399999998
  0
LINE
  8
_0-0_0
  6
CONTINUOUS
 62
    7
 10
26.991278999999963
 20
391.01297
 11
26.96671699999996
 21
390.73492399999998
  0
LINE
  8
_0-0_0
  6
CONTINUOUS
 62
    7
 10
27.410388999999952
 20
390.79943800000001
 11
27.199874999999963
 21
390.61611900000003
  0
LINE
  8
_0-0_0
  6
CONTINUOUS
 62
    7
 10
27.195237999999961
 20
390.89520299999998
 11
27.199874999999963
 21
390.61611900000003
  0
LINE
  8
_0-0_0
  6
CONTINUOUS
 62
    7
 10
27.634372999999982
 20
390.726654
 11
27.444173999999975
 21
390.52233899999999
  0
LINE
  8
_0-0_0
  6
CONTINUOUS
 62
    7
 10
27.410388999999952
 20
390.79943800000001
 11
27.444173999999975
 21
390.52233899999999
  0
LINE
  8
_0-0_0
  6
CONTINUOUS
 62
    7
 10
27.864737999999988
 20
390.67770400000001
 11
27.696936999999991
 21
390.45461999999998
  0
LINE
  8
_0-0_0
  6
CONTINUOUS
 62
    7
 10
27.634372999999982
 20
390.726654
 11
27.696936999999991
 21
390.45461999999998
  0
LINE
  8
_0-0_0
  6
CONTINUOUS
 62
    7
 10
28.098960999999974
 20
390.653076
 11
27.955394999999953
 21
390.41369600000002
  0
LINE
  8
_0-0_0
  6
CONTINUOUS
 62
    7
 10
27.864737999999988
 20
390.67770400000001
 11
27.955394999999953
 21
390.41369600000002
  0
LINE
  8
_0-0_0
  6
CONTINUOUS
 62
    7
 10
28.334473000000003
 20
390.653076
 11
28.21671699999996
 21
390.39999399999999
  0
LINE
  8
_0-0_0
  6
CONTINUOUS
 62
    7
 10
28.098960999999974
 20
390.653076
 11
28.21671699999996
 21
390.39999399999999
  0
LINE
  8
_0-0_0
  6
CONTINUOUS
 62
    7
 10
28.568694999999991
 20
390.67770400000001
 11
28.478038999999967
 21
390.41369600000002
  0
LINE
  8
_0-0_0
  6
CONTINUOUS
 62
    7
 10
28.334473000000003
 20
390.653076
 11
28.478038999999967
 21
390.41369600000002
  0
LINE
  8
_0-0_0
  6
CONTINUOUS
 62
    7
 10
28.799060999999995
 20
390.726654
 11
28.736495999999988
 21
390.45461999999998
  0
LINE
  8
_0-0_0
  6
CONTINUOUS
 62
    7
 10
28.568694999999991
 20
390.67770400000001
 11
28.736495999999988
 21
390.45461999999998
  0
LINE
  8
_0-0_0
  6
CONTINUOUS
 62
    7
 10
29.02304399999997
 20
390.79943800000001
 11
28.989260000000002
 21
390.52233899999999
  0
LINE
  8
_0-0_0
  6
CONTINUOUS
 62
    7
 10
28.799060999999995
 20
390.726654
 11
28.989260000000002
 21
390.52233899999999
  0
LINE
  8
_0-0_0
  6
CONTINUOUS
 62
    7
 10
29.238194999999962
 20
390.89520299999998
 11
29.233558999999957
 21
390.61611900000003
  0
LINE
  8
_0-0_0
  6
CONTINUOUS
 62
    7
 10
29.02304399999997
 20
390.79943800000001
 11
29.233558999999957
 21
390.61611900000003
  0
LINE
  8
_0-0_0
  6
CONTINUOUS
 62
    7
 10
29.357732999999996
 20
390.81137100000001
 11
29.46671699999996
 21
390.73492399999998
  0
LINE
  8
_0-0_0
  6
CONTINUOUS
 62
    7
 10
29.238194999999962
 20
390.89520299999998
 11
29.357732999999996
 21
390.81137100000001
  0
LINE
  8
_0-0_0
  6
CONTINUOUS
 62
    7
 10
29.44215399999996
 20
391.01297
 11
29.46671699999996
 21
390.73492399999998
  0
LINE
  8
_0-0_0
  6
CONTINUOUS
 62
    7
 10
29.632686999999976
 20
391.15139799999997
 11
29.686179999999979
 21
390.87744099999998
  0
LINE
  8
_0-0_0
  6
CONTINUOUS
 62
    7
 10
29.44215399999996
 20
391.01297
 11
29.686179999999979
 21
390.87744099999998
  0
LINE
  8
_0-0_0
  6
CONTINUOUS
 62
    7
 10
29.807706999999994
 20
391.30898999999999
 11
29.889543000000003
 21
391.04211400000003
  0
LINE
  8
_0-0_0
  6
CONTINUOUS
 62
    7
 10
29.632686999999976
 20
391.15139799999997
 11
29.889543000000003
 21
391.04211400000003
  0
LINE
  8
_0-0_0
  6
CONTINUOUS
 62
    7
 10
29.965293999999972
 20
391.48400900000001
 11
30.074578999999972
 21
391.22717299999999
  0
LINE
  8
_0-0_0
  6
CONTINUOUS
 62
    7
 10
29.807706999999994
 20
391.30898999999999
 11
30.074578999999972
 21
391.22717299999999
  0
LINE
  8
_0-0_0
  6
CONTINUOUS
 62
    7
 10
30.103724999999997
 20
391.67453
 11
30.239260000000002
 21
391.43051100000002
  0
LINE
  8
_0-0_0
  6
CONTINUOUS
 62
    7
 10
29.965293999999972
 20
391.48400900000001
 11
30.239260000000002
 21
391.43051100000002
  0
LINE
  8
_0-0_0
  6
CONTINUOUS
 62
    7
 10
30.221480999999983
 20
391.87851000000001
 11
30.381780999999989
 21
391.64999399999999
  0
LINE
  8
_0-0_0
  6
CONTINUOUS
 62
    7
 10
30.103724999999997
 20
391.67453
 11
30.381780999999989
 21
391.64999399999999
  0
LINE
  8
_0-0_0
  6
CONTINUOUS
 62
    7
 10
30.317272000000003
 20
392.093658
 11
30.500579999999957
 21
391.88314800000001
  0
LINE
  8
_0-0_0
  6
CONTINUOUS
 62
    7
 10
30.221480999999983
 20
391.87851000000001
 11
30.500579999999957
 21
391.88314800000001
  0
LINE
  8
_0-0_0
  6
CONTINUOUS
 62
    7
 10
30.390048999999976
 20
392.31762700000002
 11
30.594358
 21
392.12744099999998
  0
LINE
  8
_0-0_0
  6
CONTINUOUS
 62
    7
 10
30.317272000000003
 20
392.093658
 11
30.594358
 21
392.12744099999998
  0
LINE
  8
_0-0_0
  6
CONTINUOUS
 62
    7
 10
30.439013999999986
 20
392.54800399999999
 11
30.662085999999988
 21
392.38018799999998
  0
LINE
  8
_0-0_0
  6
CONTINUOUS
 62
    7
 10
30.390048999999976
 20
392.31762700000002
 11
30.662085999999988
 21
392.38018799999998
  0
LINE
  8
_0-0_0
  6
CONTINUOUS
 62
    7
 10
30.463633999999956
 20
392.78222699999998
 11
30.703021999999976
 21
392.63867199999999
  0
LINE
  8
_0-0_0
  6
CONTINUOUS
 62
    7
 10
30.439013999999986
 20
392.54800399999999
 11
30.703021999999976
 21
392.63867199999999
  0
LINE
  8
_0-0_0
  6
CONTINUOUS
 62
    7
 10
30.463633999999956
 20
393.01773100000003
 11
30.71671699999996
 21
392.89999399999999
  0
LINE
  8
_0-0_0
  6
CONTINUOUS
 62
    7
 10
30.463633999999956
 20
392.78222699999998
 11
30.71671699999996
 21
392.89999399999999
  0
LINE
  8
_0-0_0
  6
CONTINUOUS
 62
    7
 10
30.439013999999986
 20
393.25195300000001
 11
30.703021999999976
 21
393.161316
  0
LINE
  8
_0-0_0
  6
CONTINUOUS
 62
    7
 10
30.463633999999956
 20
393.01773100000003
 11
30.703021999999976
 21
393.161316
  0
LINE
  8
_0-0_0
  6
CONTINUOUS
 62
    7
 10
30.390048999999976
 20
393.48232999999999
 11
30.662085999999988
 21
393.41976899999997
  0
LINE
  8
_0-0_0
  6
CONTINUOUS
 62
    7
 10
30.439013999999986
 20
393.25195300000001
 11
30.662085999999988
 21
393.41976899999997
  0
LINE
  8
_0-0_0
  6
CONTINUOUS
 62
    7
 10
30.317272000000003
 20
393.706299
 11
30.594358
 21
393.67251599999997
  0
LINE
  8
_0-0_0
  6
CONTINUOUS
 62
    7
 10
30.390048999999976
 20
393.48232999999999
 11
30.594358
 21
393.67251599999997
  0
LINE
  8
_0-0_0
  6
CONTINUOUS
 62
    7
 10
30.221480999999983
 20
393.921448
 11
30.500579999999957
 21
393.916809
  0
LINE
  8
_0-0_0
  6
CONTINUOUS
 62
    7
 10
30.317272000000003
 20
393.706299
 11
30.500579999999957
 21
393.916809
  0
LINE
  8
_0-0_0
  6
CONTINUOUS
 62
    7
 10
30.103724999999997
 20
394.125427
 11
30.381780999999989
 21
394.14999399999999
  0
LINE
  8
_0-0_0
  6
CONTINUOUS
 62
    7
 10
30.221480999999983
 20
393.921448
 11
30.381780999999989
 21
394.14999399999999
  0
LINE
  8
_0-0_0
  6
CONTINUOUS
 62
    7
 10
26.800747000000001
 20
394.64855999999997
 11
26.747253000000001
 21
394.92251599999997
  0
LINE
  8
_0-0_0
  6
CONTINUOUS
 62
    7
 10
26.800747000000001
 20
394.64855999999997
 11
26.543889999999976
 21
394.75784299999998
  0
LINE
  8
_0-0_0
  6
CONTINUOUS
 62
    7
 10
26.625726999999983
 20
394.49096700000001
 11
26.543889999999976
 21
394.75784299999998
  0
LINE
  8
_0-0_0
  6
CONTINUOUS
 62
    7
 10
26.625726999999983
 20
394.49096700000001
 11
26.358853999999951
 21
394.57281499999999
  0
LINE
  8
_0-0_0
  6
CONTINUOUS
 62
    7
 10
26.468137999999954
 20
394.31594799999999
 11
26.358853999999951
 21
394.57281499999999
  0
LINE
  8
_0-0_0
  6
CONTINUOUS
 62
    7
 10
26.468137999999954
 20
394.31594799999999
 11
26.194173999999975
 21
394.36944599999998
  0
LINE
  8
_0-0_0
  6
CONTINUOUS
 62
    7
 10
26.329707999999982
 20
394.125427
 11
26.194173999999975
 21
394.36944599999998
  0
LINE
  8
_0-0_0
  6
CONTINUOUS
 62
    7
 10
26.329707999999982
 20
394.125427
 11
26.051652999999988
 21
394.14999399999999
  0
LINE
  8
_0-0_0
  6
CONTINUOUS
 62
    7
 10
26.211951999999997
 20
393.921448
 11
26.051652999999988
 21
394.14999399999999
  0
LINE
  8
_0-0_0
  6
CONTINUOUS
 62
    7
 10
26.211951999999997
 20
393.921448
 11
25.932853999999963
 21
393.916809
  0
LINE
  8
_0-0_0
  6
CONTINUOUS
 62
    7
 10
26.116160999999977
 20
393.706299
 11
25.932853999999963
 21
393.916809
  0
LINE
  8
_0-0_0
  6
CONTINUOUS
 62
    7
 10
26.116160999999977
 20
393.706299
 11
25.83907499999998
 21
393.67251599999997
  0
LINE
  8
_0-0_0
  6
CONTINUOUS
 62
    7
 10
26.043384000000003
 20
393.48232999999999
 11
25.83907499999998
 21
393.67251599999997
  0
LINE
  8
_0-0_0
  6
CONTINUOUS
 62
    7
 10
26.043384000000003
 20
393.48232999999999
 11
25.771346999999992
 21
393.41976899999997
  0
LINE
  8
_0-0_0
  6
CONTINUOUS
 62
    7
 10
25.994418999999994
 20
393.25195300000001
 11
25.771346999999992
 21
393.41976899999997
  0
LINE
  8
_0-0_0
  6
CONTINUOUS
 62
    7
 10
25.994418999999994
 20
393.25195300000001
 11
25.730411000000004
 21
393.161316
  0
LINE
  8
_0-0_0
  6
CONTINUOUS
 62
    7
 10
25.969798999999966
 20
393.01773100000003
 11
25.730411000000004
 21
393.161316
  0
LINE
  8
_0-0_0
  6
CONTINUOUS
 62
    7
 10
25.969798999999966
 20
393.01773100000003
 11
25.71671699999996
 21
392.89999399999999
  0
LINE
  8
_0-0_0
  6
CONTINUOUS
 62
    7
 10
25.969798999999966
 20
392.78222699999998
 11
25.71671699999996
 21
392.89999399999999
  0
LINE
  8
_0-0_0
  6
CONTINUOUS
 62
    7
 10
25.969798999999966
 20
392.78222699999998
 11
25.730411000000004
 21
392.63867199999999
  0
LINE
  8
_0-0_0
  6
CONTINUOUS
 62
    7
 10
25.994418999999994
 20
392.54800399999999
 11
25.730411000000004
 21
392.63867199999999
  0
LINE
  8
_0-0_0
  6
CONTINUOUS
 62
    7
 10
25.994418999999994
 20
392.54800399999999
 11
25.771346999999992
 21
392.38018799999998
  0
LINE
  8
_0-0_0
  6
CONTINUOUS
 62
    7
 10
26.043384000000003
 20
392.31762700000002
 11
25.771346999999992
 21
392.38018799999998
  0
LINE
  8
_0-0_0
  6
CONTINUOUS
 62
    7
 10
26.043384000000003
 20
392.31762700000002
 11
25.83907499999998
 21
392.12744099999998
  0
LINE
  8
_0-0_0
  6
CONTINUOUS
 62
    7
 10
26.116160999999977
 20
392.093658
 11
25.83907499999998
 21
392.12744099999998
  0
LINE
  8
_0-0_0
  6
CONTINUOUS
 62
    7
 10
26.116160999999977
 20
392.093658
 11
25.932853999999963
 21
391.88314800000001
  0
LINE
  8
_0-0_0
  6
CONTINUOUS
 62
    7
 10
26.211951999999997
 20
391.87851000000001
 11
25.932853999999963
 21
391.88314800000001
  0
CIRCLE
  8
_0-0_0
  6
CONTINUOUS
 62
    7
 10
28.21671699999996
 20
392.89999399999999
 40
2
  0
LINE
  8
_0-0_0
  6
CONTINUOUS
 62
    7
 10
27.075700999999981
 20
394.988586
 11
26.96671699999996
 21
395.06506300000001
  0
LINE
  8
_0-0_0
  6
CONTINUOUS
 62
    7
 10
26.991278999999963
 20
394.78698700000001
 11
26.96671699999996
 21
395.06506300000001
  0
LINE
  8
_0-0_0
  6
CONTINUOUS
 62
    7
 10
26.991278999999963
 20
394.78698700000001
 11
26.747253000000001
 21
394.92251599999997
  0
LINE
  8
_0-0_0
  6
CONTINUOUS
 62
    7
 10
30.103724999999997
 20
394.125427
 11
30.239260000000002
 21
394.36944599999998
  0
LINE
  8
_0-0_0
  6
CONTINUOUS
 62
    7
 10
29.965293999999972
 20
394.31594799999999
 11
30.239260000000002
 21
394.36944599999998
  0
LINE
  8
_0-0_0
  6
CONTINUOUS
 62
    7
 10
29.965293999999972
 20
394.31594799999999
 11
30.074578999999972
 21
394.57281499999999
  0
LINE
  8
_0-0_0
  6
CONTINUOUS
 62
    7
 10
29.807706999999994
 20
394.49096700000001
 11
30.074578999999972
 21
394.57281499999999
  0
LINE
  8
_0-0_0
  6
CONTINUOUS
 62
    7
 10
29.807706999999994
 20
394.49096700000001
 11
29.889543000000003
 21
394.75784299999998
  0
LINE
  8
_0-0_0
  6
CONTINUOUS
 62
    7
 10
29.632686999999976
 20
394.64855999999997
 11
29.889543000000003
 21
394.75784299999998
  0
LINE
  8
_0-0_0
  6
CONTINUOUS
 62
    7
 10
29.632686999999976
 20
394.64855999999997
 11
29.686179999999979
 21
394.92251599999997
  0
LINE
  8
_0-0_0
  6
CONTINUOUS
 62
    7
 10
29.44215399999996
 20
394.78698700000001
 11
29.686179999999979
 21
394.92251599999997
  0
LINE
  8
_0-0_0
  6
CONTINUOUS
 62
    7
 10
29.44215399999996
 20
394.78698700000001
 11
29.46671699999996
 21
395.06506300000001
  0
LINE
  8
_0-0_0
  6
CONTINUOUS
 62
    7
 10
29.238194999999962
 20
394.90475500000002
 11
29.46671699999996
 21
395.06506300000001
  0
LINE
  8
_0-0_0
  6
CONTINUOUS
 62
    7
 10
29.238194999999962
 20
394.90475500000002
 11
29.233558999999957
 21
395.18383799999998
  0
LINE
  8
_0-0_0
  6
CONTINUOUS
 62
    7
 10
29.02304399999997
 20
395.00054899999998
 11
29.233558999999957
 21
395.18383799999998
  0
LINE
  8
_0-0_0
  6
CONTINUOUS
 62
    7
 10
29.02304399999997
 20
395.00054899999998
 11
28.989260000000002
 21
395.27761800000002
  0
LINE
  8
_0-0_0
  6
CONTINUOUS
 62
    7
 10
28.799060999999995
 20
395.07330300000001
 11
28.989260000000002
 21
395.27761800000002
  0
LINE
  8
_0-0_0
  6
CONTINUOUS
 62
    7
 10
28.799060999999995
 20
395.07330300000001
 11
28.736495999999988
 21
395.34533699999997
  0
LINE
  8
_0-0_0
  6
CONTINUOUS
 62
    7
 10
28.568694999999991
 20
395.12228399999998
 11
28.736495999999988
 21
395.34533699999997
  0
LINE
  8
_0-0_0
  6
CONTINUOUS
 62
    7
 10
28.568694999999991
 20
395.12228399999998
 11
28.478038999999967
 21
395.38629200000003
  0
LINE
  8
_0-0_0
  6
CONTINUOUS
 62
    7
 10
28.334473000000003
 20
395.14691199999999
 11
28.478038999999967
 21
395.38629200000003
  0
LINE
  8
_0-0_0
  6
CONTINUOUS
 62
    7
 10
28.334473000000003
 20
395.14691199999999
 11
28.21671699999996
 21
395.39999399999999
  0
LINE
  8
_0-0_0
  6
CONTINUOUS
 62
    7
 10
28.098960999999974
 20
395.14691199999999
 11
28.21671699999996
 21
395.39999399999999
  0
LINE
  8
_0-0_0
  6
CONTINUOUS
 62
    7
 10
28.098960999999974
 20
395.14691199999999
 11
27.955394999999953
 21
395.38629200000003
  0
LINE
  8
_0-0_0
  6
CONTINUOUS
 62
    7
 10
27.864737999999988
 20
395.12228399999998
 11
27.955394999999953
 21
395.38629200000003
  0
LINE
  8
_0-0_0
  6
CONTINUOUS
 62
    7
 10
27.864737999999988
 20
395.12228399999998
 11
27.696936999999991
 21
395.34533699999997
  0
LINE
  8
_0-0_0
  6
CONTINUOUS
 62
    7
 10
27.634372999999982
 20
395.07330300000001
 11
27.696936999999991
 21
395.34533699999997
  0
LINE
  8
_0-0_0
  6
CONTINUOUS
 62
    7
 10
27.634372999999982
 20
395.07330300000001
 11
27.444173999999975
 21
395.27761800000002
  0
LINE
  8
_0-0_0
  6
CONTINUOUS
 62
    7
 10
27.410388999999952
 20
395.00054899999998
 11
27.444173999999975
 21
395.27761800000002
  0
LINE
  8
_0-0_0
  6
CONTINUOUS
 62
    7
 10
27.410388999999952
 20
395.00054899999998
 11
27.199874999999963
 21
395.18383799999998
  0
LINE
  8
_0-0_0
  6
CONTINUOUS
 62
    7
 10
27.195237999999961
 20
394.90475500000002
 11
27.199874999999963
 21
395.18383799999998
  0
LINE
  8
_0-0_0
  6
CONTINUOUS
 62
    7
 10
27.195237999999961
 20
394.90475500000002
 11
27.075700999999981
 21
394.988586
  0
LINE
  8
_0-0_0
  6
CONTINUOUS
 62
    7
 10
28.798825999999963
 20
391.89999399999999
 11
27.63460699999996
 21
391.89999399999999
  0
LINE
  8
_0-0_0
  6
CONTINUOUS
 62
    7
 10
27.63460699999996
 20
391.89999399999999
 11
27.066714999999988
 21
392.89999399999999
  0
LINE
  8
_0-0_0
  6
CONTINUOUS
 62
    7
 10
27.066714999999988
 20
392.89999399999999
 11
27.63460699999996
 21
393.89999399999999
  0
LINE
  8
_0-0_0
  6
CONTINUOUS
 62
    7
 10
27.63460699999996
 20
393.89999399999999
 11
28.798825999999963
 21
393.89999399999999
  0
LINE
  8
_0-0_0
  6
CONTINUOUS
 62
    7
 10
28.798825999999963
 20
393.89999399999999
 11
29.366715999999997
 21
392.89999399999999
  0
LINE
  8
_0-0_0
  6
CONTINUOUS
 62
    7
 10
29.366715999999997
 20
392.89999399999999
 11
28.798825999999963
 21
391.89999399999999
  0
LINE
  8
_0-0_0
  6
CONTINUOUS
 62
    7
 10
42.916713999999956
 20
410.30029300000001
 11
42.916716999999949
 21
410.30627399999997
  0
LINE
  8
_0-0_0
  6
CONTINUOUS
 62
    7
 10
42.916716999999949
 20
411.5
 11
42.916346999999973
 21
411.48788500000001
  0
LINE
  8
_0-0_0
  6
CONTINUOUS
 62
    7
 10
42.916346999999973
 20
390.91210899999999
 11
42.916716999999949
 21
390.89999399999999
  0
ARC
  8
_0-0_0
  6
CONTINUOUS
 62
    7
 10
27.71671699999996
 20
410
 40
2
 50
90.000003000000007
 51
93.840255999999997
  0
ARC
  8
_0-0_0
  6
CONTINUOUS
 62
    7
 10
40.71671699999996
 20
392.39999399999999
 40
2
 50
269.99999700000001
 51
273.84026499999999
  0
ENDSEC
  0
EOF
