  0
SECTION
  2
HEADER
  9
$ACADVER
  1
AC1009
  9
$INSBASE
 10
0
 20
0
 30
0
  9
$EXTMIN
 10
0
 20
0
  9
$EXTMAX
 10
420.5
 20
297
  9
$LIMMIN
 10
0
 20
0
  9
$LIMMAX
 10
420.5
 20
297
  9
$LTSCALE
 40
0.5
  0
ENDSEC
  0
SECTION
  2
TABLES
  0
TABLE
  2
LTYPE
 70
     9
  0
LTYPE
  2
CONTINUOUS
 70
    64
  3
実線
 72
    65
 73
     0
 40
0.0
  0
LTYPE
  2
DASHED1
 70
    64
  3
--  --  --  --  --  --  --  --  
 72
    65
 73
     2
 40
2.5
 49
1.25
 49
-1.25
  0
LTYPE
  2
DASHED2
 70
    64
  3
----    ----    ----    ----    
 72
    65
 73
     2
 40
5.0
 49
2.5
 49
-2.5
  0
LTYPE
  2
DASHED3
 70
    64
  3
------  ------  ------  ------  
 72
    65
 73
     2
 40
5.0
 49
3.75
 49
-1.25
  0
LTYPE
  2
CENTER1
 70
    64
  3
----- - ----- - ----- - ----- - 
 72
    65
 73
     4
 40
10.0
 49
6.25
 49
-1.25
 49
1.25
 49
-1.25
  0
LTYPE
  2
CENTER2
 70
    64
  3
----------  --  ----------  --  
 72
    65
 73
     4
 40
20.0
 49
12.5
 49
-2.5
 49
2.5
 49
-2.5
  0
LTYPE
  2
PHANTOM1
 70
    64
  3
--- - - --- - - --- - - --- - - 
 72
    65
 73
     6
 40
10.0
 49
3.25
 49
-1.25
 49
1.25
 49
-1.25
 49
1.25
 49
-1.25
  0
LTYPE
  2
PHANTOM2
 70
    64
  3
--------  -  -  --------  -  -  
 72
    65
 73
     6
 40
20.0
 49
10.0
 49
-2.5
 49
1.25
 49
-2.5
 49
1.25
 49
-2.5
  0
LTYPE
  2
DOT
 70
    64
  3
-   -   -   -   -   -   -   -   
 72
    65
 73
     2
 40
2.5
 49
0.625
 49
-1.875
  0
LTYPE
  2
DUMMY
 70
    64
  3
ダミー
 72
    65
 73
     0
 40
0.0
  0
LTYPE
  2
RAND1
 70
    64
  3
ランダム線1
 72
    65
 73
     4
 40
10.0
 49
1.0
 49
-2.0
 49
3.0
 49
-4.0
  0
LTYPE
  2
RAND2
 70
    64
  3
ランダム線2
 72
    65
 73
     4
 40
14.0
 49
2.0
 49
-3.0
 49
4.0
 49
-5.0
  0
LTYPE
  2
RAND3
 70
    64
  3
ランダム線3
 72
    65
 73
     4
 40
18.0
 49
3.0
 49
-4.0
 49
5.0
 49
-6.0
  0
LTYPE
  2
RAND4
 70
    64
  3
ランダム線4
 72
    65
 73
     4
 40
22.0
 49
4.0
 49
-5.0
 49
6.0
 49
-7.0
  0
LTYPE
  2
RAND5
 70
    64
  3
ランダム線5
 72
    65
 73
     4
 40
26.0
 49
5.0
 49
-6.0
 49
7.0
 49
-8.0
  0
LTYPE
  2
LONG1
 70
    64
  3
----------  --  ----------  --  
 72
    65
 73
     4
 40
40.0
 49
32.5
 49
-2.5
 49
2.5
 49
-2.5
  0
LTYPE
  2
LONG2
 70
    64
  3
--------  -  -  --------  -  -  
 72
    65
 73
     6
 40
40.0
 49
30.0
 49
-2.5
 49
1.25
 49
-2.5
 49
1.25
 49
-2.5
  0
LTYPE
  2
LONG3
 70
    64
  3
+++++++++++++++..+++++++++++++++
 72
    65
 73
     2
 40
40.0
 49
37.5
 49
-2.5
  0
LTYPE
  2
LONG4
 70
    64
  3
+++++++++++++++..+++++++++++++++
 72
    65
 73
     2
 40
80.0
 49
75.0
 49
-5.0
  0
LTYPE
  2
LONG5
 70
    64
  3
----------  --  ----------  --  
 72
    65
 73
     4
 40
60.0
 49
37.5
 49
-7.5
 49
7.5
 49
-7.5
  0
LTYPE
  2
dashed
 70
   64
  3
-------   -------------   ------
 72
   65
 73
    2
 40
7.5
 49
6
 49
-1.5
  0
LTYPE
  2
dashed_spaced
 70
   64
  3
----        --------        ----
 72
   65
 73
    2
 40
12
 49
6
 49
-6
  0
LTYPE
  2
long_dashed_dotted
 70
   64
  3
------------- --- --------------
 72
   65
 73
    4
 40
15.25
 49
12
 49
-1.5
 49
0.25
 49
-1.5
  0
LTYPE
  2
long_dashed_double-dotted
 70
   64
  3
----------- --- --- ------------
 72
   65
 73
    6
 40
17
 49
12
 49
-1.5
 49
0.25
 49
-1.5
 49
0.25
 49
-1.5
  0
LTYPE
  2
long_dashed_triplicate-dotted
 70
   64
  3
--------- --- --- --- ----------
 72
   65
 73
    8
 40
18.75
 49
12
 49
-1.5
 49
0.25
 49
-1.5
 49
0.25
 49
-1.5
 49
0.25
 49
-1.5
  0
LTYPE
  2
dotted
 70
   64
  3
   -       -       -       -    
 72
   65
 73
    2
 40
1.75
 49
0.25
 49
-1.5
  0
LTYPE
  2
chain
 70
   64
  3
-------------- -- --------------
 72
   65
 73
    4
 40
18.5
 49
12
 49
-1.5
 49
3.5
 49
-1.5
  0
LTYPE
  2
chain_double_dash
 70
   64
  3
------------ -- -- -------------
 72
   65
 73
    6
 40
23.5
 49
12
 49
-1.5
 49
3.5
 49
-1.5
 49
3.5
 49
-1.5
  0
LTYPE
  2
dashed_dotted
 70
   64
  3
-----------     -     ----------
 72
   65
 73
    4
 40
9.25
 49
6
 49
-1.5
 49
0.25
 49
-1.5
  0
LTYPE
  2
double-dashed_dotted
 70
   64
  3
------   -----------   -   -----
 72
   65
 73
    6
 40
16.75
 49
6
 49
-1.5
 49
6
 49
-1.5
 49
0.25
 49
-1.5
  0
LTYPE
  2
dashed_double-dotted
 70
   64
  3
---------    -    -    ---------
 72
   65
 73
    6
 40
11
 49
6
 49
-1.5
 49
0.25
 49
-1.5
 49
0.25
 49
-1.5
  0
LTYPE
  2
double-dashed_double-dotted
 70
   64
  3
-----   ---------   -   -   ----
 72
   65
 73
    8
 40
18.5
 49
6
 49
-1.5
 49
6
 49
-1.5
 49
0.25
 49
-1.5
 49
0.25
 49
-1.5
  0
LTYPE
  2
dashed_triplicate-dotted
 70
   64
  3
-------    -    -    -    ------
 72
   65
 73
    8
 40
12.75
 49
6
 49
-1.5
 49
0.25
 49
-1.5
 49
0.25
 49
-1.5
 49
0.25
 49
-1.5
  0
LTYPE
  2
double-dashed_triplicate-dotted
 70
   64
  3
-----  ---------  -  -  -  -----
 72
   65
 73
   10
 40
20.25
 49
6
 49
-1.5
 49
6
 49
-1.5
 49
0.25
 49
-1.5
 49
0.25
 49
-1.5
 49
0.25
 49
-1.5
  0
LTYPE
  2
undefined
 70
   64
  3
--------------------------------
 72
   65
 73
    0
 40
0
  0
ENDTAB
  0
TABLE
  2
STYLE
  5
3
100
AcDbSymbolTable
 70
     1
  0
STYLE
  5
10
100
AcDbSymbolTableRecord
100
AcDbTextStyleTableRecord
  2
STANDARD
 70
     0
 40
0.0
 41
1.0
 50
0.0
 71
     0
 42
0.2
  3
txt
  4
bigfont.shx
  0
STYLE
  5
26
100
AcDbSymbolTableRecord
100
AcDbTextStyleTableRecord
  2
TATEGAKI
 70
    68
 40
0.0
 41
1.0
 50
0.0
 71
     0
 42
1.0
  3
txt
  4
bigfont.shx
  0
ENDTAB
  0
TABLE
  2
LAYER
 70
    2
  0
LAYER
  2
_0-0_0
 70
   64
 62
    7
  6
CONTINUOUS
  0
LAYER
  2
ADD_LINE
 70
   64
 62
    7
  6
CONTINUOUS
  0
ENDTAB
  0
ENDSEC
  0
SECTION
  2
BLOCKS
  0
ENDSEC
  0
SECTION
  2
ENTITIES
  0
ARC
  8
_0-0_0
  6
CONTINUOUS
 62
    7
 10
167.22770699999998
 20
214.60000600000001
 40
0.2
 50
269.99999700000001
 51
20.376440000000013
  0
LINE
  8
_0-0_0
  6
CONTINUOUS
 62
    7
 10
167.41520699999998
 20
214.66963200000001
 11
166.11518799999999
 21
218.16963200000001
  0
ARC
  8
_0-0_0
  6
CONTINUOUS
 62
    7
 10
165.92771899999997
 20
218.10000600000001
 40
0.2
 50
20.376439999999999
 51
159.62355600000001
  0
LINE
  8
_0-0_0
  6
CONTINUOUS
 62
    7
 10
164.44023099999998
 20
214.66963200000001
 11
165.74021899999997
 21
218.16963200000001
  0
ARC
  8
_0-0_0
  6
CONTINUOUS
 62
    7
 10
164.62770099999997
 20
214.60000600000001
 40
0.2
 50
159.62355600000001
 51
269.99999700000001
  0
LINE
  8
_0-0_0
  6
CONTINUOUS
 62
    7
 10
164.62770099999997
 20
214.39999399999999
 11
167.22770699999998
 21
214.39999399999999
  0
LINE
  8
_0-0_0
  6
CONTINUOUS
 62
    7
 10
1.9949029999999652
 20
263.002747
 11
1.9949029999999652
 21
263.00174000000004
  0
LINE
  8
_0-0_0
  6
CONTINUOUS
 62
    7
 10
484.92776500000002
 20
251.39999399999999
 11
484.92776500000002
 21
238.39999399999999
  0
LINE
  8
_0-0_0
  6
CONTINUOUS
 62
    7
 10
111.92771899999997
 20
251.39999399999999
 11
111.92771899999997
 21
238.39999399999999
  0
LINE
  8
_0-0_0
  6
CONTINUOUS
 62
    7
 10
111.92771899999997
 20
251.39999399999999
 11
484.92776500000002
 21
251.39999399999999
  0
LINE
  8
_0-0_0
  6
CONTINUOUS
 62
    7
 10
111.92771899999997
 20
251.39999399999999
 11
111.92771899999997
 21
270
  0
LINE
  8
_0-0_0
  6
CONTINUOUS
 62
    7
 10
111.92771899999997
 20
272.5
 11
111.92771899999997
 21
270
  0
LINE
  8
_0-0_0
  6
CONTINUOUS
 62
    7
 10
111.92771899999997
 20
273
 11
111.92771899999997
 21
272.5
  0
LINE
  8
_0-0_0
  6
CONTINUOUS
 62
    7
 10
111.92771899999997
 20
225
 11
111.92771899999997
 21
224.5
  0
LINE
  8
_0-0_0
  6
CONTINUOUS
 62
    7
 10
111.92771899999997
 20
230
 11
111.92771899999997
 21
225
  0
LINE
  8
_0-0_0
  6
CONTINUOUS
 62
    7
 10
111.92771899999997
 20
230.5
 11
111.92771899999997
 21
230
  0
LINE
  8
_0-0_0
  6
CONTINUOUS
 62
    7
 10
111.92771899999997
 20
231
 11
111.92771899999997
 21
230.5
  0
LINE
  8
_0-0_0
  6
CONTINUOUS
 62
    7
 10
111.92771899999997
 20
234.199997
 11
111.92771899999997
 21
231
  0
LINE
  8
_0-0_0
  6
CONTINUOUS
 62
    7
 10
111.92771899999997
 20
234.199997
 11
111.92771899999997
 21
238.39999399999999
  0
LINE
  8
_0-0_0
  6
CONTINUOUS
 62
    7
 10
111.92771899999997
 20
238.39999399999999
 11
484.92776500000002
 21
238.39999399999999
  0
LINE
  8
_0-0_0
  6
CONTINUOUS
 62
    7
 10
484.92776500000002
 20
234.199997
 11
484.92776500000002
 21
238.39999399999999
  0
LINE
  8
_0-0_0
  6
CONTINUOUS
 62
    7
 10
484.92776500000002
 20
231
 11
484.92776500000002
 21
234.199997
  0
LINE
  8
_0-0_0
  6
CONTINUOUS
 62
    7
 10
484.92776500000002
 20
231
 11
484.92776500000002
 21
230.5
  0
LINE
  8
_0-0_0
  6
CONTINUOUS
 62
    7
 10
484.92776500000002
 20
230.5
 11
484.92776500000002
 21
230
  0
LINE
  8
_0-0_0
  6
CONTINUOUS
 62
    7
 10
484.92776500000002
 20
230
 11
484.92776500000002
 21
225
  0
LINE
  8
_0-0_0
  6
CONTINUOUS
 62
    7
 10
484.92776500000002
 20
225
 11
484.92776500000002
 21
224.5
  0
LINE
  8
_0-0_0
  6
CONTINUOUS
 62
    7
 10
484.92776500000002
 20
273
 11
484.92776500000002
 21
272.5
  0
LINE
  8
_0-0_0
  6
CONTINUOUS
 62
    7
 10
484.92776500000002
 20
270
 11
484.92776500000002
 21
272.5
  0
LINE
  8
_0-0_0
  6
CONTINUOUS
 62
    7
 10
484.92776500000002
 20
251.39999399999999
 11
484.92776500000002
 21
270
  0
CIRCLE
  8
_0-0_0
  6
CONTINUOUS
 62
    7
 10
448.42776500000002
 20
260.5
 40
6
  0
CIRCLE
  8
_0-0_0
  6
CONTINUOUS
 62
    7
 10
348.42773399999999
 20
260.5
 40
6
  0
CIRCLE
  8
_0-0_0
  6
CONTINUOUS
 62
    7
 10
248.42773399999999
 20
260.5
 40
6
  0
CIRCLE
  8
_0-0_0
  6
CONTINUOUS
 62
    7
 10
148.42771899999997
 20
260.5
 40
6
  0
LINE
  8
_0-0_0
  6
CONTINUOUS
 62
    7
 10
111.92771899999997
 20
270
 11
484.92776500000002
 21
270
  0
LINE
  8
_0-0_0
  6
CONTINUOUS
 62
    7
 10
111.92771899999997
 20
273
 11
484.92776500000002
 21
273
  0
LINE
  8
_0-0_0
  6
CONTINUOUS
 62
    7
 10
111.92771899999997
 20
272.5
 11
109.42771899999997
 21
272.5
  0
LINE
  8
_0-0_0
  6
CONTINUOUS
 62
    7
 10
109.42771899999997
 20
272.5
 11
109.42771899999997
 21
272
  0
LINE
  8
_0-0_0
  6
CONTINUOUS
 62
    7
 10
109.42771899999997
 20
272
 11
109.42771899999997
 21
231.5
  0
LINE
  8
_0-0_0
  6
CONTINUOUS
 62
    7
 10
111.92771899999997
 20
231
 11
109.42771899999997
 21
231
  0
LINE
  8
_0-0_0
  6
CONTINUOUS
 62
    7
 10
109.42771899999997
 20
231.5
 11
109.42771899999997
 21
231
  0
LINE
  8
_0-0_0
  6
CONTINUOUS
 62
    7
 10
109.42771899999997
 20
231
 11
109.42771899999997
 21
230
  0
LINE
  8
_0-0_0
  6
CONTINUOUS
 62
    7
 10
109.42771899999997
 20
230
 11
109.42771899999997
 21
225.5
  0
LINE
  8
_0-0_0
  6
CONTINUOUS
 62
    7
 10
111.92771899999997
 20
225
 11
109.42771899999997
 21
225
  0
LINE
  8
_0-0_0
  6
CONTINUOUS
 62
    7
 10
109.42771899999997
 20
225.5
 11
109.42771899999997
 21
225
  0
LINE
  8
_0-0_0
  6
CONTINUOUS
 62
    7
 10
111.92771899999997
 20
224.5
 11
484.92776500000002
 21
224.5
  0
LINE
  8
_0-0_0
  6
CONTINUOUS
 62
    7
 10
111.92771899999997
 20
230.5
 11
484.92776500000002
 21
230.5
  0
LINE
  8
_0-0_0
  6
CONTINUOUS
 62
    7
 10
111.92771899999997
 20
234.199997
 11
484.92776500000002
 21
234.199997
  0
LINE
  8
_0-0_0
  6
CONTINUOUS
 62
    7
 10
484.92776500000002
 20
272.5
 11
487.42776500000002
 21
272.5
  0
LINE
  8
_0-0_0
  6
CONTINUOUS
 62
    7
 10
487.42776500000002
 20
272.5
 11
487.42776500000002
 21
272
  0
LINE
  8
_0-0_0
  6
CONTINUOUS
 62
    7
 10
487.42776500000002
 20
272
 11
487.42776500000002
 21
231.5
  0
LINE
  8
_0-0_0
  6
CONTINUOUS
 62
    7
 10
484.92776500000002
 20
231
 11
487.42776500000002
 21
231
  0
LINE
  8
_0-0_0
  6
CONTINUOUS
 62
    7
 10
487.42776500000002
 20
231.5
 11
487.42776500000002
 21
231
  0
LINE
  8
_0-0_0
  6
CONTINUOUS
 62
    7
 10
487.42776500000002
 20
231
 11
487.42776500000002
 21
230
  0
LINE
  8
_0-0_0
  6
CONTINUOUS
 62
    7
 10
487.42776500000002
 20
230
 11
487.42776500000002
 21
225.5
  0
LINE
  8
_0-0_0
  6
CONTINUOUS
 62
    7
 10
484.92776500000002
 20
225
 11
487.42776500000002
 21
225
  0
LINE
  8
_0-0_0
  6
CONTINUOUS
 62
    7
 10
487.42776500000002
 20
225.5
 11
487.42776500000002
 21
225
  0
ARC
  8
_0-0_0
  6
CONTINUOUS
 62
    7
 10
169.42771899999997
 20
225.5
 40
0.5
 50
269.99999700000001
 51
0
  0
LINE
  8
_0-0_0
  6
CONTINUOUS
 62
    7
 10
169.42771899999997
 20
225
 11
162.42771899999997
 21
225
  0
ARC
  8
_0-0_0
  6
CONTINUOUS
 62
    7
 10
162.42771899999997
 20
225.5
 40
0.5
 50
179.99999099999999
 51
269.99999700000001
  0
LINE
  8
_0-0_0
  6
CONTINUOUS
 62
    7
 10
161.92771899999997
 20
229.5
 11
161.92771899999997
 21
225.5
  0
ARC
  8
_0-0_0
  6
CONTINUOUS
 62
    7
 10
162.42771899999997
 20
229.5
 40
0.5
 50
90.000003000000007
 51
179.99999099999999
  0
ARC
  8
_0-0_0
  6
CONTINUOUS
 62
    7
 10
169.42771899999997
 20
229.5
 40
0.5
 50
0
 51
90.000003000000007
  0
LINE
  8
_0-0_0
  6
CONTINUOUS
 62
    7
 10
162.42771899999997
 20
230
 11
169.42771899999997
 21
230
  0
LINE
  8
_0-0_0
  6
CONTINUOUS
 62
    7
 10
484.92776500000002
 20
273
 11
484.92776500000002
 21
272.699997
  0
LINE
  8
_0-0_0
  6
CONTINUOUS
 62
    7
 10
484.92776500000002
 20
272.699997
 11
484.92776500000002
 21
272.5
  0
CIRCLE
  8
_0-0_0
  6
CONTINUOUS
 62
    7
 10
448.42776500000002
 20
260.5
 40
5.5
  0
CIRCLE
  8
_0-0_0
  6
CONTINUOUS
 62
    7
 10
348.42773399999999
 20
260.5
 40
5.5
  0
CIRCLE
  8
_0-0_0
  6
CONTINUOUS
 62
    7
 10
248.42773399999999
 20
260.5
 40
5.5
  0
CIRCLE
  8
_0-0_0
  6
CONTINUOUS
 62
    7
 10
148.42771899999997
 20
260.5
 40
5.5
  0
LINE
  8
_0-0_0
  6
CONTINUOUS
 62
    7
 10
169.92771899999997
 20
225.5
 11
169.92771899999997
 21
229.5
  0
CIRCLE
  8
_0-0_0
  6
CONTINUOUS
 62
    7
 10
448.42776500000002
 20
260.5
 40
3.5
  0
CIRCLE
  8
_0-0_0
  6
CONTINUOUS
 62
    7
 10
348.42773399999999
 20
260.5
 40
3.5
  0
CIRCLE
  8
_0-0_0
  6
CONTINUOUS
 62
    7
 10
248.42773399999999
 20
260.5
 40
3.5
  0
CIRCLE
  8
_0-0_0
  6
CONTINUOUS
 62
    7
 10
148.42771899999997
 20
260.5
 40
3.5
  0
ARC
  8
_0-0_0
  6
CONTINUOUS
 62
    7
 10
167.22770699999998
 20
229.199997
 40
0.2
 50
339.62356199999999
 51
90.000002999999978
  0
LINE
  8
_0-0_0
  6
CONTINUOUS
 62
    7
 10
167.41520699999998
 20
229.130371
 11
166.11518799999999
 21
225.630371
  0
ARC
  8
_0-0_0
  6
CONTINUOUS
 62
    7
 10
165.92771899999997
 20
225.699997
 40
0.2
 50
200.37643
 51
339.62356199999999
  0
LINE
  8
_0-0_0
  6
CONTINUOUS
 62
    7
 10
164.44023099999998
 20
229.130371
 11
165.74021899999997
 21
225.630371
  0
ARC
  8
_0-0_0
  6
CONTINUOUS
 62
    7
 10
164.62770099999997
 20
229.199997
 40
0.2
 50
90.000003000000007
 51
200.37643
  0
LINE
  8
_0-0_0
  6
CONTINUOUS
 62
    7
 10
164.62770099999997
 20
229.39999399999999
 11
167.22770699999998
 21
229.39999399999999
  0
ARC
  8
_0-0_0
  6
CONTINUOUS
 62
    7
 10
404.627746
 20
229.199997
 40
0.2
 50
90.000003000000007
 51
200.37643
  0
LINE
  8
_0-0_0
  6
CONTINUOUS
 62
    7
 10
404.627746
 20
229.39999399999999
 11
407.22772199999997
 21
229.39999399999999
  0
ARC
  8
_0-0_0
  6
CONTINUOUS
 62
    7
 10
402.42773399999999
 20
229.5
 40
0.5
 50
90.000003000000007
 51
179.99999099999999
  0
LINE
  8
_0-0_0
  6
CONTINUOUS
 62
    7
 10
401.92773399999999
 20
229.5
 11
401.92773399999999
 21
225.5
  0
ARC
  8
_0-0_0
  6
CONTINUOUS
 62
    7
 10
402.42773399999999
 20
225.5
 40
0.5
 50
179.99999099999999
 51
269.99999700000001
  0
LINE
  8
_0-0_0
  6
CONTINUOUS
 62
    7
 10
409.42773399999999
 20
225
 11
402.42773399999999
 21
225
  0
ARC
  8
_0-0_0
  6
CONTINUOUS
 62
    7
 10
409.42773399999999
 20
225.5
 40
0.5
 50
269.99999700000001
 51
0
  0
LINE
  8
_0-0_0
  6
CONTINUOUS
 62
    7
 10
409.92773399999999
 20
225.5
 11
409.92773399999999
 21
229.5
  0
ARC
  8
_0-0_0
  6
CONTINUOUS
 62
    7
 10
409.42773399999999
 20
229.5
 40
0.5
 50
0
 51
90.000003000000007
  0
LINE
  8
_0-0_0
  6
CONTINUOUS
 62
    7
 10
402.42773399999999
 20
230
 11
409.42773399999999
 21
230
  0
LINE
  8
_0-0_0
  6
CONTINUOUS
 62
    7
 10
404.440246
 20
229.130371
 11
405.74023399999999
 21
225.630371
  0
ARC
  8
_0-0_0
  6
CONTINUOUS
 62
    7
 10
405.92773399999999
 20
225.699997
 40
0.2
 50
200.37643
 51
339.62356199999999
  0
LINE
  8
_0-0_0
  6
CONTINUOUS
 62
    7
 10
407.41522199999997
 20
229.130371
 11
406.11523399999999
 21
225.630371
  0
ARC
  8
_0-0_0
  6
CONTINUOUS
 62
    7
 10
407.22772199999997
 20
229.199997
 40
0.2
 50
339.62356199999999
 51
90.000002999999978
  0
LINE
  8
_0-0_0
  6
CONTINUOUS
 62
    7
 10
118.42771899999997
 20
222.5
 11
123.42771899999997
 21
222.5
  0
LINE
  8
_0-0_0
  6
CONTINUOUS
 62
    7
 10
123.42771899999997
 20
222.5
 11
125.22770699999998
 21
222.5
  0
LINE
  8
_0-0_0
  6
CONTINUOUS
 62
    7
 10
125.22770699999998
 20
222.5
 11
125.92771899999997
 21
222.5
  0
ARC
  8
_0-0_0
  6
CONTINUOUS
 62
    7
 10
125.22770699999998
 20
222
 40
0.5
 50
0
 51
90.000003000000007
  0
ARC
  8
_0-0_0
  6
CONTINUOUS
 62
    7
 10
118.42771899999997
 20
222
 40
0.5
 50
90.000003000000007
 51
179.99999099999999
  0
ARC
  8
_0-0_0
  6
CONTINUOUS
 62
    7
 10
221.92773399999999
 20
222
 40
0.5
 50
0
 51
90.000003000000007
  0
LINE
  8
_0-0_0
  6
CONTINUOUS
 62
    7
 10
125.92771899999997
 20
222.5
 11
125.92771899999997
 21
221
  0
LINE
  8
_0-0_0
  6
CONTINUOUS
 62
    7
 10
125.92771899999997
 20
223
 11
125.92771899999997
 21
222.5
  0
LINE
  8
_0-0_0
  6
CONTINUOUS
 62
    7
 10
125.92771899999997
 20
223.5
 11
125.92771899999997
 21
223
  0
LINE
  8
_0-0_0
  6
CONTINUOUS
 62
    7
 10
125.92771899999997
 20
224.5
 11
125.92771899999997
 21
223.5
  0
LINE
  8
_0-0_0
  6
CONTINUOUS
 62
    7
 10
129.92771899999997
 20
222.5
 11
130.62770099999997
 21
222.5
  0
LINE
  8
_0-0_0
  6
CONTINUOUS
 62
    7
 10
125.72770699999998
 20
222
 11
125.72770699999998
 21
221
  0
LINE
  8
_0-0_0
  6
CONTINUOUS
 62
    7
 10
128.92771899999997
 20
195.5
 11
128.92771899999997
 21
197.09999099999999
  0
LINE
  8
_0-0_0
  6
CONTINUOUS
 62
    7
 10
128.92771899999997
 20
195.5
 11
123.42771899999997
 21
195.5
  0
LINE
  8
_0-0_0
  6
CONTINUOUS
 62
    7
 10
144.92771899999997
 20
202.199997
 11
186.92771899999997
 21
202.199997
  0
LINE
  8
_0-0_0
  6
CONTINUOUS
 62
    7
 10
144.92771899999997
 20
221.800003
 11
186.92771899999997
 21
221.800003
  0
LINE
  8
_0-0_0
  6
CONTINUOUS
 62
    7
 10
208.42773399999999
 20
195.5
 11
198.92773399999999
 21
195.5
  0
LINE
  8
_0-0_0
  6
CONTINUOUS
 62
    7
 10
198.92773399999999
 20
195.5
 11
198.92773399999999
 21
197.09999099999999
  0
ARC
  8
_0-0_0
  6
CONTINUOUS
 62
    7
 10
198.62771599999996
 20
197.09999099999999
 40
0.2999999999999999
 50
0
 51
90.000003000000007
  0
LINE
  8
_0-0_0
  6
CONTINUOUS
 62
    7
 10
197.92773399999999
 20
197.39999399999999
 11
198.62771599999996
 21
197.39999399999999
  0
LINE
  8
_0-0_0
  6
CONTINUOUS
 62
    7
 10
197.42773399999999
 20
197.800003
 11
197.92773399999999
 21
197.800003
  0
LINE
  8
_0-0_0
  6
CONTINUOUS
 62
    7
 10
183.92771899999997
 20
197.800003
 11
197.42773399999999
 21
197.800003
  0
ARC
  8
_0-0_0
  6
CONTINUOUS
 62
    7
 10
181.42771899999997
 20
197.800003
 40
2.5
 50
0
 51
90.000003000000007
  0
LINE
  8
_0-0_0
  6
CONTINUOUS
 62
    7
 10
150.42771899999997
 20
200.300003
 11
181.42771899999997
 21
200.300003
  0
ARC
  8
_0-0_0
  6
CONTINUOUS
 62
    7
 10
150.42771899999997
 20
197.800003
 40
2.5
 50
90.000003000000007
 51
179.99999099999999
  0
LINE
  8
_0-0_0
  6
CONTINUOUS
 62
    7
 10
130.42771899999997
 20
197.800003
 11
147.92771899999997
 21
197.800003
  0
LINE
  8
_0-0_0
  6
CONTINUOUS
 62
    7
 10
129.92771899999997
 20
197.800003
 11
130.42771899999997
 21
197.800003
  0
LINE
  8
_0-0_0
  6
CONTINUOUS
 62
    7
 10
129.22770699999998
 20
197.39999399999999
 11
129.92771899999997
 21
197.39999399999999
  0
ARC
  8
_0-0_0
  6
CONTINUOUS
 62
    7
 10
129.22770699999998
 20
197.09999099999999
 40
0.2999999999999999
 50
90.000003000000007
 51
179.99999099999999
  0
LINE
  8
_0-0_0
  6
CONTINUOUS
 62
    7
 10
117.92771899999997
 20
220.22485399999999
 11
117.92771899999997
 21
222
  0
LINE
  8
_0-0_0
  6
CONTINUOUS
 62
    7
 10
122.92771899999997
 20
223
 11
122.92771899999997
 21
222.5
  0
LINE
  8
_0-0_0
  6
CONTINUOUS
 62
    7
 10
122.92771899999997
 20
219.05355800000001
 11
122.92771899999997
 21
219.158569
  0
LINE
  8
_0-0_0
  6
CONTINUOUS
 62
    7
 10
122.92771899999997
 20
223
 11
122.92771899999997
 21
224.5
  0
LINE
  8
_0-0_0
  6
CONTINUOUS
 62
    7
 10
222.42773399999999
 20
224.5
 11
222.42773399999999
 21
223
  0
LINE
  8
_0-0_0
  6
CONTINUOUS
 62
    7
 10
222.42773399999999
 20
223
 11
222.42773399999999
 21
222
  0
LINE
  8
_0-0_0
  6
CONTINUOUS
 62
    7
 10
222.42773399999999
 20
221.199997
 11
222.42773399999999
 21
222
  0
LINE
  8
_0-0_0
  6
CONTINUOUS
 62
    7
 10
221.92773399999999
 20
222.5
 11
222.42773399999999
 21
222.5
  0
LINE
  8
_0-0_0
  6
CONTINUOUS
 62
    7
 10
209.42773399999999
 20
222.5
 11
221.92773399999999
 21
222.5
  0
LINE
  8
_0-0_0
  6
CONTINUOUS
 62
    7
 10
222.42773399999999
 20
224.5
 11
222.42773399999999
 21
223.5
  0
LINE
  8
_0-0_0
  6
CONTINUOUS
 62
    7
 10
222.42773399999999
 20
223
 11
222.42773399999999
 21
222.5
  0
LINE
  8
_0-0_0
  6
CONTINUOUS
 62
    7
 10
222.42773399999999
 20
223.5
 11
222.42773399999999
 21
223
  0
ARC
  8
_0-0_0
  6
CONTINUOUS
 62
    7
 10
127.92771899999997
 20
221
 40
2
 50
179.99999099999999
 51
0
  0
LINE
  8
_0-0_0
  6
CONTINUOUS
 62
    7
 10
208.92773399999999
 20
222.5
 11
209.42773399999999
 21
222.5
  0
LINE
  8
_0-0_0
  6
CONTINUOUS
 62
    7
 10
208.92773399999999
 20
222
 11
208.92773399999999
 21
222.5
  0
LINE
  8
_0-0_0
  6
CONTINUOUS
 62
    7
 10
208.92773399999999
 20
221
 11
208.92773399999999
 21
221.199997
  0
ARC
  8
_0-0_0
  6
CONTINUOUS
 62
    7
 10
206.92773399999999
 20
221
 40
2
 50
179.99999099999999
 51
0
  0
LINE
  8
_0-0_0
  6
CONTINUOUS
 62
    7
 10
204.92773399999999
 20
222.5
 11
204.92773399999999
 21
221
  0
LINE
  8
_0-0_0
  6
CONTINUOUS
 62
    7
 10
204.22772199999997
 20
222.5
 11
204.92773399999999
 21
222.5
  0
LINE
  8
_0-0_0
  6
CONTINUOUS
 62
    7
 10
129.92771899999997
 20
221
 11
129.92771899999997
 21
222.5
  0
LINE
  8
_0-0_0
  6
CONTINUOUS
 62
    7
 10
125.92771899999997
 20
223.5
 11
222.42773399999999
 21
223.5
  0
ARC
  8
_0-0_0
  6
CONTINUOUS
 62
    7
 10
130.62770099999997
 20
222
 40
0.5
 50
90.000003000000007
 51
179.99999099999999
  0
ARC
  8
_0-0_0
  6
CONTINUOUS
 62
    7
 10
127.92771899999997
 20
221
 40
2.2000000000000002
 50
179.99999099999999
 51
0
  0
LINE
  8
_0-0_0
  6
CONTINUOUS
 62
    7
 10
129.92771899999997
 20
197.39999399999999
 11
130.42771899999997
 21
197.39999399999999
  0
LINE
  8
_0-0_0
  6
CONTINUOUS
 62
    7
 10
130.42771899999997
 20
197.800003
 11
130.42771899999997
 21
197.39999399999999
  0
LINE
  8
_0-0_0
  6
CONTINUOUS
 62
    7
 10
147.92771899999997
 20
197.800003
 11
183.92771899999997
 21
197.800003
  0
LINE
  8
_0-0_0
  6
CONTINUOUS
 62
    7
 10
197.42773399999999
 20
197.39999399999999
 11
197.92773399999999
 21
197.39999399999999
  0
LINE
  8
_0-0_0
  6
CONTINUOUS
 62
    7
 10
197.42773399999999
 20
197.800003
 11
197.42773399999999
 21
197.39999399999999
  0
LINE
  8
_0-0_0
  6
CONTINUOUS
 62
    7
 10
208.42773399999999
 20
195
 11
199.42773399999999
 21
195
  0
ARC
  8
_0-0_0
  6
CONTINUOUS
 62
    7
 10
199.42773399999999
 20
195.5
 40
0.5
 50
179.99999099999999
 51
269.99999700000001
  0
LINE
  8
_0-0_0
  6
CONTINUOUS
 62
    7
 10
208.42773399999999
 20
195.5
 11
208.92773399999999
 21
195.5
  0
LINE
  8
_0-0_0
  6
CONTINUOUS
 62
    7
 10
208.92773399999999
 20
195.5
 11
208.92773399999999
 21
195.699997
  0
LINE
  8
_0-0_0
  6
CONTINUOUS
 62
    7
 10
213.42773399999999
 20
195.89999399999999
 11
209.12771599999996
 21
195.89999399999999
  0
LINE
  8
_0-0_0
  6
CONTINUOUS
 62
    7
 10
213.92773399999999
 20
196.39999399999999
 11
213.92773399999999
 21
198.17514
  0
ARC
  8
_0-0_0
  6
CONTINUOUS
 62
    7
 10
210.87976099999997
 20
198.11901900000001
 40
3.0490550000000001
 50
1.0548960000000001
 51
14.838094000000002
  0
LINE
  8
_0-0_0
  6
CONTINUOUS
 62
    7
 10
213.42773399999999
 20
199.10000600000001
 11
209.060181
 21
199.10000600000001
  0
LINE
  8
_0-0_0
  6
CONTINUOUS
 62
    7
 10
208.92773399999999
 20
199.24142499999999
 11
208.92773399999999
 21
199.58371
  0
ARC
  8
_0-0_0
  6
CONTINUOUS
 62
    7
 10
206.92773399999999
 20
221
 40
2.2000000000000002
 50
179.99999099999999
 51
303.74900400000001
  0
LINE
  8
_0-0_0
  6
CONTINUOUS
 62
    7
 10
204.72772199999997
 20
222
 11
204.72772199999997
 21
221
  0
LINE
  8
_0-0_0
  6
CONTINUOUS
 62
    7
 10
204.22772199999997
 20
222.5
 11
130.62770099999997
 21
222.5
  0
LINE
  8
_0-0_0
  6
CONTINUOUS
 62
    7
 10
130.12770099999997
 20
221
 11
130.12770099999997
 21
222
  0
LINE
  8
_0-0_0
  6
CONTINUOUS
 62
    7
 10
130.62770099999997
 20
220.800003
 11
130.62770099999997
 21
221
  0
ARC
  8
_0-0_0
  6
CONTINUOUS
 62
    7
 10
131.62770099999997
 20
220.800003
 40
1
 50
90.000003000000007
 51
179.99999099999999
  0
LINE
  8
_0-0_0
  6
CONTINUOUS
 62
    7
 10
131.62770099999997
 20
221.800003
 11
144.92771899999997
 21
221.800003
  0
LINE
  8
_0-0_0
  6
CONTINUOUS
 62
    7
 10
186.92771899999997
 20
221.800003
 11
200.92773399999999
 21
221.800003
  0
ARC
  8
_0-0_0
  6
CONTINUOUS
 62
    7
 10
200.92773399999999
 20
218.800003
 40
3
 50
0
 51
90.000003000000007
  0
LINE
  8
_0-0_0
  6
CONTINUOUS
 62
    7
 10
203.92773399999999
 20
205.199997
 11
203.92773399999999
 21
218.800003
  0
ARC
  8
_0-0_0
  6
CONTINUOUS
 62
    7
 10
200.92773399999999
 20
205.199997
 40
3
 50
269.99999700000001
 51
0
  0
LINE
  8
_0-0_0
  6
CONTINUOUS
 62
    7
 10
200.92773399999999
 20
202.199997
 11
186.92771899999997
 21
202.199997
  0
LINE
  8
_0-0_0
  6
CONTINUOUS
 62
    7
 10
144.92771899999997
 20
202.199997
 11
130.92771899999997
 21
202.199997
  0
ARC
  8
_0-0_0
  6
CONTINUOUS
 62
    7
 10
130.92771899999997
 20
205.199997
 40
3
 50
179.99999099999999
 51
269.99999700000001
  0
LINE
  8
_0-0_0
  6
CONTINUOUS
 62
    7
 10
127.92771899999997
 20
217.43769800000001
 11
127.92771899999997
 21
205.199997
  0
ARC
  8
_0-0_0
  6
CONTINUOUS
 62
    7
 10
128.92771899999997
 20
217.43769800000001
 40
1
 50
105.68034800000001
 51
179.99999100000002
  0
ARC
  8
_0-0_0
  6
CONTINUOUS
 62
    7
 10
120.97569299999998
 20
220.28097500000001
 40
3.0490550000000001
 50
181.05489
 51
194.838089
  0
LINE
  8
_0-0_0
  6
CONTINUOUS
 62
    7
 10
122.79524199999997
 20
219.300003
 11
118.42771899999997
 21
219.300003
  0
LINE
  8
_0-0_0
  6
CONTINUOUS
 62
    7
 10
122.92771899999997
 20
199.24142499999999
 11
122.92771899999997
 21
199.34643600000001
  0
LINE
  8
_0-0_0
  6
CONTINUOUS
 62
    7
 10
122.79524199999997
 20
199.10000600000001
 11
118.42771899999997
 21
199.10000600000001
  0
ARC
  8
_0-0_0
  6
CONTINUOUS
 62
    7
 10
120.97685199999998
 20
198.118347
 40
3.050319
 50
165.15540799999999
 51
178.932897
  0
LINE
  8
_0-0_0
  6
CONTINUOUS
 62
    7
 10
117.92771899999997
 20
196.39999399999999
 11
117.92771899999997
 21
198.17514
  0
LINE
  8
_0-0_0
  6
CONTINUOUS
 62
    7
 10
122.72770699999998
 20
195.89999399999999
 11
118.42771899999997
 21
195.89999399999999
  0
LINE
  8
_0-0_0
  6
CONTINUOUS
 62
    7
 10
122.92771899999997
 20
195.5
 11
122.92771899999997
 21
195.699997
  0
LINE
  8
_0-0_0
  6
CONTINUOUS
 62
    7
 10
122.92771899999997
 20
195.5
 11
123.42771899999997
 21
195.5
  0
LINE
  8
_0-0_0
  6
CONTINUOUS
 62
    7
 10
128.42771899999997
 20
195
 11
123.42771899999997
 21
195
  0
ARC
  8
_0-0_0
  6
CONTINUOUS
 62
    7
 10
128.42771899999997
 20
195.5
 40
0.5
 50
269.99999700000001
 51
0
  0
LINE
  8
_0-0_0
  6
CONTINUOUS
 62
    7
 10
118.24595599999998
 20
219.300003
 11
118.22563199999999
 21
219.30102500000001
  0
LINE
  8
_0-0_0
  6
CONTINUOUS
 62
    7
 10
118.22563199999999
 20
219.30102500000001
 11
118.20521499999998
 21
219.304169
  0
LINE
  8
_0-0_0
  6
CONTINUOUS
 62
    7
 10
118.20521499999998
 20
219.304169
 11
118.17838999999998
 21
219.31175200000001
  0
LINE
  8
_0-0_0
  6
CONTINUOUS
 62
    7
 10
118.17838999999998
 20
219.31175200000001
 11
118.15275599999998
 21
219.32311999999999
  0
LINE
  8
_0-0_0
  6
CONTINUOUS
 62
    7
 10
118.15275599999998
 20
219.32311999999999
 11
118.12895199999997
 21
219.337997
  0
LINE
  8
_0-0_0
  6
CONTINUOUS
 62
    7
 10
118.12895199999997
 20
219.337997
 11
118.11219799999998
 21
219.35150100000001
  0
LINE
  8
_0-0_0
  6
CONTINUOUS
 62
    7
 10
118.11219799999998
 20
219.35150100000001
 11
118.09669499999998
 21
219.36672999999999
  0
LINE
  8
_0-0_0
  6
CONTINUOUS
 62
    7
 10
118.09669499999998
 20
219.36672999999999
 11
118.06977799999999
 21
219.40138200000001
  0
LINE
  8
_0-0_0
  6
CONTINUOUS
 62
    7
 10
118.06977799999999
 20
219.40138200000001
 11
118.04875199999998
 21
219.439728
  0
LINE
  8
_0-0_0
  6
CONTINUOUS
 62
    7
 10
118.04875199999998
 20
219.439728
 11
118.03675799999999
 21
219.46963500000001
  0
LINE
  8
_0-0_0
  6
CONTINUOUS
 62
    7
 10
118.03675799999999
 20
219.46963500000001
 11
118.02772499999998
 21
219.5
  0
LINE
  8
_0-0_0
  6
CONTINUOUS
 62
    7
 10
117.93891899999997
 20
220
 11
110.92771899999997
 21
220
  0
LINE
  8
_0-0_0
  6
CONTINUOUS
 62
    7
 10
110.92771899999997
 20
220
 11
106.25227299999997
 21
220
  0
LINE
  8
_0-0_0
  6
CONTINUOUS
 62
    7
 10
110.92771899999997
 20
220
 11
110.92771899999997
 21
218
  0
LINE
  8
_0-0_0
  6
CONTINUOUS
 62
    7
 10
122.92771899999997
 20
218
 11
122.92771899999997
 21
219.05355800000001
  0
ARC
  8
_0-0_0
  6
CONTINUOUS
 62
    7
 10
221.92773399999999
 20
221.199997
 40
0.5
 50
269.99999700000001
 51
0
  0
ARC
  8
_0-0_0
  6
CONTINUOUS
 62
    7
 10
209.42773399999999
 20
222
 40
0.5
 50
90.000003000000007
 51
179.99999099999999
  0
LINE
  8
_0-0_0
  6
CONTINUOUS
 62
    7
 10
208.92773399999999
 20
221.199997
 11
208.92773399999999
 21
222
  0
LINE
  8
_0-0_0
  6
CONTINUOUS
 62
    7
 10
129.12770099999997
 20
197.38284300000001
 11
129.12770099999997
 21
195.39999399999999
  0
LINE
  8
_0-0_0
  6
CONTINUOUS
 62
    7
 10
129.12770099999997
 20
195.39999399999999
 11
130.12770099999997
 21
195.39999399999999
  0
LINE
  8
_0-0_0
  6
CONTINUOUS
 62
    7
 10
130.42771899999997
 20
197.39999399999999
 11
197.42773399999999
 21
197.39999399999999
  0
LINE
  8
_0-0_0
  6
CONTINUOUS
 62
    7
 10
130.12770099999997
 20
195.39999399999999
 11
197.72772199999997
 21
195.39999399999999
  0
LINE
  8
_0-0_0
  6
CONTINUOUS
 62
    7
 10
197.72772199999997
 20
195.39999399999999
 11
198.72772199999997
 21
195.39999399999999
  0
LINE
  8
_0-0_0
  6
CONTINUOUS
 62
    7
 10
198.72772199999997
 20
197.38284300000001
 11
198.72772199999997
 21
195.39999399999999
  0
LINE
  8
_0-0_0
  6
CONTINUOUS
 62
    7
 10
208.92773399999999
 20
195.5
 11
208.42773399999999
 21
195
  0
ARC
  8
_0-0_0
  6
CONTINUOUS
 62
    7
 10
209.12771599999996
 20
195.699997
 40
0.2
 50
90.000003000000007
 51
179.99999099999999
  0
ARC
  8
_0-0_0
  6
CONTINUOUS
 62
    7
 10
213.42773399999999
 20
196.39999399999999
 40
0.5
 50
269.99999700000001
 51
0
  0
LINE
  8
_0-0_0
  6
CONTINUOUS
 62
    7
 10
213.609466
 20
199.10000600000001
 11
213.62982199999999
 21
199.098984
  0
LINE
  8
_0-0_0
  6
CONTINUOUS
 62
    7
 10
213.62982199999999
 20
199.098984
 11
213.650238
 21
199.09584000000001
  0
LINE
  8
_0-0_0
  6
CONTINUOUS
 62
    7
 10
213.650238
 20
199.09584000000001
 11
213.67706299999998
 21
199.088257
  0
LINE
  8
_0-0_0
  6
CONTINUOUS
 62
    7
 10
213.67706299999998
 20
199.088257
 11
213.702698
 21
199.076874
  0
LINE
  8
_0-0_0
  6
CONTINUOUS
 62
    7
 10
213.702698
 20
199.076874
 11
213.72650099999998
 21
199.06199599999999
  0
LINE
  8
_0-0_0
  6
CONTINUOUS
 62
    7
 10
213.72650099999998
 20
199.06199599999999
 11
213.74325599999997
 21
199.04849200000001
  0
LINE
  8
_0-0_0
  6
CONTINUOUS
 62
    7
 10
213.74325599999997
 20
199.04849200000001
 11
213.758758
 21
199.033264
  0
LINE
  8
_0-0_0
  6
CONTINUOUS
 62
    7
 10
213.758758
 20
199.033264
 11
213.78564399999999
 21
198.99861100000001
  0
LINE
  8
_0-0_0
  6
CONTINUOUS
 62
    7
 10
213.78564399999999
 20
198.99861100000001
 11
213.80670199999997
 21
198.96028100000001
  0
LINE
  8
_0-0_0
  6
CONTINUOUS
 62
    7
 10
213.80670199999997
 20
198.96028100000001
 11
213.81869499999999
 21
198.93035900000001
  0
LINE
  8
_0-0_0
  6
CONTINUOUS
 62
    7
 10
213.81869499999999
 20
198.93035900000001
 11
213.82772799999998
 21
198.89999399999999
  0
LINE
  8
_0-0_0
  6
CONTINUOUS
 62
    7
 10
213.609466
 20
199.10000600000001
 11
213.42773399999999
 21
199.10000600000001
  0
LINE
  8
_0-0_0
  6
CONTINUOUS
 62
    7
 10
208.92773399999999
 20
217.550003
 11
208.92773399999999
 21
220.050003
  0
LINE
  8
_0-0_0
  6
CONTINUOUS
 62
    7
 10
208.92773399999999
 20
217.550003
 11
208.92773399999999
 21
201.050003
  0
LINE
  8
_0-0_0
  6
CONTINUOUS
 62
    7
 10
208.92773399999999
 20
199.58371
 11
208.92773399999999
 21
201.050003
  0
ARC
  8
_0-0_0
  6
CONTINUOUS
 62
    7
 10
208.42773399999999
 20
218.75500500000001
 40
0.5
 50
0
 51
123.74898500000002
  0
ARC
  8
_0-0_0
  6
CONTINUOUS
 62
    7
 10
209.09802199999996
 20
199.27328499999999
 40
0.1734229999999999
 50
181.12417600000003
 51
270.64883800000007
  0
LINE
  8
_0-0_0
  6
CONTINUOUS
 62
    7
 10
208.923675
 20
199.300003
 11
208.923767
 21
199.269867
  0
ARC
  8
_0-0_0
  6
CONTINUOUS
 62
    7
 10
204.22772199999997
 20
222
 40
0.5
 50
0
 51
90.000003000000007
  0
ARC
  8
_0-0_0
  6
CONTINUOUS
 62
    7
 10
127.92771899999997
 20
221
 40
2.7000000000000002
 50
285.68033600000007
 51
0.0000000000000381
  0
ARC
  8
_0-0_0
  6
CONTINUOUS
 62
    7
 10
144.92771899999997
 20
205.199997
 40
3
 50
269.99999700000001
 51
0
  0
LINE
  8
_0-0_0
  6
CONTINUOUS
 62
    7
 10
147.92771899999997
 20
205.199997
 11
147.92771899999997
 21
218.800003
  0
ARC
  8
_0-0_0
  6
CONTINUOUS
 62
    7
 10
144.92771899999997
 20
218.800003
 40
3
 50
0
 51
90.000003000000007
  0
ARC
  8
_0-0_0
  6
CONTINUOUS
 62
    7
 10
140.42771899999997
 20
214.5
 40
4.5
 50
269.99999700000001
 51
90.000002999999992
  0
LINE
  8
_0-0_0
  6
CONTINUOUS
 62
    7
 10
140.42771899999997
 20
210
 11
135.42771899999997
 21
210
  0
ARC
  8
_0-0_0
  6
CONTINUOUS
 62
    7
 10
135.42771899999997
 20
214.5
 40
4.5
 50
90.000003000000007
 51
269.99999700000006
  0
LINE
  8
_0-0_0
  6
CONTINUOUS
 62
    7
 10
135.42771899999997
 20
219
 11
140.42771899999997
 21
219
  0
ARC
  8
_0-0_0
  6
CONTINUOUS
 62
    7
 10
186.92771899999997
 20
205.199997
 40
3
 50
179.99999099999999
 51
269.99999700000001
  0
LINE
  8
_0-0_0
  6
CONTINUOUS
 62
    7
 10
183.92771899999997
 20
218.800003
 11
183.92771899999997
 21
205.199997
  0
ARC
  8
_0-0_0
  6
CONTINUOUS
 62
    7
 10
186.92771899999997
 20
218.800003
 40
3
 50
90.000003000000007
 51
179.99999099999999
  0
ARC
  8
_0-0_0
  6
CONTINUOUS
 62
    7
 10
196.42773399999999
 20
214.5
 40
4.5
 50
269.99999700000001
 51
90.000002999999992
  0
LINE
  8
_0-0_0
  6
CONTINUOUS
 62
    7
 10
196.42773399999999
 20
210
 11
191.42773399999999
 21
210
  0
ARC
  8
_0-0_0
  6
CONTINUOUS
 62
    7
 10
191.42773399999999
 20
214.5
 40
4.5
 50
90.000003000000007
 51
269.99999700000006
  0
LINE
  8
_0-0_0
  6
CONTINUOUS
 62
    7
 10
191.42773399999999
 20
219
 11
196.42773399999999
 21
219
  0
LINE
  8
_0-0_0
  6
CONTINUOUS
 62
    7
 10
118.42771899999997
 20
219.300003
 11
118.24595599999998
 21
219.300003
  0
LINE
  8
_0-0_0
  6
CONTINUOUS
 62
    7
 10
122.92771899999997
 20
218
 11
122.92771899999997
 21
200.39999399999999
  0
LINE
  8
_0-0_0
  6
CONTINUOUS
 62
    7
 10
122.92771899999997
 20
199.34643600000001
 11
122.92771899999997
 21
200.39999399999999
  0
ARC
  8
_0-0_0
  6
CONTINUOUS
 62
    7
 10
122.75743099999997
 20
199.27328499999999
 40
0.1734209999999999
 50
269.35085600000002
 51
358.87625300000002
  0
LINE
  8
_0-0_0
  6
CONTINUOUS
 62
    7
 10
122.93174699999997
 20
199.300003
 11
122.93168599999998
 21
199.269867
  0
LINE
  8
_0-0_0
  6
CONTINUOUS
 62
    7
 10
122.93174699999997
 20
219.10000600000001
 11
122.93168599999998
 21
219.13012699999999
  0
ARC
  8
_0-0_0
  6
CONTINUOUS
 62
    7
 10
122.75743099999997
 20
219.12670900000001
 40
0.1734219999999999
 50
1.1236539999999999
 51
90.649110000000007
  0
LINE
  8
_0-0_0
  6
CONTINUOUS
 62
    7
 10
118.42771899999997
 20
199.10000600000001
 11
118.24595599999998
 21
199.10000600000001
  0
LINE
  8
_0-0_0
  6
CONTINUOUS
 62
    7
 10
118.24595599999998
 20
199.10000600000001
 11
118.22563199999999
 21
199.098984
  0
LINE
  8
_0-0_0
  6
CONTINUOUS
 62
    7
 10
118.22563199999999
 20
199.098984
 11
118.20521499999998
 21
199.09584000000001
  0
LINE
  8
_0-0_0
  6
CONTINUOUS
 62
    7
 10
118.20521499999998
 20
199.09584000000001
 11
118.17838999999998
 21
199.088257
  0
LINE
  8
_0-0_0
  6
CONTINUOUS
 62
    7
 10
118.17838999999998
 20
199.088257
 11
118.15275599999998
 21
199.076874
  0
LINE
  8
_0-0_0
  6
CONTINUOUS
 62
    7
 10
118.15275599999998
 20
199.076874
 11
118.12895199999997
 21
199.06199599999999
  0
LINE
  8
_0-0_0
  6
CONTINUOUS
 62
    7
 10
118.12895199999997
 20
199.06199599999999
 11
118.11219799999998
 21
199.04849200000001
  0
LINE
  8
_0-0_0
  6
CONTINUOUS
 62
    7
 10
118.11219799999998
 20
199.04849200000001
 11
118.09669499999998
 21
199.033264
  0
LINE
  8
_0-0_0
  6
CONTINUOUS
 62
    7
 10
118.09669499999998
 20
199.033264
 11
118.06977799999999
 21
198.99861100000001
  0
LINE
  8
_0-0_0
  6
CONTINUOUS
 62
    7
 10
118.06977799999999
 20
198.99861100000001
 11
118.04875199999998
 21
198.96028100000001
  0
LINE
  8
_0-0_0
  6
CONTINUOUS
 62
    7
 10
118.04875199999998
 20
198.96028100000001
 11
118.03675799999999
 21
198.93035900000001
  0
LINE
  8
_0-0_0
  6
CONTINUOUS
 62
    7
 10
118.03675799999999
 20
198.93035900000001
 11
118.02772499999998
 21
198.89999399999999
  0
ARC
  8
_0-0_0
  6
CONTINUOUS
 62
    7
 10
118.42771899999997
 20
196.39999399999999
 40
0.5
 50
179.99999099999999
 51
269.99999700000001
  0
ARC
  8
_0-0_0
  6
CONTINUOUS
 62
    7
 10
122.72770699999998
 20
195.699997
 40
0.2
 50
0
 51
90.000003000000007
  0
LINE
  8
_0-0_0
  6
CONTINUOUS
 62
    7
 10
122.92771899999997
 20
195.5
 11
123.42771899999997
 21
195
  0
ARC
  8
_0-0_0
  6
CONTINUOUS
 62
    7
 10
106.25227299999997
 20
218
 40
2
 50
90.000003000000007
 51
108.434997
  0
LINE
  8
_0-0_0
  6
CONTINUOUS
 62
    7
 10
110.92771899999997
 20
217.5
 11
110.92771899999997
 21
218
  0
LINE
  8
_0-0_0
  6
CONTINUOUS
 62
    7
 10
110.92771899999997
 20
214.5
 11
110.92771899999997
 21
214
  0
LINE
  8
_0-0_0
  6
CONTINUOUS
 62
    7
 10
110.92771899999997
 20
214.5
 11
110.92771899999997
 21
217.5
  0
ARC
  8
_0-0_0
  6
CONTINUOUS
 62
    7
 10
116.92771899999997
 20
214.69998200000001
 40
0.500016
 50
0.001164
 51
179.99560600000004
  0
LINE
  8
_0-0_0
  6
CONTINUOUS
 62
    7
 10
116.42771899999997
 20
214.699997
 11
116.42771899999997
 21
202.699997
  0
ARC
  8
_0-0_0
  6
CONTINUOUS
 62
    7
 10
116.92771899999997
 20
202.70001199999999
 40
0.500016
 50
180.00117
 51
359.995611
  0
LINE
  8
_0-0_0
  6
CONTINUOUS
 62
    7
 10
117.42771899999997
 20
214.699997
 11
117.42771899999997
 21
202.699997
  0
ARC
  8
_0-0_0
  6
CONTINUOUS
 62
    7
 10
115.42771899999997
 20
214.69998200000001
 40
0.500016
 50
0.001164
 51
179.99560600000004
  0
LINE
  8
_0-0_0
  6
CONTINUOUS
 62
    7
 10
114.92771899999997
 20
214.699997
 11
114.92771899999997
 21
202.699997
  0
ARC
  8
_0-0_0
  6
CONTINUOUS
 62
    7
 10
115.42771899999997
 20
202.70001199999999
 40
0.500016
 50
180.00117
 51
359.995611
  0
LINE
  8
_0-0_0
  6
CONTINUOUS
 62
    7
 10
115.92771899999997
 20
214.699997
 11
115.92771899999997
 21
202.699997
  0
ARC
  8
_0-0_0
  6
CONTINUOUS
 62
    7
 10
113.92771899999997
 20
214.69998200000001
 40
0.500016
 50
0.001164
 51
179.99560600000004
  0
LINE
  8
_0-0_0
  6
CONTINUOUS
 62
    7
 10
113.42771899999997
 20
214.699997
 11
113.42771899999997
 21
202.699997
  0
ARC
  8
_0-0_0
  6
CONTINUOUS
 62
    7
 10
113.92771899999997
 20
202.70001199999999
 40
0.500016
 50
180.00117
 51
359.995611
  0
LINE
  8
_0-0_0
  6
CONTINUOUS
 62
    7
 10
114.42771899999997
 20
214.699997
 11
114.42771899999997
 21
202.699997
  0
ARC
  8
_0-0_0
  6
CONTINUOUS
 62
    7
 10
112.42771899999997
 20
214.69998200000001
 40
0.500016
 50
0.001164
 51
179.99560600000004
  0
LINE
  8
_0-0_0
  6
CONTINUOUS
 62
    7
 10
111.92771899999997
 20
214.699997
 11
111.92771899999997
 21
202.699997
  0
ARC
  8
_0-0_0
  6
CONTINUOUS
 62
    7
 10
112.42771899999997
 20
202.70001199999999
 40
0.500016
 50
180.00117
 51
359.995611
  0
LINE
  8
_0-0_0
  6
CONTINUOUS
 62
    7
 10
112.92771899999997
 20
214.699997
 11
112.92771899999997
 21
202.699997
  0
LINE
  8
_0-0_0
  6
CONTINUOUS
 62
    7
 10
208.92773399999999
 20
220.699997
 11
209.42773399999999
 21
220.699997
  0
LINE
  8
_0-0_0
  6
CONTINUOUS
 62
    7
 10
209.42773399999999
 20
220.699997
 11
221.92773399999999
 21
220.699997
  0
ARC
  8
_0-0_0
  6
CONTINUOUS
 62
    7
 10
209.42773399999999
 20
221.199997
 40
0.5
 50
179.99999099999999
 51
269.99999700000001
  0
LINE
  8
_0-0_0
  6
CONTINUOUS
 62
    7
 10
208.92773399999999
 20
220.333969
 11
208.92773399999999
 21
220.699997
  0
LINE
  8
_0-0_0
  6
CONTINUOUS
 62
    7
 10
208.92773399999999
 20
220.08348100000001
 11
208.92773399999999
 21
220.050003
  0
LINE
  8
_0-0_0
  6
CONTINUOUS
 62
    7
 10
208.92773399999999
 20
220.333969
 11
208.92773399999999
 21
220.08348100000001
  0
CIRCLE
  8
_0-0_0
  6
CONTINUOUS
 62
    7
 10
127.92771899999997
 20
221
 40
1.4750000000000001
  0
CIRCLE
  8
_0-0_0
  6
CONTINUOUS
 62
    7
 10
206.92773399999999
 20
221
 40
1.4750000000000001
  0
LINE
  8
_0-0_0
  6
CONTINUOUS
 62
    7
 10
208.92773399999999
 20
195.34999099999999
 11
208.92773399999999
 21
195.5
  0
LINE
  8
_0-0_0
  6
CONTINUOUS
 62
    7
 10
214.42773399999999
 20
195.34999099999999
 11
208.92773399999999
 21
195.34999099999999
  0
LINE
  8
_0-0_0
  6
CONTINUOUS
 62
    7
 10
214.42773399999999
 20
197.89999399999999
 11
213.92773399999999
 21
197.89999399999999
  0
LINE
  8
_0-0_0
  6
CONTINUOUS
 62
    7
 10
209.42773399999999
 20
220.550003
 11
208.92773399999999
 21
220.050003
  0
LINE
  8
_0-0_0
  6
CONTINUOUS
 62
    7
 10
209.42773399999999
 20
220.550003
 11
214.42773399999999
 21
220.550003
  0
LINE
  8
_0-0_0
  6
CONTINUOUS
 62
    7
 10
117.93891899999997
 20
198.39999399999999
 11
106.25227299999997
 21
198.39999399999999
  0
LINE
  8
_0-0_0
  6
CONTINUOUS
 62
    7
 10
105.17771899999997
 20
219.75
 11
105.61979699999998
 21
219.897369
  0
LINE
  8
_0-0_0
  6
CONTINUOUS
 62
    7
 10
101.45335399999999
 20
214.5
 11
100.75999399999998
 21
214.5
  0
LINE
  8
_0-0_0
  6
CONTINUOUS
 62
    7
 10
101.45335399999999
 20
214.5
 11
105.77793899999998
 21
214.5
  0
LINE
  8
_0-0_0
  6
CONTINUOUS
 62
    7
 10
106.25227299999997
 20
214.5
 11
105.77793899999998
 21
214.5
  0
LINE
  8
_0-0_0
  6
CONTINUOUS
 62
    7
 10
110.92771899999997
 20
214.5
 11
106.25227299999997
 21
214.5
  0
LINE
  8
_0-0_0
  6
CONTINUOUS
 62
    7
 10
208.92773399999999
 20
195.203552
 11
208.92773399999999
 21
195.34999099999999
  0
LINE
  8
_0-0_0
  6
CONTINUOUS
 62
    7
 10
208.92773399999999
 20
195.14645400000001
 11
208.92773399999999
 21
195.203552
  0
LINE
  8
_0-0_0
  6
CONTINUOUS
 62
    7
 10
208.92773399999999
 20
195
 11
208.92773399999999
 21
195.14645400000001
  0
ARC
  8
_0-0_0
  6
CONTINUOUS
 62
    7
 10
214.42773399999999
 20
195.84999099999999
 40
0.5
 50
269.99999700000001
 51
0
  0
LINE
  8
_0-0_0
  6
CONTINUOUS
 62
    7
 10
214.92773399999999
 20
197.40571600000001
 11
214.92773399999999
 21
195.84999099999999
  0
ARC
  8
_0-0_0
  6
CONTINUOUS
 62
    7
 10
214.44082599999996
 20
197.40235899999999
 40
0.4869939999999999
 50
0.394923
 51
23.93947
  0
ARC
  8
_0-0_0
  6
CONTINUOUS
 62
    7
 10
214.42773399999999
 20
197.39999399999999
 40
0.5
 50
23.578231000000002
 51
90.000002999999992
  0
LINE
  8
_0-0_0
  6
CONTINUOUS
 62
    7
 10
214.92773399999999
 20
217.550003
 11
214.92773399999999
 21
220.050003
  0
ARC
  8
_0-0_0
  6
CONTINUOUS
 62
    7
 10
214.42773399999999
 20
220.050003
 40
0.5
 50
0
 51
90.000003000000007
  0
LINE
  8
_0-0_0
  6
CONTINUOUS
 62
    7
 10
214.42773399999999
 20
204.25
 11
212.22772199999997
 21
204.25
  0
LINE
  8
_0-0_0
  6
CONTINUOUS
 62
    7
 10
214.92773399999999
 20
217.550003
 11
214.92773399999999
 21
204.75
  0
LINE
  8
_0-0_0
  6
CONTINUOUS
 62
    7
 10
211.92773399999999
 20
203.949997
 11
211.92773399999999
 21
201.37170399999999
  0
LINE
  8
_0-0_0
  6
CONTINUOUS
 62
    7
 10
141.89924599999998
 20
210.39999399999999
 11
133.95616099999998
 21
210.39999399999999
  0
ARC
  8
_0-0_0
  6
CONTINUOUS
 62
    7
 10
133.95616099999998
 20
210.89999399999999
 40
0.5
 50
210.00000299999999
 51
269.99999700000001
  0
LINE
  8
_0-0_0
  6
CONTINUOUS
 62
    7
 10
133.52314699999997
 20
210.64999399999999
 11
131.44468699999999
 21
214.25
  0
ARC
  8
_0-0_0
  6
CONTINUOUS
 62
    7
 10
131.87770099999997
 20
214.5
 40
0.5
 50
149.99999700000001
 51
210.00000299999996
  0
LINE
  8
_0-0_0
  6
CONTINUOUS
 62
    7
 10
131.44468699999999
 20
214.75
 11
133.52314699999997
 21
218.35000600000001
  0
ARC
  8
_0-0_0
  6
CONTINUOUS
 62
    7
 10
133.95616099999998
 20
218.10000600000001
 40
0.5
 50
90.000003000000007
 51
149.99999700000001
  0
LINE
  8
_0-0_0
  6
CONTINUOUS
 62
    7
 10
133.95616099999998
 20
218.60000600000001
 11
141.89924599999998
 21
218.60000600000001
  0
ARC
  8
_0-0_0
  6
CONTINUOUS
 62
    7
 10
141.89924599999998
 20
218.10000600000001
 40
0.5
 50
30.000001000000001
 51
90.000003000000007
  0
LINE
  8
_0-0_0
  6
CONTINUOUS
 62
    7
 10
142.33225999999999
 20
218.35000600000001
 11
144.41072099999997
 21
214.75
  0
ARC
  8
_0-0_0
  6
CONTINUOUS
 62
    7
 10
143.97770699999998
 20
214.5
 40
0.5
 50
329.99998900000003
 51
30.000000999999983
  0
LINE
  8
_0-0_0
  6
CONTINUOUS
 62
    7
 10
144.41072099999997
 20
214.25
 11
142.33225999999999
 21
210.64999399999999
  0
ARC
  8
_0-0_0
  6
CONTINUOUS
 62
    7
 10
141.89924599999998
 20
210.89999399999999
 40
0.5
 50
269.99999700000001
 51
329.99998900000003
  0
ARC
  8
_0-0_0
  6
CONTINUOUS
 62
    7
 10
189.89846799999998
 20
211
 40
0.5
 50
210.00000299999999
 51
269.99999700000001
  0
LINE
  8
_0-0_0
  6
CONTINUOUS
 62
    7
 10
189.46545399999997
 20
210.75
 11
187.44471699999997
 21
214.25
  0
ARC
  8
_0-0_0
  6
CONTINUOUS
 62
    7
 10
187.87770099999997
 20
214.5
 40
0.5
 50
149.99999700000001
 51
210.00000299999996
  0
LINE
  8
_0-0_0
  6
CONTINUOUS
 62
    7
 10
187.44471699999997
 20
214.75
 11
189.46545399999997
 21
218.25
  0
ARC
  8
_0-0_0
  6
CONTINUOUS
 62
    7
 10
189.89846799999998
 20
218
 40
0.5
 50
90.000003000000007
 51
149.99999700000001
  0
LINE
  8
_0-0_0
  6
CONTINUOUS
 62
    7
 10
189.89846799999998
 20
218.5
 11
197.95700099999999
 21
218.5
  0
ARC
  8
_0-0_0
  6
CONTINUOUS
 62
    7
 10
197.95700099999999
 20
218
 40
0.5
 50
30.000001000000001
 51
90.000003000000007
  0
LINE
  8
_0-0_0
  6
CONTINUOUS
 62
    7
 10
198.39001500000001
 20
218.25
 11
200.41073599999999
 21
214.75
  0
ARC
  8
_0-0_0
  6
CONTINUOUS
 62
    7
 10
199.97772199999997
 20
214.5
 40
0.5
 50
329.99998900000003
 51
30.000000999999983
  0
LINE
  8
_0-0_0
  6
CONTINUOUS
 62
    7
 10
200.41073599999999
 20
214.25
 11
198.39001500000001
 21
210.75
  0
ARC
  8
_0-0_0
  6
CONTINUOUS
 62
    7
 10
197.95700099999999
 20
211
 40
0.5
 50
269.99999700000001
 51
329.99998900000003
  0
LINE
  8
_0-0_0
  6
CONTINUOUS
 62
    7
 10
197.95700099999999
 20
210.5
 11
189.89846799999998
 21
210.5
  0
LINE
  8
_0-0_0
  6
CONTINUOUS
 62
    7
 10
105.61979699999998
 20
198.50262499999999
 11
105.73930299999998
 21
198.46700999999999
  0
LINE
  8
_0-0_0
  6
CONTINUOUS
 62
    7
 10
105.73930299999998
 20
198.46700999999999
 11
105.86085499999999
 21
198.439133
  0
LINE
  8
_0-0_0
  6
CONTINUOUS
 62
    7
 10
105.86085499999999
 20
198.439133
 11
105.98399299999997
 21
198.41909799999999
  0
LINE
  8
_0-0_0
  6
CONTINUOUS
 62
    7
 10
105.98399299999997
 20
198.41909799999999
 11
106.10819999999998
 21
198.406982
  0
LINE
  8
_0-0_0
  6
CONTINUOUS
 62
    7
 10
106.10819999999998
 20
198.406982
 11
106.23304699999997
 21
198.40284700000001
  0
LINE
  8
_0-0_0
  6
CONTINUOUS
 62
    7
 10
106.23304699999997
 20
198.40284700000001
 11
106.25227299999997
 21
198.40292400000001
  0
ARC
  8
_0-0_0
  6
CONTINUOUS
 62
    7
 10
106.25227299999997
 20
200.39999399999999
 40
2
 50
251.56498899999997
 51
269.99999700000001
  0
LINE
  8
_0-0_0
  6
CONTINUOUS
 62
    7
 10
99.927718999999968
 20
215.25003100000001
 11
99.927718999999968
 21
214.12901299999999
  0
LINE
  8
_0-0_0
  6
CONTINUOUS
 62
    7
 10
128.12770099999997
 20
219.89999399999999
 11
127.72770699999998
 21
219.89999399999999
  0
LINE
  8
_0-0_0
  6
CONTINUOUS
 62
    7
 10
128.12770099999997
 20
219.89999399999999
 11
128.12770099999997
 21
220.550003
  0
ARC
  8
_0-0_0
  6
CONTINUOUS
 62
    7
 10
128.37770099999997
 20
220.550003
 40
0.25
 50
90.000003000000007
 51
179.99999099999999
  0
LINE
  8
_0-0_0
  6
CONTINUOUS
 62
    7
 10
128.37770099999997
 20
220.800003
 11
129.02772499999998
 21
220.800003
  0
LINE
  8
_0-0_0
  6
CONTINUOUS
 62
    7
 10
129.02772499999998
 20
220.800003
 11
129.02772499999998
 21
221.199997
  0
LINE
  8
_0-0_0
  6
CONTINUOUS
 62
    7
 10
128.37770099999997
 20
221.199997
 11
129.02772499999998
 21
221.199997
  0
ARC
  8
_0-0_0
  6
CONTINUOUS
 62
    7
 10
128.37770099999997
 20
221.449997
 40
0.25
 50
179.99999099999999
 51
269.99999700000001
  0
LINE
  8
_0-0_0
  6
CONTINUOUS
 62
    7
 10
128.12770099999997
 20
222.10000600000001
 11
128.12770099999997
 21
221.449997
  0
LINE
  8
_0-0_0
  6
CONTINUOUS
 62
    7
 10
128.12770099999997
 20
222.10000600000001
 11
127.72770699999998
 21
222.10000600000001
  0
LINE
  8
_0-0_0
  6
CONTINUOUS
 62
    7
 10
127.72770699999998
 20
222.10000600000001
 11
127.72770699999998
 21
221.449997
  0
ARC
  8
_0-0_0
  6
CONTINUOUS
 62
    7
 10
127.47770699999998
 20
221.449997
 40
0.25
 50
269.99999700000001
 51
0
  0
LINE
  8
_0-0_0
  6
CONTINUOUS
 62
    7
 10
127.47770699999998
 20
221.199997
 11
126.82771299999999
 21
221.199997
  0
LINE
  8
_0-0_0
  6
CONTINUOUS
 62
    7
 10
126.82771299999999
 20
220.800003
 11
126.82771299999999
 21
221.199997
  0
LINE
  8
_0-0_0
  6
CONTINUOUS
 62
    7
 10
127.47770699999998
 20
220.800003
 11
126.82771299999999
 21
220.800003
  0
ARC
  8
_0-0_0
  6
CONTINUOUS
 62
    7
 10
127.47770699999998
 20
220.550003
 40
0.25
 50
0
 51
90.000003000000007
  0
LINE
  8
_0-0_0
  6
CONTINUOUS
 62
    7
 10
127.72770699999998
 20
219.89999399999999
 11
127.72770699999998
 21
220.550003
  0
LINE
  8
_0-0_0
  6
CONTINUOUS
 62
    7
 10
207.12771599999996
 20
219.89999399999999
 11
206.72772199999997
 21
219.89999399999999
  0
LINE
  8
_0-0_0
  6
CONTINUOUS
 62
    7
 10
207.12771599999996
 20
219.89999399999999
 11
207.12771599999996
 21
220.550003
  0
ARC
  8
_0-0_0
  6
CONTINUOUS
 62
    7
 10
207.37771599999996
 20
220.550003
 40
0.25
 50
90.000003000000007
 51
179.99999099999999
  0
LINE
  8
_0-0_0
  6
CONTINUOUS
 62
    7
 10
207.37771599999996
 20
220.800003
 11
208.02773999999999
 21
220.800003
  0
LINE
  8
_0-0_0
  6
CONTINUOUS
 62
    7
 10
208.02773999999999
 20
220.800003
 11
208.02773999999999
 21
221.199997
  0
LINE
  8
_0-0_0
  6
CONTINUOUS
 62
    7
 10
207.37771599999996
 20
221.199997
 11
208.02773999999999
 21
221.199997
  0
ARC
  8
_0-0_0
  6
CONTINUOUS
 62
    7
 10
207.37771599999996
 20
221.449997
 40
0.25
 50
179.99999099999999
 51
269.99999700000001
  0
LINE
  8
_0-0_0
  6
CONTINUOUS
 62
    7
 10
207.12771599999996
 20
222.10000600000001
 11
207.12771599999996
 21
221.449997
  0
LINE
  8
_0-0_0
  6
CONTINUOUS
 62
    7
 10
207.12771599999996
 20
222.10000600000001
 11
206.72772199999997
 21
222.10000600000001
  0
LINE
  8
_0-0_0
  6
CONTINUOUS
 62
    7
 10
206.72772199999997
 20
222.10000600000001
 11
206.72772199999997
 21
221.449997
  0
ARC
  8
_0-0_0
  6
CONTINUOUS
 62
    7
 10
206.47772199999997
 20
221.449997
 40
0.25
 50
269.99999700000001
 51
0
  0
LINE
  8
_0-0_0
  6
CONTINUOUS
 62
    7
 10
206.47772199999997
 20
221.199997
 11
205.82772799999998
 21
221.199997
  0
LINE
  8
_0-0_0
  6
CONTINUOUS
 62
    7
 10
205.82772799999998
 20
220.800003
 11
205.82772799999998
 21
221.199997
  0
LINE
  8
_0-0_0
  6
CONTINUOUS
 62
    7
 10
206.47772199999997
 20
220.800003
 11
205.82772799999998
 21
220.800003
  0
ARC
  8
_0-0_0
  6
CONTINUOUS
 62
    7
 10
206.47772199999997
 20
220.550003
 40
0.25
 50
0
 51
90.000003000000007
  0
LINE
  8
_0-0_0
  6
CONTINUOUS
 62
    7
 10
206.72772199999997
 20
219.89999399999999
 11
206.72772199999997
 21
220.550003
  0
LINE
  8
_0-0_0
  6
CONTINUOUS
 62
    7
 10
214.42773399999999
 20
195
 11
208.92773399999999
 21
195
  0
LINE
  8
_0-0_0
  6
CONTINUOUS
 62
    7
 10
214.92773399999999
 20
201.25
 11
214.92773399999999
 21
204.75
  0
LINE
  8
_0-0_0
  6
CONTINUOUS
 62
    7
 10
214.92773399999999
 20
201.25
 11
214.92773399999999
 21
200.89999399999999
  0
LINE
  8
_0-0_0
  6
CONTINUOUS
 62
    7
 10
214.92773399999999
 20
197.40571600000001
 11
214.92773399999999
 21
200.89999399999999
  0
LINE
  8
_0-0_0
  6
CONTINUOUS
 62
    7
 10
214.92773399999999
 20
195.55711400000001
 11
214.92773399999999
 21
195.84999099999999
  0
LINE
  8
_0-0_0
  6
CONTINUOUS
 62
    7
 10
214.92773399999999
 20
195.55711400000001
 11
214.92773399999999
 21
195.5
  0
LINE
  8
_0-0_0
  6
CONTINUOUS
 62
    7
 10
211.92773399999999
 20
199.82128900000001
 11
211.92773399999999
 21
201.37170399999999
  0
LINE
  8
_0-0_0
  6
CONTINUOUS
 62
    7
 10
211.92773399999999
 20
199.100143
 11
211.92773399999999
 21
199.82128900000001
  0
ARC
  8
_0-0_0
  6
CONTINUOUS
 62
    7
 10
214.42773399999999
 20
204.75
 40
0.5
 50
269.99999700000001
 51
0
  0
ARC
  8
_0-0_0
  6
CONTINUOUS
 62
    7
 10
212.22772199999997
 20
203.949997
 40
0.2999999999999999
 50
90.000003000000007
 51
179.99999099999999
  0
LINE
  8
_0-0_0
  6
CONTINUOUS
 62
    7
 10
101.29524199999997
 20
199.944153
 11
105.61979699999998
 21
198.50262499999999
  0
LINE
  8
_0-0_0
  6
CONTINUOUS
 62
    7
 10
99.927718999999968
 20
201.841522
 11
99.927718999999968
 21
205.192307
  0
LINE
  8
_0-0_0
  6
CONTINUOUS
 62
    7
 10
99.927718999999968
 20
213.20768699999999
 11
99.927718999999968
 21
214.12901299999999
  0
ARC
  8
_0-0_0
  6
CONTINUOUS
 62
    7
 10
101.92771899999997
 20
201.841522
 40
2
 50
179.99999099999999
 51
251.56498899999997
  0
LINE
  8
_0-0_0
  6
CONTINUOUS
 62
    7
 10
84.927718999999968
 20
218.72543300000001
 11
84.927718999999968
 21
218.57870500000001
  0
LINE
  8
_0-0_0
  6
CONTINUOUS
 62
    7
 10
84.927718999999968
 20
218.91596999999999
 11
84.927718999999968
 21
218.72543300000001
  0
LINE
  8
_0-0_0
  6
CONTINUOUS
 62
    7
 10
84.927718999999968
 20
219.09098800000001
 11
84.927718999999968
 21
218.91596999999999
  0
LINE
  8
_0-0_0
  6
CONTINUOUS
 62
    7
 10
84.927718999999968
 20
219.248581
 11
84.927718999999968
 21
219.09098800000001
  0
LINE
  8
_0-0_0
  6
CONTINUOUS
 62
    7
 10
84.927718999999968
 20
219.38700900000001
 11
84.927718999999968
 21
219.248581
  0
LINE
  8
_0-0_0
  6
CONTINUOUS
 62
    7
 10
84.927718999999968
 20
219.504761
 11
84.927718999999968
 21
219.38700900000001
  0
LINE
  8
_0-0_0
  6
CONTINUOUS
 62
    7
 10
84.927718999999968
 20
219.60055500000001
 11
84.927718999999968
 21
219.504761
  0
LINE
  8
_0-0_0
  6
CONTINUOUS
 62
    7
 10
84.927718999999968
 20
219.67334
 11
84.927718999999968
 21
219.60055500000001
  0
LINE
  8
_0-0_0
  6
CONTINUOUS
 62
    7
 10
84.927718999999968
 20
219.72228999999999
 11
84.927718999999968
 21
219.67334
  0
LINE
  8
_0-0_0
  6
CONTINUOUS
 62
    7
 10
84.927718999999968
 20
219.74691799999999
 11
84.927718999999968
 21
219.72228999999999
  0
LINE
  8
_0-0_0
  6
CONTINUOUS
 62
    7
 10
84.927718999999968
 20
219.75
 11
84.927718999999968
 21
219.74691799999999
  0
LINE
  8
_0-0_0
  6
CONTINUOUS
 62
    7
 10
84.927718999999968
 20
215.25308200000001
 11
84.927718999999968
 21
215.25
  0
LINE
  8
_0-0_0
  6
CONTINUOUS
 62
    7
 10
84.927718999999968
 20
215.27771000000001
 11
84.927718999999968
 21
215.25308200000001
  0
LINE
  8
_0-0_0
  6
CONTINUOUS
 62
    7
 10
84.927718999999968
 20
215.32666
 11
84.927718999999968
 21
215.27771000000001
  0
LINE
  8
_0-0_0
  6
CONTINUOUS
 62
    7
 10
84.927718999999968
 20
215.39944499999999
 11
84.927718999999968
 21
215.32666
  0
LINE
  8
_0-0_0
  6
CONTINUOUS
 62
    7
 10
84.927718999999968
 20
215.495239
 11
84.927718999999968
 21
215.39944499999999
  0
LINE
  8
_0-0_0
  6
CONTINUOUS
 62
    7
 10
84.927718999999968
 20
215.52543600000001
 11
84.927718999999968
 21
215.495239
  0
LINE
  8
_0-0_0
  6
CONTINUOUS
 62
    7
 10
84.927718999999968
 20
215.61299099999999
 11
84.927718999999968
 21
215.52543600000001
  0
LINE
  8
_0-0_0
  6
CONTINUOUS
 62
    7
 10
84.927718999999968
 20
215.751419
 11
84.927718999999968
 21
215.61299099999999
  0
LINE
  8
_0-0_0
  6
CONTINUOUS
 62
    7
 10
84.927718999999968
 20
215.90901199999999
 11
84.927718999999968
 21
215.751419
  0
LINE
  8
_0-0_0
  6
CONTINUOUS
 62
    7
 10
84.927718999999968
 20
216.08403000000001
 11
84.927718999999968
 21
215.90901199999999
  0
LINE
  8
_0-0_0
  6
CONTINUOUS
 62
    7
 10
84.927718999999968
 20
216.27456699999999
 11
84.927718999999968
 21
216.08403000000001
  0
LINE
  8
_0-0_0
  6
CONTINUOUS
 62
    7
 10
84.927718999999968
 20
216.47851600000001
 11
84.927718999999968
 21
216.27456699999999
  0
LINE
  8
_0-0_0
  6
CONTINUOUS
 62
    7
 10
84.927718999999968
 20
216.69366500000001
 11
84.927718999999968
 21
216.47851600000001
  0
LINE
  8
_0-0_0
  6
CONTINUOUS
 62
    7
 10
84.927718999999968
 20
216.917664
 11
84.927718999999968
 21
216.69366500000001
  0
LINE
  8
_0-0_0
  6
CONTINUOUS
 62
    7
 10
84.927718999999968
 20
217.14802599999999
 11
84.927718999999968
 21
216.917664
  0
LINE
  8
_0-0_0
  6
CONTINUOUS
 62
    7
 10
84.927718999999968
 20
217.382248
 11
84.927718999999968
 21
217.14802599999999
  0
LINE
  8
_0-0_0
  6
CONTINUOUS
 62
    7
 10
84.927718999999968
 20
217.617752
 11
84.927718999999968
 21
217.382248
  0
LINE
  8
_0-0_0
  6
CONTINUOUS
 62
    7
 10
84.927718999999968
 20
217.85197400000001
 11
84.927718999999968
 21
217.617752
  0
LINE
  8
_0-0_0
  6
CONTINUOUS
 62
    7
 10
84.927718999999968
 20
218.082336
 11
84.927718999999968
 21
217.85197400000001
  0
LINE
  8
_0-0_0
  6
CONTINUOUS
 62
    7
 10
84.927718999999968
 20
218.30633499999999
 11
84.927718999999968
 21
218.082336
  0
LINE
  8
_0-0_0
  6
CONTINUOUS
 62
    7
 10
84.927718999999968
 20
218.52148399999999
 11
84.927718999999968
 21
218.30633499999999
  0
LINE
  8
_0-0_0
  6
CONTINUOUS
 62
    7
 10
84.927718999999968
 20
218.57870500000001
 11
84.927718999999968
 21
218.52148399999999
  0
LINE
  8
_0-0_0
  6
CONTINUOUS
 62
    7
 10
100.22770699999998
 20
211.412003
 11
100.16892999999999
 21
211.658829
  0
LINE
  8
_0-0_0
  6
CONTINUOUS
 62
    7
 10
100.16892999999999
 20
211.658829
 11
100.11915599999998
 21
211.85116600000001
  0
LINE
  8
_0-0_0
  6
CONTINUOUS
 62
    7
 10
100.11915599999998
 20
211.85116600000001
 11
100.04801899999998
 21
212.11695900000001
  0
LINE
  8
_0-0_0
  6
CONTINUOUS
 62
    7
 10
100.04801899999998
 20
212.11695900000001
 11
100.01505999999998
 21
212.243683
  0
LINE
  8
_0-0_0
  6
CONTINUOUS
 62
    7
 10
100.01505999999998
 20
212.243683
 11
99.989791999999966
 21
212.34710699999999
  0
LINE
  8
_0-0_0
  6
CONTINUOUS
 62
    7
 10
99.989791999999966
 20
212.34710699999999
 11
99.967757999999975
 21
212.44703699999999
  0
LINE
  8
_0-0_0
  6
CONTINUOUS
 62
    7
 10
99.967757999999975
 20
212.44703699999999
 11
99.946395999999964
 21
212.56474299999999
  0
LINE
  8
_0-0_0
  6
CONTINUOUS
 62
    7
 10
99.946395999999964
 20
212.56474299999999
 11
99.937819999999988
 21
212.62687700000001
  0
LINE
  8
_0-0_0
  6
CONTINUOUS
 62
    7
 10
99.937819999999988
 20
212.62687700000001
 11
99.931746999999973
 21
212.68748500000001
  0
LINE
  8
_0-0_0
  6
CONTINUOUS
 62
    7
 10
99.931746999999973
 20
212.68748500000001
 11
99.928725999999983
 21
212.73672500000001
  0
LINE
  8
_0-0_0
  6
CONTINUOUS
 62
    7
 10
99.928725999999983
 20
212.73672500000001
 11
99.927718999999968
 21
212.784943
  0
LINE
  8
_0-0_0
  6
CONTINUOUS
 62
    7
 10
100.22770699999998
 20
206.987976
 11
100.31117199999997
 21
207.36665300000001
  0
LINE
  8
_0-0_0
  6
CONTINUOUS
 62
    7
 10
100.31117199999997
 20
207.36665300000001
 11
100.35127199999997
 21
207.55818199999999
  0
LINE
  8
_0-0_0
  6
CONTINUOUS
 62
    7
 10
100.35127199999997
 20
207.55818199999999
 11
100.40733299999997
 21
207.848206
  0
LINE
  8
_0-0_0
  6
CONTINUOUS
 62
    7
 10
100.40733299999997
 20
207.848206
 11
100.44493099999997
 21
208.06779499999999
  0
LINE
  8
_0-0_0
  6
CONTINUOUS
 62
    7
 10
100.44493099999997
 20
208.06779499999999
 11
100.47758499999998
 21
208.28904700000001
  0
LINE
  8
_0-0_0
  6
CONTINUOUS
 62
    7
 10
100.47758499999998
 20
208.28904700000001
 11
100.50474499999999
 21
208.515839
  0
LINE
  8
_0-0_0
  6
CONTINUOUS
 62
    7
 10
100.50474499999999
 20
208.515839
 11
100.52482599999999
 21
208.74323999999999
  0
LINE
  8
_0-0_0
  6
CONTINUOUS
 62
    7
 10
100.52482599999999
 20
208.74323999999999
 11
100.53196699999998
 21
208.856964
  0
LINE
  8
_0-0_0
  6
CONTINUOUS
 62
    7
 10
100.53196699999998
 20
208.856964
 11
100.53712499999997
 21
208.970642
  0
LINE
  8
_0-0_0
  6
CONTINUOUS
 62
    7
 10
100.53712499999997
 20
208.970642
 11
100.54084799999998
 21
209.122086
  0
LINE
  8
_0-0_0
  6
CONTINUOUS
 62
    7
 10
100.54084799999998
 20
209.122086
 11
100.54090899999997
 21
209.273346
  0
LINE
  8
_0-0_0
  6
CONTINUOUS
 62
    7
 10
100.54090899999997
 20
209.273346
 11
100.53733799999998
 21
209.42439300000001
  0
LINE
  8
_0-0_0
  6
CONTINUOUS
 62
    7
 10
100.53733799999998
 20
209.42439300000001
 11
100.52781699999997
 21
209.61294599999999
  0
LINE
  8
_0-0_0
  6
CONTINUOUS
 62
    7
 10
100.52781699999997
 20
209.61294599999999
 11
100.51295499999998
 21
209.80119300000001
  0
LINE
  8
_0-0_0
  6
CONTINUOUS
 62
    7
 10
100.51295499999998
 20
209.80119300000001
 11
100.49302699999998
 21
209.989136
  0
LINE
  8
_0-0_0
  6
CONTINUOUS
 62
    7
 10
100.49302699999998
 20
209.989136
 11
100.47663899999998
 21
210.118011
  0
LINE
  8
_0-0_0
  6
CONTINUOUS
 62
    7
 10
100.47663899999998
 20
210.118011
 11
100.45823699999997
 21
210.246658
  0
LINE
  8
_0-0_0
  6
CONTINUOUS
 62
    7
 10
100.45823699999997
 20
210.246658
 11
100.43406699999997
 21
210.39859000000001
  0
LINE
  8
_0-0_0
  6
CONTINUOUS
 62
    7
 10
100.43406699999997
 20
210.39859000000001
 11
100.40766899999997
 21
210.549927
  0
LINE
  8
_0-0_0
  6
CONTINUOUS
 62
    7
 10
100.40766899999997
 20
210.549927
 11
100.35151699999997
 21
210.84054599999999
  0
LINE
  8
_0-0_0
  6
CONTINUOUS
 62
    7
 10
100.35151699999997
 20
210.84054599999999
 11
100.31135499999999
 21
211.032501
  0
LINE
  8
_0-0_0
  6
CONTINUOUS
 62
    7
 10
100.31135499999999
 20
211.032501
 11
100.22770699999998
 21
211.412003
  0
LINE
  8
_0-0_0
  6
CONTINUOUS
 62
    7
 10
100.22770699999998
 20
206.987976
 11
100.16889899999998
 21
206.74113500000001
  0
LINE
  8
_0-0_0
  6
CONTINUOUS
 62
    7
 10
100.16889899999998
 20
206.74113500000001
 11
100.11915599999998
 21
206.54879800000001
  0
LINE
  8
_0-0_0
  6
CONTINUOUS
 62
    7
 10
100.11915599999998
 20
206.54879800000001
 11
100.04801899999998
 21
206.283051
  0
LINE
  8
_0-0_0
  6
CONTINUOUS
 62
    7
 10
100.04801899999998
 20
206.283051
 11
100.01505999999998
 21
206.156372
  0
LINE
  8
_0-0_0
  6
CONTINUOUS
 62
    7
 10
100.01505999999998
 20
206.156372
 11
99.989791999999966
 21
206.05291700000001
  0
LINE
  8
_0-0_0
  6
CONTINUOUS
 62
    7
 10
99.989791999999966
 20
206.05291700000001
 11
99.967757999999975
 21
205.95294200000001
  0
LINE
  8
_0-0_0
  6
CONTINUOUS
 62
    7
 10
99.967757999999975
 20
205.95294200000001
 11
99.946395999999964
 21
205.835251
  0
LINE
  8
_0-0_0
  6
CONTINUOUS
 62
    7
 10
99.946395999999964
 20
205.835251
 11
99.937819999999988
 21
205.77311700000001
  0
LINE
  8
_0-0_0
  6
CONTINUOUS
 62
    7
 10
99.937819999999988
 20
205.77311700000001
 11
99.931746999999973
 21
205.71250900000001
  0
LINE
  8
_0-0_0
  6
CONTINUOUS
 62
    7
 10
99.931746999999973
 20
205.71250900000001
 11
99.928725999999983
 21
205.66326900000001
  0
LINE
  8
_0-0_0
  6
CONTINUOUS
 62
    7
 10
99.928725999999983
 20
205.66326900000001
 11
99.927718999999968
 21
205.61505099999999
  0
ARC
  8
_0-0_0
  6
CONTINUOUS
 62
    7
 10
214.42773399999999
 20
195.5
 40
0.5
 50
269.99999700000001
 51
0
  0
LINE
  8
_0-0_0
  6
CONTINUOUS
 62
    7
 10
214.38339199999996
 20
199.82128900000001
 11
214.38339199999996
 21
203.14999399999999
  0
LINE
  8
_0-0_0
  6
CONTINUOUS
 62
    7
 10
214.38339199999996
 20
198.64999399999999
 11
214.38339199999996
 21
199.82128900000001
  0
CIRCLE
  8
_0-0_0
  6
CONTINUOUS
 62
    7
 10
137.92771899999997
 20
214.5
 40
2.5
  0
CIRCLE
  8
_0-0_0
  6
CONTINUOUS
 62
    7
 10
193.92773399999999
 20
214.5
 40
2.5
  0
LINE
  8
_0-0_0
  6
CONTINUOUS
 62
    7
 10
99.927718999999968
 20
205.307693
 11
90.219893999999982
 21
205.307693
  0
LINE
  8
_0-0_0
  6
CONTINUOUS
 62
    7
 10
90.219893999999982
 20
202.699997
 11
90.165404999999964
 21
202.76992799999999
  0
LINE
  8
_0-0_0
  6
CONTINUOUS
 62
    7
 10
90.165404999999964
 20
202.76992799999999
 11
90.114302999999978
 21
202.83876000000001
  0
LINE
  8
_0-0_0
  6
CONTINUOUS
 62
    7
 10
90.114302999999978
 20
202.83876000000001
 11
90.066665999999969
 21
202.90628100000001
  0
LINE
  8
_0-0_0
  6
CONTINUOUS
 62
    7
 10
90.066665999999969
 20
202.90628100000001
 11
90.022170999999986
 21
202.97280900000001
  0
LINE
  8
_0-0_0
  6
CONTINUOUS
 62
    7
 10
90.022170999999986
 20
202.97280900000001
 11
89.967452999999978
 21
203.06036399999999
  0
LINE
  8
_0-0_0
  6
CONTINUOUS
 62
    7
 10
89.967452999999978
 20
203.06036399999999
 11
89.917937999999964
 21
203.14645400000001
  0
LINE
  8
_0-0_0
  6
CONTINUOUS
 62
    7
 10
89.917937999999964
 20
203.14645400000001
 11
89.873458999999968
 21
203.23129299999999
  0
LINE
  8
_0-0_0
  6
CONTINUOUS
 62
    7
 10
89.873458999999968
 20
203.23129299999999
 11
89.826491999999973
 21
203.331604
  0
LINE
  8
_0-0_0
  6
CONTINUOUS
 62
    7
 10
89.826491999999973
 20
203.331604
 11
89.78630099999998
 21
203.430542
  0
LINE
  8
_0-0_0
  6
CONTINUOUS
 62
    7
 10
89.78630099999998
 20
203.430542
 11
89.752639999999985
 21
203.52829
  0
LINE
  8
_0-0_0
  6
CONTINUOUS
 62
    7
 10
89.752639999999985
 20
203.52829
 11
89.725341999999983
 21
203.625092
  0
LINE
  8
_0-0_0
  6
CONTINUOUS
 62
    7
 10
89.725341999999983
 20
203.625092
 11
89.704299999999989
 21
203.721146
  0
LINE
  8
_0-0_0
  6
CONTINUOUS
 62
    7
 10
89.704299999999989
 20
203.721146
 11
89.688369999999992
 21
203.82501199999999
  0
LINE
  8
_0-0_0
  6
CONTINUOUS
 62
    7
 10
89.688369999999992
 20
203.82501199999999
 11
89.679610999999966
 21
203.928436
  0
LINE
  8
_0-0_0
  6
CONTINUOUS
 62
    7
 10
89.679610999999966
 20
203.928436
 11
89.677962999999977
 21
204.031677
  0
LINE
  8
_0-0_0
  6
CONTINUOUS
 62
    7
 10
89.677962999999977
 20
204.031677
 11
89.683440999999988
 21
204.13494900000001
  0
LINE
  8
_0-0_0
  6
CONTINUOUS
 62
    7
 10
89.683440999999988
 20
204.13494900000001
 11
89.69604499999997
 21
204.23855599999999
  0
LINE
  8
_0-0_0
  6
CONTINUOUS
 62
    7
 10
89.69604499999997
 20
204.23855599999999
 11
89.715865999999977
 21
204.34269699999999
  0
LINE
  8
_0-0_0
  6
CONTINUOUS
 62
    7
 10
89.715865999999977
 20
204.34269699999999
 11
89.743010999999967
 21
204.44766200000001
  0
LINE
  8
_0-0_0
  6
CONTINUOUS
 62
    7
 10
89.743010999999967
 20
204.44766200000001
 11
89.777663999999987
 21
204.55368000000001
  0
LINE
  8
_0-0_0
  6
CONTINUOUS
 62
    7
 10
89.777663999999987
 20
204.55368000000001
 11
89.820006999999976
 21
204.66107199999999
  0
LINE
  8
_0-0_0
  6
CONTINUOUS
 62
    7
 10
89.820006999999976
 20
204.66107199999999
 11
89.870314999999977
 21
204.770081
  0
LINE
  8
_0-0_0
  6
CONTINUOUS
 62
    7
 10
89.870314999999977
 20
204.770081
 11
89.924575999999973
 21
204.87321499999999
  0
LINE
  8
_0-0_0
  6
CONTINUOUS
 62
    7
 10
89.924575999999973
 20
204.87321499999999
 11
89.986281999999989
 21
204.97827100000001
  0
LINE
  8
_0-0_0
  6
CONTINUOUS
 62
    7
 10
89.986281999999989
 20
204.97827100000001
 11
90.055800999999974
 21
205.08549500000001
  0
LINE
  8
_0-0_0
  6
CONTINUOUS
 62
    7
 10
90.055800999999974
 20
205.08549500000001
 11
90.133513999999991
 21
205.19520600000001
  0
LINE
  8
_0-0_0
  6
CONTINUOUS
 62
    7
 10
90.133513999999991
 20
205.19520600000001
 11
90.219893999999982
 21
205.307693
  0
LINE
  8
_0-0_0
  6
CONTINUOUS
 62
    7
 10
99.927718999999968
 20
202.699997
 11
90.219893999999982
 21
202.699997
  0
LINE
  8
_0-0_0
  6
CONTINUOUS
 62
    7
 10
99.927718999999968
 20
205.192307
 11
99.927718999999968
 21
205.307693
  0
LINE
  8
_0-0_0
  6
CONTINUOUS
 62
    7
 10
90.177718999999968
 20
202.699997
 11
90.219893999999982
 21
202.699997
  0
LINE
  8
_0-0_0
  6
CONTINUOUS
 62
    7
 10
99.927718999999968
 20
213.09229999999999
 11
90.219893999999982
 21
213.09229999999999
  0
LINE
  8
_0-0_0
  6
CONTINUOUS
 62
    7
 10
99.927718999999968
 20
213.20768699999999
 11
99.927718999999968
 21
213.09229999999999
  0
LINE
  8
_0-0_0
  6
CONTINUOUS
 62
    7
 10
90.219893999999982
 20
213.09229999999999
 11
90.165404999999964
 21
213.16224700000001
  0
LINE
  8
_0-0_0
  6
CONTINUOUS
 62
    7
 10
90.165404999999964
 20
213.16224700000001
 11
90.114302999999978
 21
213.231064
  0
LINE
  8
_0-0_0
  6
CONTINUOUS
 62
    7
 10
90.114302999999978
 20
213.231064
 11
90.066665999999969
 21
213.29856899999999
  0
LINE
  8
_0-0_0
  6
CONTINUOUS
 62
    7
 10
90.066665999999969
 20
213.29856899999999
 11
90.022170999999986
 21
213.365128
  0
LINE
  8
_0-0_0
  6
CONTINUOUS
 62
    7
 10
90.022170999999986
 20
213.365128
 11
89.967452999999978
 21
213.45266699999999
  0
LINE
  8
_0-0_0
  6
CONTINUOUS
 62
    7
 10
89.967452999999978
 20
213.45266699999999
 11
89.917937999999964
 21
213.538757
  0
LINE
  8
_0-0_0
  6
CONTINUOUS
 62
    7
 10
89.917937999999964
 20
213.538757
 11
89.873458999999968
 21
213.62359599999999
  0
LINE
  8
_0-0_0
  6
CONTINUOUS
 62
    7
 10
89.873458999999968
 20
213.62359599999999
 11
89.826491999999973
 21
213.723907
  0
LINE
  8
_0-0_0
  6
CONTINUOUS
 62
    7
 10
89.826491999999973
 20
213.723907
 11
89.78630099999998
 21
213.822845
  0
LINE
  8
_0-0_0
  6
CONTINUOUS
 62
    7
 10
89.78630099999998
 20
213.822845
 11
89.752639999999985
 21
213.920593
  0
LINE
  8
_0-0_0
  6
CONTINUOUS
 62
    7
 10
89.752639999999985
 20
213.920593
 11
89.725341999999983
 21
214.01739499999999
  0
LINE
  8
_0-0_0
  6
CONTINUOUS
 62
    7
 10
89.725341999999983
 20
214.01739499999999
 11
89.704299999999989
 21
214.113449
  0
LINE
  8
_0-0_0
  6
CONTINUOUS
 62
    7
 10
89.704299999999989
 20
214.113449
 11
89.688369999999992
 21
214.21731600000001
  0
LINE
  8
_0-0_0
  6
CONTINUOUS
 62
    7
 10
89.688369999999992
 20
214.21731600000001
 11
89.679610999999966
 21
214.32074
  0
LINE
  8
_0-0_0
  6
CONTINUOUS
 62
    7
 10
89.679610999999966
 20
214.32074
 11
89.677962999999977
 21
214.42396500000001
  0
LINE
  8
_0-0_0
  6
CONTINUOUS
 62
    7
 10
89.677962999999977
 20
214.42396500000001
 11
89.683440999999988
 21
214.52726699999999
  0
LINE
  8
_0-0_0
  6
CONTINUOUS
 62
    7
 10
89.683440999999988
 20
214.52726699999999
 11
89.69604499999997
 21
214.63085899999999
  0
LINE
  8
_0-0_0
  6
CONTINUOUS
 62
    7
 10
89.69604499999997
 20
214.63085899999999
 11
89.715865999999977
 21
214.73500100000001
  0
LINE
  8
_0-0_0
  6
CONTINUOUS
 62
    7
 10
89.715865999999977
 20
214.73500100000001
 11
89.743010999999967
 21
214.839966
  0
LINE
  8
_0-0_0
  6
CONTINUOUS
 62
    7
 10
89.743010999999967
 20
214.839966
 11
89.777663999999987
 21
214.945999
  0
LINE
  8
_0-0_0
  6
CONTINUOUS
 62
    7
 10
89.777663999999987
 20
214.945999
 11
89.820006999999976
 21
215.05337499999999
  0
LINE
  8
_0-0_0
  6
CONTINUOUS
 62
    7
 10
89.820006999999976
 20
215.05337499999999
 11
89.870314999999977
 21
215.162384
  0
LINE
  8
_0-0_0
  6
CONTINUOUS
 62
    7
 10
89.870314999999977
 20
215.162384
 11
89.916015999999985
 21
215.25003100000001
  0
LINE
  8
_0-0_0
  6
CONTINUOUS
 62
    7
 10
84.927718999999968
 20
218.72543300000001
 11
84.677718999999968
 21
218.75
  0
LINE
  8
_0-0_0
  6
CONTINUOUS
 62
    7
 10
84.927718999999968
 20
218.52148399999999
 11
84.677718999999968
 21
218.75
  0
LINE
  8
_0-0_0
  6
CONTINUOUS
 62
    7
 10
84.927718999999968
 20
218.91596999999999
 11
84.677718999999968
 21
218.96946700000001
  0
LINE
  8
_0-0_0
  6
CONTINUOUS
 62
    7
 10
84.927718999999968
 20
218.72543300000001
 11
84.677718999999968
 21
218.96946700000001
  0
LINE
  8
_0-0_0
  6
CONTINUOUS
 62
    7
 10
84.927718999999968
 20
219.09098800000001
 11
84.677718999999968
 21
219.172821
  0
LINE
  8
_0-0_0
  6
CONTINUOUS
 62
    7
 10
84.927718999999968
 20
218.91596999999999
 11
84.677718999999968
 21
219.172821
  0
LINE
  8
_0-0_0
  6
CONTINUOUS
 62
    7
 10
84.927718999999968
 20
219.248581
 11
84.677718999999968
 21
219.35786400000001
  0
LINE
  8
_0-0_0
  6
CONTINUOUS
 62
    7
 10
84.927718999999968
 20
219.09098800000001
 11
84.677718999999968
 21
219.35786400000001
  0
LINE
  8
_0-0_0
  6
CONTINUOUS
 62
    7
 10
84.927718999999968
 20
219.38700900000001
 11
84.677718999999968
 21
219.522537
  0
LINE
  8
_0-0_0
  6
CONTINUOUS
 62
    7
 10
84.927718999999968
 20
219.248581
 11
84.677718999999968
 21
219.522537
  0
LINE
  8
_0-0_0
  6
CONTINUOUS
 62
    7
 10
84.927718999999968
 20
219.504761
 11
84.677718999999968
 21
219.66506999999999
  0
LINE
  8
_0-0_0
  6
CONTINUOUS
 62
    7
 10
84.927718999999968
 20
219.38700900000001
 11
84.677718999999968
 21
219.66506999999999
  0
LINE
  8
_0-0_0
  6
CONTINUOUS
 62
    7
 10
84.927718999999968
 20
219.60055500000001
 11
84.677718999999968
 21
219.78385900000001
  0
LINE
  8
_0-0_0
  6
CONTINUOUS
 62
    7
 10
84.927718999999968
 20
219.504761
 11
84.677718999999968
 21
219.78385900000001
  0
LINE
  8
_0-0_0
  6
CONTINUOUS
 62
    7
 10
84.927718999999968
 20
219.67334
 11
84.677718999999968
 21
219.87764000000001
  0
LINE
  8
_0-0_0
  6
CONTINUOUS
 62
    7
 10
84.927718999999968
 20
219.60055500000001
 11
84.677718999999968
 21
219.87764000000001
  0
LINE
  8
_0-0_0
  6
CONTINUOUS
 62
    7
 10
84.927718999999968
 20
219.72228999999999
 11
84.677718999999968
 21
219.94537399999999
  0
LINE
  8
_0-0_0
  6
CONTINUOUS
 62
    7
 10
84.927718999999968
 20
219.67334
 11
84.677718999999968
 21
219.94537399999999
  0
LINE
  8
_0-0_0
  6
CONTINUOUS
 62
    7
 10
84.927718999999968
 20
219.74691799999999
 11
84.677718999999968
 21
219.98629800000001
  0
LINE
  8
_0-0_0
  6
CONTINUOUS
 62
    7
 10
84.927718999999968
 20
219.72228999999999
 11
84.901473999999979
 21
219.75
  0
LINE
  8
_0-0_0
  6
CONTINUOUS
 62
    7
 10
84.927718999999968
 20
219.74691799999999
 11
84.677718999999968
 21
220
  0
LINE
  8
_0-0_0
  6
CONTINUOUS
 62
    7
 10
84.927718999999968
 20
215.25308200000001
 11
84.677718999999968
 21
215
  0
LINE
  8
_0-0_0
  6
CONTINUOUS
 62
    7
 10
84.927718999999968
 20
215.27771000000001
 11
84.677718999999968
 21
215.01370199999999
  0
LINE
  8
_0-0_0
  6
CONTINUOUS
 62
    7
 10
84.927718999999968
 20
215.25308200000001
 11
84.677718999999968
 21
215.01370199999999
  0
LINE
  8
_0-0_0
  6
CONTINUOUS
 62
    7
 10
84.927718999999968
 20
215.32666
 11
84.677718999999968
 21
215.05462600000001
  0
LINE
  8
_0-0_0
  6
CONTINUOUS
 62
    7
 10
84.927718999999968
 20
215.27771000000001
 11
84.677718999999968
 21
215.05462600000001
  0
LINE
  8
_0-0_0
  6
CONTINUOUS
 62
    7
 10
84.927718999999968
 20
215.39944499999999
 11
84.677718999999968
 21
215.12235999999999
  0
LINE
  8
_0-0_0
  6
CONTINUOUS
 62
    7
 10
84.927718999999968
 20
215.32666
 11
84.677718999999968
 21
215.12235999999999
  0
LINE
  8
_0-0_0
  6
CONTINUOUS
 62
    7
 10
84.927718999999968
 20
215.495239
 11
84.677718999999968
 21
215.21614099999999
  0
LINE
  8
_0-0_0
  6
CONTINUOUS
 62
    7
 10
84.927718999999968
 20
215.39944499999999
 11
84.677718999999968
 21
215.21614099999999
  0
LINE
  8
_0-0_0
  6
CONTINUOUS
 62
    7
 10
84.927718999999968
 20
215.495239
 11
84.797744999999992
 21
215.41137699999999
  0
LINE
  8
_0-0_0
  6
CONTINUOUS
 62
    7
 10
84.927718999999968
 20
215.61299099999999
 11
84.677718999999968
 21
215.33493000000001
  0
LINE
  8
_0-0_0
  6
CONTINUOUS
 62
    7
 10
84.797744999999992
 20
215.41137699999999
 11
84.677718999999968
 21
215.33493000000001
  0
LINE
  8
_0-0_0
  6
CONTINUOUS
 62
    7
 10
84.927718999999968
 20
215.751419
 11
84.677718999999968
 21
215.477463
  0
LINE
  8
_0-0_0
  6
CONTINUOUS
 62
    7
 10
84.927718999999968
 20
215.61299099999999
 11
84.677718999999968
 21
215.477463
  0
LINE
  8
_0-0_0
  6
CONTINUOUS
 62
    7
 10
84.927718999999968
 20
215.90901199999999
 11
84.677718999999968
 21
215.64213599999999
  0
LINE
  8
_0-0_0
  6
CONTINUOUS
 62
    7
 10
84.927718999999968
 20
215.751419
 11
84.677718999999968
 21
215.64213599999999
  0
LINE
  8
_0-0_0
  6
CONTINUOUS
 62
    7
 10
84.927718999999968
 20
216.08403000000001
 11
84.677718999999968
 21
215.827179
  0
LINE
  8
_0-0_0
  6
CONTINUOUS
 62
    7
 10
84.927718999999968
 20
215.90901199999999
 11
84.677718999999968
 21
215.827179
  0
LINE
  8
_0-0_0
  6
CONTINUOUS
 62
    7
 10
84.927718999999968
 20
216.27456699999999
 11
84.677718999999968
 21
216.03053299999999
  0
LINE
  8
_0-0_0
  6
CONTINUOUS
 62
    7
 10
84.927718999999968
 20
216.08403000000001
 11
84.677718999999968
 21
216.03053299999999
  0
LINE
  8
_0-0_0
  6
CONTINUOUS
 62
    7
 10
84.927718999999968
 20
216.47851600000001
 11
84.677718999999968
 21
216.25
  0
LINE
  8
_0-0_0
  6
CONTINUOUS
 62
    7
 10
84.927718999999968
 20
216.27456699999999
 11
84.677718999999968
 21
216.25
  0
LINE
  8
_0-0_0
  6
CONTINUOUS
 62
    7
 10
84.927718999999968
 20
216.69366500000001
 11
84.677718999999968
 21
216.48315400000001
  0
LINE
  8
_0-0_0
  6
CONTINUOUS
 62
    7
 10
84.927718999999968
 20
216.47851600000001
 11
84.677718999999968
 21
216.48315400000001
  0
LINE
  8
_0-0_0
  6
CONTINUOUS
 62
    7
 10
84.927718999999968
 20
216.917664
 11
84.677718999999968
 21
216.727463
  0
LINE
  8
_0-0_0
  6
CONTINUOUS
 62
    7
 10
84.927718999999968
 20
216.69366500000001
 11
84.677718999999968
 21
216.727463
  0
LINE
  8
_0-0_0
  6
CONTINUOUS
 62
    7
 10
84.927718999999968
 20
217.14802599999999
 11
84.677718999999968
 21
216.98022499999999
  0
LINE
  8
_0-0_0
  6
CONTINUOUS
 62
    7
 10
84.927718999999968
 20
216.917664
 11
84.677718999999968
 21
216.98022499999999
  0
LINE
  8
_0-0_0
  6
CONTINUOUS
 62
    7
 10
84.927718999999968
 20
217.382248
 11
84.677718999999968
 21
217.23867799999999
  0
LINE
  8
_0-0_0
  6
CONTINUOUS
 62
    7
 10
84.927718999999968
 20
217.14802599999999
 11
84.677718999999968
 21
217.23867799999999
  0
LINE
  8
_0-0_0
  6
CONTINUOUS
 62
    7
 10
84.927718999999968
 20
217.617752
 11
84.677718999999968
 21
217.5
  0
LINE
  8
_0-0_0
  6
CONTINUOUS
 62
    7
 10
84.927718999999968
 20
217.382248
 11
84.677718999999968
 21
217.5
  0
LINE
  8
_0-0_0
  6
CONTINUOUS
 62
    7
 10
84.927718999999968
 20
217.85197400000001
 11
84.677718999999968
 21
217.76132200000001
  0
LINE
  8
_0-0_0
  6
CONTINUOUS
 62
    7
 10
84.927718999999968
 20
217.617752
 11
84.677718999999968
 21
217.76132200000001
  0
LINE
  8
_0-0_0
  6
CONTINUOUS
 62
    7
 10
84.927718999999968
 20
218.082336
 11
84.677718999999968
 21
218.01977500000001
  0
LINE
  8
_0-0_0
  6
CONTINUOUS
 62
    7
 10
84.927718999999968
 20
217.85197400000001
 11
84.677718999999968
 21
218.01977500000001
  0
LINE
  8
_0-0_0
  6
CONTINUOUS
 62
    7
 10
84.927718999999968
 20
218.30633499999999
 11
84.677718999999968
 21
218.272537
  0
LINE
  8
_0-0_0
  6
CONTINUOUS
 62
    7
 10
84.927718999999968
 20
218.082336
 11
84.677718999999968
 21
218.272537
  0
LINE
  8
_0-0_0
  6
CONTINUOUS
 62
    7
 10
84.927718999999968
 20
218.52148399999999
 11
84.677718999999968
 21
218.51684599999999
  0
LINE
  8
_0-0_0
  6
CONTINUOUS
 62
    7
 10
84.927718999999968
 20
218.30633499999999
 11
84.677718999999968
 21
218.51684599999999
  0
LINE
  8
_0-0_0
  6
CONTINUOUS
 62
    7
 10
99.927718999999968
 20
210.76205400000001
 11
99.927718999999968
 21
211.807693
  0
LINE
  8
_0-0_0
  6
CONTINUOUS
 62
    7
 10
99.927718999999968
 20
213.09229999999999
 11
99.927718999999968
 21
211.807693
  0
LINE
  8
_0-0_0
  6
CONTINUOUS
 62
    7
 10
99.927718999999968
 20
210.76205400000001
 11
99.927718999999968
 21
207.63795500000001
  0
LINE
  8
_0-0_0
  6
CONTINUOUS
 62
    7
 10
99.927718999999968
 20
206.59229999999999
 11
99.927718999999968
 21
205.307693
  0
LINE
  8
_0-0_0
  6
CONTINUOUS
 62
    7
 10
99.927718999999968
 20
206.59229999999999
 11
99.927718999999968
 21
207.63795500000001
  0
LINE
  8
_0-0_0
  6
CONTINUOUS
 62
    7
 10
214.52773999999999
 20
199.941147
 11
214.52773999999999
 21
202.89999399999999
  0
LINE
  8
_0-0_0
  6
CONTINUOUS
 62
    7
 10
214.52773999999999
 20
198.89999399999999
 11
214.52773999999999
 21
199.941147
  0
LINE
  8
_0-0_0
  6
CONTINUOUS
 62
    7
 10
99.927718999999968
 20
206.59229999999999
 11
90.219893999999982
 21
206.59229999999999
  0
ARC
  8
_0-0_0
  6
CONTINUOUS
 62
    7
 10
95.10160799999997
 20
205.94911200000001
 40
4.9238749999999998
 50
172.49424200000001
 51
181.535968
  0
ARC
  8
_0-0_0
  6
CONTINUOUS
 62
    7
 10
95.139632999999975
 20
205.954071
 40
4.9620009999999999
 50
181.58130700000004
 51
187.48478900000003
  0
LINE
  8
_0-0_0
  6
CONTINUOUS
 62
    7
 10
88.927718999999968
 20
206.468445
 11
88.927718999999968
 21
203.949997
  0
LINE
  8
_0-0_0
  6
CONTINUOUS
 62
    7
 10
88.927718999999968
 20
214.449997
 11
88.927718999999968
 21
206.468445
  0
LINE
  8
_0-0_0
  6
CONTINUOUS
 62
    7
 10
90.219893999999982
 20
211.807693
 11
90.125548999999978
 21
211.56106600000001
  0
LINE
  8
_0-0_0
  6
CONTINUOUS
 62
    7
 10
90.125548999999978
 20
211.56106600000001
 11
90.041610999999989
 21
211.32110599999999
  0
LINE
  8
_0-0_0
  6
CONTINUOUS
 62
    7
 10
90.041610999999989
 20
211.32110599999999
 11
89.967452999999978
 21
211.08698999999999
  0
LINE
  8
_0-0_0
  6
CONTINUOUS
 62
    7
 10
89.967452999999978
 20
211.08698999999999
 11
89.90257299999999
 21
210.857956
  0
LINE
  8
_0-0_0
  6
CONTINUOUS
 62
    7
 10
89.90257299999999
 20
210.857956
 11
89.84652699999998
 21
210.633286
  0
LINE
  8
_0-0_0
  6
CONTINUOUS
 62
    7
 10
89.84652699999998
 20
210.633286
 11
89.798964999999981
 21
210.41229200000001
  0
LINE
  8
_0-0_0
  6
CONTINUOUS
 62
    7
 10
89.798964999999981
 20
210.41229200000001
 11
89.759551999999985
 21
210.19438199999999
  0
LINE
  8
_0-0_0
  6
CONTINUOUS
 62
    7
 10
89.759551999999985
 20
210.19438199999999
 11
89.728072999999966
 21
209.978928
  0
LINE
  8
_0-0_0
  6
CONTINUOUS
 62
    7
 10
89.728072999999966
 20
209.978928
 11
89.704299999999989
 21
209.76539600000001
  0
LINE
  8
_0-0_0
  6
CONTINUOUS
 62
    7
 10
89.704299999999989
 20
209.76539600000001
 11
89.688369999999992
 21
209.55767800000001
  0
LINE
  8
_0-0_0
  6
CONTINUOUS
 62
    7
 10
89.688369999999992
 20
209.55767800000001
 11
89.679610999999966
 21
209.35083
  0
LINE
  8
_0-0_0
  6
CONTINUOUS
 62
    7
 10
89.679610999999966
 20
209.35083
 11
89.677962999999977
 21
209.144363
  0
LINE
  8
_0-0_0
  6
CONTINUOUS
 62
    7
 10
89.677962999999977
 20
209.144363
 11
89.683440999999988
 21
208.93777499999999
  0
LINE
  8
_0-0_0
  6
CONTINUOUS
 62
    7
 10
89.683440999999988
 20
208.93777499999999
 11
89.69604499999997
 21
208.730591
  0
LINE
  8
_0-0_0
  6
CONTINUOUS
 62
    7
 10
89.69604499999997
 20
208.730591
 11
89.715865999999977
 21
208.52230800000001
  0
LINE
  8
_0-0_0
  6
CONTINUOUS
 62
    7
 10
89.715865999999977
 20
208.52230800000001
 11
89.743010999999967
 21
208.312378
  0
LINE
  8
_0-0_0
  6
CONTINUOUS
 62
    7
 10
89.743010999999967
 20
208.312378
 11
89.777663999999987
 21
208.100311
  0
LINE
  8
_0-0_0
  6
CONTINUOUS
 62
    7
 10
89.777663999999987
 20
208.100311
 11
89.820006999999976
 21
207.885559
  0
LINE
  8
_0-0_0
  6
CONTINUOUS
 62
    7
 10
89.820006999999976
 20
207.885559
 11
89.870314999999977
 21
207.66755699999999
  0
LINE
  8
_0-0_0
  6
CONTINUOUS
 62
    7
 10
89.870314999999977
 20
207.66755699999999
 11
89.924575999999973
 21
207.46127300000001
  0
LINE
  8
_0-0_0
  6
CONTINUOUS
 62
    7
 10
89.924575999999973
 20
207.46127300000001
 11
89.986281999999989
 21
207.25116
  0
LINE
  8
_0-0_0
  6
CONTINUOUS
 62
    7
 10
89.986281999999989
 20
207.25116
 11
90.055800999999974
 21
207.036697
  0
LINE
  8
_0-0_0
  6
CONTINUOUS
 62
    7
 10
90.055800999999974
 20
207.036697
 11
90.133513999999991
 21
206.81729100000001
  0
LINE
  8
_0-0_0
  6
CONTINUOUS
 62
    7
 10
90.133513999999991
 20
206.81729100000001
 11
90.219893999999982
 21
206.59229999999999
  0
ARC
  8
_0-0_0
  6
CONTINUOUS
 62
    7
 10
95.091445999999991
 20
212.449997
 40
4.9136889999999998
 50
172.48898299999999
 51
187.51101699999998
  0
LINE
  8
_0-0_0
  6
CONTINUOUS
 62
    7
 10
99.927718999999968
 20
211.807693
 11
90.219893999999982
 21
211.807693
  0
LINE
  8
_0-0_0
  6
CONTINUOUS
 62
    7
 10
75.177718999999968
 20
218.72543300000001
 11
75.427718999999968
 21
218.75
  0
LINE
  8
_0-0_0
  6
CONTINUOUS
 62
    7
 10
75.427718999999968
 20
218.75
 11
84.677718999999968
 21
218.75
  0
LINE
  8
_0-0_0
  6
CONTINUOUS
 62
    7
 10
75.177718999999968
 20
218.52148399999999
 11
75.427718999999968
 21
218.75
  0
LINE
  8
_0-0_0
  6
CONTINUOUS
 62
    7
 10
75.177718999999968
 20
218.52148399999999
 11
84.927718999999968
 21
218.52148399999999
  0
LINE
  8
_0-0_0
  6
CONTINUOUS
 62
    7
 10
75.177718999999968
 20
218.91596999999999
 11
75.427718999999968
 21
218.96946700000001
  0
LINE
  8
_0-0_0
  6
CONTINUOUS
 62
    7
 10
75.427718999999968
 20
218.96946700000001
 11
84.677718999999968
 21
218.96946700000001
  0
LINE
  8
_0-0_0
  6
CONTINUOUS
 62
    7
 10
75.177718999999968
 20
218.72543300000001
 11
75.427718999999968
 21
218.96946700000001
  0
LINE
  8
_0-0_0
  6
CONTINUOUS
 62
    7
 10
75.177718999999968
 20
219.09098800000001
 11
75.427718999999968
 21
219.172821
  0
LINE
  8
_0-0_0
  6
CONTINUOUS
 62
    7
 10
75.427718999999968
 20
219.172821
 11
84.677718999999968
 21
219.172821
  0
LINE
  8
_0-0_0
  6
CONTINUOUS
 62
    7
 10
75.177718999999968
 20
218.91596999999999
 11
75.427718999999968
 21
219.172821
  0
LINE
  8
_0-0_0
  6
CONTINUOUS
 62
    7
 10
75.177718999999968
 20
219.248581
 11
75.427718999999968
 21
219.35786400000001
  0
LINE
  8
_0-0_0
  6
CONTINUOUS
 62
    7
 10
75.427718999999968
 20
219.35786400000001
 11
84.677718999999968
 21
219.35786400000001
  0
LINE
  8
_0-0_0
  6
CONTINUOUS
 62
    7
 10
75.177718999999968
 20
219.09098800000001
 11
75.427718999999968
 21
219.35786400000001
  0
LINE
  8
_0-0_0
  6
CONTINUOUS
 62
    7
 10
75.177718999999968
 20
219.38700900000001
 11
75.427718999999968
 21
219.522537
  0
LINE
  8
_0-0_0
  6
CONTINUOUS
 62
    7
 10
75.427718999999968
 20
219.522537
 11
84.677718999999968
 21
219.522537
  0
LINE
  8
_0-0_0
  6
CONTINUOUS
 62
    7
 10
75.177718999999968
 20
219.248581
 11
75.427718999999968
 21
219.522537
  0
LINE
  8
_0-0_0
  6
CONTINUOUS
 62
    7
 10
75.177718999999968
 20
219.504761
 11
75.427718999999968
 21
219.66506999999999
  0
LINE
  8
_0-0_0
  6
CONTINUOUS
 62
    7
 10
75.427718999999968
 20
219.66506999999999
 11
84.677718999999968
 21
219.66506999999999
  0
LINE
  8
_0-0_0
  6
CONTINUOUS
 62
    7
 10
75.177718999999968
 20
219.38700900000001
 11
75.427718999999968
 21
219.66506999999999
  0
LINE
  8
_0-0_0
  6
CONTINUOUS
 62
    7
 10
75.177718999999968
 20
219.60055500000001
 11
75.427718999999968
 21
219.78385900000001
  0
LINE
  8
_0-0_0
  6
CONTINUOUS
 62
    7
 10
75.427718999999968
 20
219.78385900000001
 11
84.677718999999968
 21
219.78385900000001
  0
LINE
  8
_0-0_0
  6
CONTINUOUS
 62
    7
 10
75.177718999999968
 20
219.504761
 11
75.427718999999968
 21
219.78385900000001
  0
LINE
  8
_0-0_0
  6
CONTINUOUS
 62
    7
 10
75.177718999999968
 20
219.67334
 11
75.427718999999968
 21
219.87764000000001
  0
LINE
  8
_0-0_0
  6
CONTINUOUS
 62
    7
 10
75.427718999999968
 20
219.87764000000001
 11
84.677718999999968
 21
219.87764000000001
  0
LINE
  8
_0-0_0
  6
CONTINUOUS
 62
    7
 10
75.177718999999968
 20
219.60055500000001
 11
75.427718999999968
 21
219.87764000000001
  0
LINE
  8
_0-0_0
  6
CONTINUOUS
 62
    7
 10
75.177718999999968
 20
219.72228999999999
 11
75.427718999999968
 21
219.94537399999999
  0
LINE
  8
_0-0_0
  6
CONTINUOUS
 62
    7
 10
75.427718999999968
 20
219.94537399999999
 11
84.677718999999968
 21
219.94537399999999
  0
LINE
  8
_0-0_0
  6
CONTINUOUS
 62
    7
 10
75.177718999999968
 20
219.67334
 11
75.427718999999968
 21
219.94537399999999
  0
LINE
  8
_0-0_0
  6
CONTINUOUS
 62
    7
 10
75.177718999999968
 20
219.74691799999999
 11
75.427718999999968
 21
219.98629800000001
  0
LINE
  8
_0-0_0
  6
CONTINUOUS
 62
    7
 10
75.427718999999968
 20
219.98629800000001
 11
84.677718999999968
 21
219.98629800000001
  0
LINE
  8
_0-0_0
  6
CONTINUOUS
 62
    7
 10
75.177718999999968
 20
219.72228999999999
 11
75.427718999999968
 21
219.98629800000001
  0
LINE
  8
_0-0_0
  6
CONTINUOUS
 62
    7
 10
75.427718999999968
 20
220
 11
84.677718999999968
 21
220
  0
LINE
  8
_0-0_0
  6
CONTINUOUS
 62
    7
 10
75.177718999999968
 20
219.74691799999999
 11
75.427718999999968
 21
220
  0
LINE
  8
_0-0_0
  6
CONTINUOUS
 62
    7
 10
75.177718999999968
 20
215.25308200000001
 11
75.427718999999968
 21
215
  0
LINE
  8
_0-0_0
  6
CONTINUOUS
 62
    7
 10
75.427718999999968
 20
215
 11
84.677718999999968
 21
215
  0
LINE
  8
_0-0_0
  6
CONTINUOUS
 62
    7
 10
75.177718999999968
 20
215.27771000000001
 11
75.427718999999968
 21
215.01370199999999
  0
LINE
  8
_0-0_0
  6
CONTINUOUS
 62
    7
 10
75.427718999999968
 20
215.01370199999999
 11
84.677718999999968
 21
215.01370199999999
  0
LINE
  8
_0-0_0
  6
CONTINUOUS
 62
    7
 10
75.177718999999968
 20
215.25308200000001
 11
75.427718999999968
 21
215.01370199999999
  0
LINE
  8
_0-0_0
  6
CONTINUOUS
 62
    7
 10
75.177718999999968
 20
215.32666
 11
75.427718999999968
 21
215.05462600000001
  0
LINE
  8
_0-0_0
  6
CONTINUOUS
 62
    7
 10
75.427718999999968
 20
215.05462600000001
 11
84.677718999999968
 21
215.05462600000001
  0
LINE
  8
_0-0_0
  6
CONTINUOUS
 62
    7
 10
75.177718999999968
 20
215.27771000000001
 11
75.427718999999968
 21
215.05462600000001
  0
LINE
  8
_0-0_0
  6
CONTINUOUS
 62
    7
 10
75.177718999999968
 20
215.39944499999999
 11
75.427718999999968
 21
215.12235999999999
  0
LINE
  8
_0-0_0
  6
CONTINUOUS
 62
    7
 10
75.427718999999968
 20
215.12235999999999
 11
84.677718999999968
 21
215.12235999999999
  0
LINE
  8
_0-0_0
  6
CONTINUOUS
 62
    7
 10
75.177718999999968
 20
215.32666
 11
75.427718999999968
 21
215.12235999999999
  0
LINE
  8
_0-0_0
  6
CONTINUOUS
 62
    7
 10
75.177718999999968
 20
215.495239
 11
75.427718999999968
 21
215.21614099999999
  0
LINE
  8
_0-0_0
  6
CONTINUOUS
 62
    7
 10
75.427718999999968
 20
215.21614099999999
 11
84.677718999999968
 21
215.21614099999999
  0
LINE
  8
_0-0_0
  6
CONTINUOUS
 62
    7
 10
75.177718999999968
 20
215.39944499999999
 11
75.427718999999968
 21
215.21614099999999
  0
LINE
  8
_0-0_0
  6
CONTINUOUS
 62
    7
 10
75.427718999999968
 20
215.33493000000001
 11
84.677718999999968
 21
215.33493000000001
  0
LINE
  8
_0-0_0
  6
CONTINUOUS
 62
    7
 10
75.307677999999981
 20
215.41137699999999
 11
75.427718999999968
 21
215.33493000000001
  0
LINE
  8
_0-0_0
  6
CONTINUOUS
 62
    7
 10
75.177718999999968
 20
215.495239
 11
75.307677999999981
 21
215.41137699999999
  0
LINE
  8
_0-0_0
  6
CONTINUOUS
 62
    7
 10
75.177718999999968
 20
215.61299099999999
 11
75.427718999999968
 21
215.33493000000001
  0
LINE
  8
_0-0_0
  6
CONTINUOUS
 62
    7
 10
75.177718999999968
 20
215.751419
 11
75.427718999999968
 21
215.477463
  0
LINE
  8
_0-0_0
  6
CONTINUOUS
 62
    7
 10
75.427718999999968
 20
215.477463
 11
84.677718999999968
 21
215.477463
  0
LINE
  8
_0-0_0
  6
CONTINUOUS
 62
    7
 10
75.177718999999968
 20
215.61299099999999
 11
75.427718999999968
 21
215.477463
  0
LINE
  8
_0-0_0
  6
CONTINUOUS
 62
    7
 10
75.177718999999968
 20
215.90901199999999
 11
75.427718999999968
 21
215.64213599999999
  0
LINE
  8
_0-0_0
  6
CONTINUOUS
 62
    7
 10
75.427718999999968
 20
215.64213599999999
 11
84.677718999999968
 21
215.64213599999999
  0
LINE
  8
_0-0_0
  6
CONTINUOUS
 62
    7
 10
75.177718999999968
 20
215.751419
 11
75.427718999999968
 21
215.64213599999999
  0
LINE
  8
_0-0_0
  6
CONTINUOUS
 62
    7
 10
75.177718999999968
 20
216.08403000000001
 11
75.427718999999968
 21
215.827179
  0
LINE
  8
_0-0_0
  6
CONTINUOUS
 62
    7
 10
75.427718999999968
 20
215.827179
 11
84.677718999999968
 21
215.827179
  0
LINE
  8
_0-0_0
  6
CONTINUOUS
 62
    7
 10
75.177718999999968
 20
215.90901199999999
 11
75.427718999999968
 21
215.827179
  0
LINE
  8
_0-0_0
  6
CONTINUOUS
 62
    7
 10
75.177718999999968
 20
216.27456699999999
 11
75.427718999999968
 21
216.03053299999999
  0
LINE
  8
_0-0_0
  6
CONTINUOUS
 62
    7
 10
75.427718999999968
 20
216.03053299999999
 11
84.677718999999968
 21
216.03053299999999
  0
LINE
  8
_0-0_0
  6
CONTINUOUS
 62
    7
 10
75.177718999999968
 20
216.08403000000001
 11
75.427718999999968
 21
216.03053299999999
  0
LINE
  8
_0-0_0
  6
CONTINUOUS
 62
    7
 10
75.177718999999968
 20
216.47851600000001
 11
75.427718999999968
 21
216.25
  0
LINE
  8
_0-0_0
  6
CONTINUOUS
 62
    7
 10
75.427718999999968
 20
216.25
 11
84.677718999999968
 21
216.25
  0
LINE
  8
_0-0_0
  6
CONTINUOUS
 62
    7
 10
75.177718999999968
 20
216.47851600000001
 11
84.927718999999968
 21
216.47851600000001
  0
LINE
  8
_0-0_0
  6
CONTINUOUS
 62
    7
 10
75.177718999999968
 20
216.27456699999999
 11
75.427718999999968
 21
216.25
  0
LINE
  8
_0-0_0
  6
CONTINUOUS
 62
    7
 10
75.177718999999968
 20
216.69366500000001
 11
75.427718999999968
 21
216.48315400000001
  0
LINE
  8
_0-0_0
  6
CONTINUOUS
 62
    7
 10
75.427718999999968
 20
216.48315400000001
 11
84.677718999999968
 21
216.48315400000001
  0
LINE
  8
_0-0_0
  6
CONTINUOUS
 62
    7
 10
75.177718999999968
 20
216.69366500000001
 11
84.927718999999968
 21
216.69366500000001
  0
LINE
  8
_0-0_0
  6
CONTINUOUS
 62
    7
 10
75.177718999999968
 20
216.47851600000001
 11
75.427718999999968
 21
216.48315400000001
  0
LINE
  8
_0-0_0
  6
CONTINUOUS
 62
    7
 10
75.177718999999968
 20
216.917664
 11
75.427718999999968
 21
216.727463
  0
LINE
  8
_0-0_0
  6
CONTINUOUS
 62
    7
 10
75.427718999999968
 20
216.727463
 11
84.677718999999968
 21
216.727463
  0
LINE
  8
_0-0_0
  6
CONTINUOUS
 62
    7
 10
75.177718999999968
 20
216.917664
 11
84.927718999999968
 21
216.917664
  0
LINE
  8
_0-0_0
  6
CONTINUOUS
 62
    7
 10
75.177718999999968
 20
216.69366500000001
 11
75.427718999999968
 21
216.727463
  0
LINE
  8
_0-0_0
  6
CONTINUOUS
 62
    7
 10
75.177718999999968
 20
217.14802599999999
 11
75.427718999999968
 21
216.98022499999999
  0
LINE
  8
_0-0_0
  6
CONTINUOUS
 62
    7
 10
75.427718999999968
 20
216.98022499999999
 11
84.677718999999968
 21
216.98022499999999
  0
LINE
  8
_0-0_0
  6
CONTINUOUS
 62
    7
 10
75.177718999999968
 20
217.14802599999999
 11
84.927718999999968
 21
217.14802599999999
  0
LINE
  8
_0-0_0
  6
CONTINUOUS
 62
    7
 10
75.177718999999968
 20
216.917664
 11
75.427718999999968
 21
216.98022499999999
  0
LINE
  8
_0-0_0
  6
CONTINUOUS
 62
    7
 10
75.177718999999968
 20
217.382248
 11
75.427718999999968
 21
217.23867799999999
  0
LINE
  8
_0-0_0
  6
CONTINUOUS
 62
    7
 10
75.427718999999968
 20
217.23867799999999
 11
84.677718999999968
 21
217.23867799999999
  0
LINE
  8
_0-0_0
  6
CONTINUOUS
 62
    7
 10
75.177718999999968
 20
217.382248
 11
84.927718999999968
 21
217.382248
  0
LINE
  8
_0-0_0
  6
CONTINUOUS
 62
    7
 10
75.177718999999968
 20
217.14802599999999
 11
75.427718999999968
 21
217.23867799999999
  0
LINE
  8
_0-0_0
  6
CONTINUOUS
 62
    7
 10
75.177718999999968
 20
217.617752
 11
75.427718999999968
 21
217.5
  0
LINE
  8
_0-0_0
  6
CONTINUOUS
 62
    7
 10
75.427718999999968
 20
217.5
 11
84.677718999999968
 21
217.5
  0
LINE
  8
_0-0_0
  6
CONTINUOUS
 62
    7
 10
75.177718999999968
 20
217.617752
 11
84.927718999999968
 21
217.617752
  0
LINE
  8
_0-0_0
  6
CONTINUOUS
 62
    7
 10
75.177718999999968
 20
217.382248
 11
75.427718999999968
 21
217.5
  0
LINE
  8
_0-0_0
  6
CONTINUOUS
 62
    7
 10
75.177718999999968
 20
217.85197400000001
 11
75.427718999999968
 21
217.76132200000001
  0
LINE
  8
_0-0_0
  6
CONTINUOUS
 62
    7
 10
75.427718999999968
 20
217.76132200000001
 11
84.677718999999968
 21
217.76132200000001
  0
LINE
  8
_0-0_0
  6
CONTINUOUS
 62
    7
 10
75.177718999999968
 20
217.85197400000001
 11
84.927718999999968
 21
217.85197400000001
  0
LINE
  8
_0-0_0
  6
CONTINUOUS
 62
    7
 10
75.177718999999968
 20
217.617752
 11
75.427718999999968
 21
217.76132200000001
  0
LINE
  8
_0-0_0
  6
CONTINUOUS
 62
    7
 10
75.177718999999968
 20
218.082336
 11
75.427718999999968
 21
218.01977500000001
  0
LINE
  8
_0-0_0
  6
CONTINUOUS
 62
    7
 10
75.427718999999968
 20
218.01977500000001
 11
84.677718999999968
 21
218.01977500000001
  0
LINE
  8
_0-0_0
  6
CONTINUOUS
 62
    7
 10
75.177718999999968
 20
218.082336
 11
84.927718999999968
 21
218.082336
  0
LINE
  8
_0-0_0
  6
CONTINUOUS
 62
    7
 10
75.177718999999968
 20
217.85197400000001
 11
75.427718999999968
 21
218.01977500000001
  0
LINE
  8
_0-0_0
  6
CONTINUOUS
 62
    7
 10
75.177718999999968
 20
218.30633499999999
 11
75.427718999999968
 21
218.272537
  0
LINE
  8
_0-0_0
  6
CONTINUOUS
 62
    7
 10
75.427718999999968
 20
218.272537
 11
84.677718999999968
 21
218.272537
  0
LINE
  8
_0-0_0
  6
CONTINUOUS
 62
    7
 10
75.177718999999968
 20
218.30633499999999
 11
84.927718999999968
 21
218.30633499999999
  0
LINE
  8
_0-0_0
  6
CONTINUOUS
 62
    7
 10
75.177718999999968
 20
218.082336
 11
75.427718999999968
 21
218.272537
  0
LINE
  8
_0-0_0
  6
CONTINUOUS
 62
    7
 10
75.177718999999968
 20
218.52148399999999
 11
75.427718999999968
 21
218.51684599999999
  0
LINE
  8
_0-0_0
  6
CONTINUOUS
 62
    7
 10
75.427718999999968
 20
218.51684599999999
 11
84.677718999999968
 21
218.51684599999999
  0
LINE
  8
_0-0_0
  6
CONTINUOUS
 62
    7
 10
75.177718999999968
 20
218.30633499999999
 11
75.427718999999968
 21
218.51684599999999
  0
LINE
  8
_0-0_0
  6
CONTINUOUS
 62
    7
 10
74.927718999999968
 20
219.5
 11
74.927718999999968
 21
215.744843
  0
LINE
  8
_0-0_0
  6
CONTINUOUS
 62
    7
 10
74.927718999999968
 20
215.744843
 11
74.927718999999968
 21
215.5
  0
LINE
  8
_0-0_0
  6
CONTINUOUS
 62
    7
 10
88.527709999999985
 20
214.199997
 11
88.527709999999985
 21
211.699997
  0
LINE
  8
_0-0_0
  6
CONTINUOUS
 62
    7
 10
88.527709999999985
 20
211.699997
 11
88.527709999999985
 21
204.199997
  0
LINE
  8
_0-0_0
  6
CONTINUOUS
 62
    7
 10
87.727706999999981
 20
213.73812899999999
 11
87.727706999999981
 21
211.469055
  0
LINE
  8
_0-0_0
  6
CONTINUOUS
 62
    7
 10
87.727706999999981
 20
211.469055
 11
87.727706999999981
 21
204.66188
  0
LINE
  8
_0-0_0
  6
CONTINUOUS
 62
    7
 10
29.727721999999972
 20
213.199997
 11
29.727721999999972
 21
213.198654
  0
LINE
  8
_0-0_0
  6
CONTINUOUS
 62
    7
 10
29.727721999999972
 20
213.198654
 11
29.727721999999972
 21
205.199997
  0
LINE
  8
_0-0_0
  6
CONTINUOUS
 62
    7
 10
84.927718999999968
 20
198.65309099999999
 11
84.927718999999968
 21
198.64999399999999
  0
LINE
  8
_0-0_0
  6
CONTINUOUS
 62
    7
 10
84.927718999999968
 20
198.67770400000001
 11
84.927718999999968
 21
198.65309099999999
  0
LINE
  8
_0-0_0
  6
CONTINUOUS
 62
    7
 10
84.927718999999968
 20
198.72666899999999
 11
84.927718999999968
 21
198.67770400000001
  0
LINE
  8
_0-0_0
  6
CONTINUOUS
 62
    7
 10
84.927718999999968
 20
198.79943800000001
 11
84.927718999999968
 21
198.72666899999999
  0
LINE
  8
_0-0_0
  6
CONTINUOUS
 62
    7
 10
84.927718999999968
 20
198.89523299999999
 11
84.927718999999968
 21
198.79943800000001
  0
LINE
  8
_0-0_0
  6
CONTINUOUS
 62
    7
 10
84.927718999999968
 20
198.92544599999999
 11
84.927718999999968
 21
198.89523299999999
  0
LINE
  8
_0-0_0
  6
CONTINUOUS
 62
    7
 10
84.927718999999968
 20
199.01300000000001
 11
84.927718999999968
 21
198.92544599999999
  0
LINE
  8
_0-0_0
  6
CONTINUOUS
 62
    7
 10
84.927718999999968
 20
199.15141299999999
 11
84.927718999999968
 21
199.01300000000001
  0
LINE
  8
_0-0_0
  6
CONTINUOUS
 62
    7
 10
84.927718999999968
 20
199.309021
 11
84.927718999999968
 21
199.15141299999999
  0
LINE
  8
_0-0_0
  6
CONTINUOUS
 62
    7
 10
84.927718999999968
 20
199.48402400000001
 11
84.927718999999968
 21
199.309021
  0
LINE
  8
_0-0_0
  6
CONTINUOUS
 62
    7
 10
84.927718999999968
 20
199.67456100000001
 11
84.927718999999968
 21
199.48402400000001
  0
LINE
  8
_0-0_0
  6
CONTINUOUS
 62
    7
 10
84.927718999999968
 20
199.878525
 11
84.927718999999968
 21
199.67456100000001
  0
LINE
  8
_0-0_0
  6
CONTINUOUS
 62
    7
 10
84.927718999999968
 20
200.09367399999999
 11
84.927718999999968
 21
199.878525
  0
LINE
  8
_0-0_0
  6
CONTINUOUS
 62
    7
 10
84.927718999999968
 20
200.317657
 11
84.927718999999968
 21
200.09367399999999
  0
LINE
  8
_0-0_0
  6
CONTINUOUS
 62
    7
 10
84.927718999999968
 20
200.54801900000001
 11
84.927718999999968
 21
200.317657
  0
LINE
  8
_0-0_0
  6
CONTINUOUS
 62
    7
 10
84.927718999999968
 20
200.782242
 11
84.927718999999968
 21
200.54801900000001
  0
LINE
  8
_0-0_0
  6
CONTINUOUS
 62
    7
 10
84.927718999999968
 20
201.01774599999999
 11
84.927718999999968
 21
200.782242
  0
LINE
  8
_0-0_0
  6
CONTINUOUS
 62
    7
 10
84.927718999999968
 20
201.25198399999999
 11
84.927718999999968
 21
201.01774599999999
  0
LINE
  8
_0-0_0
  6
CONTINUOUS
 62
    7
 10
84.927718999999968
 20
201.48234600000001
 11
84.927718999999968
 21
201.25198399999999
  0
LINE
  8
_0-0_0
  6
CONTINUOUS
 62
    7
 10
84.927718999999968
 20
201.70632900000001
 11
84.927718999999968
 21
201.48234600000001
  0
LINE
  8
_0-0_0
  6
CONTINUOUS
 62
    7
 10
84.927718999999968
 20
201.92147800000001
 11
84.927718999999968
 21
201.70632900000001
  0
LINE
  8
_0-0_0
  6
CONTINUOUS
 62
    7
 10
84.927718999999968
 20
201.97869900000001
 11
84.927718999999968
 21
201.92147800000001
  0
LINE
  8
_0-0_0
  6
CONTINUOUS
 62
    7
 10
84.927718999999968
 20
198.65309099999999
 11
84.677718999999968
 21
198.39999399999999
  0
LINE
  8
_0-0_0
  6
CONTINUOUS
 62
    7
 10
84.927718999999968
 20
198.67770400000001
 11
84.677718999999968
 21
198.41369599999999
  0
LINE
  8
_0-0_0
  6
CONTINUOUS
 62
    7
 10
84.927718999999968
 20
198.65309099999999
 11
84.677718999999968
 21
198.41369599999999
  0
LINE
  8
_0-0_0
  6
CONTINUOUS
 62
    7
 10
84.927718999999968
 20
198.72666899999999
 11
84.677718999999968
 21
198.45463599999999
  0
LINE
  8
_0-0_0
  6
CONTINUOUS
 62
    7
 10
84.927718999999968
 20
198.67770400000001
 11
84.677718999999968
 21
198.45463599999999
  0
LINE
  8
_0-0_0
  6
CONTINUOUS
 62
    7
 10
84.927718999999968
 20
198.79943800000001
 11
84.677718999999968
 21
198.52235400000001
  0
LINE
  8
_0-0_0
  6
CONTINUOUS
 62
    7
 10
84.927718999999968
 20
198.72666899999999
 11
84.677718999999968
 21
198.52235400000001
  0
LINE
  8
_0-0_0
  6
CONTINUOUS
 62
    7
 10
84.927718999999968
 20
198.89523299999999
 11
84.677718999999968
 21
198.61613500000001
  0
LINE
  8
_0-0_0
  6
CONTINUOUS
 62
    7
 10
84.927718999999968
 20
198.79943800000001
 11
84.677718999999968
 21
198.61613500000001
  0
LINE
  8
_0-0_0
  6
CONTINUOUS
 62
    7
 10
84.927718999999968
 20
198.89523299999999
 11
84.797744999999992
 21
198.811386
  0
LINE
  8
_0-0_0
  6
CONTINUOUS
 62
    7
 10
84.927718999999968
 20
199.01300000000001
 11
84.677718999999968
 21
198.73493999999999
  0
LINE
  8
_0-0_0
  6
CONTINUOUS
 62
    7
 10
84.797744999999992
 20
198.811386
 11
84.677718999999968
 21
198.73493999999999
  0
LINE
  8
_0-0_0
  6
CONTINUOUS
 62
    7
 10
84.927718999999968
 20
199.15141299999999
 11
84.677718999999968
 21
198.87745699999999
  0
LINE
  8
_0-0_0
  6
CONTINUOUS
 62
    7
 10
84.927718999999968
 20
199.01300000000001
 11
84.677718999999968
 21
198.87745699999999
  0
LINE
  8
_0-0_0
  6
CONTINUOUS
 62
    7
 10
84.927718999999968
 20
199.309021
 11
84.677718999999968
 21
199.042145
  0
LINE
  8
_0-0_0
  6
CONTINUOUS
 62
    7
 10
84.927718999999968
 20
199.15141299999999
 11
84.677718999999968
 21
199.042145
  0
LINE
  8
_0-0_0
  6
CONTINUOUS
 62
    7
 10
84.927718999999968
 20
199.48402400000001
 11
84.677718999999968
 21
199.22717299999999
  0
LINE
  8
_0-0_0
  6
CONTINUOUS
 62
    7
 10
84.927718999999968
 20
199.309021
 11
84.677718999999968
 21
199.22717299999999
  0
LINE
  8
_0-0_0
  6
CONTINUOUS
 62
    7
 10
84.927718999999968
 20
199.67456100000001
 11
84.677718999999968
 21
199.430542
  0
LINE
  8
_0-0_0
  6
CONTINUOUS
 62
    7
 10
84.927718999999968
 20
199.48402400000001
 11
84.677718999999968
 21
199.430542
  0
LINE
  8
_0-0_0
  6
CONTINUOUS
 62
    7
 10
84.927718999999968
 20
199.878525
 11
84.677718999999968
 21
199.64999399999999
  0
LINE
  8
_0-0_0
  6
CONTINUOUS
 62
    7
 10
84.927718999999968
 20
199.67456100000001
 11
84.677718999999968
 21
199.64999399999999
  0
LINE
  8
_0-0_0
  6
CONTINUOUS
 62
    7
 10
84.927718999999968
 20
200.09367399999999
 11
84.677718999999968
 21
199.883163
  0
LINE
  8
_0-0_0
  6
CONTINUOUS
 62
    7
 10
84.927718999999968
 20
199.878525
 11
84.677718999999968
 21
199.883163
  0
LINE
  8
_0-0_0
  6
CONTINUOUS
 62
    7
 10
84.927718999999968
 20
200.317657
 11
84.677718999999968
 21
200.12745699999999
  0
LINE
  8
_0-0_0
  6
CONTINUOUS
 62
    7
 10
84.927718999999968
 20
200.09367399999999
 11
84.677718999999968
 21
200.12745699999999
  0
LINE
  8
_0-0_0
  6
CONTINUOUS
 62
    7
 10
84.927718999999968
 20
200.54801900000001
 11
84.677718999999968
 21
200.38021900000001
  0
LINE
  8
_0-0_0
  6
CONTINUOUS
 62
    7
 10
84.927718999999968
 20
200.317657
 11
84.677718999999968
 21
200.38021900000001
  0
LINE
  8
_0-0_0
  6
CONTINUOUS
 62
    7
 10
84.927718999999968
 20
200.782242
 11
84.677718999999968
 21
200.63867200000001
  0
LINE
  8
_0-0_0
  6
CONTINUOUS
 62
    7
 10
84.927718999999968
 20
200.54801900000001
 11
84.677718999999968
 21
200.63867200000001
  0
LINE
  8
_0-0_0
  6
CONTINUOUS
 62
    7
 10
84.927718999999968
 20
201.01774599999999
 11
84.677718999999968
 21
200.89999399999999
  0
LINE
  8
_0-0_0
  6
CONTINUOUS
 62
    7
 10
84.927718999999968
 20
200.782242
 11
84.677718999999968
 21
200.89999399999999
  0
LINE
  8
_0-0_0
  6
CONTINUOUS
 62
    7
 10
84.927718999999968
 20
201.25198399999999
 11
84.677718999999968
 21
201.161316
  0
LINE
  8
_0-0_0
  6
CONTINUOUS
 62
    7
 10
84.927718999999968
 20
201.01774599999999
 11
84.677718999999968
 21
201.161316
  0
LINE
  8
_0-0_0
  6
CONTINUOUS
 62
    7
 10
84.927718999999968
 20
201.48234600000001
 11
84.677718999999968
 21
201.41978499999999
  0
LINE
  8
_0-0_0
  6
CONTINUOUS
 62
    7
 10
84.927718999999968
 20
201.25198399999999
 11
84.677718999999968
 21
201.41978499999999
  0
LINE
  8
_0-0_0
  6
CONTINUOUS
 62
    7
 10
84.927718999999968
 20
201.70632900000001
 11
84.677718999999968
 21
201.67253099999999
  0
LINE
  8
_0-0_0
  6
CONTINUOUS
 62
    7
 10
84.927718999999968
 20
201.48234600000001
 11
84.677718999999968
 21
201.67253099999999
  0
LINE
  8
_0-0_0
  6
CONTINUOUS
 62
    7
 10
84.927718999999968
 20
201.92147800000001
 11
84.677718999999968
 21
201.91684000000001
  0
LINE
  8
_0-0_0
  6
CONTINUOUS
 62
    7
 10
84.927718999999968
 20
201.70632900000001
 11
84.677718999999968
 21
201.91684000000001
  0
LINE
  8
_0-0_0
  6
CONTINUOUS
 62
    7
 10
84.927718999999968
 20
202.125427
 11
84.927718999999968
 21
201.97869900000001
  0
LINE
  8
_0-0_0
  6
CONTINUOUS
 62
    7
 10
84.927718999999968
 20
202.125427
 11
84.677718999999968
 21
202.14999399999999
  0
LINE
  8
_0-0_0
  6
CONTINUOUS
 62
    7
 10
84.927718999999968
 20
201.92147800000001
 11
84.677718999999968
 21
202.14999399999999
  0
LINE
  8
_0-0_0
  6
CONTINUOUS
 62
    7
 10
84.927718999999968
 20
202.315979
 11
84.927718999999968
 21
202.125427
  0
LINE
  8
_0-0_0
  6
CONTINUOUS
 62
    7
 10
84.927718999999968
 20
202.49099699999999
 11
84.927718999999968
 21
202.315979
  0
LINE
  8
_0-0_0
  6
CONTINUOUS
 62
    7
 10
84.927718999999968
 20
202.64857499999999
 11
84.927718999999968
 21
202.49099699999999
  0
LINE
  8
_0-0_0
  6
CONTINUOUS
 62
    7
 10
84.927718999999968
 20
202.78701799999999
 11
84.927718999999968
 21
202.64857499999999
  0
LINE
  8
_0-0_0
  6
CONTINUOUS
 62
    7
 10
84.927718999999968
 20
202.90475499999999
 11
84.927718999999968
 21
202.78701799999999
  0
LINE
  8
_0-0_0
  6
CONTINUOUS
 62
    7
 10
84.927718999999968
 20
203.00054900000001
 11
84.927718999999968
 21
202.90475499999999
  0
LINE
  8
_0-0_0
  6
CONTINUOUS
 62
    7
 10
84.927718999999968
 20
203.07333399999999
 11
84.927718999999968
 21
203.00054900000001
  0
LINE
  8
_0-0_0
  6
CONTINUOUS
 62
    7
 10
84.927718999999968
 20
203.122299
 11
84.927718999999968
 21
203.07333399999999
  0
LINE
  8
_0-0_0
  6
CONTINUOUS
 62
    7
 10
84.927718999999968
 20
203.14691199999999
 11
84.927718999999968
 21
203.122299
  0
LINE
  8
_0-0_0
  6
CONTINUOUS
 62
    7
 10
84.927718999999968
 20
203.14999399999999
 11
84.927718999999968
 21
203.14691199999999
  0
LINE
  8
_0-0_0
  6
CONTINUOUS
 62
    7
 10
75.177718999999968
 20
198.65309099999999
 11
75.427718999999968
 21
198.39999399999999
  0
LINE
  8
_0-0_0
  6
CONTINUOUS
 62
    7
 10
75.427718999999968
 20
198.39999399999999
 11
84.677718999999968
 21
198.39999399999999
  0
LINE
  8
_0-0_0
  6
CONTINUOUS
 62
    7
 10
75.177718999999968
 20
198.67770400000001
 11
75.427718999999968
 21
198.41369599999999
  0
LINE
  8
_0-0_0
  6
CONTINUOUS
 62
    7
 10
75.427718999999968
 20
198.41369599999999
 11
84.677718999999968
 21
198.41369599999999
  0
LINE
  8
_0-0_0
  6
CONTINUOUS
 62
    7
 10
75.177718999999968
 20
198.65309099999999
 11
75.427718999999968
 21
198.41369599999999
  0
LINE
  8
_0-0_0
  6
CONTINUOUS
 62
    7
 10
75.177718999999968
 20
198.72666899999999
 11
75.427718999999968
 21
198.45463599999999
  0
LINE
  8
_0-0_0
  6
CONTINUOUS
 62
    7
 10
75.427718999999968
 20
198.45463599999999
 11
84.677718999999968
 21
198.45463599999999
  0
LINE
  8
_0-0_0
  6
CONTINUOUS
 62
    7
 10
75.177718999999968
 20
198.67770400000001
 11
75.427718999999968
 21
198.45463599999999
  0
LINE
  8
_0-0_0
  6
CONTINUOUS
 62
    7
 10
75.177718999999968
 20
198.79943800000001
 11
75.427718999999968
 21
198.52235400000001
  0
LINE
  8
_0-0_0
  6
CONTINUOUS
 62
    7
 10
75.427718999999968
 20
198.52235400000001
 11
84.677718999999968
 21
198.52235400000001
  0
LINE
  8
_0-0_0
  6
CONTINUOUS
 62
    7
 10
75.177718999999968
 20
198.72666899999999
 11
75.427718999999968
 21
198.52235400000001
  0
LINE
  8
_0-0_0
  6
CONTINUOUS
 62
    7
 10
75.177718999999968
 20
198.89523299999999
 11
75.427718999999968
 21
198.61613500000001
  0
LINE
  8
_0-0_0
  6
CONTINUOUS
 62
    7
 10
75.427718999999968
 20
198.61613500000001
 11
84.677718999999968
 21
198.61613500000001
  0
LINE
  8
_0-0_0
  6
CONTINUOUS
 62
    7
 10
75.177718999999968
 20
198.79943800000001
 11
75.427718999999968
 21
198.61613500000001
  0
LINE
  8
_0-0_0
  6
CONTINUOUS
 62
    7
 10
75.427718999999968
 20
198.73493999999999
 11
84.677718999999968
 21
198.73493999999999
  0
LINE
  8
_0-0_0
  6
CONTINUOUS
 62
    7
 10
75.307677999999981
 20
198.811386
 11
75.427718999999968
 21
198.73493999999999
  0
LINE
  8
_0-0_0
  6
CONTINUOUS
 62
    7
 10
75.177718999999968
 20
198.89523299999999
 11
75.307677999999981
 21
198.811386
  0
LINE
  8
_0-0_0
  6
CONTINUOUS
 62
    7
 10
75.177718999999968
 20
199.01300000000001
 11
75.427718999999968
 21
198.73493999999999
  0
LINE
  8
_0-0_0
  6
CONTINUOUS
 62
    7
 10
75.177718999999968
 20
199.15141299999999
 11
75.427718999999968
 21
198.87745699999999
  0
LINE
  8
_0-0_0
  6
CONTINUOUS
 62
    7
 10
75.427718999999968
 20
198.87745699999999
 11
84.677718999999968
 21
198.87745699999999
  0
LINE
  8
_0-0_0
  6
CONTINUOUS
 62
    7
 10
75.177718999999968
 20
199.01300000000001
 11
75.427718999999968
 21
198.87745699999999
  0
LINE
  8
_0-0_0
  6
CONTINUOUS
 62
    7
 10
75.177718999999968
 20
199.309021
 11
75.427718999999968
 21
199.042145
  0
LINE
  8
_0-0_0
  6
CONTINUOUS
 62
    7
 10
75.427718999999968
 20
199.042145
 11
84.677718999999968
 21
199.042145
  0
LINE
  8
_0-0_0
  6
CONTINUOUS
 62
    7
 10
75.177718999999968
 20
199.15141299999999
 11
75.427718999999968
 21
199.042145
  0
LINE
  8
_0-0_0
  6
CONTINUOUS
 62
    7
 10
75.177718999999968
 20
199.48402400000001
 11
75.427718999999968
 21
199.22717299999999
  0
LINE
  8
_0-0_0
  6
CONTINUOUS
 62
    7
 10
75.427718999999968
 20
199.22717299999999
 11
84.677718999999968
 21
199.22717299999999
  0
LINE
  8
_0-0_0
  6
CONTINUOUS
 62
    7
 10
75.177718999999968
 20
199.309021
 11
75.427718999999968
 21
199.22717299999999
  0
LINE
  8
_0-0_0
  6
CONTINUOUS
 62
    7
 10
75.177718999999968
 20
199.67456100000001
 11
75.427718999999968
 21
199.430542
  0
LINE
  8
_0-0_0
  6
CONTINUOUS
 62
    7
 10
75.427718999999968
 20
199.430542
 11
84.677718999999968
 21
199.430542
  0
LINE
  8
_0-0_0
  6
CONTINUOUS
 62
    7
 10
75.177718999999968
 20
199.48402400000001
 11
75.427718999999968
 21
199.430542
  0
LINE
  8
_0-0_0
  6
CONTINUOUS
 62
    7
 10
75.177718999999968
 20
199.878525
 11
75.427718999999968
 21
199.64999399999999
  0
LINE
  8
_0-0_0
  6
CONTINUOUS
 62
    7
 10
75.427718999999968
 20
199.64999399999999
 11
84.677718999999968
 21
199.64999399999999
  0
LINE
  8
_0-0_0
  6
CONTINUOUS
 62
    7
 10
75.177718999999968
 20
199.878525
 11
84.927718999999968
 21
199.878525
  0
LINE
  8
_0-0_0
  6
CONTINUOUS
 62
    7
 10
75.177718999999968
 20
199.67456100000001
 11
75.427718999999968
 21
199.64999399999999
  0
LINE
  8
_0-0_0
  6
CONTINUOUS
 62
    7
 10
75.177718999999968
 20
200.09367399999999
 11
75.427718999999968
 21
199.883163
  0
LINE
  8
_0-0_0
  6
CONTINUOUS
 62
    7
 10
75.427718999999968
 20
199.883163
 11
84.677718999999968
 21
199.883163
  0
LINE
  8
_0-0_0
  6
CONTINUOUS
 62
    7
 10
75.177718999999968
 20
200.09367399999999
 11
84.927718999999968
 21
200.09367399999999
  0
LINE
  8
_0-0_0
  6
CONTINUOUS
 62
    7
 10
75.177718999999968
 20
199.878525
 11
75.427718999999968
 21
199.883163
  0
LINE
  8
_0-0_0
  6
CONTINUOUS
 62
    7
 10
75.177718999999968
 20
200.317657
 11
75.427718999999968
 21
200.12745699999999
  0
LINE
  8
_0-0_0
  6
CONTINUOUS
 62
    7
 10
75.427718999999968
 20
200.12745699999999
 11
84.677718999999968
 21
200.12745699999999
  0
LINE
  8
_0-0_0
  6
CONTINUOUS
 62
    7
 10
75.177718999999968
 20
200.317657
 11
84.927718999999968
 21
200.317657
  0
LINE
  8
_0-0_0
  6
CONTINUOUS
 62
    7
 10
75.177718999999968
 20
200.09367399999999
 11
75.427718999999968
 21
200.12745699999999
  0
LINE
  8
_0-0_0
  6
CONTINUOUS
 62
    7
 10
75.177718999999968
 20
200.54801900000001
 11
75.427718999999968
 21
200.38021900000001
  0
LINE
  8
_0-0_0
  6
CONTINUOUS
 62
    7
 10
75.427718999999968
 20
200.38021900000001
 11
84.677718999999968
 21
200.38021900000001
  0
LINE
  8
_0-0_0
  6
CONTINUOUS
 62
    7
 10
75.177718999999968
 20
200.54801900000001
 11
84.927718999999968
 21
200.54801900000001
  0
LINE
  8
_0-0_0
  6
CONTINUOUS
 62
    7
 10
75.177718999999968
 20
200.317657
 11
75.427718999999968
 21
200.38021900000001
  0
LINE
  8
_0-0_0
  6
CONTINUOUS
 62
    7
 10
75.177718999999968
 20
200.782242
 11
75.427718999999968
 21
200.63867200000001
  0
LINE
  8
_0-0_0
  6
CONTINUOUS
 62
    7
 10
75.427718999999968
 20
200.63867200000001
 11
84.677718999999968
 21
200.63867200000001
  0
LINE
  8
_0-0_0
  6
CONTINUOUS
 62
    7
 10
75.177718999999968
 20
200.782242
 11
84.927718999999968
 21
200.782242
  0
LINE
  8
_0-0_0
  6
CONTINUOUS
 62
    7
 10
75.177718999999968
 20
200.54801900000001
 11
75.427718999999968
 21
200.63867200000001
  0
LINE
  8
_0-0_0
  6
CONTINUOUS
 62
    7
 10
75.177718999999968
 20
201.01774599999999
 11
75.427718999999968
 21
200.89999399999999
  0
LINE
  8
_0-0_0
  6
CONTINUOUS
 62
    7
 10
75.427718999999968
 20
200.89999399999999
 11
84.677718999999968
 21
200.89999399999999
  0
LINE
  8
_0-0_0
  6
CONTINUOUS
 62
    7
 10
75.177718999999968
 20
201.01774599999999
 11
84.927718999999968
 21
201.01774599999999
  0
LINE
  8
_0-0_0
  6
CONTINUOUS
 62
    7
 10
75.177718999999968
 20
200.782242
 11
75.427718999999968
 21
200.89999399999999
  0
LINE
  8
_0-0_0
  6
CONTINUOUS
 62
    7
 10
75.177718999999968
 20
201.25198399999999
 11
75.427718999999968
 21
201.161316
  0
LINE
  8
_0-0_0
  6
CONTINUOUS
 62
    7
 10
75.427718999999968
 20
201.161316
 11
84.677718999999968
 21
201.161316
  0
LINE
  8
_0-0_0
  6
CONTINUOUS
 62
    7
 10
75.177718999999968
 20
201.25198399999999
 11
84.927718999999968
 21
201.25198399999999
  0
LINE
  8
_0-0_0
  6
CONTINUOUS
 62
    7
 10
75.177718999999968
 20
201.01774599999999
 11
75.427718999999968
 21
201.161316
  0
LINE
  8
_0-0_0
  6
CONTINUOUS
 62
    7
 10
75.177718999999968
 20
201.48234600000001
 11
75.427718999999968
 21
201.41978499999999
  0
LINE
  8
_0-0_0
  6
CONTINUOUS
 62
    7
 10
75.427718999999968
 20
201.41978499999999
 11
84.677718999999968
 21
201.41978499999999
  0
LINE
  8
_0-0_0
  6
CONTINUOUS
 62
    7
 10
75.177718999999968
 20
201.48234600000001
 11
84.927718999999968
 21
201.48234600000001
  0
LINE
  8
_0-0_0
  6
CONTINUOUS
 62
    7
 10
75.177718999999968
 20
201.25198399999999
 11
75.427718999999968
 21
201.41978499999999
  0
LINE
  8
_0-0_0
  6
CONTINUOUS
 62
    7
 10
75.177718999999968
 20
201.70632900000001
 11
75.427718999999968
 21
201.67253099999999
  0
LINE
  8
_0-0_0
  6
CONTINUOUS
 62
    7
 10
75.427718999999968
 20
201.67253099999999
 11
84.677718999999968
 21
201.67253099999999
  0
LINE
  8
_0-0_0
  6
CONTINUOUS
 62
    7
 10
75.177718999999968
 20
201.70632900000001
 11
84.927718999999968
 21
201.70632900000001
  0
LINE
  8
_0-0_0
  6
CONTINUOUS
 62
    7
 10
75.177718999999968
 20
201.48234600000001
 11
75.427718999999968
 21
201.67253099999999
  0
LINE
  8
_0-0_0
  6
CONTINUOUS
 62
    7
 10
75.177718999999968
 20
201.92147800000001
 11
75.427718999999968
 21
201.91684000000001
  0
LINE
  8
_0-0_0
  6
CONTINUOUS
 62
    7
 10
75.427718999999968
 20
201.91684000000001
 11
84.677718999999968
 21
201.91684000000001
  0
LINE
  8
_0-0_0
  6
CONTINUOUS
 62
    7
 10
75.177718999999968
 20
201.92147800000001
 11
84.927718999999968
 21
201.92147800000001
  0
LINE
  8
_0-0_0
  6
CONTINUOUS
 62
    7
 10
75.177718999999968
 20
201.70632900000001
 11
75.427718999999968
 21
201.91684000000001
  0
LINE
  8
_0-0_0
  6
CONTINUOUS
 62
    7
 10
75.177718999999968
 20
202.125427
 11
75.427718999999968
 21
202.14999399999999
  0
LINE
  8
_0-0_0
  6
CONTINUOUS
 62
    7
 10
75.427718999999968
 20
202.14999399999999
 11
84.677718999999968
 21
202.14999399999999
  0
LINE
  8
_0-0_0
  6
CONTINUOUS
 62
    7
 10
75.177718999999968
 20
201.92147800000001
 11
75.427718999999968
 21
202.14999399999999
  0
LINE
  8
_0-0_0
  6
CONTINUOUS
 62
    7
 10
84.927718999999968
 20
202.315979
 11
84.677718999999968
 21
202.369461
  0
LINE
  8
_0-0_0
  6
CONTINUOUS
 62
    7
 10
84.927718999999968
 20
202.125427
 11
84.677718999999968
 21
202.369461
  0
LINE
  8
_0-0_0
  6
CONTINUOUS
 62
    7
 10
84.927718999999968
 20
202.49099699999999
 11
84.677718999999968
 21
202.57283000000001
  0
LINE
  8
_0-0_0
  6
CONTINUOUS
 62
    7
 10
84.927718999999968
 20
202.315979
 11
84.677718999999968
 21
202.57283000000001
  0
LINE
  8
_0-0_0
  6
CONTINUOUS
 62
    7
 10
84.927718999999968
 20
202.64857499999999
 11
84.677718999999968
 21
202.757858
  0
LINE
  8
_0-0_0
  6
CONTINUOUS
 62
    7
 10
84.927718999999968
 20
202.49099699999999
 11
84.677718999999968
 21
202.757858
  0
LINE
  8
_0-0_0
  6
CONTINUOUS
 62
    7
 10
84.927718999999968
 20
202.78701799999999
 11
84.677718999999968
 21
202.92253099999999
  0
LINE
  8
_0-0_0
  6
CONTINUOUS
 62
    7
 10
84.927718999999968
 20
202.64857499999999
 11
84.677718999999968
 21
202.92253099999999
  0
LINE
  8
_0-0_0
  6
CONTINUOUS
 62
    7
 10
84.927718999999968
 20
202.90475499999999
 11
84.677718999999968
 21
203.06506300000001
  0
LINE
  8
_0-0_0
  6
CONTINUOUS
 62
    7
 10
84.927718999999968
 20
202.78701799999999
 11
84.677718999999968
 21
203.06506300000001
  0
LINE
  8
_0-0_0
  6
CONTINUOUS
 62
    7
 10
84.927718999999968
 20
203.00054900000001
 11
84.677718999999968
 21
203.18386799999999
  0
LINE
  8
_0-0_0
  6
CONTINUOUS
 62
    7
 10
84.927718999999968
 20
202.90475499999999
 11
84.677718999999968
 21
203.18386799999999
  0
LINE
  8
_0-0_0
  6
CONTINUOUS
 62
    7
 10
84.927718999999968
 20
203.07333399999999
 11
84.677718999999968
 21
203.277649
  0
LINE
  8
_0-0_0
  6
CONTINUOUS
 62
    7
 10
84.927718999999968
 20
203.00054900000001
 11
84.677718999999968
 21
203.277649
  0
LINE
  8
_0-0_0
  6
CONTINUOUS
 62
    7
 10
84.927718999999968
 20
203.122299
 11
84.677718999999968
 21
203.34536700000001
  0
LINE
  8
_0-0_0
  6
CONTINUOUS
 62
    7
 10
84.927718999999968
 20
203.07333399999999
 11
84.677718999999968
 21
203.34536700000001
  0
LINE
  8
_0-0_0
  6
CONTINUOUS
 62
    7
 10
84.927718999999968
 20
203.14691199999999
 11
84.677718999999968
 21
203.38630699999999
  0
LINE
  8
_0-0_0
  6
CONTINUOUS
 62
    7
 10
84.927718999999968
 20
203.122299
 11
84.677718999999968
 21
203.38630699999999
  0
LINE
  8
_0-0_0
  6
CONTINUOUS
 62
    7
 10
84.927718999999968
 20
203.14691199999999
 11
84.677718999999968
 21
203.39999399999999
  0
LINE
  8
_0-0_0
  6
CONTINUOUS
 62
    7
 10
74.927718999999968
 20
199.144836
 11
74.927718999999968
 21
198.89999399999999
  0
LINE
  8
_0-0_0
  6
CONTINUOUS
 62
    7
 10
75.177718999999968
 20
202.125427
 11
75.427718999999968
 21
202.369461
  0
LINE
  8
_0-0_0
  6
CONTINUOUS
 62
    7
 10
75.177718999999968
 20
202.315979
 11
75.427718999999968
 21
202.369461
  0
LINE
  8
_0-0_0
  6
CONTINUOUS
 62
    7
 10
75.177718999999968
 20
202.315979
 11
75.427718999999968
 21
202.57283000000001
  0
LINE
  8
_0-0_0
  6
CONTINUOUS
 62
    7
 10
75.177718999999968
 20
202.49099699999999
 11
75.427718999999968
 21
202.57283000000001
  0
LINE
  8
_0-0_0
  6
CONTINUOUS
 62
    7
 10
75.177718999999968
 20
202.49099699999999
 11
75.427718999999968
 21
202.757858
  0
LINE
  8
_0-0_0
  6
CONTINUOUS
 62
    7
 10
75.177718999999968
 20
202.64857499999999
 11
75.427718999999968
 21
202.757858
  0
LINE
  8
_0-0_0
  6
CONTINUOUS
 62
    7
 10
75.177718999999968
 20
202.64857499999999
 11
75.427718999999968
 21
202.92253099999999
  0
LINE
  8
_0-0_0
  6
CONTINUOUS
 62
    7
 10
75.177718999999968
 20
202.78701799999999
 11
75.427718999999968
 21
202.92253099999999
  0
LINE
  8
_0-0_0
  6
CONTINUOUS
 62
    7
 10
75.177718999999968
 20
202.78701799999999
 11
75.427718999999968
 21
203.06506300000001
  0
LINE
  8
_0-0_0
  6
CONTINUOUS
 62
    7
 10
75.177718999999968
 20
202.90475499999999
 11
75.427718999999968
 21
203.06506300000001
  0
LINE
  8
_0-0_0
  6
CONTINUOUS
 62
    7
 10
75.177718999999968
 20
202.90475499999999
 11
75.427718999999968
 21
203.18386799999999
  0
LINE
  8
_0-0_0
  6
CONTINUOUS
 62
    7
 10
75.177718999999968
 20
203.00054900000001
 11
75.427718999999968
 21
203.18386799999999
  0
LINE
  8
_0-0_0
  6
CONTINUOUS
 62
    7
 10
75.177718999999968
 20
203.00054900000001
 11
75.427718999999968
 21
203.277649
  0
LINE
  8
_0-0_0
  6
CONTINUOUS
 62
    7
 10
75.177718999999968
 20
203.07333399999999
 11
75.427718999999968
 21
203.277649
  0
LINE
  8
_0-0_0
  6
CONTINUOUS
 62
    7
 10
75.177718999999968
 20
203.07333399999999
 11
75.427718999999968
 21
203.34536700000001
  0
LINE
  8
_0-0_0
  6
CONTINUOUS
 62
    7
 10
75.177718999999968
 20
203.122299
 11
75.427718999999968
 21
203.34536700000001
  0
LINE
  8
_0-0_0
  6
CONTINUOUS
 62
    7
 10
75.177718999999968
 20
203.122299
 11
75.427718999999968
 21
203.38630699999999
  0
LINE
  8
_0-0_0
  6
CONTINUOUS
 62
    7
 10
75.177718999999968
 20
203.14691199999999
 11
75.427718999999968
 21
203.38630699999999
  0
LINE
  8
_0-0_0
  6
CONTINUOUS
 62
    7
 10
75.177718999999968
 20
203.14691199999999
 11
75.427718999999968
 21
203.39999399999999
  0
LINE
  8
_0-0_0
  6
CONTINUOUS
 62
    7
 10
74.927718999999968
 20
202.89999399999999
 11
74.927718999999968
 21
199.144836
  0
LINE
  8
_0-0_0
  6
CONTINUOUS
 62
    7
 10
75.427718999999968
 20
202.369461
 11
84.677718999999968
 21
202.369461
  0
LINE
  8
_0-0_0
  6
CONTINUOUS
 62
    7
 10
75.427718999999968
 20
202.57283000000001
 11
84.677718999999968
 21
202.57283000000001
  0
LINE
  8
_0-0_0
  6
CONTINUOUS
 62
    7
 10
75.427718999999968
 20
202.757858
 11
84.677718999999968
 21
202.757858
  0
LINE
  8
_0-0_0
  6
CONTINUOUS
 62
    7
 10
75.427718999999968
 20
202.92253099999999
 11
84.677718999999968
 21
202.92253099999999
  0
LINE
  8
_0-0_0
  6
CONTINUOUS
 62
    7
 10
75.427718999999968
 20
203.06506300000001
 11
84.677718999999968
 21
203.06506300000001
  0
LINE
  8
_0-0_0
  6
CONTINUOUS
 62
    7
 10
75.427718999999968
 20
203.18386799999999
 11
84.677718999999968
 21
203.18386799999999
  0
LINE
  8
_0-0_0
  6
CONTINUOUS
 62
    7
 10
75.427718999999968
 20
203.277649
 11
84.677718999999968
 21
203.277649
  0
LINE
  8
_0-0_0
  6
CONTINUOUS
 62
    7
 10
75.427718999999968
 20
203.34536700000001
 11
84.677718999999968
 21
203.34536700000001
  0
LINE
  8
_0-0_0
  6
CONTINUOUS
 62
    7
 10
75.427718999999968
 20
203.38630699999999
 11
84.677718999999968
 21
203.38630699999999
  0
LINE
  8
_0-0_0
  6
CONTINUOUS
 62
    7
 10
75.427718999999968
 20
203.39999399999999
 11
84.677718999999968
 21
203.39999399999999
  0
LINE
  8
_0-0_0
  6
CONTINUOUS
 62
    7
 10
110.92771899999997
 20
219.75
 11
84.927718999999968
 21
219.75
  0
LINE
  8
_0-0_0
  6
CONTINUOUS
 62
    7
 10
110.92771899999997
 20
215.25
 11
84.927718999999968
 21
215.25
  0
LINE
  8
_0-0_0
  6
CONTINUOUS
 62
    7
 10
211.92773399999999
 20
203.14999399999999
 11
214.38339199999996
 21
203.14999399999999
  0
LINE
  8
_0-0_0
  6
CONTINUOUS
 62
    7
 10
213.88232399999998
 20
198.64999399999999
 11
214.38339199999996
 21
198.64999399999999
  0
LINE
  8
_0-0_0
  6
CONTINUOUS
 62
    7
 10
84.927718999999968
 20
219.75
 11
84.677718999999968
 21
220
  0
LINE
  8
_0-0_0
  6
CONTINUOUS
 62
    7
 10
84.927718999999968
 20
215.25
 11
84.677718999999968
 21
215
  0
LINE
  8
_0-0_0
  6
CONTINUOUS
 62
    7
 10
214.52773999999999
 20
202.89999399999999
 11
214.38339199999996
 21
203.14999399999999
  0
LINE
  8
_0-0_0
  6
CONTINUOUS
 62
    7
 10
214.52773999999999
 20
198.89999399999999
 11
214.38339199999996
 21
198.64999399999999
  0
LINE
  8
_0-0_0
  6
CONTINUOUS
 62
    7
 10
88.927718999999968
 20
203.949997
 11
90.177718999999968
 21
202.699997
  0
LINE
  8
_0-0_0
  6
CONTINUOUS
 62
    7
 10
88.927718999999968
 20
214.449997
 11
89.727706999999981
 21
215.25
  0
LINE
  8
_0-0_0
  6
CONTINUOUS
 62
    7
 10
74.927718999999968
 20
219.5
 11
75.427565999999985
 21
219.99984699999999
  0
LINE
  8
_0-0_0
  6
CONTINUOUS
 62
    7
 10
74.927718999999968
 20
215.5
 11
75.427565999999985
 21
215.00015300000001
  0
LINE
  8
_0-0_0
  6
CONTINUOUS
 62
    7
 10
88.927718999999968
 20
214.199997
 11
88.527709999999985
 21
214.199997
  0
LINE
  8
_0-0_0
  6
CONTINUOUS
 62
    7
 10
88.927718999999968
 20
204.199997
 11
88.527709999999985
 21
204.199997
  0
LINE
  8
_0-0_0
  6
CONTINUOUS
 62
    7
 10
87.727706999999981
 20
213.73812899999999
 11
88.527709999999985
 21
214.199997
  0
LINE
  8
_0-0_0
  6
CONTINUOUS
 62
    7
 10
87.727706999999981
 20
204.66188
 11
88.527709999999985
 21
204.199997
  0
LINE
  8
_0-0_0
  6
CONTINUOUS
 62
    7
 10
87.727706999999981
 20
213.199997
 11
29.727721999999972
 21
213.199997
  0
LINE
  8
_0-0_0
  6
CONTINUOUS
 62
    7
 10
87.727706999999981
 20
205.199997
 11
29.727721999999972
 21
205.199997
  0
LINE
  8
_0-0_0
  6
CONTINUOUS
 62
    7
 10
105.17768799999999
 20
198.64999399999999
 11
84.927718999999968
 21
198.64999399999999
  0
LINE
  8
_0-0_0
  6
CONTINUOUS
 62
    7
 10
84.927718999999968
 20
198.64999399999999
 11
84.677718999999968
 21
198.39999399999999
  0
LINE
  8
_0-0_0
  6
CONTINUOUS
 62
    7
 10
89.727706999999981
 20
203.14999399999999
 11
84.927718999999968
 21
203.14999399999999
  0
LINE
  8
_0-0_0
  6
CONTINUOUS
 62
    7
 10
74.927718999999968
 20
198.89999399999999
 11
75.427565999999985
 21
198.40014600000001
  0
LINE
  8
_0-0_0
  6
CONTINUOUS
 62
    7
 10
74.927718999999968
 20
202.89999399999999
 11
75.427565999999985
 21
203.39984100000001
  0
LINE
  8
_0-0_0
  6
CONTINUOUS
 62
    7
 10
1.4167169999999771
 20
251.39999399999999
 11
1.4167169999999771
 21
238.39999399999999
  0
LINE
  8
_0-0_0
  6
CONTINUOUS
 62
    7
 10
1.6167139999999733
 20
251.39999399999999
 11
1.4167169999999771
 21
251.39999399999999
  0
LINE
  8
_0-0_0
  6
CONTINUOUS
 62
    7
 10
1.6167139999999733
 20
238.39999399999999
 11
1.4167169999999771
 21
238.39999399999999
  0
LINE
  8
_0-0_0
  6
CONTINUOUS
 62
    7
 10
1.6167139999999733
 20
251.39999399999999
 11
1.6167139999999733
 21
270
  0
LINE
  8
_0-0_0
  6
CONTINUOUS
 62
    7
 10
1.7167199999999809
 20
270
 11
1.6167139999999733
 21
270
  0
LINE
  8
_0-0_0
  6
CONTINUOUS
 62
    7
 10
1.7167199999999809
 20
272.5
 11
1.7167199999999809
 21
270
  0
ARC
  8
_0-0_0
  6
CONTINUOUS
 62
    7
 10
1.2167199999999809
 20
272.5
 40
0.5
 50
0
 51
90.000003000000007
  0
LINE
  8
_0-0_0
  6
CONTINUOUS
 62
    7
 10
1.2167199999999809
 20
273
 11
-1.7832800000000191
 21
273
  0
ARC
  8
_0-0_0
  6
CONTINUOUS
 62
    7
 10
-1.7832800000000191
 20
272.5
 40
0.5
 50
90.000003000000007
 51
179.99999099999999
  0
ARC
  8
_0-0_0
  6
CONTINUOUS
 62
    7
 10
-6.2832830000000115
 20
225
 40
0.5
 50
179.99999099999999
 51
269.99999700000001
  0
LINE
  8
_0-0_0
  6
CONTINUOUS
 62
    7
 10
-3.7832830000000115
 20
224.5
 11
-6.2832830000000115
 21
224.5
  0
ARC
  8
_0-0_0
  6
CONTINUOUS
 62
    7
 10
-3.7832830000000115
 20
225
 40
0.5
 50
269.99999700000001
 51
0
  0
LINE
  8
_0-0_0
  6
CONTINUOUS
 62
    7
 10
-3.2832830000000115
 20
230
 11
-3.2832830000000115
 21
225
  0
ARC
  8
_0-0_0
  6
CONTINUOUS
 62
    7
 10
-2.7832800000000191
 20
230
 40
0.5
 50
90.000003000000007
 51
179.99999099999999
  0
LINE
  8
_0-0_0
  6
CONTINUOUS
 62
    7
 10
1.2167199999999809
 20
230.5
 11
-2.7832800000000191
 21
230.5
  0
ARC
  8
_0-0_0
  6
CONTINUOUS
 62
    7
 10
1.2167199999999809
 20
231
 40
0.5
 50
269.99999700000001
 51
0
  0
LINE
  8
_0-0_0
  6
CONTINUOUS
 62
    7
 10
1.7167199999999809
 20
234.199997
 11
1.7167199999999809
 21
231
  0
LINE
  8
_0-0_0
  6
CONTINUOUS
 62
    7
 10
1.6167139999999733
 20
234.199997
 11
1.7167199999999809
 21
234.199997
  0
LINE
  8
_0-0_0
  6
CONTINUOUS
 62
    7
 10
1.6167139999999733
 20
234.199997
 11
1.6167139999999733
 21
238.39999399999999
  0
LINE
  8
_0-0_0
  6
CONTINUOUS
 62
    7
 10
0.7167199999999809
 20
272.5
 11
-17.083283000000023
 21
272.5
  0
ARC
  8
_0-0_0
  6
CONTINUOUS
 62
    7
 10
0.7167199999999809
 20
272
 40
0.5
 50
0
 51
90.000003000000007
  0
LINE
  8
_0-0_0
  6
CONTINUOUS
 62
    7
 10
1.2167199999999809
 20
272
 11
1.2167199999999809
 21
231.5
  0
ARC
  8
_0-0_0
  6
CONTINUOUS
 62
    7
 10
0.7167199999999809
 20
231.5
 40
0.5
 50
269.99999700000001
 51
0
  0
LINE
  8
_0-0_0
  6
CONTINUOUS
 62
    7
 10
-2.7832800000000191
 20
231
 11
0.7167199999999809
 21
231
  0
ARC
  8
_0-0_0
  6
CONTINUOUS
 62
    7
 10
-2.7832800000000191
 20
230
 40
1
 50
90.000003000000007
 51
179.99999099999999
  0
LINE
  8
_0-0_0
  6
CONTINUOUS
 62
    7
 10
-3.7832830000000115
 20
230
 11
-3.7832830000000115
 21
225.5
  0
ARC
  8
_0-0_0
  6
CONTINUOUS
 62
    7
 10
-4.2832830000000115
 20
225.5
 40
0.5
 50
269.99999700000001
 51
0
  0
LINE
  8
_0-0_0
  6
CONTINUOUS
 62
    7
 10
-21.283283000000011
 20
225
 11
-4.2832830000000115
 21
225
  0
LINE
  8
_0-0_0
  6
CONTINUOUS
 62
    7
 10
-2.7832800000000191
 20
272.699997
 11
-2.7832800000000191
 21
272.5
  0
ARC
  8
_0-0_0
  6
CONTINUOUS
 62
    7
 10
-3.0832830000000229
 20
272.699997
 40
0.2999999999999999
 50
0
 51
90.000003000000007
  0
LINE
  8
_0-0_0
  6
CONTINUOUS
 62
    7
 10
-3.0832830000000229
 20
273
 11
-17.783283000000011
 21
273
  0
ARC
  8
_0-0_0
  6
CONTINUOUS
 62
    7
 10
-17.783283000000011
 20
272.699997
 40
0.2999999999999999
 50
90.000003000000007
 51
179.99999099999999
  0
LINE
  8
_0-0_0
  6
CONTINUOUS
 62
    7
 10
-18.083283000000023
 20
272.699997
 11
-18.083283000000023
 21
269.5
  0
LINE
  8
_0-0_0
  6
CONTINUOUS
 62
    7
 10
-18.083283000000023
 20
269.5
 11
-23.783283000000011
 21
269.5
  0
LINE
  8
_0-0_0
  6
CONTINUOUS
 62
    7
 10
-23.783283000000011
 20
269.5
 11
-24.583283000000023
 21
268.699997
  0
ARC
  8
_0-0_0
  6
CONTINUOUS
 62
    7
 10
-17.083283000000023
 20
272
 40
0.5
 50
90.000003000000007
 51
179.99999099999999
  0
LINE
  8
_0-0_0
  6
CONTINUOUS
 62
    7
 10
-17.583283000000023
 20
272
 11
-17.583283000000023
 21
269.199997
  0
ARC
  8
_0-0_0
  6
CONTINUOUS
 62
    7
 10
-18.083283000000023
 20
269.199997
 40
0.5
 50
269.99999700000001
 51
0
  0
LINE
  8
_0-0_0
  6
CONTINUOUS
 62
    7
 10
-18.083283000000023
 20
268.699997
 11
-26.283283000000011
 21
268.699997
  0
ARC
  8
_0-0_0
  6
CONTINUOUS
 62
    7
 10
-26.283283000000011
 20
268.199997
 40
0.5
 50
90.000003000000007
 51
179.99999099999999
  0
LINE
  8
_0-0_0
  6
CONTINUOUS
 62
    7
 10
-26.783283000000011
 20
231.5
 11
-26.783283000000011
 21
268.199997
  0
ARC
  8
_0-0_0
  6
CONTINUOUS
 62
    7
 10
-26.283283000000011
 20
231.5
 40
0.5
 50
179.99999099999999
 51
269.99999700000001
  0
LINE
  8
_0-0_0
  6
CONTINUOUS
 62
    7
 10
-26.283283000000011
 20
231
 11
-22.783283000000011
 21
231
  0
ARC
  8
_0-0_0
  6
CONTINUOUS
 62
    7
 10
-22.783283000000011
 20
230
 40
1
 50
0
 51
90.000003000000007
  0
LINE
  8
_0-0_0
  6
CONTINUOUS
 62
    7
 10
-21.783283000000011
 20
225.5
 11
-21.783283000000011
 21
230
  0
ARC
  8
_0-0_0
  6
CONTINUOUS
 62
    7
 10
-21.283283000000011
 20
225.5
 40
0.5
 50
179.99999099999999
 51
269.99999700000001
  0
CIRCLE
  8
_0-0_0
  6
CONTINUOUS
 62
    7
 10
-12.783283000000011
 20
234
 40
2.0670000000000002
  0
LINE
  8
_0-0_0
  6
CONTINUOUS
 62
    7
 10
-24.783283000000011
 20
269
 11
-24.783283000000011
 21
268.699997
  0
LINE
  8
_0-0_0
  6
CONTINUOUS
 62
    7
 10
-24.783283000000011
 20
269
 11
-26.783283000000011
 21
269
  0
ARC
  8
_0-0_0
  6
CONTINUOUS
 62
    7
 10
-26.783283000000011
 20
268.5
 40
0.5
 50
90.000003000000007
 51
179.99999099999999
  0
LINE
  8
_0-0_0
  6
CONTINUOUS
 62
    7
 10
-27.283283000000011
 20
268.5
 11
-27.283283000000011
 21
231
  0
ARC
  8
_0-0_0
  6
CONTINUOUS
 62
    7
 10
-26.783283000000011
 20
231
 40
0.5
 50
179.99999099999999
 51
269.99999700000001
  0
LINE
  8
_0-0_0
  6
CONTINUOUS
 62
    7
 10
-22.783283000000011
 20
230.5
 11
-26.783283000000011
 21
230.5
  0
ARC
  8
_0-0_0
  6
CONTINUOUS
 62
    7
 10
-22.783283000000011
 20
230
 40
0.5
 50
0
 51
90.000003000000007
  0
LINE
  8
_0-0_0
  6
CONTINUOUS
 62
    7
 10
-22.283283000000011
 20
225
 11
-22.283283000000011
 21
230
  0
ARC
  8
_0-0_0
  6
CONTINUOUS
 62
    7
 10
-21.783283000000011
 20
225
 40
0.5
 50
179.99999099999999
 51
269.99999700000001
  0
LINE
  8
_0-0_0
  6
CONTINUOUS
 62
    7
 10
-21.783283000000011
 20
224.5
 11
-19.283283000000011
 21
224.5
  0
ARC
  8
_0-0_0
  6
CONTINUOUS
 62
    7
 10
-19.283283000000011
 20
225
 40
0.5
 50
269.99999700000001
 51
0
  0
LINE
  8
_0-0_0
  6
CONTINUOUS
 62
    7
 10
-3.2832830000000115
 20
225
 11
-3.1832850000000121
 21
225
  0
LINE
  8
_0-0_0
  6
CONTINUOUS
 62
    7
 10
-3.1832850000000121
 20
225
 11
-3.1832850000000121
 21
225.5
  0
LINE
  8
_0-0_0
  6
CONTINUOUS
 62
    7
 10
-3.1832850000000121
 20
229.5
 11
-3.1832850000000121
 21
225.5
  0
LINE
  8
_0-0_0
  6
CONTINUOUS
 62
    7
 10
-3.2832830000000115
 20
230
 11
-3.1832850000000121
 21
230
  0
LINE
  8
_0-0_0
  6
CONTINUOUS
 62
    7
 10
-3.1832850000000121
 20
229.5
 11
-3.1832850000000121
 21
230
  0
LINE
  8
_0-0_0
  6
CONTINUOUS
 62
    7
 10
-3.0832830000000229
 20
225.5
 11
-3.0832830000000229
 21
225.630371
  0
LINE
  8
_0-0_0
  6
CONTINUOUS
 62
    7
 10
-3.0832830000000229
 20
229.130371
 11
-3.0832830000000229
 21
225.630371
  0
LINE
  8
_0-0_0
  6
CONTINUOUS
 62
    7
 10
-3.1832850000000121
 20
229.39999399999999
 11
-3.0832830000000229
 21
229.39999399999999
  0
LINE
  8
_0-0_0
  6
CONTINUOUS
 62
    7
 10
-3.0832830000000229
 20
229.130371
 11
-3.0832830000000229
 21
229.39999399999999
  0
LINE
  8
_0-0_0
  6
CONTINUOUS
 62
    7
 10
-3.1832850000000121
 20
225.5
 11
-3.0832830000000229
 21
225.5
  0
LINE
  8
_0-0_0
  6
CONTINUOUS
 62
    7
 10
-3.1832850000000121
 20
225.5
 11
-3.0832830000000229
 21
225.5
  0
LINE
  8
_0-0_0
  6
CONTINUOUS
 62
    7
 10
-21.583283000000023
 20
222.5
 11
-17.383282000000008
 21
222.5
  0
LINE
  8
_0-0_0
  6
CONTINUOUS
 62
    7
 10
-5.7832830000000115
 20
222.5
 11
-8.1832850000000121
 21
222.5
  0
LINE
  8
_0-0_0
  6
CONTINUOUS
 62
    7
 10
-5.7832830000000115
 20
222.5
 11
-4.5832830000000229
 21
222.5
  0
ARC
  8
_0-0_0
  6
CONTINUOUS
 62
    7
 10
-4.5832830000000229
 20
222
 40
0.5
 50
0
 51
90.000003000000007
  0
ARC
  8
_0-0_0
  6
CONTINUOUS
 62
    7
 10
-5.7832830000000115
 20
222
 40
0.5
 50
90.000003000000007
 51
179.99999099999999
  0
ARC
  8
_0-0_0
  6
CONTINUOUS
 62
    7
 10
-8.1832850000000121
 20
223
 40
0.5
 50
179.99999099999999
 51
269.99999700000001
  0
ARC
  8
_0-0_0
  6
CONTINUOUS
 62
    7
 10
-17.383282000000008
 20
223
 40
0.5
 50
269.99999700000001
 51
0
  0
ARC
  8
_0-0_0
  6
CONTINUOUS
 62
    7
 10
-21.583283000000023
 20
222
 40
0.5
 50
90.000003000000007
 51
179.99999099999999
  0
LINE
  8
_0-0_0
  6
CONTINUOUS
 62
    7
 10
-20.583283000000023
 20
223
 11
-20.583283000000023
 21
222.5
  0
ARC
  8
_0-0_0
  6
CONTINUOUS
 62
    7
 10
-20.083283000000023
 20
223
 40
0.5
 50
90.000003000000007
 51
179.99999099999999
  0
LINE
  8
_0-0_0
  6
CONTINUOUS
 62
    7
 10
-18.583283000000023
 20
223.5
 11
-20.083283000000023
 21
223.5
  0
ARC
  8
_0-0_0
  6
CONTINUOUS
 62
    7
 10
-18.583283000000023
 20
224.5
 40
1
 50
269.99999700000001
 51
0
  0
LINE
  8
_0-0_0
  6
CONTINUOUS
 62
    7
 10
-17.583283000000023
 20
225
 11
-17.583283000000023
 21
224.5
  0
LINE
  8
_0-0_0
  6
CONTINUOUS
 62
    7
 10
-17.083283000000023
 20
225
 11
-17.083283000000023
 21
224
  0
ARC
  8
_0-0_0
  6
CONTINUOUS
 62
    7
 10
-18.583283000000023
 20
224
 40
1.5
 50
269.99999700000001
 51
0
  0
ARC
  8
_0-0_0
  6
CONTINUOUS
 62
    7
 10
-6.983284000000026
 20
224
 40
1.5
 50
179.99999099999999
 51
269.99999700000001
  0
LINE
  8
_0-0_0
  6
CONTINUOUS
 62
    7
 10
-4.983284000000026
 20
223
 11
-4.983284000000026
 21
222.5
  0
ARC
  8
_0-0_0
  6
CONTINUOUS
 62
    7
 10
-5.483284000000026
 20
223
 40
0.5
 50
0
 51
90.000003000000007
  0
LINE
  8
_0-0_0
  6
CONTINUOUS
 62
    7
 10
-6.983284000000026
 20
223.5
 11
-5.483284000000026
 21
223.5
  0
ARC
  8
_0-0_0
  6
CONTINUOUS
 62
    7
 10
-6.983284000000026
 20
224.5
 40
1
 50
179.99999099999999
 51
269.99999700000001
  0
LINE
  8
_0-0_0
  6
CONTINUOUS
 62
    7
 10
-7.983284000000026
 20
225
 11
-7.983284000000026
 21
224.5
  0
LINE
  8
_0-0_0
  6
CONTINUOUS
 62
    7
 10
-8.483284000000026
 20
225
 11
-8.483284000000026
 21
224
  0
LINE
  8
_0-0_0
  6
CONTINUOUS
 62
    7
 10
-4.0832830000000229
 20
195.5
 11
-4.0832830000000229
 21
196.39999399999999
  0
LINE
  8
_0-0_0
  6
CONTINUOUS
 62
    7
 10
-4.0832830000000229
 20
196.39999399999999
 11
-4.0832830000000229
 21
198.89999399999999
  0
LINE
  8
_0-0_0
  6
CONTINUOUS
 62
    7
 10
-4.0832830000000229
 20
198.89999399999999
 11
-4.0832830000000229
 21
219.5
  0
LINE
  8
_0-0_0
  6
CONTINUOUS
 62
    7
 10
-4.0832830000000229
 20
219.5
 11
-4.0832830000000229
 21
222
  0
LINE
  8
_0-0_0
  6
CONTINUOUS
 62
    7
 10
-6.2832830000000115
 20
222
 11
-6.2832830000000115
 21
220.75500500000001
  0
LINE
  8
_0-0_0
  6
CONTINUOUS
 62
    7
 10
-8.6832850000000121
 20
223
 11
-8.6832850000000121
 21
224.800003
  0
ARC
  8
_0-0_0
  6
CONTINUOUS
 62
    7
 10
-9.1832850000000121
 20
224.800003
 40
0.5
 50
0
 51
23.579369
  0
LINE
  8
_0-0_0
  6
CONTINUOUS
 62
    7
 10
-16.883282000000008
 20
223
 11
-16.883282000000008
 21
224.800003
  0
ARC
  8
_0-0_0
  6
CONTINUOUS
 62
    7
 10
-16.383282000000008
 20
224.800003
 40
0.5
 50
156.420635
 51
179.99999099999999
  0
LINE
  8
_0-0_0
  6
CONTINUOUS
 62
    7
 10
-22.083283000000023
 20
195.5
 11
-22.083283000000023
 21
205.699997
  0
LINE
  8
_0-0_0
  6
CONTINUOUS
 62
    7
 10
-22.083283000000023
 20
205.699997
 11
-22.083283000000023
 21
206.699997
  0
LINE
  8
_0-0_0
  6
CONTINUOUS
 62
    7
 10
-22.083283000000023
 20
206.699997
 11
-22.083283000000023
 21
211.699997
  0
LINE
  8
_0-0_0
  6
CONTINUOUS
 62
    7
 10
-22.083283000000023
 20
211.699997
 11
-22.083283000000023
 21
212.699997
  0
LINE
  8
_0-0_0
  6
CONTINUOUS
 62
    7
 10
-22.083283000000023
 20
222
 11
-22.083283000000023
 21
212.699997
  0
LINE
  8
_0-0_0
  6
CONTINUOUS
 62
    7
 10
-3.2832830000000115
 20
221
 11
-4.0832830000000229
 21
221
  0
LINE
  8
_0-0_0
  6
CONTINUOUS
 62
    7
 10
-3.2832830000000115
 20
221.800003
 11
-4.0832830000000229
 21
221.800003
  0
LINE
  8
_0-0_0
  6
CONTINUOUS
 62
    7
 10
-3.2832830000000115
 20
220.800003
 11
-3.2832830000000115
 21
221.800003
  0
LINE
  8
_0-0_0
  6
CONTINUOUS
 62
    7
 10
-3.2832830000000115
 20
202.199997
 11
-4.0832830000000229
 21
202.199997
  0
LINE
  8
_0-0_0
  6
CONTINUOUS
 62
    7
 10
-3.2832830000000115
 20
202.199997
 11
-3.2832830000000115
 21
205.199997
  0
LINE
  8
_0-0_0
  6
CONTINUOUS
 62
    7
 10
-3.2832830000000115
 20
217.43769800000001
 11
-3.2832830000000115
 21
205.199997
  0
LINE
  8
_0-0_0
  6
CONTINUOUS
 62
    7
 10
-3.2832830000000115
 20
217.43769800000001
 11
-3.2832830000000115
 21
218.40048200000001
  0
LINE
  8
_0-0_0
  6
CONTINUOUS
 62
    7
 10
-4.0832830000000229
 20
218.40048200000001
 11
-4.0832830000000229
 21
221
  0
ARC
  8
_0-0_0
  6
CONTINUOUS
 62
    7
 10
-9.6982080000000224
 20
217.68203700000001
 40
5.7120379999999997
 50
18.558475999999999
 51
26.433648000000002
  0
ARC
  8
_0-0_0
  6
CONTINUOUS
 62
    7
 10
-4.2832830000000115
 20
219.5
 40
0.2
 50
269.99999700000001
 51
0
  0
ARC
  8
_0-0_0
  6
CONTINUOUS
 62
    7
 10
-4.2832830000000115
 20
198.89999399999999
 40
0.2
 50
0
 51
90.000003000000007
  0
ARC
  8
_0-0_0
  6
CONTINUOUS
 62
    7
 10
-9.698094000000026
 20
200.71804800000001
 40
5.711964
 50
333.565022
 51
341.44031000000001
  0
ARC
  8
_0-0_0
  6
CONTINUOUS
 62
    7
 10
-4.5832830000000229
 20
196.39999399999999
 40
0.5
 50
269.99999700000001
 51
0
  0
LINE
  8
_0-0_0
  6
CONTINUOUS
 62
    7
 10
-4.5832830000000229
 20
195.5
 11
-4.0832830000000229
 21
195.5
  0
LINE
  8
_0-0_0
  6
CONTINUOUS
 62
    7
 10
-4.0832830000000229
 20
195.5
 11
-4.5832830000000229
 21
195
  0
ARC
  8
_0-0_0
  6
CONTINUOUS
 62
    7
 10
-6.2832830000000115
 20
218
 40
2.2999999999999998
 50
34.417387999999995
 51
79.713437000000013
  0
LINE
  8
_0-0_0
  6
CONTINUOUS
 62
    7
 10
-4.3446010000000115
 20
219.300003
 11
-4.3859140000000139
 21
219.300003
  0
LINE
  8
_0-0_0
  6
CONTINUOUS
 62
    7
 10
-4.3446010000000115
 20
219.300003
 11
-4.3350410000000181
 21
219.30102500000001
  0
LINE
  8
_0-0_0
  6
CONTINUOUS
 62
    7
 10
-4.3350410000000181
 20
219.30102500000001
 11
-4.3255500000000211
 21
219.30422999999999
  0
LINE
  8
_0-0_0
  6
CONTINUOUS
 62
    7
 10
-4.3255500000000211
 20
219.30422999999999
 11
-4.3162960000000226
 21
219.30961600000001
  0
LINE
  8
_0-0_0
  6
CONTINUOUS
 62
    7
 10
-4.3162960000000226
 20
219.30961600000001
 11
-4.3074990000000071
 21
219.31712300000001
  0
LINE
  8
_0-0_0
  6
CONTINUOUS
 62
    7
 10
-4.3074990000000071
 20
219.31712300000001
 11
-4.2920990000000074
 21
219.33776900000001
  0
LINE
  8
_0-0_0
  6
CONTINUOUS
 62
    7
 10
-4.2920990000000074
 20
219.33776900000001
 11
-4.2803230000000099
 21
219.36505099999999
  0
LINE
  8
_0-0_0
  6
CONTINUOUS
 62
    7
 10
-4.2803230000000099
 20
219.36505099999999
 11
-4.2731440000000305
 21
219.397186
  0
LINE
  8
_0-0_0
  6
CONTINUOUS
 62
    7
 10
-4.2731440000000305
 20
219.397186
 11
-4.2712520000000325
 21
219.43223599999999
  0
LINE
  8
_0-0_0
  6
CONTINUOUS
 62
    7
 10
-4.2712520000000325
 20
219.43223599999999
 11
-4.2750970000000166
 21
219.46839900000001
  0
LINE
  8
_0-0_0
  6
CONTINUOUS
 62
    7
 10
-4.2750970000000166
 20
219.46839900000001
 11
-4.2832830000000115
 21
219.5
  0
ARC
  8
_0-0_0
  6
CONTINUOUS
 62
    7
 10
-5.7832830000000115
 20
220.75500500000001
 40
0.5
 50
179.99999099999999
 51
259.71343899999994
  0
LINE
  8
_0-0_0
  6
CONTINUOUS
 62
    7
 10
-21.283283000000011
 20
218
 11
-21.283283000000011
 21
204.39999399999999
  0
LINE
  8
_0-0_0
  6
CONTINUOUS
 62
    7
 10
-21.283283000000011
 20
203.89999399999999
 11
-21.283283000000011
 21
204.39999399999999
  0
LINE
  8
_0-0_0
  6
CONTINUOUS
 62
    7
 10
-21.283283000000011
 20
200.89999399999999
 11
-21.283283000000011
 21
203.89999399999999
  0
LINE
  8
_0-0_0
  6
CONTINUOUS
 62
    7
 10
-21.283283000000011
 20
200.39999399999999
 11
-21.283283000000011
 21
200.89999399999999
  0
ARC
  8
_0-0_0
  6
CONTINUOUS
 62
    7
 10
-19.283283000000011
 20
218
 40
2
 50
93.840255999999997
 51
179.99999099999999
  0
LINE
  8
_0-0_0
  6
CONTINUOUS
 62
    7
 10
-19.283283000000011
 20
220
 11
-10.283283000000011
 21
220
  0
LINE
  8
_0-0_0
  6
CONTINUOUS
 62
    7
 10
-6.2832830000000115
 20
220
 11
-6.7832830000000115
 21
220
  0
LINE
  8
_0-0_0
  6
CONTINUOUS
 62
    7
 10
-6.7832830000000115
 20
220
 11
-9.7832830000000115
 21
220
  0
LINE
  8
_0-0_0
  6
CONTINUOUS
 62
    7
 10
-10.283283000000011
 20
220
 11
-9.7832830000000115
 21
220
  0
ARC
  8
_0-0_0
  6
CONTINUOUS
 62
    7
 10
-6.2832830000000115
 20
218
 40
2
 50
0
 51
90.000003000000007
  0
LINE
  8
_0-0_0
  6
CONTINUOUS
 62
    7
 10
-22.283283000000011
 20
221
 11
-22.083283000000023
 21
221
  0
LINE
  8
_0-0_0
  6
CONTINUOUS
 62
    7
 10
-22.283283000000011
 20
221.800003
 11
-22.083283000000023
 21
221.800003
  0
LINE
  8
_0-0_0
  6
CONTINUOUS
 62
    7
 10
-22.283283000000011
 20
221.800003
 11
-22.283283000000011
 21
221.000122
  0
LINE
  8
_0-0_0
  6
CONTINUOUS
 62
    7
 10
-22.283283000000011
 20
202.199997
 11
-22.083283000000023
 21
202.199997
  0
LINE
  8
_0-0_0
  6
CONTINUOUS
 62
    7
 10
-22.283283000000011
 20
205.199997
 11
-22.283283000000011
 21
202.199997
  0
LINE
  8
_0-0_0
  6
CONTINUOUS
 62
    7
 10
-22.283283000000011
 20
217.43769800000001
 11
-22.283283000000011
 21
205.199997
  0
LINE
  8
_0-0_0
  6
CONTINUOUS
 62
    7
 10
-22.283283000000011
 20
218.40048200000001
 11
-22.283283000000011
 21
217.43769800000001
  0
ARC
  8
_0-0_0
  6
CONTINUOUS
 62
    7
 10
-21.583283000000023
 20
211.699997
 40
0.5
 50
90.000003000000007
 51
179.99999099999999
  0
ARC
  8
_0-0_0
  6
CONTINUOUS
 62
    7
 10
-21.583283000000023
 20
206.699997
 40
0.5
 50
179.99999099999999
 51
269.99999700000001
  0
LINE
  8
_0-0_0
  6
CONTINUOUS
 62
    7
 10
-22.083283000000023
 20
195.5
 11
-21.583283000000023
 21
195.5
  0
LINE
  8
_0-0_0
  6
CONTINUOUS
 62
    7
 10
-22.083283000000023
 20
195.5
 11
-21.583283000000023
 21
195
  0
LINE
  8
_0-0_0
  6
CONTINUOUS
 62
    7
 10
-4.0832830000000229
 20
202.20001199999999
 11
-4.0832830000000229
 21
201.050003
  0
ARC
  8
_0-0_0
  6
CONTINUOUS
 62
    7
 10
-6.483284000000026
 20
201.050003
 40
2.3999999999999999
 50
359.58604600000001
 51
0.0000099999999787
  0
LINE
  8
_0-0_0
  6
CONTINUOUS
 62
    7
 10
-3.2832830000000115
 20
218.40048200000001
 11
-3.2832830000000115
 21
221
  0
LINE
  8
_0-0_0
  6
CONTINUOUS
 62
    7
 10
-4.2832830000000115
 20
219.300003
 11
-4.3446010000000115
 21
219.300003
  0
LINE
  8
_0-0_0
  6
CONTINUOUS
 62
    7
 10
-4.3859140000000139
 20
219.300003
 11
-4.3881420000000162
 21
219.300003
  0
LINE
  8
_0-0_0
  6
CONTINUOUS
 62
    7
 10
-4.5832830000000229
 20
195.5
 11
-21.583283000000023
 21
195.5
  0
LINE
  8
_0-0_0
  6
CONTINUOUS
 62
    7
 10
-4.5198170000000175
 20
199.300003
 11
-4.4828910000000235
 21
199.22976700000001
  0
LINE
  8
_0-0_0
  6
CONTINUOUS
 62
    7
 10
-4.4828910000000235
 20
199.22976700000001
 11
-4.4632870000000366
 21
199.19528199999999
  0
LINE
  8
_0-0_0
  6
CONTINUOUS
 62
    7
 10
-4.4632870000000366
 20
199.19528199999999
 11
-4.4372030000000109
 21
199.153458
  0
LINE
  8
_0-0_0
  6
CONTINUOUS
 62
    7
 10
-4.4372030000000109
 20
199.153458
 11
-4.4238930000000209
 21
199.134399
  0
LINE
  8
_0-0_0
  6
CONTINUOUS
 62
    7
 10
-4.4238930000000209
 20
199.134399
 11
-4.405537000000038
 21
199.11203
  0
LINE
  8
_0-0_0
  6
CONTINUOUS
 62
    7
 10
-4.405537000000038
 20
199.11203
 11
-4.3927420000000268
 21
199.101395
  0
LINE
  8
_0-0_0
  6
CONTINUOUS
 62
    7
 10
-4.3927420000000268
 20
199.101395
 11
-4.3881420000000162
 21
199.10000600000001
  0
LINE
  8
_0-0_0
  6
CONTINUOUS
 62
    7
 10
-4.3859140000000139
 20
199.10000600000001
 11
-4.3881420000000162
 21
199.10000600000001
  0
LINE
  8
_0-0_0
  6
CONTINUOUS
 62
    7
 10
-4.5198170000000175
 20
219.10000600000001
 11
-4.4828910000000235
 21
219.17022700000001
  0
LINE
  8
_0-0_0
  6
CONTINUOUS
 62
    7
 10
-4.4828910000000235
 20
219.17022700000001
 11
-4.4632840000000158
 21
219.204712
  0
LINE
  8
_0-0_0
  6
CONTINUOUS
 62
    7
 10
-4.4632840000000158
 20
219.204712
 11
-4.4372030000000109
 21
219.24655200000001
  0
LINE
  8
_0-0_0
  6
CONTINUOUS
 62
    7
 10
-4.4372030000000109
 20
219.24655200000001
 11
-4.4238930000000209
 21
219.26559399999999
  0
LINE
  8
_0-0_0
  6
CONTINUOUS
 62
    7
 10
-4.4238930000000209
 20
219.26559399999999
 11
-4.405537000000038
 21
219.28797900000001
  0
LINE
  8
_0-0_0
  6
CONTINUOUS
 62
    7
 10
-4.405537000000038
 20
219.28797900000001
 11
-4.3927420000000268
 21
219.298599
  0
LINE
  8
_0-0_0
  6
CONTINUOUS
 62
    7
 10
-4.3927420000000268
 20
219.298599
 11
-4.3881420000000162
 21
219.300003
  0
LINE
  8
_0-0_0
  6
CONTINUOUS
 62
    7
 10
-4.3859140000000139
 20
199.10000600000001
 11
-4.3446010000000115
 21
199.10000600000001
  0
LINE
  8
_0-0_0
  6
CONTINUOUS
 62
    7
 10
-4.2832830000000115
 20
199.10000600000001
 11
-4.3446010000000115
 21
199.10000600000001
  0
LINE
  8
_0-0_0
  6
CONTINUOUS
 62
    7
 10
-4.3446010000000115
 20
199.10000600000001
 11
-4.3350410000000181
 21
199.09896900000001
  0
LINE
  8
_0-0_0
  6
CONTINUOUS
 62
    7
 10
-4.3350410000000181
 20
199.09896900000001
 11
-4.3255500000000211
 21
199.09577899999999
  0
LINE
  8
_0-0_0
  6
CONTINUOUS
 62
    7
 10
-4.3255500000000211
 20
199.09577899999999
 11
-4.3162960000000226
 21
199.09037799999999
  0
LINE
  8
_0-0_0
  6
CONTINUOUS
 62
    7
 10
-4.3162960000000226
 20
199.09037799999999
 11
-4.3074990000000071
 21
199.082886
  0
LINE
  8
_0-0_0
  6
CONTINUOUS
 62
    7
 10
-4.3074990000000071
 20
199.082886
 11
-4.2920990000000074
 21
199.062241
  0
LINE
  8
_0-0_0
  6
CONTINUOUS
 62
    7
 10
-4.2920990000000074
 20
199.062241
 11
-4.2803230000000099
 21
199.034943
  0
LINE
  8
_0-0_0
  6
CONTINUOUS
 62
    7
 10
-4.2803230000000099
 20
199.034943
 11
-4.2731440000000305
 21
199.00282300000001
  0
LINE
  8
_0-0_0
  6
CONTINUOUS
 62
    7
 10
-4.2731440000000305
 20
199.00282300000001
 11
-4.2712520000000325
 21
198.96777299999999
  0
LINE
  8
_0-0_0
  6
CONTINUOUS
 62
    7
 10
-4.2712520000000325
 20
198.96777299999999
 11
-4.2750970000000166
 21
198.93159499999999
  0
LINE
  8
_0-0_0
  6
CONTINUOUS
 62
    7
 10
-4.2750970000000166
 20
198.93159499999999
 11
-4.2832830000000115
 21
198.89999399999999
  0
ARC
  8
_0-0_0
  6
CONTINUOUS
 62
    7
 10
-6.2832830000000115
 20
200.39999399999999
 40
2.2999999999999998
 50
280.28656300000006
 51
325.58260500000006
  0
LINE
  8
_0-0_0
  6
CONTINUOUS
 62
    7
 10
-4.5832830000000229
 20
195.89999399999999
 11
-5.7832830000000115
 21
195.89999399999999
  0
LINE
  8
_0-0_0
  6
CONTINUOUS
 62
    7
 10
-4.5832830000000229
 20
195
 11
-21.583283000000023
 21
195
  0
LINE
  8
_0-0_0
  6
CONTINUOUS
 62
    7
 10
-21.28329100000002
 20
212.199997
 11
-21.583283000000023
 21
212.199997
  0
ARC
  8
_0-0_0
  6
CONTINUOUS
 62
    7
 10
-20.783283000000011
 20
204.39999399999999
 40
0.5
 50
179.99999099999999
 51
269.99999700000001
  0
CIRCLE
  8
_0-0_0
  6
CONTINUOUS
 62
    7
 10
-18.783283000000011
 20
200.89999399999999
 40
2.5
  0
LINE
  8
_0-0_0
  6
CONTINUOUS
 62
    7
 10
-15.783283000000011
 20
198.39999399999999
 11
-18.783283000000011
 21
198.39999399999999
  0
LINE
  8
_0-0_0
  6
CONTINUOUS
 62
    7
 10
-15.283283000000011
 20
198.39999399999999
 11
-15.783283000000011
 21
198.39999399999999
  0
ARC
  8
_0-0_0
  6
CONTINUOUS
 62
    7
 10
-19.283283000000011
 20
200.39999399999999
 40
2
 50
179.99999099999999
 51
269.99999700000001
  0
LINE
  8
_0-0_0
  6
CONTINUOUS
 62
    7
 10
-18.783283000000011
 20
198.39999399999999
 11
-19.283283000000011
 21
198.39999399999999
  0
LINE
  8
_0-0_0
  6
CONTINUOUS
 62
    7
 10
-19.283283000000011
 20
219.897369
 11
-19.299164000000019
 21
219.924622
  0
LINE
  8
_0-0_0
  6
CONTINUOUS
 62
    7
 10
-19.299164000000019
 20
219.924622
 11
-19.315010000000029
 21
219.94760099999999
  0
LINE
  8
_0-0_0
  6
CONTINUOUS
 62
    7
 10
-19.315010000000029
 20
219.94760099999999
 11
-19.32899100000003
 21
219.96435500000001
  0
LINE
  8
_0-0_0
  6
CONTINUOUS
 62
    7
 10
-19.32899100000003
 20
219.96435500000001
 11
-19.342888000000016
 21
219.977676
  0
LINE
  8
_0-0_0
  6
CONTINUOUS
 62
    7
 10
-19.342888000000016
 20
219.977676
 11
-19.355106000000035
 21
219.986603
  0
LINE
  8
_0-0_0
  6
CONTINUOUS
 62
    7
 10
-19.355106000000035
 20
219.986603
 11
-19.367226000000016
 21
219.992828
  0
LINE
  8
_0-0_0
  6
CONTINUOUS
 62
    7
 10
-19.367226000000016
 20
219.992828
 11
-19.378090000000014
 21
219.996094
  0
LINE
  8
_0-0_0
  6
CONTINUOUS
 62
    7
 10
-19.378090000000014
 20
219.996094
 11
-19.388851000000017
 21
219.99714700000001
  0
LINE
  8
_0-0_0
  6
CONTINUOUS
 62
    7
 10
-19.388851000000017
 20
219.99714700000001
 11
-19.391312000000028
 21
219.99707000000001
  0
LINE
  8
_0-0_0
  6
CONTINUOUS
 62
    7
 10
-4.2832830000000115
 20
217.5
 11
-4.2832830000000115
 21
218
  0
CIRCLE
  8
_0-0_0
  6
CONTINUOUS
 62
    7
 10
-6.7832830000000115
 20
217.5
 40
2.5
  0
LINE
  8
_0-0_0
  6
CONTINUOUS
 62
    7
 10
-4.2832830000000115
 20
214.5
 11
-4.2832830000000115
 21
214
  0
LINE
  8
_0-0_0
  6
CONTINUOUS
 62
    7
 10
-4.2832830000000115
 20
214.5
 11
-4.2832830000000115
 21
217.5
  0
ARC
  8
_0-0_0
  6
CONTINUOUS
 62
    7
 10
-10.283283000000011
 20
219.5
 40
0.5
 50
0
 51
90.000003000000007
  0
LINE
  8
_0-0_0
  6
CONTINUOUS
 62
    7
 10
-4.2832830000000115
 20
200.39999399999999
 11
-4.2832830000000115
 21
214
  0
LINE
  8
_0-0_0
  6
CONTINUOUS
 62
    7
 10
-22.283283000000011
 20
221
 11
-22.283283000000011
 21
218.40048200000001
  0
LINE
  8
_0-0_0
  6
CONTINUOUS
 62
    7
 10
-21.583283000000023
 20
206.199997
 11
-21.28329100000002
 21
206.199997
  0
LINE
  8
_0-0_0
  6
CONTINUOUS
 62
    7
 10
-4.0832830000000229
 20
221.800049
 11
-4.0832830000000229
 21
222
  0
ARC
  8
_0-0_0
  6
CONTINUOUS
 62
    7
 10
-6.2832830000000115
 20
200.39999399999999
 40
2
 50
273.84026500000004
 51
0.000010000000014
  0
LINE
  8
_0-0_0
  6
CONTINUOUS
 62
    7
 10
-6.2832830000000115
 20
198.39999399999999
 11
-15.283283000000011
 21
198.39999399999999
  0
ARC
  8
_0-0_0
  6
CONTINUOUS
 62
    7
 10
-5.7832830000000115
 20
197.645004
 40
0.5
 50
100.28656100000001
 51
179.99999099999999
  0
LINE
  8
_0-0_0
  6
CONTINUOUS
 62
    7
 10
-6.2832830000000115
 20
196.39999399999999
 11
-6.2832830000000115
 21
197.645004
  0
ARC
  8
_0-0_0
  6
CONTINUOUS
 62
    7
 10
-5.7832830000000115
 20
196.39999399999999
 40
0.5
 50
179.99999099999999
 51
269.99999700000001
  0
LINE
  8
_0-0_0
  6
CONTINUOUS
 62
    7
 10
-20.70631000000003
 20
203.89999399999999
 11
-20.783283000000011
 21
203.89999399999999
  0
LINE
  8
_0-0_0
  6
CONTINUOUS
 62
    7
 10
-18.783283000000011
 20
203.89999399999999
 11
-19.264786000000015
 21
203.89999399999999
  0
LINE
  8
_0-0_0
  6
CONTINUOUS
 62
    7
 10
-19.264786000000015
 20
203.89999399999999
 11
-20.70631000000003
 21
203.89999399999999
  0
LINE
  8
_0-0_0
  6
CONTINUOUS
 62
    7
 10
-15.783283000000011
 20
198.89999399999999
 11
-15.783283000000011
 21
198.97697400000001
  0
LINE
  8
_0-0_0
  6
CONTINUOUS
 62
    7
 10
-15.783283000000011
 20
200.418488
 11
-15.783283000000011
 21
198.97697400000001
  0
LINE
  8
_0-0_0
  6
CONTINUOUS
 62
    7
 10
-15.783283000000011
 20
200.418488
 11
-15.783283000000011
 21
200.89999399999999
  0
ARC
  8
_0-0_0
  6
CONTINUOUS
 62
    7
 10
-18.783283000000011
 20
200.89999399999999
 40
3
 50
0
 51
89.999995999999996
  0
ARC
  8
_0-0_0
  6
CONTINUOUS
 62
    7
 10
-15.283283000000011
 20
198.89999399999999
 40
0.5
 50
179.99999099999999
 51
269.99999700000001
  0
LINE
  8
_0-0_0
  6
CONTINUOUS
 62
    7
 10
-9.7832830000000115
 20
219.42301900000001
 11
-9.7832830000000115
 21
219.5
  0
LINE
  8
_0-0_0
  6
CONTINUOUS
 62
    7
 10
-9.7832830000000115
 20
217.981506
 11
-9.7832830000000115
 21
219.42301900000001
  0
LINE
  8
_0-0_0
  6
CONTINUOUS
 62
    7
 10
-9.7832830000000115
 20
217.5
 11
-9.7832830000000115
 21
217.981506
  0
ARC
  8
_0-0_0
  6
CONTINUOUS
 62
    7
 10
-6.7832830000000115
 20
217.5
 40
3
 50
179.99999099999999
 51
269.99999700000001
  0
LINE
  8
_0-0_0
  6
CONTINUOUS
 62
    7
 10
-6.3017850000000237
 20
214.5
 11
-6.7832830000000115
 21
214.5
  0
LINE
  8
_0-0_0
  6
CONTINUOUS
 62
    7
 10
-6.3017850000000237
 20
214.5
 11
-4.860256000000021
 21
214.5
  0
LINE
  8
_0-0_0
  6
CONTINUOUS
 62
    7
 10
-4.7832830000000115
 20
214.5
 11
-4.860256000000021
 21
214.5
  0
ARC
  8
_0-0_0
  6
CONTINUOUS
 62
    7
 10
-4.7832830000000115
 20
214
 40
0.5
 50
0
 51
90.000003000000007
  0
LINE
  8
_0-0_0
  6
CONTINUOUS
 62
    7
 10
-6.2832830000000115
 20
198.50264000000001
 11
-6.26740300000003
 21
198.47538800000001
  0
LINE
  8
_0-0_0
  6
CONTINUOUS
 62
    7
 10
-6.26740300000003
 20
198.47538800000001
 11
-6.2515570000000196
 21
198.45240799999999
  0
LINE
  8
_0-0_0
  6
CONTINUOUS
 62
    7
 10
-6.2515570000000196
 20
198.45240799999999
 11
-6.2375760000000184
 21
198.435654
  0
LINE
  8
_0-0_0
  6
CONTINUOUS
 62
    7
 10
-6.2375760000000184
 20
198.435654
 11
-6.2236790000000326
 21
198.42231799999999
  0
LINE
  8
_0-0_0
  6
CONTINUOUS
 62
    7
 10
-6.2236790000000326
 20
198.42231799999999
 11
-6.2114600000000166
 21
198.41339099999999
  0
LINE
  8
_0-0_0
  6
CONTINUOUS
 62
    7
 10
-6.2114600000000166
 20
198.41339099999999
 11
-6.1993450000000223
 21
198.40718100000001
  0
LINE
  8
_0-0_0
  6
CONTINUOUS
 62
    7
 10
-6.1993450000000223
 20
198.40718100000001
 11
-6.1884770000000344
 21
198.40389999999999
  0
LINE
  8
_0-0_0
  6
CONTINUOUS
 62
    7
 10
-6.1884770000000344
 20
198.40389999999999
 11
-6.1777150000000347
 21
198.40284700000001
  0
LINE
  8
_0-0_0
  6
CONTINUOUS
 62
    7
 10
-6.1777150000000347
 20
198.40284700000001
 11
-6.1752590000000396
 21
198.40292400000001
  0
ARC
  8
_0-0_0
  6
CONTINUOUS
 62
    7
 10
-16.013397000000026
 20
208.02676399999999
 40
3.063399
 50
199.82113599999997
 51
205.28948099999999
  0
ARC
  8
_0-0_0
  6
CONTINUOUS
 62
    7
 10
-16.01371800000004
 20
210.37338299999999
 40
3.0630549999999999
 50
154.710137
 51
160.17869999999999
  0
ARC
  8
_0-0_0
  6
CONTINUOUS
 62
    7
 10
-12.783283000000011
 20
209.199997
 40
6.5
 50
160.10415599999999
 51
199.895612
  0
ARC
  8
_0-0_0
  6
CONTINUOUS
 62
    7
 10
-9.5531660000000329
 20
210.373245
 40
3.0633949999999999
 50
19.82113
 51
25.289566000000001
  0
ARC
  8
_0-0_0
  6
CONTINUOUS
 62
    7
 10
-9.5528450000000191
 20
208.02662699999999
 40
3.0630519999999999
 50
334.71006
 51
340.17869200000001
  0
LINE
  8
_0-0_0
  6
CONTINUOUS
 62
    7
 10
-12.041615000000036
 20
202.699997
 11
-7.5249520000000132
 21
205.307693
  0
LINE
  8
_0-0_0
  6
CONTINUOUS
 62
    7
 10
-13.524952000000013
 20
202.699997
 11
-12.041615000000036
 21
202.699997
  0
LINE
  8
_0-0_0
  6
CONTINUOUS
 62
    7
 10
-18.041615000000036
 20
205.307693
 11
-13.524952000000013
 21
202.699997
  0
LINE
  8
_0-0_0
  6
CONTINUOUS
 62
    7
 10
-18.783283000000011
 20
211.807693
 11
-18.783283000000011
 21
206.59229999999999
  0
LINE
  8
_0-0_0
  6
CONTINUOUS
 62
    7
 10
-18.041615000000036
 20
205.307693
 11
-18.783283000000011
 21
206.59229999999999
  0
LINE
  8
_0-0_0
  6
CONTINUOUS
 62
    7
 10
-13.524952000000013
 20
215.699997
 11
-18.041615000000036
 21
213.09229999999999
  0
LINE
  8
_0-0_0
  6
CONTINUOUS
 62
    7
 10
-18.335739000000018
 20
212.58287000000001
 11
-18.783283000000011
 21
211.807693
  0
LINE
  8
_0-0_0
  6
CONTINUOUS
 62
    7
 10
-18.335739000000018
 20
212.58287000000001
 11
-18.041615000000036
 21
213.09229999999999
  0
LINE
  8
_0-0_0
  6
CONTINUOUS
 62
    7
 10
-12.041615000000036
 20
215.699997
 11
-13.524952000000013
 21
215.699997
  0
LINE
  8
_0-0_0
  6
CONTINUOUS
 62
    7
 10
-7.5249520000000132
 20
213.09229999999999
 11
-12.041615000000036
 21
215.699997
  0
ARC
  8
_0-0_0
  6
CONTINUOUS
 62
    7
 10
-12.783283000000011
 20
209.199997
 40
6.5
 50
340.10416099999998
 51
19.895609999999952
  0
LINE
  8
_0-0_0
  6
CONTINUOUS
 62
    7
 10
-7.2308310000000233
 20
205.817139
 11
-6.7832830000000115
 21
206.59229999999999
  0
LINE
  8
_0-0_0
  6
CONTINUOUS
 62
    7
 10
-7.2308310000000233
 20
205.817139
 11
-7.5249520000000132
 21
205.307693
  0
CIRCLE
  8
_0-0_0
  6
CONTINUOUS
 62
    7
 10
-12.783283000000011
 20
209.199997
 40
5.25
  0
LINE
  8
_0-0_0
  6
CONTINUOUS
 62
    7
 10
-6.7832830000000115
 20
211.807693
 11
-6.7832830000000115
 21
206.59229999999999
  0
LINE
  8
_0-0_0
  6
CONTINUOUS
 62
    7
 10
-7.5249520000000132
 20
213.09229999999999
 11
-6.7832830000000115
 21
211.807693
  0
LINE
  8
_0-0_0
  6
CONTINUOUS
 62
    7
 10
-4.8962750000000312
 20
218.72543300000001
 11
-4.6182210000000055
 21
218.75
  0
LINE
  8
_0-0_0
  6
CONTINUOUS
 62
    7
 10
-4.7785190000000171
 20
218.52148399999999
 11
-4.6182210000000055
 21
218.75
  0
LINE
  8
_0-0_0
  6
CONTINUOUS
 62
    7
 10
-5.0347020000000384
 20
218.91596999999999
 11
-4.7607380000000319
 21
218.96946700000001
  0
LINE
  8
_0-0_0
  6
CONTINUOUS
 62
    7
 10
-4.8962750000000312
 20
218.72543300000001
 11
-4.7607380000000319
 21
218.96946700000001
  0
LINE
  8
_0-0_0
  6
CONTINUOUS
 62
    7
 10
-5.1922950000000299
 20
219.09098800000001
 11
-4.9254190000000335
 21
219.172821
  0
LINE
  8
_0-0_0
  6
CONTINUOUS
 62
    7
 10
-5.0347020000000384
 20
218.91596999999999
 11
-4.9254190000000335
 21
219.172821
  0
LINE
  8
_0-0_0
  6
CONTINUOUS
 62
    7
 10
-5.3673130000000242
 20
219.248581
 11
-5.1104550000000302
 21
219.35786400000001
  0
LINE
  8
_0-0_0
  6
CONTINUOUS
 62
    7
 10
-5.1922950000000299
 20
219.09098800000001
 11
-5.1104550000000302
 21
219.35786400000001
  0
LINE
  8
_0-0_0
  6
CONTINUOUS
 62
    7
 10
-5.5578460000000121
 20
219.38700900000001
 11
-5.3138200000000211
 21
219.522537
  0
LINE
  8
_0-0_0
  6
CONTINUOUS
 62
    7
 10
-5.3673130000000242
 20
219.248581
 11
-5.3138200000000211
 21
219.522537
  0
LINE
  8
_0-0_0
  6
CONTINUOUS
 62
    7
 10
-5.761807000000033
 20
219.504761
 11
-5.5332830000000115
 21
219.66506999999999
  0
LINE
  8
_0-0_0
  6
CONTINUOUS
 62
    7
 10
-5.5578460000000121
 20
219.38700900000001
 11
-5.5332830000000115
 21
219.66506999999999
  0
LINE
  8
_0-0_0
  6
CONTINUOUS
 62
    7
 10
-5.9769560000000297
 20
219.60055500000001
 11
-5.7664410000000146
 21
219.78385900000001
  0
LINE
  8
_0-0_0
  6
CONTINUOUS
 62
    7
 10
-5.761807000000033
 20
219.504761
 11
-5.7664410000000146
 21
219.78385900000001
  0
LINE
  8
_0-0_0
  6
CONTINUOUS
 62
    7
 10
-6.2009390000000053
 20
219.67334
 11
-6.0107380000000319
 21
219.87764000000001
  0
LINE
  8
_0-0_0
  6
CONTINUOUS
 62
    7
 10
-5.9769560000000297
 20
219.60055500000001
 11
-6.0107380000000319
 21
219.87764000000001
  0
LINE
  8
_0-0_0
  6
CONTINUOUS
 62
    7
 10
-6.4313050000000089
 20
219.72228999999999
 11
-6.2635040000000117
 21
219.94537399999999
  0
LINE
  8
_0-0_0
  6
CONTINUOUS
 62
    7
 10
-6.2009390000000053
 20
219.67334
 11
-6.2635040000000117
 21
219.94537399999999
  0
LINE
  8
_0-0_0
  6
CONTINUOUS
 62
    7
 10
-6.6655270000000257
 20
219.74691799999999
 11
-6.521961000000033
 21
219.98629800000001
  0
LINE
  8
_0-0_0
  6
CONTINUOUS
 62
    7
 10
-6.4313050000000089
 20
219.72228999999999
 11
-6.521961000000033
 21
219.98629800000001
  0
LINE
  8
_0-0_0
  6
CONTINUOUS
 62
    7
 10
-6.9010390000000257
 20
219.74691799999999
 11
-6.7832830000000115
 21
220
  0
LINE
  8
_0-0_0
  6
CONTINUOUS
 62
    7
 10
-6.6655270000000257
 20
219.74691799999999
 11
-6.7832830000000115
 21
220
  0
LINE
  8
_0-0_0
  6
CONTINUOUS
 62
    7
 10
-7.1352620000000115
 20
219.72228999999999
 11
-7.0446050000000184
 21
219.98629800000001
  0
LINE
  8
_0-0_0
  6
CONTINUOUS
 62
    7
 10
-6.9010390000000257
 20
219.74691799999999
 11
-7.0446050000000184
 21
219.98629800000001
  0
LINE
  8
_0-0_0
  6
CONTINUOUS
 62
    7
 10
-7.3656270000000177
 20
219.67334
 11
-7.3030630000000087
 21
219.94537399999999
  0
LINE
  8
_0-0_0
  6
CONTINUOUS
 62
    7
 10
-7.1352620000000115
 20
219.72228999999999
 11
-7.3030630000000087
 21
219.94537399999999
  0
LINE
  8
_0-0_0
  6
CONTINUOUS
 62
    7
 10
-7.5896110000000192
 20
219.60055500000001
 11
-7.5558280000000195
 21
219.87764000000001
  0
LINE
  8
_0-0_0
  6
CONTINUOUS
 62
    7
 10
-7.3656270000000177
 20
219.67334
 11
-7.5558280000000195
 21
219.87764000000001
  0
LINE
  8
_0-0_0
  6
CONTINUOUS
 62
    7
 10
-7.8047600000000159
 20
219.504761
 11
-7.8001250000000368
 21
219.78385900000001
  0
LINE
  8
_0-0_0
  6
CONTINUOUS
 62
    7
 10
-7.5896110000000192
 20
219.60055500000001
 11
-7.8001250000000368
 21
219.78385900000001
  0
LINE
  8
_0-0_0
  6
CONTINUOUS
 62
    7
 10
-7.9242970000000241
 20
219.58862300000001
 11
-8.0332830000000115
 21
219.66506999999999
  0
LINE
  8
_0-0_0
  6
CONTINUOUS
 62
    7
 10
-7.8047600000000159
 20
219.504761
 11
-7.9242970000000241
 21
219.58862300000001
  0
LINE
  8
_0-0_0
  6
CONTINUOUS
 62
    7
 10
-8.0087210000000368
 20
219.38700900000001
 11
-8.0332830000000115
 21
219.66506999999999
  0
LINE
  8
_0-0_0
  6
CONTINUOUS
 62
    7
 10
-8.1992530000000272
 20
219.248581
 11
-8.2527470000000278
 21
219.522537
  0
LINE
  8
_0-0_0
  6
CONTINUOUS
 62
    7
 10
-8.0087210000000368
 20
219.38700900000001
 11
-8.2527470000000278
 21
219.522537
  0
LINE
  8
_0-0_0
  6
CONTINUOUS
 62
    7
 10
-8.374272000000019
 20
219.09098800000001
 11
-8.4561120000000187
 21
219.35786400000001
  0
LINE
  8
_0-0_0
  6
CONTINUOUS
 62
    7
 10
-8.1992530000000272
 20
219.248581
 11
-8.4561120000000187
 21
219.35786400000001
  0
LINE
  8
_0-0_0
  6
CONTINUOUS
 62
    7
 10
-8.531864000000013
 20
218.91596999999999
 11
-8.6411480000000154
 21
219.172821
  0
LINE
  8
_0-0_0
  6
CONTINUOUS
 62
    7
 10
-8.374272000000019
 20
219.09098800000001
 11
-8.6411480000000154
 21
219.172821
  0
LINE
  8
_0-0_0
  6
CONTINUOUS
 62
    7
 10
-8.6702920000000177
 20
218.72543300000001
 11
-8.8058280000000195
 21
218.96946700000001
  0
LINE
  8
_0-0_0
  6
CONTINUOUS
 62
    7
 10
-8.531864000000013
 20
218.91596999999999
 11
-8.8058280000000195
 21
218.96946700000001
  0
LINE
  8
_0-0_0
  6
CONTINUOUS
 62
    7
 10
-8.7880480000000318
 20
218.52148399999999
 11
-8.9483450000000175
 21
218.75
  0
LINE
  8
_0-0_0
  6
CONTINUOUS
 62
    7
 10
-8.6702920000000177
 20
218.72543300000001
 11
-8.9483450000000175
 21
218.75
  0
LINE
  8
_0-0_0
  6
CONTINUOUS
 62
    7
 10
-8.8838390000000231
 20
218.30633499999999
 11
-9.0671460000000366
 21
218.51684599999999
  0
LINE
  8
_0-0_0
  6
CONTINUOUS
 62
    7
 10
-8.7880480000000318
 20
218.52148399999999
 11
-9.0671460000000366
 21
218.51684599999999
  0
LINE
  8
_0-0_0
  6
CONTINUOUS
 62
    7
 10
-8.9566160000000252
 20
218.082336
 11
-9.1609230000000252
 21
218.272537
  0
LINE
  8
_0-0_0
  6
CONTINUOUS
 62
    7
 10
-8.8838390000000231
 20
218.30633499999999
 11
-9.1609230000000252
 21
218.272537
  0
LINE
  8
_0-0_0
  6
CONTINUOUS
 62
    7
 10
-9.0055810000000065
 20
217.85197400000001
 11
-9.2286530000000084
 21
218.01977500000001
  0
LINE
  8
_0-0_0
  6
CONTINUOUS
 62
    7
 10
-8.9566160000000252
 20
218.082336
 11
-9.2286530000000084
 21
218.01977500000001
  0
LINE
  8
_0-0_0
  6
CONTINUOUS
 62
    7
 10
-9.0055810000000065
 20
217.85197400000001
 11
-9.2695890000000247
 21
217.76132200000001
  0
LINE
  8
_0-0_0
  6
CONTINUOUS
 62
    7
 10
-9.0302010000000337
 20
217.617752
 11
-9.2695890000000247
 21
217.76132200000001
  0
LINE
  8
_0-0_0
  6
CONTINUOUS
 62
    7
 10
-9.0302010000000337
 20
217.382248
 11
-9.2832830000000115
 21
217.5
  0
LINE
  8
_0-0_0
  6
CONTINUOUS
 62
    7
 10
-9.0302010000000337
 20
217.617752
 11
-9.2832830000000115
 21
217.5
  0
LINE
  8
_0-0_0
  6
CONTINUOUS
 62
    7
 10
-9.0055810000000065
 20
217.14802599999999
 11
-9.2695890000000247
 21
217.23867799999999
  0
LINE
  8
_0-0_0
  6
CONTINUOUS
 62
    7
 10
-9.0302010000000337
 20
217.382248
 11
-9.2695890000000247
 21
217.23867799999999
  0
LINE
  8
_0-0_0
  6
CONTINUOUS
 62
    7
 10
-8.9566160000000252
 20
216.917664
 11
-9.2286530000000084
 21
216.98022499999999
  0
LINE
  8
_0-0_0
  6
CONTINUOUS
 62
    7
 10
-9.0055810000000065
 20
217.14802599999999
 11
-9.2286530000000084
 21
216.98022499999999
  0
LINE
  8
_0-0_0
  6
CONTINUOUS
 62
    7
 10
-8.8838390000000231
 20
216.69366500000001
 11
-9.1609230000000252
 21
216.727463
  0
LINE
  8
_0-0_0
  6
CONTINUOUS
 62
    7
 10
-8.9566160000000252
 20
216.917664
 11
-9.1609230000000252
 21
216.727463
  0
LINE
  8
_0-0_0
  6
CONTINUOUS
 62
    7
 10
-8.7880480000000318
 20
216.47851600000001
 11
-9.0671460000000366
 21
216.48315400000001
  0
LINE
  8
_0-0_0
  6
CONTINUOUS
 62
    7
 10
-8.8838390000000231
 20
216.69366500000001
 11
-9.0671460000000366
 21
216.48315400000001
  0
LINE
  8
_0-0_0
  6
CONTINUOUS
 62
    7
 10
-8.6702920000000177
 20
216.27456699999999
 11
-8.9483450000000175
 21
216.25
  0
LINE
  8
_0-0_0
  6
CONTINUOUS
 62
    7
 10
-8.7880480000000318
 20
216.47851600000001
 11
-8.9483450000000175
 21
216.25
  0
LINE
  8
_0-0_0
  6
CONTINUOUS
 62
    7
 10
-8.531864000000013
 20
216.08403000000001
 11
-8.8058280000000195
 21
216.03053299999999
  0
LINE
  8
_0-0_0
  6
CONTINUOUS
 62
    7
 10
-8.6702920000000177
 20
216.27456699999999
 11
-8.8058280000000195
 21
216.03053299999999
  0
LINE
  8
_0-0_0
  6
CONTINUOUS
 62
    7
 10
-8.374272000000019
 20
215.90901199999999
 11
-8.6411480000000154
 21
215.827179
  0
LINE
  8
_0-0_0
  6
CONTINUOUS
 62
    7
 10
-8.531864000000013
 20
216.08403000000001
 11
-8.6411480000000154
 21
215.827179
  0
LINE
  8
_0-0_0
  6
CONTINUOUS
 62
    7
 10
-8.1992530000000272
 20
215.751419
 11
-8.4561120000000187
 21
215.64213599999999
  0
LINE
  8
_0-0_0
  6
CONTINUOUS
 62
    7
 10
-8.374272000000019
 20
215.90901199999999
 11
-8.4561120000000187
 21
215.64213599999999
  0
LINE
  8
_0-0_0
  6
CONTINUOUS
 62
    7
 10
-8.0087210000000368
 20
215.61299099999999
 11
-8.2527470000000278
 21
215.477463
  0
LINE
  8
_0-0_0
  6
CONTINUOUS
 62
    7
 10
-8.1992530000000272
 20
215.751419
 11
-8.2527470000000278
 21
215.477463
  0
LINE
  8
_0-0_0
  6
CONTINUOUS
 62
    7
 10
-7.8047600000000159
 20
215.495239
 11
-8.0332830000000115
 21
215.33493000000001
  0
LINE
  8
_0-0_0
  6
CONTINUOUS
 62
    7
 10
-8.0087210000000368
 20
215.61299099999999
 11
-8.0332830000000115
 21
215.33493000000001
  0
LINE
  8
_0-0_0
  6
CONTINUOUS
 62
    7
 10
-7.5896110000000192
 20
215.39944499999999
 11
-7.8001250000000368
 21
215.21614099999999
  0
LINE
  8
_0-0_0
  6
CONTINUOUS
 62
    7
 10
-7.8047600000000159
 20
215.495239
 11
-7.8001250000000368
 21
215.21614099999999
  0
LINE
  8
_0-0_0
  6
CONTINUOUS
 62
    7
 10
-7.3656270000000177
 20
215.32666
 11
-7.5558280000000195
 21
215.12235999999999
  0
LINE
  8
_0-0_0
  6
CONTINUOUS
 62
    7
 10
-7.5896110000000192
 20
215.39944499999999
 11
-7.5558280000000195
 21
215.12235999999999
  0
LINE
  8
_0-0_0
  6
CONTINUOUS
 62
    7
 10
-7.1352620000000115
 20
215.27771000000001
 11
-7.3030630000000087
 21
215.05462600000001
  0
LINE
  8
_0-0_0
  6
CONTINUOUS
 62
    7
 10
-7.3656270000000177
 20
215.32666
 11
-7.3030630000000087
 21
215.05462600000001
  0
LINE
  8
_0-0_0
  6
CONTINUOUS
 62
    7
 10
-6.9010390000000257
 20
215.25308200000001
 11
-7.0446050000000184
 21
215.01370199999999
  0
LINE
  8
_0-0_0
  6
CONTINUOUS
 62
    7
 10
-7.1352620000000115
 20
215.27771000000001
 11
-7.0446050000000184
 21
215.01370199999999
  0
LINE
  8
_0-0_0
  6
CONTINUOUS
 62
    7
 10
-6.6655270000000257
 20
215.25308200000001
 11
-6.7832830000000115
 21
215
  0
LINE
  8
_0-0_0
  6
CONTINUOUS
 62
    7
 10
-6.9010390000000257
 20
215.25308200000001
 11
-6.7832830000000115
 21
215
  0
LINE
  8
_0-0_0
  6
CONTINUOUS
 62
    7
 10
-6.4313050000000089
 20
215.27771000000001
 11
-6.521961000000033
 21
215.01370199999999
  0
LINE
  8
_0-0_0
  6
CONTINUOUS
 62
    7
 10
-6.6655270000000257
 20
215.25308200000001
 11
-6.521961000000033
 21
215.01370199999999
  0
LINE
  8
_0-0_0
  6
CONTINUOUS
 62
    7
 10
-6.2009390000000053
 20
215.32666
 11
-6.2635040000000117
 21
215.05462600000001
  0
LINE
  8
_0-0_0
  6
CONTINUOUS
 62
    7
 10
-6.4313050000000089
 20
215.27771000000001
 11
-6.2635040000000117
 21
215.05462600000001
  0
LINE
  8
_0-0_0
  6
CONTINUOUS
 62
    7
 10
-5.9769560000000297
 20
215.39944499999999
 11
-6.0107380000000319
 21
215.12235999999999
  0
LINE
  8
_0-0_0
  6
CONTINUOUS
 62
    7
 10
-6.2009390000000053
 20
215.32666
 11
-6.0107380000000319
 21
215.12235999999999
  0
LINE
  8
_0-0_0
  6
CONTINUOUS
 62
    7
 10
-5.761807000000033
 20
215.495239
 11
-5.7664410000000146
 21
215.21614099999999
  0
LINE
  8
_0-0_0
  6
CONTINUOUS
 62
    7
 10
-5.9769560000000297
 20
215.39944499999999
 11
-5.7664410000000146
 21
215.21614099999999
  0
LINE
  8
_0-0_0
  6
CONTINUOUS
 62
    7
 10
-5.6422690000000273
 20
215.41137699999999
 11
-5.5332830000000115
 21
215.33493000000001
  0
LINE
  8
_0-0_0
  6
CONTINUOUS
 62
    7
 10
-5.761807000000033
 20
215.495239
 11
-5.6422690000000273
 21
215.41137699999999
  0
LINE
  8
_0-0_0
  6
CONTINUOUS
 62
    7
 10
-5.5578460000000121
 20
215.61299099999999
 11
-5.5332830000000115
 21
215.33493000000001
  0
LINE
  8
_0-0_0
  6
CONTINUOUS
 62
    7
 10
-5.3673130000000242
 20
215.751419
 11
-5.3138200000000211
 21
215.477463
  0
LINE
  8
_0-0_0
  6
CONTINUOUS
 62
    7
 10
-5.5578460000000121
 20
215.61299099999999
 11
-5.3138200000000211
 21
215.477463
  0
LINE
  8
_0-0_0
  6
CONTINUOUS
 62
    7
 10
-5.1922950000000299
 20
215.90901199999999
 11
-5.1104550000000302
 21
215.64213599999999
  0
LINE
  8
_0-0_0
  6
CONTINUOUS
 62
    7
 10
-5.3673130000000242
 20
215.751419
 11
-5.1104550000000302
 21
215.64213599999999
  0
LINE
  8
_0-0_0
  6
CONTINUOUS
 62
    7
 10
-5.0347020000000384
 20
216.08403000000001
 11
-4.9254190000000335
 21
215.827179
  0
LINE
  8
_0-0_0
  6
CONTINUOUS
 62
    7
 10
-5.1922950000000299
 20
215.90901199999999
 11
-4.9254190000000335
 21
215.827179
  0
LINE
  8
_0-0_0
  6
CONTINUOUS
 62
    7
 10
-4.8962750000000312
 20
216.27456699999999
 11
-4.7607380000000319
 21
216.03053299999999
  0
LINE
  8
_0-0_0
  6
CONTINUOUS
 62
    7
 10
-5.0347020000000384
 20
216.08403000000001
 11
-4.7607380000000319
 21
216.03053299999999
  0
LINE
  8
_0-0_0
  6
CONTINUOUS
 62
    7
 10
-4.7785190000000171
 20
216.47851600000001
 11
-4.6182210000000055
 21
216.25
  0
LINE
  8
_0-0_0
  6
CONTINUOUS
 62
    7
 10
-4.8962750000000312
 20
216.27456699999999
 11
-4.6182210000000055
 21
216.25
  0
LINE
  8
_0-0_0
  6
CONTINUOUS
 62
    7
 10
-4.6827280000000258
 20
216.69366500000001
 11
-4.4994200000000149
 21
216.48315400000001
  0
LINE
  8
_0-0_0
  6
CONTINUOUS
 62
    7
 10
-4.7785190000000171
 20
216.47851600000001
 11
-4.4994200000000149
 21
216.48315400000001
  0
LINE
  8
_0-0_0
  6
CONTINUOUS
 62
    7
 10
-4.6099510000000237
 20
216.917664
 11
-4.4056440000000237
 21
216.727463
  0
LINE
  8
_0-0_0
  6
CONTINUOUS
 62
    7
 10
-4.6827280000000258
 20
216.69366500000001
 11
-4.4056440000000237
 21
216.727463
  0
LINE
  8
_0-0_0
  6
CONTINUOUS
 62
    7
 10
-4.560986000000014
 20
217.14802599999999
 11
-4.337914000000012
 21
216.98022499999999
  0
LINE
  8
_0-0_0
  6
CONTINUOUS
 62
    7
 10
-4.6099510000000237
 20
216.917664
 11
-4.337914000000012
 21
216.98022499999999
  0
LINE
  8
_0-0_0
  6
CONTINUOUS
 62
    7
 10
-4.5363660000000152
 20
217.382248
 11
-4.2969780000000242
 21
217.23867799999999
  0
LINE
  8
_0-0_0
  6
CONTINUOUS
 62
    7
 10
-4.560986000000014
 20
217.14802599999999
 11
-4.2969780000000242
 21
217.23867799999999
  0
LINE
  8
_0-0_0
  6
CONTINUOUS
 62
    7
 10
-4.5363660000000152
 20
217.617752
 11
-4.2832830000000115
 21
217.5
  0
LINE
  8
_0-0_0
  6
CONTINUOUS
 62
    7
 10
-4.5363660000000152
 20
217.382248
 11
-4.2832830000000115
 21
217.5
  0
LINE
  8
_0-0_0
  6
CONTINUOUS
 62
    7
 10
-4.560986000000014
 20
217.85197400000001
 11
-4.2969780000000242
 21
217.76132200000001
  0
LINE
  8
_0-0_0
  6
CONTINUOUS
 62
    7
 10
-4.5363660000000152
 20
217.617752
 11
-4.2969780000000242
 21
217.76132200000001
  0
LINE
  8
_0-0_0
  6
CONTINUOUS
 62
    7
 10
-4.6099510000000237
 20
218.082336
 11
-4.337914000000012
 21
218.01977500000001
  0
LINE
  8
_0-0_0
  6
CONTINUOUS
 62
    7
 10
-4.560986000000014
 20
217.85197400000001
 11
-4.337914000000012
 21
218.01977500000001
  0
LINE
  8
_0-0_0
  6
CONTINUOUS
 62
    7
 10
-4.6827280000000258
 20
218.30633499999999
 11
-4.4056440000000237
 21
218.272537
  0
LINE
  8
_0-0_0
  6
CONTINUOUS
 62
    7
 10
-4.6099510000000237
 20
218.082336
 11
-4.4056440000000237
 21
218.272537
  0
LINE
  8
_0-0_0
  6
CONTINUOUS
 62
    7
 10
-4.7785190000000171
 20
218.52148399999999
 11
-4.4994200000000149
 21
218.51684599999999
  0
LINE
  8
_0-0_0
  6
CONTINUOUS
 62
    7
 10
-4.6827280000000258
 20
218.30633499999999
 11
-4.4994200000000149
 21
218.51684599999999
  0
CIRCLE
  8
_0-0_0
  6
CONTINUOUS
 62
    7
 10
-6.7832830000000115
 20
217.5
 40
2
  0
CIRCLE
  8
_0-0_0
  6
CONTINUOUS
 62
    7
 10
-12.783283000000011
 20
209.199997
 40
5
  0
LINE
  8
_0-0_0
  6
CONTINUOUS
 62
    7
 10
-6.2011760000000322
 20
216.5
 11
-7.3653910000000167
 21
216.5
  0
LINE
  8
_0-0_0
  6
CONTINUOUS
 62
    7
 10
-7.3653910000000167
 20
216.5
 11
-7.9332850000000121
 21
217.5
  0
LINE
  8
_0-0_0
  6
CONTINUOUS
 62
    7
 10
-7.9332850000000121
 20
217.5
 11
-7.3653910000000167
 21
218.5
  0
LINE
  8
_0-0_0
  6
CONTINUOUS
 62
    7
 10
-7.3653910000000167
 20
218.5
 11
-6.2011760000000322
 21
218.5
  0
LINE
  8
_0-0_0
  6
CONTINUOUS
 62
    7
 10
-6.2011760000000322
 20
218.5
 11
-5.6332820000000083
 21
217.5
  0
LINE
  8
_0-0_0
  6
CONTINUOUS
 62
    7
 10
-5.6332820000000083
 20
217.5
 11
-6.2011760000000322
 21
216.5
  0
CIRCLE
  8
_0-0_0
  6
CONTINUOUS
 62
    7
 10
-12.783283000000011
 20
209.199997
 40
4.5381200000000002
  0
CIRCLE
  8
_0-0_0
  6
CONTINUOUS
 62
    7
 10
-12.783283000000011
 20
209.199997
 40
4
  0
LINE
  8
_0-0_0
  6
CONTINUOUS
 62
    7
 10
-20.670292000000018
 20
199.67456100000001
 11
-20.948345000000018
 21
199.64999399999999
  0
LINE
  8
_0-0_0
  6
CONTINUOUS
 62
    7
 10
-20.788048000000032
 20
199.878525
 11
-20.948345000000018
 21
199.64999399999999
  0
LINE
  8
_0-0_0
  6
CONTINUOUS
 62
    7
 10
-20.531864000000013
 20
199.48402400000001
 11
-20.80582800000002
 21
199.430542
  0
LINE
  8
_0-0_0
  6
CONTINUOUS
 62
    7
 10
-20.670292000000018
 20
199.67456100000001
 11
-20.80582800000002
 21
199.430542
  0
LINE
  8
_0-0_0
  6
CONTINUOUS
 62
    7
 10
-20.374272000000019
 20
199.309021
 11
-20.641148000000015
 21
199.22717299999999
  0
LINE
  8
_0-0_0
  6
CONTINUOUS
 62
    7
 10
-20.531864000000013
 20
199.48402400000001
 11
-20.641148000000015
 21
199.22717299999999
  0
LINE
  8
_0-0_0
  6
CONTINUOUS
 62
    7
 10
-20.199253000000027
 20
199.15141299999999
 11
-20.456112000000019
 21
199.042145
  0
LINE
  8
_0-0_0
  6
CONTINUOUS
 62
    7
 10
-20.374272000000019
 20
199.309021
 11
-20.456112000000019
 21
199.042145
  0
LINE
  8
_0-0_0
  6
CONTINUOUS
 62
    7
 10
-20.008721000000037
 20
199.01300000000001
 11
-20.252747000000028
 21
198.87745699999999
  0
LINE
  8
_0-0_0
  6
CONTINUOUS
 62
    7
 10
-20.199253000000027
 20
199.15141299999999
 11
-20.252747000000028
 21
198.87745699999999
  0
LINE
  8
_0-0_0
  6
CONTINUOUS
 62
    7
 10
-19.804760000000016
 20
198.89523299999999
 11
-20.033283000000011
 21
198.73493999999999
  0
LINE
  8
_0-0_0
  6
CONTINUOUS
 62
    7
 10
-20.008721000000037
 20
199.01300000000001
 11
-20.033283000000011
 21
198.73493999999999
  0
LINE
  8
_0-0_0
  6
CONTINUOUS
 62
    7
 10
-19.589611000000019
 20
198.79943800000001
 11
-19.800125000000037
 21
198.61613500000001
  0
LINE
  8
_0-0_0
  6
CONTINUOUS
 62
    7
 10
-19.804760000000016
 20
198.89523299999999
 11
-19.800125000000037
 21
198.61613500000001
  0
LINE
  8
_0-0_0
  6
CONTINUOUS
 62
    7
 10
-19.365627000000018
 20
198.72666899999999
 11
-19.55582800000002
 21
198.52235400000001
  0
LINE
  8
_0-0_0
  6
CONTINUOUS
 62
    7
 10
-19.589611000000019
 20
198.79943800000001
 11
-19.55582800000002
 21
198.52235400000001
  0
LINE
  8
_0-0_0
  6
CONTINUOUS
 62
    7
 10
-19.135262000000012
 20
198.67770400000001
 11
-19.303063000000009
 21
198.45463599999999
  0
LINE
  8
_0-0_0
  6
CONTINUOUS
 62
    7
 10
-19.365627000000018
 20
198.72666899999999
 11
-19.303063000000009
 21
198.45463599999999
  0
LINE
  8
_0-0_0
  6
CONTINUOUS
 62
    7
 10
-18.901039000000026
 20
198.65309099999999
 11
-19.044605000000018
 21
198.41369599999999
  0
LINE
  8
_0-0_0
  6
CONTINUOUS
 62
    7
 10
-19.135262000000012
 20
198.67770400000001
 11
-19.044605000000018
 21
198.41369599999999
  0
LINE
  8
_0-0_0
  6
CONTINUOUS
 62
    7
 10
-18.665527000000026
 20
198.65309099999999
 11
-18.783283000000011
 21
198.39999399999999
  0
LINE
  8
_0-0_0
  6
CONTINUOUS
 62
    7
 10
-18.901039000000026
 20
198.65309099999999
 11
-18.783283000000011
 21
198.39999399999999
  0
LINE
  8
_0-0_0
  6
CONTINUOUS
 62
    7
 10
-18.431305000000009
 20
198.67770400000001
 11
-18.521961000000033
 21
198.41369599999999
  0
LINE
  8
_0-0_0
  6
CONTINUOUS
 62
    7
 10
-18.665527000000026
 20
198.65309099999999
 11
-18.521961000000033
 21
198.41369599999999
  0
LINE
  8
_0-0_0
  6
CONTINUOUS
 62
    7
 10
-18.200939000000005
 20
198.72666899999999
 11
-18.263504000000012
 21
198.45463599999999
  0
LINE
  8
_0-0_0
  6
CONTINUOUS
 62
    7
 10
-18.431305000000009
 20
198.67770400000001
 11
-18.263504000000012
 21
198.45463599999999
  0
LINE
  8
_0-0_0
  6
CONTINUOUS
 62
    7
 10
-17.97695600000003
 20
198.79943800000001
 11
-18.010738000000032
 21
198.52235400000001
  0
LINE
  8
_0-0_0
  6
CONTINUOUS
 62
    7
 10
-18.200939000000005
 20
198.72666899999999
 11
-18.010738000000032
 21
198.52235400000001
  0
LINE
  8
_0-0_0
  6
CONTINUOUS
 62
    7
 10
-17.761807000000033
 20
198.89523299999999
 11
-17.766441000000015
 21
198.61613500000001
  0
LINE
  8
_0-0_0
  6
CONTINUOUS
 62
    7
 10
-17.97695600000003
 20
198.79943800000001
 11
-17.766441000000015
 21
198.61613500000001
  0
LINE
  8
_0-0_0
  6
CONTINUOUS
 62
    7
 10
-17.642269000000027
 20
198.811386
 11
-17.533283000000011
 21
198.73493999999999
  0
LINE
  8
_0-0_0
  6
CONTINUOUS
 62
    7
 10
-17.761807000000033
 20
198.89523299999999
 11
-17.642269000000027
 21
198.811386
  0
LINE
  8
_0-0_0
  6
CONTINUOUS
 62
    7
 10
-17.557846000000012
 20
199.01300000000001
 11
-17.533283000000011
 21
198.73493999999999
  0
LINE
  8
_0-0_0
  6
CONTINUOUS
 62
    7
 10
-17.367313000000024
 20
199.15141299999999
 11
-17.313820000000021
 21
198.87745699999999
  0
LINE
  8
_0-0_0
  6
CONTINUOUS
 62
    7
 10
-17.557846000000012
 20
199.01300000000001
 11
-17.313820000000021
 21
198.87745699999999
  0
LINE
  8
_0-0_0
  6
CONTINUOUS
 62
    7
 10
-17.19229500000003
 20
199.309021
 11
-17.11045500000003
 21
199.042145
  0
LINE
  8
_0-0_0
  6
CONTINUOUS
 62
    7
 10
-17.367313000000024
 20
199.15141299999999
 11
-17.11045500000003
 21
199.042145
  0
LINE
  8
_0-0_0
  6
CONTINUOUS
 62
    7
 10
-17.034706000000028
 20
199.48402400000001
 11
-16.925419000000034
 21
199.22717299999999
  0
LINE
  8
_0-0_0
  6
CONTINUOUS
 62
    7
 10
-17.19229500000003
 20
199.309021
 11
-16.925419000000034
 21
199.22717299999999
  0
LINE
  8
_0-0_0
  6
CONTINUOUS
 62
    7
 10
-16.896275000000031
 20
199.67456100000001
 11
-16.760738000000032
 21
199.430542
  0
LINE
  8
_0-0_0
  6
CONTINUOUS
 62
    7
 10
-17.034706000000028
 20
199.48402400000001
 11
-16.760738000000032
 21
199.430542
  0
LINE
  8
_0-0_0
  6
CONTINUOUS
 62
    7
 10
-16.778519000000017
 20
199.878525
 11
-16.618221000000005
 21
199.64999399999999
  0
LINE
  8
_0-0_0
  6
CONTINUOUS
 62
    7
 10
-16.896275000000031
 20
199.67456100000001
 11
-16.618221000000005
 21
199.64999399999999
  0
LINE
  8
_0-0_0
  6
CONTINUOUS
 62
    7
 10
-16.682728000000026
 20
200.09367399999999
 11
-16.499420000000015
 21
199.883163
  0
LINE
  8
_0-0_0
  6
CONTINUOUS
 62
    7
 10
-16.778519000000017
 20
199.878525
 11
-16.499420000000015
 21
199.883163
  0
LINE
  8
_0-0_0
  6
CONTINUOUS
 62
    7
 10
-16.609951000000024
 20
200.317657
 11
-16.405644000000024
 21
200.12745699999999
  0
LINE
  8
_0-0_0
  6
CONTINUOUS
 62
    7
 10
-16.682728000000026
 20
200.09367399999999
 11
-16.405644000000024
 21
200.12745699999999
  0
LINE
  8
_0-0_0
  6
CONTINUOUS
 62
    7
 10
-16.560986000000014
 20
200.54801900000001
 11
-16.337914000000012
 21
200.38021900000001
  0
LINE
  8
_0-0_0
  6
CONTINUOUS
 62
    7
 10
-16.609951000000024
 20
200.317657
 11
-16.337914000000012
 21
200.38021900000001
  0
LINE
  8
_0-0_0
  6
CONTINUOUS
 62
    7
 10
-16.536366000000015
 20
200.782242
 11
-16.296978000000024
 21
200.63867200000001
  0
LINE
  8
_0-0_0
  6
CONTINUOUS
 62
    7
 10
-16.560986000000014
 20
200.54801900000001
 11
-16.296978000000024
 21
200.63867200000001
  0
LINE
  8
_0-0_0
  6
CONTINUOUS
 62
    7
 10
-16.536366000000015
 20
201.01774599999999
 11
-16.283283000000011
 21
200.89999399999999
  0
LINE
  8
_0-0_0
  6
CONTINUOUS
 62
    7
 10
-16.536366000000015
 20
200.782242
 11
-16.283283000000011
 21
200.89999399999999
  0
LINE
  8
_0-0_0
  6
CONTINUOUS
 62
    7
 10
-16.560986000000014
 20
201.25198399999999
 11
-16.296978000000024
 21
201.161316
  0
LINE
  8
_0-0_0
  6
CONTINUOUS
 62
    7
 10
-16.536366000000015
 20
201.01774599999999
 11
-16.296978000000024
 21
201.161316
  0
LINE
  8
_0-0_0
  6
CONTINUOUS
 62
    7
 10
-16.609951000000024
 20
201.48234600000001
 11
-16.337914000000012
 21
201.41978499999999
  0
LINE
  8
_0-0_0
  6
CONTINUOUS
 62
    7
 10
-16.560986000000014
 20
201.25198399999999
 11
-16.337914000000012
 21
201.41978499999999
  0
LINE
  8
_0-0_0
  6
CONTINUOUS
 62
    7
 10
-16.682728000000026
 20
201.70632900000001
 11
-16.405644000000024
 21
201.67253099999999
  0
LINE
  8
_0-0_0
  6
CONTINUOUS
 62
    7
 10
-16.609951000000024
 20
201.48234600000001
 11
-16.405644000000024
 21
201.67253099999999
  0
LINE
  8
_0-0_0
  6
CONTINUOUS
 62
    7
 10
-16.778519000000017
 20
201.92147800000001
 11
-16.499420000000015
 21
201.91684000000001
  0
LINE
  8
_0-0_0
  6
CONTINUOUS
 62
    7
 10
-16.682728000000026
 20
201.70632900000001
 11
-16.499420000000015
 21
201.91684000000001
  0
LINE
  8
_0-0_0
  6
CONTINUOUS
 62
    7
 10
-16.896275000000031
 20
202.125427
 11
-16.618221000000005
 21
202.14999399999999
  0
LINE
  8
_0-0_0
  6
CONTINUOUS
 62
    7
 10
-16.778519000000017
 20
201.92147800000001
 11
-16.618221000000005
 21
202.14999399999999
  0
LINE
  8
_0-0_0
  6
CONTINUOUS
 62
    7
 10
-20.199253000000027
 20
202.64857499999999
 11
-20.252747000000028
 21
202.92253099999999
  0
LINE
  8
_0-0_0
  6
CONTINUOUS
 62
    7
 10
-20.199253000000027
 20
202.64857499999999
 11
-20.456112000000019
 21
202.757858
  0
LINE
  8
_0-0_0
  6
CONTINUOUS
 62
    7
 10
-20.374272000000019
 20
202.49099699999999
 11
-20.456112000000019
 21
202.757858
  0
LINE
  8
_0-0_0
  6
CONTINUOUS
 62
    7
 10
-20.374272000000019
 20
202.49099699999999
 11
-20.641148000000015
 21
202.57283000000001
  0
LINE
  8
_0-0_0
  6
CONTINUOUS
 62
    7
 10
-20.531864000000013
 20
202.315979
 11
-20.641148000000015
 21
202.57283000000001
  0
LINE
  8
_0-0_0
  6
CONTINUOUS
 62
    7
 10
-20.531864000000013
 20
202.315979
 11
-20.80582800000002
 21
202.369461
  0
LINE
  8
_0-0_0
  6
CONTINUOUS
 62
    7
 10
-20.670292000000018
 20
202.125427
 11
-20.80582800000002
 21
202.369461
  0
LINE
  8
_0-0_0
  6
CONTINUOUS
 62
    7
 10
-20.670292000000018
 20
202.125427
 11
-20.948345000000018
 21
202.14999399999999
  0
LINE
  8
_0-0_0
  6
CONTINUOUS
 62
    7
 10
-20.788048000000032
 20
201.92147800000001
 11
-20.948345000000018
 21
202.14999399999999
  0
LINE
  8
_0-0_0
  6
CONTINUOUS
 62
    7
 10
-20.788048000000032
 20
201.92147800000001
 11
-21.067146000000037
 21
201.91684000000001
  0
LINE
  8
_0-0_0
  6
CONTINUOUS
 62
    7
 10
-20.883839000000023
 20
201.70632900000001
 11
-21.067146000000037
 21
201.91684000000001
  0
LINE
  8
_0-0_0
  6
CONTINUOUS
 62
    7
 10
-20.883839000000023
 20
201.70632900000001
 11
-21.160923000000025
 21
201.67253099999999
  0
LINE
  8
_0-0_0
  6
CONTINUOUS
 62
    7
 10
-20.956616000000025
 20
201.48234600000001
 11
-21.160923000000025
 21
201.67253099999999
  0
LINE
  8
_0-0_0
  6
CONTINUOUS
 62
    7
 10
-20.956616000000025
 20
201.48234600000001
 11
-21.228653000000008
 21
201.41978499999999
  0
LINE
  8
_0-0_0
  6
CONTINUOUS
 62
    7
 10
-21.005581000000006
 20
201.25198399999999
 11
-21.228653000000008
 21
201.41978499999999
  0
LINE
  8
_0-0_0
  6
CONTINUOUS
 62
    7
 10
-21.005581000000006
 20
201.25198399999999
 11
-21.269589000000025
 21
201.161316
  0
LINE
  8
_0-0_0
  6
CONTINUOUS
 62
    7
 10
-21.030201000000034
 20
201.01774599999999
 11
-21.269589000000025
 21
201.161316
  0
LINE
  8
_0-0_0
  6
CONTINUOUS
 62
    7
 10
-21.030201000000034
 20
201.01774599999999
 11
-21.283283000000011
 21
200.89999399999999
  0
LINE
  8
_0-0_0
  6
CONTINUOUS
 62
    7
 10
-21.030201000000034
 20
200.782242
 11
-21.283283000000011
 21
200.89999399999999
  0
LINE
  8
_0-0_0
  6
CONTINUOUS
 62
    7
 10
-21.030201000000034
 20
200.782242
 11
-21.269589000000025
 21
200.63867200000001
  0
LINE
  8
_0-0_0
  6
CONTINUOUS
 62
    7
 10
-21.005581000000006
 20
200.54801900000001
 11
-21.269589000000025
 21
200.63867200000001
  0
LINE
  8
_0-0_0
  6
CONTINUOUS
 62
    7
 10
-21.005581000000006
 20
200.54801900000001
 11
-21.228653000000008
 21
200.38021900000001
  0
LINE
  8
_0-0_0
  6
CONTINUOUS
 62
    7
 10
-20.956616000000025
 20
200.317657
 11
-21.228653000000008
 21
200.38021900000001
  0
LINE
  8
_0-0_0
  6
CONTINUOUS
 62
    7
 10
-20.956616000000025
 20
200.317657
 11
-21.160923000000025
 21
200.12745699999999
  0
LINE
  8
_0-0_0
  6
CONTINUOUS
 62
    7
 10
-20.883839000000023
 20
200.09367399999999
 11
-21.160923000000025
 21
200.12745699999999
  0
LINE
  8
_0-0_0
  6
CONTINUOUS
 62
    7
 10
-20.883839000000023
 20
200.09367399999999
 11
-21.067146000000037
 21
199.883163
  0
LINE
  8
_0-0_0
  6
CONTINUOUS
 62
    7
 10
-20.788048000000032
 20
199.878525
 11
-21.067146000000037
 21
199.883163
  0
CIRCLE
  8
_0-0_0
  6
CONTINUOUS
 62
    7
 10
-18.783283000000011
 20
200.89999399999999
 40
2
  0
LINE
  8
_0-0_0
  6
CONTINUOUS
 62
    7
 10
-19.924297000000024
 20
202.988617
 11
-20.033283000000011
 21
203.06506300000001
  0
LINE
  8
_0-0_0
  6
CONTINUOUS
 62
    7
 10
-20.008721000000037
 20
202.78701799999999
 11
-20.033283000000011
 21
203.06506300000001
  0
LINE
  8
_0-0_0
  6
CONTINUOUS
 62
    7
 10
-20.008721000000037
 20
202.78701799999999
 11
-20.252747000000028
 21
202.92253099999999
  0
LINE
  8
_0-0_0
  6
CONTINUOUS
 62
    7
 10
-16.896275000000031
 20
202.125427
 11
-16.760738000000032
 21
202.369461
  0
LINE
  8
_0-0_0
  6
CONTINUOUS
 62
    7
 10
-17.034706000000028
 20
202.315979
 11
-16.760738000000032
 21
202.369461
  0
LINE
  8
_0-0_0
  6
CONTINUOUS
 62
    7
 10
-17.034706000000028
 20
202.315979
 11
-16.925419000000034
 21
202.57283000000001
  0
LINE
  8
_0-0_0
  6
CONTINUOUS
 62
    7
 10
-17.19229500000003
 20
202.49099699999999
 11
-16.925419000000034
 21
202.57283000000001
  0
LINE
  8
_0-0_0
  6
CONTINUOUS
 62
    7
 10
-17.19229500000003
 20
202.49099699999999
 11
-17.11045500000003
 21
202.757858
  0
LINE
  8
_0-0_0
  6
CONTINUOUS
 62
    7
 10
-17.367313000000024
 20
202.64857499999999
 11
-17.11045500000003
 21
202.757858
  0
LINE
  8
_0-0_0
  6
CONTINUOUS
 62
    7
 10
-17.367313000000024
 20
202.64857499999999
 11
-17.313820000000021
 21
202.92253099999999
  0
LINE
  8
_0-0_0
  6
CONTINUOUS
 62
    7
 10
-17.557846000000012
 20
202.78701799999999
 11
-17.313820000000021
 21
202.92253099999999
  0
LINE
  8
_0-0_0
  6
CONTINUOUS
 62
    7
 10
-17.557846000000012
 20
202.78701799999999
 11
-17.533283000000011
 21
203.06506300000001
  0
LINE
  8
_0-0_0
  6
CONTINUOUS
 62
    7
 10
-17.761807000000033
 20
202.90475499999999
 11
-17.533283000000011
 21
203.06506300000001
  0
LINE
  8
_0-0_0
  6
CONTINUOUS
 62
    7
 10
-17.761807000000033
 20
202.90475499999999
 11
-17.766441000000015
 21
203.18386799999999
  0
LINE
  8
_0-0_0
  6
CONTINUOUS
 62
    7
 10
-17.97695600000003
 20
203.00054900000001
 11
-17.766441000000015
 21
203.18386799999999
  0
LINE
  8
_0-0_0
  6
CONTINUOUS
 62
    7
 10
-17.97695600000003
 20
203.00054900000001
 11
-18.010738000000032
 21
203.277649
  0
LINE
  8
_0-0_0
  6
CONTINUOUS
 62
    7
 10
-18.200939000000005
 20
203.07333399999999
 11
-18.010738000000032
 21
203.277649
  0
LINE
  8
_0-0_0
  6
CONTINUOUS
 62
    7
 10
-18.200939000000005
 20
203.07333399999999
 11
-18.263504000000012
 21
203.34536700000001
  0
LINE
  8
_0-0_0
  6
CONTINUOUS
 62
    7
 10
-18.431305000000009
 20
203.122299
 11
-18.263504000000012
 21
203.34536700000001
  0
LINE
  8
_0-0_0
  6
CONTINUOUS
 62
    7
 10
-18.431305000000009
 20
203.122299
 11
-18.521961000000033
 21
203.38630699999999
  0
LINE
  8
_0-0_0
  6
CONTINUOUS
 62
    7
 10
-18.665527000000026
 20
203.14691199999999
 11
-18.521961000000033
 21
203.38630699999999
  0
LINE
  8
_0-0_0
  6
CONTINUOUS
 62
    7
 10
-18.665527000000026
 20
203.14691199999999
 11
-18.783283000000011
 21
203.39999399999999
  0
LINE
  8
_0-0_0
  6
CONTINUOUS
 62
    7
 10
-18.901039000000026
 20
203.14691199999999
 11
-18.783283000000011
 21
203.39999399999999
  0
LINE
  8
_0-0_0
  6
CONTINUOUS
 62
    7
 10
-18.901039000000026
 20
203.14691199999999
 11
-19.044605000000018
 21
203.38630699999999
  0
LINE
  8
_0-0_0
  6
CONTINUOUS
 62
    7
 10
-19.135262000000012
 20
203.122299
 11
-19.044605000000018
 21
203.38630699999999
  0
LINE
  8
_0-0_0
  6
CONTINUOUS
 62
    7
 10
-19.135262000000012
 20
203.122299
 11
-19.303063000000009
 21
203.34536700000001
  0
LINE
  8
_0-0_0
  6
CONTINUOUS
 62
    7
 10
-19.365627000000018
 20
203.07333399999999
 11
-19.303063000000009
 21
203.34536700000001
  0
LINE
  8
_0-0_0
  6
CONTINUOUS
 62
    7
 10
-19.365627000000018
 20
203.07333399999999
 11
-19.55582800000002
 21
203.277649
  0
LINE
  8
_0-0_0
  6
CONTINUOUS
 62
    7
 10
-19.589611000000019
 20
203.00054900000001
 11
-19.55582800000002
 21
203.277649
  0
LINE
  8
_0-0_0
  6
CONTINUOUS
 62
    7
 10
-19.589611000000019
 20
203.00054900000001
 11
-19.800125000000037
 21
203.18386799999999
  0
LINE
  8
_0-0_0
  6
CONTINUOUS
 62
    7
 10
-19.804760000000016
 20
202.90475499999999
 11
-19.800125000000037
 21
203.18386799999999
  0
LINE
  8
_0-0_0
  6
CONTINUOUS
 62
    7
 10
-19.804760000000016
 20
202.90475499999999
 11
-19.924297000000024
 21
202.988617
  0
LINE
  8
_0-0_0
  6
CONTINUOUS
 62
    7
 10
-18.201176000000032
 20
199.89999399999999
 11
-19.365391000000017
 21
199.89999399999999
  0
LINE
  8
_0-0_0
  6
CONTINUOUS
 62
    7
 10
-19.365391000000017
 20
199.89999399999999
 11
-19.933285000000012
 21
200.89999399999999
  0
LINE
  8
_0-0_0
  6
CONTINUOUS
 62
    7
 10
-19.933285000000012
 20
200.89999399999999
 11
-19.365391000000017
 21
201.89999399999999
  0
LINE
  8
_0-0_0
  6
CONTINUOUS
 62
    7
 10
-19.365391000000017
 20
201.89999399999999
 11
-18.201176000000032
 21
201.89999399999999
  0
LINE
  8
_0-0_0
  6
CONTINUOUS
 62
    7
 10
-18.201176000000032
 20
201.89999399999999
 11
-17.633282000000008
 21
200.89999399999999
  0
LINE
  8
_0-0_0
  6
CONTINUOUS
 62
    7
 10
-17.633282000000008
 20
200.89999399999999
 11
-18.201176000000032
 21
199.89999399999999
  0
LINE
  8
_0-0_0
  6
CONTINUOUS
 62
    7
 10
-4.0832860000000153
 20
218.300308
 11
-4.0832830000000229
 21
218.30628999999999
  0
LINE
  8
_0-0_0
  6
CONTINUOUS
 62
    7
 10
-4.0832830000000229
 20
219.5
 11
-4.0836530000000266
 21
219.48788500000001
  0
LINE
  8
_0-0_0
  6
CONTINUOUS
 62
    7
 10
-4.0836530000000266
 20
198.91210899999999
 11
-4.0832830000000229
 21
198.89999399999999
  0
ARC
  8
_0-0_0
  6
CONTINUOUS
 62
    7
 10
-19.283283000000011
 20
218
 40
2
 50
90.000003000000007
 51
93.840255999999997
  0
ARC
  8
_0-0_0
  6
CONTINUOUS
 62
    7
 10
-6.2832830000000115
 20
200.39999399999999
 40
2
 50
269.99999700000001
 51
273.84026499999999
  0
ENDSEC
  0
EOF
