  0
SECTION
  2
HEADER
  9
$ACADVER
  1
AC1015
  9
$ACADMAINTVER
 70
     6
  9
$DWGCODEPAGE
  3
ANSI_1252
  9
$INSBASE
 10
0.0
 20
0.0
 30
0.0
  9
$EXTMIN
 10
0.0
 20
0.0
 30
0.0
  9
$EXTMAX
 10
1464.0625
 20
459.5
 30
2.0
  9
$LIMMIN
 10
0.0
 20
0.0
  9
$LIMMAX
 10
420.0
 20
297.0
  9
$ORTHOMODE
 70
     0
  9
$REGENMODE
 70
     1
  9
$FILLMODE
 70
     1
  9
$QTEXTMODE
 70
     0
  9
$MIRRTEXT
 70
     1
  9
$LTSCALE
 40
1.0
  9
$ATTMODE
 70
     1
  9
$TEXTSIZE
 40
2.5
  9
$TRACEWID
 40
1.0
  9
$TEXTSTYLE
  7
Standard
  9
$CLAYER
  8
0
  9
$CELTYPE
  6
ByLayer
  9
$CECOLOR
 62
   256
  9
$CELTSCALE
 40
1.0
  9
$DISPSILH
 70
     0
  9
$DIMSCALE
 40
1.0
  9
$DIMASZ
 40
2.5
  9
$DIMEXO
 40
0.625
  9
$DIMDLI
 40
3.75
  9
$DIMRND
 40
0.0
  9
$DIMDLE
 40
0.0
  9
$DIMEXE
 40
1.25
  9
$DIMTP
 40
0.0
  9
$DIMTM
 40
0.0
  9
$DIMTXT
 40
2.5
  9
$DIMCEN
 40
2.5
  9
$DIMTSZ
 40
0.0
  9
$DIMTOL
 70
     0
  9
$DIMLIM
 70
     0
  9
$DIMTIH
 70
     0
  9
$DIMTOH
 70
     0
  9
$DIMSE1
 70
     0
  9
$DIMSE2
 70
     0
  9
$DIMTAD
 70
     1
  9
$DIMZIN
 70
     8
  9
$DIMBLK
  1

  9
$DIMASO
 70
     1
  9
$DIMSHO
 70
     1
  9
$DIMPOST
  1

  9
$DIMAPOST
  1

  9
$DIMALT
 70
     0
  9
$DIMALTD
 70
     3
  9
$DIMALTF
 40
0.03937
  9
$DIMLFAC
 40
1.0
  9
$DIMTOFL
 70
     1
  9
$DIMTVP
 40
0.0
  9
$DIMTIX
 70
     0
  9
$DIMSOXD
 70
     0
  9
$DIMSAH
 70
     0
  9
$DIMBLK1
  1

  9
$DIMBLK2
  1

  9
$DIMSTYLE
  2

  9
$DIMCLRD
 70
     0
  9
$DIMCLRE
 70
     0
  9
$DIMCLRT
 70
     0
  9
$DIMTFAC
 40
1.0
  9
$DIMGAP
 40
0.625
  9
$DIMJUST
 70
     0
  9
$DIMSD1
 70
     0
  9
$DIMSD2
 70
     0
  9
$DIMTOLJ
 70
     0
  9
$DIMTZIN
 70
     8
  9
$DIMALTZ
 70
     0
  9
$DIMALTTZ
 70
     0
  9
$DIMUPT
 70
     0
  9
$DIMDEC
 70
     2
  9
$DIMTDEC
 70
     2
  9
$DIMALTU
 70
     2
  9
$DIMALTTD
 70
     3
  9
$DIMTXSTY
  7
Standard
  9
$DIMAUNIT
 70
     0
  9
$DIMADEC
 70
     0
  9
$DIMALTRND
 40
0.0
  9
$DIMAZIN
 70
     0
  9
$DIMDSEP
 70
    44
  9
$DIMATFIT
 70
     0
  9
$DIMFRAC
 70
     0
  9
$DIMLDRBLK
  1

  9
$DIMLUNIT
 70
     2
  9
$DIMLWD
 70
    -2
  9
$DIMLWE
 70
    -2
  9
$DIMTMOVE
 70
     0
  9
$LUNITS
 70
     2
  9
$LUPREC
 70
     4
  9
$SKETCHINC
 40
1.0
  9
$FILLETRAD
 40
2.5
  9
$AUNITS
 70
     0
  9
$AUPREC
 70
     0
  9
$MENU
  1
.
  9
$ELEVATION
 40
0.0
  9
$PELEVATION
 40
0.0
  9
$THICKNESS
 40
0.0
  9
$LIMCHECK
 70
     0
  9
$CHAMFERA
 40
2.5
  9
$CHAMFERB
 40
2.5
  9
$CHAMFERC
 40
0.0
  9
$CHAMFERD
 40
0.0
  9
$SKPOLY
 70
     0
  9
$TDCREATE
 40
0.000000000
  9
$TDUCREATE
 40
0.000000000
  9
$TDUPDATE
 40
0.000000000
  9
$TDUUPDATE
 40
0.000000000
  9
$TDINDWG
 40
0.0000000000
  9
$TDUSRTIMER
 40
0.0000000000
  9
$USRTIMER
 70
     1
  9
$ANGBASE
 50
0.0
  9
$ANGDIR
 70
     0
  9
$PDMODE
 70
     0
  9
$PDSIZE
 40
0.0
  9
$PLINEWID
 40
0.0
  9
$SPLFRAME
 70
     0
  9
$SPLINETYPE
 70
     6
  9
$SPLINESEGS
 70
     8
  9
$HANDSEED
  5
51B
  9
$SURFTAB1
 70
     6
  9
$SURFTAB2
 70
     6
  9
$SURFTYPE
 70
     6
  9
$SURFU
 70
     6
  9
$SURFV
 70
     6
  9
$UCSBASE
  2

  9
$UCSNAME
  2

  9
$UCSORG
 10
0.0
 20
0.0
 30
0.0
  9
$UCSXDIR
 10
1.0
 20
0.0
 30
0.0
  9
$UCSYDIR
 10
0.0
 20
1.0
 30
0.0
  9
$UCSORTHOREF
  2

  9
$UCSORTHOVIEW
 70
     1
  9
$UCSORGTOP
 10
0.0
 20
0.0
 30
0.0
  9
$UCSORGBOTTOM
 10
0.0
 20
0.0
 30
0.0
  9
$UCSORGLEFT
 10
0.0
 20
0.0
 30
0.0
  9
$UCSORGRIGHT
 10
0.0
 20
0.0
 30
0.0
  9
$UCSORGFRONT
 10
0.0
 20
0.0
 30
0.0
  9
$UCSORGBACK
 10
0.0
 20
0.0
 30
0.0
  9
$PUCSBASE
  2

  9
$PUCSNAME
  2

  9
$PUCSORG
 10
0.0
 20
0.0
 30
0.0
  9
$PUCSXDIR
 10
1.0
 20
0.0
 30
0.0
  9
$PUCSYDIR
 10
0.0
 20
1.0
 30
0.0
  9
$PUCSORTHOREF
  2

  9
$PUCSORTHOVIEW
 70
     0
  9
$PUCSORGTOP
 10
0.0
 20
0.0
 30
0.0
  9
$PUCSORGBOTTOM
 10
0.0
 20
0.0
 30
0.0
  9
$PUCSORGLEFT
 10
0.0
 20
0.0
 30
0.0
  9
$PUCSORGRIGHT
 10
0.0
 20
0.0
 30
0.0
  9
$PUCSORGFRONT
 10
0.0
 20
0.0
 30
0.0
  9
$PUCSORGBACK
 10
0.0
 20
0.0
 30
0.0
  9
$USERI1
 70
     0
  9
$USERI2
 70
     0
  9
$USERI3
 70
     0
  9
$USERI4
 70
     0
  9
$USERI5
 70
     0
  9
$USERR1
 40
0.0
  9
$USERR2
 40
0.0
  9
$USERR3
 40
0.0
  9
$USERR4
 40
0.0
  9
$USERR5
 40
0.0
  9
$WORLDVIEW
 70
     1
  9
$SHADEDGE
 70
     3
  9
$SHADEDIF
 70
    70
  9
$TILEMODE
 70
     1
  9
$MAXACTVP
 70
    48
  9
$PINSBASE
 10
0.0
 20
0.0
 30
0.0
  9
$PLIMCHECK
 70
     0
  9
$PEXTMIN
 10
0.0
 20
0.0
 30
0.0
  9
$PEXTMAX
 10
1464.0625
 20
459.5
 30
2.0
  9
$PLIMMIN
 10
0.0
 20
0.0
  9
$PLIMMAX
 10
420.0
 20
297.0
  9
$UNITMODE
 70
     0
  9
$VISRETAIN
 70
     0
  9
$PLINEGEN
 70
     0
  9
$PSLTSCALE
 70
     1
  9
$TREEDEPTH
 70
  3020
  9
$CMLSTYLE
  2
Standard
  9
$CMLJUST
 70
     0
  9
$CMLSCALE
 40
20.0
  9
$PROXYGRAPHICS
 70
     1
  9
$MEASUREMENT
 70
     1
  9
$CELWEIGHT
370
    -1
  9
$ENDCAPS
280
     0
  9
$JOINSTYLE
280
     0
  9
$LWDISPLAY
290
     0
  9
$INSUNITS
 70
     0
  9
$HYPERLINKBASE
  1

  9
$STYLESHEET
  1

  9
$XEDIT
290
     1
  9
$CEPSNTYPE
380
     0
  9
$PSTYLEMODE
290
     0
  9
$FINGERPRINTGUID
  2

  9
$VERSIONGUID
  2

  9
$EXTNAMES
290
     0
  9
$PSVPSCALE
 40
0.0
  0
ENDSEC
  0
SECTION
  2
CLASSES
  0
CLASS
  1
LWPOLYLINE
  2
AcDbPolyline
  3
AutoCAD 2000
 90
        0
280
     0
281
     1
  0
CLASS
  1
IMAGE
  2
AcDbRasterImage
  3
ISM
 90
      127
280
     0
281
     1
  0
CLASS
  1
OLE2FRAME
  2
AcDbOle2Frame
  3
AutoCAD 2000
 90
        0
280
     0
281
     1
  0
CLASS
  1
HATCH
  2
AcDbHatch
  3
AutoCAD 2000
 90
        0
280
     0
281
     1
  0
CLASS
  1
DICTIONARYVAR
  2
AcDbDictionaryVar
  3
AutoCAD 2000
 90
        0
280
     0
281
     0
  0
CLASS
  1
RASTERVARIABLES
  2
AcDbRasterVariables
  3
ISM
 90
        0
280
     0
281
     0
  0
CLASS
  1
IMAGEDEF
  2
AcDbRasterImageDef
  3
ISM
 90
        0
280
     0
281
     0
  0
CLASS
  1
IMAGEDEF_REACTOR
  2
AcDbRasterImageDefReactor
  3
ISM
 90
        1
280
     0
281
     0
  0
CLASS
  1
IDBUFFER
  2
AcDbIdBuffer
  3
AutoCAD 2000
 90
        0
280
     0
281
     0
  0
CLASS
  1
SPATIAL_FILTER
  2
AcDbSpatialFilter
  3
AutoCAD 2000
 90
        0
280
     0
281
     0
  0
CLASS
  1
XRECORD
  2
AcDbXrecord
  3
AutoCAD 2000
 90
        0
280
     0
281
     0
  0
CLASS
  1
SORTENTSTABLE
  2
AcDbSortentsTable
  3
AutoCAD 2000
 90
        0
280
     0
281
     0
  0
CLASS
  1
LAYER_INDEX
  2
AcDbLayerIndex
  3
AutoCAD 2000
 90
        0
280
     0
281
     0
  0
CLASS
  1
SPATIAL_INDEX
  2
AcDbSpatialIndex
  3
AutoCAD 2000
 90
        0
280
     0
281
     0
  0
CLASS
  1
OBJECT_PTR
  2
CAseDLPNTableRecord
  3
"ASE-LPNTableRecord"
 90
        1
280
     0
281
     0
  0
CLASS
  1
LAYOUT
  2
AcDbLayout
  3
AutoCAD 2000
 90
        0
280
     0
281
     0
  0
CLASS
  1
PLOTSETTINGS
  2
AcDbPlotSettings
  3
AutoCAD 2000
 90
        0
280
     0
281
     0
  0
CLASS
  1
ACDBDICTIONARYWDFLT
  2
AcDbDictionaryWithDefault
  3
AutoCAD 2000
 90
        0
280
     0
281
     0
  0
CLASS
  1
ACDBPLACEHOLDER
  2
AcDbPlaceHolder
  3
AutoCAD 2000
 90
        0
280
     0
281
     0
  0
CLASS
  1
VBA_PROJECT
  2
AcDbVbaProject
  3
acadvba
 90
        0
280
     0
281
     0
  0
CLASS
  1
WIPEOUT
  2
AcDbWipeout
  3
WipeOut|AutoCAD Express Tool|expresstools@autodesk.com
 90
      127
280
     0
281
     1
  0
CLASS
  1
WIPEOUTVARIABLES
  2
AcDbWipeoutVariables
  3
WipeOut|AutoCAD Express Tool|expresstools@autodesk.com
 90
        0
280
     0
281
     0
  0
CLASS
  1
RTEXT
  2
RText
  3
RText|AutoCAD Express Tool|expresstools@autodesk.com
 90
        0
280
     0
281
     1
  0
CLASS
  1
ARCALIGNEDTEXT
  2
AcDbArcAlignedText
  3
ATEXT|AutoCAD Express Tool|expresstools@autodesk.com
 90
        0
280
     0
281
     1
  0
ENDSEC
  0
SECTION
  2
TABLES
  0
TABLE
  2
VPORT
  5
7
100
AcDbSymbolTable
 70
     1
  0
VPORT
  5
15
100
AcDbSymbolTableRecord
100
AcDbViewportTableRecord
  2
*ACTIVE
 70
     0
 10
0.0
 20
0.0
 11
1.0
 21
1.0
 12
6.591288
 22
4.579184
 13
0.0
 23
0.0
 14
1.0
 24
1.0
 15
0.0
 25
0.0
 16
0.0
 26
0.0
 36
1.0
 17
0.0
 27
0.0
 37
0.0
 40
9.158369
 41
0.688564
 42
50.0
 43
0.0
 44
0.0
 50
0.0
 51
0.0
 71
     0
 72
   100
 73
     1
 74
     1
 75
     0
 76
     0
 77
     0
 78
     0
281
     0
 65
     0
110
0.0
120
0.0
130
0.0
111
1.0
121
0.0
131
0.0
112
0.0
122
1.0
132
0.0
345
0
346
0
 79
     0
146
0.0
  0
ENDTAB
  0
TABLE
  2
LTYPE
  5
4
100
AcDbSymbolTable
 70
     3
  0
LTYPE
  5
11
100
AcDbSymbolTableRecord
100
AcDbLinetypeTableRecord
  2
ByBlock
 70
    64
  3

 72
    65
 73
     0
 40
0.0
  0
LTYPE
  5
12
100
AcDbSymbolTableRecord
100
AcDbLinetypeTableRecord
  2
ByLayer
 70
    64
  3

 72
    65
 73
     0
 40
0.0
  0
LTYPE
  5
13
100
AcDbSymbolTableRecord
100
AcDbLinetypeTableRecord
  2
Continuous
 70
    64
  3
Solid line
 72
    65
 73
     0
 40
0.0
  0
ENDTAB
  0
TABLE
  2
LAYER
  5
2
100
AcDbSymbolTable
 70
     1
  0
LAYER
  5
14
100
AcDbSymbolTableRecord
100
AcDbLayerTableRecord
  2
0
 70
     0
 62
     7
  6
Continuous
290
     1
370
    -3
390
1D
  0
ENDTAB
  0
TABLE
  2
STYLE
  5
3
100
AcDbSymbolTable
 70
     1
  0
STYLE
  5
17
100
AcDbSymbolTableRecord
100
AcDbTextStyleTableRecord
  2
Standard
 70
     0
 40
0.0
 41
1.0
 50
0.0
 71
     0
 42
0.0
  3
txt
  4

  0
ENDTAB
  0
TABLE
  2
VIEW
  5
5
100
AcDbSymbolTable
 70
     0
  0
ENDTAB
  0
TABLE
  2
UCS
  5
6
100
AcDbSymbolTable
 70
     0
  0
ENDTAB
  0
TABLE
  2
APPID
  5
8
100
AcDbSymbolTable
 70
     1
  0
APPID
  5
16
100
AcDbSymbolTableRecord
100
AcDbRegAppTableRecord
  2
ACAD
 70
     0
  0
ENDTAB
  0
TABLE
  2
DIMSTYLE
  5
9
100
AcDbSymbolTable
 70
     1
100
AcDbDimStyleTable
 71
     0
  0
DIMSTYLE
105
18
100
AcDbSymbolTableRecord
100
AcDbDimStyleTableRecord
  2
Standard
 70
     0
  3

  4

 40
1.0
 41
0.18
 42
0.0625
 43
0.38
 44
0.18
 45
0.0
 46
0.0
 47
0.0
 48
0.0
 71
     0
 72
     0
 73
     1
 74
     1
 75
     0
 76
     0
 77
     0
 78
     0
 79
     0
140
0.18
141
0.09
142
0.0
143
25.4
144
1.0
145
0.0
146
1.0
147
0.09
148
0.0
170
     0
171
     2
172
     0
173
     0
174
     0
175
     0
176
     0
177
     0
178
     0
179
     0
271
     4
272
     4
273
     2
274
     2
275
     0
276
     0
277
     2
278
    46
279
     0
280
     0
281
     0
282
     0
283
     1
284
     0
285
     0
286
     0
288
     0
289
     3
340
17
341
0
342
0
343
0
344
0
371
    -2
372
    -2
  0
ENDTAB
  0
TABLE
  2
BLOCK_RECORD
  5
1
100
AcDbSymbolTable
 70
     0
  0
BLOCK_RECORD
  5
A
100
AcDbSymbolTableRecord
100
AcDbBlockTableRecord
  2
*MODEL_SPACE
340
20
  0
BLOCK_RECORD
  5
B
100
AcDbSymbolTableRecord
100
AcDbBlockTableRecord
  2
*PAPER_SPACE
340
21
  0
ENDTAB
  0
ENDSEC
  0
SECTION
  2
BLOCKS
  0
BLOCK
  5
D
100
AcDbEntity
  8
0
390
0
100
AcDbBlockBegin
  2
*MODEL_SPACE
 70
     0
 10
0.0
 20
0.0
 30
0.0
  3
*MODEL_SPACE
  1

  0
ENDBLK
  5
E
100
AcDbEntity
  8
0
390
0
100
AcDbBlockEnd
  0
BLOCK
  5
F
100
AcDbEntity
 67
     1
  8
0
390
0
100
AcDbBlockBegin
  2
*PAPER_SPACE
 70
     0
 10
0.0
 20
0.0
 30
0.0
  3
*PAPER_SPACE
  1

  0
ENDBLK
  5
10
100
AcDbEntity
 67
     1
  8
0
390
0
100
AcDbBlockEnd
  0
ENDSEC
  0
SECTION
  2
ENTITIES
  0
VIEWPORT
  5
51A
100
AcDbEntity
 67
     1
  8
0
370
     0
390
0
 62
     0
 48
0.0
100
AcDbViewport
 10
0.0
 20
0.0
 30
0.0
 40
1000.0
 41
1000.0
 68
     1
 69
     1
 12
0.0
 22
0.0
 13
0.0
 23
0.0
 14
1.0
 24
1.0
 15
1.0
 25
1.0
 16
0.0
 26
0.0
 36
1.0
 17
0.0
 27
0.0
 37
0.0
 42
50.0
 43
0.0
 44
0.0
 45
1000.0
 50
0.0
 51
0.0
 72
   100
 90
        0
340
0
  1

281
     0
 71
     0
 74
     1
110
0.0
120
0.0
130
0.0
111
1.0
121
0.0
131
0.0
112
0.0
122
1.0
132
0.0
345
0
346
0
 79
     0
146
0.0
  0
ARC
  5
24
100
AcDbEntity
  8
0
370
    35
390
0
 62
     7
100
AcDbCircle
 10
-156.137711
 20
401.099976
 30
0.0
 40
0.2
210
0.0
220
0.0
230
1.0
100
AcDbArc
 50
269.999997
 51
20.37644
  0
LINE
  5
25
100
AcDbEntity
  8
0
370
    35
390
0
 62
     7
 48
0.093341
100
AcDbLine
 10
-155.950226
 20
401.169617
 30
0.0
 11
-157.250229
 21
404.669617
 31
0.0
210
0.0
220
0.0
230
1.0
  0
ARC
  5
26
100
AcDbEntity
  8
0
370
    35
390
0
 62
     7
100
AcDbCircle
 10
-157.437714
 20
404.599976
 30
0.0
 40
0.2
210
0.0
220
0.0
230
1.0
100
AcDbArc
 50
20.37644
 51
159.623556
  0
LINE
  5
27
100
AcDbEntity
  8
0
370
    35
390
0
 62
     7
 48
0.093341
100
AcDbLine
 10
-158.925186
 20
401.169617
 30
0.0
 11
-157.625198
 21
404.669617
 31
0.0
210
0.0
220
0.0
230
1.0
  0
ARC
  5
28
100
AcDbEntity
  8
0
370
    35
390
0
 62
     7
100
AcDbCircle
 10
-158.737717
 20
401.099976
 30
0.0
 40
0.2
210
0.0
220
0.0
230
1.0
100
AcDbArc
 50
159.623556
 51
269.999997
  0
LINE
  5
29
100
AcDbEntity
  8
0
370
    35
390
0
 62
     7
 48
0.065
100
AcDbLine
 10
-158.737717
 20
400.900024
 30
0.0
 11
-156.137711
 21
400.900024
 31
0.0
210
0.0
220
0.0
230
1.0
  0
LINE
  5
2A
100
AcDbEntity
  8
0
370
    35
390
0
 62
     7
 48
0.000026
100
AcDbLine
 10
-234.251175
 20
455.500549
 30
0.0
 11
-234.251175
 21
455.499512
 31
0.0
210
0.0
220
0.0
230
1.0
  0
LINE
  5
2B
100
AcDbEntity
  8
0
370
    35
390
0
 62
     7
 48
0.125
100
AcDbLine
 10
-204.937714
 20
409.0
 30
0.0
 11
-199.937714
 21
409.0
 31
0.0
210
0.0
220
0.0
230
1.0
  0
LINE
  5
2C
100
AcDbEntity
  8
0
370
    35
390
0
 62
     7
 48
0.045
100
AcDbLine
 10
-199.937714
 20
409.0
 30
0.0
 11
-198.137711
 21
409.0
 31
0.0
210
0.0
220
0.0
230
1.0
  0
LINE
  5
2D
100
AcDbEntity
  8
0
370
    35
390
0
 62
     7
 48
0.0175
100
AcDbLine
 10
-198.137711
 20
409.0
 30
0.0
 11
-197.437714
 21
409.0
 31
0.0
210
0.0
220
0.0
230
1.0
  0
ARC
  5
2E
100
AcDbEntity
  8
0
370
    35
390
0
 62
     7
100
AcDbCircle
 10
-198.137711
 20
408.5
 30
0.0
 40
0.5
210
0.0
220
0.0
230
1.0
100
AcDbArc
 50
0.0
 51
90.000003
  0
ARC
  5
2F
100
AcDbEntity
  8
0
370
    35
390
0
 62
     7
100
AcDbCircle
 10
-204.937714
 20
408.5
 30
0.0
 40
0.5
210
0.0
220
0.0
230
1.0
100
AcDbArc
 50
90.000003
 51
179.999991
  0
ARC
  5
30
100
AcDbEntity
  8
0
370
    35
390
0
 62
     7
100
AcDbCircle
 10
-101.437714
 20
408.5
 30
0.0
 40
0.5
210
0.0
220
0.0
230
1.0
100
AcDbArc
 50
0.0
 51
90.000003
  0
LINE
  5
31
100
AcDbEntity
  8
0
370
    35
390
0
 62
     7
 48
0.0375
100
AcDbLine
 10
-197.437714
 20
409.0
 30
0.0
 11
-197.437714
 21
407.5
 31
0.0
210
0.0
220
0.0
230
1.0
  0
LINE
  5
32
100
AcDbEntity
  8
0
370
    35
390
0
 62
     7
 48
0.0125
100
AcDbLine
 10
-197.437714
 20
409.5
 30
0.0
 11
-197.437714
 21
409.0
 31
0.0
210
0.0
220
0.0
230
1.0
  0
LINE
  5
33
100
AcDbEntity
  8
0
370
    35
390
0
 62
     7
 48
0.0125
100
AcDbLine
 10
-197.437714
 20
410.0
 30
0.0
 11
-197.437714
 21
409.5
 31
0.0
210
0.0
220
0.0
230
1.0
  0
LINE
  5
34
100
AcDbEntity
  8
0
370
    35
390
0
 62
     7
 48
0.025
100
AcDbLine
 10
-197.437714
 20
411.0
 30
0.0
 11
-197.437714
 21
410.0
 31
0.0
210
0.0
220
0.0
230
1.0
  0
LINE
  5
35
100
AcDbEntity
  8
0
370
    35
390
0
 62
     7
 48
0.0175
100
AcDbLine
 10
-193.437714
 20
409.0
 30
0.0
 11
-192.737717
 21
409.0
 31
0.0
210
0.0
220
0.0
230
1.0
  0
LINE
  5
36
100
AcDbEntity
  8
0
370
    35
390
0
 62
     7
 48
0.025
100
AcDbLine
 10
-197.637711
 20
408.5
 30
0.0
 11
-197.637711
 21
407.5
 31
0.0
210
0.0
220
0.0
230
1.0
  0
LINE
  5
37
100
AcDbEntity
  8
0
370
    35
390
0
 62
     7
 48
0.039999
100
AcDbLine
 10
-194.437714
 20
382.0
 30
0.0
 11
-194.437714
 21
383.599976
 31
0.0
210
0.0
220
0.0
230
1.0
  0
LINE
  5
38
100
AcDbEntity
  8
0
370
    35
390
0
 62
     7
 48
0.1375
100
AcDbLine
 10
-194.437714
 20
382.0
 30
0.0
 11
-199.937714
 21
382.0
 31
0.0
210
0.0
220
0.0
230
1.0
  0
LINE
  5
39
100
AcDbEntity
  8
0
370
    35
390
0
 62
     7
100
AcDbLine
 10
-178.437714
 20
388.700012
 30
0.0
 11
-136.437714
 21
388.700012
 31
0.0
210
0.0
220
0.0
230
1.0
  0
LINE
  5
3A
100
AcDbEntity
  8
0
370
    35
390
0
 62
     7
100
AcDbLine
 10
-178.437714
 20
408.299988
 30
0.0
 11
-136.437714
 21
408.299988
 31
0.0
210
0.0
220
0.0
230
1.0
  0
LINE
  5
3B
100
AcDbEntity
  8
0
370
    35
390
0
 62
     7
 48
0.2375
100
AcDbLine
 10
-114.937714
 20
382.0
 30
0.0
 11
-124.437714
 21
382.0
 31
0.0
210
0.0
220
0.0
230
1.0
  0
LINE
  5
3C
100
AcDbEntity
  8
0
370
    35
390
0
 62
     7
 48
0.039999
100
AcDbLine
 10
-124.437714
 20
382.0
 30
0.0
 11
-124.437714
 21
383.599976
 31
0.0
210
0.0
220
0.0
230
1.0
  0
ARC
  5
3D
100
AcDbEntity
  8
0
370
    35
390
0
 62
     7
100
AcDbCircle
 10
-124.737717
 20
383.599976
 30
0.0
 40
0.3
210
0.0
220
0.0
230
1.0
100
AcDbArc
 50
0.0
 51
90.000003
  0
LINE
  5
3E
100
AcDbEntity
  8
0
370
    35
390
0
 62
     7
 48
0.0175
100
AcDbLine
 10
-125.437714
 20
383.900024
 30
0.0
 11
-124.737717
 21
383.900024
 31
0.0
210
0.0
220
0.0
230
1.0
  0
LINE
  5
3F
100
AcDbEntity
  8
0
370
    35
390
0
 62
     7
 48
0.0125
100
AcDbLine
 10
-125.937714
 20
384.299988
 30
0.0
 11
-125.437714
 21
384.299988
 31
0.0
210
0.0
220
0.0
230
1.0
  0
LINE
  5
40
100
AcDbEntity
  8
0
370
    35
390
0
 62
     7
 48
0.3375
100
AcDbLine
 10
-139.437714
 20
384.299988
 30
0.0
 11
-125.937714
 21
384.299988
 31
0.0
210
0.0
220
0.0
230
1.0
  0
ARC
  5
41
100
AcDbEntity
  8
0
370
    35
390
0
 62
     7
100
AcDbCircle
 10
-141.937714
 20
384.299988
 30
0.0
 40
2.5
210
0.0
220
0.0
230
1.0
100
AcDbArc
 50
0.0
 51
90.000003
  0
LINE
  5
42
100
AcDbEntity
  8
0
370
    35
390
0
 62
     7
100
AcDbLine
 10
-172.937714
 20
386.799988
 30
0.0
 11
-141.937714
 21
386.799988
 31
0.0
210
0.0
220
0.0
230
1.0
  0
ARC
  5
43
100
AcDbEntity
  8
0
370
    35
390
0
 62
     7
100
AcDbCircle
 10
-172.937714
 20
384.299988
 30
0.0
 40
2.5
210
0.0
220
0.0
230
1.0
100
AcDbArc
 50
90.000003
 51
179.999991
  0
LINE
  5
44
100
AcDbEntity
  8
0
370
    35
390
0
 62
     7
 48
0.4375
100
AcDbLine
 10
-192.937714
 20
384.299988
 30
0.0
 11
-175.437714
 21
384.299988
 31
0.0
210
0.0
220
0.0
230
1.0
  0
LINE
  5
45
100
AcDbEntity
  8
0
370
    35
390
0
 62
     7
 48
0.0125
100
AcDbLine
 10
-193.437714
 20
384.299988
 30
0.0
 11
-192.937714
 21
384.299988
 31
0.0
210
0.0
220
0.0
230
1.0
  0
LINE
  5
46
100
AcDbEntity
  8
0
370
    35
390
0
 62
     7
 48
0.0175
100
AcDbLine
 10
-194.137711
 20
383.900024
 30
0.0
 11
-193.437714
 21
383.900024
 31
0.0
210
0.0
220
0.0
230
1.0
  0
ARC
  5
47
100
AcDbEntity
  8
0
370
    35
390
0
 62
     7
100
AcDbCircle
 10
-194.137711
 20
383.599976
 30
0.0
 40
0.3
210
0.0
220
0.0
230
1.0
100
AcDbArc
 50
90.000003
 51
179.999991
  0
LINE
  5
48
100
AcDbEntity
  8
0
370
    35
390
0
 62
     7
 48
0.044379
100
AcDbLine
 10
-205.437714
 20
406.724854
 30
0.0
 11
-205.437714
 21
408.5
 31
0.0
210
0.0
220
0.0
230
1.0
  0
LINE
  5
49
100
AcDbEntity
  8
0
370
    35
390
0
 62
     7
 48
0.010001
100
AcDbLine
 10
-200.437714
 20
409.0
 30
0.0
 11
-200.437714
 21
409.400024
 31
0.0
210
0.0
220
0.0
230
1.0
  0
LINE
  5
4A
100
AcDbEntity
  8
0
370
    35
390
0
 62
     7
 48
0.0125
100
AcDbLine
 10
-200.437714
 20
409.900024
 30
0.0
 11
-200.437714
 21
409.400024
 31
0.0
210
0.0
220
0.0
230
1.0
  0
LINE
  5
4B
100
AcDbEntity
  8
0
370
    35
390
0
 62
     7
 48
0.0375
100
AcDbLine
 10
-100.937714
 20
411.0
 30
0.0
 11
-100.937714
 21
409.5
 31
0.0
210
0.0
220
0.0
230
1.0
  0
LINE
  5
4C
100
AcDbEntity
  8
0
370
    35
390
0
 62
     7
 48
0.025
100
AcDbLine
 10
-100.937714
 20
409.5
 30
0.0
 11
-100.937714
 21
408.5
 31
0.0
210
0.0
220
0.0
230
1.0
  0
LINE
  5
4D
100
AcDbEntity
  8
0
370
    35
390
0
 62
     7
 48
0.02
100
AcDbLine
 10
-100.937714
 20
407.700012
 30
0.0
 11
-100.937714
 21
408.5
 31
0.0
210
0.0
220
0.0
230
1.0
  0
LINE
  5
4E
100
AcDbEntity
  8
0
370
    35
390
0
 62
     7
 48
0.0125
100
AcDbLine
 10
-101.437714
 20
409.0
 30
0.0
 11
-100.937714
 21
409.0
 31
0.0
210
0.0
220
0.0
230
1.0
  0
LINE
  5
4F
100
AcDbEntity
  8
0
370
    35
390
0
 62
     7
 48
0.3125
100
AcDbLine
 10
-113.937714
 20
409.0
 30
0.0
 11
-101.437714
 21
409.0
 31
0.0
210
0.0
220
0.0
230
1.0
  0
LINE
  5
50
100
AcDbEntity
  8
0
370
    35
390
0
 62
     7
 48
0.025
100
AcDbLine
 10
-100.937714
 20
411.0
 30
0.0
 11
-100.937714
 21
410.0
 31
0.0
210
0.0
220
0.0
230
1.0
  0
LINE
  5
51
100
AcDbEntity
  8
0
370
    35
390
0
 62
     7
 48
0.0125
100
AcDbLine
 10
-100.937714
 20
409.5
 30
0.0
 11
-100.937714
 21
409.0
 31
0.0
210
0.0
220
0.0
230
1.0
  0
LINE
  5
52
100
AcDbEntity
  8
0
370
    35
390
0
 62
     7
 48
0.0125
100
AcDbLine
 10
-100.937714
 20
410.0
 30
0.0
 11
-100.937714
 21
409.5
 31
0.0
210
0.0
220
0.0
230
1.0
  0
ARC
  5
53
100
AcDbEntity
  8
0
370
    35
390
0
 62
     7
100
AcDbCircle
 10
-195.437714
 20
407.5
 30
0.0
 40
2.0
210
0.0
220
0.0
230
1.0
100
AcDbArc
 50
179.999991
 51
360.0
  0
LINE
  5
54
100
AcDbEntity
  8
0
370
    35
390
0
 62
     7
 48
0.0125
100
AcDbLine
 10
-114.437714
 20
409.0
 30
0.0
 11
-113.937714
 21
409.0
 31
0.0
210
0.0
220
0.0
230
1.0
  0
LINE
  5
55
100
AcDbEntity
  8
0
370
    35
390
0
 62
     7
 48
0.0125
100
AcDbLine
 10
-114.437714
 20
408.5
 30
0.0
 11
-114.437714
 21
409.0
 31
0.0
210
0.0
220
0.0
230
1.0
  0
LINE
  5
56
100
AcDbEntity
  8
0
370
    35
390
0
 62
     7
 48
0.005
100
AcDbLine
 10
-114.437714
 20
407.5
 30
0.0
 11
-114.437714
 21
407.700012
 31
0.0
210
0.0
220
0.0
230
1.0
  0
ARC
  5
57
100
AcDbEntity
  8
0
370
    35
390
0
 62
     7
100
AcDbCircle
 10
-116.437714
 20
407.5
 30
0.0
 40
2.0
210
0.0
220
0.0
230
1.0
100
AcDbArc
 50
179.999991
 51
360.0
  0
LINE
  5
58
100
AcDbEntity
  8
0
370
    35
390
0
 62
     7
 48
0.0375
100
AcDbLine
 10
-118.437714
 20
409.0
 30
0.0
 11
-118.437714
 21
407.5
 31
0.0
210
0.0
220
0.0
230
1.0
  0
LINE
  5
59
100
AcDbEntity
  8
0
370
    35
390
0
 62
     7
 48
0.0175
100
AcDbLine
 10
-119.137711
 20
409.0
 30
0.0
 11
-118.437714
 21
409.0
 31
0.0
210
0.0
220
0.0
230
1.0
  0
LINE
  5
5A
100
AcDbEntity
  8
0
370
    35
390
0
 62
     7
 48
0.0375
100
AcDbLine
 10
-193.437714
 20
407.5
 30
0.0
 11
-193.437714
 21
409.0
 31
0.0
210
0.0
220
0.0
230
1.0
  0
LINE
  5
5B
100
AcDbEntity
  8
0
370
    35
390
0
 62
     7
100
AcDbLine
 10
-197.437714
 20
410.0
 30
0.0
 11
-100.937714
 21
410.0
 31
0.0
210
0.0
220
0.0
230
1.0
  0
ARC
  5
5C
100
AcDbEntity
  8
0
370
    35
390
0
 62
     7
100
AcDbCircle
 10
-192.737717
 20
408.5
 30
0.0
 40
0.5
210
0.0
220
0.0
230
1.0
100
AcDbArc
 50
90.000003
 51
179.999991
  0
ARC
  5
5D
100
AcDbEntity
  8
0
370
    35
390
0
 62
     7
100
AcDbCircle
 10
-195.437714
 20
407.5
 30
0.0
 40
2.2
210
0.0
220
0.0
230
1.0
100
AcDbArc
 50
179.999991
 51
360.0
  0
LINE
  5
5E
100
AcDbEntity
  8
0
370
    35
390
0
 62
     7
 48
0.0125
100
AcDbLine
 10
-193.437714
 20
383.900024
 30
0.0
 11
-192.937714
 21
383.900024
 31
0.0
210
0.0
220
0.0
230
1.0
  0
LINE
  5
5F
100
AcDbEntity
  8
0
370
    35
390
0
 62
     7
 48
0.009999
100
AcDbLine
 10
-192.937714
 20
384.299988
 30
0.0
 11
-192.937714
 21
383.900024
 31
0.0
210
0.0
220
0.0
230
1.0
  0
LINE
  5
60
100
AcDbEntity
  8
0
370
    35
390
0
 62
     7
100
AcDbLine
 10
-175.437714
 20
384.299988
 30
0.0
 11
-139.437714
 21
384.299988
 31
0.0
210
0.0
220
0.0
230
1.0
  0
LINE
  5
61
100
AcDbEntity
  8
0
370
    35
390
0
 62
     7
 48
0.0125
100
AcDbLine
 10
-125.937714
 20
383.900024
 30
0.0
 11
-125.437714
 21
383.900024
 31
0.0
210
0.0
220
0.0
230
1.0
  0
LINE
  5
62
100
AcDbEntity
  8
0
370
    35
390
0
 62
     7
 48
0.009999
100
AcDbLine
 10
-125.937714
 20
384.299988
 30
0.0
 11
-125.937714
 21
383.900024
 31
0.0
210
0.0
220
0.0
230
1.0
  0
LINE
  5
63
100
AcDbEntity
  8
0
370
    35
390
0
 62
     7
 48
0.225
100
AcDbLine
 10
-114.937714
 20
381.5
 30
0.0
 11
-123.937714
 21
381.5
 31
0.0
210
0.0
220
0.0
230
1.0
  0
ARC
  5
64
100
AcDbEntity
  8
0
370
    35
390
0
 62
     7
100
AcDbCircle
 10
-123.937714
 20
382.0
 30
0.0
 40
0.5
210
0.0
220
0.0
230
1.0
100
AcDbArc
 50
179.999991
 51
269.999997
  0
LINE
  5
65
100
AcDbEntity
  8
0
370
    35
390
0
 62
     7
 48
0.0125
100
AcDbLine
 10
-114.937714
 20
382.0
 30
0.0
 11
-114.437714
 21
382.0
 31
0.0
210
0.0
220
0.0
230
1.0
  0
LINE
  5
66
100
AcDbEntity
  8
0
370
    35
390
0
 62
     7
 48
0.005
100
AcDbLine
 10
-114.437714
 20
382.0
 30
0.0
 11
-114.437714
 21
382.200012
 31
0.0
210
0.0
220
0.0
230
1.0
  0
LINE
  5
67
100
AcDbEntity
  8
0
370
    35
390
0
 62
     7
 48
0.1075
100
AcDbLine
 10
-109.937714
 20
382.400024
 30
0.0
 11
-114.237717
 21
382.400024
 31
0.0
210
0.0
220
0.0
230
1.0
  0
LINE
  5
68
100
AcDbEntity
  8
0
370
    35
390
0
 62
     7
 48
0.044377
100
AcDbLine
 10
-109.437714
 20
382.900024
 30
0.0
 11
-109.437714
 21
384.67511
 31
0.0
210
0.0
220
0.0
230
1.0
  0
ARC
  5
69
100
AcDbEntity
  8
0
370
    35
390
0
 62
     7
100
AcDbCircle
 10
-112.485672
 20
384.619019
 30
0.0
 40
3.049055
210
0.0
220
0.0
230
1.0
100
AcDbArc
 50
1.054896
 51
14.838094
  0
LINE
  5
6A
100
AcDbEntity
  8
0
370
    35
390
0
 62
     7
 48
0.109188
100
AcDbLine
 10
-109.937714
 20
385.599976
 30
0.0
 11
-114.305252
 21
385.599976
 31
0.0
210
0.0
220
0.0
230
1.0
  0
LINE
  5
6B
100
AcDbEntity
  8
0
370
    35
390
0
 62
     7
 48
0.002625
100
AcDbLine
 10
-114.437714
 20
385.741455
 30
0.0
 11
-114.437714
 21
385.846436
 31
0.0
210
0.0
220
0.0
230
1.0
  0
ARC
  5
6C
100
AcDbEntity
  8
0
370
    35
390
0
 62
     7
100
AcDbCircle
 10
-116.437714
 20
407.5
 30
0.0
 40
2.2
210
0.0
220
0.0
230
1.0
100
AcDbArc
 50
179.999991
 51
303.749004
  0
LINE
  5
6D
100
AcDbEntity
  8
0
370
    35
390
0
 62
     7
 48
0.025
100
AcDbLine
 10
-118.637711
 20
408.5
 30
0.0
 11
-118.637711
 21
407.5
 31
0.0
210
0.0
220
0.0
230
1.0
  0
LINE
  5
6E
100
AcDbEntity
  8
0
370
    35
390
0
 62
     7
100
AcDbLine
 10
-119.137711
 20
409.0
 30
0.0
 11
-192.737717
 21
409.0
 31
0.0
210
0.0
220
0.0
230
1.0
  0
LINE
  5
6F
100
AcDbEntity
  8
0
370
    35
390
0
 62
     7
 48
0.025
100
AcDbLine
 10
-193.237717
 20
407.5
 30
0.0
 11
-193.237717
 21
408.5
 31
0.0
210
0.0
220
0.0
230
1.0
  0
LINE
  5
70
100
AcDbEntity
  8
0
370
    35
390
0
 62
     7
 48
0.005
100
AcDbLine
 10
-192.737717
 20
407.299988
 30
0.0
 11
-192.737717
 21
407.5
 31
0.0
210
0.0
220
0.0
230
1.0
  0
ARC
  5
71
100
AcDbEntity
  8
0
370
    35
390
0
 62
     7
100
AcDbCircle
 10
-191.737717
 20
407.299988
 30
0.0
 40
1.0
210
0.0
220
0.0
230
1.0
100
AcDbArc
 50
90.000003
 51
179.999991
  0
LINE
  5
72
100
AcDbEntity
  8
0
370
    35
390
0
 62
     7
 48
0.3325
100
AcDbLine
 10
-191.737717
 20
408.299988
 30
0.0
 11
-178.437714
 21
408.299988
 31
0.0
210
0.0
220
0.0
230
1.0
  0
LINE
  5
73
100
AcDbEntity
  8
0
370
    35
390
0
 62
     7
 48
0.35
100
AcDbLine
 10
-136.437714
 20
408.299988
 30
0.0
 11
-122.437714
 21
408.299988
 31
0.0
210
0.0
220
0.0
230
1.0
  0
ARC
  5
74
100
AcDbEntity
  8
0
370
    35
390
0
 62
     7
100
AcDbCircle
 10
-122.437714
 20
405.299988
 30
0.0
 40
3.0
210
0.0
220
0.0
230
1.0
100
AcDbArc
 50
0.0
 51
90.000003
  0
LINE
  5
75
100
AcDbEntity
  8
0
370
    35
390
0
 62
     7
 48
0.339999
100
AcDbLine
 10
-119.437714
 20
391.700012
 30
0.0
 11
-119.437714
 21
405.299988
 31
0.0
210
0.0
220
0.0
230
1.0
  0
ARC
  5
76
100
AcDbEntity
  8
0
370
    35
390
0
 62
     7
100
AcDbCircle
 10
-122.437714
 20
391.700012
 30
0.0
 40
3.0
210
0.0
220
0.0
230
1.0
100
AcDbArc
 50
269.999997
 51
360.0
  0
LINE
  5
77
100
AcDbEntity
  8
0
370
    35
390
0
 62
     7
 48
0.35
100
AcDbLine
 10
-122.437714
 20
388.700012
 30
0.0
 11
-136.437714
 21
388.700012
 31
0.0
210
0.0
220
0.0
230
1.0
  0
LINE
  5
78
100
AcDbEntity
  8
0
370
    35
390
0
 62
     7
 48
0.35
100
AcDbLine
 10
-178.437714
 20
388.700012
 30
0.0
 11
-192.437714
 21
388.700012
 31
0.0
210
0.0
220
0.0
230
1.0
  0
ARC
  5
79
100
AcDbEntity
  8
0
370
    35
390
0
 62
     7
100
AcDbCircle
 10
-192.437714
 20
391.700012
 30
0.0
 40
3.0
210
0.0
220
0.0
230
1.0
100
AcDbArc
 50
179.999991
 51
269.999997
  0
LINE
  5
7A
100
AcDbEntity
  8
0
370
    35
390
0
 62
     7
 48
0.305943
100
AcDbLine
 10
-195.437714
 20
403.937744
 30
0.0
 11
-195.437714
 21
391.700012
 31
0.0
210
0.0
220
0.0
230
1.0
  0
ARC
  5
7B
100
AcDbEntity
  8
0
370
    35
390
0
 62
     7
100
AcDbCircle
 10
-194.437714
 20
403.937744
 30
0.0
 40
1.0
210
0.0
220
0.0
230
1.0
100
AcDbArc
 50
105.680348
 51
179.999991
  0
ARC
  5
7C
100
AcDbEntity
  8
0
370
    35
390
0
 62
     7
100
AcDbCircle
 10
-202.389755
 20
406.781006
 30
0.0
 40
3.049055
210
0.0
220
0.0
230
1.0
100
AcDbArc
 50
181.05489
 51
194.838089
  0
LINE
  5
7D
100
AcDbEntity
  8
0
370
    35
390
0
 62
     7
 48
0.109188
100
AcDbLine
 10
-200.570175
 20
405.799988
 30
0.0
 11
-204.937714
 21
405.799988
 31
0.0
210
0.0
220
0.0
230
1.0
  0
LINE
  5
7E
100
AcDbEntity
  8
0
370
    35
390
0
 62
     7
 48
0.007506
100
AcDbLine
 10
-200.437714
 20
385.741455
 30
0.0
 11
-200.437714
 21
386.041687
 31
0.0
210
0.0
220
0.0
230
1.0
  0
LINE
  5
7F
100
AcDbEntity
  8
0
370
    35
390
0
 62
     7
 48
0.109188
100
AcDbLine
 10
-200.570175
 20
385.599976
 30
0.0
 11
-204.937714
 21
385.599976
 31
0.0
210
0.0
220
0.0
230
1.0
  0
ARC
  5
80
100
AcDbEntity
  8
0
370
    35
390
0
 62
     7
100
AcDbCircle
 10
-202.388565
 20
384.618347
 30
0.0
 40
3.050319
210
0.0
220
0.0
230
1.0
100
AcDbArc
 50
165.155408
 51
178.932897
  0
LINE
  5
81
100
AcDbEntity
  8
0
370
    35
390
0
 62
     7
 48
0.044377
100
AcDbLine
 10
-205.437714
 20
382.900024
 30
0.0
 11
-205.437714
 21
384.67511
 31
0.0
210
0.0
220
0.0
230
1.0
  0
LINE
  5
82
100
AcDbEntity
  8
0
370
    35
390
0
 62
     7
 48
0.1075
100
AcDbLine
 10
-200.637711
 20
382.400024
 30
0.0
 11
-204.937714
 21
382.400024
 31
0.0
210
0.0
220
0.0
230
1.0
  0
LINE
  5
83
100
AcDbEntity
  8
0
370
    35
390
0
 62
     7
 48
0.005
100
AcDbLine
 10
-200.437714
 20
382.0
 30
0.0
 11
-200.437714
 21
382.200012
 31
0.0
210
0.0
220
0.0
230
1.0
  0
LINE
  5
84
100
AcDbEntity
  8
0
370
    35
390
0
 62
     7
 48
0.0125
100
AcDbLine
 10
-200.437714
 20
382.0
 30
0.0
 11
-199.937714
 21
382.0
 31
0.0
210
0.0
220
0.0
230
1.0
  0
LINE
  5
85
100
AcDbEntity
  8
0
370
    35
390
0
 62
     7
 48
0.125
100
AcDbLine
 10
-194.937714
 20
381.5
 30
0.0
 11
-199.937714
 21
381.5
 31
0.0
210
0.0
220
0.0
230
1.0
  0
ARC
  5
86
100
AcDbEntity
  8
0
370
    35
390
0
 62
     7
100
AcDbCircle
 10
-194.937714
 20
382.0
 30
0.0
 40
0.5
210
0.0
220
0.0
230
1.0
100
AcDbArc
 50
269.999997
 51
360.0
  0
LINE
  5
87
100
AcDbEntity
  8
0
370
    35
390
0
 62
     7
 48
0.00051
100
AcDbLine
 10
-205.119461
 20
405.799988
 30
0.0
 11
-205.139816
 21
405.801025
 31
0.0
210
0.0
220
0.0
230
1.0
  0
LINE
  5
88
100
AcDbEntity
  8
0
370
    35
390
0
 62
     7
 48
0.000516
100
AcDbLine
 10
-205.139816
 20
405.801025
 30
0.0
 11
-205.160202
 21
405.804199
 31
0.0
210
0.0
220
0.0
230
1.0
  0
LINE
  5
89
100
AcDbEntity
  8
0
370
    35
390
0
 62
     7
 48
0.000697
100
AcDbLine
 10
-205.160202
 20
405.804199
 30
0.0
 11
-205.187027
 21
405.811768
 31
0.0
210
0.0
220
0.0
230
1.0
  0
LINE
  5
8A
100
AcDbEntity
  8
0
370
    35
390
0
 62
     7
 48
0.000701
100
AcDbLine
 10
-205.187027
 20
405.811768
 30
0.0
 11
-205.212677
 21
405.82312
 31
0.0
210
0.0
220
0.0
230
1.0
  0
LINE
  5
8B
100
AcDbEntity
  8
0
370
    35
390
0
 62
     7
 48
0.000702
100
AcDbLine
 10
-205.212677
 20
405.82312
 30
0.0
 11
-205.236481
 21
405.838013
 31
0.0
210
0.0
220
0.0
230
1.0
  0
LINE
  5
8C
100
AcDbEntity
  8
0
370
    35
390
0
 62
     7
 48
0.000538
100
AcDbLine
 10
-205.236481
 20
405.838013
 30
0.0
 11
-205.253235
 21
405.851501
 31
0.0
210
0.0
220
0.0
230
1.0
  0
LINE
  5
8D
100
AcDbEntity
  8
0
370
    35
390
0
 62
     7
 48
0.000544
100
AcDbLine
 10
-205.253235
 20
405.851501
 30
0.0
 11
-205.268738
 21
405.86676
 31
0.0
210
0.0
220
0.0
230
1.0
  0
LINE
  5
8E
100
AcDbEntity
  8
0
370
    35
390
0
 62
     7
 48
0.001097
100
AcDbLine
 10
-205.268738
 20
405.86676
 30
0.0
 11
-205.295639
 21
405.901428
 31
0.0
210
0.0
220
0.0
230
1.0
  0
LINE
  5
8F
100
AcDbEntity
  8
0
370
    35
390
0
 62
     7
 48
0.001093
100
AcDbLine
 10
-205.295639
 20
405.901428
 30
0.0
 11
-205.316666
 21
405.939758
 31
0.0
210
0.0
220
0.0
230
1.0
  0
LINE
  5
90
100
AcDbEntity
  8
0
370
    35
390
0
 62
     7
 48
0.000804
100
AcDbLine
 10
-205.316666
 20
405.939758
 30
0.0
 11
-205.328674
 21
405.969604
 31
0.0
210
0.0
220
0.0
230
1.0
  0
LINE
  5
91
100
AcDbEntity
  8
0
370
    35
390
0
 62
     7
 48
0.000793
100
AcDbLine
 10
-205.328674
 20
405.969604
 30
0.0
 11
-205.337723
 21
406.0
 31
0.0
210
0.0
220
0.0
230
1.0
  0
LINE
  5
92
100
AcDbEntity
  8
0
370
    35
390
0
 62
     7
 48
0.027499
100
AcDbLine
 10
-200.437714
 20
409.900024
 30
0.0
 11
-200.437714
 21
411.0
 31
0.0
210
0.0
220
0.0
230
1.0
  0
LINE
  5
93
100
AcDbEntity
  8
0
370
    35
390
0
 62
     7
 48
0.0125
100
AcDbLine
 10
-205.937714
 20
407.349976
 30
0.0
 11
-205.437714
 21
407.349976
 31
0.0
210
0.0
220
0.0
230
1.0
  0
LINE
  5
94
100
AcDbEntity
  8
0
370
    35
390
0
 62
     7
 48
0.1375
100
AcDbLine
 10
-205.937714
 20
409.900024
 30
0.0
 11
-200.437714
 21
409.900024
 31
0.0
210
0.0
220
0.0
230
1.0
  0
ARC
  5
95
100
AcDbEntity
  8
0
370
    35
390
0
 62
     7
100
AcDbCircle
 10
-101.437714
 20
407.700012
 30
0.0
 40
0.5
210
0.0
220
0.0
230
1.0
100
AcDbArc
 50
269.999997
 51
360.0
  0
ARC
  5
96
100
AcDbEntity
  8
0
370
    35
390
0
 62
     7
100
AcDbCircle
 10
-113.937714
 20
408.5
 30
0.0
 40
0.5
210
0.0
220
0.0
230
1.0
100
AcDbArc
 50
90.000003
 51
179.999991
  0
LINE
  5
97
100
AcDbEntity
  8
0
370
    35
390
0
 62
     7
 48
0.02
100
AcDbLine
 10
-114.437714
 20
407.700012
 30
0.0
 11
-114.437714
 21
408.5
 31
0.0
210
0.0
220
0.0
230
1.0
  0
LINE
  5
98
100
AcDbEntity
  8
0
370
    35
390
0
 62
     7
 48
0.04957
100
AcDbLine
 10
-194.237717
 20
383.882813
 30
0.0
 11
-194.237717
 21
381.900024
 31
0.0
210
0.0
220
0.0
230
1.0
  0
LINE
  5
99
100
AcDbEntity
  8
0
370
    35
390
0
 62
     7
 48
0.025
100
AcDbLine
 10
-194.237717
 20
381.900024
 30
0.0
 11
-193.237717
 21
381.900024
 31
0.0
210
0.0
220
0.0
230
1.0
  0
LINE
  5
9A
100
AcDbEntity
  8
0
370
    35
390
0
 62
     7
100
AcDbLine
 10
-192.937714
 20
383.900024
 30
0.0
 11
-125.937714
 21
383.900024
 31
0.0
210
0.0
220
0.0
230
1.0
  0
LINE
  5
9B
100
AcDbEntity
  8
0
370
    35
390
0
 62
     7
100
AcDbLine
 10
-193.237717
 20
381.900024
 30
0.0
 11
-125.637711
 21
381.900024
 31
0.0
210
0.0
220
0.0
230
1.0
  0
LINE
  5
9C
100
AcDbEntity
  8
0
370
    35
390
0
 62
     7
 48
0.025
100
AcDbLine
 10
-125.637711
 20
381.900024
 30
0.0
 11
-124.637711
 21
381.900024
 31
0.0
210
0.0
220
0.0
230
1.0
  0
LINE
  5
9D
100
AcDbEntity
  8
0
370
    35
390
0
 62
     7
 48
0.04957
100
AcDbLine
 10
-124.637711
 20
383.882813
 30
0.0
 11
-124.637711
 21
381.900024
 31
0.0
210
0.0
220
0.0
230
1.0
  0
LINE
  5
9E
100
AcDbEntity
  8
0
370
    35
390
0
 62
     7
 48
0.017678
100
AcDbLine
 10
-114.437714
 20
382.0
 30
0.0
 11
-114.937714
 21
381.5
 31
0.0
210
0.0
220
0.0
230
1.0
  0
ARC
  5
9F
100
AcDbEntity
  8
0
370
    35
390
0
 62
     7
100
AcDbCircle
 10
-114.237717
 20
382.200012
 30
0.0
 40
0.2
210
0.0
220
0.0
230
1.0
100
AcDbArc
 50
90.000003
 51
179.999991
  0
ARC
  5
A0
100
AcDbEntity
  8
0
370
    35
390
0
 62
     7
100
AcDbCircle
 10
-109.937714
 20
382.900024
 30
0.0
 40
0.5
210
0.0
220
0.0
230
1.0
100
AcDbArc
 50
269.999997
 51
360.0
  0
LINE
  5
A1
100
AcDbEntity
  8
0
370
    35
390
0
 62
     7
 48
0.000509
100
AcDbLine
 10
-109.755966
 20
385.599976
 30
0.0
 11
-109.735611
 21
385.598999
 31
0.0
210
0.0
220
0.0
230
1.0
  0
LINE
  5
A2
100
AcDbEntity
  8
0
370
    35
390
0
 62
     7
 48
0.000516
100
AcDbLine
 10
-109.735611
 20
385.598999
 30
0.0
 11
-109.71521
 21
385.595886
 31
0.0
210
0.0
220
0.0
230
1.0
  0
LINE
  5
A3
100
AcDbEntity
  8
0
370
    35
390
0
 62
     7
 48
0.000697
100
AcDbLine
 10
-109.71521
 20
385.595886
 30
0.0
 11
-109.688385
 21
385.588257
 31
0.0
210
0.0
220
0.0
230
1.0
  0
LINE
  5
A4
100
AcDbEntity
  8
0
370
    35
390
0
 62
     7
 48
0.000701
100
AcDbLine
 10
-109.688385
 20
385.588257
 30
0.0
 11
-109.66275
 21
385.576904
 31
0.0
210
0.0
220
0.0
230
1.0
  0
LINE
  5
A5
100
AcDbEntity
  8
0
370
    35
390
0
 62
     7
 48
0.000702
100
AcDbLine
 10
-109.66275
 20
385.576904
 30
0.0
 11
-109.638947
 21
385.562012
 31
0.0
210
0.0
220
0.0
230
1.0
  0
LINE
  5
A6
100
AcDbEntity
  8
0
370
    35
390
0
 62
     7
 48
0.000539
100
AcDbLine
 10
-109.638947
 20
385.562012
 30
0.0
 11
-109.622192
 21
385.548462
 31
0.0
210
0.0
220
0.0
230
1.0
  0
LINE
  5
A7
100
AcDbEntity
  8
0
370
    35
390
0
 62
     7
 48
0.000543
100
AcDbLine
 10
-109.622192
 20
385.548462
 30
0.0
 11
-109.606689
 21
385.533264
 31
0.0
210
0.0
220
0.0
230
1.0
  0
LINE
  5
A8
100
AcDbEntity
  8
0
370
    35
390
0
 62
     7
 48
0.001096
100
AcDbLine
 10
-109.606689
 20
385.533264
 30
0.0
 11
-109.579788
 21
385.498657
 31
0.0
210
0.0
220
0.0
230
1.0
  0
LINE
  5
A9
100
AcDbEntity
  8
0
370
    35
390
0
 62
     7
 48
0.001093
100
AcDbLine
 10
-109.579788
 20
385.498657
 30
0.0
 11
-109.558746
 21
385.460327
 31
0.0
210
0.0
220
0.0
230
1.0
  0
LINE
  5
AA
100
AcDbEntity
  8
0
370
    35
390
0
 62
     7
 48
0.000807
100
AcDbLine
 10
-109.558746
 20
385.460327
 30
0.0
 11
-109.546753
 21
385.430359
 31
0.0
210
0.0
220
0.0
230
1.0
  0
LINE
  5
AB
100
AcDbEntity
  8
0
370
    35
390
0
 62
     7
 48
0.000791
100
AcDbLine
 10
-109.546753
 20
385.430359
 30
0.0
 11
-109.537704
 21
385.400024
 31
0.0
210
0.0
220
0.0
230
1.0
  0
LINE
  5
AC
100
AcDbEntity
  8
0
370
    35
390
0
 62
     7
 48
0.004544
100
AcDbLine
 10
-109.755966
 20
385.599976
 30
0.0
 11
-109.937714
 21
385.599976
 31
0.0
210
0.0
220
0.0
230
1.0
  0
LINE
  5
AD
100
AcDbEntity
  8
0
370
    35
390
0
 62
     7
 48
0.02634
100
AcDbLine
 10
-114.437714
 20
386.900024
 30
0.0
 11
-114.437714
 21
385.846436
 31
0.0
210
0.0
220
0.0
230
1.0
  0
LINE
  5
AE
100
AcDbEntity
  8
0
370
    35
390
0
 62
     7
 48
0.439999
100
AcDbLine
 10
-114.437714
 20
386.900024
 30
0.0
 11
-114.437714
 21
404.5
 31
0.0
210
0.0
220
0.0
230
1.0
  0
LINE
  5
AF
100
AcDbEntity
  8
0
370
    35
390
0
 62
     7
 48
0.049434
100
AcDbLine
 10
-114.437714
 20
406.477356
 30
0.0
 11
-114.437714
 21
404.5
 31
0.0
210
0.0
220
0.0
230
1.0
  0
ARC
  5
B0
100
AcDbEntity
  8
0
370
    35
390
0
 62
     7
100
AcDbCircle
 10
-114.937714
 20
405.255005
 30
0.0
 40
0.5
210
0.0
220
0.0
230
1.0
100
AcDbArc
 50
0.0
 51
123.748985
  0
ARC
  5
B1
100
AcDbEntity
  8
0
370
    35
390
0
 62
     7
100
AcDbCircle
 10
-114.267426
 20
385.773315
 30
0.0
 40
0.173423
210
0.0
220
0.0
230
1.0
100
AcDbArc
 50
181.124176
 51
270.648838
  0
LINE
  5
B2
100
AcDbEntity
  8
0
370
    35
390
0
 62
     7
 48
0.000752
100
AcDbLine
 10
-114.441757
 20
385.799988
 30
0.0
 11
-114.441666
 21
385.769897
 31
0.0
210
0.0
220
0.0
230
1.0
  0
ARC
  5
B3
100
AcDbEntity
  8
0
370
    35
390
0
 62
     7
100
AcDbCircle
 10
-119.137711
 20
408.5
 30
0.0
 40
0.5
210
0.0
220
0.0
230
1.0
100
AcDbArc
 50
0.0
 51
90.000003
  0
ARC
  5
B4
100
AcDbEntity
  8
0
370
    35
390
0
 62
     7
100
AcDbCircle
 10
-195.437714
 20
407.5
 30
0.0
 40
2.7
210
0.0
220
0.0
230
1.0
100
AcDbArc
 50
285.680336
 51
360.0
  0
ARC
  5
B5
100
AcDbEntity
  8
0
370
    35
390
0
 62
     7
100
AcDbCircle
 10
-178.437714
 20
391.700012
 30
0.0
 40
3.0
210
0.0
220
0.0
230
1.0
100
AcDbArc
 50
269.999997
 51
360.0
  0
LINE
  5
B6
100
AcDbEntity
  8
0
370
    35
390
0
 62
     7
 48
0.339999
100
AcDbLine
 10
-175.437714
 20
391.700012
 30
0.0
 11
-175.437714
 21
405.299988
 31
0.0
210
0.0
220
0.0
230
1.0
  0
ARC
  5
B7
100
AcDbEntity
  8
0
370
    35
390
0
 62
     7
100
AcDbCircle
 10
-178.437714
 20
405.299988
 30
0.0
 40
3.0
210
0.0
220
0.0
230
1.0
100
AcDbArc
 50
0.0
 51
90.000003
  0
ARC
  5
B8
100
AcDbEntity
  8
0
370
    35
390
0
 62
     7
100
AcDbCircle
 10
-182.937714
 20
401.0
 30
0.0
 40
4.5
210
0.0
220
0.0
230
1.0
100
AcDbArc
 50
269.999997
 51
90.000003
  0
LINE
  5
B9
100
AcDbEntity
  8
0
370
    35
390
0
 62
     7
 48
0.125
100
AcDbLine
 10
-182.937714
 20
396.5
 30
0.0
 11
-187.937714
 21
396.5
 31
0.0
210
0.0
220
0.0
230
1.0
  0
ARC
  5
BA
100
AcDbEntity
  8
0
370
    35
390
0
 62
     7
100
AcDbCircle
 10
-187.937714
 20
401.0
 30
0.0
 40
4.5
210
0.0
220
0.0
230
1.0
100
AcDbArc
 50
90.000003
 51
269.999997
  0
LINE
  5
BB
100
AcDbEntity
  8
0
370
    35
390
0
 62
     7
 48
0.125
100
AcDbLine
 10
-187.937714
 20
405.5
 30
0.0
 11
-182.937714
 21
405.5
 31
0.0
210
0.0
220
0.0
230
1.0
  0
ARC
  5
BC
100
AcDbEntity
  8
0
370
    35
390
0
 62
     7
100
AcDbCircle
 10
-136.437714
 20
391.700012
 30
0.0
 40
3.0
210
0.0
220
0.0
230
1.0
100
AcDbArc
 50
179.999991
 51
269.999997
  0
LINE
  5
BD
100
AcDbEntity
  8
0
370
    35
390
0
 62
     7
 48
0.339999
100
AcDbLine
 10
-139.437714
 20
405.299988
 30
0.0
 11
-139.437714
 21
391.700012
 31
0.0
210
0.0
220
0.0
230
1.0
  0
ARC
  5
BE
100
AcDbEntity
  8
0
370
    35
390
0
 62
     7
100
AcDbCircle
 10
-136.437714
 20
405.299988
 30
0.0
 40
3.0
210
0.0
220
0.0
230
1.0
100
AcDbArc
 50
90.000003
 51
179.999991
  0
ARC
  5
BF
100
AcDbEntity
  8
0
370
    35
390
0
 62
     7
100
AcDbCircle
 10
-126.937714
 20
401.0
 30
0.0
 40
4.5
210
0.0
220
0.0
230
1.0
100
AcDbArc
 50
269.999997
 51
90.000003
  0
LINE
  5
C0
100
AcDbEntity
  8
0
370
    35
390
0
 62
     7
 48
0.125
100
AcDbLine
 10
-126.937714
 20
396.5
 30
0.0
 11
-131.937714
 21
396.5
 31
0.0
210
0.0
220
0.0
230
1.0
  0
ARC
  5
C1
100
AcDbEntity
  8
0
370
    35
390
0
 62
     7
100
AcDbCircle
 10
-131.937714
 20
401.0
 30
0.0
 40
4.5
210
0.0
220
0.0
230
1.0
100
AcDbArc
 50
90.000003
 51
269.999997
  0
LINE
  5
C2
100
AcDbEntity
  8
0
370
    35
390
0
 62
     7
 48
0.125
100
AcDbLine
 10
-131.937714
 20
405.5
 30
0.0
 11
-126.937714
 21
405.5
 31
0.0
210
0.0
220
0.0
230
1.0
  0
LINE
  5
C3
100
AcDbEntity
  8
0
370
    35
390
0
 62
     7
 48
0.004544
100
AcDbLine
 10
-204.937714
 20
405.799988
 30
0.0
 11
-205.119461
 21
405.799988
 31
0.0
210
0.0
220
0.0
230
1.0
  0
LINE
  5
C4
100
AcDbEntity
  8
0
370
    35
390
0
 62
     7
 48
0.041458
100
AcDbLine
 10
-200.437714
 20
387.700012
 30
0.0
 11
-200.437714
 21
386.041687
 31
0.0
210
0.0
220
0.0
230
1.0
  0
LINE
  5
C5
100
AcDbEntity
  8
0
370
    35
390
0
 62
     7
 48
0.4125
100
AcDbLine
 10
-200.437714
 20
387.700012
 30
0.0
 11
-200.437714
 21
404.200012
 31
0.0
210
0.0
220
0.0
230
1.0
  0
LINE
  5
C6
100
AcDbEntity
  8
0
370
    35
390
0
 62
     7
 48
0.036656
100
AcDbLine
 10
-200.437714
 20
405.66626
 30
0.0
 11
-200.437714
 21
404.200012
 31
0.0
210
0.0
220
0.0
230
1.0
  0
ARC
  5
C7
100
AcDbEntity
  8
0
370
    35
390
0
 62
     7
100
AcDbCircle
 10
-200.608002
 20
385.773315
 30
0.0
 40
0.173421
210
0.0
220
0.0
230
1.0
100
AcDbArc
 50
269.350856
 51
358.876253
  0
LINE
  5
C8
100
AcDbEntity
  8
0
370
    35
390
0
 62
     7
 48
0.000752
100
AcDbLine
 10
-200.43367
 20
385.799988
 30
0.0
 11
-200.433746
 21
385.769897
 31
0.0
210
0.0
220
0.0
230
1.0
  0
LINE
  5
C9
100
AcDbEntity
  8
0
370
    35
390
0
 62
     7
 48
0.000754
100
AcDbLine
 10
-200.43367
 20
405.599976
 30
0.0
 11
-200.433746
 21
405.630127
 31
0.0
210
0.0
220
0.0
230
1.0
  0
ARC
  5
CA
100
AcDbEntity
  8
0
370
    35
390
0
 62
     7
100
AcDbCircle
 10
-200.608002
 20
405.626709
 30
0.0
 40
0.173422
210
0.0
220
0.0
230
1.0
100
AcDbArc
 50
1.123654
 51
90.64911
  0
LINE
  5
CB
100
AcDbEntity
  8
0
370
    35
390
0
 62
     7
 48
0.004544
100
AcDbLine
 10
-204.937714
 20
385.599976
 30
0.0
 11
-205.119461
 21
385.599976
 31
0.0
210
0.0
220
0.0
230
1.0
  0
LINE
  5
CC
100
AcDbEntity
  8
0
370
    35
390
0
 62
     7
 48
0.000509
100
AcDbLine
 10
-205.119461
 20
385.599976
 30
0.0
 11
-205.139816
 21
385.598999
 31
0.0
210
0.0
220
0.0
230
1.0
  0
LINE
  5
CD
100
AcDbEntity
  8
0
370
    35
390
0
 62
     7
 48
0.000516
100
AcDbLine
 10
-205.139816
 20
385.598999
 30
0.0
 11
-205.160217
 21
385.595825
 31
0.0
210
0.0
220
0.0
230
1.0
  0
LINE
  5
CE
100
AcDbEntity
  8
0
370
    35
390
0
 62
     7
 48
0.000696
100
AcDbLine
 10
-205.160217
 20
385.595825
 30
0.0
 11
-205.187027
 21
385.588257
 31
0.0
210
0.0
220
0.0
230
1.0
  0
LINE
  5
CF
100
AcDbEntity
  8
0
370
    35
390
0
 62
     7
 48
0.000701
100
AcDbLine
 10
-205.187027
 20
385.588257
 30
0.0
 11
-205.212677
 21
385.576904
 31
0.0
210
0.0
220
0.0
230
1.0
  0
LINE
  5
D0
100
AcDbEntity
  8
0
370
    35
390
0
 62
     7
 48
0.000702
100
AcDbLine
 10
-205.212677
 20
385.576904
 30
0.0
 11
-205.236481
 21
385.562012
 31
0.0
210
0.0
220
0.0
230
1.0
  0
LINE
  5
D1
100
AcDbEntity
  8
0
370
    35
390
0
 62
     7
 48
0.000539
100
AcDbLine
 10
-205.236481
 20
385.562012
 30
0.0
 11
-205.253235
 21
385.548462
 31
0.0
210
0.0
220
0.0
230
1.0
  0
LINE
  5
D2
100
AcDbEntity
  8
0
370
    35
390
0
 62
     7
 48
0.000543
100
AcDbLine
 10
-205.253235
 20
385.548462
 30
0.0
 11
-205.268738
 21
385.533264
 31
0.0
210
0.0
220
0.0
230
1.0
  0
LINE
  5
D3
100
AcDbEntity
  8
0
370
    35
390
0
 62
     7
 48
0.001096
100
AcDbLine
 10
-205.268738
 20
385.533264
 30
0.0
 11
-205.295639
 21
385.498657
 31
0.0
210
0.0
220
0.0
230
1.0
  0
LINE
  5
D4
100
AcDbEntity
  8
0
370
    35
390
0
 62
     7
 48
0.001093
100
AcDbLine
 10
-205.295639
 20
385.498657
 30
0.0
 11
-205.316666
 21
385.460327
 31
0.0
210
0.0
220
0.0
230
1.0
  0
LINE
  5
D5
100
AcDbEntity
  8
0
370
    35
390
0
 62
     7
 48
0.000807
100
AcDbLine
 10
-205.316666
 20
385.460327
 30
0.0
 11
-205.328674
 21
385.430359
 31
0.0
210
0.0
220
0.0
230
1.0
  0
LINE
  5
D6
100
AcDbEntity
  8
0
370
    35
390
0
 62
     7
 48
0.000791
100
AcDbLine
 10
-205.328674
 20
385.430359
 30
0.0
 11
-205.337723
 21
385.400024
 31
0.0
210
0.0
220
0.0
230
1.0
  0
ARC
  5
D7
100
AcDbEntity
  8
0
370
    35
390
0
 62
     7
100
AcDbCircle
 10
-204.937714
 20
382.900024
 30
0.0
 40
0.5
210
0.0
220
0.0
230
1.0
100
AcDbArc
 50
179.999991
 51
269.999997
  0
ARC
  5
D8
100
AcDbEntity
  8
0
370
    35
390
0
 62
     7
100
AcDbCircle
 10
-200.637711
 20
382.200012
 30
0.0
 40
0.2
210
0.0
220
0.0
230
1.0
100
AcDbArc
 50
0.0
 51
90.000003
  0
LINE
  5
D9
100
AcDbEntity
  8
0
370
    35
390
0
 62
     7
 48
0.017678
100
AcDbLine
 10
-200.437714
 20
382.0
 30
0.0
 11
-199.937714
 21
381.5
 31
0.0
210
0.0
220
0.0
230
1.0
  0
LINE
  5
DA
100
AcDbEntity
  8
0
370
    35
390
0
 62
     7
 48
0.038893
100
AcDbLine
 10
-206.437714
 20
407.844299
 30
0.0
 11
-206.437714
 21
409.400024
 31
0.0
210
0.0
220
0.0
230
1.0
  0
ARC
  5
DB
100
AcDbEntity
  8
0
370
    35
390
0
 62
     7
100
AcDbCircle
 10
-205.950806
 20
407.847656
 30
0.0
 40
0.486994
210
0.0
220
0.0
230
1.0
100
AcDbArc
 50
180.39493
 51
203.939467
  0
ARC
  5
DC
100
AcDbEntity
  8
0
370
    35
390
0
 62
     7
100
AcDbCircle
 10
-205.937714
 20
407.849976
 30
0.0
 40
0.5
210
0.0
220
0.0
230
1.0
100
AcDbArc
 50
203.578231
 51
269.999997
  0
ARC
  5
DD
100
AcDbEntity
  8
0
370
    35
390
0
 62
     7
100
AcDbCircle
 10
-205.937714
 20
409.400024
 30
0.0
 40
0.5
210
0.0
220
0.0
230
1.0
100
AcDbArc
 50
90.000003
 51
179.999991
  0
LINE
  5
DE
100
AcDbEntity
  8
0
370
    35
390
0
 62
     7
 48
0.0125
100
AcDbLine
 10
-114.437714
 20
407.200012
 30
0.0
 11
-113.937714
 21
407.200012
 31
0.0
210
0.0
220
0.0
230
1.0
  0
LINE
  5
DF
100
AcDbEntity
  8
0
370
    35
390
0
 62
     7
 48
0.3125
100
AcDbLine
 10
-113.937714
 20
407.200012
 30
0.0
 11
-101.437714
 21
407.200012
 31
0.0
210
0.0
220
0.0
230
1.0
  0
ARC
  5
E0
100
AcDbEntity
  8
0
370
    35
390
0
 62
     7
100
AcDbCircle
 10
-113.937714
 20
407.700012
 30
0.0
 40
0.5
210
0.0
220
0.0
230
1.0
100
AcDbArc
 50
179.999991
 51
269.999997
  0
LINE
  5
E1
100
AcDbEntity
  8
0
370
    35
390
0
 62
     7
 48
0.009151
100
AcDbLine
 10
-114.437714
 20
406.833984
 30
0.0
 11
-114.437714
 21
407.200012
 31
0.0
210
0.0
220
0.0
230
1.0
  0
LINE
  5
E2
100
AcDbEntity
  8
0
370
    35
390
0
 62
     7
 48
0.002654
100
AcDbLine
 10
-114.437714
 20
406.583496
 30
0.0
 11
-114.437714
 21
406.477356
 31
0.0
210
0.0
220
0.0
230
1.0
  0
LINE
  5
E3
100
AcDbEntity
  8
0
370
    35
390
0
 62
     7
 48
0.006262
100
AcDbLine
 10
-114.437714
 20
406.833984
 30
0.0
 11
-114.437714
 21
406.583496
 31
0.0
210
0.0
220
0.0
230
1.0
  0
CIRCLE
  5
E4
100
AcDbEntity
  8
0
370
    35
390
0
 62
     7
100
AcDbCircle
 10
-195.437714
 20
407.5
 30
0.0
 40
1.475
210
0.0
220
0.0
230
1.0
  0
CIRCLE
  5
E5
100
AcDbEntity
  8
0
370
    35
390
0
 62
     7
100
AcDbCircle
 10
-116.437714
 20
407.5
 30
0.0
 40
1.475
210
0.0
220
0.0
230
1.0
  0
LINE
  5
E6
100
AcDbEntity
  8
0
370
    35
390
0
 62
     7
 48
0.0625
100
AcDbLine
 10
-206.437714
 20
387.700012
 30
0.0
 11
-206.437714
 21
385.200012
 31
0.0
210
0.0
220
0.0
230
1.0
  0
LINE
  5
E7
100
AcDbEntity
  8
0
370
    35
390
0
 62
     7
 48
0.32
100
AcDbLine
 10
-206.437714
 20
387.700012
 30
0.0
 11
-206.437714
 21
400.5
 31
0.0
210
0.0
220
0.0
230
1.0
  0
LINE
  5
E8
100
AcDbEntity
  8
0
370
    35
390
0
 62
     7
 48
0.0875
100
AcDbLine
 10
-206.437714
 20
404.0
 30
0.0
 11
-206.437714
 21
400.5
 31
0.0
210
0.0
220
0.0
230
1.0
  0
LINE
  5
E9
100
AcDbEntity
  8
0
370
    35
390
0
 62
     7
 48
0.008749
100
AcDbLine
 10
-206.437714
 20
404.0
 30
0.0
 11
-206.437714
 21
404.349976
 31
0.0
210
0.0
220
0.0
230
1.0
  0
LINE
  5
EA
100
AcDbEntity
  8
0
370
    35
390
0
 62
     7
 48
0.087358
100
AcDbLine
 10
-206.437714
 20
407.844299
 30
0.0
 11
-206.437714
 21
404.349976
 31
0.0
210
0.0
220
0.0
230
1.0
  0
LINE
  5
EB
100
AcDbEntity
  8
0
370
    35
390
0
 62
     7
 48
0.007323
100
AcDbLine
 10
-206.437714
 20
409.692932
 30
0.0
 11
-206.437714
 21
409.400024
 31
0.0
210
0.0
220
0.0
230
1.0
  0
LINE
  5
EC
100
AcDbEntity
  8
0
370
    35
390
0
 62
     7
 48
0.001427
100
AcDbLine
 10
-206.437714
 20
409.692932
 30
0.0
 11
-206.437714
 21
409.75
 31
0.0
210
0.0
220
0.0
230
1.0
  0
LINE
  5
ED
100
AcDbEntity
  8
0
370
    35
390
0
 62
     7
 48
0.012513
100
AcDbLine
 10
-205.43718
 20
384.700012
 30
0.0
 11
-205.937714
 21
384.700012
 31
0.0
210
0.0
220
0.0
230
1.0
  0
LINE
  5
EE
100
AcDbEntity
  8
0
370
    35
390
0
 62
     7
 48
0.17528
100
AcDbLine
 10
-109.448914
 20
384.900024
 30
0.0
 11
-102.437714
 21
384.900024
 31
0.0
210
0.0
220
0.0
230
1.0
  0
LINE
  5
EF
100
AcDbEntity
  8
0
370
    35
390
0
 62
     7
 48
0.116886
100
AcDbLine
 10
-102.437714
 20
384.900024
 30
0.0
 11
-97.762268
 21
384.900024
 31
0.0
210
0.0
220
0.0
230
1.0
  0
LINE
  5
F0
100
AcDbEntity
  8
0
370
    35
390
0
 62
     7
 48
0.05
100
AcDbLine
 10
-102.437714
 20
384.900024
 30
0.0
 11
-102.437714
 21
386.900024
 31
0.0
210
0.0
220
0.0
230
1.0
  0
LINE
  5
F1
100
AcDbEntity
  8
0
370
    35
390
0
 62
     7
 48
0.075
100
AcDbLine
 10
-102.437714
 20
390.400024
 30
0.0
 11
-102.437714
 21
387.400024
 31
0.0
210
0.0
220
0.0
230
1.0
  0
LINE
  5
F2
100
AcDbEntity
  8
0
370
    35
390
0
 62
     7
 48
0.0125
100
AcDbLine
 10
-102.437714
 20
387.400024
 30
0.0
 11
-102.437714
 21
386.900024
 31
0.0
210
0.0
220
0.0
230
1.0
  0
LINE
  5
F3
100
AcDbEntity
  8
0
370
    35
390
0
 62
     7
 48
0.0125
100
AcDbLine
 10
-102.437714
 20
390.400024
 30
0.0
 11
-102.437714
 21
390.900024
 31
0.0
210
0.0
220
0.0
230
1.0
  0
ARC
  5
F4
100
AcDbEntity
  8
0
370
    35
390
0
 62
     7
100
AcDbCircle
 10
-108.437729
 20
390.200012
 30
0.0
 40
0.500016
210
0.0
220
0.0
230
1.0
100
AcDbArc
 50
180.00117
 51
359.995611
  0
LINE
  5
F5
100
AcDbEntity
  8
0
370
    35
390
0
 62
     7
 48
0.3
100
AcDbLine
 10
-107.937714
 20
390.200012
 30
0.0
 11
-107.937714
 21
402.200012
 31
0.0
210
0.0
220
0.0
230
1.0
  0
ARC
  5
F6
100
AcDbEntity
  8
0
370
    35
390
0
 62
     7
100
AcDbCircle
 10
-108.437729
 20
402.200012
 30
0.0
 40
0.500016
210
0.0
220
0.0
230
1.0
100
AcDbArc
 50
0.001164
 51
179.995606
  0
LINE
  5
F7
100
AcDbEntity
  8
0
370
    35
390
0
 62
     7
 48
0.3
100
AcDbLine
 10
-108.937714
 20
390.200012
 30
0.0
 11
-108.937714
 21
402.200012
 31
0.0
210
0.0
220
0.0
230
1.0
  0
ARC
  5
F8
100
AcDbEntity
  8
0
370
    35
390
0
 62
     7
100
AcDbCircle
 10
-106.937729
 20
390.200012
 30
0.0
 40
0.500016
210
0.0
220
0.0
230
1.0
100
AcDbArc
 50
180.00117
 51
359.995611
  0
LINE
  5
F9
100
AcDbEntity
  8
0
370
    35
390
0
 62
     7
 48
0.3
100
AcDbLine
 10
-106.437714
 20
390.200012
 30
0.0
 11
-106.437714
 21
402.200012
 31
0.0
210
0.0
220
0.0
230
1.0
  0
ARC
  5
FA
100
AcDbEntity
  8
0
370
    35
390
0
 62
     7
100
AcDbCircle
 10
-106.937729
 20
402.200012
 30
0.0
 40
0.500016
210
0.0
220
0.0
230
1.0
100
AcDbArc
 50
0.001164
 51
179.995606
  0
LINE
  5
FB
100
AcDbEntity
  8
0
370
    35
390
0
 62
     7
 48
0.3
100
AcDbLine
 10
-107.437714
 20
390.200012
 30
0.0
 11
-107.437714
 21
402.200012
 31
0.0
210
0.0
220
0.0
230
1.0
  0
ARC
  5
FC
100
AcDbEntity
  8
0
370
    35
390
0
 62
     7
100
AcDbCircle
 10
-105.437729
 20
390.200012
 30
0.0
 40
0.500016
210
0.0
220
0.0
230
1.0
100
AcDbArc
 50
180.00117
 51
359.995611
  0
LINE
  5
FD
100
AcDbEntity
  8
0
370
    35
390
0
 62
     7
 48
0.3
100
AcDbLine
 10
-104.937714
 20
390.200012
 30
0.0
 11
-104.937714
 21
402.200012
 31
0.0
210
0.0
220
0.0
230
1.0
  0
ARC
  5
FE
100
AcDbEntity
  8
0
370
    35
390
0
 62
     7
100
AcDbCircle
 10
-105.437729
 20
402.200012
 30
0.0
 40
0.500016
210
0.0
220
0.0
230
1.0
100
AcDbArc
 50
0.001164
 51
179.995606
  0
LINE
  5
FF
100
AcDbEntity
  8
0
370
    35
390
0
 62
     7
 48
0.3
100
AcDbLine
 10
-105.937714
 20
390.200012
 30
0.0
 11
-105.937714
 21
402.200012
 31
0.0
210
0.0
220
0.0
230
1.0
  0
ARC
  5
100
100
AcDbEntity
  8
0
370
    35
390
0
 62
     7
100
AcDbCircle
 10
-103.937729
 20
390.200012
 30
0.0
 40
0.500016
210
0.0
220
0.0
230
1.0
100
AcDbArc
 50
180.00117
 51
359.995611
  0
LINE
  5
101
100
AcDbEntity
  8
0
370
    35
390
0
 62
     7
 48
0.3
100
AcDbLine
 10
-103.437714
 20
390.200012
 30
0.0
 11
-103.437714
 21
402.200012
 31
0.0
210
0.0
220
0.0
230
1.0
  0
ARC
  5
102
100
AcDbEntity
  8
0
370
    35
390
0
 62
     7
100
AcDbCircle
 10
-103.937729
 20
402.200012
 30
0.0
 40
0.500016
210
0.0
220
0.0
230
1.0
100
AcDbArc
 50
0.001164
 51
179.995606
  0
LINE
  5
103
100
AcDbEntity
  8
0
370
    35
390
0
 62
     7
 48
0.3
100
AcDbLine
 10
-104.437714
 20
390.200012
 30
0.0
 11
-104.437714
 21
402.200012
 31
0.0
210
0.0
220
0.0
230
1.0
  0
LINE
  5
104
100
AcDbEntity
  8
0
370
    35
390
0
 62
     7
 48
0.416886
100
AcDbLine
 10
-114.437714
 20
406.5
 30
0.0
 11
-97.762268
 21
406.5
 31
0.0
210
0.0
220
0.0
230
1.0
  0
LINE
  5
105
100
AcDbEntity
  8
0
370
    35
390
0
 62
     7
 48
0.1375
100
AcDbLine
 10
-205.937714
 20
410.25
 30
0.0
 11
-200.437714
 21
410.25
 31
0.0
210
0.0
220
0.0
230
1.0
  0
ARC
  5
106
100
AcDbEntity
  8
0
370
    35
390
0
 62
     7
100
AcDbCircle
 10
-205.937714
 20
409.75
 30
0.0
 40
0.5
210
0.0
220
0.0
230
1.0
100
AcDbArc
 50
90.000003
 51
179.999991
  0
ARC
  5
107
100
AcDbEntity
  8
0
370
    35
390
0
 62
     7
100
AcDbCircle
 10
-205.937714
 20
385.200012
 30
0.0
 40
0.5
210
0.0
220
0.0
230
1.0
100
AcDbArc
 50
179.999991
 51
269.999997
  0
ARC
  5
108
100
AcDbEntity
  8
0
370
    35
390
0
 62
     7
100
AcDbCircle
 10
-205.937714
 20
400.5
 30
0.0
 40
0.5
210
0.0
220
0.0
230
1.0
100
AcDbArc
 50
90.000003
 51
179.999991
  0
ARC
  5
109
100
AcDbEntity
  8
0
370
    35
390
0
 62
     7
100
AcDbCircle
 10
-97.762268
 20
386.900024
 30
0.0
 40
2.0
210
0.0
220
0.0
230
1.0
100
AcDbArc
 50
269.999997
 51
288.435013
  0
LINE
  5
10A
100
AcDbEntity
  8
0
370
    35
390
0
 62
     7
 48
0.006252
100
AcDbLine
 10
-102.437714
 20
384.900024
 30
0.0
 11
-102.437714
 21
385.150085
 31
0.0
210
0.0
220
0.0
230
1.0
  0
LINE
  5
10B
100
AcDbEntity
  8
0
370
    35
390
0
 62
     7
 48
0.116886
100
AcDbLine
 10
-102.437714
 20
390.400024
 30
0.0
 11
-97.762268
 21
390.400024
 31
0.0
210
0.0
220
0.0
230
1.0
  0
LINE
  5
10C
100
AcDbEntity
  8
0
370
    35
390
0
 62
     7
 48
0.003118
100
AcDbLine
 10
-97.129807
 20
406.397339
 30
0.0
 11
-97.249313
 21
406.432983
 31
0.0
210
0.0
220
0.0
230
1.0
  0
LINE
  5
10D
100
AcDbEntity
  8
0
370
    35
390
0
 62
     7
 48
0.003118
100
AcDbLine
 10
-97.249313
 20
406.432983
 30
0.0
 11
-97.370865
 21
406.460876
 31
0.0
210
0.0
220
0.0
230
1.0
  0
LINE
  5
10E
100
AcDbEntity
  8
0
370
    35
390
0
 62
     7
 48
0.003119
100
AcDbLine
 10
-97.370865
 20
406.460876
 30
0.0
 11
-97.494003
 21
406.480957
 31
0.0
210
0.0
220
0.0
230
1.0
  0
LINE
  5
10F
100
AcDbEntity
  8
0
370
    35
390
0
 62
     7
 48
0.00312
100
AcDbLine
 10
-97.494003
 20
406.480957
 30
0.0
 11
-97.618225
 21
406.493042
 31
0.0
210
0.0
220
0.0
230
1.0
  0
LINE
  5
110
100
AcDbEntity
  8
0
370
    35
390
0
 62
     7
 48
0.003122
100
AcDbLine
 10
-97.618225
 20
406.493042
 30
0.0
 11
-97.743042
 21
406.497192
 31
0.0
210
0.0
220
0.0
230
1.0
  0
LINE
  5
111
100
AcDbEntity
  8
0
370
    35
390
0
 62
     7
 48
0.000481
100
AcDbLine
 10
-97.743042
 20
406.497192
 30
0.0
 11
-97.762268
 21
406.497131
 31
0.0
210
0.0
220
0.0
230
1.0
  0
ARC
  5
112
100
AcDbEntity
  8
0
370
    35
390
0
 62
     7
100
AcDbCircle
 10
-97.762268
 20
404.5
 30
0.0
 40
2.0
210
0.0
220
0.0
230
1.0
100
AcDbArc
 50
71.565001
 51
90.000003
  0
LINE
  5
113
100
AcDbEntity
  8
0
370
    35
390
0
 62
     7
 48
0.198577
100
AcDbLine
 10
-181.466171
 20
396.900024
 30
0.0
 11
-189.409256
 21
396.900024
 31
0.0
210
0.0
220
0.0
230
1.0
  0
ARC
  5
114
100
AcDbEntity
  8
0
370
    35
390
0
 62
     7
100
AcDbCircle
 10
-189.409256
 20
397.400024
 30
0.0
 40
0.5
210
0.0
220
0.0
230
1.0
100
AcDbArc
 50
210.000003
 51
269.999997
  0
LINE
  5
115
100
AcDbEntity
  8
0
370
    35
390
0
 62
     7
 48
0.103923
100
AcDbLine
 10
-189.84227
 20
397.150024
 30
0.0
 11
-191.920731
 21
400.75
 31
0.0
210
0.0
220
0.0
230
1.0
  0
ARC
  5
116
100
AcDbEntity
  8
0
370
    35
390
0
 62
     7
100
AcDbCircle
 10
-191.487717
 20
401.0
 30
0.0
 40
0.5
210
0.0
220
0.0
230
1.0
100
AcDbArc
 50
149.999997
 51
210.000003
  0
LINE
  5
117
100
AcDbEntity
  8
0
370
    35
390
0
 62
     7
 48
0.103923
100
AcDbLine
 10
-191.920731
 20
401.25
 30
0.0
 11
-189.84227
 21
404.849976
 31
0.0
210
0.0
220
0.0
230
1.0
  0
ARC
  5
118
100
AcDbEntity
  8
0
370
    35
390
0
 62
     7
100
AcDbCircle
 10
-189.409256
 20
404.599976
 30
0.0
 40
0.5
210
0.0
220
0.0
230
1.0
100
AcDbArc
 50
90.000003
 51
149.999997
  0
LINE
  5
119
100
AcDbEntity
  8
0
370
    35
390
0
 62
     7
 48
0.198577
100
AcDbLine
 10
-189.409256
 20
405.099976
 30
0.0
 11
-181.466171
 21
405.099976
 31
0.0
210
0.0
220
0.0
230
1.0
  0
ARC
  5
11A
100
AcDbEntity
  8
0
370
    35
390
0
 62
     7
100
AcDbCircle
 10
-181.466171
 20
404.599976
 30
0.0
 40
0.5
210
0.0
220
0.0
230
1.0
100
AcDbArc
 50
30.000001
 51
90.000003
  0
LINE
  5
11B
100
AcDbEntity
  8
0
370
    35
390
0
 62
     7
 48
0.103923
100
AcDbLine
 10
-181.033157
 20
404.849976
 30
0.0
 11
-178.954697
 21
401.25
 31
0.0
210
0.0
220
0.0
230
1.0
  0
ARC
  5
11C
100
AcDbEntity
  8
0
370
    35
390
0
 62
     7
100
AcDbCircle
 10
-179.387711
 20
401.0
 30
0.0
 40
0.5
210
0.0
220
0.0
230
1.0
100
AcDbArc
 50
329.999989
 51
30.000001
  0
LINE
  5
11D
100
AcDbEntity
  8
0
370
    35
390
0
 62
     7
 48
0.103923
100
AcDbLine
 10
-178.954697
 20
400.75
 30
0.0
 11
-181.033157
 21
397.150024
 31
0.0
210
0.0
220
0.0
230
1.0
  0
ARC
  5
11E
100
AcDbEntity
  8
0
370
    35
390
0
 62
     7
100
AcDbCircle
 10
-181.466171
 20
397.400024
 30
0.0
 40
0.5
210
0.0
220
0.0
230
1.0
100
AcDbArc
 50
269.999997
 51
329.999989
  0
ARC
  5
11F
100
AcDbEntity
  8
0
370
    35
390
0
 62
     7
100
AcDbCircle
 10
-133.46698
 20
397.5
 30
0.0
 40
0.5
210
0.0
220
0.0
230
1.0
100
AcDbArc
 50
210.000003
 51
269.999997
  0
LINE
  5
120
100
AcDbEntity
  8
0
370
    35
390
0
 62
     7
 48
0.101036
100
AcDbLine
 10
-133.899994
 20
397.25
 30
0.0
 11
-135.920715
 21
400.75
 31
0.0
210
0.0
220
0.0
230
1.0
  0
ARC
  5
121
100
AcDbEntity
  8
0
370
    35
390
0
 62
     7
100
AcDbCircle
 10
-135.487717
 20
401.0
 30
0.0
 40
0.5
210
0.0
220
0.0
230
1.0
100
AcDbArc
 50
149.999997
 51
210.000003
  0
LINE
  5
122
100
AcDbEntity
  8
0
370
    35
390
0
 62
     7
 48
0.101036
100
AcDbLine
 10
-135.920715
 20
401.25
 30
0.0
 11
-133.899994
 21
404.75
 31
0.0
210
0.0
220
0.0
230
1.0
  0
ARC
  5
123
100
AcDbEntity
  8
0
370
    35
390
0
 62
     7
100
AcDbCircle
 10
-133.46698
 20
404.5
 30
0.0
 40
0.5
210
0.0
220
0.0
230
1.0
100
AcDbArc
 50
90.000003
 51
149.999997
  0
LINE
  5
124
100
AcDbEntity
  8
0
370
    35
390
0
 62
     7
 48
0.201464
100
AcDbLine
 10
-133.46698
 20
405.0
 30
0.0
 11
-125.408432
 21
405.0
 31
0.0
210
0.0
220
0.0
230
1.0
  0
ARC
  5
125
100
AcDbEntity
  8
0
370
    35
390
0
 62
     7
100
AcDbCircle
 10
-125.408432
 20
404.5
 30
0.0
 40
0.5
210
0.0
220
0.0
230
1.0
100
AcDbArc
 50
30.000001
 51
90.000003
  0
LINE
  5
126
100
AcDbEntity
  8
0
370
    35
390
0
 62
     7
 48
0.101036
100
AcDbLine
 10
-124.975418
 20
404.75
 30
0.0
 11
-122.954697
 21
401.25
 31
0.0
210
0.0
220
0.0
230
1.0
  0
ARC
  5
127
100
AcDbEntity
  8
0
370
    35
390
0
 62
     7
100
AcDbCircle
 10
-123.387711
 20
401.0
 30
0.0
 40
0.5
210
0.0
220
0.0
230
1.0
100
AcDbArc
 50
329.999989
 51
30.000001
  0
LINE
  5
128
100
AcDbEntity
  8
0
370
    35
390
0
 62
     7
 48
0.101036
100
AcDbLine
 10
-122.954697
 20
400.75
 30
0.0
 11
-124.975418
 21
397.25
 31
0.0
210
0.0
220
0.0
230
1.0
  0
ARC
  5
129
100
AcDbEntity
  8
0
370
    35
390
0
 62
     7
100
AcDbCircle
 10
-125.408432
 20
397.5
 30
0.0
 40
0.5
210
0.0
220
0.0
230
1.0
100
AcDbArc
 50
269.999997
 51
329.999989
  0
LINE
  5
12A
100
AcDbEntity
  8
0
370
    35
390
0
 62
     7
 48
0.201464
100
AcDbLine
 10
-125.408432
 20
397.0
 30
0.0
 11
-133.46698
 21
397.0
 31
0.0
210
0.0
220
0.0
230
1.0
  0
LINE
  5
12B
100
AcDbEntity
  8
0
370
    35
390
0
 62
     7
 48
0.020656
100
AcDbLine
 10
-203.437714
 20
405.630432
 30
0.0
 11
-203.437714
 21
404.804199
 31
0.0
210
0.0
220
0.0
230
1.0
  0
LINE
  5
12C
100
AcDbEntity
  8
0
370
    35
390
0
 62
     7
 48
0.055
100
AcDbLine
 10
-205.937714
 20
401.0
 30
0.0
 11
-203.737717
 21
401.0
 31
0.0
210
0.0
220
0.0
230
1.0
  0
LINE
  5
12D
100
AcDbEntity
  8
0
370
    35
390
0
 62
     7
 48
0.055708
100
AcDbLine
 10
-203.437714
 20
401.299988
 30
0.0
 11
-203.437714
 21
403.52832
 31
0.0
210
0.0
220
0.0
230
1.0
  0
LINE
  5
12E
100
AcDbEntity
  8
0
370
    35
390
0
 62
     7
 48
0.004231
100
AcDbLine
 10
-203.437714
 20
405.799683
 30
0.0
 11
-203.437714
 21
405.630432
 31
0.0
210
0.0
220
0.0
230
1.0
  0
LINE
  5
12F
100
AcDbEntity
  8
0
370
    35
390
0
 62
     7
 48
0.01
100
AcDbLine
 10
-195.237717
 20
406.400024
 30
0.0
 11
-195.637711
 21
406.400024
 31
0.0
210
0.0
220
0.0
230
1.0
  0
LINE
  5
130
100
AcDbEntity
  8
0
370
    35
390
0
 62
     7
 48
0.016249
100
AcDbLine
 10
-195.237717
 20
406.400024
 30
0.0
 11
-195.237717
 21
407.049988
 31
0.0
210
0.0
220
0.0
230
1.0
  0
ARC
  5
131
100
AcDbEntity
  8
0
370
    35
390
0
 62
     7
100
AcDbCircle
 10
-194.987717
 20
407.049988
 30
0.0
 40
0.25
210
0.0
220
0.0
230
1.0
100
AcDbArc
 50
90.000003
 51
179.999991
  0
LINE
  5
132
100
AcDbEntity
  8
0
370
    35
390
0
 62
     7
 48
0.01625
100
AcDbLine
 10
-194.987717
 20
407.299988
 30
0.0
 11
-194.337723
 21
407.299988
 31
0.0
210
0.0
220
0.0
230
1.0
  0
LINE
  5
133
100
AcDbEntity
  8
0
370
    35
390
0
 62
     7
 48
0.010001
100
AcDbLine
 10
-194.337723
 20
407.299988
 30
0.0
 11
-194.337723
 21
407.700012
 31
0.0
210
0.0
220
0.0
230
1.0
  0
LINE
  5
134
100
AcDbEntity
  8
0
370
    35
390
0
 62
     7
 48
0.01625
100
AcDbLine
 10
-194.987717
 20
407.700012
 30
0.0
 11
-194.337723
 21
407.700012
 31
0.0
210
0.0
220
0.0
230
1.0
  0
ARC
  5
135
100
AcDbEntity
  8
0
370
    35
390
0
 62
     7
100
AcDbCircle
 10
-194.987717
 20
407.950012
 30
0.0
 40
0.25
210
0.0
220
0.0
230
1.0
100
AcDbArc
 50
179.999991
 51
269.999997
  0
LINE
  5
136
100
AcDbEntity
  8
0
370
    35
390
0
 62
     7
 48
0.016249
100
AcDbLine
 10
-195.237717
 20
408.599976
 30
0.0
 11
-195.237717
 21
407.950012
 31
0.0
210
0.0
220
0.0
230
1.0
  0
LINE
  5
137
100
AcDbEntity
  8
0
370
    35
390
0
 62
     7
 48
0.01
100
AcDbLine
 10
-195.237717
 20
408.599976
 30
0.0
 11
-195.637711
 21
408.599976
 31
0.0
210
0.0
220
0.0
230
1.0
  0
LINE
  5
138
100
AcDbEntity
  8
0
370
    35
390
0
 62
     7
 48
0.016249
100
AcDbLine
 10
-195.637711
 20
408.599976
 30
0.0
 11
-195.637711
 21
407.950012
 31
0.0
210
0.0
220
0.0
230
1.0
  0
ARC
  5
139
100
AcDbEntity
  8
0
370
    35
390
0
 62
     7
100
AcDbCircle
 10
-195.887711
 20
407.950012
 30
0.0
 40
0.25
210
0.0
220
0.0
230
1.0
100
AcDbArc
 50
269.999997
 51
360.0
  0
LINE
  5
13A
100
AcDbEntity
  8
0
370
    35
390
0
 62
     7
 48
0.01625
100
AcDbLine
 10
-195.887711
 20
407.700012
 30
0.0
 11
-196.537704
 21
407.700012
 31
0.0
210
0.0
220
0.0
230
1.0
  0
LINE
  5
13B
100
AcDbEntity
  8
0
370
    35
390
0
 62
     7
 48
0.010001
100
AcDbLine
 10
-196.537704
 20
407.299988
 30
0.0
 11
-196.537704
 21
407.700012
 31
0.0
210
0.0
220
0.0
230
1.0
  0
LINE
  5
13C
100
AcDbEntity
  8
0
370
    35
390
0
 62
     7
 48
0.01625
100
AcDbLine
 10
-195.887711
 20
407.299988
 30
0.0
 11
-196.537704
 21
407.299988
 31
0.0
210
0.0
220
0.0
230
1.0
  0
ARC
  5
13D
100
AcDbEntity
  8
0
370
    35
390
0
 62
     7
100
AcDbCircle
 10
-195.887711
 20
407.049988
 30
0.0
 40
0.25
210
0.0
220
0.0
230
1.0
100
AcDbArc
 50
0.0
 51
90.000003
  0
LINE
  5
13E
100
AcDbEntity
  8
0
370
    35
390
0
 62
     7
 48
0.016249
100
AcDbLine
 10
-195.637711
 20
406.400024
 30
0.0
 11
-195.637711
 21
407.049988
 31
0.0
210
0.0
220
0.0
230
1.0
  0
LINE
  5
13F
100
AcDbEntity
  8
0
370
    35
390
0
 62
     7
 48
0.01
100
AcDbLine
 10
-116.237717
 20
406.400024
 30
0.0
 11
-116.637711
 21
406.400024
 31
0.0
210
0.0
220
0.0
230
1.0
  0
LINE
  5
140
100
AcDbEntity
  8
0
370
    35
390
0
 62
     7
 48
0.016249
100
AcDbLine
 10
-116.237717
 20
406.400024
 30
0.0
 11
-116.237717
 21
407.049988
 31
0.0
210
0.0
220
0.0
230
1.0
  0
ARC
  5
141
100
AcDbEntity
  8
0
370
    35
390
0
 62
     7
100
AcDbCircle
 10
-115.987717
 20
407.049988
 30
0.0
 40
0.25
210
0.0
220
0.0
230
1.0
100
AcDbArc
 50
90.000003
 51
179.999991
  0
LINE
  5
142
100
AcDbEntity
  8
0
370
    35
390
0
 62
     7
 48
0.01625
100
AcDbLine
 10
-115.987717
 20
407.299988
 30
0.0
 11
-115.337708
 21
407.299988
 31
0.0
210
0.0
220
0.0
230
1.0
  0
LINE
  5
143
100
AcDbEntity
  8
0
370
    35
390
0
 62
     7
 48
0.010001
100
AcDbLine
 10
-115.337708
 20
407.299988
 30
0.0
 11
-115.337708
 21
407.700012
 31
0.0
210
0.0
220
0.0
230
1.0
  0
LINE
  5
144
100
AcDbEntity
  8
0
370
    35
390
0
 62
     7
 48
0.01625
100
AcDbLine
 10
-115.987717
 20
407.700012
 30
0.0
 11
-115.337708
 21
407.700012
 31
0.0
210
0.0
220
0.0
230
1.0
  0
ARC
  5
145
100
AcDbEntity
  8
0
370
    35
390
0
 62
     7
100
AcDbCircle
 10
-115.987717
 20
407.950012
 30
0.0
 40
0.25
210
0.0
220
0.0
230
1.0
100
AcDbArc
 50
179.999991
 51
269.999997
  0
LINE
  5
146
100
AcDbEntity
  8
0
370
    35
390
0
 62
     7
 48
0.016249
100
AcDbLine
 10
-116.237717
 20
408.599976
 30
0.0
 11
-116.237717
 21
407.950012
 31
0.0
210
0.0
220
0.0
230
1.0
  0
LINE
  5
147
100
AcDbEntity
  8
0
370
    35
390
0
 62
     7
 48
0.01
100
AcDbLine
 10
-116.237717
 20
408.599976
 30
0.0
 11
-116.637711
 21
408.599976
 31
0.0
210
0.0
220
0.0
230
1.0
  0
LINE
  5
148
100
AcDbEntity
  8
0
370
    35
390
0
 62
     7
 48
0.016249
100
AcDbLine
 10
-116.637711
 20
408.599976
 30
0.0
 11
-116.637711
 21
407.950012
 31
0.0
210
0.0
220
0.0
230
1.0
  0
ARC
  5
149
100
AcDbEntity
  8
0
370
    35
390
0
 62
     7
100
AcDbCircle
 10
-116.887711
 20
407.950012
 30
0.0
 40
0.25
210
0.0
220
0.0
230
1.0
100
AcDbArc
 50
269.999997
 51
360.0
  0
LINE
  5
14A
100
AcDbEntity
  8
0
370
    35
390
0
 62
     7
 48
0.01625
100
AcDbLine
 10
-116.887711
 20
407.700012
 30
0.0
 11
-117.537704
 21
407.700012
 31
0.0
210
0.0
220
0.0
230
1.0
  0
LINE
  5
14B
100
AcDbEntity
  8
0
370
    35
390
0
 62
     7
 48
0.010001
100
AcDbLine
 10
-117.537704
 20
407.299988
 30
0.0
 11
-117.537704
 21
407.700012
 31
0.0
210
0.0
220
0.0
230
1.0
  0
LINE
  5
14C
100
AcDbEntity
  8
0
370
    35
390
0
 62
     7
 48
0.01625
100
AcDbLine
 10
-116.887711
 20
407.299988
 30
0.0
 11
-117.537704
 21
407.299988
 31
0.0
210
0.0
220
0.0
230
1.0
  0
ARC
  5
14D
100
AcDbEntity
  8
0
370
    35
390
0
 62
     7
100
AcDbCircle
 10
-116.887711
 20
407.049988
 30
0.0
 40
0.25
210
0.0
220
0.0
230
1.0
100
AcDbArc
 50
0.0
 51
90.000003
  0
LINE
  5
14E
100
AcDbEntity
  8
0
370
    35
390
0
 62
     7
 48
0.016249
100
AcDbLine
 10
-116.637711
 20
406.400024
 30
0.0
 11
-116.637711
 21
407.049988
 31
0.0
210
0.0
220
0.0
230
1.0
  0
LINE
  5
14F
100
AcDbEntity
  8
0
370
    35
390
0
 62
     7
 48
0.01165
100
AcDbLine
 10
-96.687714
 20
385.150024
 30
0.0
 11
-97.129807
 21
385.002625
 31
0.0
210
0.0
220
0.0
230
1.0
  0
LINE
  5
150
100
AcDbEntity
  8
0
370
    35
390
0
 62
     7
 48
0.017334
100
AcDbLine
 10
-92.963364
 20
390.400024
 30
0.0
 11
-92.270004
 21
390.400024
 31
0.0
210
0.0
220
0.0
230
1.0
  0
LINE
  5
151
100
AcDbEntity
  8
0
370
    35
390
0
 62
     7
 48
0.108114
100
AcDbLine
 10
-92.963364
 20
390.400024
 30
0.0
 11
-97.287918
 21
390.400024
 31
0.0
210
0.0
220
0.0
230
1.0
  0
LINE
  5
152
100
AcDbEntity
  8
0
370
    35
390
0
 62
     7
 48
0.011859
100
AcDbLine
 10
-97.762268
 20
390.400024
 30
0.0
 11
-97.287918
 21
390.400024
 31
0.0
210
0.0
220
0.0
230
1.0
  0
LINE
  5
153
100
AcDbEntity
  8
0
370
    35
390
0
 62
     7
 48
0.113962
100
AcDbLine
 10
-92.805252
 20
404.955811
 30
0.0
 11
-97.129807
 21
406.397339
 31
0.0
210
0.0
220
0.0
230
1.0
  0
LINE
  5
154
100
AcDbEntity
  8
0
370
    35
390
0
 62
     7
 48
0.031897
100
AcDbLine
 10
-203.437714
 20
404.804199
 30
0.0
 11
-203.437714
 21
403.52832
 31
0.0
210
0.0
220
0.0
230
1.0
  0
ARC
  5
155
100
AcDbEntity
  8
0
370
    35
390
0
 62
     7
100
AcDbCircle
 10
-203.737717
 20
401.299988
 30
0.0
 40
0.3
210
0.0
220
0.0
230
1.0
100
AcDbArc
 50
269.999997
 51
360.0
  0
LINE
  5
156
100
AcDbEntity
  8
0
370
    35
390
0
 62
     7
 48
0.083218
100
AcDbLine
 10
-205.893387
 20
405.078735
 30
0.0
 11
-205.893387
 21
401.75
 31
0.0
210
0.0
220
0.0
230
1.0
  0
LINE
  5
157
100
AcDbEntity
  8
0
370
    35
390
0
 62
     7
 48
0.029282
100
AcDbLine
 10
-205.893387
 20
406.25
 30
0.0
 11
-205.893387
 21
405.078735
 31
0.0
210
0.0
220
0.0
230
1.0
  0
LINE
  5
158
100
AcDbEntity
  8
0
370
    35
390
0
 62
     7
 48
0.028026
100
AcDbLine
 10
-91.437714
 20
389.649963
 30
0.0
 11
-91.437714
 21
390.770996
 31
0.0
210
0.0
220
0.0
230
1.0
  0
LINE
  5
159
100
AcDbEntity
  8
0
370
    35
390
0
 62
     7
 48
0.023033
100
AcDbLine
 10
-91.437714
 20
391.692322
 30
0.0
 11
-91.437714
 21
390.770996
 31
0.0
210
0.0
220
0.0
230
1.0
  0
LINE
  5
15A
100
AcDbEntity
  8
0
370
    35
390
0
 62
     7
 48
0.006345
100
AcDbLine
 10
-91.737717
 20
393.488037
 30
0.0
 11
-91.678909
 21
393.24115
 31
0.0
210
0.0
220
0.0
230
1.0
  0
LINE
  5
15B
100
AcDbEntity
  8
0
370
    35
390
0
 62
     7
 48
0.004966
100
AcDbLine
 10
-91.678909
 20
393.24115
 30
0.0
 11
-91.62915
 21
393.048828
 31
0.0
210
0.0
220
0.0
230
1.0
  0
LINE
  5
15C
100
AcDbEntity
  8
0
370
    35
390
0
 62
     7
 48
0.006878
100
AcDbLine
 10
-91.62915
 20
393.048828
 30
0.0
 11
-91.558014
 21
392.783081
 31
0.0
210
0.0
220
0.0
230
1.0
  0
LINE
  5
15D
100
AcDbEntity
  8
0
370
    35
390
0
 62
     7
 48
0.003273
100
AcDbLine
 10
-91.558014
 20
392.783081
 30
0.0
 11
-91.525055
 21
392.656372
 31
0.0
210
0.0
220
0.0
230
1.0
  0
LINE
  5
15E
100
AcDbEntity
  8
0
370
    35
390
0
 62
     7
 48
0.002662
100
AcDbLine
 10
-91.525055
 20
392.656372
 30
0.0
 11
-91.499802
 21
392.552917
 31
0.0
210
0.0
220
0.0
230
1.0
  0
LINE
  5
15F
100
AcDbEntity
  8
0
370
    35
390
0
 62
     7
 48
0.002559
100
AcDbLine
 10
-91.499802
 20
392.552917
 30
0.0
 11
-91.477768
 21
392.452942
 31
0.0
210
0.0
220
0.0
230
1.0
  0
LINE
  5
160
100
AcDbEntity
  8
0
370
    35
390
0
 62
     7
 48
0.00299
100
AcDbLine
 10
-91.477768
 20
392.452942
 30
0.0
 11
-91.45639
 21
392.335266
 31
0.0
210
0.0
220
0.0
230
1.0
  0
LINE
  5
161
100
AcDbEntity
  8
0
370
    35
390
0
 62
     7
 48
0.001568
100
AcDbLine
 10
-91.45639
 20
392.335266
 30
0.0
 11
-91.447815
 21
392.273132
 31
0.0
210
0.0
220
0.0
230
1.0
  0
LINE
  5
162
100
AcDbEntity
  8
0
370
    35
390
0
 62
     7
 48
0.001523
100
AcDbLine
 10
-91.447815
 20
392.273132
 30
0.0
 11
-91.441742
 21
392.212524
 31
0.0
210
0.0
220
0.0
230
1.0
  0
LINE
  5
163
100
AcDbEntity
  8
0
370
    35
390
0
 62
     7
 48
0.001232
100
AcDbLine
 10
-91.441742
 20
392.212524
 30
0.0
 11
-91.438736
 21
392.16333
 31
0.0
210
0.0
220
0.0
230
1.0
  0
LINE
  5
164
100
AcDbEntity
  8
0
370
    35
390
0
 62
     7
 48
0.001207
100
AcDbLine
 10
-91.438736
 20
392.16333
 30
0.0
 11
-91.437714
 21
392.115051
 31
0.0
210
0.0
220
0.0
230
1.0
  0
LINE
  5
165
100
AcDbEntity
  8
0
370
    35
390
0
 62
     7
 48
0.009694
100
AcDbLine
 10
-91.737717
 20
397.912048
 30
0.0
 11
-91.821167
 21
397.533386
 31
0.0
210
0.0
220
0.0
230
1.0
  0
LINE
  5
166
100
AcDbEntity
  8
0
370
    35
390
0
 62
     7
 48
0.004894
100
AcDbLine
 10
-91.821167
 20
397.533386
 30
0.0
 11
-91.861267
 21
397.341797
 31
0.0
210
0.0
220
0.0
230
1.0
  0
LINE
  5
167
100
AcDbEntity
  8
0
370
    35
390
0
 62
     7
 48
0.007384
100
AcDbLine
 10
-91.861267
 20
397.341797
 30
0.0
 11
-91.917343
 21
397.051819
 31
0.0
210
0.0
220
0.0
230
1.0
  0
LINE
  5
168
100
AcDbEntity
  8
0
370
    35
390
0
 62
     7
 48
0.00557
100
AcDbLine
 10
-91.917343
 20
397.051819
 30
0.0
 11
-91.954941
 21
396.832214
 31
0.0
210
0.0
220
0.0
230
1.0
  0
LINE
  5
169
100
AcDbEntity
  8
0
370
    35
390
0
 62
     7
 48
0.005591
100
AcDbLine
 10
-91.954941
 20
396.832214
 30
0.0
 11
-91.987595
 21
396.610962
 31
0.0
210
0.0
220
0.0
230
1.0
  0
LINE
  5
16A
100
AcDbEntity
  8
0
370
    35
390
0
 62
     7
 48
0.005711
100
AcDbLine
 10
-91.987595
 20
396.610962
 30
0.0
 11
-92.014755
 21
396.384155
 31
0.0
210
0.0
220
0.0
230
1.0
  0
LINE
  5
16B
100
AcDbEntity
  8
0
370
    35
390
0
 62
     7
 48
0.005706
100
AcDbLine
 10
-92.014755
 20
396.384155
 30
0.0
 11
-92.034821
 21
396.156799
 31
0.0
210
0.0
220
0.0
230
1.0
  0
LINE
  5
16C
100
AcDbEntity
  8
0
370
    35
390
0
 62
     7
 48
0.00285
100
AcDbLine
 10
-92.034821
 20
396.156799
 30
0.0
 11
-92.041977
 21
396.04303
 31
0.0
210
0.0
220
0.0
230
1.0
  0
LINE
  5
16D
100
AcDbEntity
  8
0
370
    35
390
0
 62
     7
 48
0.002844
100
AcDbLine
 10
-92.041977
 20
396.04303
 30
0.0
 11
-92.047134
 21
395.929382
 31
0.0
210
0.0
220
0.0
230
1.0
  0
LINE
  5
16E
100
AcDbEntity
  8
0
370
    35
390
0
 62
     7
 48
0.003787
100
AcDbLine
 10
-92.047134
 20
395.929382
 30
0.0
 11
-92.050842
 21
395.777954
 31
0.0
210
0.0
220
0.0
230
1.0
  0
LINE
  5
16F
100
AcDbEntity
  8
0
370
    35
390
0
 62
     7
 48
0.003783
100
AcDbLine
 10
-92.050842
 20
395.777954
 30
0.0
 11
-92.050903
 21
395.626648
 31
0.0
210
0.0
220
0.0
230
1.0
  0
LINE
  5
170
100
AcDbEntity
  8
0
370
    35
390
0
 62
     7
 48
0.003778
100
AcDbLine
 10
-92.050903
 20
395.626648
 30
0.0
 11
-92.047333
 21
395.475586
 31
0.0
210
0.0
220
0.0
230
1.0
  0
LINE
  5
171
100
AcDbEntity
  8
0
370
    35
390
0
 62
     7
 48
0.004718
100
AcDbLine
 10
-92.047333
 20
395.475586
 30
0.0
 11
-92.037827
 21
395.287109
 31
0.0
210
0.0
220
0.0
230
1.0
  0
LINE
  5
172
100
AcDbEntity
  8
0
370
    35
390
0
 62
     7
 48
0.004722
100
AcDbLine
 10
-92.037827
 20
395.287109
 30
0.0
 11
-92.022949
 21
395.098816
 31
0.0
210
0.0
220
0.0
230
1.0
  0
LINE
  5
173
100
AcDbEntity
  8
0
370
    35
390
0
 62
     7
 48
0.004724
100
AcDbLine
 10
-92.022949
 20
395.098816
 30
0.0
 11
-92.003036
 21
394.910889
 31
0.0
210
0.0
220
0.0
230
1.0
  0
LINE
  5
174
100
AcDbEntity
  8
0
370
    35
390
0
 62
     7
 48
0.003247
100
AcDbLine
 10
-92.003036
 20
394.910889
 30
0.0
 11
-91.986649
 21
394.782043
 31
0.0
210
0.0
220
0.0
230
1.0
  0
LINE
  5
175
100
AcDbEntity
  8
0
370
    35
390
0
 62
     7
 48
0.003249
100
AcDbLine
 10
-91.986649
 20
394.782043
 30
0.0
 11
-91.968231
 21
394.653381
 31
0.0
210
0.0
220
0.0
230
1.0
  0
LINE
  5
176
100
AcDbEntity
  8
0
370
    35
390
0
 62
     7
 48
0.003847
100
AcDbLine
 10
-91.968231
 20
394.653381
 30
0.0
 11
-91.944077
 21
394.501404
 31
0.0
210
0.0
220
0.0
230
1.0
  0
LINE
  5
177
100
AcDbEntity
  8
0
370
    35
390
0
 62
     7
 48
0.003841
100
AcDbLine
 10
-91.944077
 20
394.501404
 30
0.0
 11
-91.917679
 21
394.350037
 31
0.0
210
0.0
220
0.0
230
1.0
  0
LINE
  5
178
100
AcDbEntity
  8
0
370
    35
390
0
 62
     7
 48
0.007399
100
AcDbLine
 10
-91.917679
 20
394.350037
 30
0.0
 11
-91.861511
 21
394.059448
 31
0.0
210
0.0
220
0.0
230
1.0
  0
LINE
  5
179
100
AcDbEntity
  8
0
370
    35
390
0
 62
     7
 48
0.004903
100
AcDbLine
 10
-91.861511
 20
394.059448
 30
0.0
 11
-91.82135
 21
393.867493
 31
0.0
210
0.0
220
0.0
230
1.0
  0
LINE
  5
17A
100
AcDbEntity
  8
0
370
    35
390
0
 62
     7
 48
0.009714
100
AcDbLine
 10
-91.82135
 20
393.867493
 30
0.0
 11
-91.737717
 21
393.488037
 31
0.0
210
0.0
220
0.0
230
1.0
  0
LINE
  5
17B
100
AcDbEntity
  8
0
370
    35
390
0
 62
     7
 48
0.006343
100
AcDbLine
 10
-91.737701
 20
397.912048
 30
0.0
 11
-91.678909
 21
398.158875
 31
0.0
210
0.0
220
0.0
230
1.0
  0
LINE
  5
17C
100
AcDbEntity
  8
0
370
    35
390
0
 62
     7
 48
0.004966
100
AcDbLine
 10
-91.678909
 20
398.158875
 30
0.0
 11
-91.62915
 21
398.351196
 31
0.0
210
0.0
220
0.0
230
1.0
  0
LINE
  5
17D
100
AcDbEntity
  8
0
370
    35
390
0
 62
     7
 48
0.006877
100
AcDbLine
 10
-91.62915
 20
398.351196
 30
0.0
 11
-91.558029
 21
398.616943
 31
0.0
210
0.0
220
0.0
230
1.0
  0
LINE
  5
17E
100
AcDbEntity
  8
0
370
    35
390
0
 62
     7
 48
0.003273
100
AcDbLine
 10
-91.558029
 20
398.616943
 30
0.0
 11
-91.52507
 21
398.743652
 31
0.0
210
0.0
220
0.0
230
1.0
  0
LINE
  5
17F
100
AcDbEntity
  8
0
370
    35
390
0
 62
     7
 48
0.002661
100
AcDbLine
 10
-91.52507
 20
398.743652
 30
0.0
 11
-91.499802
 21
398.847046
 31
0.0
210
0.0
220
0.0
230
1.0
  0
LINE
  5
180
100
AcDbEntity
  8
0
370
    35
390
0
 62
     7
 48
0.002559
100
AcDbLine
 10
-91.499802
 20
398.847046
 30
0.0
 11
-91.477768
 21
398.947021
 31
0.0
210
0.0
220
0.0
230
1.0
  0
LINE
  5
181
100
AcDbEntity
  8
0
370
    35
390
0
 62
     7
 48
0.002992
100
AcDbLine
 10
-91.477768
 20
398.947021
 30
0.0
 11
-91.45639
 21
399.064758
 31
0.0
210
0.0
220
0.0
230
1.0
  0
LINE
  5
182
100
AcDbEntity
  8
0
370
    35
390
0
 62
     7
 48
0.001568
100
AcDbLine
 10
-91.45639
 20
399.064758
 30
0.0
 11
-91.447815
 21
399.126892
 31
0.0
210
0.0
220
0.0
230
1.0
  0
LINE
  5
183
100
AcDbEntity
  8
0
370
    35
390
0
 62
     7
 48
0.001523
100
AcDbLine
 10
-91.447815
 20
399.126892
 30
0.0
 11
-91.441742
 21
399.1875
 31
0.0
210
0.0
220
0.0
230
1.0
  0
LINE
  5
184
100
AcDbEntity
  8
0
370
    35
390
0
 62
     7
 48
0.001234
100
AcDbLine
 10
-91.441742
 20
399.1875
 30
0.0
 11
-91.438736
 21
399.236755
 31
0.0
210
0.0
220
0.0
230
1.0
  0
LINE
  5
185
100
AcDbEntity
  8
0
370
    35
390
0
 62
     7
 48
0.001206
100
AcDbLine
 10
-91.438736
 20
399.236755
 30
0.0
 11
-91.437714
 21
399.284973
 31
0.0
210
0.0
220
0.0
230
1.0
  0
LINE
  5
186
100
AcDbEntity
  8
0
370
    35
390
0
 62
     7
 48
0.083769
100
AcDbLine
 10
-91.437714
 20
403.058472
 30
0.0
 11
-91.437714
 21
399.707703
 31
0.0
210
0.0
220
0.0
230
1.0
  0
ARC
  5
187
100
AcDbEntity
  8
0
370
    35
390
0
 62
     7
100
AcDbCircle
 10
-93.437714
 20
403.058472
 30
0.0
 40
2.0
210
0.0
220
0.0
230
1.0
100
AcDbArc
 50
0.0
 51
71.565001
  0
LINE
  5
188
100
AcDbEntity
  8
0
370
    35
390
0
 62
     7
 48
0.073972
100
AcDbLine
 10
-206.037704
 20
404.958862
 30
0.0
 11
-206.037704
 21
402.0
 31
0.0
210
0.0
220
0.0
230
1.0
  0
LINE
  5
189
100
AcDbEntity
  8
0
370
    35
390
0
 62
     7
 48
0.026028
100
AcDbLine
 10
-206.037704
 20
406.0
 30
0.0
 11
-206.037704
 21
404.958862
 31
0.0
210
0.0
220
0.0
230
1.0
  0
LINE
  5
18A
100
AcDbEntity
  8
0
370
    35
390
0
 62
     7
 48
0.003668
100
AcDbLine
 10
-76.437714
 20
386.174561
 30
0.0
 11
-76.437714
 21
386.321289
 31
0.0
210
0.0
220
0.0
230
1.0
  0
LINE
  5
18B
100
AcDbEntity
  8
0
370
    35
390
0
 62
     7
 48
0.004764
100
AcDbLine
 10
-76.437714
 20
385.984009
 30
0.0
 11
-76.437714
 21
386.174561
 31
0.0
210
0.0
220
0.0
230
1.0
  0
LINE
  5
18C
100
AcDbEntity
  8
0
370
    35
390
0
 62
     7
 48
0.004375
100
AcDbLine
 10
-76.437714
 20
385.809021
 30
0.0
 11
-76.437714
 21
385.984009
 31
0.0
210
0.0
220
0.0
230
1.0
  0
LINE
  5
18D
100
AcDbEntity
  8
0
370
    35
390
0
 62
     7
 48
0.00394
100
AcDbLine
 10
-76.437714
 20
385.651428
 30
0.0
 11
-76.437714
 21
385.809021
 31
0.0
210
0.0
220
0.0
230
1.0
  0
LINE
  5
18E
100
AcDbEntity
  8
0
370
    35
390
0
 62
     7
 48
0.003461
100
AcDbLine
 10
-76.437714
 20
385.513
 30
0.0
 11
-76.437714
 21
385.651428
 31
0.0
210
0.0
220
0.0
230
1.0
  0
LINE
  5
18F
100
AcDbEntity
  8
0
370
    35
390
0
 62
     7
 48
0.002945
100
AcDbLine
 10
-76.437714
 20
385.395203
 30
0.0
 11
-76.437714
 21
385.513
 31
0.0
210
0.0
220
0.0
230
1.0
  0
LINE
  5
190
100
AcDbEntity
  8
0
370
    35
390
0
 62
     7
 48
0.002394
100
AcDbLine
 10
-76.437714
 20
385.299438
 30
0.0
 11
-76.437714
 21
385.395203
 31
0.0
210
0.0
220
0.0
230
1.0
  0
LINE
  5
191
100
AcDbEntity
  8
0
370
    35
390
0
 62
     7
 48
0.003735
100
AcDbLine
 10
-76.437714
 20
385.150024
 30
0.0
 11
-76.437714
 21
385.299438
 31
0.0
210
0.0
220
0.0
230
1.0
  0
LINE
  5
192
100
AcDbEntity
  8
0
370
    35
390
0
 62
     7
 48
0.001224
100
AcDbLine
 10
-76.437714
 20
385.177734
 30
0.0
 11
-76.437714
 21
385.226685
 31
0.0
210
0.0
220
0.0
230
1.0
  0
LINE
  5
193
100
AcDbEntity
  8
0
370
    35
390
0
 62
     7
 48
0.000616
100
AcDbLine
 10
-76.437714
 20
385.153076
 30
0.0
 11
-76.437714
 21
385.177734
 31
0.0
210
0.0
220
0.0
230
1.0
  0
LINE
  5
194
100
AcDbEntity
  8
0
370
    35
390
0
 62
     7
 48
0.000076
100
AcDbLine
 10
-76.437714
 20
385.150024
 30
0.0
 11
-76.437714
 21
385.153076
 31
0.0
210
0.0
220
0.0
230
1.0
  0
LINE
  5
195
100
AcDbEntity
  8
0
370
    35
390
0
 62
     7
 48
0.000078
100
AcDbLine
 10
-76.437714
 20
389.646912
 30
0.0
 11
-76.437714
 21
389.650024
 31
0.0
210
0.0
220
0.0
230
1.0
  0
LINE
  5
196
100
AcDbEntity
  8
0
370
    35
390
0
 62
     7
 48
0.000615
100
AcDbLine
 10
-76.437714
 20
389.622314
 30
0.0
 11
-76.437714
 21
389.646912
 31
0.0
210
0.0
220
0.0
230
1.0
  0
LINE
  5
197
100
AcDbEntity
  8
0
370
    35
390
0
 62
     7
 48
0.001224
100
AcDbLine
 10
-76.437714
 20
389.573364
 30
0.0
 11
-76.437714
 21
389.622314
 31
0.0
210
0.0
220
0.0
230
1.0
  0
LINE
  5
198
100
AcDbEntity
  8
0
370
    35
390
0
 62
     7
 48
0.00182
100
AcDbLine
 10
-76.437714
 20
389.500549
 30
0.0
 11
-76.437714
 21
389.573364
 31
0.0
210
0.0
220
0.0
230
1.0
  0
LINE
  5
199
100
AcDbEntity
  8
0
370
    35
390
0
 62
     7
 48
0.002394
100
AcDbLine
 10
-76.437714
 20
389.404785
 30
0.0
 11
-76.437714
 21
389.500549
 31
0.0
210
0.0
220
0.0
230
1.0
  0
LINE
  5
19A
100
AcDbEntity
  8
0
370
    35
390
0
 62
     7
 48
0.000755
100
AcDbLine
 10
-76.437714
 20
389.374573
 30
0.0
 11
-76.437714
 21
389.404785
 31
0.0
210
0.0
220
0.0
230
1.0
  0
LINE
  5
19B
100
AcDbEntity
  8
0
370
    35
390
0
 62
     7
 48
0.002188
100
AcDbLine
 10
-76.437714
 20
389.287048
 30
0.0
 11
-76.437714
 21
389.374573
 31
0.0
210
0.0
220
0.0
230
1.0
  0
LINE
  5
19C
100
AcDbEntity
  8
0
370
    35
390
0
 62
     7
 48
0.003462
100
AcDbLine
 10
-76.437714
 20
389.14856
 30
0.0
 11
-76.437714
 21
389.287048
 31
0.0
210
0.0
220
0.0
230
1.0
  0
LINE
  5
19D
100
AcDbEntity
  8
0
370
    35
390
0
 62
     7
 48
0.00394
100
AcDbLine
 10
-76.437714
 20
388.990967
 30
0.0
 11
-76.437714
 21
389.14856
 31
0.0
210
0.0
220
0.0
230
1.0
  0
LINE
  5
19E
100
AcDbEntity
  8
0
370
    35
390
0
 62
     7
 48
0.004375
100
AcDbLine
 10
-76.437714
 20
388.815979
 30
0.0
 11
-76.437714
 21
388.990967
 31
0.0
210
0.0
220
0.0
230
1.0
  0
LINE
  5
19F
100
AcDbEntity
  8
0
370
    35
390
0
 62
     7
 48
0.004764
100
AcDbLine
 10
-76.437714
 20
388.625427
 30
0.0
 11
-76.437714
 21
388.815979
 31
0.0
210
0.0
220
0.0
230
1.0
  0
LINE
  5
1A0
100
AcDbEntity
  8
0
370
    35
390
0
 62
     7
 48
0.005099
100
AcDbLine
 10
-76.437714
 20
388.421448
 30
0.0
 11
-76.437714
 21
388.625427
 31
0.0
210
0.0
220
0.0
230
1.0
  0
LINE
  5
1A1
100
AcDbEntity
  8
0
370
    35
390
0
 62
     7
 48
0.005379
100
AcDbLine
 10
-76.437714
 20
388.206299
 30
0.0
 11
-76.437714
 21
388.421448
 31
0.0
210
0.0
220
0.0
230
1.0
  0
LINE
  5
1A2
100
AcDbEntity
  8
0
370
    35
390
0
 62
     7
 48
0.005598
100
AcDbLine
 10
-76.437714
 20
387.982361
 30
0.0
 11
-76.437714
 21
388.206299
 31
0.0
210
0.0
220
0.0
230
1.0
  0
LINE
  5
1A3
100
AcDbEntity
  8
0
370
    35
390
0
 62
     7
 48
0.005759
100
AcDbLine
 10
-76.437714
 20
387.752014
 30
0.0
 11
-76.437714
 21
387.982361
 31
0.0
210
0.0
220
0.0
230
1.0
  0
LINE
  5
1A4
100
AcDbEntity
  8
0
370
    35
390
0
 62
     7
 48
0.005856
100
AcDbLine
 10
-76.437714
 20
387.517761
 30
0.0
 11
-76.437714
 21
387.752014
 31
0.0
210
0.0
220
0.0
230
1.0
  0
LINE
  5
1A5
100
AcDbEntity
  8
0
370
    35
390
0
 62
     7
 48
0.005888
100
AcDbLine
 10
-76.437714
 20
387.282227
 30
0.0
 11
-76.437714
 21
387.517761
 31
0.0
210
0.0
220
0.0
230
1.0
  0
LINE
  5
1A6
100
AcDbEntity
  8
0
370
    35
390
0
 62
     7
 48
0.005855
100
AcDbLine
 10
-76.437714
 20
387.048035
 30
0.0
 11
-76.437714
 21
387.282227
 31
0.0
210
0.0
220
0.0
230
1.0
  0
LINE
  5
1A7
100
AcDbEntity
  8
0
370
    35
390
0
 62
     7
 48
0.00576
100
AcDbLine
 10
-76.437714
 20
386.817627
 30
0.0
 11
-76.437714
 21
387.048035
 31
0.0
210
0.0
220
0.0
230
1.0
  0
LINE
  5
1A8
100
AcDbEntity
  8
0
370
    35
390
0
 62
     7
 48
0.005598
100
AcDbLine
 10
-76.437714
 20
386.593689
 30
0.0
 11
-76.437714
 21
386.817627
 31
0.0
210
0.0
220
0.0
230
1.0
  0
LINE
  5
1A9
100
AcDbEntity
  8
0
370
    35
390
0
 62
     7
 48
0.005379
100
AcDbLine
 10
-76.437714
 20
386.37854
 30
0.0
 11
-76.437714
 21
386.593689
 31
0.0
210
0.0
220
0.0
230
1.0
  0
LINE
  5
1AA
100
AcDbEntity
  8
0
370
    35
390
0
 62
     7
 48
0.001431
100
AcDbLine
 10
-76.437714
 20
386.321289
 30
0.0
 11
-76.437714
 21
386.37854
 31
0.0
210
0.0
220
0.0
230
1.0
  0
LINE
  5
1AB
100
AcDbEntity
  8
0
370
    35
390
0
 62
     7
 48
0.026141
100
AcDbLine
 10
-91.437714
 20
394.138
 30
0.0
 11
-91.437714
 21
393.092346
 31
0.0
210
0.0
220
0.0
230
1.0
  0
LINE
  5
1AC
100
AcDbEntity
  8
0
370
    35
390
0
 62
     7
 48
0.032115
100
AcDbLine
 10
-91.437714
 20
391.807739
 30
0.0
 11
-91.437714
 21
393.092346
 31
0.0
210
0.0
220
0.0
230
1.0
  0
LINE
  5
1AD
100
AcDbEntity
  8
0
370
    35
390
0
 62
     7
 48
0.002885
100
AcDbLine
 10
-91.437714
 20
391.692322
 30
0.0
 11
-91.437714
 21
391.807739
 31
0.0
210
0.0
220
0.0
230
1.0
  0
LINE
  5
1AE
100
AcDbEntity
  8
0
370
    35
390
0
 62
     7
 48
0.078101
100
AcDbLine
 10
-91.437714
 20
394.138
 30
0.0
 11
-91.437714
 21
397.262024
 31
0.0
210
0.0
220
0.0
230
1.0
  0
LINE
  5
1AF
100
AcDbEntity
  8
0
370
    35
390
0
 62
     7
 48
0.002884
100
AcDbLine
 10
-91.437714
 20
399.707703
 30
0.0
 11
-91.437714
 21
399.592346
 31
0.0
210
0.0
220
0.0
230
1.0
  0
LINE
  5
1B0
100
AcDbEntity
  8
0
370
    35
390
0
 62
     7
 48
0.032115
100
AcDbLine
 10
-91.437714
 20
398.307739
 30
0.0
 11
-91.437714
 21
399.592346
 31
0.0
210
0.0
220
0.0
230
1.0
  0
LINE
  5
1B1
100
AcDbEntity
  8
0
370
    35
390
0
 62
     7
 48
0.026143
100
AcDbLine
 10
-91.437714
 20
398.307739
 30
0.0
 11
-91.437714
 21
397.262024
 31
0.0
210
0.0
220
0.0
230
1.0
  0
LINE
  5
1B2
100
AcDbEntity
  8
0
370
    35
390
0
 62
     7
 48
0.242696
100
AcDbLine
 10
-91.437714
 20
399.592346
 30
0.0
 11
-81.729889
 21
399.592346
 31
0.0
210
0.0
220
0.0
230
1.0
  0
LINE
  5
1B3
100
AcDbEntity
  8
0
370
    35
390
0
 62
     7
 48
0.002217
100
AcDbLine
 10
-81.729889
 20
402.200012
 30
0.0
 11
-81.6754
 21
402.130066
 31
0.0
210
0.0
220
0.0
230
1.0
  0
LINE
  5
1B4
100
AcDbEntity
  8
0
370
    35
390
0
 62
     7
 48
0.002142
100
AcDbLine
 10
-81.6754
 20
402.130066
 30
0.0
 11
-81.624298
 21
402.061279
 31
0.0
210
0.0
220
0.0
230
1.0
  0
LINE
  5
1B5
100
AcDbEntity
  8
0
370
    35
390
0
 62
     7
 48
0.002066
100
AcDbLine
 10
-81.624298
 20
402.061279
 30
0.0
 11
-81.57666
 21
401.993774
 31
0.0
210
0.0
220
0.0
230
1.0
  0
LINE
  5
1B6
100
AcDbEntity
  8
0
370
    35
390
0
 62
     7
 48
0.002002
100
AcDbLine
 10
-81.57666
 20
401.993774
 30
0.0
 11
-81.532166
 21
401.927185
 31
0.0
210
0.0
220
0.0
230
1.0
  0
LINE
  5
1B7
100
AcDbEntity
  8
0
370
    35
390
0
 62
     7
 48
0.002581
100
AcDbLine
 10
-81.532166
 20
401.927185
 30
0.0
 11
-81.477448
 21
401.839661
 31
0.0
210
0.0
220
0.0
230
1.0
  0
LINE
  5
1B8
100
AcDbEntity
  8
0
370
    35
390
0
 62
     7
 48
0.002484
100
AcDbLine
 10
-81.477448
 20
401.839661
 30
0.0
 11
-81.427933
 21
401.75354
 31
0.0
210
0.0
220
0.0
230
1.0
  0
LINE
  5
1B9
100
AcDbEntity
  8
0
370
    35
390
0
 62
     7
 48
0.002395
100
AcDbLine
 10
-81.427933
 20
401.75354
 30
0.0
 11
-81.383469
 21
401.668701
 31
0.0
210
0.0
220
0.0
230
1.0
  0
LINE
  5
1BA
100
AcDbEntity
  8
0
370
    35
390
0
 62
     7
 48
0.002768
100
AcDbLine
 10
-81.383469
 20
401.668701
 30
0.0
 11
-81.336502
 21
401.56842
 31
0.0
210
0.0
220
0.0
230
1.0
  0
LINE
  5
1BB
100
AcDbEntity
  8
0
370
    35
390
0
 62
     7
 48
0.00267
100
AcDbLine
 10
-81.336502
 20
401.56842
 30
0.0
 11
-81.296295
 21
401.469482
 31
0.0
210
0.0
220
0.0
230
1.0
  0
LINE
  5
1BC
100
AcDbEntity
  8
0
370
    35
390
0
 62
     7
 48
0.002585
100
AcDbLine
 10
-81.296295
 20
401.469482
 30
0.0
 11
-81.262634
 21
401.371704
 31
0.0
210
0.0
220
0.0
230
1.0
  0
LINE
  5
1BD
100
AcDbEntity
  8
0
370
    35
390
0
 62
     7
 48
0.002514
100
AcDbLine
 10
-81.262634
 20
401.371704
 30
0.0
 11
-81.235336
 21
401.274902
 31
0.0
210
0.0
220
0.0
230
1.0
  0
LINE
  5
1BE
100
AcDbEntity
  8
0
370
    35
390
0
 62
     7
 48
0.002457
100
AcDbLine
 10
-81.235336
 20
401.274902
 30
0.0
 11
-81.214294
 21
401.178894
 31
0.0
210
0.0
220
0.0
230
1.0
  0
LINE
  5
1BF
100
AcDbEntity
  8
0
370
    35
390
0
 62
     7
 48
0.002627
100
AcDbLine
 10
-81.214294
 20
401.178894
 30
0.0
 11
-81.198364
 21
401.075012
 31
0.0
210
0.0
220
0.0
230
1.0
  0
LINE
  5
1C0
100
AcDbEntity
  8
0
370
    35
390
0
 62
     7
 48
0.002596
100
AcDbLine
 10
-81.198364
 20
401.075012
 30
0.0
 11
-81.189606
 21
400.971558
 31
0.0
210
0.0
220
0.0
230
1.0
  0
LINE
  5
1C1
100
AcDbEntity
  8
0
370
    35
390
0
 62
     7
 48
0.002581
100
AcDbLine
 10
-81.189606
 20
400.971558
 30
0.0
 11
-81.187973
 21
400.868347
 31
0.0
210
0.0
220
0.0
230
1.0
  0
LINE
  5
1C2
100
AcDbEntity
  8
0
370
    35
390
0
 62
     7
 48
0.002587
100
AcDbLine
 10
-81.187973
 20
400.868347
 30
0.0
 11
-81.193436
 21
400.765015
 31
0.0
210
0.0
220
0.0
230
1.0
  0
LINE
  5
1C3
100
AcDbEntity
  8
0
370
    35
390
0
 62
     7
 48
0.002607
100
AcDbLine
 10
-81.193436
 20
400.765015
 30
0.0
 11
-81.206055
 21
400.661499
 31
0.0
210
0.0
220
0.0
230
1.0
  0
LINE
  5
1C4
100
AcDbEntity
  8
0
370
    35
390
0
 62
     7
 48
0.002651
100
AcDbLine
 10
-81.206055
 20
400.661499
 30
0.0
 11
-81.225861
 21
400.557312
 31
0.0
210
0.0
220
0.0
230
1.0
  0
LINE
  5
1C5
100
AcDbEntity
  8
0
370
    35
390
0
 62
     7
 48
0.002711
100
AcDbLine
 10
-81.225861
 20
400.557312
 30
0.0
 11
-81.253006
 21
400.452332
 31
0.0
210
0.0
220
0.0
230
1.0
  0
LINE
  5
1C6
100
AcDbEntity
  8
0
370
    35
390
0
 62
     7
 48
0.002788
100
AcDbLine
 10
-81.253006
 20
400.452332
 30
0.0
 11
-81.287659
 21
400.346313
 31
0.0
210
0.0
220
0.0
230
1.0
  0
LINE
  5
1C7
100
AcDbEntity
  8
0
370
    35
390
0
 62
     7
 48
0.002885
100
AcDbLine
 10
-81.287659
 20
400.346313
 30
0.0
 11
-81.330002
 21
400.238953
 31
0.0
210
0.0
220
0.0
230
1.0
  0
LINE
  5
1C8
100
AcDbEntity
  8
0
370
    35
390
0
 62
     7
 48
0.003002
100
AcDbLine
 10
-81.330002
 20
400.238953
 30
0.0
 11
-81.380325
 21
400.129944
 31
0.0
210
0.0
220
0.0
230
1.0
  0
LINE
  5
1C9
100
AcDbEntity
  8
0
370
    35
390
0
 62
     7
 48
0.002914
100
AcDbLine
 10
-81.380325
 20
400.129944
 30
0.0
 11
-81.43457
 21
400.026794
 31
0.0
210
0.0
220
0.0
230
1.0
  0
LINE
  5
1CA
100
AcDbEntity
  8
0
370
    35
390
0
 62
     7
 48
0.003046
100
AcDbLine
 10
-81.43457
 20
400.026794
 30
0.0
 11
-81.496277
 21
399.921753
 31
0.0
210
0.0
220
0.0
230
1.0
  0
LINE
  5
1CB
100
AcDbEntity
  8
0
370
    35
390
0
 62
     7
 48
0.003195
100
AcDbLine
 10
-81.496277
 20
399.921753
 30
0.0
 11
-81.565796
 21
399.814514
 31
0.0
210
0.0
220
0.0
230
1.0
  0
LINE
  5
1CC
100
AcDbEntity
  8
0
370
    35
390
0
 62
     7
 48
0.003362
100
AcDbLine
 10
-81.565796
 20
399.814514
 30
0.0
 11
-81.643509
 21
399.704773
 31
0.0
210
0.0
220
0.0
230
1.0
  0
LINE
  5
1CD
100
AcDbEntity
  8
0
370
    35
390
0
 62
     7
 48
0.003544
100
AcDbLine
 10
-81.643509
 20
399.704773
 30
0.0
 11
-81.729889
 21
399.592346
 31
0.0
210
0.0
220
0.0
230
1.0
  0
LINE
  5
1CE
100
AcDbEntity
  8
0
370
    35
390
0
 62
     7
 48
0.242696
100
AcDbLine
 10
-91.437714
 20
402.200012
 30
0.0
 11
-81.729889
 21
402.200012
 31
0.0
210
0.0
220
0.0
230
1.0
  0
LINE
  5
1CF
100
AcDbEntity
  8
0
370
    35
390
0
 62
     7
 48
0.001054
100
AcDbLine
 10
-81.687714
 20
402.200012
 30
0.0
 11
-81.729889
 21
402.200012
 31
0.0
210
0.0
220
0.0
230
1.0
  0
LINE
  5
1D0
100
AcDbEntity
  8
0
370
    35
390
0
 62
     7
 48
0.242696
100
AcDbLine
 10
-91.437714
 20
391.807739
 30
0.0
 11
-81.729889
 21
391.807739
 31
0.0
210
0.0
220
0.0
230
1.0
  0
LINE
  5
1D1
100
AcDbEntity
  8
0
370
    35
390
0
 62
     7
 48
0.002218
100
AcDbLine
 10
-81.729889
 20
391.807739
 30
0.0
 11
-81.6754
 21
391.737732
 31
0.0
210
0.0
220
0.0
230
1.0
  0
LINE
  5
1D2
100
AcDbEntity
  8
0
370
    35
390
0
 62
     7
 48
0.002142
100
AcDbLine
 10
-81.6754
 20
391.737732
 30
0.0
 11
-81.624298
 21
391.668945
 31
0.0
210
0.0
220
0.0
230
1.0
  0
LINE
  5
1D3
100
AcDbEntity
  8
0
370
    35
390
0
 62
     7
 48
0.002066
100
AcDbLine
 10
-81.624298
 20
391.668945
 30
0.0
 11
-81.57666
 21
391.60144
 31
0.0
210
0.0
220
0.0
230
1.0
  0
LINE
  5
1D4
100
AcDbEntity
  8
0
370
    35
390
0
 62
     7
 48
0.002001
100
AcDbLine
 10
-81.57666
 20
391.60144
 30
0.0
 11
-81.532166
 21
391.534912
 31
0.0
210
0.0
220
0.0
230
1.0
  0
LINE
  5
1D5
100
AcDbEntity
  8
0
370
    35
390
0
 62
     7
 48
0.002582
100
AcDbLine
 10
-81.532166
 20
391.534912
 30
0.0
 11
-81.477448
 21
391.447327
 31
0.0
210
0.0
220
0.0
230
1.0
  0
LINE
  5
1D6
100
AcDbEntity
  8
0
370
    35
390
0
 62
     7
 48
0.002482
100
AcDbLine
 10
-81.477448
 20
391.447327
 30
0.0
 11
-81.427933
 21
391.361267
 31
0.0
210
0.0
220
0.0
230
1.0
  0
LINE
  5
1D7
100
AcDbEntity
  8
0
370
    35
390
0
 62
     7
 48
0.002395
100
AcDbLine
 10
-81.427933
 20
391.361267
 30
0.0
 11
-81.383469
 21
391.276428
 31
0.0
210
0.0
220
0.0
230
1.0
  0
LINE
  5
1D8
100
AcDbEntity
  8
0
370
    35
390
0
 62
     7
 48
0.00277
100
AcDbLine
 10
-81.383469
 20
391.276428
 30
0.0
 11
-81.336502
 21
391.176086
 31
0.0
210
0.0
220
0.0
230
1.0
  0
LINE
  5
1D9
100
AcDbEntity
  8
0
370
    35
390
0
 62
     7
 48
0.002668
100
AcDbLine
 10
-81.336502
 20
391.176086
 30
0.0
 11
-81.296295
 21
391.077209
 31
0.0
210
0.0
220
0.0
230
1.0
  0
LINE
  5
1DA
100
AcDbEntity
  8
0
370
    35
390
0
 62
     7
 48
0.002585
100
AcDbLine
 10
-81.296295
 20
391.077209
 30
0.0
 11
-81.262634
 21
390.979431
 31
0.0
210
0.0
220
0.0
230
1.0
  0
LINE
  5
1DB
100
AcDbEntity
  8
0
370
    35
390
0
 62
     7
 48
0.002514
100
AcDbLine
 10
-81.262634
 20
390.979431
 30
0.0
 11
-81.235336
 21
390.882629
 31
0.0
210
0.0
220
0.0
230
1.0
  0
LINE
  5
1DC
100
AcDbEntity
  8
0
370
    35
390
0
 62
     7
 48
0.002459
100
AcDbLine
 10
-81.235336
 20
390.882629
 30
0.0
 11
-81.214294
 21
390.78656
 31
0.0
210
0.0
220
0.0
230
1.0
  0
LINE
  5
1DD
100
AcDbEntity
  8
0
370
    35
390
0
 62
     7
 48
0.002626
100
AcDbLine
 10
-81.214294
 20
390.78656
 30
0.0
 11
-81.198364
 21
390.682739
 31
0.0
210
0.0
220
0.0
230
1.0
  0
LINE
  5
1DE
100
AcDbEntity
  8
0
370
    35
390
0
 62
     7
 48
0.002596
100
AcDbLine
 10
-81.198364
 20
390.682739
 30
0.0
 11
-81.189606
 21
390.579285
 31
0.0
210
0.0
220
0.0
230
1.0
  0
LINE
  5
1DF
100
AcDbEntity
  8
0
370
    35
390
0
 62
     7
 48
0.002581
100
AcDbLine
 10
-81.189606
 20
390.579285
 30
0.0
 11
-81.187973
 21
390.476074
 31
0.0
210
0.0
220
0.0
230
1.0
  0
LINE
  5
1E0
100
AcDbEntity
  8
0
370
    35
390
0
 62
     7
 48
0.002587
100
AcDbLine
 10
-81.187973
 20
390.476074
 30
0.0
 11
-81.193436
 21
390.372742
 31
0.0
210
0.0
220
0.0
230
1.0
  0
LINE
  5
1E1
100
AcDbEntity
  8
0
370
    35
390
0
 62
     7
 48
0.002609
100
AcDbLine
 10
-81.193436
 20
390.372742
 30
0.0
 11
-81.206055
 21
390.269165
 31
0.0
210
0.0
220
0.0
230
1.0
  0
LINE
  5
1E2
100
AcDbEntity
  8
0
370
    35
390
0
 62
     7
 48
0.00265
100
AcDbLine
 10
-81.206055
 20
390.269165
 30
0.0
 11
-81.225861
 21
390.165039
 31
0.0
210
0.0
220
0.0
230
1.0
  0
LINE
  5
1E3
100
AcDbEntity
  8
0
370
    35
390
0
 62
     7
 48
0.002711
100
AcDbLine
 10
-81.225861
 20
390.165039
 30
0.0
 11
-81.253006
 21
390.060059
 31
0.0
210
0.0
220
0.0
230
1.0
  0
LINE
  5
1E4
100
AcDbEntity
  8
0
370
    35
390
0
 62
     7
 48
0.00279
100
AcDbLine
 10
-81.253006
 20
390.060059
 30
0.0
 11
-81.287659
 21
389.953979
 31
0.0
210
0.0
220
0.0
230
1.0
  0
LINE
  5
1E5
100
AcDbEntity
  8
0
370
    35
390
0
 62
     7
 48
0.002885
100
AcDbLine
 10
-81.287659
 20
389.953979
 30
0.0
 11
-81.330002
 21
389.846619
 31
0.0
210
0.0
220
0.0
230
1.0
  0
LINE
  5
1E6
100
AcDbEntity
  8
0
370
    35
390
0
 62
     7
 48
0.003002
100
AcDbLine
 10
-81.330002
 20
389.846619
 30
0.0
 11
-81.380325
 21
389.73761
 31
0.0
210
0.0
220
0.0
230
1.0
  0
LINE
  5
1E7
100
AcDbEntity
  8
0
370
    35
390
0
 62
     7
 48
0.002471
100
AcDbLine
 10
-81.380325
 20
389.73761
 30
0.0
 11
-81.42601
 21
389.649963
 31
0.0
210
0.0
220
0.0
230
1.0
  0
LINE
  5
1E8
100
AcDbEntity
  8
0
370
    35
390
0
 62
     7
 48
0.00628
100
AcDbLine
 10
-76.437714
 20
386.174561
 30
0.0
 11
-76.187714
 21
386.150024
 31
0.0
210
0.0
220
0.0
230
1.0
  0
LINE
  5
1E9
100
AcDbEntity
  8
0
370
    35
390
0
 62
     7
 48
0.008468
100
AcDbLine
 10
-76.437714
 20
386.37854
 30
0.0
 11
-76.187714
 21
386.150024
 31
0.0
210
0.0
220
0.0
230
1.0
  0
LINE
  5
1EA
100
AcDbEntity
  8
0
370
    35
390
0
 62
     7
 48
0.006391
100
AcDbLine
 10
-76.437714
 20
385.984009
 30
0.0
 11
-76.187714
 21
385.930542
 31
0.0
210
0.0
220
0.0
230
1.0
  0
LINE
  5
1EB
100
AcDbEntity
  8
0
370
    35
390
0
 62
     7
 48
0.008734
100
AcDbLine
 10
-76.437714
 20
386.174561
 30
0.0
 11
-76.187714
 21
385.930542
 31
0.0
210
0.0
220
0.0
230
1.0
  0
LINE
  5
1EC
100
AcDbEntity
  8
0
370
    35
390
0
 62
     7
 48
0.006576
100
AcDbLine
 10
-76.437714
 20
385.809021
 30
0.0
 11
-76.187714
 21
385.727173
 31
0.0
210
0.0
220
0.0
230
1.0
  0
LINE
  5
1ED
100
AcDbEntity
  8
0
370
    35
390
0
 62
     7
 48
0.00896
100
AcDbLine
 10
-76.437714
 20
385.984009
 30
0.0
 11
-76.187714
 21
385.727173
 31
0.0
210
0.0
220
0.0
230
1.0
  0
LINE
  5
1EE
100
AcDbEntity
  8
0
370
    35
390
0
 62
     7
 48
0.006821
100
AcDbLine
 10
-76.437714
 20
385.651428
 30
0.0
 11
-76.187714
 21
385.542175
 31
0.0
210
0.0
220
0.0
230
1.0
  0
LINE
  5
1EF
100
AcDbEntity
  8
0
370
    35
390
0
 62
     7
 48
0.009141
100
AcDbLine
 10
-76.437714
 20
385.809021
 30
0.0
 11
-76.187714
 21
385.542175
 31
0.0
210
0.0
220
0.0
230
1.0
  0
LINE
  5
1F0
100
AcDbEntity
  8
0
370
    35
390
0
 62
     7
 48
0.007109
100
AcDbLine
 10
-76.437714
 20
385.513
 30
0.0
 11
-76.187714
 21
385.377502
 31
0.0
210
0.0
220
0.0
230
1.0
  0
LINE
  5
1F1
100
AcDbEntity
  8
0
370
    35
390
0
 62
     7
 48
0.009271
100
AcDbLine
 10
-76.437714
 20
385.651428
 30
0.0
 11
-76.187714
 21
385.377502
 31
0.0
210
0.0
220
0.0
230
1.0
  0
LINE
  5
1F2
100
AcDbEntity
  8
0
370
    35
390
0
 62
     7
 48
0.007423
100
AcDbLine
 10
-76.437714
 20
385.395203
 30
0.0
 11
-76.187714
 21
385.234985
 31
0.0
210
0.0
220
0.0
230
1.0
  0
LINE
  5
1F3
100
AcDbEntity
  8
0
370
    35
390
0
 62
     7
 48
0.009347
100
AcDbLine
 10
-76.437714
 20
385.513
 30
0.0
 11
-76.187714
 21
385.234985
 31
0.0
210
0.0
220
0.0
230
1.0
  0
LINE
  5
1F4
100
AcDbEntity
  8
0
370
    35
390
0
 62
     7
 48
0.00775
100
AcDbLine
 10
-76.437714
 20
385.299438
 30
0.0
 11
-76.187714
 21
385.11615
 31
0.0
210
0.0
220
0.0
230
1.0
  0
LINE
  5
1F5
100
AcDbEntity
  8
0
370
    35
390
0
 62
     7
 48
0.009367
100
AcDbLine
 10
-76.437714
 20
385.395203
 30
0.0
 11
-76.187714
 21
385.11615
 31
0.0
210
0.0
220
0.0
230
1.0
  0
LINE
  5
1F6
100
AcDbEntity
  8
0
370
    35
390
0
 62
     7
 48
0.008072
100
AcDbLine
 10
-76.437714
 20
385.226685
 30
0.0
 11
-76.187714
 21
385.022339
 31
0.0
210
0.0
220
0.0
230
1.0
  0
LINE
  5
1F7
100
AcDbEntity
  8
0
370
    35
390
0
 62
     7
 48
0.00933
100
AcDbLine
 10
-76.437714
 20
385.299438
 30
0.0
 11
-76.187714
 21
385.022339
 31
0.0
210
0.0
220
0.0
230
1.0
  0
LINE
  5
1F8
100
AcDbEntity
  8
0
370
    35
390
0
 62
     7
 48
0.008377
100
AcDbLine
 10
-76.437714
 20
385.177734
 30
0.0
 11
-76.187714
 21
384.954651
 31
0.0
210
0.0
220
0.0
230
1.0
  0
LINE
  5
1F9
100
AcDbEntity
  8
0
370
    35
390
0
 62
     7
 48
0.009237
100
AcDbLine
 10
-76.437714
 20
385.226685
 30
0.0
 11
-76.187714
 21
384.954651
 31
0.0
210
0.0
220
0.0
230
1.0
  0
LINE
  5
1FA
100
AcDbEntity
  8
0
370
    35
390
0
 62
     7
 48
0.008653
100
AcDbLine
 10
-76.437714
 20
385.153076
 30
0.0
 11
-76.187714
 21
384.913696
 31
0.0
210
0.0
220
0.0
230
1.0
  0
LINE
  5
1FB
100
AcDbEntity
  8
0
370
    35
390
0
 62
     7
 48
0.00909
100
AcDbLine
 10
-76.437714
 20
385.177734
 30
0.0
 11
-76.187714
 21
384.913696
 31
0.0
210
0.0
220
0.0
230
1.0
  0
LINE
  5
1FC
100
AcDbEntity
  8
0
370
    35
390
0
 62
     7
 48
0.008893
100
AcDbLine
 10
-76.437714
 20
385.153076
 30
0.0
 11
-76.187714
 21
384.900024
 31
0.0
210
0.0
220
0.0
230
1.0
  0
LINE
  5
1FD
100
AcDbEntity
  8
0
370
    35
390
0
 62
     7
 48
0.008894
100
AcDbLine
 10
-76.437714
 20
389.646912
 30
0.0
 11
-76.187714
 21
389.900024
 31
0.0
210
0.0
220
0.0
230
1.0
  0
LINE
  5
1FE
100
AcDbEntity
  8
0
370
    35
390
0
 62
     7
 48
0.009089
100
AcDbLine
 10
-76.437714
 20
389.622314
 30
0.0
 11
-76.187714
 21
389.886292
 31
0.0
210
0.0
220
0.0
230
1.0
  0
LINE
  5
1FF
100
AcDbEntity
  8
0
370
    35
390
0
 62
     7
 48
0.008653
100
AcDbLine
 10
-76.437714
 20
389.646912
 30
0.0
 11
-76.187714
 21
389.886292
 31
0.0
210
0.0
220
0.0
230
1.0
  0
LINE
  5
200
100
AcDbEntity
  8
0
370
    35
390
0
 62
     7
 48
0.009235
100
AcDbLine
 10
-76.437714
 20
389.573364
 30
0.0
 11
-76.187714
 21
389.845337
 31
0.0
210
0.0
220
0.0
230
1.0
  0
LINE
  5
201
100
AcDbEntity
  8
0
370
    35
390
0
 62
     7
 48
0.008376
100
AcDbLine
 10
-76.437714
 20
389.622314
 30
0.0
 11
-76.187714
 21
389.845337
 31
0.0
210
0.0
220
0.0
230
1.0
  0
LINE
  5
202
100
AcDbEntity
  8
0
370
    35
390
0
 62
     7
 48
0.00933
100
AcDbLine
 10
-76.437714
 20
389.500549
 30
0.0
 11
-76.187714
 21
389.777649
 31
0.0
210
0.0
220
0.0
230
1.0
  0
LINE
  5
203
100
AcDbEntity
  8
0
370
    35
390
0
 62
     7
 48
0.008071
100
AcDbLine
 10
-76.437714
 20
389.573364
 30
0.0
 11
-76.187714
 21
389.777649
 31
0.0
210
0.0
220
0.0
230
1.0
  0
LINE
  5
204
100
AcDbEntity
  8
0
370
    35
390
0
 62
     7
 48
0.009367
100
AcDbLine
 10
-76.437714
 20
389.404785
 30
0.0
 11
-76.187714
 21
389.683838
 31
0.0
210
0.0
220
0.0
230
1.0
  0
LINE
  5
205
100
AcDbEntity
  8
0
370
    35
390
0
 62
     7
 48
0.00775
100
AcDbLine
 10
-76.437714
 20
389.500549
 30
0.0
 11
-76.187714
 21
389.683838
 31
0.0
210
0.0
220
0.0
230
1.0
  0
LINE
  5
206
100
AcDbEntity
  8
0
370
    35
390
0
 62
     7
 48
0.003867
100
AcDbLine
 10
-76.437714
 20
389.404785
 30
0.0
 11
-76.307739
 21
389.488647
 31
0.0
210
0.0
220
0.0
230
1.0
  0
LINE
  5
207
100
AcDbEntity
  8
0
370
    35
390
0
 62
     7
 48
0.009347
100
AcDbLine
 10
-76.437714
 20
389.287048
 30
0.0
 11
-76.187714
 21
389.565063
 31
0.0
210
0.0
220
0.0
230
1.0
  0
LINE
  5
208
100
AcDbEntity
  8
0
370
    35
390
0
 62
     7
 48
0.003557
100
AcDbLine
 10
-76.307739
 20
389.488647
 30
0.0
 11
-76.187714
 21
389.565063
 31
0.0
210
0.0
220
0.0
230
1.0
  0
LINE
  5
209
100
AcDbEntity
  8
0
370
    35
390
0
 62
     7
 48
0.009273
100
AcDbLine
 10
-76.437714
 20
389.14856
 30
0.0
 11
-76.187714
 21
389.422546
 31
0.0
210
0.0
220
0.0
230
1.0
  0
LINE
  5
20A
100
AcDbEntity
  8
0
370
    35
390
0
 62
     7
 48
0.007109
100
AcDbLine
 10
-76.437714
 20
389.287048
 30
0.0
 11
-76.187714
 21
389.422546
 31
0.0
210
0.0
220
0.0
230
1.0
  0
LINE
  5
20B
100
AcDbEntity
  8
0
370
    35
390
0
 62
     7
 48
0.009143
100
AcDbLine
 10
-76.437714
 20
388.990967
 30
0.0
 11
-76.187714
 21
389.257874
 31
0.0
210
0.0
220
0.0
230
1.0
  0
LINE
  5
20C
100
AcDbEntity
  8
0
370
    35
390
0
 62
     7
 48
0.006821
100
AcDbLine
 10
-76.437714
 20
389.14856
 30
0.0
 11
-76.187714
 21
389.257874
 31
0.0
210
0.0
220
0.0
230
1.0
  0
LINE
  5
20D
100
AcDbEntity
  8
0
370
    35
390
0
 62
     7
 48
0.00896
100
AcDbLine
 10
-76.437714
 20
388.815979
 30
0.0
 11
-76.187714
 21
389.072815
 31
0.0
210
0.0
220
0.0
230
1.0
  0
LINE
  5
20E
100
AcDbEntity
  8
0
370
    35
390
0
 62
     7
 48
0.006576
100
AcDbLine
 10
-76.437714
 20
388.990967
 30
0.0
 11
-76.187714
 21
389.072815
 31
0.0
210
0.0
220
0.0
230
1.0
  0
LINE
  5
20F
100
AcDbEntity
  8
0
370
    35
390
0
 62
     7
 48
0.008734
100
AcDbLine
 10
-76.437714
 20
388.625427
 30
0.0
 11
-76.187714
 21
388.869446
 31
0.0
210
0.0
220
0.0
230
1.0
  0
LINE
  5
210
100
AcDbEntity
  8
0
370
    35
390
0
 62
     7
 48
0.006391
100
AcDbLine
 10
-76.437714
 20
388.815979
 30
0.0
 11
-76.187714
 21
388.869446
 31
0.0
210
0.0
220
0.0
230
1.0
  0
LINE
  5
211
100
AcDbEntity
  8
0
370
    35
390
0
 62
     7
 48
0.008469
100
AcDbLine
 10
-76.437714
 20
388.421448
 30
0.0
 11
-76.187714
 21
388.650024
 31
0.0
210
0.0
220
0.0
230
1.0
  0
LINE
  5
212
100
AcDbEntity
  8
0
370
    35
390
0
 62
     7
 48
0.00628
100
AcDbLine
 10
-76.437714
 20
388.625427
 30
0.0
 11
-76.187714
 21
388.650024
 31
0.0
210
0.0
220
0.0
230
1.0
  0
LINE
  5
213
100
AcDbEntity
  8
0
370
    35
390
0
 62
     7
 48
0.008172
100
AcDbLine
 10
-76.437714
 20
388.206299
 30
0.0
 11
-76.187714
 21
388.41687
 31
0.0
210
0.0
220
0.0
230
1.0
  0
LINE
  5
214
100
AcDbEntity
  8
0
370
    35
390
0
 62
     7
 48
0.006251
100
AcDbLine
 10
-76.437714
 20
388.421448
 30
0.0
 11
-76.187714
 21
388.41687
 31
0.0
210
0.0
220
0.0
230
1.0
  0
LINE
  5
215
100
AcDbEntity
  8
0
370
    35
390
0
 62
     7
 48
0.007853
100
AcDbLine
 10
-76.437714
 20
387.982361
 30
0.0
 11
-76.187714
 21
388.172546
 31
0.0
210
0.0
220
0.0
230
1.0
  0
LINE
  5
216
100
AcDbEntity
  8
0
370
    35
390
0
 62
     7
 48
0.006307
100
AcDbLine
 10
-76.437714
 20
388.206299
 30
0.0
 11
-76.187714
 21
388.172546
 31
0.0
210
0.0
220
0.0
230
1.0
  0
LINE
  5
217
100
AcDbEntity
  8
0
370
    35
390
0
 62
     7
 48
0.007527
100
AcDbLine
 10
-76.437714
 20
387.752014
 30
0.0
 11
-76.187714
 21
387.9198
 31
0.0
210
0.0
220
0.0
230
1.0
  0
LINE
  5
218
100
AcDbEntity
  8
0
370
    35
390
0
 62
     7
 48
0.006443
100
AcDbLine
 10
-76.437714
 20
387.982361
 30
0.0
 11
-76.187714
 21
387.9198
 31
0.0
210
0.0
220
0.0
230
1.0
  0
LINE
  5
219
100
AcDbEntity
  8
0
370
    35
390
0
 62
     7
 48
0.007207
100
AcDbLine
 10
-76.437714
 20
387.517761
 30
0.0
 11
-76.187714
 21
387.661316
 31
0.0
210
0.0
220
0.0
230
1.0
  0
LINE
  5
21A
100
AcDbEntity
  8
0
370
    35
390
0
 62
     7
 48
0.006649
100
AcDbLine
 10
-76.437714
 20
387.752014
 30
0.0
 11
-76.187714
 21
387.661316
 31
0.0
210
0.0
220
0.0
230
1.0
  0
LINE
  5
21B
100
AcDbEntity
  8
0
370
    35
390
0
 62
     7
 48
0.006909
100
AcDbLine
 10
-76.437714
 20
387.282227
 30
0.0
 11
-76.187714
 21
387.400024
 31
0.0
210
0.0
220
0.0
230
1.0
  0
LINE
  5
21C
100
AcDbEntity
  8
0
370
    35
390
0
 62
     7
 48
0.006908
100
AcDbLine
 10
-76.437714
 20
387.517761
 30
0.0
 11
-76.187714
 21
387.400024
 31
0.0
210
0.0
220
0.0
230
1.0
  0
LINE
  5
21D
100
AcDbEntity
  8
0
370
    35
390
0
 62
     7
 48
0.006648
100
AcDbLine
 10
-76.437714
 20
387.048035
 30
0.0
 11
-76.187714
 21
387.138672
 31
0.0
210
0.0
220
0.0
230
1.0
  0
LINE
  5
21E
100
AcDbEntity
  8
0
370
    35
390
0
 62
     7
 48
0.007207
100
AcDbLine
 10
-76.437714
 20
387.282227
 30
0.0
 11
-76.187714
 21
387.138672
 31
0.0
210
0.0
220
0.0
230
1.0
  0
LINE
  5
21F
100
AcDbEntity
  8
0
370
    35
390
0
 62
     7
 48
0.006443
100
AcDbLine
 10
-76.437714
 20
386.817627
 30
0.0
 11
-76.187714
 21
386.880249
 31
0.0
210
0.0
220
0.0
230
1.0
  0
LINE
  5
220
100
AcDbEntity
  8
0
370
    35
390
0
 62
     7
 48
0.007527
100
AcDbLine
 10
-76.437714
 20
387.048035
 30
0.0
 11
-76.187714
 21
386.880249
 31
0.0
210
0.0
220
0.0
230
1.0
  0
LINE
  5
221
100
AcDbEntity
  8
0
370
    35
390
0
 62
     7
 48
0.006307
100
AcDbLine
 10
-76.437714
 20
386.593689
 30
0.0
 11
-76.187714
 21
386.627502
 31
0.0
210
0.0
220
0.0
230
1.0
  0
LINE
  5
222
100
AcDbEntity
  8
0
370
    35
390
0
 62
     7
 48
0.007852
100
AcDbLine
 10
-76.437714
 20
386.817627
 30
0.0
 11
-76.187714
 21
386.627502
 31
0.0
210
0.0
220
0.0
230
1.0
  0
LINE
  5
223
100
AcDbEntity
  8
0
370
    35
390
0
 62
     7
 48
0.006251
100
AcDbLine
 10
-76.437714
 20
386.37854
 30
0.0
 11
-76.187714
 21
386.383179
 31
0.0
210
0.0
220
0.0
230
1.0
  0
LINE
  5
224
100
AcDbEntity
  8
0
370
    35
390
0
 62
     7
 48
0.008171
100
AcDbLine
 10
-76.437714
 20
386.593689
 30
0.0
 11
-76.187714
 21
386.383179
 31
0.0
210
0.0
220
0.0
230
1.0
  0
LINE
  5
225
100
AcDbEntity
  8
0
370
    35
390
0
 62
     7
 48
0.242696
100
AcDbLine
 10
-91.437714
 20
393.092346
 30
0.0
 11
-81.729889
 21
393.092346
 31
0.0
210
0.0
220
0.0
230
1.0
  0
LINE
  5
226
100
AcDbEntity
  8
0
370
    35
390
0
 62
     7
 48
0.0066
100
AcDbLine
 10
-81.729889
 20
393.092346
 30
0.0
 11
-81.635559
 21
393.338928
 31
0.0
210
0.0
220
0.0
230
1.0
  0
LINE
  5
227
100
AcDbEntity
  8
0
370
    35
390
0
 62
     7
 48
0.006356
100
AcDbLine
 10
-81.635559
 20
393.338928
 30
0.0
 11
-81.551605
 21
393.578918
 31
0.0
210
0.0
220
0.0
230
1.0
  0
LINE
  5
228
100
AcDbEntity
  8
0
370
    35
390
0
 62
     7
 48
0.00614
100
AcDbLine
 10
-81.551605
 20
393.578918
 30
0.0
 11
-81.477448
 21
393.813049
 31
0.0
210
0.0
220
0.0
230
1.0
  0
LINE
  5
229
100
AcDbEntity
  8
0
370
    35
390
0
 62
     7
 48
0.00595
100
AcDbLine
 10
-81.477448
 20
393.813049
 30
0.0
 11
-81.412567
 21
394.042053
 31
0.0
210
0.0
220
0.0
230
1.0
  0
LINE
  5
22A
100
AcDbEntity
  8
0
370
    35
390
0
 62
     7
 48
0.005789
100
AcDbLine
 10
-81.412567
 20
394.042053
 30
0.0
 11
-81.356522
 21
394.266724
 31
0.0
210
0.0
220
0.0
230
1.0
  0
LINE
  5
22B
100
AcDbEntity
  8
0
370
    35
390
0
 62
     7
 48
0.00565
100
AcDbLine
 10
-81.356522
 20
394.266724
 30
0.0
 11
-81.30896
 21
394.487671
 31
0.0
210
0.0
220
0.0
230
1.0
  0
LINE
  5
22C
100
AcDbEntity
  8
0
370
    35
390
0
 62
     7
 48
0.005537
100
AcDbLine
 10
-81.30896
 20
394.487671
 30
0.0
 11
-81.269562
 21
394.705627
 31
0.0
210
0.0
220
0.0
230
1.0
  0
LINE
  5
22D
100
AcDbEntity
  8
0
370
    35
390
0
 62
     7
 48
0.005444
100
AcDbLine
 10
-81.269562
 20
394.705627
 30
0.0
 11
-81.238068
 21
394.921082
 31
0.0
210
0.0
220
0.0
230
1.0
  0
LINE
  5
22E
100
AcDbEntity
  8
0
370
    35
390
0
 62
     7
 48
0.005371
100
AcDbLine
 10
-81.238068
 20
394.921082
 30
0.0
 11
-81.214294
 21
395.134583
 31
0.0
210
0.0
220
0.0
230
1.0
  0
LINE
  5
22F
100
AcDbEntity
  8
0
370
    35
390
0
 62
     7
 48
0.005209
100
AcDbLine
 10
-81.214294
 20
395.134583
 30
0.0
 11
-81.198364
 21
395.342346
 31
0.0
210
0.0
220
0.0
230
1.0
  0
LINE
  5
230
100
AcDbEntity
  8
0
370
    35
390
0
 62
     7
 48
0.005176
100
AcDbLine
 10
-81.198364
 20
395.342346
 30
0.0
 11
-81.189606
 21
395.549194
 31
0.0
210
0.0
220
0.0
230
1.0
  0
LINE
  5
231
100
AcDbEntity
  8
0
370
    35
390
0
 62
     7
 48
0.005162
100
AcDbLine
 10
-81.189606
 20
395.549194
 30
0.0
 11
-81.187973
 21
395.755676
 31
0.0
210
0.0
220
0.0
230
1.0
  0
LINE
  5
232
100
AcDbEntity
  8
0
370
    35
390
0
 62
     7
 48
0.005165
100
AcDbLine
 10
-81.187973
 20
395.755676
 30
0.0
 11
-81.193436
 21
395.962219
 31
0.0
210
0.0
220
0.0
230
1.0
  0
LINE
  5
233
100
AcDbEntity
  8
0
370
    35
390
0
 62
     7
 48
0.005188
100
AcDbLine
 10
-81.193436
 20
395.962219
 30
0.0
 11
-81.206055
 21
396.169373
 31
0.0
210
0.0
220
0.0
230
1.0
  0
LINE
  5
234
100
AcDbEntity
  8
0
370
    35
390
0
 62
     7
 48
0.005231
100
AcDbLine
 10
-81.206055
 20
396.169373
 30
0.0
 11
-81.225861
 21
396.377686
 31
0.0
210
0.0
220
0.0
230
1.0
  0
LINE
  5
235
100
AcDbEntity
  8
0
370
    35
390
0
 62
     7
 48
0.005293
100
AcDbLine
 10
-81.225861
 20
396.377686
 30
0.0
 11
-81.253006
 21
396.587646
 31
0.0
210
0.0
220
0.0
230
1.0
  0
LINE
  5
236
100
AcDbEntity
  8
0
370
    35
390
0
 62
     7
 48
0.005371
100
AcDbLine
 10
-81.253006
 20
396.587646
 30
0.0
 11
-81.287659
 21
396.799683
 31
0.0
210
0.0
220
0.0
230
1.0
  0
LINE
  5
237
100
AcDbEntity
  8
0
370
    35
390
0
 62
     7
 48
0.005473
100
AcDbLine
 10
-81.287659
 20
396.799683
 30
0.0
 11
-81.330002
 21
397.014465
 31
0.0
210
0.0
220
0.0
230
1.0
  0
LINE
  5
238
100
AcDbEntity
  8
0
370
    35
390
0
 62
     7
 48
0.005592
100
AcDbLine
 10
-81.330002
 20
397.014465
 30
0.0
 11
-81.380325
 21
397.232422
 31
0.0
210
0.0
220
0.0
230
1.0
  0
LINE
  5
239
100
AcDbEntity
  8
0
370
    35
390
0
 62
     7
 48
0.005333
100
AcDbLine
 10
-81.380325
 20
397.232422
 30
0.0
 11
-81.43457
 21
397.438721
 31
0.0
210
0.0
220
0.0
230
1.0
  0
LINE
  5
23A
100
AcDbEntity
  8
0
370
    35
390
0
 62
     7
 48
0.005474
100
AcDbLine
 10
-81.43457
 20
397.438721
 30
0.0
 11
-81.496277
 21
397.648804
 31
0.0
210
0.0
220
0.0
230
1.0
  0
LINE
  5
23B
100
AcDbEntity
  8
0
370
    35
390
0
 62
     7
 48
0.005638
100
AcDbLine
 10
-81.496277
 20
397.648804
 30
0.0
 11
-81.565796
 21
397.863342
 31
0.0
210
0.0
220
0.0
230
1.0
  0
LINE
  5
23C
100
AcDbEntity
  8
0
370
    35
390
0
 62
     7
 48
0.005818
100
AcDbLine
 10
-81.565796
 20
397.863342
 30
0.0
 11
-81.643509
 21
398.082703
 31
0.0
210
0.0
220
0.0
230
1.0
  0
LINE
  5
23D
100
AcDbEntity
  8
0
370
    35
390
0
 62
     7
 48
0.006026
100
AcDbLine
 10
-81.643509
 20
398.082703
 30
0.0
 11
-81.729889
 21
398.307739
 31
0.0
210
0.0
220
0.0
230
1.0
  0
LINE
  5
23E
100
AcDbEntity
  8
0
370
    35
390
0
 62
     7
 48
0.242696
100
AcDbLine
 10
-91.437714
 20
398.307739
 30
0.0
 11
-81.729889
 21
398.307739
 31
0.0
210
0.0
220
0.0
230
1.0
  0
ARC
  5
23F
100
AcDbEntity
  8
0
370
    35
390
0
 62
     7
100
AcDbCircle
 10
-86.60144
 20
392.450012
 30
0.0
 40
4.913689
210
0.0
220
0.0
230
1.0
100
AcDbArc
 50
352.488988
 51
7.511014
  0
ARC
  5
240
100
AcDbEntity
  8
0
370
    35
390
0
 62
     7
100
AcDbCircle
 10
-86.611603
 20
398.950867
 30
0.0
 40
4.923875
210
0.0
220
0.0
230
1.0
100
AcDbArc
 50
352.494233
 51
1.53597
  0
ARC
  5
241
100
AcDbEntity
  8
0
370
    35
390
0
 62
     7
100
AcDbCircle
 10
-86.649628
 20
398.945923
 30
0.0
 40
4.962001
210
0.0
220
0.0
230
1.0
100
AcDbArc
 50
1.581301
 51
7.484792
  0
LINE
  5
242
100
AcDbEntity
  8
0
370
    35
390
0
 62
     7
 48
0.062962
100
AcDbLine
 10
-80.437714
 20
398.431519
 30
0.0
 11
-80.437714
 21
400.950012
 31
0.0
210
0.0
220
0.0
230
1.0
  0
LINE
  5
243
100
AcDbEntity
  8
0
370
    35
390
0
 62
     7
 48
0.199538
100
AcDbLine
 10
-80.437714
 20
390.450012
 30
0.0
 11
-80.437714
 21
398.431519
 31
0.0
210
0.0
220
0.0
230
1.0
  0
LINE
  5
244
100
AcDbEntity
  8
0
370
    35
390
0
 62
     7
 48
0.00628
100
AcDbLine
 10
-66.687714
 20
386.174561
 30
0.0
 11
-66.937714
 21
386.150024
 31
0.0
210
0.0
220
0.0
230
1.0
  0
LINE
  5
245
100
AcDbEntity
  8
0
370
    35
390
0
 62
     7
 48
0.23125
100
AcDbLine
 10
-66.937714
 20
386.150024
 30
0.0
 11
-76.187714
 21
386.150024
 31
0.0
210
0.0
220
0.0
230
1.0
  0
LINE
  5
246
100
AcDbEntity
  8
0
370
    35
390
0
 62
     7
 48
0.008468
100
AcDbLine
 10
-66.687714
 20
386.37854
 30
0.0
 11
-66.937714
 21
386.150024
 31
0.0
210
0.0
220
0.0
230
1.0
  0
LINE
  5
247
100
AcDbEntity
  8
0
370
    35
390
0
 62
     7
 48
0.24375
100
AcDbLine
 10
-66.687714
 20
386.37854
 30
0.0
 11
-76.437714
 21
386.37854
 31
0.0
210
0.0
220
0.0
230
1.0
  0
LINE
  5
248
100
AcDbEntity
  8
0
370
    35
390
0
 62
     7
 48
0.006391
100
AcDbLine
 10
-66.687714
 20
385.984009
 30
0.0
 11
-66.937714
 21
385.930542
 31
0.0
210
0.0
220
0.0
230
1.0
  0
LINE
  5
249
100
AcDbEntity
  8
0
370
    35
390
0
 62
     7
 48
0.23125
100
AcDbLine
 10
-66.937714
 20
385.930542
 30
0.0
 11
-76.187714
 21
385.930542
 31
0.0
210
0.0
220
0.0
230
1.0
  0
LINE
  5
24A
100
AcDbEntity
  8
0
370
    35
390
0
 62
     7
 48
0.008734
100
AcDbLine
 10
-66.687714
 20
386.174561
 30
0.0
 11
-66.937714
 21
385.930542
 31
0.0
210
0.0
220
0.0
230
1.0
  0
LINE
  5
24B
100
AcDbEntity
  8
0
370
    35
390
0
 62
     7
 48
0.006576
100
AcDbLine
 10
-66.687714
 20
385.809021
 30
0.0
 11
-66.937714
 21
385.727173
 31
0.0
210
0.0
220
0.0
230
1.0
  0
LINE
  5
24C
100
AcDbEntity
  8
0
370
    35
390
0
 62
     7
 48
0.23125
100
AcDbLine
 10
-66.937714
 20
385.727173
 30
0.0
 11
-76.187714
 21
385.727173
 31
0.0
210
0.0
220
0.0
230
1.0
  0
LINE
  5
24D
100
AcDbEntity
  8
0
370
    35
390
0
 62
     7
 48
0.00896
100
AcDbLine
 10
-66.687714
 20
385.984009
 30
0.0
 11
-66.937714
 21
385.727173
 31
0.0
210
0.0
220
0.0
230
1.0
  0
LINE
  5
24E
100
AcDbEntity
  8
0
370
    35
390
0
 62
     7
 48
0.006821
100
AcDbLine
 10
-66.687714
 20
385.651428
 30
0.0
 11
-66.937714
 21
385.542175
 31
0.0
210
0.0
220
0.0
230
1.0
  0
LINE
  5
24F
100
AcDbEntity
  8
0
370
    35
390
0
 62
     7
 48
0.23125
100
AcDbLine
 10
-66.937714
 20
385.542175
 30
0.0
 11
-76.187714
 21
385.542175
 31
0.0
210
0.0
220
0.0
230
1.0
  0
LINE
  5
250
100
AcDbEntity
  8
0
370
    35
390
0
 62
     7
 48
0.009141
100
AcDbLine
 10
-66.687714
 20
385.809021
 30
0.0
 11
-66.937714
 21
385.542175
 31
0.0
210
0.0
220
0.0
230
1.0
  0
LINE
  5
251
100
AcDbEntity
  8
0
370
    35
390
0
 62
     7
 48
0.007109
100
AcDbLine
 10
-66.687714
 20
385.513
 30
0.0
 11
-66.937714
 21
385.377502
 31
0.0
210
0.0
220
0.0
230
1.0
  0
LINE
  5
252
100
AcDbEntity
  8
0
370
    35
390
0
 62
     7
 48
0.23125
100
AcDbLine
 10
-66.937714
 20
385.377502
 30
0.0
 11
-76.187714
 21
385.377502
 31
0.0
210
0.0
220
0.0
230
1.0
  0
LINE
  5
253
100
AcDbEntity
  8
0
370
    35
390
0
 62
     7
 48
0.009271
100
AcDbLine
 10
-66.687714
 20
385.651428
 30
0.0
 11
-66.937714
 21
385.377502
 31
0.0
210
0.0
220
0.0
230
1.0
  0
LINE
  5
254
100
AcDbEntity
  8
0
370
    35
390
0
 62
     7
 48
0.007423
100
AcDbLine
 10
-66.687714
 20
385.395203
 30
0.0
 11
-66.937714
 21
385.234985
 31
0.0
210
0.0
220
0.0
230
1.0
  0
LINE
  5
255
100
AcDbEntity
  8
0
370
    35
390
0
 62
     7
 48
0.23125
100
AcDbLine
 10
-66.937714
 20
385.234985
 30
0.0
 11
-76.187714
 21
385.234985
 31
0.0
210
0.0
220
0.0
230
1.0
  0
LINE
  5
256
100
AcDbEntity
  8
0
370
    35
390
0
 62
     7
 48
0.009347
100
AcDbLine
 10
-66.687714
 20
385.513
 30
0.0
 11
-66.937714
 21
385.234985
 31
0.0
210
0.0
220
0.0
230
1.0
  0
LINE
  5
257
100
AcDbEntity
  8
0
370
    35
390
0
 62
     7
 48
0.00775
100
AcDbLine
 10
-66.687714
 20
385.299438
 30
0.0
 11
-66.937714
 21
385.11615
 31
0.0
210
0.0
220
0.0
230
1.0
  0
LINE
  5
258
100
AcDbEntity
  8
0
370
    35
390
0
 62
     7
 48
0.23125
100
AcDbLine
 10
-66.937714
 20
385.11615
 30
0.0
 11
-76.187714
 21
385.11615
 31
0.0
210
0.0
220
0.0
230
1.0
  0
LINE
  5
259
100
AcDbEntity
  8
0
370
    35
390
0
 62
     7
 48
0.009367
100
AcDbLine
 10
-66.687714
 20
385.395203
 30
0.0
 11
-66.937714
 21
385.11615
 31
0.0
210
0.0
220
0.0
230
1.0
  0
LINE
  5
25A
100
AcDbEntity
  8
0
370
    35
390
0
 62
     7
 48
0.008072
100
AcDbLine
 10
-66.687714
 20
385.226685
 30
0.0
 11
-66.937714
 21
385.022339
 31
0.0
210
0.0
220
0.0
230
1.0
  0
LINE
  5
25B
100
AcDbEntity
  8
0
370
    35
390
0
 62
     7
 48
0.23125
100
AcDbLine
 10
-66.937714
 20
385.022339
 30
0.0
 11
-76.187714
 21
385.022339
 31
0.0
210
0.0
220
0.0
230
1.0
  0
LINE
  5
25C
100
AcDbEntity
  8
0
370
    35
390
0
 62
     7
 48
0.00933
100
AcDbLine
 10
-66.687714
 20
385.299438
 30
0.0
 11
-66.937714
 21
385.022339
 31
0.0
210
0.0
220
0.0
230
1.0
  0
LINE
  5
25D
100
AcDbEntity
  8
0
370
    35
390
0
 62
     7
 48
0.008377
100
AcDbLine
 10
-66.687714
 20
385.177734
 30
0.0
 11
-66.937714
 21
384.954651
 31
0.0
210
0.0
220
0.0
230
1.0
  0
LINE
  5
25E
100
AcDbEntity
  8
0
370
    35
390
0
 62
     7
 48
0.23125
100
AcDbLine
 10
-66.937714
 20
384.954651
 30
0.0
 11
-76.187714
 21
384.954651
 31
0.0
210
0.0
220
0.0
230
1.0
  0
LINE
  5
25F
100
AcDbEntity
  8
0
370
    35
390
0
 62
     7
 48
0.009237
100
AcDbLine
 10
-66.687714
 20
385.226685
 30
0.0
 11
-66.937714
 21
384.954651
 31
0.0
210
0.0
220
0.0
230
1.0
  0
LINE
  5
260
100
AcDbEntity
  8
0
370
    35
390
0
 62
     7
 48
0.008653
100
AcDbLine
 10
-66.687714
 20
385.153076
 30
0.0
 11
-66.937714
 21
384.913696
 31
0.0
210
0.0
220
0.0
230
1.0
  0
LINE
  5
261
100
AcDbEntity
  8
0
370
    35
390
0
 62
     7
 48
0.23125
100
AcDbLine
 10
-66.937714
 20
384.913696
 30
0.0
 11
-76.187714
 21
384.913696
 31
0.0
210
0.0
220
0.0
230
1.0
  0
LINE
  5
262
100
AcDbEntity
  8
0
370
    35
390
0
 62
     7
 48
0.00909
100
AcDbLine
 10
-66.687714
 20
385.177734
 30
0.0
 11
-66.937714
 21
384.913696
 31
0.0
210
0.0
220
0.0
230
1.0
  0
LINE
  5
263
100
AcDbEntity
  8
0
370
    35
390
0
 62
     7
 48
0.23125
100
AcDbLine
 10
-66.937714
 20
384.900024
 30
0.0
 11
-76.187714
 21
384.900024
 31
0.0
210
0.0
220
0.0
230
1.0
  0
LINE
  5
264
100
AcDbEntity
  8
0
370
    35
390
0
 62
     7
 48
0.008893
100
AcDbLine
 10
-66.687714
 20
385.153076
 30
0.0
 11
-66.937714
 21
384.900024
 31
0.0
210
0.0
220
0.0
230
1.0
  0
LINE
  5
265
100
AcDbEntity
  8
0
370
    35
390
0
 62
     7
 48
0.008894
100
AcDbLine
 10
-66.687714
 20
389.646912
 30
0.0
 11
-66.937714
 21
389.900024
 31
0.0
210
0.0
220
0.0
230
1.0
  0
LINE
  5
266
100
AcDbEntity
  8
0
370
    35
390
0
 62
     7
 48
0.23125
100
AcDbLine
 10
-66.937714
 20
389.900024
 30
0.0
 11
-76.187714
 21
389.900024
 31
0.0
210
0.0
220
0.0
230
1.0
  0
LINE
  5
267
100
AcDbEntity
  8
0
370
    35
390
0
 62
     7
 48
0.009089
100
AcDbLine
 10
-66.687714
 20
389.622314
 30
0.0
 11
-66.937714
 21
389.886292
 31
0.0
210
0.0
220
0.0
230
1.0
  0
LINE
  5
268
100
AcDbEntity
  8
0
370
    35
390
0
 62
     7
 48
0.23125
100
AcDbLine
 10
-66.937714
 20
389.886292
 30
0.0
 11
-76.187714
 21
389.886292
 31
0.0
210
0.0
220
0.0
230
1.0
  0
LINE
  5
269
100
AcDbEntity
  8
0
370
    35
390
0
 62
     7
 48
0.008653
100
AcDbLine
 10
-66.687714
 20
389.646912
 30
0.0
 11
-66.937714
 21
389.886292
 31
0.0
210
0.0
220
0.0
230
1.0
  0
LINE
  5
26A
100
AcDbEntity
  8
0
370
    35
390
0
 62
     7
 48
0.009235
100
AcDbLine
 10
-66.687714
 20
389.573364
 30
0.0
 11
-66.937714
 21
389.845337
 31
0.0
210
0.0
220
0.0
230
1.0
  0
LINE
  5
26B
100
AcDbEntity
  8
0
370
    35
390
0
 62
     7
 48
0.23125
100
AcDbLine
 10
-66.937714
 20
389.845337
 30
0.0
 11
-76.187714
 21
389.845337
 31
0.0
210
0.0
220
0.0
230
1.0
  0
LINE
  5
26C
100
AcDbEntity
  8
0
370
    35
390
0
 62
     7
 48
0.008376
100
AcDbLine
 10
-66.687714
 20
389.622314
 30
0.0
 11
-66.937714
 21
389.845337
 31
0.0
210
0.0
220
0.0
230
1.0
  0
LINE
  5
26D
100
AcDbEntity
  8
0
370
    35
390
0
 62
     7
 48
0.00933
100
AcDbLine
 10
-66.687714
 20
389.500549
 30
0.0
 11
-66.937714
 21
389.777649
 31
0.0
210
0.0
220
0.0
230
1.0
  0
LINE
  5
26E
100
AcDbEntity
  8
0
370
    35
390
0
 62
     7
 48
0.23125
100
AcDbLine
 10
-66.937714
 20
389.777649
 30
0.0
 11
-76.187714
 21
389.777649
 31
0.0
210
0.0
220
0.0
230
1.0
  0
LINE
  5
26F
100
AcDbEntity
  8
0
370
    35
390
0
 62
     7
 48
0.008071
100
AcDbLine
 10
-66.687714
 20
389.573364
 30
0.0
 11
-66.937714
 21
389.777649
 31
0.0
210
0.0
220
0.0
230
1.0
  0
LINE
  5
270
100
AcDbEntity
  8
0
370
    35
390
0
 62
     7
 48
0.009367
100
AcDbLine
 10
-66.687714
 20
389.404785
 30
0.0
 11
-66.937714
 21
389.683838
 31
0.0
210
0.0
220
0.0
230
1.0
  0
LINE
  5
271
100
AcDbEntity
  8
0
370
    35
390
0
 62
     7
 48
0.23125
100
AcDbLine
 10
-66.937714
 20
389.683838
 30
0.0
 11
-76.187714
 21
389.683838
 31
0.0
210
0.0
220
0.0
230
1.0
  0
LINE
  5
272
100
AcDbEntity
  8
0
370
    35
390
0
 62
     7
 48
0.00775
100
AcDbLine
 10
-66.687714
 20
389.500549
 30
0.0
 11
-66.937714
 21
389.683838
 31
0.0
210
0.0
220
0.0
230
1.0
  0
LINE
  5
273
100
AcDbEntity
  8
0
370
    35
390
0
 62
     7
 48
0.23125
100
AcDbLine
 10
-66.937714
 20
389.565063
 30
0.0
 11
-76.187714
 21
389.565063
 31
0.0
210
0.0
220
0.0
230
1.0
  0
LINE
  5
274
100
AcDbEntity
  8
0
370
    35
390
0
 62
     7
 48
0.003557
100
AcDbLine
 10
-66.817673
 20
389.488647
 30
0.0
 11
-66.937714
 21
389.565063
 31
0.0
210
0.0
220
0.0
230
1.0
  0
LINE
  5
275
100
AcDbEntity
  8
0
370
    35
390
0
 62
     7
 48
0.003867
100
AcDbLine
 10
-66.687714
 20
389.404785
 30
0.0
 11
-66.817673
 21
389.488647
 31
0.0
210
0.0
220
0.0
230
1.0
  0
LINE
  5
276
100
AcDbEntity
  8
0
370
    35
390
0
 62
     7
 48
0.009347
100
AcDbLine
 10
-66.687714
 20
389.287048
 30
0.0
 11
-66.937714
 21
389.565063
 31
0.0
210
0.0
220
0.0
230
1.0
  0
LINE
  5
277
100
AcDbEntity
  8
0
370
    35
390
0
 62
     7
 48
0.009273
100
AcDbLine
 10
-66.687714
 20
389.14856
 30
0.0
 11
-66.937714
 21
389.422546
 31
0.0
210
0.0
220
0.0
230
1.0
  0
LINE
  5
278
100
AcDbEntity
  8
0
370
    35
390
0
 62
     7
 48
0.23125
100
AcDbLine
 10
-66.937714
 20
389.422546
 30
0.0
 11
-76.187714
 21
389.422546
 31
0.0
210
0.0
220
0.0
230
1.0
  0
LINE
  5
279
100
AcDbEntity
  8
0
370
    35
390
0
 62
     7
 48
0.007109
100
AcDbLine
 10
-66.687714
 20
389.287048
 30
0.0
 11
-66.937714
 21
389.422546
 31
0.0
210
0.0
220
0.0
230
1.0
  0
LINE
  5
27A
100
AcDbEntity
  8
0
370
    35
390
0
 62
     7
 48
0.009143
100
AcDbLine
 10
-66.687714
 20
388.990967
 30
0.0
 11
-66.937714
 21
389.257874
 31
0.0
210
0.0
220
0.0
230
1.0
  0
LINE
  5
27B
100
AcDbEntity
  8
0
370
    35
390
0
 62
     7
 48
0.23125
100
AcDbLine
 10
-66.937714
 20
389.257874
 30
0.0
 11
-76.187714
 21
389.257874
 31
0.0
210
0.0
220
0.0
230
1.0
  0
LINE
  5
27C
100
AcDbEntity
  8
0
370
    35
390
0
 62
     7
 48
0.006821
100
AcDbLine
 10
-66.687714
 20
389.14856
 30
0.0
 11
-66.937714
 21
389.257874
 31
0.0
210
0.0
220
0.0
230
1.0
  0
LINE
  5
27D
100
AcDbEntity
  8
0
370
    35
390
0
 62
     7
 48
0.00896
100
AcDbLine
 10
-66.687714
 20
388.815979
 30
0.0
 11
-66.937714
 21
389.072815
 31
0.0
210
0.0
220
0.0
230
1.0
  0
LINE
  5
27E
100
AcDbEntity
  8
0
370
    35
390
0
 62
     7
 48
0.23125
100
AcDbLine
 10
-66.937714
 20
389.072815
 30
0.0
 11
-76.187714
 21
389.072815
 31
0.0
210
0.0
220
0.0
230
1.0
  0
LINE
  5
27F
100
AcDbEntity
  8
0
370
    35
390
0
 62
     7
 48
0.006576
100
AcDbLine
 10
-66.687714
 20
388.990967
 30
0.0
 11
-66.937714
 21
389.072815
 31
0.0
210
0.0
220
0.0
230
1.0
  0
LINE
  5
280
100
AcDbEntity
  8
0
370
    35
390
0
 62
     7
 48
0.008734
100
AcDbLine
 10
-66.687714
 20
388.625427
 30
0.0
 11
-66.937714
 21
388.869446
 31
0.0
210
0.0
220
0.0
230
1.0
  0
LINE
  5
281
100
AcDbEntity
  8
0
370
    35
390
0
 62
     7
 48
0.23125
100
AcDbLine
 10
-66.937714
 20
388.869446
 30
0.0
 11
-76.187714
 21
388.869446
 31
0.0
210
0.0
220
0.0
230
1.0
  0
LINE
  5
282
100
AcDbEntity
  8
0
370
    35
390
0
 62
     7
 48
0.006391
100
AcDbLine
 10
-66.687714
 20
388.815979
 30
0.0
 11
-66.937714
 21
388.869446
 31
0.0
210
0.0
220
0.0
230
1.0
  0
LINE
  5
283
100
AcDbEntity
  8
0
370
    35
390
0
 62
     7
 48
0.008469
100
AcDbLine
 10
-66.687714
 20
388.421448
 30
0.0
 11
-66.937714
 21
388.650024
 31
0.0
210
0.0
220
0.0
230
1.0
  0
LINE
  5
284
100
AcDbEntity
  8
0
370
    35
390
0
 62
     7
 48
0.23125
100
AcDbLine
 10
-66.937714
 20
388.650024
 30
0.0
 11
-76.187714
 21
388.650024
 31
0.0
210
0.0
220
0.0
230
1.0
  0
LINE
  5
285
100
AcDbEntity
  8
0
370
    35
390
0
 62
     7
 48
0.24375
100
AcDbLine
 10
-66.687714
 20
388.421448
 30
0.0
 11
-76.437714
 21
388.421448
 31
0.0
210
0.0
220
0.0
230
1.0
  0
LINE
  5
286
100
AcDbEntity
  8
0
370
    35
390
0
 62
     7
 48
0.00628
100
AcDbLine
 10
-66.687714
 20
388.625427
 30
0.0
 11
-66.937714
 21
388.650024
 31
0.0
210
0.0
220
0.0
230
1.0
  0
LINE
  5
287
100
AcDbEntity
  8
0
370
    35
390
0
 62
     7
 48
0.008172
100
AcDbLine
 10
-66.687714
 20
388.206299
 30
0.0
 11
-66.937714
 21
388.41687
 31
0.0
210
0.0
220
0.0
230
1.0
  0
LINE
  5
288
100
AcDbEntity
  8
0
370
    35
390
0
 62
     7
 48
0.23125
100
AcDbLine
 10
-66.937714
 20
388.41687
 30
0.0
 11
-76.187714
 21
388.41687
 31
0.0
210
0.0
220
0.0
230
1.0
  0
LINE
  5
289
100
AcDbEntity
  8
0
370
    35
390
0
 62
     7
 48
0.24375
100
AcDbLine
 10
-66.687714
 20
388.206299
 30
0.0
 11
-76.437714
 21
388.206299
 31
0.0
210
0.0
220
0.0
230
1.0
  0
LINE
  5
28A
100
AcDbEntity
  8
0
370
    35
390
0
 62
     7
 48
0.006251
100
AcDbLine
 10
-66.687714
 20
388.421448
 30
0.0
 11
-66.937714
 21
388.41687
 31
0.0
210
0.0
220
0.0
230
1.0
  0
LINE
  5
28B
100
AcDbEntity
  8
0
370
    35
390
0
 62
     7
 48
0.007853
100
AcDbLine
 10
-66.687714
 20
387.982361
 30
0.0
 11
-66.937714
 21
388.172546
 31
0.0
210
0.0
220
0.0
230
1.0
  0
LINE
  5
28C
100
AcDbEntity
  8
0
370
    35
390
0
 62
     7
 48
0.23125
100
AcDbLine
 10
-66.937714
 20
388.172546
 30
0.0
 11
-76.187714
 21
388.172546
 31
0.0
210
0.0
220
0.0
230
1.0
  0
LINE
  5
28D
100
AcDbEntity
  8
0
370
    35
390
0
 62
     7
 48
0.24375
100
AcDbLine
 10
-66.687714
 20
387.982361
 30
0.0
 11
-76.437714
 21
387.982361
 31
0.0
210
0.0
220
0.0
230
1.0
  0
LINE
  5
28E
100
AcDbEntity
  8
0
370
    35
390
0
 62
     7
 48
0.006307
100
AcDbLine
 10
-66.687714
 20
388.206299
 30
0.0
 11
-66.937714
 21
388.172546
 31
0.0
210
0.0
220
0.0
230
1.0
  0
LINE
  5
28F
100
AcDbEntity
  8
0
370
    35
390
0
 62
     7
 48
0.007527
100
AcDbLine
 10
-66.687714
 20
387.752014
 30
0.0
 11
-66.937714
 21
387.9198
 31
0.0
210
0.0
220
0.0
230
1.0
  0
LINE
  5
290
100
AcDbEntity
  8
0
370
    35
390
0
 62
     7
 48
0.23125
100
AcDbLine
 10
-66.937714
 20
387.9198
 30
0.0
 11
-76.187714
 21
387.9198
 31
0.0
210
0.0
220
0.0
230
1.0
  0
LINE
  5
291
100
AcDbEntity
  8
0
370
    35
390
0
 62
     7
 48
0.24375
100
AcDbLine
 10
-66.687714
 20
387.752014
 30
0.0
 11
-76.437714
 21
387.752014
 31
0.0
210
0.0
220
0.0
230
1.0
  0
LINE
  5
292
100
AcDbEntity
  8
0
370
    35
390
0
 62
     7
 48
0.006443
100
AcDbLine
 10
-66.687714
 20
387.982361
 30
0.0
 11
-66.937714
 21
387.9198
 31
0.0
210
0.0
220
0.0
230
1.0
  0
LINE
  5
293
100
AcDbEntity
  8
0
370
    35
390
0
 62
     7
 48
0.007207
100
AcDbLine
 10
-66.687714
 20
387.517761
 30
0.0
 11
-66.937714
 21
387.661316
 31
0.0
210
0.0
220
0.0
230
1.0
  0
LINE
  5
294
100
AcDbEntity
  8
0
370
    35
390
0
 62
     7
 48
0.23125
100
AcDbLine
 10
-66.937714
 20
387.661316
 30
0.0
 11
-76.187714
 21
387.661316
 31
0.0
210
0.0
220
0.0
230
1.0
  0
LINE
  5
295
100
AcDbEntity
  8
0
370
    35
390
0
 62
     7
 48
0.24375
100
AcDbLine
 10
-66.687714
 20
387.517761
 30
0.0
 11
-76.437714
 21
387.517761
 31
0.0
210
0.0
220
0.0
230
1.0
  0
LINE
  5
296
100
AcDbEntity
  8
0
370
    35
390
0
 62
     7
 48
0.006649
100
AcDbLine
 10
-66.687714
 20
387.752014
 30
0.0
 11
-66.937714
 21
387.661316
 31
0.0
210
0.0
220
0.0
230
1.0
  0
LINE
  5
297
100
AcDbEntity
  8
0
370
    35
390
0
 62
     7
 48
0.006909
100
AcDbLine
 10
-66.687714
 20
387.282227
 30
0.0
 11
-66.937714
 21
387.400024
 31
0.0
210
0.0
220
0.0
230
1.0
  0
LINE
  5
298
100
AcDbEntity
  8
0
370
    35
390
0
 62
     7
 48
0.23125
100
AcDbLine
 10
-66.937714
 20
387.400024
 30
0.0
 11
-76.187714
 21
387.400024
 31
0.0
210
0.0
220
0.0
230
1.0
  0
LINE
  5
299
100
AcDbEntity
  8
0
370
    35
390
0
 62
     7
 48
0.24375
100
AcDbLine
 10
-66.687714
 20
387.282227
 30
0.0
 11
-76.437714
 21
387.282227
 31
0.0
210
0.0
220
0.0
230
1.0
  0
LINE
  5
29A
100
AcDbEntity
  8
0
370
    35
390
0
 62
     7
 48
0.006908
100
AcDbLine
 10
-66.687714
 20
387.517761
 30
0.0
 11
-66.937714
 21
387.400024
 31
0.0
210
0.0
220
0.0
230
1.0
  0
LINE
  5
29B
100
AcDbEntity
  8
0
370
    35
390
0
 62
     7
 48
0.006648
100
AcDbLine
 10
-66.687714
 20
387.048035
 30
0.0
 11
-66.937714
 21
387.138672
 31
0.0
210
0.0
220
0.0
230
1.0
  0
LINE
  5
29C
100
AcDbEntity
  8
0
370
    35
390
0
 62
     7
 48
0.23125
100
AcDbLine
 10
-66.937714
 20
387.138672
 30
0.0
 11
-76.187714
 21
387.138672
 31
0.0
210
0.0
220
0.0
230
1.0
  0
LINE
  5
29D
100
AcDbEntity
  8
0
370
    35
390
0
 62
     7
 48
0.24375
100
AcDbLine
 10
-66.687714
 20
387.048035
 30
0.0
 11
-76.437714
 21
387.048035
 31
0.0
210
0.0
220
0.0
230
1.0
  0
LINE
  5
29E
100
AcDbEntity
  8
0
370
    35
390
0
 62
     7
 48
0.007207
100
AcDbLine
 10
-66.687714
 20
387.282227
 30
0.0
 11
-66.937714
 21
387.138672
 31
0.0
210
0.0
220
0.0
230
1.0
  0
LINE
  5
29F
100
AcDbEntity
  8
0
370
    35
390
0
 62
     7
 48
0.006443
100
AcDbLine
 10
-66.687714
 20
386.817627
 30
0.0
 11
-66.937714
 21
386.880249
 31
0.0
210
0.0
220
0.0
230
1.0
  0
LINE
  5
2A0
100
AcDbEntity
  8
0
370
    35
390
0
 62
     7
 48
0.23125
100
AcDbLine
 10
-66.937714
 20
386.880249
 30
0.0
 11
-76.187714
 21
386.880249
 31
0.0
210
0.0
220
0.0
230
1.0
  0
LINE
  5
2A1
100
AcDbEntity
  8
0
370
    35
390
0
 62
     7
 48
0.24375
100
AcDbLine
 10
-66.687714
 20
386.817627
 30
0.0
 11
-76.437714
 21
386.817627
 31
0.0
210
0.0
220
0.0
230
1.0
  0
LINE
  5
2A2
100
AcDbEntity
  8
0
370
    35
390
0
 62
     7
 48
0.007527
100
AcDbLine
 10
-66.687714
 20
387.048035
 30
0.0
 11
-66.937714
 21
386.880249
 31
0.0
210
0.0
220
0.0
230
1.0
  0
LINE
  5
2A3
100
AcDbEntity
  8
0
370
    35
390
0
 62
     7
 48
0.006307
100
AcDbLine
 10
-66.687714
 20
386.593689
 30
0.0
 11
-66.937714
 21
386.627502
 31
0.0
210
0.0
220
0.0
230
1.0
  0
LINE
  5
2A4
100
AcDbEntity
  8
0
370
    35
390
0
 62
     7
 48
0.23125
100
AcDbLine
 10
-66.937714
 20
386.627502
 30
0.0
 11
-76.187714
 21
386.627502
 31
0.0
210
0.0
220
0.0
230
1.0
  0
LINE
  5
2A5
100
AcDbEntity
  8
0
370
    35
390
0
 62
     7
 48
0.24375
100
AcDbLine
 10
-66.687714
 20
386.593689
 30
0.0
 11
-76.437714
 21
386.593689
 31
0.0
210
0.0
220
0.0
230
1.0
  0
LINE
  5
2A6
100
AcDbEntity
  8
0
370
    35
390
0
 62
     7
 48
0.007852
100
AcDbLine
 10
-66.687714
 20
386.817627
 30
0.0
 11
-66.937714
 21
386.627502
 31
0.0
210
0.0
220
0.0
230
1.0
  0
LINE
  5
2A7
100
AcDbEntity
  8
0
370
    35
390
0
 62
     7
 48
0.006251
100
AcDbLine
 10
-66.687714
 20
386.37854
 30
0.0
 11
-66.937714
 21
386.383179
 31
0.0
210
0.0
220
0.0
230
1.0
  0
LINE
  5
2A8
100
AcDbEntity
  8
0
370
    35
390
0
 62
     7
 48
0.23125
100
AcDbLine
 10
-66.937714
 20
386.383179
 30
0.0
 11
-76.187714
 21
386.383179
 31
0.0
210
0.0
220
0.0
230
1.0
  0
LINE
  5
2A9
100
AcDbEntity
  8
0
370
    35
390
0
 62
     7
 48
0.008171
100
AcDbLine
 10
-66.687714
 20
386.593689
 30
0.0
 11
-66.937714
 21
386.383179
 31
0.0
210
0.0
220
0.0
230
1.0
  0
LINE
  5
2AA
100
AcDbEntity
  8
0
370
    35
390
0
 62
     7
 48
0.09388
100
AcDbLine
 10
-66.437714
 20
385.400024
 30
0.0
 11
-66.437714
 21
389.155212
 31
0.0
210
0.0
220
0.0
230
1.0
  0
LINE
  5
2AB
100
AcDbEntity
  8
0
370
    35
390
0
 62
     7
 48
0.00612
100
AcDbLine
 10
-66.437714
 20
389.155212
 30
0.0
 11
-66.437714
 21
389.400024
 31
0.0
210
0.0
220
0.0
230
1.0
  0
LINE
  5
2AC
100
AcDbEntity
  8
0
370
    35
390
0
 62
     7
 48
0.0625
100
AcDbLine
 10
-80.03772
 20
390.700012
 30
0.0
 11
-80.03772
 21
393.200012
 31
0.0
210
0.0
220
0.0
230
1.0
  0
LINE
  5
2AD
100
AcDbEntity
  8
0
370
    35
390
0
 62
     7
 48
0.1875
100
AcDbLine
 10
-80.03772
 20
393.200012
 30
0.0
 11
-80.03772
 21
400.700012
 31
0.0
210
0.0
220
0.0
230
1.0
  0
LINE
  5
2AE
100
AcDbEntity
  8
0
370
    35
390
0
 62
     7
 48
0.056726
100
AcDbLine
 10
-79.237717
 20
391.161926
 30
0.0
 11
-79.237717
 21
393.430969
 31
0.0
210
0.0
220
0.0
230
1.0
  0
LINE
  5
2AF
100
AcDbEntity
  8
0
370
    35
390
0
 62
     7
 48
0.17018
100
AcDbLine
 10
-79.237717
 20
393.430969
 30
0.0
 11
-79.237717
 21
400.238159
 31
0.0
210
0.0
220
0.0
230
1.0
  0
LINE
  5
2B0
100
AcDbEntity
  8
0
370
    35
390
0
 62
     7
 48
0.000034
100
AcDbLine
 10
-21.237717
 20
391.700012
 30
0.0
 11
-21.237717
 21
391.701355
 31
0.0
210
0.0
220
0.0
230
1.0
  0
LINE
  5
2B1
100
AcDbEntity
  8
0
370
    35
390
0
 62
     7
 48
0.199966
100
AcDbLine
 10
-21.237717
 20
391.701355
 30
0.0
 11
-21.237717
 21
399.700012
 31
0.0
210
0.0
220
0.0
230
1.0
  0
LINE
  5
2B2
100
AcDbEntity
  8
0
370
    35
390
0
 62
     7
 48
0.000076
100
AcDbLine
 10
-76.437714
 20
406.246948
 30
0.0
 11
-76.437714
 21
406.25
 31
0.0
210
0.0
220
0.0
230
1.0
  0
LINE
  5
2B3
100
AcDbEntity
  8
0
370
    35
390
0
 62
     7
 48
0.000616
100
AcDbLine
 10
-76.437714
 20
406.22229
 30
0.0
 11
-76.437714
 21
406.246948
 31
0.0
210
0.0
220
0.0
230
1.0
  0
LINE
  5
2B4
100
AcDbEntity
  8
0
370
    35
390
0
 62
     7
 48
0.001917
100
AcDbLine
 10
-76.437714
 20
406.17334
 30
0.0
 11
-76.437714
 21
406.25
 31
0.0
210
0.0
220
0.0
230
1.0
  0
LINE
  5
2B5
100
AcDbEntity
  8
0
370
    35
390
0
 62
     7
 48
0.00182
100
AcDbLine
 10
-76.437714
 20
406.100525
 30
0.0
 11
-76.437714
 21
406.17334
 31
0.0
210
0.0
220
0.0
230
1.0
  0
LINE
  5
2B6
100
AcDbEntity
  8
0
370
    35
390
0
 62
     7
 48
0.002394
100
AcDbLine
 10
-76.437714
 20
406.004761
 30
0.0
 11
-76.437714
 21
406.100525
 31
0.0
210
0.0
220
0.0
230
1.0
  0
LINE
  5
2B7
100
AcDbEntity
  8
0
370
    35
390
0
 62
     7
 48
0.000754
100
AcDbLine
 10
-76.437714
 20
405.974609
 30
0.0
 11
-76.437714
 21
406.004761
 31
0.0
210
0.0
220
0.0
230
1.0
  0
LINE
  5
2B8
100
AcDbEntity
  8
0
370
    35
390
0
 62
     7
 48
0.00219
100
AcDbLine
 10
-76.437714
 20
405.887024
 30
0.0
 11
-76.437714
 21
405.974609
 31
0.0
210
0.0
220
0.0
230
1.0
  0
LINE
  5
2B9
100
AcDbEntity
  8
0
370
    35
390
0
 62
     7
 48
0.003461
100
AcDbLine
 10
-76.437714
 20
405.748596
 30
0.0
 11
-76.437714
 21
405.887024
 31
0.0
210
0.0
220
0.0
230
1.0
  0
LINE
  5
2BA
100
AcDbEntity
  8
0
370
    35
390
0
 62
     7
 48
0.00394
100
AcDbLine
 10
-76.437714
 20
405.591003
 30
0.0
 11
-76.437714
 21
405.748596
 31
0.0
210
0.0
220
0.0
230
1.0
  0
LINE
  5
2BB
100
AcDbEntity
  8
0
370
    35
390
0
 62
     7
 48
0.004376
100
AcDbLine
 10
-76.437714
 20
405.415955
 30
0.0
 11
-76.437714
 21
405.591003
 31
0.0
210
0.0
220
0.0
230
1.0
  0
LINE
  5
2BC
100
AcDbEntity
  8
0
370
    35
390
0
 62
     7
 48
0.004764
100
AcDbLine
 10
-76.437714
 20
405.225403
 30
0.0
 11
-76.437714
 21
405.415955
 31
0.0
210
0.0
220
0.0
230
1.0
  0
LINE
  5
2BD
100
AcDbEntity
  8
0
370
    35
390
0
 62
     7
 48
0.005098
100
AcDbLine
 10
-76.437714
 20
405.021484
 30
0.0
 11
-76.437714
 21
405.225403
 31
0.0
210
0.0
220
0.0
230
1.0
  0
LINE
  5
2BE
100
AcDbEntity
  8
0
370
    35
390
0
 62
     7
 48
0.005379
100
AcDbLine
 10
-76.437714
 20
404.806335
 30
0.0
 11
-76.437714
 21
405.021484
 31
0.0
210
0.0
220
0.0
230
1.0
  0
LINE
  5
2BF
100
AcDbEntity
  8
0
370
    35
390
0
 62
     7
 48
0.0056
100
AcDbLine
 10
-76.437714
 20
404.582336
 30
0.0
 11
-76.437714
 21
404.806335
 31
0.0
210
0.0
220
0.0
230
1.0
  0
LINE
  5
2C0
100
AcDbEntity
  8
0
370
    35
390
0
 62
     7
 48
0.005759
100
AcDbLine
 10
-76.437714
 20
404.35199
 30
0.0
 11
-76.437714
 21
404.582336
 31
0.0
210
0.0
220
0.0
230
1.0
  0
LINE
  5
2C1
100
AcDbEntity
  8
0
370
    35
390
0
 62
     7
 48
0.005856
100
AcDbLine
 10
-76.437714
 20
404.117737
 30
0.0
 11
-76.437714
 21
404.35199
 31
0.0
210
0.0
220
0.0
230
1.0
  0
LINE
  5
2C2
100
AcDbEntity
  8
0
370
    35
390
0
 62
     7
 48
0.005887
100
AcDbLine
 10
-76.437714
 20
403.882263
 30
0.0
 11
-76.437714
 21
404.117737
 31
0.0
210
0.0
220
0.0
230
1.0
  0
LINE
  5
2C3
100
AcDbEntity
  8
0
370
    35
390
0
 62
     7
 48
0.005855
100
AcDbLine
 10
-76.437714
 20
403.648071
 30
0.0
 11
-76.437714
 21
403.882263
 31
0.0
210
0.0
220
0.0
230
1.0
  0
LINE
  5
2C4
100
AcDbEntity
  8
0
370
    35
390
0
 62
     7
 48
0.00576
100
AcDbLine
 10
-76.437714
 20
403.417664
 30
0.0
 11
-76.437714
 21
403.648071
 31
0.0
210
0.0
220
0.0
230
1.0
  0
LINE
  5
2C5
100
AcDbEntity
  8
0
370
    35
390
0
 62
     7
 48
0.0056
100
AcDbLine
 10
-76.437714
 20
403.193665
 30
0.0
 11
-76.437714
 21
403.417664
 31
0.0
210
0.0
220
0.0
230
1.0
  0
LINE
  5
2C6
100
AcDbEntity
  8
0
370
    35
390
0
 62
     7
 48
0.005379
100
AcDbLine
 10
-76.437714
 20
402.978516
 30
0.0
 11
-76.437714
 21
403.193665
 31
0.0
210
0.0
220
0.0
230
1.0
  0
LINE
  5
2C7
100
AcDbEntity
  8
0
370
    35
390
0
 62
     7
 48
0.001431
100
AcDbLine
 10
-76.437714
 20
402.921265
 30
0.0
 11
-76.437714
 21
402.978516
 31
0.0
210
0.0
220
0.0
230
1.0
  0
LINE
  5
2C8
100
AcDbEntity
  8
0
370
    35
390
0
 62
     7
 48
0.008893
100
AcDbLine
 10
-76.437714
 20
406.246948
 30
0.0
 11
-76.187714
 21
406.5
 31
0.0
210
0.0
220
0.0
230
1.0
  0
LINE
  5
2C9
100
AcDbEntity
  8
0
370
    35
390
0
 62
     7
 48
0.00909
100
AcDbLine
 10
-76.437714
 20
406.22229
 30
0.0
 11
-76.187714
 21
406.486328
 31
0.0
210
0.0
220
0.0
230
1.0
  0
LINE
  5
2CA
100
AcDbEntity
  8
0
370
    35
390
0
 62
     7
 48
0.008653
100
AcDbLine
 10
-76.437714
 20
406.246948
 30
0.0
 11
-76.187714
 21
406.486328
 31
0.0
210
0.0
220
0.0
230
1.0
  0
LINE
  5
2CB
100
AcDbEntity
  8
0
370
    35
390
0
 62
     7
 48
0.009237
100
AcDbLine
 10
-76.437714
 20
406.17334
 30
0.0
 11
-76.187714
 21
406.445374
 31
0.0
210
0.0
220
0.0
230
1.0
  0
LINE
  5
2CC
100
AcDbEntity
  8
0
370
    35
390
0
 62
     7
 48
0.008377
100
AcDbLine
 10
-76.437714
 20
406.22229
 30
0.0
 11
-76.187714
 21
406.445374
 31
0.0
210
0.0
220
0.0
230
1.0
  0
LINE
  5
2CD
100
AcDbEntity
  8
0
370
    35
390
0
 62
     7
 48
0.00933
100
AcDbLine
 10
-76.437714
 20
406.100525
 30
0.0
 11
-76.187714
 21
406.377625
 31
0.0
210
0.0
220
0.0
230
1.0
  0
LINE
  5
2CE
100
AcDbEntity
  8
0
370
    35
390
0
 62
     7
 48
0.008071
100
AcDbLine
 10
-76.437714
 20
406.17334
 30
0.0
 11
-76.187714
 21
406.377625
 31
0.0
210
0.0
220
0.0
230
1.0
  0
LINE
  5
2CF
100
AcDbEntity
  8
0
370
    35
390
0
 62
     7
 48
0.009368
100
AcDbLine
 10
-76.437714
 20
406.004761
 30
0.0
 11
-76.187714
 21
406.283875
 31
0.0
210
0.0
220
0.0
230
1.0
  0
LINE
  5
2D0
100
AcDbEntity
  8
0
370
    35
390
0
 62
     7
 48
0.007751
100
AcDbLine
 10
-76.437714
 20
406.100525
 30
0.0
 11
-76.187714
 21
406.283875
 31
0.0
210
0.0
220
0.0
230
1.0
  0
LINE
  5
2D1
100
AcDbEntity
  8
0
370
    35
390
0
 62
     7
 48
0.003867
100
AcDbLine
 10
-76.437714
 20
406.004761
 30
0.0
 11
-76.307739
 21
406.088623
 31
0.0
210
0.0
220
0.0
230
1.0
  0
LINE
  5
2D2
100
AcDbEntity
  8
0
370
    35
390
0
 62
     7
 48
0.009348
100
AcDbLine
 10
-76.437714
 20
405.887024
 30
0.0
 11
-76.187714
 21
406.1651
 31
0.0
210
0.0
220
0.0
230
1.0
  0
LINE
  5
2D3
100
AcDbEntity
  8
0
370
    35
390
0
 62
     7
 48
0.003558
100
AcDbLine
 10
-76.307739
 20
406.088623
 30
0.0
 11
-76.187714
 21
406.1651
 31
0.0
210
0.0
220
0.0
230
1.0
  0
LINE
  5
2D4
100
AcDbEntity
  8
0
370
    35
390
0
 62
     7
 48
0.009271
100
AcDbLine
 10
-76.437714
 20
405.748596
 30
0.0
 11
-76.187714
 21
406.022522
 31
0.0
210
0.0
220
0.0
230
1.0
  0
LINE
  5
2D5
100
AcDbEntity
  8
0
370
    35
390
0
 62
     7
 48
0.007109
100
AcDbLine
 10
-76.437714
 20
405.887024
 30
0.0
 11
-76.187714
 21
406.022522
 31
0.0
210
0.0
220
0.0
230
1.0
  0
LINE
  5
2D6
100
AcDbEntity
  8
0
370
    35
390
0
 62
     7
 48
0.009143
100
AcDbLine
 10
-76.437714
 20
405.591003
 30
0.0
 11
-76.187714
 21
405.85791
 31
0.0
210
0.0
220
0.0
230
1.0
  0
LINE
  5
2D7
100
AcDbEntity
  8
0
370
    35
390
0
 62
     7
 48
0.006821
100
AcDbLine
 10
-76.437714
 20
405.748596
 30
0.0
 11
-76.187714
 21
405.85791
 31
0.0
210
0.0
220
0.0
230
1.0
  0
LINE
  5
2D8
100
AcDbEntity
  8
0
370
    35
390
0
 62
     7
 48
0.00896
100
AcDbLine
 10
-76.437714
 20
405.415955
 30
0.0
 11
-76.187714
 21
405.672791
 31
0.0
210
0.0
220
0.0
230
1.0
  0
LINE
  5
2D9
100
AcDbEntity
  8
0
370
    35
390
0
 62
     7
 48
0.006576
100
AcDbLine
 10
-76.437714
 20
405.591003
 30
0.0
 11
-76.187714
 21
405.672791
 31
0.0
210
0.0
220
0.0
230
1.0
  0
LINE
  5
2DA
100
AcDbEntity
  8
0
370
    35
390
0
 62
     7
 48
0.008735
100
AcDbLine
 10
-76.437714
 20
405.225403
 30
0.0
 11
-76.187714
 21
405.469482
 31
0.0
210
0.0
220
0.0
230
1.0
  0
LINE
  5
2DB
100
AcDbEntity
  8
0
370
    35
390
0
 62
     7
 48
0.006392
100
AcDbLine
 10
-76.437714
 20
405.415955
 30
0.0
 11
-76.187714
 21
405.469482
 31
0.0
210
0.0
220
0.0
230
1.0
  0
LINE
  5
2DC
100
AcDbEntity
  8
0
370
    35
390
0
 62
     7
 48
0.008468
100
AcDbLine
 10
-76.437714
 20
405.021484
 30
0.0
 11
-76.187714
 21
405.25
 31
0.0
210
0.0
220
0.0
230
1.0
  0
LINE
  5
2DD
100
AcDbEntity
  8
0
370
    35
390
0
 62
     7
 48
0.00628
100
AcDbLine
 10
-76.437714
 20
405.225403
 30
0.0
 11
-76.187714
 21
405.25
 31
0.0
210
0.0
220
0.0
230
1.0
  0
LINE
  5
2DE
100
AcDbEntity
  8
0
370
    35
390
0
 62
     7
 48
0.008171
100
AcDbLine
 10
-76.437714
 20
404.806335
 30
0.0
 11
-76.187714
 21
405.016846
 31
0.0
210
0.0
220
0.0
230
1.0
  0
LINE
  5
2DF
100
AcDbEntity
  8
0
370
    35
390
0
 62
     7
 48
0.006251
100
AcDbLine
 10
-76.437714
 20
405.021484
 30
0.0
 11
-76.187714
 21
405.016846
 31
0.0
210
0.0
220
0.0
230
1.0
  0
LINE
  5
2E0
100
AcDbEntity
  8
0
370
    35
390
0
 62
     7
 48
0.007853
100
AcDbLine
 10
-76.437714
 20
404.582336
 30
0.0
 11
-76.187714
 21
404.772522
 31
0.0
210
0.0
220
0.0
230
1.0
  0
LINE
  5
2E1
100
AcDbEntity
  8
0
370
    35
390
0
 62
     7
 48
0.006307
100
AcDbLine
 10
-76.437714
 20
404.806335
 30
0.0
 11
-76.187714
 21
404.772522
 31
0.0
210
0.0
220
0.0
230
1.0
  0
LINE
  5
2E2
100
AcDbEntity
  8
0
370
    35
390
0
 62
     7
 48
0.007527
100
AcDbLine
 10
-76.437714
 20
404.35199
 30
0.0
 11
-76.187714
 21
404.519775
 31
0.0
210
0.0
220
0.0
230
1.0
  0
LINE
  5
2E3
100
AcDbEntity
  8
0
370
    35
390
0
 62
     7
 48
0.006443
100
AcDbLine
 10
-76.437714
 20
404.582336
 30
0.0
 11
-76.187714
 21
404.519775
 31
0.0
210
0.0
220
0.0
230
1.0
  0
LINE
  5
2E4
100
AcDbEntity
  8
0
370
    35
390
0
 62
     7
 48
0.007207
100
AcDbLine
 10
-76.437714
 20
404.117737
 30
0.0
 11
-76.187714
 21
404.261292
 31
0.0
210
0.0
220
0.0
230
1.0
  0
LINE
  5
2E5
100
AcDbEntity
  8
0
370
    35
390
0
 62
     7
 48
0.006649
100
AcDbLine
 10
-76.437714
 20
404.35199
 30
0.0
 11
-76.187714
 21
404.261292
 31
0.0
210
0.0
220
0.0
230
1.0
  0
LINE
  5
2E6
100
AcDbEntity
  8
0
370
    35
390
0
 62
     7
 48
0.006908
100
AcDbLine
 10
-76.437714
 20
403.882263
 30
0.0
 11
-76.187714
 21
404.0
 31
0.0
210
0.0
220
0.0
230
1.0
  0
LINE
  5
2E7
100
AcDbEntity
  8
0
370
    35
390
0
 62
     7
 48
0.006908
100
AcDbLine
 10
-76.437714
 20
404.117737
 30
0.0
 11
-76.187714
 21
404.0
 31
0.0
210
0.0
220
0.0
230
1.0
  0
LINE
  5
2E8
100
AcDbEntity
  8
0
370
    35
390
0
 62
     7
 48
0.006648
100
AcDbLine
 10
-76.437714
 20
403.648071
 30
0.0
 11
-76.187714
 21
403.738708
 31
0.0
210
0.0
220
0.0
230
1.0
  0
LINE
  5
2E9
100
AcDbEntity
  8
0
370
    35
390
0
 62
     7
 48
0.007207
100
AcDbLine
 10
-76.437714
 20
403.882263
 30
0.0
 11
-76.187714
 21
403.738708
 31
0.0
210
0.0
220
0.0
230
1.0
  0
LINE
  5
2EA
100
AcDbEntity
  8
0
370
    35
390
0
 62
     7
 48
0.006443
100
AcDbLine
 10
-76.437714
 20
403.417664
 30
0.0
 11
-76.187714
 21
403.480225
 31
0.0
210
0.0
220
0.0
230
1.0
  0
LINE
  5
2EB
100
AcDbEntity
  8
0
370
    35
390
0
 62
     7
 48
0.007528
100
AcDbLine
 10
-76.437714
 20
403.648071
 30
0.0
 11
-76.187714
 21
403.480225
 31
0.0
210
0.0
220
0.0
230
1.0
  0
LINE
  5
2EC
100
AcDbEntity
  8
0
370
    35
390
0
 62
     7
 48
0.006307
100
AcDbLine
 10
-76.437714
 20
403.193665
 30
0.0
 11
-76.187714
 21
403.227478
 31
0.0
210
0.0
220
0.0
230
1.0
  0
LINE
  5
2ED
100
AcDbEntity
  8
0
370
    35
390
0
 62
     7
 48
0.007853
100
AcDbLine
 10
-76.437714
 20
403.417664
 30
0.0
 11
-76.187714
 21
403.227478
 31
0.0
210
0.0
220
0.0
230
1.0
  0
LINE
  5
2EE
100
AcDbEntity
  8
0
370
    35
390
0
 62
     7
 48
0.006251
100
AcDbLine
 10
-76.437714
 20
402.978516
 30
0.0
 11
-76.187714
 21
402.983154
 31
0.0
210
0.0
220
0.0
230
1.0
  0
LINE
  5
2EF
100
AcDbEntity
  8
0
370
    35
390
0
 62
     7
 48
0.008171
100
AcDbLine
 10
-76.437714
 20
403.193665
 30
0.0
 11
-76.187714
 21
402.983154
 31
0.0
210
0.0
220
0.0
230
1.0
  0
LINE
  5
2F0
100
AcDbEntity
  8
0
370
    35
390
0
 62
     7
 48
0.003667
100
AcDbLine
 10
-76.437714
 20
402.774597
 30
0.0
 11
-76.437714
 21
402.921265
 31
0.0
210
0.0
220
0.0
230
1.0
  0
LINE
  5
2F1
100
AcDbEntity
  8
0
370
    35
390
0
 62
     7
 48
0.00628
100
AcDbLine
 10
-76.437714
 20
402.774597
 30
0.0
 11
-76.187714
 21
402.75
 31
0.0
210
0.0
220
0.0
230
1.0
  0
LINE
  5
2F2
100
AcDbEntity
  8
0
370
    35
390
0
 62
     7
 48
0.008468
100
AcDbLine
 10
-76.437714
 20
402.978516
 30
0.0
 11
-76.187714
 21
402.75
 31
0.0
210
0.0
220
0.0
230
1.0
  0
LINE
  5
2F3
100
AcDbEntity
  8
0
370
    35
390
0
 62
     7
 48
0.004764
100
AcDbLine
 10
-76.437714
 20
402.584045
 30
0.0
 11
-76.437714
 21
402.774597
 31
0.0
210
0.0
220
0.0
230
1.0
  0
LINE
  5
2F4
100
AcDbEntity
  8
0
370
    35
390
0
 62
     7
 48
0.004376
100
AcDbLine
 10
-76.437714
 20
402.408997
 30
0.0
 11
-76.437714
 21
402.584045
 31
0.0
210
0.0
220
0.0
230
1.0
  0
LINE
  5
2F5
100
AcDbEntity
  8
0
370
    35
390
0
 62
     7
 48
0.00394
100
AcDbLine
 10
-76.437714
 20
402.251404
 30
0.0
 11
-76.437714
 21
402.408997
 31
0.0
210
0.0
220
0.0
230
1.0
  0
LINE
  5
2F6
100
AcDbEntity
  8
0
370
    35
390
0
 62
     7
 48
0.003459
100
AcDbLine
 10
-76.437714
 20
402.113037
 30
0.0
 11
-76.437714
 21
402.251404
 31
0.0
210
0.0
220
0.0
230
1.0
  0
LINE
  5
2F7
100
AcDbEntity
  8
0
370
    35
390
0
 62
     7
 48
0.002945
100
AcDbLine
 10
-76.437714
 20
401.995239
 30
0.0
 11
-76.437714
 21
402.113037
 31
0.0
210
0.0
220
0.0
230
1.0
  0
LINE
  5
2F8
100
AcDbEntity
  8
0
370
    35
390
0
 62
     7
 48
0.002394
100
AcDbLine
 10
-76.437714
 20
401.899475
 30
0.0
 11
-76.437714
 21
401.995239
 31
0.0
210
0.0
220
0.0
230
1.0
  0
LINE
  5
2F9
100
AcDbEntity
  8
0
370
    35
390
0
 62
     7
 48
0.00182
100
AcDbLine
 10
-76.437714
 20
401.82666
 30
0.0
 11
-76.437714
 21
401.899475
 31
0.0
210
0.0
220
0.0
230
1.0
  0
LINE
  5
2FA
100
AcDbEntity
  8
0
370
    35
390
0
 62
     7
 48
0.001917
100
AcDbLine
 10
-76.437714
 20
401.75
 30
0.0
 11
-76.437714
 21
401.82666
 31
0.0
210
0.0
220
0.0
230
1.0
  0
LINE
  5
2FB
100
AcDbEntity
  8
0
370
    35
390
0
 62
     7
 48
0.000616
100
AcDbLine
 10
-76.437714
 20
401.753052
 30
0.0
 11
-76.437714
 21
401.77771
 31
0.0
210
0.0
220
0.0
230
1.0
  0
LINE
  5
2FC
100
AcDbEntity
  8
0
370
    35
390
0
 62
     7
 48
0.000076
100
AcDbLine
 10
-76.437714
 20
401.75
 30
0.0
 11
-76.437714
 21
401.753052
 31
0.0
210
0.0
220
0.0
230
1.0
  0
LINE
  5
2FD
100
AcDbEntity
  8
0
370
    35
390
0
 62
     7
 48
0.008893
100
AcDbLine
 10
-66.687714
 20
406.246948
 30
0.0
 11
-66.937714
 21
406.5
 31
0.0
210
0.0
220
0.0
230
1.0
  0
LINE
  5
2FE
100
AcDbEntity
  8
0
370
    35
390
0
 62
     7
 48
0.23125
100
AcDbLine
 10
-66.937714
 20
406.5
 30
0.0
 11
-76.187714
 21
406.5
 31
0.0
210
0.0
220
0.0
230
1.0
  0
LINE
  5
2FF
100
AcDbEntity
  8
0
370
    35
390
0
 62
     7
 48
0.00909
100
AcDbLine
 10
-66.687714
 20
406.22229
 30
0.0
 11
-66.937714
 21
406.486328
 31
0.0
210
0.0
220
0.0
230
1.0
  0
LINE
  5
300
100
AcDbEntity
  8
0
370
    35
390
0
 62
     7
 48
0.23125
100
AcDbLine
 10
-66.937714
 20
406.486328
 30
0.0
 11
-76.187714
 21
406.486328
 31
0.0
210
0.0
220
0.0
230
1.0
  0
LINE
  5
301
100
AcDbEntity
  8
0
370
    35
390
0
 62
     7
 48
0.008653
100
AcDbLine
 10
-66.687714
 20
406.246948
 30
0.0
 11
-66.937714
 21
406.486328
 31
0.0
210
0.0
220
0.0
230
1.0
  0
LINE
  5
302
100
AcDbEntity
  8
0
370
    35
390
0
 62
     7
 48
0.009237
100
AcDbLine
 10
-66.687714
 20
406.17334
 30
0.0
 11
-66.937714
 21
406.445374
 31
0.0
210
0.0
220
0.0
230
1.0
  0
LINE
  5
303
100
AcDbEntity
  8
0
370
    35
390
0
 62
     7
 48
0.23125
100
AcDbLine
 10
-66.937714
 20
406.445374
 30
0.0
 11
-76.187714
 21
406.445374
 31
0.0
210
0.0
220
0.0
230
1.0
  0
LINE
  5
304
100
AcDbEntity
  8
0
370
    35
390
0
 62
     7
 48
0.008377
100
AcDbLine
 10
-66.687714
 20
406.22229
 30
0.0
 11
-66.937714
 21
406.445374
 31
0.0
210
0.0
220
0.0
230
1.0
  0
LINE
  5
305
100
AcDbEntity
  8
0
370
    35
390
0
 62
     7
 48
0.00933
100
AcDbLine
 10
-66.687714
 20
406.100525
 30
0.0
 11
-66.937714
 21
406.377625
 31
0.0
210
0.0
220
0.0
230
1.0
  0
LINE
  5
306
100
AcDbEntity
  8
0
370
    35
390
0
 62
     7
 48
0.23125
100
AcDbLine
 10
-66.937714
 20
406.377625
 30
0.0
 11
-76.187714
 21
406.377625
 31
0.0
210
0.0
220
0.0
230
1.0
  0
LINE
  5
307
100
AcDbEntity
  8
0
370
    35
390
0
 62
     7
 48
0.008071
100
AcDbLine
 10
-66.687714
 20
406.17334
 30
0.0
 11
-66.937714
 21
406.377625
 31
0.0
210
0.0
220
0.0
230
1.0
  0
LINE
  5
308
100
AcDbEntity
  8
0
370
    35
390
0
 62
     7
 48
0.009368
100
AcDbLine
 10
-66.687714
 20
406.004761
 30
0.0
 11
-66.937714
 21
406.283875
 31
0.0
210
0.0
220
0.0
230
1.0
  0
LINE
  5
309
100
AcDbEntity
  8
0
370
    35
390
0
 62
     7
 48
0.23125
100
AcDbLine
 10
-66.937714
 20
406.283875
 30
0.0
 11
-76.187714
 21
406.283875
 31
0.0
210
0.0
220
0.0
230
1.0
  0
LINE
  5
30A
100
AcDbEntity
  8
0
370
    35
390
0
 62
     7
 48
0.007751
100
AcDbLine
 10
-66.687714
 20
406.100525
 30
0.0
 11
-66.937714
 21
406.283875
 31
0.0
210
0.0
220
0.0
230
1.0
  0
LINE
  5
30B
100
AcDbEntity
  8
0
370
    35
390
0
 62
     7
 48
0.23125
100
AcDbLine
 10
-66.937714
 20
406.1651
 30
0.0
 11
-76.187714
 21
406.1651
 31
0.0
210
0.0
220
0.0
230
1.0
  0
LINE
  5
30C
100
AcDbEntity
  8
0
370
    35
390
0
 62
     7
 48
0.003558
100
AcDbLine
 10
-66.817673
 20
406.088623
 30
0.0
 11
-66.937714
 21
406.1651
 31
0.0
210
0.0
220
0.0
230
1.0
  0
LINE
  5
30D
100
AcDbEntity
  8
0
370
    35
390
0
 62
     7
 48
0.003867
100
AcDbLine
 10
-66.687714
 20
406.004761
 30
0.0
 11
-66.817673
 21
406.088623
 31
0.0
210
0.0
220
0.0
230
1.0
  0
LINE
  5
30E
100
AcDbEntity
  8
0
370
    35
390
0
 62
     7
 48
0.009348
100
AcDbLine
 10
-66.687714
 20
405.887024
 30
0.0
 11
-66.937714
 21
406.1651
 31
0.0
210
0.0
220
0.0
230
1.0
  0
LINE
  5
30F
100
AcDbEntity
  8
0
370
    35
390
0
 62
     7
 48
0.009271
100
AcDbLine
 10
-66.687714
 20
405.748596
 30
0.0
 11
-66.937714
 21
406.022522
 31
0.0
210
0.0
220
0.0
230
1.0
  0
LINE
  5
310
100
AcDbEntity
  8
0
370
    35
390
0
 62
     7
 48
0.23125
100
AcDbLine
 10
-66.937714
 20
406.022522
 30
0.0
 11
-76.187714
 21
406.022522
 31
0.0
210
0.0
220
0.0
230
1.0
  0
LINE
  5
311
100
AcDbEntity
  8
0
370
    35
390
0
 62
     7
 48
0.007109
100
AcDbLine
 10
-66.687714
 20
405.887024
 30
0.0
 11
-66.937714
 21
406.022522
 31
0.0
210
0.0
220
0.0
230
1.0
  0
LINE
  5
312
100
AcDbEntity
  8
0
370
    35
390
0
 62
     7
 48
0.009143
100
AcDbLine
 10
-66.687714
 20
405.591003
 30
0.0
 11
-66.937714
 21
405.85791
 31
0.0
210
0.0
220
0.0
230
1.0
  0
LINE
  5
313
100
AcDbEntity
  8
0
370
    35
390
0
 62
     7
 48
0.23125
100
AcDbLine
 10
-66.937714
 20
405.85791
 30
0.0
 11
-76.187714
 21
405.85791
 31
0.0
210
0.0
220
0.0
230
1.0
  0
LINE
  5
314
100
AcDbEntity
  8
0
370
    35
390
0
 62
     7
 48
0.006821
100
AcDbLine
 10
-66.687714
 20
405.748596
 30
0.0
 11
-66.937714
 21
405.85791
 31
0.0
210
0.0
220
0.0
230
1.0
  0
LINE
  5
315
100
AcDbEntity
  8
0
370
    35
390
0
 62
     7
 48
0.00896
100
AcDbLine
 10
-66.687714
 20
405.415955
 30
0.0
 11
-66.937714
 21
405.672791
 31
0.0
210
0.0
220
0.0
230
1.0
  0
LINE
  5
316
100
AcDbEntity
  8
0
370
    35
390
0
 62
     7
 48
0.23125
100
AcDbLine
 10
-66.937714
 20
405.672791
 30
0.0
 11
-76.187714
 21
405.672791
 31
0.0
210
0.0
220
0.0
230
1.0
  0
LINE
  5
317
100
AcDbEntity
  8
0
370
    35
390
0
 62
     7
 48
0.006576
100
AcDbLine
 10
-66.687714
 20
405.591003
 30
0.0
 11
-66.937714
 21
405.672791
 31
0.0
210
0.0
220
0.0
230
1.0
  0
LINE
  5
318
100
AcDbEntity
  8
0
370
    35
390
0
 62
     7
 48
0.008735
100
AcDbLine
 10
-66.687714
 20
405.225403
 30
0.0
 11
-66.937714
 21
405.469482
 31
0.0
210
0.0
220
0.0
230
1.0
  0
LINE
  5
319
100
AcDbEntity
  8
0
370
    35
390
0
 62
     7
 48
0.23125
100
AcDbLine
 10
-66.937714
 20
405.469482
 30
0.0
 11
-76.187714
 21
405.469482
 31
0.0
210
0.0
220
0.0
230
1.0
  0
LINE
  5
31A
100
AcDbEntity
  8
0
370
    35
390
0
 62
     7
 48
0.006392
100
AcDbLine
 10
-66.687714
 20
405.415955
 30
0.0
 11
-66.937714
 21
405.469482
 31
0.0
210
0.0
220
0.0
230
1.0
  0
LINE
  5
31B
100
AcDbEntity
  8
0
370
    35
390
0
 62
     7
 48
0.008468
100
AcDbLine
 10
-66.687714
 20
405.021484
 30
0.0
 11
-66.937714
 21
405.25
 31
0.0
210
0.0
220
0.0
230
1.0
  0
LINE
  5
31C
100
AcDbEntity
  8
0
370
    35
390
0
 62
     7
 48
0.23125
100
AcDbLine
 10
-66.937714
 20
405.25
 30
0.0
 11
-76.187714
 21
405.25
 31
0.0
210
0.0
220
0.0
230
1.0
  0
LINE
  5
31D
100
AcDbEntity
  8
0
370
    35
390
0
 62
     7
 48
0.24375
100
AcDbLine
 10
-66.687714
 20
405.021484
 30
0.0
 11
-76.437714
 21
405.021484
 31
0.0
210
0.0
220
0.0
230
1.0
  0
LINE
  5
31E
100
AcDbEntity
  8
0
370
    35
390
0
 62
     7
 48
0.00628
100
AcDbLine
 10
-66.687714
 20
405.225403
 30
0.0
 11
-66.937714
 21
405.25
 31
0.0
210
0.0
220
0.0
230
1.0
  0
LINE
  5
31F
100
AcDbEntity
  8
0
370
    35
390
0
 62
     7
 48
0.008171
100
AcDbLine
 10
-66.687714
 20
404.806335
 30
0.0
 11
-66.937714
 21
405.016846
 31
0.0
210
0.0
220
0.0
230
1.0
  0
LINE
  5
320
100
AcDbEntity
  8
0
370
    35
390
0
 62
     7
 48
0.23125
100
AcDbLine
 10
-66.937714
 20
405.016846
 30
0.0
 11
-76.187714
 21
405.016846
 31
0.0
210
0.0
220
0.0
230
1.0
  0
LINE
  5
321
100
AcDbEntity
  8
0
370
    35
390
0
 62
     7
 48
0.24375
100
AcDbLine
 10
-66.687714
 20
404.806335
 30
0.0
 11
-76.437714
 21
404.806335
 31
0.0
210
0.0
220
0.0
230
1.0
  0
LINE
  5
322
100
AcDbEntity
  8
0
370
    35
390
0
 62
     7
 48
0.006251
100
AcDbLine
 10
-66.687714
 20
405.021484
 30
0.0
 11
-66.937714
 21
405.016846
 31
0.0
210
0.0
220
0.0
230
1.0
  0
LINE
  5
323
100
AcDbEntity
  8
0
370
    35
390
0
 62
     7
 48
0.007853
100
AcDbLine
 10
-66.687714
 20
404.582336
 30
0.0
 11
-66.937714
 21
404.772522
 31
0.0
210
0.0
220
0.0
230
1.0
  0
LINE
  5
324
100
AcDbEntity
  8
0
370
    35
390
0
 62
     7
 48
0.23125
100
AcDbLine
 10
-66.937714
 20
404.772522
 30
0.0
 11
-76.187714
 21
404.772522
 31
0.0
210
0.0
220
0.0
230
1.0
  0
LINE
  5
325
100
AcDbEntity
  8
0
370
    35
390
0
 62
     7
 48
0.24375
100
AcDbLine
 10
-66.687714
 20
404.582336
 30
0.0
 11
-76.437714
 21
404.582336
 31
0.0
210
0.0
220
0.0
230
1.0
  0
LINE
  5
326
100
AcDbEntity
  8
0
370
    35
390
0
 62
     7
 48
0.006307
100
AcDbLine
 10
-66.687714
 20
404.806335
 30
0.0
 11
-66.937714
 21
404.772522
 31
0.0
210
0.0
220
0.0
230
1.0
  0
LINE
  5
327
100
AcDbEntity
  8
0
370
    35
390
0
 62
     7
 48
0.007527
100
AcDbLine
 10
-66.687714
 20
404.35199
 30
0.0
 11
-66.937714
 21
404.519775
 31
0.0
210
0.0
220
0.0
230
1.0
  0
LINE
  5
328
100
AcDbEntity
  8
0
370
    35
390
0
 62
     7
 48
0.23125
100
AcDbLine
 10
-66.937714
 20
404.519775
 30
0.0
 11
-76.187714
 21
404.519775
 31
0.0
210
0.0
220
0.0
230
1.0
  0
LINE
  5
329
100
AcDbEntity
  8
0
370
    35
390
0
 62
     7
 48
0.24375
100
AcDbLine
 10
-66.687714
 20
404.35199
 30
0.0
 11
-76.437714
 21
404.35199
 31
0.0
210
0.0
220
0.0
230
1.0
  0
LINE
  5
32A
100
AcDbEntity
  8
0
370
    35
390
0
 62
     7
 48
0.006443
100
AcDbLine
 10
-66.687714
 20
404.582336
 30
0.0
 11
-66.937714
 21
404.519775
 31
0.0
210
0.0
220
0.0
230
1.0
  0
LINE
  5
32B
100
AcDbEntity
  8
0
370
    35
390
0
 62
     7
 48
0.007207
100
AcDbLine
 10
-66.687714
 20
404.117737
 30
0.0
 11
-66.937714
 21
404.261292
 31
0.0
210
0.0
220
0.0
230
1.0
  0
LINE
  5
32C
100
AcDbEntity
  8
0
370
    35
390
0
 62
     7
 48
0.23125
100
AcDbLine
 10
-66.937714
 20
404.261292
 30
0.0
 11
-76.187714
 21
404.261292
 31
0.0
210
0.0
220
0.0
230
1.0
  0
LINE
  5
32D
100
AcDbEntity
  8
0
370
    35
390
0
 62
     7
 48
0.24375
100
AcDbLine
 10
-66.687714
 20
404.117737
 30
0.0
 11
-76.437714
 21
404.117737
 31
0.0
210
0.0
220
0.0
230
1.0
  0
LINE
  5
32E
100
AcDbEntity
  8
0
370
    35
390
0
 62
     7
 48
0.006649
100
AcDbLine
 10
-66.687714
 20
404.35199
 30
0.0
 11
-66.937714
 21
404.261292
 31
0.0
210
0.0
220
0.0
230
1.0
  0
LINE
  5
32F
100
AcDbEntity
  8
0
370
    35
390
0
 62
     7
 48
0.006908
100
AcDbLine
 10
-66.687714
 20
403.882263
 30
0.0
 11
-66.937714
 21
404.0
 31
0.0
210
0.0
220
0.0
230
1.0
  0
LINE
  5
330
100
AcDbEntity
  8
0
370
    35
390
0
 62
     7
 48
0.23125
100
AcDbLine
 10
-66.937714
 20
404.0
 30
0.0
 11
-76.187714
 21
404.0
 31
0.0
210
0.0
220
0.0
230
1.0
  0
LINE
  5
331
100
AcDbEntity
  8
0
370
    35
390
0
 62
     7
 48
0.24375
100
AcDbLine
 10
-66.687714
 20
403.882263
 30
0.0
 11
-76.437714
 21
403.882263
 31
0.0
210
0.0
220
0.0
230
1.0
  0
LINE
  5
332
100
AcDbEntity
  8
0
370
    35
390
0
 62
     7
 48
0.006908
100
AcDbLine
 10
-66.687714
 20
404.117737
 30
0.0
 11
-66.937714
 21
404.0
 31
0.0
210
0.0
220
0.0
230
1.0
  0
LINE
  5
333
100
AcDbEntity
  8
0
370
    35
390
0
 62
     7
 48
0.006648
100
AcDbLine
 10
-66.687714
 20
403.648071
 30
0.0
 11
-66.937714
 21
403.738708
 31
0.0
210
0.0
220
0.0
230
1.0
  0
LINE
  5
334
100
AcDbEntity
  8
0
370
    35
390
0
 62
     7
 48
0.23125
100
AcDbLine
 10
-66.937714
 20
403.738708
 30
0.0
 11
-76.187714
 21
403.738708
 31
0.0
210
0.0
220
0.0
230
1.0
  0
LINE
  5
335
100
AcDbEntity
  8
0
370
    35
390
0
 62
     7
 48
0.24375
100
AcDbLine
 10
-66.687714
 20
403.648071
 30
0.0
 11
-76.437714
 21
403.648071
 31
0.0
210
0.0
220
0.0
230
1.0
  0
LINE
  5
336
100
AcDbEntity
  8
0
370
    35
390
0
 62
     7
 48
0.007207
100
AcDbLine
 10
-66.687714
 20
403.882263
 30
0.0
 11
-66.937714
 21
403.738708
 31
0.0
210
0.0
220
0.0
230
1.0
  0
LINE
  5
337
100
AcDbEntity
  8
0
370
    35
390
0
 62
     7
 48
0.006443
100
AcDbLine
 10
-66.687714
 20
403.417664
 30
0.0
 11
-66.937714
 21
403.480225
 31
0.0
210
0.0
220
0.0
230
1.0
  0
LINE
  5
338
100
AcDbEntity
  8
0
370
    35
390
0
 62
     7
 48
0.23125
100
AcDbLine
 10
-66.937714
 20
403.480225
 30
0.0
 11
-76.187714
 21
403.480225
 31
0.0
210
0.0
220
0.0
230
1.0
  0
LINE
  5
339
100
AcDbEntity
  8
0
370
    35
390
0
 62
     7
 48
0.24375
100
AcDbLine
 10
-66.687714
 20
403.417664
 30
0.0
 11
-76.437714
 21
403.417664
 31
0.0
210
0.0
220
0.0
230
1.0
  0
LINE
  5
33A
100
AcDbEntity
  8
0
370
    35
390
0
 62
     7
 48
0.007528
100
AcDbLine
 10
-66.687714
 20
403.648071
 30
0.0
 11
-66.937714
 21
403.480225
 31
0.0
210
0.0
220
0.0
230
1.0
  0
LINE
  5
33B
100
AcDbEntity
  8
0
370
    35
390
0
 62
     7
 48
0.006307
100
AcDbLine
 10
-66.687714
 20
403.193665
 30
0.0
 11
-66.937714
 21
403.227478
 31
0.0
210
0.0
220
0.0
230
1.0
  0
LINE
  5
33C
100
AcDbEntity
  8
0
370
    35
390
0
 62
     7
 48
0.23125
100
AcDbLine
 10
-66.937714
 20
403.227478
 30
0.0
 11
-76.187714
 21
403.227478
 31
0.0
210
0.0
220
0.0
230
1.0
  0
LINE
  5
33D
100
AcDbEntity
  8
0
370
    35
390
0
 62
     7
 48
0.24375
100
AcDbLine
 10
-66.687714
 20
403.193665
 30
0.0
 11
-76.437714
 21
403.193665
 31
0.0
210
0.0
220
0.0
230
1.0
  0
LINE
  5
33E
100
AcDbEntity
  8
0
370
    35
390
0
 62
     7
 48
0.007853
100
AcDbLine
 10
-66.687714
 20
403.417664
 30
0.0
 11
-66.937714
 21
403.227478
 31
0.0
210
0.0
220
0.0
230
1.0
  0
LINE
  5
33F
100
AcDbEntity
  8
0
370
    35
390
0
 62
     7
 48
0.006251
100
AcDbLine
 10
-66.687714
 20
402.978516
 30
0.0
 11
-66.937714
 21
402.983154
 31
0.0
210
0.0
220
0.0
230
1.0
  0
LINE
  5
340
100
AcDbEntity
  8
0
370
    35
390
0
 62
     7
 48
0.23125
100
AcDbLine
 10
-66.937714
 20
402.983154
 30
0.0
 11
-76.187714
 21
402.983154
 31
0.0
210
0.0
220
0.0
230
1.0
  0
LINE
  5
341
100
AcDbEntity
  8
0
370
    35
390
0
 62
     7
 48
0.24375
100
AcDbLine
 10
-66.687714
 20
402.978516
 30
0.0
 11
-76.437714
 21
402.978516
 31
0.0
210
0.0
220
0.0
230
1.0
  0
LINE
  5
342
100
AcDbEntity
  8
0
370
    35
390
0
 62
     7
 48
0.008171
100
AcDbLine
 10
-66.687714
 20
403.193665
 30
0.0
 11
-66.937714
 21
402.983154
 31
0.0
210
0.0
220
0.0
230
1.0
  0
LINE
  5
343
100
AcDbEntity
  8
0
370
    35
390
0
 62
     7
 48
0.00628
100
AcDbLine
 10
-66.687714
 20
402.774597
 30
0.0
 11
-66.937714
 21
402.75
 31
0.0
210
0.0
220
0.0
230
1.0
  0
LINE
  5
344
100
AcDbEntity
  8
0
370
    35
390
0
 62
     7
 48
0.23125
100
AcDbLine
 10
-66.937714
 20
402.75
 30
0.0
 11
-76.187714
 21
402.75
 31
0.0
210
0.0
220
0.0
230
1.0
  0
LINE
  5
345
100
AcDbEntity
  8
0
370
    35
390
0
 62
     7
 48
0.008468
100
AcDbLine
 10
-66.687714
 20
402.978516
 30
0.0
 11
-66.937714
 21
402.75
 31
0.0
210
0.0
220
0.0
230
1.0
  0
LINE
  5
346
100
AcDbEntity
  8
0
370
    35
390
0
 62
     7
 48
0.006392
100
AcDbLine
 10
-76.437714
 20
402.584045
 30
0.0
 11
-76.187714
 21
402.530518
 31
0.0
210
0.0
220
0.0
230
1.0
  0
LINE
  5
347
100
AcDbEntity
  8
0
370
    35
390
0
 62
     7
 48
0.008735
100
AcDbLine
 10
-76.437714
 20
402.774597
 30
0.0
 11
-76.187714
 21
402.530518
 31
0.0
210
0.0
220
0.0
230
1.0
  0
LINE
  5
348
100
AcDbEntity
  8
0
370
    35
390
0
 62
     7
 48
0.006576
100
AcDbLine
 10
-76.437714
 20
402.408997
 30
0.0
 11
-76.187714
 21
402.327209
 31
0.0
210
0.0
220
0.0
230
1.0
  0
LINE
  5
349
100
AcDbEntity
  8
0
370
    35
390
0
 62
     7
 48
0.00896
100
AcDbLine
 10
-76.437714
 20
402.584045
 30
0.0
 11
-76.187714
 21
402.327209
 31
0.0
210
0.0
220
0.0
230
1.0
  0
LINE
  5
34A
100
AcDbEntity
  8
0
370
    35
390
0
 62
     7
 48
0.006821
100
AcDbLine
 10
-76.437714
 20
402.251404
 30
0.0
 11
-76.187714
 21
402.142151
 31
0.0
210
0.0
220
0.0
230
1.0
  0
LINE
  5
34B
100
AcDbEntity
  8
0
370
    35
390
0
 62
     7
 48
0.009141
100
AcDbLine
 10
-76.437714
 20
402.408997
 30
0.0
 11
-76.187714
 21
402.142151
 31
0.0
210
0.0
220
0.0
230
1.0
  0
LINE
  5
34C
100
AcDbEntity
  8
0
370
    35
390
0
 62
     7
 48
0.00711
100
AcDbLine
 10
-76.437714
 20
402.113037
 30
0.0
 11
-76.187714
 21
401.977478
 31
0.0
210
0.0
220
0.0
230
1.0
  0
LINE
  5
34D
100
AcDbEntity
  8
0
370
    35
390
0
 62
     7
 48
0.009271
100
AcDbLine
 10
-76.437714
 20
402.251404
 30
0.0
 11
-76.187714
 21
401.977478
 31
0.0
210
0.0
220
0.0
230
1.0
  0
LINE
  5
34E
100
AcDbEntity
  8
0
370
    35
390
0
 62
     7
 48
0.007424
100
AcDbLine
 10
-76.437714
 20
401.995239
 30
0.0
 11
-76.187714
 21
401.834961
 31
0.0
210
0.0
220
0.0
230
1.0
  0
LINE
  5
34F
100
AcDbEntity
  8
0
370
    35
390
0
 62
     7
 48
0.009348
100
AcDbLine
 10
-76.437714
 20
402.113037
 30
0.0
 11
-76.187714
 21
401.834961
 31
0.0
210
0.0
220
0.0
230
1.0
  0
LINE
  5
350
100
AcDbEntity
  8
0
370
    35
390
0
 62
     7
 48
0.007751
100
AcDbLine
 10
-76.437714
 20
401.899475
 30
0.0
 11
-76.187714
 21
401.716125
 31
0.0
210
0.0
220
0.0
230
1.0
  0
LINE
  5
351
100
AcDbEntity
  8
0
370
    35
390
0
 62
     7
 48
0.009368
100
AcDbLine
 10
-76.437714
 20
401.995239
 30
0.0
 11
-76.187714
 21
401.716125
 31
0.0
210
0.0
220
0.0
230
1.0
  0
LINE
  5
352
100
AcDbEntity
  8
0
370
    35
390
0
 62
     7
 48
0.008071
100
AcDbLine
 10
-76.437714
 20
401.82666
 30
0.0
 11
-76.187714
 21
401.622375
 31
0.0
210
0.0
220
0.0
230
1.0
  0
LINE
  5
353
100
AcDbEntity
  8
0
370
    35
390
0
 62
     7
 48
0.00933
100
AcDbLine
 10
-76.437714
 20
401.899475
 30
0.0
 11
-76.187714
 21
401.622375
 31
0.0
210
0.0
220
0.0
230
1.0
  0
LINE
  5
354
100
AcDbEntity
  8
0
370
    35
390
0
 62
     7
 48
0.008377
100
AcDbLine
 10
-76.437714
 20
401.77771
 30
0.0
 11
-76.187714
 21
401.554626
 31
0.0
210
0.0
220
0.0
230
1.0
  0
LINE
  5
355
100
AcDbEntity
  8
0
370
    35
390
0
 62
     7
 48
0.009237
100
AcDbLine
 10
-76.437714
 20
401.82666
 30
0.0
 11
-76.187714
 21
401.554626
 31
0.0
210
0.0
220
0.0
230
1.0
  0
LINE
  5
356
100
AcDbEntity
  8
0
370
    35
390
0
 62
     7
 48
0.008653
100
AcDbLine
 10
-76.437714
 20
401.753052
 30
0.0
 11
-76.187714
 21
401.513672
 31
0.0
210
0.0
220
0.0
230
1.0
  0
LINE
  5
357
100
AcDbEntity
  8
0
370
    35
390
0
 62
     7
 48
0.00909
100
AcDbLine
 10
-76.437714
 20
401.77771
 30
0.0
 11
-76.187714
 21
401.513672
 31
0.0
210
0.0
220
0.0
230
1.0
  0
LINE
  5
358
100
AcDbEntity
  8
0
370
    35
390
0
 62
     7
 48
0.008893
100
AcDbLine
 10
-76.437714
 20
401.753052
 30
0.0
 11
-76.187714
 21
401.5
 31
0.0
210
0.0
220
0.0
230
1.0
  0
LINE
  5
359
100
AcDbEntity
  8
0
370
    35
390
0
 62
     7
 48
0.00612
100
AcDbLine
 10
-66.437714
 20
405.755188
 30
0.0
 11
-66.437714
 21
406.0
 31
0.0
210
0.0
220
0.0
230
1.0
  0
LINE
  5
35A
100
AcDbEntity
  8
0
370
    35
390
0
 62
     7
 48
0.008735
100
AcDbLine
 10
-66.687714
 20
402.774597
 30
0.0
 11
-66.937714
 21
402.530518
 31
0.0
210
0.0
220
0.0
230
1.0
  0
LINE
  5
35B
100
AcDbEntity
  8
0
370
    35
390
0
 62
     7
 48
0.006392
100
AcDbLine
 10
-66.687714
 20
402.584045
 30
0.0
 11
-66.937714
 21
402.530518
 31
0.0
210
0.0
220
0.0
230
1.0
  0
LINE
  5
35C
100
AcDbEntity
  8
0
370
    35
390
0
 62
     7
 48
0.00896
100
AcDbLine
 10
-66.687714
 20
402.584045
 30
0.0
 11
-66.937714
 21
402.327209
 31
0.0
210
0.0
220
0.0
230
1.0
  0
LINE
  5
35D
100
AcDbEntity
  8
0
370
    35
390
0
 62
     7
 48
0.006576
100
AcDbLine
 10
-66.687714
 20
402.408997
 30
0.0
 11
-66.937714
 21
402.327209
 31
0.0
210
0.0
220
0.0
230
1.0
  0
LINE
  5
35E
100
AcDbEntity
  8
0
370
    35
390
0
 62
     7
 48
0.009141
100
AcDbLine
 10
-66.687714
 20
402.408997
 30
0.0
 11
-66.937714
 21
402.142151
 31
0.0
210
0.0
220
0.0
230
1.0
  0
LINE
  5
35F
100
AcDbEntity
  8
0
370
    35
390
0
 62
     7
 48
0.006821
100
AcDbLine
 10
-66.687714
 20
402.251404
 30
0.0
 11
-66.937714
 21
402.142151
 31
0.0
210
0.0
220
0.0
230
1.0
  0
LINE
  5
360
100
AcDbEntity
  8
0
370
    35
390
0
 62
     7
 48
0.009271
100
AcDbLine
 10
-66.687714
 20
402.251404
 30
0.0
 11
-66.937714
 21
401.977478
 31
0.0
210
0.0
220
0.0
230
1.0
  0
LINE
  5
361
100
AcDbEntity
  8
0
370
    35
390
0
 62
     7
 48
0.00711
100
AcDbLine
 10
-66.687714
 20
402.113037
 30
0.0
 11
-66.937714
 21
401.977478
 31
0.0
210
0.0
220
0.0
230
1.0
  0
LINE
  5
362
100
AcDbEntity
  8
0
370
    35
390
0
 62
     7
 48
0.009348
100
AcDbLine
 10
-66.687714
 20
402.113037
 30
0.0
 11
-66.937714
 21
401.834961
 31
0.0
210
0.0
220
0.0
230
1.0
  0
LINE
  5
363
100
AcDbEntity
  8
0
370
    35
390
0
 62
     7
 48
0.007424
100
AcDbLine
 10
-66.687714
 20
401.995239
 30
0.0
 11
-66.937714
 21
401.834961
 31
0.0
210
0.0
220
0.0
230
1.0
  0
LINE
  5
364
100
AcDbEntity
  8
0
370
    35
390
0
 62
     7
 48
0.009368
100
AcDbLine
 10
-66.687714
 20
401.995239
 30
0.0
 11
-66.937714
 21
401.716125
 31
0.0
210
0.0
220
0.0
230
1.0
  0
LINE
  5
365
100
AcDbEntity
  8
0
370
    35
390
0
 62
     7
 48
0.007751
100
AcDbLine
 10
-66.687714
 20
401.899475
 30
0.0
 11
-66.937714
 21
401.716125
 31
0.0
210
0.0
220
0.0
230
1.0
  0
LINE
  5
366
100
AcDbEntity
  8
0
370
    35
390
0
 62
     7
 48
0.00933
100
AcDbLine
 10
-66.687714
 20
401.899475
 30
0.0
 11
-66.937714
 21
401.622375
 31
0.0
210
0.0
220
0.0
230
1.0
  0
LINE
  5
367
100
AcDbEntity
  8
0
370
    35
390
0
 62
     7
 48
0.008071
100
AcDbLine
 10
-66.687714
 20
401.82666
 30
0.0
 11
-66.937714
 21
401.622375
 31
0.0
210
0.0
220
0.0
230
1.0
  0
LINE
  5
368
100
AcDbEntity
  8
0
370
    35
390
0
 62
     7
 48
0.009237
100
AcDbLine
 10
-66.687714
 20
401.82666
 30
0.0
 11
-66.937714
 21
401.554626
 31
0.0
210
0.0
220
0.0
230
1.0
  0
LINE
  5
369
100
AcDbEntity
  8
0
370
    35
390
0
 62
     7
 48
0.008377
100
AcDbLine
 10
-66.687714
 20
401.77771
 30
0.0
 11
-66.937714
 21
401.554626
 31
0.0
210
0.0
220
0.0
230
1.0
  0
LINE
  5
36A
100
AcDbEntity
  8
0
370
    35
390
0
 62
     7
 48
0.00909
100
AcDbLine
 10
-66.687714
 20
401.77771
 30
0.0
 11
-66.937714
 21
401.513672
 31
0.0
210
0.0
220
0.0
230
1.0
  0
LINE
  5
36B
100
AcDbEntity
  8
0
370
    35
390
0
 62
     7
 48
0.008653
100
AcDbLine
 10
-66.687714
 20
401.753052
 30
0.0
 11
-66.937714
 21
401.513672
 31
0.0
210
0.0
220
0.0
230
1.0
  0
LINE
  5
36C
100
AcDbEntity
  8
0
370
    35
390
0
 62
     7
 48
0.008893
100
AcDbLine
 10
-66.687714
 20
401.753052
 30
0.0
 11
-66.937714
 21
401.5
 31
0.0
210
0.0
220
0.0
230
1.0
  0
LINE
  5
36D
100
AcDbEntity
  8
0
370
    35
390
0
 62
     7
 48
0.09388
100
AcDbLine
 10
-66.437714
 20
402.0
 30
0.0
 11
-66.437714
 21
405.755188
 31
0.0
210
0.0
220
0.0
230
1.0
  0
LINE
  5
36E
100
AcDbEntity
  8
0
370
    35
390
0
 62
     7
 48
0.23125
100
AcDbLine
 10
-66.937714
 20
402.530518
 30
0.0
 11
-76.187714
 21
402.530518
 31
0.0
210
0.0
220
0.0
230
1.0
  0
LINE
  5
36F
100
AcDbEntity
  8
0
370
    35
390
0
 62
     7
 48
0.23125
100
AcDbLine
 10
-66.937714
 20
402.327209
 30
0.0
 11
-76.187714
 21
402.327209
 31
0.0
210
0.0
220
0.0
230
1.0
  0
LINE
  5
370
100
AcDbEntity
  8
0
370
    35
390
0
 62
     7
 48
0.23125
100
AcDbLine
 10
-66.937714
 20
402.142151
 30
0.0
 11
-76.187714
 21
402.142151
 31
0.0
210
0.0
220
0.0
230
1.0
  0
LINE
  5
371
100
AcDbEntity
  8
0
370
    35
390
0
 62
     7
 48
0.23125
100
AcDbLine
 10
-66.937714
 20
401.977478
 30
0.0
 11
-76.187714
 21
401.977478
 31
0.0
210
0.0
220
0.0
230
1.0
  0
LINE
  5
372
100
AcDbEntity
  8
0
370
    35
390
0
 62
     7
 48
0.23125
100
AcDbLine
 10
-66.937714
 20
401.834961
 30
0.0
 11
-76.187714
 21
401.834961
 31
0.0
210
0.0
220
0.0
230
1.0
  0
LINE
  5
373
100
AcDbEntity
  8
0
370
    35
390
0
 62
     7
 48
0.23125
100
AcDbLine
 10
-66.937714
 20
401.716125
 30
0.0
 11
-76.187714
 21
401.716125
 31
0.0
210
0.0
220
0.0
230
1.0
  0
LINE
  5
374
100
AcDbEntity
  8
0
370
    35
390
0
 62
     7
 48
0.23125
100
AcDbLine
 10
-66.937714
 20
401.622375
 30
0.0
 11
-76.187714
 21
401.622375
 31
0.0
210
0.0
220
0.0
230
1.0
  0
LINE
  5
375
100
AcDbEntity
  8
0
370
    35
390
0
 62
     7
 48
0.23125
100
AcDbLine
 10
-66.937714
 20
401.554626
 30
0.0
 11
-76.187714
 21
401.554626
 31
0.0
210
0.0
220
0.0
230
1.0
  0
LINE
  5
376
100
AcDbEntity
  8
0
370
    35
390
0
 62
     7
 48
0.23125
100
AcDbLine
 10
-66.937714
 20
401.513672
 30
0.0
 11
-76.187714
 21
401.513672
 31
0.0
210
0.0
220
0.0
230
1.0
  0
LINE
  5
377
100
AcDbEntity
  8
0
370
    35
390
0
 62
     7
 48
0.23125
100
AcDbLine
 10
-66.937714
 20
401.5
 30
0.0
 11
-76.187714
 21
401.5
 31
0.0
210
0.0
220
0.0
230
1.0
  0
LINE
  5
378
100
AcDbEntity
  8
0
370
    35
390
0
 62
     7
 48
0.061392
100
AcDbLine
 10
-203.437714
 20
401.75
 30
0.0
 11
-205.893387
 21
401.75
 31
0.0
210
0.0
220
0.0
230
1.0
  0
LINE
  5
379
100
AcDbEntity
  8
0
370
    35
390
0
 62
     7
 48
0.012527
100
AcDbLine
 10
-205.392303
 20
406.25
 30
0.0
 11
-205.893387
 21
406.25
 31
0.0
210
0.0
220
0.0
230
1.0
  0
LINE
  5
37A
100
AcDbEntity
  8
0
370
    35
390
0
 62
     7
 48
0.007217
100
AcDbLine
 10
-206.037704
 20
402.0
 30
0.0
 11
-205.893387
 21
401.75
 31
0.0
210
0.0
220
0.0
230
1.0
  0
LINE
  5
37B
100
AcDbEntity
  8
0
370
    35
390
0
 62
     7
 48
0.007217
100
AcDbLine
 10
-206.037704
 20
406.0
 30
0.0
 11
-205.893387
 21
406.25
 31
0.0
210
0.0
220
0.0
230
1.0
  0
LINE
  5
37C
100
AcDbEntity
  8
0
370
    35
390
0
 62
     7
100
AcDbLine
 10
-102.437714
 20
385.150024
 30
0.0
 11
-76.437714
 21
385.150024
 31
0.0
210
0.0
220
0.0
230
1.0
  0
LINE
  5
37D
100
AcDbEntity
  8
0
370
    35
390
0
 62
     7
100
AcDbLine
 10
-102.437714
 20
389.650024
 30
0.0
 11
-76.437714
 21
389.650024
 31
0.0
210
0.0
220
0.0
230
1.0
  0
LINE
  5
37E
100
AcDbEntity
  8
0
370
    35
390
0
 62
     7
 48
0.008839
100
AcDbLine
 10
-76.437714
 20
385.150024
 30
0.0
 11
-76.187714
 21
384.900024
 31
0.0
210
0.0
220
0.0
230
1.0
  0
LINE
  5
37F
100
AcDbEntity
  8
0
370
    35
390
0
 62
     7
 48
0.008839
100
AcDbLine
 10
-76.437714
 20
389.650024
 30
0.0
 11
-76.187714
 21
389.900024
 31
0.0
210
0.0
220
0.0
230
1.0
  0
LINE
  5
380
100
AcDbEntity
  8
0
370
    35
390
0
 62
     7
 48
0.044194
100
AcDbLine
 10
-80.437714
 20
400.950012
 30
0.0
 11
-81.687714
 21
402.200012
 31
0.0
210
0.0
220
0.0
230
1.0
  0
LINE
  5
381
100
AcDbEntity
  8
0
370
    35
390
0
 62
     7
 48
0.028284
100
AcDbLine
 10
-80.437714
 20
390.450012
 30
0.0
 11
-81.237717
 21
389.650024
 31
0.0
210
0.0
220
0.0
230
1.0
  0
LINE
  5
382
100
AcDbEntity
  8
0
370
    35
390
0
 62
     7
 48
0.017673
100
AcDbLine
 10
-66.437714
 20
385.400024
 30
0.0
 11
-66.937546
 21
384.900146
 31
0.0
210
0.0
220
0.0
230
1.0
  0
LINE
  5
383
100
AcDbEntity
  8
0
370
    35
390
0
 62
     7
 48
0.017671
100
AcDbLine
 10
-66.437714
 20
389.400024
 30
0.0
 11
-66.937546
 21
389.899841
 31
0.0
210
0.0
220
0.0
230
1.0
  0
LINE
  5
384
100
AcDbEntity
  8
0
370
    35
390
0
 62
     7
 48
0.01
100
AcDbLine
 10
-80.437714
 20
390.700012
 30
0.0
 11
-80.03772
 21
390.700012
 31
0.0
210
0.0
220
0.0
230
1.0
  0
LINE
  5
385
100
AcDbEntity
  8
0
370
    35
390
0
 62
     7
 48
0.01
100
AcDbLine
 10
-80.437714
 20
400.700012
 30
0.0
 11
-80.03772
 21
400.700012
 31
0.0
210
0.0
220
0.0
230
1.0
  0
LINE
  5
386
100
AcDbEntity
  8
0
370
    35
390
0
 62
     7
 48
0.023094
100
AcDbLine
 10
-79.237717
 20
391.161926
 30
0.0
 11
-80.03772
 21
390.700012
 31
0.0
210
0.0
220
0.0
230
1.0
  0
LINE
  5
387
100
AcDbEntity
  8
0
370
    35
390
0
 62
     7
 48
0.023094
100
AcDbLine
 10
-79.237717
 20
400.238159
 30
0.0
 11
-80.03772
 21
400.700012
 31
0.0
210
0.0
220
0.0
230
1.0
  0
LINE
  5
388
100
AcDbEntity
  8
0
370
    35
390
0
 62
     7
100
AcDbLine
 10
-79.237717
 20
391.700012
 30
0.0
 11
-21.237717
 21
391.700012
 31
0.0
210
0.0
220
0.0
230
1.0
  0
LINE
  5
389
100
AcDbEntity
  8
0
370
    35
390
0
 62
     7
100
AcDbLine
 10
-79.237717
 20
399.700012
 30
0.0
 11
-21.237717
 21
399.700012
 31
0.0
210
0.0
220
0.0
230
1.0
  0
LINE
  5
38A
100
AcDbEntity
  8
0
370
    35
390
0
 62
     7
100
AcDbLine
 10
-96.687744
 20
406.25
 30
0.0
 11
-76.437714
 21
406.25
 31
0.0
210
0.0
220
0.0
230
1.0
  0
LINE
  5
38B
100
AcDbEntity
  8
0
370
    35
390
0
 62
     7
 48
0.008839
100
AcDbLine
 10
-76.437714
 20
406.25
 30
0.0
 11
-76.187714
 21
406.5
 31
0.0
210
0.0
220
0.0
230
1.0
  0
LINE
  5
38C
100
AcDbEntity
  8
0
370
    35
390
0
 62
     7
 48
0.12
100
AcDbLine
 10
-81.237717
 20
401.75
 30
0.0
 11
-76.437714
 21
401.75
 31
0.0
210
0.0
220
0.0
230
1.0
  0
LINE
  5
38D
100
AcDbEntity
  8
0
370
    35
390
0
 62
     7
 48
0.008839
100
AcDbLine
 10
-76.437714
 20
401.75
 30
0.0
 11
-76.187714
 21
401.5
 31
0.0
210
0.0
220
0.0
230
1.0
  0
LINE
  5
38E
100
AcDbEntity
  8
0
370
    35
390
0
 62
     7
 48
0.017671
100
AcDbLine
 10
-66.437714
 20
406.0
 30
0.0
 11
-66.937546
 21
406.499817
 31
0.0
210
0.0
220
0.0
230
1.0
  0
LINE
  5
38F
100
AcDbEntity
  8
0
370
    35
390
0
 62
     7
 48
0.017671
100
AcDbLine
 10
-66.437714
 20
402.0
 30
0.0
 11
-66.937546
 21
401.500183
 31
0.0
210
0.0
220
0.0
230
1.0
  0
LINE
  5
390
100
AcDbEntity
  8
0
370
    35
390
0
 62
     7
 48
0.325
100
AcDbLine
 10
1461.5625
 20
437.900024
 30
0.0
 11
1461.5625
 21
424.900024
 31
0.0
210
0.0
220
0.0
230
1.0
  0
LINE
  5
391
100
AcDbEntity
  8
0
370
    35
390
0
 62
     7
 48
0.325
100
AcDbLine
 10
-211.437714
 20
437.900024
 30
0.0
 11
-211.437714
 21
424.900024
 31
0.0
210
0.0
220
0.0
230
1.0
  0
LINE
  5
392
100
AcDbEntity
  8
0
370
    35
390
0
 62
     7
100
AcDbLine
 10
-211.437714
 20
437.900024
 30
0.0
 11
1461.5625
 21
437.900024
 31
0.0
210
0.0
220
0.0
230
1.0
  0
LINE
  5
393
100
AcDbEntity
  8
0
370
    35
390
0
 62
     7
 48
0.464999
100
AcDbLine
 10
-211.437714
 20
437.900024
 30
0.0
 11
-211.437714
 21
456.5
 31
0.0
210
0.0
220
0.0
230
1.0
  0
LINE
  5
394
100
AcDbEntity
  8
0
370
    35
390
0
 62
     7
 48
0.0625
100
AcDbLine
 10
-211.437714
 20
459.0
 30
0.0
 11
-211.437714
 21
456.5
 31
0.0
210
0.0
220
0.0
230
1.0
  0
LINE
  5
395
100
AcDbEntity
  8
0
370
    35
390
0
 62
     7
 48
0.0125
100
AcDbLine
 10
-211.437714
 20
459.5
 30
0.0
 11
-211.437714
 21
459.0
 31
0.0
210
0.0
220
0.0
230
1.0
  0
LINE
  5
396
100
AcDbEntity
  8
0
370
    35
390
0
 62
     7
 48
0.0125
100
AcDbLine
 10
-211.437714
 20
411.5
 30
0.0
 11
-211.437714
 21
411.0
 31
0.0
210
0.0
220
0.0
230
1.0
  0
LINE
  5
397
100
AcDbEntity
  8
0
370
    35
390
0
 62
     7
 48
0.125
100
AcDbLine
 10
-211.437714
 20
416.5
 30
0.0
 11
-211.437714
 21
411.5
 31
0.0
210
0.0
220
0.0
230
1.0
  0
LINE
  5
398
100
AcDbEntity
  8
0
370
    35
390
0
 62
     7
 48
0.0125
100
AcDbLine
 10
-211.437714
 20
417.0
 30
0.0
 11
-211.437714
 21
416.5
 31
0.0
210
0.0
220
0.0
230
1.0
  0
LINE
  5
399
100
AcDbEntity
  8
0
370
    35
390
0
 62
     7
 48
0.0125
100
AcDbLine
 10
-211.437714
 20
417.5
 30
0.0
 11
-211.437714
 21
417.0
 31
0.0
210
0.0
220
0.0
230
1.0
  0
LINE
  5
39A
100
AcDbEntity
  8
0
370
    35
390
0
 62
     7
 48
0.08
100
AcDbLine
 10
-211.437714
 20
420.700012
 30
0.0
 11
-211.437714
 21
417.5
 31
0.0
210
0.0
220
0.0
230
1.0
  0
LINE
  5
39B
100
AcDbEntity
  8
0
370
    35
390
0
 62
     7
 48
0.105
100
AcDbLine
 10
-211.437714
 20
420.700012
 30
0.0
 11
-211.437714
 21
424.900024
 31
0.0
210
0.0
220
0.0
230
1.0
  0
LINE
  5
39C
100
AcDbEntity
  8
0
370
    35
390
0
 62
     7
100
AcDbLine
 10
-211.437714
 20
424.900024
 30
0.0
 11
1461.5625
 21
424.900024
 31
0.0
210
0.0
220
0.0
230
1.0
  0
LINE
  5
39D
100
AcDbEntity
  8
0
370
    35
390
0
 62
     7
 48
0.105
100
AcDbLine
 10
1461.5625
 20
420.700012
 30
0.0
 11
1461.5625
 21
424.900024
 31
0.0
210
0.0
220
0.0
230
1.0
  0
LINE
  5
39E
100
AcDbEntity
  8
0
370
    35
390
0
 62
     7
 48
0.08
100
AcDbLine
 10
1461.5625
 20
417.5
 30
0.0
 11
1461.5625
 21
420.700012
 31
0.0
210
0.0
220
0.0
230
1.0
  0
LINE
  5
39F
100
AcDbEntity
  8
0
370
    35
390
0
 62
     7
 48
0.0125
100
AcDbLine
 10
1461.5625
 20
417.5
 30
0.0
 11
1461.5625
 21
417.0
 31
0.0
210
0.0
220
0.0
230
1.0
  0
LINE
  5
3A0
100
AcDbEntity
  8
0
370
    35
390
0
 62
     7
 48
0.0125
100
AcDbLine
 10
1461.5625
 20
417.0
 30
0.0
 11
1461.5625
 21
416.5
 31
0.0
210
0.0
220
0.0
230
1.0
  0
LINE
  5
3A1
100
AcDbEntity
  8
0
370
    35
390
0
 62
     7
 48
0.125
100
AcDbLine
 10
1461.5625
 20
416.5
 30
0.0
 11
1461.5625
 21
411.5
 31
0.0
210
0.0
220
0.0
230
1.0
  0
LINE
  5
3A2
100
AcDbEntity
  8
0
370
    35
390
0
 62
     7
 48
0.0125
100
AcDbLine
 10
1461.5625
 20
411.5
 30
0.0
 11
1461.5625
 21
411.0
 31
0.0
210
0.0
220
0.0
230
1.0
  0
LINE
  5
3A3
100
AcDbEntity
  8
0
370
    35
390
0
 62
     7
 48
0.0125
100
AcDbLine
 10
1461.5625
 20
459.5
 30
0.0
 11
1461.5625
 21
459.0
 31
0.0
210
0.0
220
0.0
230
1.0
  0
LINE
  5
3A4
100
AcDbEntity
  8
0
370
    35
390
0
 62
     7
 48
0.0625
100
AcDbLine
 10
1461.5625
 20
456.5
 30
0.0
 11
1461.5625
 21
459.0
 31
0.0
210
0.0
220
0.0
230
1.0
  0
LINE
  5
3A5
100
AcDbEntity
  8
0
370
    35
390
0
 62
     7
 48
0.464999
100
AcDbLine
 10
1461.5625
 20
437.900024
 30
0.0
 11
1461.5625
 21
456.5
 31
0.0
210
0.0
220
0.0
230
1.0
  0
CIRCLE
  5
3A6
100
AcDbEntity
  8
0
370
    35
390
0
 62
     7
100
AcDbCircle
 10
1425.0625
 20
447.0
 30
0.0
 40
6.0
210
0.0
220
0.0
230
1.0
  0
CIRCLE
  5
3A7
100
AcDbEntity
  8
0
370
    35
390
0
 62
     7
100
AcDbCircle
 10
1325.0625
 20
447.0
 30
0.0
 40
6.0
210
0.0
220
0.0
230
1.0
  0
CIRCLE
  5
3A8
100
AcDbEntity
  8
0
370
    35
390
0
 62
     7
100
AcDbCircle
 10
1225.0625
 20
447.0
 30
0.0
 40
6.0
210
0.0
220
0.0
230
1.0
  0
CIRCLE
  5
3A9
100
AcDbEntity
  8
0
370
    35
390
0
 62
     7
100
AcDbCircle
 10
1125.0625
 20
447.0
 30
0.0
 40
6.0
210
0.0
220
0.0
230
1.0
  0
CIRCLE
  5
3AA
100
AcDbEntity
  8
0
370
    35
390
0
 62
     7
100
AcDbCircle
 10
1025.0625
 20
447.0
 30
0.0
 40
6.0
210
0.0
220
0.0
230
1.0
  0
CIRCLE
  5
3AB
100
AcDbEntity
  8
0
370
    35
390
0
 62
     7
100
AcDbCircle
 10
925.062439
 20
447.0
 30
0.0
 40
6.0
210
0.0
220
0.0
230
1.0
  0
CIRCLE
  5
3AC
100
AcDbEntity
  8
0
370
    35
390
0
 62
     7
100
AcDbCircle
 10
825.062378
 20
447.0
 30
0.0
 40
6.0
210
0.0
220
0.0
230
1.0
  0
CIRCLE
  5
3AD
100
AcDbEntity
  8
0
370
    35
390
0
 62
     7
100
AcDbCircle
 10
725.062256
 20
447.0
 30
0.0
 40
6.0
210
0.0
220
0.0
230
1.0
  0
CIRCLE
  5
3AE
100
AcDbEntity
  8
0
370
    35
390
0
 62
     7
100
AcDbCircle
 10
625.062256
 20
447.0
 30
0.0
 40
6.0
210
0.0
220
0.0
230
1.0
  0
CIRCLE
  5
3AF
100
AcDbEntity
  8
0
370
    35
390
0
 62
     7
100
AcDbCircle
 10
525.062256
 20
447.0
 30
0.0
 40
6.0
210
0.0
220
0.0
230
1.0
  0
CIRCLE
  5
3B0
100
AcDbEntity
  8
0
370
    35
390
0
 62
     7
100
AcDbCircle
 10
425.062256
 20
447.0
 30
0.0
 40
6.0
210
0.0
220
0.0
230
1.0
  0
CIRCLE
  5
3B1
100
AcDbEntity
  8
0
370
    35
390
0
 62
     7
100
AcDbCircle
 10
325.062256
 20
447.0
 30
0.0
 40
6.0
210
0.0
220
0.0
230
1.0
  0
CIRCLE
  5
3B2
100
AcDbEntity
  8
0
370
    35
390
0
 62
     7
100
AcDbCircle
 10
225.062317
 20
447.0
 30
0.0
 40
6.0
210
0.0
220
0.0
230
1.0
  0
CIRCLE
  5
3B3
100
AcDbEntity
  8
0
370
    35
390
0
 62
     7
100
AcDbCircle
 10
125.062302
 20
447.0
 30
0.0
 40
6.0
210
0.0
220
0.0
230
1.0
  0
CIRCLE
  5
3B4
100
AcDbEntity
  8
0
370
    35
390
0
 62
     7
100
AcDbCircle
 10
25.062302
 20
447.0
 30
0.0
 40
6.0
210
0.0
220
0.0
230
1.0
  0
CIRCLE
  5
3B5
100
AcDbEntity
  8
0
370
    35
390
0
 62
     7
100
AcDbCircle
 10
-74.937714
 20
447.0
 30
0.0
 40
6.0
210
0.0
220
0.0
230
1.0
  0
CIRCLE
  5
3B6
100
AcDbEntity
  8
0
370
    35
390
0
 62
     7
100
AcDbCircle
 10
-174.937714
 20
447.0
 30
0.0
 40
6.0
210
0.0
220
0.0
230
1.0
  0
LINE
  5
3B7
100
AcDbEntity
  8
0
370
    35
390
0
 62
     7
100
AcDbLine
 10
-211.437714
 20
456.5
 30
0.0
 11
1461.5625
 21
456.5
 31
0.0
210
0.0
220
0.0
230
1.0
  0
LINE
  5
3B8
100
AcDbEntity
  8
0
370
    35
390
0
 62
     7
100
AcDbLine
 10
-211.437714
 20
459.5
 30
0.0
 11
1461.5625
 21
459.5
 31
0.0
210
0.0
220
0.0
230
1.0
  0
LINE
  5
3B9
100
AcDbEntity
  8
0
370
    35
390
0
 62
     7
 48
0.0625
100
AcDbLine
 10
-211.437714
 20
459.0
 30
0.0
 11
-213.937714
 21
459.0
 31
0.0
210
0.0
220
0.0
230
1.0
  0
LINE
  5
3BA
100
AcDbEntity
  8
0
370
    35
390
0
 62
     7
 48
0.0125
100
AcDbLine
 10
-213.937714
 20
459.0
 30
0.0
 11
-213.937714
 21
458.5
 31
0.0
210
0.0
220
0.0
230
1.0
  0
LINE
  5
3BB
100
AcDbEntity
  8
0
370
    35
390
0
 62
     7
100
AcDbLine
 10
-213.937714
 20
458.5
 30
0.0
 11
-213.937714
 21
418.0
 31
0.0
210
0.0
220
0.0
230
1.0
  0
LINE
  5
3BC
100
AcDbEntity
  8
0
370
    35
390
0
 62
     7
 48
0.0625
100
AcDbLine
 10
-211.437714
 20
417.5
 30
0.0
 11
-213.937714
 21
417.5
 31
0.0
210
0.0
220
0.0
230
1.0
  0
LINE
  5
3BD
100
AcDbEntity
  8
0
370
    35
390
0
 62
     7
 48
0.0125
100
AcDbLine
 10
-213.937714
 20
418.0
 30
0.0
 11
-213.937714
 21
417.5
 31
0.0
210
0.0
220
0.0
230
1.0
  0
LINE
  5
3BE
100
AcDbEntity
  8
0
370
    35
390
0
 62
     7
 48
0.025
100
AcDbLine
 10
-213.937714
 20
417.5
 30
0.0
 11
-213.937714
 21
416.5
 31
0.0
210
0.0
220
0.0
230
1.0
  0
LINE
  5
3BF
100
AcDbEntity
  8
0
370
    35
390
0
 62
     7
 48
0.1125
100
AcDbLine
 10
-213.937714
 20
416.5
 30
0.0
 11
-213.937714
 21
412.0
 31
0.0
210
0.0
220
0.0
230
1.0
  0
LINE
  5
3C0
100
AcDbEntity
  8
0
370
    35
390
0
 62
     7
 48
0.0625
100
AcDbLine
 10
-211.437714
 20
411.5
 30
0.0
 11
-213.937714
 21
411.5
 31
0.0
210
0.0
220
0.0
230
1.0
  0
LINE
  5
3C1
100
AcDbEntity
  8
0
370
    35
390
0
 62
     7
 48
0.0125
100
AcDbLine
 10
-213.937714
 20
412.0
 30
0.0
 11
-213.937714
 21
411.5
 31
0.0
210
0.0
220
0.0
230
1.0
  0
LINE
  5
3C2
100
AcDbEntity
  8
0
370
    35
390
0
 62
     7
100
AcDbLine
 10
-211.437714
 20
411.0
 30
0.0
 11
1461.5625
 21
411.0
 31
0.0
210
0.0
220
0.0
230
1.0
  0
LINE
  5
3C3
100
AcDbEntity
  8
0
370
    35
390
0
 62
     7
100
AcDbLine
 10
-211.437714
 20
417.0
 30
0.0
 11
1461.5625
 21
417.0
 31
0.0
210
0.0
220
0.0
230
1.0
  0
LINE
  5
3C4
100
AcDbEntity
  8
0
370
    35
390
0
 62
     7
100
AcDbLine
 10
-211.437714
 20
420.700012
 30
0.0
 11
1461.5625
 21
420.700012
 31
0.0
210
0.0
220
0.0
230
1.0
  0
LINE
  5
3C5
100
AcDbEntity
  8
0
370
    35
390
0
 62
     7
 48
0.0625
100
AcDbLine
 10
1461.5625
 20
459.0
 30
0.0
 11
1464.0625
 21
459.0
 31
0.0
210
0.0
220
0.0
230
1.0
  0
LINE
  5
3C6
100
AcDbEntity
  8
0
370
    35
390
0
 62
     7
 48
0.0125
100
AcDbLine
 10
1464.0625
 20
459.0
 30
0.0
 11
1464.0625
 21
458.5
 31
0.0
210
0.0
220
0.0
230
1.0
  0
LINE
  5
3C7
100
AcDbEntity
  8
0
370
    35
390
0
 62
     7
100
AcDbLine
 10
1464.0625
 20
458.5
 30
0.0
 11
1464.0625
 21
418.0
 31
0.0
210
0.0
220
0.0
230
1.0
  0
LINE
  5
3C8
100
AcDbEntity
  8
0
370
    35
390
0
 62
     7
 48
0.0625
100
AcDbLine
 10
1461.5625
 20
417.5
 30
0.0
 11
1464.0625
 21
417.5
 31
0.0
210
0.0
220
0.0
230
1.0
  0
LINE
  5
3C9
100
AcDbEntity
  8
0
370
    35
390
0
 62
     7
 48
0.0125
100
AcDbLine
 10
1464.0625
 20
418.0
 30
0.0
 11
1464.0625
 21
417.5
 31
0.0
210
0.0
220
0.0
230
1.0
  0
LINE
  5
3CA
100
AcDbEntity
  8
0
370
    35
390
0
 62
     7
 48
0.025
100
AcDbLine
 10
1464.0625
 20
417.5
 30
0.0
 11
1464.0625
 21
416.5
 31
0.0
210
0.0
220
0.0
230
1.0
  0
LINE
  5
3CB
100
AcDbEntity
  8
0
370
    35
390
0
 62
     7
 48
0.1125
100
AcDbLine
 10
1464.0625
 20
416.5
 30
0.0
 11
1464.0625
 21
412.0
 31
0.0
210
0.0
220
0.0
230
1.0
  0
LINE
  5
3CC
100
AcDbEntity
  8
0
370
    35
390
0
 62
     7
 48
0.0625
100
AcDbLine
 10
1461.5625
 20
411.5
 30
0.0
 11
1464.0625
 21
411.5
 31
0.0
210
0.0
220
0.0
230
1.0
  0
LINE
  5
3CD
100
AcDbEntity
  8
0
370
    35
390
0
 62
     7
 48
0.0125
100
AcDbLine
 10
1464.0625
 20
412.0
 30
0.0
 11
1464.0625
 21
411.5
 31
0.0
210
0.0
220
0.0
230
1.0
  0
ARC
  5
3CE
100
AcDbEntity
  8
0
370
    35
390
0
 62
     7
100
AcDbCircle
 10
-153.937714
 20
412.0
 30
0.0
 40
0.5
210
0.0
220
0.0
230
1.0
100
AcDbArc
 50
269.999997
 51
360.0
  0
LINE
  5
3CF
100
AcDbEntity
  8
0
370
    35
390
0
 62
     7
 48
0.175
100
AcDbLine
 10
-153.937714
 20
411.5
 30
0.0
 11
-160.937714
 21
411.5
 31
0.0
210
0.0
220
0.0
230
1.0
  0
ARC
  5
3D0
100
AcDbEntity
  8
0
370
    35
390
0
 62
     7
100
AcDbCircle
 10
-160.937714
 20
412.0
 30
0.0
 40
0.5
210
0.0
220
0.0
230
1.0
100
AcDbArc
 50
179.999991
 51
269.999997
  0
LINE
  5
3D1
100
AcDbEntity
  8
0
370
    35
390
0
 62
     7
 48
0.1
100
AcDbLine
 10
-161.437714
 20
416.0
 30
0.0
 11
-161.437714
 21
412.0
 31
0.0
210
0.0
220
0.0
230
1.0
  0
ARC
  5
3D2
100
AcDbEntity
  8
0
370
    35
390
0
 62
     7
100
AcDbCircle
 10
-160.937714
 20
416.0
 30
0.0
 40
0.5
210
0.0
220
0.0
230
1.0
100
AcDbArc
 50
90.000003
 51
179.999991
  0
ARC
  5
3D3
100
AcDbEntity
  8
0
370
    35
390
0
 62
     7
100
AcDbCircle
 10
-153.937714
 20
416.0
 30
0.0
 40
0.5
210
0.0
220
0.0
230
1.0
100
AcDbArc
 50
0.0
 51
90.000003
  0
LINE
  5
3D4
100
AcDbEntity
  8
0
370
    35
390
0
 62
     7
 48
0.175
100
AcDbLine
 10
-160.937714
 20
416.5
 30
0.0
 11
-153.937714
 21
416.5
 31
0.0
210
0.0
220
0.0
230
1.0
  0
LINE
  5
3D5
100
AcDbEntity
  8
0
370
    35
390
0
 62
     7
 48
0.0075
100
AcDbLine
 10
1461.5625
 20
459.5
 30
0.0
 11
1461.5625
 21
459.200012
 31
0.0
210
0.0
220
0.0
230
1.0
  0
LINE
  5
3D6
100
AcDbEntity
  8
0
370
    35
390
0
 62
     7
 48
0.005
100
AcDbLine
 10
1461.5625
 20
459.200012
 30
0.0
 11
1461.5625
 21
459.0
 31
0.0
210
0.0
220
0.0
230
1.0
  0
CIRCLE
  5
3D7
100
AcDbEntity
  8
0
370
    35
390
0
 62
     7
100
AcDbCircle
 10
1425.0625
 20
447.0
 30
0.0
 40
5.5
210
0.0
220
0.0
230
1.0
  0
CIRCLE
  5
3D8
100
AcDbEntity
  8
0
370
    35
390
0
 62
     7
100
AcDbCircle
 10
1325.0625
 20
447.0
 30
0.0
 40
5.5
210
0.0
220
0.0
230
1.0
  0
CIRCLE
  5
3D9
100
AcDbEntity
  8
0
370
    35
390
0
 62
     7
100
AcDbCircle
 10
1225.0625
 20
447.0
 30
0.0
 40
5.5
210
0.0
220
0.0
230
1.0
  0
CIRCLE
  5
3DA
100
AcDbEntity
  8
0
370
    35
390
0
 62
     7
100
AcDbCircle
 10
1125.0625
 20
447.0
 30
0.0
 40
5.5
210
0.0
220
0.0
230
1.0
  0
CIRCLE
  5
3DB
100
AcDbEntity
  8
0
370
    35
390
0
 62
     7
100
AcDbCircle
 10
1025.0625
 20
447.0
 30
0.0
 40
5.5
210
0.0
220
0.0
230
1.0
  0
CIRCLE
  5
3DC
100
AcDbEntity
  8
0
370
    35
390
0
 62
     7
100
AcDbCircle
 10
925.062439
 20
447.0
 30
0.0
 40
5.5
210
0.0
220
0.0
230
1.0
  0
CIRCLE
  5
3DD
100
AcDbEntity
  8
0
370
    35
390
0
 62
     7
100
AcDbCircle
 10
825.062378
 20
447.0
 30
0.0
 40
5.5
210
0.0
220
0.0
230
1.0
  0
CIRCLE
  5
3DE
100
AcDbEntity
  8
0
370
    35
390
0
 62
     7
100
AcDbCircle
 10
725.062256
 20
447.0
 30
0.0
 40
5.5
210
0.0
220
0.0
230
1.0
  0
CIRCLE
  5
3DF
100
AcDbEntity
  8
0
370
    35
390
0
 62
     7
100
AcDbCircle
 10
625.062256
 20
447.0
 30
0.0
 40
5.5
210
0.0
220
0.0
230
1.0
  0
CIRCLE
  5
3E0
100
AcDbEntity
  8
0
370
    35
390
0
 62
     7
100
AcDbCircle
 10
525.062256
 20
447.0
 30
0.0
 40
5.5
210
0.0
220
0.0
230
1.0
  0
CIRCLE
  5
3E1
100
AcDbEntity
  8
0
370
    35
390
0
 62
     7
100
AcDbCircle
 10
425.062256
 20
447.0
 30
0.0
 40
5.5
210
0.0
220
0.0
230
1.0
  0
CIRCLE
  5
3E2
100
AcDbEntity
  8
0
370
    35
390
0
 62
     7
100
AcDbCircle
 10
325.062256
 20
447.0
 30
0.0
 40
5.5
210
0.0
220
0.0
230
1.0
  0
CIRCLE
  5
3E3
100
AcDbEntity
  8
0
370
    35
390
0
 62
     7
100
AcDbCircle
 10
225.062317
 20
447.0
 30
0.0
 40
5.5
210
0.0
220
0.0
230
1.0
  0
CIRCLE
  5
3E4
100
AcDbEntity
  8
0
370
    35
390
0
 62
     7
100
AcDbCircle
 10
125.062302
 20
447.0
 30
0.0
 40
5.5
210
0.0
220
0.0
230
1.0
  0
CIRCLE
  5
3E5
100
AcDbEntity
  8
0
370
    35
390
0
 62
     7
100
AcDbCircle
 10
25.062302
 20
447.0
 30
0.0
 40
5.5
210
0.0
220
0.0
230
1.0
  0
CIRCLE
  5
3E6
100
AcDbEntity
  8
0
370
    35
390
0
 62
     7
100
AcDbCircle
 10
-74.937714
 20
447.0
 30
0.0
 40
5.5
210
0.0
220
0.0
230
1.0
  0
CIRCLE
  5
3E7
100
AcDbEntity
  8
0
370
    35
390
0
 62
     7
100
AcDbCircle
 10
-174.937714
 20
447.0
 30
0.0
 40
5.5
210
0.0
220
0.0
230
1.0
  0
LINE
  5
3E8
100
AcDbEntity
  8
0
370
    35
390
0
 62
     7
 48
0.1
100
AcDbLine
 10
-153.437714
 20
412.0
 30
0.0
 11
-153.437714
 21
416.0
 31
0.0
210
0.0
220
0.0
230
1.0
  0
CIRCLE
  5
3E9
100
AcDbEntity
  8
0
370
    35
390
0
 62
     7
100
AcDbCircle
 10
1425.0625
 20
447.0
 30
0.0
 40
3.5
210
0.0
220
0.0
230
1.0
  0
CIRCLE
  5
3EA
100
AcDbEntity
  8
0
370
    35
390
0
 62
     7
100
AcDbCircle
 10
1325.0625
 20
447.0
 30
0.0
 40
3.5
210
0.0
220
0.0
230
1.0
  0
CIRCLE
  5
3EB
100
AcDbEntity
  8
0
370
    35
390
0
 62
     7
100
AcDbCircle
 10
1225.0625
 20
447.0
 30
0.0
 40
3.5
210
0.0
220
0.0
230
1.0
  0
CIRCLE
  5
3EC
100
AcDbEntity
  8
0
370
    35
390
0
 62
     7
100
AcDbCircle
 10
1125.0625
 20
447.0
 30
0.0
 40
3.5
210
0.0
220
0.0
230
1.0
  0
CIRCLE
  5
3ED
100
AcDbEntity
  8
0
370
    35
390
0
 62
     7
100
AcDbCircle
 10
1025.0625
 20
447.0
 30
0.0
 40
3.5
210
0.0
220
0.0
230
1.0
  0
CIRCLE
  5
3EE
100
AcDbEntity
  8
0
370
    35
390
0
 62
     7
100
AcDbCircle
 10
925.062439
 20
447.0
 30
0.0
 40
3.5
210
0.0
220
0.0
230
1.0
  0
CIRCLE
  5
3EF
100
AcDbEntity
  8
0
370
    35
390
0
 62
     7
100
AcDbCircle
 10
825.062378
 20
447.0
 30
0.0
 40
3.5
210
0.0
220
0.0
230
1.0
  0
CIRCLE
  5
3F0
100
AcDbEntity
  8
0
370
    35
390
0
 62
     7
100
AcDbCircle
 10
725.062256
 20
447.0
 30
0.0
 40
3.5
210
0.0
220
0.0
230
1.0
  0
CIRCLE
  5
3F1
100
AcDbEntity
  8
0
370
    35
390
0
 62
     7
100
AcDbCircle
 10
625.062256
 20
447.0
 30
0.0
 40
3.5
210
0.0
220
0.0
230
1.0
  0
CIRCLE
  5
3F2
100
AcDbEntity
  8
0
370
    35
390
0
 62
     7
100
AcDbCircle
 10
525.062256
 20
447.0
 30
0.0
 40
3.5
210
0.0
220
0.0
230
1.0
  0
CIRCLE
  5
3F3
100
AcDbEntity
  8
0
370
    35
390
0
 62
     7
100
AcDbCircle
 10
425.062256
 20
447.0
 30
0.0
 40
3.5
210
0.0
220
0.0
230
1.0
  0
CIRCLE
  5
3F4
100
AcDbEntity
  8
0
370
    35
390
0
 62
     7
100
AcDbCircle
 10
325.062256
 20
447.0
 30
0.0
 40
3.5
210
0.0
220
0.0
230
1.0
  0
CIRCLE
  5
3F5
100
AcDbEntity
  8
0
370
    35
390
0
 62
     7
100
AcDbCircle
 10
225.062317
 20
447.0
 30
0.0
 40
3.5
210
0.0
220
0.0
230
1.0
  0
CIRCLE
  5
3F6
100
AcDbEntity
  8
0
370
    35
390
0
 62
     7
100
AcDbCircle
 10
125.062302
 20
447.0
 30
0.0
 40
3.5
210
0.0
220
0.0
230
1.0
  0
CIRCLE
  5
3F7
100
AcDbEntity
  8
0
370
    35
390
0
 62
     7
100
AcDbCircle
 10
25.062302
 20
447.0
 30
0.0
 40
3.5
210
0.0
220
0.0
230
1.0
  0
CIRCLE
  5
3F8
100
AcDbEntity
  8
0
370
    35
390
0
 62
     7
100
AcDbCircle
 10
-74.937714
 20
447.0
 30
0.0
 40
3.5
210
0.0
220
0.0
230
1.0
  0
CIRCLE
  5
3F9
100
AcDbEntity
  8
0
370
    35
390
0
 62
     7
100
AcDbCircle
 10
-174.937714
 20
447.0
 30
0.0
 40
3.5
210
0.0
220
0.0
230
1.0
  0
ARC
  5
3FA
100
AcDbEntity
  8
0
370
    35
390
0
 62
     7
100
AcDbCircle
 10
-156.137711
 20
415.700012
 30
0.0
 40
0.2
210
0.0
220
0.0
230
1.0
100
AcDbArc
 50
339.623562
 51
90.000003
  0
LINE
  5
3FB
100
AcDbEntity
  8
0
370
    35
390
0
 62
     7
 48
0.093341
100
AcDbLine
 10
-155.950226
 20
415.630371
 30
0.0
 11
-157.250229
 21
412.130371
 31
0.0
210
0.0
220
0.0
230
1.0
  0
ARC
  5
3FC
100
AcDbEntity
  8
0
370
    35
390
0
 62
     7
100
AcDbCircle
 10
-157.437714
 20
412.200012
 30
0.0
 40
0.2
210
0.0
220
0.0
230
1.0
100
AcDbArc
 50
200.37643
 51
339.623562
  0
LINE
  5
3FD
100
AcDbEntity
  8
0
370
    35
390
0
 62
     7
 48
0.093341
100
AcDbLine
 10
-158.925186
 20
415.630371
 30
0.0
 11
-157.625198
 21
412.130371
 31
0.0
210
0.0
220
0.0
230
1.0
  0
ARC
  5
3FE
100
AcDbEntity
  8
0
370
    35
390
0
 62
     7
100
AcDbCircle
 10
-158.737717
 20
415.700012
 30
0.0
 40
0.2
210
0.0
220
0.0
230
1.0
100
AcDbArc
 50
90.000003
 51
200.37643
  0
LINE
  5
3FF
100
AcDbEntity
  8
0
370
    35
390
0
 62
     7
 48
0.065
100
AcDbLine
 10
-158.737717
 20
415.900024
 30
0.0
 11
-156.137711
 21
415.900024
 31
0.0
210
0.0
220
0.0
230
1.0
  0
ARC
  5
400
100
AcDbEntity
  8
0
370
    35
390
0
 62
     7
100
AcDbCircle
 10
1381.262207
 20
415.700012
 30
0.0
 40
0.2
210
0.0
220
0.0
230
1.0
100
AcDbArc
 50
90.000003
 51
200.37643
  0
LINE
  5
401
100
AcDbEntity
  8
0
370
    35
390
0
 62
     7
 48
0.065009
100
AcDbLine
 10
1381.262207
 20
415.900024
 30
0.0
 11
1383.862549
 21
415.900024
 31
0.0
210
0.0
220
0.0
230
1.0
  0
ARC
  5
402
100
AcDbEntity
  8
0
370
    35
390
0
 62
     7
100
AcDbCircle
 10
1379.0625
 20
416.0
 30
0.0
 40
0.5
210
0.0
220
0.0
230
1.0
100
AcDbArc
 50
90.000003
 51
179.999991
  0
LINE
  5
403
100
AcDbEntity
  8
0
370
    35
390
0
 62
     7
 48
0.1
100
AcDbLine
 10
1378.5625
 20
416.0
 30
0.0
 11
1378.5625
 21
412.0
 31
0.0
210
0.0
220
0.0
230
1.0
  0
ARC
  5
404
100
AcDbEntity
  8
0
370
    35
390
0
 62
     7
100
AcDbCircle
 10
1379.0625
 20
412.0
 30
0.0
 40
0.5
210
0.0
220
0.0
230
1.0
100
AcDbArc
 50
179.999991
 51
269.999997
  0
LINE
  5
405
100
AcDbEntity
  8
0
370
    35
390
0
 62
     7
 48
0.175
100
AcDbLine
 10
1386.0625
 20
411.5
 30
0.0
 11
1379.0625
 21
411.5
 31
0.0
210
0.0
220
0.0
230
1.0
  0
ARC
  5
406
100
AcDbEntity
  8
0
370
    35
390
0
 62
     7
100
AcDbCircle
 10
1386.0625
 20
412.0
 30
0.0
 40
0.5
210
0.0
220
0.0
230
1.0
100
AcDbArc
 50
269.999997
 51
360.0
  0
LINE
  5
407
100
AcDbEntity
  8
0
370
    35
390
0
 62
     7
 48
0.1
100
AcDbLine
 10
1386.5625
 20
412.0
 30
0.0
 11
1386.5625
 21
416.0
 31
0.0
210
0.0
220
0.0
230
1.0
  0
ARC
  5
408
100
AcDbEntity
  8
0
370
    35
390
0
 62
     7
100
AcDbCircle
 10
1386.0625
 20
416.0
 30
0.0
 40
0.5
210
0.0
220
0.0
230
1.0
100
AcDbArc
 50
0.0
 51
90.000003
  0
LINE
  5
409
100
AcDbEntity
  8
0
370
    35
390
0
 62
     7
 48
0.175
100
AcDbLine
 10
1379.0625
 20
416.5
 30
0.0
 11
1386.0625
 21
416.5
 31
0.0
210
0.0
220
0.0
230
1.0
  0
LINE
  5
40A
100
AcDbEntity
  8
0
370
    35
390
0
 62
     7
 48
0.093341
100
AcDbLine
 10
1381.074951
 20
415.630371
 30
0.0
 11
1382.375
 21
412.130371
 31
0.0
210
0.0
220
0.0
230
1.0
  0
ARC
  5
40B
100
AcDbEntity
  8
0
370
    35
390
0
 62
     7
100
AcDbCircle
 10
1382.5625
 20
412.200012
 30
0.0
 40
0.2
210
0.0
220
0.0
230
1.0
100
AcDbArc
 50
200.37643
 51
339.623562
  0
LINE
  5
40C
100
AcDbEntity
  8
0
370
    35
390
0
 62
     7
 48
0.093339
100
AcDbLine
 10
1384.049805
 20
415.630371
 30
0.0
 11
1382.75
 21
412.130371
 31
0.0
210
0.0
220
0.0
230
1.0
  0
ARC
  5
40D
100
AcDbEntity
  8
0
370
    35
390
0
 62
     7
100
AcDbCircle
 10
1383.862549
 20
415.700012
 30
0.0
 40
0.2
210
0.0
220
0.0
230
1.0
100
AcDbArc
 50
339.623562
 51
90.000003
  0
LINE
  5
40E
100
AcDbEntity
  8
0
370
    35
390
0
 62
     7
 48
0.002499
100
AcDbLine
 10
-269.362366
 20
409.0
 30
0.0
 11
-269.26239
 21
409.0
 31
0.0
210
0.0
220
0.0
230
1.0
  0
LINE
  5
40F
100
AcDbEntity
  8
0
370
    35
390
0
 62
     7
 48
0.0175
100
AcDbLine
 10
-253.562363
 20
409.0
 30
0.0
 11
-254.262375
 21
409.0
 31
0.0
210
0.0
220
0.0
230
1.0
  0
LINE
  5
410
100
AcDbEntity
  8
0
370
    35
390
0
 62
     7
 48
0.03
100
AcDbLine
 10
-253.562363
 20
409.0
 30
0.0
 11
-252.362366
 21
409.0
 31
0.0
210
0.0
220
0.0
230
1.0
  0
ARC
  5
411
100
AcDbEntity
  8
0
370
    35
390
0
 62
     7
100
AcDbCircle
 10
-252.362366
 20
408.5
 30
0.0
 40
0.5
210
0.0
220
0.0
230
1.0
100
AcDbArc
 50
0.0
 51
90.000003
  0
ARC
  5
412
100
AcDbEntity
  8
0
370
    35
390
0
 62
     7
100
AcDbCircle
 10
-253.562363
 20
408.5
 30
0.0
 40
0.5
210
0.0
220
0.0
230
1.0
100
AcDbArc
 50
90.000003
 51
179.999991
  0
ARC
  5
413
100
AcDbEntity
  8
0
370
    35
390
0
 62
     7
100
AcDbCircle
 10
-269.362366
 20
408.5
 30
0.0
 40
0.5
210
0.0
220
0.0
230
1.0
100
AcDbArc
 50
90.000003
 51
179.999991
  0
ARC
  5
414
100
AcDbEntity
  8
0
370
    35
390
0
 62
     7
100
AcDbCircle
 10
-267.862366
 20
409.5
 30
0.0
 40
0.5
210
0.0
220
0.0
230
1.0
100
AcDbArc
 50
90.000003
 51
126.868797
  0
LINE
  5
415
100
AcDbEntity
  8
0
370
    35
390
0
 62
     7
 48
0.0375
100
AcDbLine
 10
-266.362366
 20
410.0
 30
0.0
 11
-267.862366
 21
410.0
 31
0.0
210
0.0
220
0.0
230
1.0
  0
ARC
  5
416
100
AcDbEntity
  8
0
370
    35
390
0
 62
     7
100
AcDbCircle
 10
-266.362366
 20
411.0
 30
0.0
 40
1.0
210
0.0
220
0.0
230
1.0
100
AcDbArc
 50
269.999997
 51
360.0
  0
LINE
  5
417
100
AcDbEntity
  8
0
370
    35
390
0
 62
     7
 48
0.0125
100
AcDbLine
 10
-265.362366
 20
411.5
 30
0.0
 11
-265.362366
 21
411.0
 31
0.0
210
0.0
220
0.0
230
1.0
  0
LINE
  5
418
100
AcDbEntity
  8
0
370
    35
390
0
 62
     7
 48
0.025
100
AcDbLine
 10
-264.862366
 20
411.5
 30
0.0
 11
-264.862366
 21
410.5
 31
0.0
210
0.0
220
0.0
230
1.0
  0
ARC
  5
419
100
AcDbEntity
  8
0
370
    35
390
0
 62
     7
100
AcDbCircle
 10
-266.362366
 20
410.5
 30
0.0
 40
1.5
210
0.0
220
0.0
230
1.0
100
AcDbArc
 50
336.422059
 51
360.0
  0
ARC
  5
41A
100
AcDbEntity
  8
0
370
    35
390
0
 62
     7
100
AcDbCircle
 10
-254.76236
 20
410.5
 30
0.0
 40
1.5
210
0.0
220
0.0
230
1.0
100
AcDbArc
 50
179.999991
 51
203.577931
  0
LINE
  5
41B
100
AcDbEntity
  8
0
370
    35
390
0
 62
     7
 48
0.0125
100
AcDbLine
 10
-252.76236
 20
409.5
 30
0.0
 11
-252.76236
 21
409.0
 31
0.0
210
0.0
220
0.0
230
1.0
  0
ARC
  5
41C
100
AcDbEntity
  8
0
370
    35
390
0
 62
     7
100
AcDbCircle
 10
-253.26236
 20
409.5
 30
0.0
 40
0.5
210
0.0
220
0.0
230
1.0
100
AcDbArc
 50
0.0
 51
90.000003
  0
LINE
  5
41D
100
AcDbEntity
  8
0
370
    35
390
0
 62
     7
 48
0.0375
100
AcDbLine
 10
-254.76236
 20
410.0
 30
0.0
 11
-253.26236
 21
410.0
 31
0.0
210
0.0
220
0.0
230
1.0
  0
ARC
  5
41E
100
AcDbEntity
  8
0
370
    35
390
0
 62
     7
100
AcDbCircle
 10
-254.76236
 20
411.0
 30
0.0
 40
1.0
210
0.0
220
0.0
230
1.0
100
AcDbArc
 50
179.999991
 51
269.999997
  0
LINE
  5
41F
100
AcDbEntity
  8
0
370
    35
390
0
 62
     7
 48
0.0125
100
AcDbLine
 10
-255.76236
 20
411.5
 30
0.0
 11
-255.76236
 21
411.0
 31
0.0
210
0.0
220
0.0
230
1.0
  0
LINE
  5
420
100
AcDbEntity
  8
0
370
    35
390
0
 62
     7
 48
0.025
100
AcDbLine
 10
-256.26239
 20
411.5
 30
0.0
 11
-256.26239
 21
410.5
 31
0.0
210
0.0
220
0.0
230
1.0
  0
LINE
  5
421
100
AcDbEntity
  8
0
370
    35
390
0
 62
     7
 48
0.022501
100
AcDbLine
 10
-251.862366
 20
382.0
 30
0.0
 11
-251.862366
 21
382.900024
 31
0.0
210
0.0
220
0.0
230
1.0
  0
LINE
  5
422
100
AcDbEntity
  8
0
370
    35
390
0
 62
     7
 48
0.0625
100
AcDbLine
 10
-251.862366
 20
382.900024
 30
0.0
 11
-251.862366
 21
385.400024
 31
0.0
210
0.0
220
0.0
230
1.0
  0
LINE
  5
423
100
AcDbEntity
  8
0
370
    35
390
0
 62
     7
100
AcDbLine
 10
-251.862366
 20
385.400024
 30
0.0
 11
-251.862366
 21
406.0
 31
0.0
210
0.0
220
0.0
230
1.0
  0
LINE
  5
424
100
AcDbEntity
  8
0
370
    35
390
0
 62
     7
 48
0.0625
100
AcDbLine
 10
-251.862366
 20
406.0
 30
0.0
 11
-251.862366
 21
408.5
 31
0.0
210
0.0
220
0.0
230
1.0
  0
LINE
  5
425
100
AcDbEntity
  8
0
370
    35
390
0
 62
     7
 48
0.031125
100
AcDbLine
 10
-254.062363
 20
408.5
 30
0.0
 11
-254.062363
 21
407.255005
 31
0.0
210
0.0
220
0.0
230
1.0
  0
LINE
  5
426
100
AcDbEntity
  8
0
370
    35
390
0
 62
     7
 48
0.034999
100
AcDbLine
 10
-256.462341
 20
409.900024
 30
0.0
 11
-256.462341
 21
411.299988
 31
0.0
210
0.0
220
0.0
230
1.0
  0
ARC
  5
427
100
AcDbEntity
  8
0
370
    35
390
0
 62
     7
100
AcDbCircle
 10
-256.962341
 20
411.299988
 30
0.0
 40
0.5
210
0.0
220
0.0
230
1.0
100
AcDbArc
 50
0.0
 51
23.579369
  0
LINE
  5
428
100
AcDbEntity
  8
0
370
    35
390
0
 62
     7
 48
0.034999
100
AcDbLine
 10
-264.662354
 20
409.900024
 30
0.0
 11
-264.662354
 21
411.299988
 31
0.0
210
0.0
220
0.0
230
1.0
  0
ARC
  5
429
100
AcDbEntity
  8
0
370
    35
390
0
 62
     7
100
AcDbCircle
 10
-264.162354
 20
411.299988
 30
0.0
 40
0.5
210
0.0
220
0.0
230
1.0
100
AcDbArc
 50
156.420635
 51
179.999991
  0
LINE
  5
42A
100
AcDbEntity
  8
0
370
    35
390
0
 62
     7
 48
0.255
100
AcDbLine
 10
-269.862366
 20
382.0
 30
0.0
 11
-269.862366
 21
392.200012
 31
0.0
210
0.0
220
0.0
230
1.0
  0
LINE
  5
42B
100
AcDbEntity
  8
0
370
    35
390
0
 62
     7
 48
0.025
100
AcDbLine
 10
-269.862366
 20
392.200012
 30
0.0
 11
-269.862366
 21
393.200012
 31
0.0
210
0.0
220
0.0
230
1.0
  0
LINE
  5
42C
100
AcDbEntity
  8
0
370
    35
390
0
 62
     7
 48
0.125
100
AcDbLine
 10
-269.862366
 20
393.200012
 30
0.0
 11
-269.862366
 21
398.200012
 31
0.0
210
0.0
220
0.0
230
1.0
  0
LINE
  5
42D
100
AcDbEntity
  8
0
370
    35
390
0
 62
     7
 48
0.025
100
AcDbLine
 10
-269.862366
 20
398.200012
 30
0.0
 11
-269.862366
 21
399.200012
 31
0.0
210
0.0
220
0.0
230
1.0
  0
LINE
  5
42E
100
AcDbEntity
  8
0
370
    35
390
0
 62
     7
 48
0.2325
100
AcDbLine
 10
-269.862366
 20
408.5
 30
0.0
 11
-269.862366
 21
399.200012
 31
0.0
210
0.0
220
0.0
230
1.0
  0
ARC
  5
42F
100
AcDbEntity
  8
0
370
    35
390
0
 62
     7
100
AcDbCircle
 10
-268.76239
 20
398.200012
 30
0.0
 40
0.5
210
0.0
220
0.0
230
1.0
100
AcDbArc
 50
0.0
 51
90.000003
  0
LINE
  5
430
100
AcDbEntity
  8
0
370
    35
390
0
 62
     7
 48
0.002501
100
AcDbLine
 10
-268.662354
 20
399.150024
 30
0.0
 11
-268.76239
 21
399.150024
 31
0.0
210
0.0
220
0.0
230
1.0
  0
ARC
  5
431
100
AcDbEntity
  8
0
370
    35
390
0
 62
     7
100
AcDbCircle
 10
-268.662354
 20
398.650024
 30
0.0
 40
0.5
210
0.0
220
0.0
230
1.0
100
AcDbArc
 50
0.0
 51
90.000003
  0
LINE
  5
432
100
AcDbEntity
  8
0
370
    35
390
0
 62
     7
 48
0.125
100
AcDbLine
 10
-268.26239
 20
398.200012
 30
0.0
 11
-268.26239
 21
393.200012
 31
0.0
210
0.0
220
0.0
230
1.0
  0
ARC
  5
433
100
AcDbEntity
  8
0
370
    35
390
0
 62
     7
100
AcDbCircle
 10
-268.76239
 20
393.200012
 30
0.0
 40
0.5
210
0.0
220
0.0
230
1.0
100
AcDbArc
 50
269.999997
 51
360.0
  0
ARC
  5
434
100
AcDbEntity
  8
0
370
    35
390
0
 62
     7
100
AcDbCircle
 10
-268.662354
 20
393.099976
 30
0.0
 40
0.5
210
0.0
220
0.0
230
1.0
100
AcDbArc
 50
269.999997
 51
360.0
  0
LINE
  5
435
100
AcDbEntity
  8
0
370
    35
390
0
 62
     7
 48
0.002501
100
AcDbLine
 10
-268.76239
 20
392.599976
 30
0.0
 11
-268.662354
 21
392.599976
 31
0.0
210
0.0
220
0.0
230
1.0
  0
LINE
  5
436
100
AcDbEntity
  8
0
370
    35
390
0
 62
     7
 48
0.02
100
AcDbLine
 10
-251.062363
 20
407.5
 30
0.0
 11
-251.862366
 21
407.5
 31
0.0
210
0.0
220
0.0
230
1.0
  0
LINE
  5
437
100
AcDbEntity
  8
0
370
    35
390
0
 62
     7
 48
0.02
100
AcDbLine
 10
-251.062363
 20
408.299988
 30
0.0
 11
-251.862366
 21
408.299988
 31
0.0
210
0.0
220
0.0
230
1.0
  0
LINE
  5
438
100
AcDbEntity
  8
0
370
    35
390
0
 62
     7
 48
0.025
100
AcDbLine
 10
-251.062363
 20
407.299988
 30
0.0
 11
-251.062363
 21
408.299988
 31
0.0
210
0.0
220
0.0
230
1.0
  0
LINE
  5
439
100
AcDbEntity
  8
0
370
    35
390
0
 62
     7
 48
0.02
100
AcDbLine
 10
-251.062363
 20
388.700012
 30
0.0
 11
-251.862366
 21
388.700012
 31
0.0
210
0.0
220
0.0
230
1.0
  0
LINE
  5
43A
100
AcDbEntity
  8
0
370
    35
390
0
 62
     7
 48
0.075
100
AcDbLine
 10
-251.062363
 20
388.700012
 30
0.0
 11
-251.062363
 21
391.700012
 31
0.0
210
0.0
220
0.0
230
1.0
  0
LINE
  5
43B
100
AcDbEntity
  8
0
370
    35
390
0
 62
     7
 48
0.305943
100
AcDbLine
 10
-251.062363
 20
403.937744
 30
0.0
 11
-251.062363
 21
391.700012
 31
0.0
210
0.0
220
0.0
230
1.0
  0
LINE
  5
43C
100
AcDbEntity
  8
0
370
    35
390
0
 62
     7
 48
0.024068
100
AcDbLine
 10
-251.062363
 20
403.937744
 30
0.0
 11
-251.062363
 21
404.900452
 31
0.0
210
0.0
220
0.0
230
1.0
  0
LINE
  5
43D
100
AcDbEntity
  8
0
370
    35
390
0
 62
     7
 48
0.064989
100
AcDbLine
 10
-251.862366
 20
404.900452
 30
0.0
 11
-251.862366
 21
407.5
 31
0.0
210
0.0
220
0.0
230
1.0
  0
ARC
  5
43E
100
AcDbEntity
  8
0
370
    35
390
0
 62
     7
100
AcDbCircle
 10
-257.477295
 20
404.182068
 30
0.0
 40
5.712038
210
0.0
220
0.0
230
1.0
100
AcDbArc
 50
18.558476
 51
26.433648
  0
ARC
  5
43F
100
AcDbEntity
  8
0
370
    35
390
0
 62
     7
100
AcDbCircle
 10
-252.062363
 20
406.0
 30
0.0
 40
0.2
210
0.0
220
0.0
230
1.0
100
AcDbArc
 50
269.999997
 51
360.0
  0
ARC
  5
440
100
AcDbEntity
  8
0
370
    35
390
0
 62
     7
100
AcDbCircle
 10
-252.062363
 20
385.400024
 30
0.0
 40
0.2
210
0.0
220
0.0
230
1.0
100
AcDbArc
 50
0.0
 51
90.000003
  0
ARC
  5
441
100
AcDbEntity
  8
0
370
    35
390
0
 62
     7
100
AcDbCircle
 10
-257.477173
 20
387.218018
 30
0.0
 40
5.711964
210
0.0
220
0.0
230
1.0
100
AcDbArc
 50
333.565022
 51
341.44031
  0
ARC
  5
442
100
AcDbEntity
  8
0
370
    35
390
0
 62
     7
100
AcDbCircle
 10
-252.362366
 20
382.900024
 30
0.0
 40
0.5
210
0.0
220
0.0
230
1.0
100
AcDbArc
 50
269.999997
 51
360.0
  0
LINE
  5
443
100
AcDbEntity
  8
0
370
    35
390
0
 62
     7
 48
0.0125
100
AcDbLine
 10
-252.362366
 20
382.0
 30
0.0
 11
-251.862366
 21
382.0
 31
0.0
210
0.0
220
0.0
230
1.0
  0
LINE
  5
444
100
AcDbEntity
  8
0
370
    35
390
0
 62
     7
 48
0.017678
100
AcDbLine
 10
-251.862366
 20
382.0
 30
0.0
 11
-252.362366
 21
381.5
 31
0.0
210
0.0
220
0.0
230
1.0
  0
ARC
  5
445
100
AcDbEntity
  8
0
370
    35
390
0
 62
     7
100
AcDbCircle
 10
-254.062363
 20
404.5
 30
0.0
 40
2.3
210
0.0
220
0.0
230
1.0
100
AcDbArc
 50
34.417388
 51
79.713437
  0
LINE
  5
446
100
AcDbEntity
  8
0
370
    35
390
0
 62
     7
 48
0.001033
100
AcDbLine
 10
-252.123672
 20
405.799988
 30
0.0
 11
-252.164993
 21
405.799988
 31
0.0
210
0.0
220
0.0
230
1.0
  0
LINE
  5
447
100
AcDbEntity
  8
0
370
    35
390
0
 62
     7
 48
0.00024
100
AcDbLine
 10
-252.123672
 20
405.799988
 30
0.0
 11
-252.11412
 21
405.801025
 31
0.0
210
0.0
220
0.0
230
1.0
  0
LINE
  5
448
100
AcDbEntity
  8
0
370
    35
390
0
 62
     7
 48
0.000251
100
AcDbLine
 10
-252.11412
 20
405.801025
 30
0.0
 11
-252.10463
 21
405.80426
 31
0.0
210
0.0
220
0.0
230
1.0
  0
LINE
  5
449
100
AcDbEntity
  8
0
370
    35
390
0
 62
     7
 48
0.000267
100
AcDbLine
 10
-252.10463
 20
405.80426
 30
0.0
 11
-252.095383
 21
405.809631
 31
0.0
210
0.0
220
0.0
230
1.0
  0
LINE
  5
44A
100
AcDbEntity
  8
0
370
    35
390
0
 62
     7
 48
0.000289
100
AcDbLine
 10
-252.095383
 20
405.809631
 30
0.0
 11
-252.086578
 21
405.817139
 31
0.0
210
0.0
220
0.0
230
1.0
  0
LINE
  5
44B
100
AcDbEntity
  8
0
370
    35
390
0
 62
     7
 48
0.000644
100
AcDbLine
 10
-252.086578
 20
405.817139
 30
0.0
 11
-252.071182
 21
405.837769
 31
0.0
210
0.0
220
0.0
230
1.0
  0
LINE
  5
44C
100
AcDbEntity
  8
0
370
    35
390
0
 62
     7
 48
0.000743
100
AcDbLine
 10
-252.071182
 20
405.837769
 30
0.0
 11
-252.059402
 21
405.865051
 31
0.0
210
0.0
220
0.0
230
1.0
  0
LINE
  5
44D
100
AcDbEntity
  8
0
370
    35
390
0
 62
     7
 48
0.000822
100
AcDbLine
 10
-252.059402
 20
405.865051
 30
0.0
 11
-252.052216
 21
405.897156
 31
0.0
210
0.0
220
0.0
230
1.0
  0
LINE
  5
44E
100
AcDbEntity
  8
0
370
    35
390
0
 62
     7
 48
0.000879
100
AcDbLine
 10
-252.052216
 20
405.897156
 30
0.0
 11
-252.050323
 21
405.932251
 31
0.0
210
0.0
220
0.0
230
1.0
  0
LINE
  5
44F
100
AcDbEntity
  8
0
370
    35
390
0
 62
     7
 48
0.000908
100
AcDbLine
 10
-252.050323
 20
405.932251
 30
0.0
 11
-252.054184
 21
405.968384
 31
0.0
210
0.0
220
0.0
230
1.0
  0
LINE
  5
450
100
AcDbEntity
  8
0
370
    35
390
0
 62
     7
 48
0.000816
100
AcDbLine
 10
-252.054184
 20
405.968384
 30
0.0
 11
-252.062363
 21
406.0
 31
0.0
210
0.0
220
0.0
230
1.0
  0
ARC
  5
451
100
AcDbEntity
  8
0
370
    35
390
0
 62
     7
100
AcDbCircle
 10
-253.562363
 20
407.255005
 30
0.0
 40
0.5
210
0.0
220
0.0
230
1.0
100
AcDbArc
 50
179.999991
 51
259.713439
  0
LINE
  5
452
100
AcDbEntity
  8
0
370
    35
390
0
 62
     7
 48
0.007335
100
AcDbLine
 10
-254.26236
 20
407.349976
 30
0.0
 11
-254.26236
 21
407.05658
 31
0.0
210
0.0
220
0.0
230
1.0
  0
LINE
  5
453
100
AcDbEntity
  8
0
370
    35
390
0
 62
     7
 48
0.051251
100
AcDbLine
 10
-254.26236
 20
407.349976
 30
0.0
 11
-254.26236
 21
409.400024
 31
0.0
210
0.0
220
0.0
230
1.0
  0
ARC
  5
454
100
AcDbEntity
  8
0
370
    35
390
0
 62
     7
100
AcDbCircle
 10
-254.76236
 20
409.400024
 30
0.0
 40
0.5
210
0.0
220
0.0
230
1.0
100
AcDbArc
 50
0.0
 51
90.000003
  0
LINE
  5
455
100
AcDbEntity
  8
0
370
    35
390
0
 62
     7
 48
0.068572
100
AcDbLine
 10
-254.76236
 20
409.900024
 30
0.0
 11
-257.505249
 21
409.900024
 31
0.0
210
0.0
220
0.0
230
1.0
  0
ARC
  5
456
100
AcDbEntity
  8
0
370
    35
390
0
 62
     7
100
AcDbCircle
 10
-268.76239
 20
399.650024
 30
0.0
 40
0.5
210
0.0
220
0.0
230
1.0
100
AcDbArc
 50
179.999991
 51
269.999997
  0
LINE
  5
457
100
AcDbEntity
  8
0
370
    35
390
0
 62
     7
 48
0.24375
100
AcDbLine
 10
-269.26239
 20
409.400024
 30
0.0
 11
-269.26239
 21
399.650024
 31
0.0
210
0.0
220
0.0
230
1.0
  0
LINE
  5
458
100
AcDbEntity
  8
0
370
    35
390
0
 62
     7
 48
0.128574
100
AcDbLine
 10
-263.619446
 20
409.900024
 30
0.0
 11
-268.76239
 21
409.900024
 31
0.0
210
0.0
220
0.0
230
1.0
  0
ARC
  5
459
100
AcDbEntity
  8
0
370
    35
390
0
 62
     7
100
AcDbCircle
 10
-268.76239
 20
409.400024
 30
0.0
 40
0.5
210
0.0
220
0.0
230
1.0
100
AcDbArc
 50
90.000003
 51
179.999991
  0
LINE
  5
45A
100
AcDbEntity
  8
0
370
    35
390
0
 62
     7
 48
0.005
100
AcDbLine
 10
-270.062378
 20
407.5
 30
0.0
 11
-269.862366
 21
407.5
 31
0.0
210
0.0
220
0.0
230
1.0
  0
LINE
  5
45B
100
AcDbEntity
  8
0
370
    35
390
0
 62
     7
 48
0.005
100
AcDbLine
 10
-270.062378
 20
408.299988
 30
0.0
 11
-269.862366
 21
408.299988
 31
0.0
210
0.0
220
0.0
230
1.0
  0
LINE
  5
45C
100
AcDbEntity
  8
0
370
    35
390
0
 62
     7
 48
0.019997
100
AcDbLine
 10
-270.062378
 20
408.299988
 30
0.0
 11
-270.062378
 21
407.500122
 31
0.0
210
0.0
220
0.0
230
1.0
  0
LINE
  5
45D
100
AcDbEntity
  8
0
370
    35
390
0
 62
     7
 48
0.005
100
AcDbLine
 10
-270.062378
 20
388.700012
 30
0.0
 11
-269.862366
 21
388.700012
 31
0.0
210
0.0
220
0.0
230
1.0
  0
LINE
  5
45E
100
AcDbEntity
  8
0
370
    35
390
0
 62
     7
 48
0.075
100
AcDbLine
 10
-270.062378
 20
391.700012
 30
0.0
 11
-270.062378
 21
388.700012
 31
0.0
210
0.0
220
0.0
230
1.0
  0
LINE
  5
45F
100
AcDbEntity
  8
0
370
    35
390
0
 62
     7
 48
0.305943
100
AcDbLine
 10
-270.062378
 20
403.937744
 30
0.0
 11
-270.062378
 21
391.700012
 31
0.0
210
0.0
220
0.0
230
1.0
  0
LINE
  5
460
100
AcDbEntity
  8
0
370
    35
390
0
 62
     7
 48
0.024068
100
AcDbLine
 10
-270.062378
 20
404.900452
 30
0.0
 11
-270.062378
 21
403.937744
 31
0.0
210
0.0
220
0.0
230
1.0
  0
ARC
  5
461
100
AcDbEntity
  8
0
370
    35
390
0
 62
     7
100
AcDbCircle
 10
-269.362366
 20
398.200012
 30
0.0
 40
0.5
210
0.0
220
0.0
230
1.0
100
AcDbArc
 50
90.000003
 51
179.999991
  0
ARC
  5
462
100
AcDbEntity
  8
0
370
    35
390
0
 62
     7
100
AcDbCircle
 10
-269.362366
 20
393.200012
 30
0.0
 40
0.5
210
0.0
220
0.0
230
1.0
100
AcDbArc
 50
179.999991
 51
269.999997
  0
LINE
  5
463
100
AcDbEntity
  8
0
370
    35
390
0
 62
     7
 48
0.0125
100
AcDbLine
 10
-269.862366
 20
382.0
 30
0.0
 11
-269.362366
 21
382.0
 31
0.0
210
0.0
220
0.0
230
1.0
  0
LINE
  5
464
100
AcDbEntity
  8
0
370
    35
390
0
 62
     7
 48
0.017678
100
AcDbLine
 10
-269.862366
 20
382.0
 30
0.0
 11
-269.362366
 21
381.5
 31
0.0
210
0.0
220
0.0
230
1.0
  0
LINE
  5
465
100
AcDbEntity
  8
0
370
    35
390
0
 62
     7
 48
0.014999
100
AcDbLine
 10
-268.76239
 20
398.700012
 30
0.0
 11
-269.362366
 21
398.700012
 31
0.0
210
0.0
220
0.0
230
1.0
  0
LINE
  5
466
100
AcDbEntity
  8
0
370
    35
390
0
 62
     7
 48
0.138751
100
AcDbLine
 10
-268.162354
 20
398.650024
 30
0.0
 11
-268.162354
 21
393.099976
 31
0.0
210
0.0
220
0.0
230
1.0
  0
LINE
  5
467
100
AcDbEntity
  8
0
370
    35
390
0
 62
     7
 48
0.425
100
AcDbLine
 10
-252.362366
 20
382.0
 30
0.0
 11
-269.362366
 21
382.0
 31
0.0
210
0.0
220
0.0
230
1.0
  0
LINE
  5
468
100
AcDbEntity
  8
0
370
    35
390
0
 62
     7
 48
0.014999
100
AcDbLine
 10
-269.362366
 20
392.700012
 30
0.0
 11
-268.76239
 21
392.700012
 31
0.0
210
0.0
220
0.0
230
1.0
  0
ARC
  5
469
100
AcDbEntity
  8
0
370
    35
390
0
 62
     7
100
AcDbCircle
 10
-268.76239
 20
392.099976
 30
0.0
 40
0.5
210
0.0
220
0.0
230
1.0
100
AcDbArc
 50
90.000003
 51
179.999991
  0
LINE
  5
46A
100
AcDbEntity
  8
0
370
    35
390
0
 62
     7
 48
0.064989
100
AcDbLine
 10
-251.062363
 20
404.900452
 30
0.0
 11
-251.062363
 21
407.5
 31
0.0
210
0.0
220
0.0
230
1.0
  0
LINE
  5
46B
100
AcDbEntity
  8
0
370
    35
390
0
 62
     7
 48
0.001533
100
AcDbLine
 10
-252.062363
 20
405.799988
 30
0.0
 11
-252.123672
 21
405.799988
 31
0.0
210
0.0
220
0.0
230
1.0
  0
LINE
  5
46C
100
AcDbEntity
  8
0
370
    35
390
0
 62
     7
 48
0.000056
100
AcDbLine
 10
-252.164993
 20
405.799988
 30
0.0
 11
-252.167221
 21
405.799988
 31
0.0
210
0.0
220
0.0
230
1.0
  0
LINE
  5
46D
100
AcDbEntity
  8
0
370
    35
390
0
 62
     7
 48
0.001983
100
AcDbLine
 10
-252.298889
 20
385.799988
 30
0.0
 11
-252.261978
 21
385.729797
 31
0.0
210
0.0
220
0.0
230
1.0
  0
LINE
  5
46E
100
AcDbEntity
  8
0
370
    35
390
0
 62
     7
 48
0.000992
100
AcDbLine
 10
-252.261978
 20
385.729797
 30
0.0
 11
-252.242371
 21
385.695313
 31
0.0
210
0.0
220
0.0
230
1.0
  0
LINE
  5
46F
100
AcDbEntity
  8
0
370
    35
390
0
 62
     7
 48
0.001233
100
AcDbLine
 10
-252.242371
 20
385.695313
 30
0.0
 11
-252.216278
 21
385.653442
 31
0.0
210
0.0
220
0.0
230
1.0
  0
LINE
  5
470
100
AcDbEntity
  8
0
370
    35
390
0
 62
     7
 48
0.000581
100
AcDbLine
 10
-252.216278
 20
385.653442
 30
0.0
 11
-252.202972
 21
385.634399
 31
0.0
210
0.0
220
0.0
230
1.0
  0
LINE
  5
471
100
AcDbEntity
  8
0
370
    35
390
0
 62
     7
 48
0.000724
100
AcDbLine
 10
-252.202972
 20
385.634399
 30
0.0
 11
-252.184616
 21
385.612
 31
0.0
210
0.0
220
0.0
230
1.0
  0
LINE
  5
472
100
AcDbEntity
  8
0
370
    35
390
0
 62
     7
 48
0.000415
100
AcDbLine
 10
-252.184616
 20
385.612
 30
0.0
 11
-252.171829
 21
385.60144
 31
0.0
210
0.0
220
0.0
230
1.0
  0
LINE
  5
473
100
AcDbEntity
  8
0
370
    35
390
0
 62
     7
 48
0.000121
100
AcDbLine
 10
-252.171829
 20
385.60144
 30
0.0
 11
-252.167221
 21
385.599976
 31
0.0
210
0.0
220
0.0
230
1.0
  0
LINE
  5
474
100
AcDbEntity
  8
0
370
    35
390
0
 62
     7
 48
0.000056
100
AcDbLine
 10
-252.164993
 20
385.599976
 30
0.0
 11
-252.167221
 21
385.599976
 31
0.0
210
0.0
220
0.0
230
1.0
  0
LINE
  5
475
100
AcDbEntity
  8
0
370
    35
390
0
 62
     7
 48
0.001984
100
AcDbLine
 10
-252.298889
 20
405.599976
 30
0.0
 11
-252.261978
 21
405.670227
 31
0.0
210
0.0
220
0.0
230
1.0
  0
LINE
  5
476
100
AcDbEntity
  8
0
370
    35
390
0
 62
     7
 48
0.000992
100
AcDbLine
 10
-252.261978
 20
405.670227
 30
0.0
 11
-252.242371
 21
405.704712
 31
0.0
210
0.0
220
0.0
230
1.0
  0
LINE
  5
477
100
AcDbEntity
  8
0
370
    35
390
0
 62
     7
 48
0.001233
100
AcDbLine
 10
-252.242371
 20
405.704712
 30
0.0
 11
-252.216278
 21
405.746582
 31
0.0
210
0.0
220
0.0
230
1.0
  0
LINE
  5
478
100
AcDbEntity
  8
0
370
    35
390
0
 62
     7
 48
0.00058
100
AcDbLine
 10
-252.216278
 20
405.746582
 30
0.0
 11
-252.202972
 21
405.765564
 31
0.0
210
0.0
220
0.0
230
1.0
  0
LINE
  5
479
100
AcDbEntity
  8
0
370
    35
390
0
 62
     7
 48
0.000724
100
AcDbLine
 10
-252.202972
 20
405.765564
 30
0.0
 11
-252.184616
 21
405.787964
 31
0.0
210
0.0
220
0.0
230
1.0
  0
LINE
  5
47A
100
AcDbEntity
  8
0
370
    35
390
0
 62
     7
 48
0.000417
100
AcDbLine
 10
-252.184616
 20
405.787964
 30
0.0
 11
-252.171829
 21
405.798645
 31
0.0
210
0.0
220
0.0
230
1.0
  0
LINE
  5
47B
100
AcDbEntity
  8
0
370
    35
390
0
 62
     7
 48
0.00012
100
AcDbLine
 10
-252.171829
 20
405.798645
 30
0.0
 11
-252.167221
 21
405.799988
 31
0.0
210
0.0
220
0.0
230
1.0
  0
LINE
  5
47C
100
AcDbEntity
  8
0
370
    35
390
0
 62
     7
 48
0.001033
100
AcDbLine
 10
-252.164993
 20
385.599976
 30
0.0
 11
-252.123672
 21
385.599976
 31
0.0
210
0.0
220
0.0
230
1.0
  0
LINE
  5
47D
100
AcDbEntity
  8
0
370
    35
390
0
 62
     7
 48
0.001533
100
AcDbLine
 10
-252.062363
 20
385.599976
 30
0.0
 11
-252.123672
 21
385.599976
 31
0.0
210
0.0
220
0.0
230
1.0
  0
LINE
  5
47E
100
AcDbEntity
  8
0
370
    35
390
0
 62
     7
 48
0.00024
100
AcDbLine
 10
-252.123672
 20
385.599976
 30
0.0
 11
-252.11412
 21
385.598999
 31
0.0
210
0.0
220
0.0
230
1.0
  0
LINE
  5
47F
100
AcDbEntity
  8
0
370
    35
390
0
 62
     7
 48
0.000251
100
AcDbLine
 10
-252.11412
 20
385.598999
 30
0.0
 11
-252.10463
 21
385.595764
 31
0.0
210
0.0
220
0.0
230
1.0
  0
LINE
  5
480
100
AcDbEntity
  8
0
370
    35
390
0
 62
     7
 48
0.000267
100
AcDbLine
 10
-252.10463
 20
385.595764
 30
0.0
 11
-252.095383
 21
385.590393
 31
0.0
210
0.0
220
0.0
230
1.0
  0
LINE
  5
481
100
AcDbEntity
  8
0
370
    35
390
0
 62
     7
 48
0.000289
100
AcDbLine
 10
-252.095383
 20
385.590393
 30
0.0
 11
-252.086578
 21
385.582886
 31
0.0
210
0.0
220
0.0
230
1.0
  0
LINE
  5
482
100
AcDbEntity
  8
0
370
    35
390
0
 62
     7
 48
0.000644
100
AcDbLine
 10
-252.086578
 20
385.582886
 30
0.0
 11
-252.071182
 21
385.562256
 31
0.0
210
0.0
220
0.0
230
1.0
  0
LINE
  5
483
100
AcDbEntity
  8
0
370
    35
390
0
 62
     7
 48
0.000743
100
AcDbLine
 10
-252.071182
 20
385.562256
 30
0.0
 11
-252.059402
 21
385.534973
 31
0.0
210
0.0
220
0.0
230
1.0
  0
LINE
  5
484
100
AcDbEntity
  8
0
370
    35
390
0
 62
     7
 48
0.000824
100
AcDbLine
 10
-252.059402
 20
385.534973
 30
0.0
 11
-252.052216
 21
385.502808
 31
0.0
210
0.0
220
0.0
230
1.0
  0
LINE
  5
485
100
AcDbEntity
  8
0
370
    35
390
0
 62
     7
 48
0.000877
100
AcDbLine
 10
-252.052216
 20
385.502808
 30
0.0
 11
-252.050323
 21
385.467773
 31
0.0
210
0.0
220
0.0
230
1.0
  0
LINE
  5
486
100
AcDbEntity
  8
0
370
    35
390
0
 62
     7
 48
0.00091
100
AcDbLine
 10
-252.050323
 20
385.467773
 30
0.0
 11
-252.054184
 21
385.43158
 31
0.0
210
0.0
220
0.0
230
1.0
  0
LINE
  5
487
100
AcDbEntity
  8
0
370
    35
390
0
 62
     7
 48
0.000815
100
AcDbLine
 10
-252.054184
 20
385.43158
 30
0.0
 11
-252.062363
 21
385.400024
 31
0.0
210
0.0
220
0.0
230
1.0
  0
ARC
  5
488
100
AcDbEntity
  8
0
370
    35
390
0
 62
     7
100
AcDbCircle
 10
-254.062363
 20
386.900024
 30
0.0
 40
2.3
210
0.0
220
0.0
230
1.0
100
AcDbArc
 50
280.286563
 51
325.582605
  0
LINE
  5
489
100
AcDbEntity
  8
0
370
    35
390
0
 62
     7
 48
0.03
100
AcDbLine
 10
-252.362366
 20
382.400024
 30
0.0
 11
-253.562363
 21
382.400024
 31
0.0
210
0.0
220
0.0
230
1.0
  0
LINE
  5
48A
100
AcDbEntity
  8
0
370
    35
390
0
 62
     7
 48
0.425
100
AcDbLine
 10
-252.362366
 20
381.5
 30
0.0
 11
-269.362366
 21
381.5
 31
0.0
210
0.0
220
0.0
230
1.0
  0
LINE
  5
48B
100
AcDbEntity
  8
0
370
    35
390
0
 62
     7
 48
0.000411
100
AcDbLine
 10
-254.26236
 20
407.05658
 30
0.0
 11
-254.2621
 21
407.040161
 31
0.0
210
0.0
220
0.0
230
1.0
  0
ARC
  5
48C
100
AcDbEntity
  8
0
370
    35
390
0
 62
     7
100
AcDbCircle
 10
-253.76236
 20
407.05658
 30
0.0
 40
0.5
210
0.0
220
0.0
230
1.0
100
AcDbArc
 50
181.882901
 51
260.071798
  0
LINE
  5
48D
100
AcDbEntity
  8
0
370
    35
390
0
 62
     7
 48
0.006971
100
AcDbLine
 10
-254.76236
 20
407.844299
 30
0.0
 11
-254.562363
 21
407.650024
 31
0.0
210
0.0
220
0.0
230
1.0
  0
LINE
  5
48E
100
AcDbEntity
  8
0
370
    35
390
0
 62
     7
 48
0.010608
100
AcDbLine
 10
-254.562363
 20
407.650024
 30
0.0
 11
-254.26236
 21
407.349976
 31
0.0
210
0.0
220
0.0
230
1.0
  0
LINE
  5
48F
100
AcDbEntity
  8
0
370
    35
390
0
 62
     7
 48
0.0075
100
AcDbLine
 10
-254.26236
 20
407.349976
 30
0.0
 11
-254.562363
 21
407.349976
 31
0.0
210
0.0
220
0.0
230
1.0
  0
ARC
  5
490
100
AcDbEntity
  8
0
370
    35
390
0
 62
     7
100
AcDbCircle
 10
-257.505249
 20
410.400024
 30
0.0
 40
0.5
210
0.0
220
0.0
230
1.0
100
AcDbArc
 50
225.0
 51
269.999997
  0
ARC
  5
491
100
AcDbEntity
  8
0
370
    35
390
0
 62
     7
100
AcDbCircle
 10
-263.619446
 20
410.400024
 30
0.0
 40
0.5
210
0.0
220
0.0
230
1.0
100
AcDbArc
 50
269.999997
 51
314.999992
  0
LINE
  5
492
100
AcDbEntity
  8
0
370
    35
390
0
 62
     7
 48
0.064989
100
AcDbLine
 10
-270.062378
 20
407.5
 30
0.0
 11
-270.062378
 21
404.900452
 31
0.0
210
0.0
220
0.0
230
1.0
  0
LINE
  5
493
100
AcDbEntity
  8
0
370
    35
390
0
 62
     7
 48
0.004999
100
AcDbLine
 10
-251.862366
 20
408.300049
 30
0.0
 11
-251.862366
 21
408.5
 31
0.0
210
0.0
220
0.0
230
1.0
  0
CIRCLE
  5
494
100
AcDbEntity
  8
0
370
    35
390
0
 62
     7
100
AcDbCircle
 10
-260.562378
 20
407.5
 30
0.0
 40
2.25
210
0.0
220
0.0
230
1.0
  0
ARC
  5
495
100
AcDbEntity
  8
0
370
    35
390
0
 62
     7
100
AcDbCircle
 10
-260.562378
 20
387.400024
 30
0.0
 40
1.75
210
0.0
220
0.0
230
1.0
100
AcDbArc
 50
179.999991
 51
359.999983
  0
LINE
  5
496
100
AcDbEntity
  8
0
370
    35
390
0
 62
     7
 48
0.00625
100
AcDbLine
 10
-262.312378
 20
387.650024
 30
0.0
 11
-262.312378
 21
387.400024
 31
0.0
210
0.0
220
0.0
230
1.0
  0
ARC
  5
497
100
AcDbEntity
  8
0
370
    35
390
0
 62
     7
100
AcDbCircle
 10
-260.562378
 20
387.650024
 30
0.0
 40
1.75
210
0.0
220
0.0
230
1.0
100
AcDbArc
 50
0.0
 51
179.999991
  0
LINE
  5
498
100
AcDbEntity
  8
0
370
    35
390
0
 62
     7
 48
0.00625
100
AcDbLine
 10
-258.812378
 20
387.400024
 30
0.0
 11
-258.812378
 21
387.650024
 31
0.0
210
0.0
220
0.0
230
1.0
  0
ARC
  5
499
100
AcDbEntity
  8
0
370
    35
390
0
 62
     7
100
AcDbCircle
 10
-254.862366
 20
387.700012
 30
0.0
 40
3.0
210
0.0
220
0.0
230
1.0
100
AcDbArc
 50
269.999997
 51
360.0
  0
LINE
  5
49A
100
AcDbEntity
  8
0
370
    35
390
0
 62
     7
 48
0.021249
100
AcDbLine
 10
-269.26239
 20
392.099976
 30
0.0
 11
-269.26239
 21
391.25
 31
0.0
210
0.0
220
0.0
230
1.0
  0
LINE
  5
49B
100
AcDbEntity
  8
0
370
    35
390
0
 62
     7
 48
0.15125
100
AcDbLine
 10
-269.26239
 20
385.200012
 30
0.0
 11
-269.26239
 21
391.25
 31
0.0
210
0.0
220
0.0
230
1.0
  0
ARC
  5
49C
100
AcDbEntity
  8
0
370
    35
390
0
 62
     7
100
AcDbCircle
 10
-254.26236
 20
404.200012
 30
0.0
 40
2.4
210
0.0
220
0.0
230
1.0
100
AcDbArc
 50
0.0
 51
80.07181
  0
LINE
  5
49D
100
AcDbEntity
  8
0
370
    35
390
0
 62
     7
 48
0.32
100
AcDbLine
 10
-251.862366
 20
387.700012
 30
0.0
 11
-251.862366
 21
400.5
 31
0.0
210
0.0
220
0.0
230
1.0
  0
LINE
  5
49E
100
AcDbEntity
  8
0
370
    35
390
0
 62
     7
 48
0.0925
100
AcDbLine
 10
-251.862366
 20
400.5
 30
0.0
 11
-251.862366
 21
404.200012
 31
0.0
210
0.0
220
0.0
230
1.0
  0
ARC
  5
49F
100
AcDbEntity
  8
0
370
    35
390
0
 62
     7
100
AcDbCircle
 10
-253.562363
 20
384.14502
 30
0.0
 40
0.5
210
0.0
220
0.0
230
1.0
100
AcDbArc
 50
100.286561
 51
179.999991
  0
LINE
  5
4A0
100
AcDbEntity
  8
0
370
    35
390
0
 62
     7
 48
0.031125
100
AcDbLine
 10
-254.062363
 20
382.900024
 30
0.0
 11
-254.062363
 21
384.14502
 31
0.0
210
0.0
220
0.0
230
1.0
  0
ARC
  5
4A1
100
AcDbEntity
  8
0
370
    35
390
0
 62
     7
100
AcDbCircle
 10
-253.562363
 20
382.900024
 30
0.0
 40
0.5
210
0.0
220
0.0
230
1.0
100
AcDbArc
 50
179.999991
 51
269.999997
  0
LINE
  5
4A2
100
AcDbEntity
  8
0
370
    35
390
0
 62
     7
 48
0.00202
100
AcDbLine
 10
-263.26593
 20
410.046448
 30
0.0
 11
-263.208801
 21
410.103577
 31
0.0
210
0.0
220
0.0
230
1.0
  0
ARC
  5
4A3
100
AcDbEntity
  8
0
370
    35
390
0
 62
     7
100
AcDbCircle
 10
-262.855286
 20
409.75
 30
0.0
 40
0.5
210
0.0
220
0.0
230
1.0
100
AcDbArc
 50
90.000003
 51
135.0
  0
LINE
  5
4A4
100
AcDbEntity
  8
0
370
    35
390
0
 62
     7
 48
0.114645
100
AcDbLine
 10
-258.26947
 20
410.25
 30
0.0
 11
-262.855286
 21
410.25
 31
0.0
210
0.0
220
0.0
230
1.0
  0
ARC
  5
4A5
100
AcDbEntity
  8
0
370
    35
390
0
 62
     7
100
AcDbCircle
 10
-258.26947
 20
409.75
 30
0.0
 40
0.5
210
0.0
220
0.0
230
1.0
100
AcDbArc
 50
45.000001
 51
90.000003
  0
LINE
  5
4A6
100
AcDbEntity
  8
0
370
    35
390
0
 62
     7
 48
0.002019
100
AcDbLine
 10
-257.858826
 20
410.046448
 30
0.0
 11
-257.915894
 21
410.103577
 31
0.0
210
0.0
220
0.0
230
1.0
  0
ARC
  5
4A7
100
AcDbEntity
  8
0
370
    35
390
0
 62
     7
100
AcDbCircle
 10
-254.562363
 20
404.349976
 30
0.0
 40
3.0
210
0.0
220
0.0
230
1.0
100
AcDbArc
 50
90.000003
 51
179.999991
  0
LINE
  5
4A8
100
AcDbEntity
  8
0
370
    35
390
0
 62
     7
 48
0.055
100
AcDbLine
 10
-266.562378
 20
390.75
 30
0.0
 11
-268.76239
 21
390.75
 31
0.0
210
0.0
220
0.0
230
1.0
  0
ARC
  5
4A9
100
AcDbEntity
  8
0
370
    35
390
0
 62
     7
100
AcDbCircle
 10
-266.562378
 20
387.75
 30
0.0
 40
3.0
210
0.0
220
0.0
230
1.0
100
AcDbArc
 50
0.0
 51
90.000003
  0
LINE
  5
4AA
100
AcDbEntity
  8
0
370
    35
390
0
 62
     7
 48
0.06375
100
AcDbLine
 10
-263.562378
 20
387.75
 30
0.0
 11
-263.562378
 21
385.200012
 31
0.0
210
0.0
220
0.0
230
1.0
  0
LINE
  5
4AB
100
AcDbEntity
  8
0
370
    35
390
0
 62
     7
 48
0.205
100
AcDbLine
 10
-263.062378
 20
384.700012
 30
0.0
 11
-254.862366
 21
384.700012
 31
0.0
210
0.0
220
0.0
230
1.0
  0
LINE
  5
4AC
100
AcDbEntity
  8
0
370
    35
390
0
 62
     7
 48
0.055
100
AcDbLine
 10
-254.562363
 20
401.0
 30
0.0
 11
-252.362366
 21
401.0
 31
0.0
210
0.0
220
0.0
230
1.0
  0
ARC
  5
4AD
100
AcDbEntity
  8
0
370
    35
390
0
 62
     7
100
AcDbCircle
 10
-254.562363
 20
404.0
 30
0.0
 40
3.0
210
0.0
220
0.0
230
1.0
100
AcDbArc
 50
179.999991
 51
269.999997
  0
LINE
  5
4AE
100
AcDbEntity
  8
0
370
    35
390
0
 62
     7
 48
0.008749
100
AcDbLine
 10
-257.562378
 20
404.0
 30
0.0
 11
-257.562378
 21
404.349976
 31
0.0
210
0.0
220
0.0
230
1.0
  0
CIRCLE
  5
4AF
100
AcDbEntity
  8
0
370
    35
390
0
 62
     7
100
AcDbCircle
 10
-260.562378
 20
407.5
 30
0.0
 40
2.05
210
0.0
220
0.0
230
1.0
  0
ARC
  5
4B0
100
AcDbEntity
  8
0
370
    35
390
0
 62
     7
100
AcDbCircle
 10
-260.562378
 20
387.400024
 30
0.0
 40
1.55
210
0.0
220
0.0
230
1.0
100
AcDbArc
 50
179.999991
 51
360.0
  0
LINE
  5
4B1
100
AcDbEntity
  8
0
370
    35
390
0
 62
     7
 48
0.00625
100
AcDbLine
 10
-262.112366
 20
387.650024
 30
0.0
 11
-262.112366
 21
387.400024
 31
0.0
210
0.0
220
0.0
230
1.0
  0
ARC
  5
4B2
100
AcDbEntity
  8
0
370
    35
390
0
 62
     7
100
AcDbCircle
 10
-260.562378
 20
387.650024
 30
0.0
 40
1.55
210
0.0
220
0.0
230
1.0
100
AcDbArc
 50
0.0
 51
179.999991
  0
LINE
  5
4B3
100
AcDbEntity
  8
0
370
    35
390
0
 62
     7
 48
0.00625
100
AcDbLine
 10
-259.01239
 20
387.400024
 30
0.0
 11
-259.01239
 21
387.650024
 31
0.0
210
0.0
220
0.0
230
1.0
  0
LINE
  5
4B4
100
AcDbEntity
  8
0
370
    35
390
0
 62
     7
 48
0.1425
100
AcDbLine
 10
-268.76239
 20
384.700012
 30
0.0
 11
-263.062378
 21
384.700012
 31
0.0
210
0.0
220
0.0
230
1.0
  0
ARC
  5
4B5
100
AcDbEntity
  8
0
370
    35
390
0
 62
     7
100
AcDbCircle
 10
-268.76239
 20
385.200012
 30
0.0
 40
0.5
210
0.0
220
0.0
230
1.0
100
AcDbArc
 50
179.999991
 51
269.999997
  0
ARC
  5
4B6
100
AcDbEntity
  8
0
370
    35
390
0
 62
     7
100
AcDbCircle
 10
-268.76239
 20
391.25
 30
0.0
 40
0.5
210
0.0
220
0.0
230
1.0
100
AcDbArc
 50
179.999991
 51
269.999997
  0
ARC
  5
4B7
100
AcDbEntity
  8
0
370
    35
390
0
 62
     7
100
AcDbCircle
 10
-252.362366
 20
400.5
 30
0.0
 40
0.5
210
0.0
220
0.0
230
1.0
100
AcDbArc
 50
0.0
 51
90.000003
  0
ARC
  5
4B8
100
AcDbEntity
  8
0
370
    35
390
0
 62
     7
100
AcDbCircle
 10
-263.062378
 20
385.200012
 30
0.0
 40
0.5
210
0.0
220
0.0
230
1.0
100
AcDbArc
 50
179.999991
 51
269.999997
  0
CIRCLE
  5
4B9
100
AcDbEntity
  8
0
370
    35
390
0
 62
     7
100
AcDbCircle
 10
-254.562363
 20
404.0
 30
0.0
 40
2.25
210
0.0
220
0.0
230
1.0
  0
CIRCLE
  5
4BA
100
AcDbEntity
  8
0
370
    35
390
0
 62
     7
100
AcDbCircle
 10
-266.562378
 20
387.400024
 30
0.0
 40
2.25
210
0.0
220
0.0
230
1.0
  0
CIRCLE
  5
4BB
100
AcDbEntity
  8
0
370
    35
390
0
 62
     7
100
AcDbCircle
 10
-254.562363
 20
404.0
 30
0.0
 40
2.0
210
0.0
220
0.0
230
1.0
  0
CIRCLE
  5
4BC
100
AcDbEntity
  8
0
370
    35
390
0
 62
     7
100
AcDbCircle
 10
-266.562378
 20
387.400024
 30
0.0
 40
2.0
210
0.0
220
0.0
230
1.0
  0
LINE
  5
4BD
100
AcDbEntity
  8
0
370
    35
390
0
 62
     7
 48
0.02875
100
AcDbLine
 10
-255.712357
 20
404.0
 30
0.0
 11
-255.14447
 21
405.0
 31
0.0
210
0.0
220
0.0
230
1.0
  0
LINE
  5
4BE
100
AcDbEntity
  8
0
370
    35
390
0
 62
     7
 48
0.02875
100
AcDbLine
 10
-255.14447
 20
403.0
 30
0.0
 11
-255.712357
 21
404.0
 31
0.0
210
0.0
220
0.0
230
1.0
  0
LINE
  5
4BF
100
AcDbEntity
  8
0
370
    35
390
0
 62
     7
 48
0.029105
100
AcDbLine
 10
-253.980255
 20
403.0
 30
0.0
 11
-255.14447
 21
403.0
 31
0.0
210
0.0
220
0.0
230
1.0
  0
LINE
  5
4C0
100
AcDbEntity
  8
0
370
    35
390
0
 62
     7
 48
0.02875
100
AcDbLine
 10
-253.412369
 20
404.0
 30
0.0
 11
-253.980255
 21
403.0
 31
0.0
210
0.0
220
0.0
230
1.0
  0
LINE
  5
4C1
100
AcDbEntity
  8
0
370
    35
390
0
 62
     7
 48
0.02875
100
AcDbLine
 10
-253.980255
 20
405.0
 30
0.0
 11
-253.412369
 21
404.0
 31
0.0
210
0.0
220
0.0
230
1.0
  0
LINE
  5
4C2
100
AcDbEntity
  8
0
370
    35
390
0
 62
     7
 48
0.029105
100
AcDbLine
 10
-255.14447
 20
405.0
 30
0.0
 11
-253.980255
 21
405.0
 31
0.0
210
0.0
220
0.0
230
1.0
  0
LINE
  5
4C3
100
AcDbEntity
  8
0
370
    35
390
0
 62
     7
 48
0.02875
100
AcDbLine
 10
-267.712341
 20
387.400024
 30
0.0
 11
-267.14447
 21
388.400024
 31
0.0
210
0.0
220
0.0
230
1.0
  0
LINE
  5
4C4
100
AcDbEntity
  8
0
370
    35
390
0
 62
     7
 48
0.02875
100
AcDbLine
 10
-267.14447
 20
386.400024
 30
0.0
 11
-267.712341
 21
387.400024
 31
0.0
210
0.0
220
0.0
230
1.0
  0
LINE
  5
4C5
100
AcDbEntity
  8
0
370
    35
390
0
 62
     7
 48
0.029106
100
AcDbLine
 10
-265.980225
 20
386.400024
 30
0.0
 11
-267.14447
 21
386.400024
 31
0.0
210
0.0
220
0.0
230
1.0
  0
LINE
  5
4C6
100
AcDbEntity
  8
0
370
    35
390
0
 62
     7
 48
0.02875
100
AcDbLine
 10
-265.412354
 20
387.400024
 30
0.0
 11
-265.980225
 21
386.400024
 31
0.0
210
0.0
220
0.0
230
1.0
  0
LINE
  5
4C7
100
AcDbEntity
  8
0
370
    35
390
0
 62
     7
 48
0.02875
100
AcDbLine
 10
-265.980225
 20
388.400024
 30
0.0
 11
-265.412354
 21
387.400024
 31
0.0
210
0.0
220
0.0
230
1.0
  0
LINE
  5
4C8
100
AcDbEntity
  8
0
370
    35
390
0
 62
     7
 48
0.029106
100
AcDbLine
 10
-267.14447
 20
388.400024
 30
0.0
 11
-265.980225
 21
388.400024
 31
0.0
210
0.0
220
0.0
230
1.0
  0
LINE
  5
4C9
100
AcDbEntity
  8
0
370
    35
390
0
 62
     7
 48
0.000151
100
AcDbLine
 10
-251.862366
 20
404.800293
 30
0.0
 11
-251.862366
 21
404.806335
 31
0.0
210
0.0
220
0.0
230
1.0
  0
LINE
  5
4CA
100
AcDbEntity
  8
0
370
    35
390
0
 62
     7
 48
0.000302
100
AcDbLine
 10
-251.862366
 20
406.0
 30
0.0
 11
-251.862732
 21
405.987915
 31
0.0
210
0.0
220
0.0
230
1.0
  0
LINE
  5
4CB
100
AcDbEntity
  8
0
370
    35
390
0
 62
     7
 48
0.000302
100
AcDbLine
 10
-251.862732
 20
385.412109
 30
0.0
 11
-251.862366
 21
385.400024
 31
0.0
210
0.0
220
0.0
230
1.0
  0
LINE
  5
4CC
100
AcDbEntity
  8
0
370
    35
390
0
 62
     7
 48
0.000669
100
AcDbLine
 10
-251.863083
 20
400.526733
 30
0.0
 11
-251.862366
 21
400.5
 31
0.0
210
0.0
220
0.0
230
1.0
  0
LINE
  5
4CD
100
AcDbEntity
  8
0
370
    35
390
0
 62
     7
 48
0.325
100
AcDbLine
 10
-246.362366
 20
437.900024
 30
0.0
 11
-246.362366
 21
424.900024
 31
0.0
210
0.0
220
0.0
230
1.0
  0
LINE
  5
4CE
100
AcDbEntity
  8
0
370
    35
390
0
 62
     7
 48
0.005
100
AcDbLine
 10
-246.162369
 20
437.900024
 30
0.0
 11
-246.362366
 21
437.900024
 31
0.0
210
0.0
220
0.0
230
1.0
  0
LINE
  5
4CF
100
AcDbEntity
  8
0
370
    35
390
0
 62
     7
 48
0.005
100
AcDbLine
 10
-246.162369
 20
424.900024
 30
0.0
 11
-246.362366
 21
424.900024
 31
0.0
210
0.0
220
0.0
230
1.0
  0
LINE
  5
4D0
100
AcDbEntity
  8
0
370
    35
390
0
 62
     7
 48
0.464999
100
AcDbLine
 10
-246.162369
 20
437.900024
 30
0.0
 11
-246.162369
 21
456.5
 31
0.0
210
0.0
220
0.0
230
1.0
  0
LINE
  5
4D1
100
AcDbEntity
  8
0
370
    35
390
0
 62
     7
 48
0.0025
100
AcDbLine
 10
-246.062363
 20
456.5
 30
0.0
 11
-246.162369
 21
456.5
 31
0.0
210
0.0
220
0.0
230
1.0
  0
LINE
  5
4D2
100
AcDbEntity
  8
0
370
    35
390
0
 62
     7
 48
0.0625
100
AcDbLine
 10
-246.062363
 20
459.0
 30
0.0
 11
-246.062363
 21
456.5
 31
0.0
210
0.0
220
0.0
230
1.0
  0
ARC
  5
4D3
100
AcDbEntity
  8
0
370
    35
390
0
 62
     7
100
AcDbCircle
 10
-246.562363
 20
459.0
 30
0.0
 40
0.5
210
0.0
220
0.0
230
1.0
100
AcDbArc
 50
0.0
 51
90.000003
  0
LINE
  5
4D4
100
AcDbEntity
  8
0
370
    35
390
0
 62
     7
 48
0.075
100
AcDbLine
 10
-246.562363
 20
459.5
 30
0.0
 11
-249.562363
 21
459.5
 31
0.0
210
0.0
220
0.0
230
1.0
  0
ARC
  5
4D5
100
AcDbEntity
  8
0
370
    35
390
0
 62
     7
100
AcDbCircle
 10
-249.562363
 20
459.0
 30
0.0
 40
0.5
210
0.0
220
0.0
230
1.0
100
AcDbArc
 50
90.000003
 51
179.999991
  0
ARC
  5
4D6
100
AcDbEntity
  8
0
370
    35
390
0
 62
     7
100
AcDbCircle
 10
-254.062363
 20
411.5
 30
0.0
 40
0.5
210
0.0
220
0.0
230
1.0
100
AcDbArc
 50
179.999991
 51
269.999997
  0
LINE
  5
4D7
100
AcDbEntity
  8
0
370
    35
390
0
 62
     7
 48
0.0625
100
AcDbLine
 10
-251.562363
 20
411.0
 30
0.0
 11
-254.062363
 21
411.0
 31
0.0
210
0.0
220
0.0
230
1.0
  0
ARC
  5
4D8
100
AcDbEntity
  8
0
370
    35
390
0
 62
     7
100
AcDbCircle
 10
-251.562363
 20
411.5
 30
0.0
 40
0.5
210
0.0
220
0.0
230
1.0
100
AcDbArc
 50
269.999997
 51
360.0
  0
LINE
  5
4D9
100
AcDbEntity
  8
0
370
    35
390
0
 62
     7
 48
0.125
100
AcDbLine
 10
-251.062363
 20
416.5
 30
0.0
 11
-251.062363
 21
411.5
 31
0.0
210
0.0
220
0.0
230
1.0
  0
ARC
  5
4DA
100
AcDbEntity
  8
0
370
    35
390
0
 62
     7
100
AcDbCircle
 10
-250.562363
 20
416.5
 30
0.0
 40
0.5
210
0.0
220
0.0
230
1.0
100
AcDbArc
 50
90.000003
 51
179.999991
  0
LINE
  5
4DB
100
AcDbEntity
  8
0
370
    35
390
0
 62
     7
 48
0.1
100
AcDbLine
 10
-246.562363
 20
417.0
 30
0.0
 11
-250.562363
 21
417.0
 31
0.0
210
0.0
220
0.0
230
1.0
  0
ARC
  5
4DC
100
AcDbEntity
  8
0
370
    35
390
0
 62
     7
100
AcDbCircle
 10
-246.562363
 20
417.5
 30
0.0
 40
0.5
210
0.0
220
0.0
230
1.0
100
AcDbArc
 50
269.999997
 51
360.0
  0
LINE
  5
4DD
100
AcDbEntity
  8
0
370
    35
390
0
 62
     7
 48
0.08
100
AcDbLine
 10
-246.062363
 20
420.700012
 30
0.0
 11
-246.062363
 21
417.5
 31
0.0
210
0.0
220
0.0
230
1.0
  0
LINE
  5
4DE
100
AcDbEntity
  8
0
370
    35
390
0
 62
     7
 48
0.0025
100
AcDbLine
 10
-246.162369
 20
420.700012
 30
0.0
 11
-246.062363
 21
420.700012
 31
0.0
210
0.0
220
0.0
230
1.0
  0
LINE
  5
4DF
100
AcDbEntity
  8
0
370
    35
390
0
 62
     7
 48
0.105
100
AcDbLine
 10
-246.162369
 20
420.700012
 30
0.0
 11
-246.162369
 21
424.900024
 31
0.0
210
0.0
220
0.0
230
1.0
  0
LINE
  5
4E0
100
AcDbEntity
  8
0
370
    35
390
0
 62
     7
 48
0.445
100
AcDbLine
 10
-247.062363
 20
459.0
 30
0.0
 11
-264.862366
 21
459.0
 31
0.0
210
0.0
220
0.0
230
1.0
  0
ARC
  5
4E1
100
AcDbEntity
  8
0
370
    35
390
0
 62
     7
100
AcDbCircle
 10
-247.062363
 20
458.5
 30
0.0
 40
0.5
210
0.0
220
0.0
230
1.0
100
AcDbArc
 50
0.0
 51
90.000003
  0
LINE
  5
4E2
100
AcDbEntity
  8
0
370
    35
390
0
 62
     7
100
AcDbLine
 10
-246.562363
 20
458.5
 30
0.0
 11
-246.562363
 21
418.0
 31
0.0
210
0.0
220
0.0
230
1.0
  0
ARC
  5
4E3
100
AcDbEntity
  8
0
370
    35
390
0
 62
     7
100
AcDbCircle
 10
-247.062363
 20
418.0
 30
0.0
 40
0.5
210
0.0
220
0.0
230
1.0
100
AcDbArc
 50
269.999997
 51
360.0
  0
LINE
  5
4E4
100
AcDbEntity
  8
0
370
    35
390
0
 62
     7
 48
0.0875
100
AcDbLine
 10
-250.562363
 20
417.5
 30
0.0
 11
-247.062363
 21
417.5
 31
0.0
210
0.0
220
0.0
230
1.0
  0
ARC
  5
4E5
100
AcDbEntity
  8
0
370
    35
390
0
 62
     7
100
AcDbCircle
 10
-250.562363
 20
416.5
 30
0.0
 40
1.0
210
0.0
220
0.0
230
1.0
100
AcDbArc
 50
90.000003
 51
179.999991
  0
LINE
  5
4E6
100
AcDbEntity
  8
0
370
    35
390
0
 62
     7
 48
0.1125
100
AcDbLine
 10
-251.562363
 20
416.5
 30
0.0
 11
-251.562363
 21
412.0
 31
0.0
210
0.0
220
0.0
230
1.0
  0
ARC
  5
4E7
100
AcDbEntity
  8
0
370
    35
390
0
 62
     7
100
AcDbCircle
 10
-252.062363
 20
412.0
 30
0.0
 40
0.5
210
0.0
220
0.0
230
1.0
100
AcDbArc
 50
269.999997
 51
360.0
  0
LINE
  5
4E8
100
AcDbEntity
  8
0
370
    35
390
0
 62
     7
 48
0.425
100
AcDbLine
 10
-269.062378
 20
411.5
 30
0.0
 11
-252.062363
 21
411.5
 31
0.0
210
0.0
220
0.0
230
1.0
  0
LINE
  5
4E9
100
AcDbEntity
  8
0
370
    35
390
0
 62
     7
 48
0.005
100
AcDbLine
 10
-250.562363
 20
459.200012
 30
0.0
 11
-250.562363
 21
459.0
 31
0.0
210
0.0
220
0.0
230
1.0
  0
ARC
  5
4EA
100
AcDbEntity
  8
0
370
    35
390
0
 62
     7
100
AcDbCircle
 10
-250.862366
 20
459.200012
 30
0.0
 40
0.3
210
0.0
220
0.0
230
1.0
100
AcDbArc
 50
0.0
 51
90.000003
  0
LINE
  5
4EB
100
AcDbEntity
  8
0
370
    35
390
0
 62
     7
 48
0.3675
100
AcDbLine
 10
-250.862366
 20
459.5
 30
0.0
 11
-265.562378
 21
459.5
 31
0.0
210
0.0
220
0.0
230
1.0
  0
ARC
  5
4EC
100
AcDbEntity
  8
0
370
    35
390
0
 62
     7
100
AcDbCircle
 10
-265.562378
 20
459.200012
 30
0.0
 40
0.3
210
0.0
220
0.0
230
1.0
100
AcDbArc
 50
90.000003
 51
179.999991
  0
LINE
  5
4ED
100
AcDbEntity
  8
0
370
    35
390
0
 62
     7
 48
0.08
100
AcDbLine
 10
-265.862366
 20
459.200012
 30
0.0
 11
-265.862366
 21
456.0
 31
0.0
210
0.0
220
0.0
230
1.0
  0
LINE
  5
4EE
100
AcDbEntity
  8
0
370
    35
390
0
 62
     7
 48
0.1425
100
AcDbLine
 10
-265.862366
 20
456.0
 30
0.0
 11
-271.562378
 21
456.0
 31
0.0
210
0.0
220
0.0
230
1.0
  0
LINE
  5
4EF
100
AcDbEntity
  8
0
370
    35
390
0
 62
     7
 48
0.028284
100
AcDbLine
 10
-271.562378
 20
456.0
 30
0.0
 11
-272.362366
 21
455.200012
 31
0.0
210
0.0
220
0.0
230
1.0
  0
ARC
  5
4F0
100
AcDbEntity
  8
0
370
    35
390
0
 62
     7
100
AcDbCircle
 10
-264.862366
 20
458.5
 30
0.0
 40
0.5
210
0.0
220
0.0
230
1.0
100
AcDbArc
 50
90.000003
 51
179.999991
  0
LINE
  5
4F1
100
AcDbEntity
  8
0
370
    35
390
0
 62
     7
 48
0.07
100
AcDbLine
 10
-265.362366
 20
458.5
 30
0.0
 11
-265.362366
 21
455.700012
 31
0.0
210
0.0
220
0.0
230
1.0
  0
ARC
  5
4F2
100
AcDbEntity
  8
0
370
    35
390
0
 62
     7
100
AcDbCircle
 10
-265.862366
 20
455.700012
 30
0.0
 40
0.5
210
0.0
220
0.0
230
1.0
100
AcDbArc
 50
269.999997
 51
360.0
  0
LINE
  5
4F3
100
AcDbEntity
  8
0
370
    35
390
0
 62
     7
 48
0.205
100
AcDbLine
 10
-265.862366
 20
455.200012
 30
0.0
 11
-274.062378
 21
455.200012
 31
0.0
210
0.0
220
0.0
230
1.0
  0
ARC
  5
4F4
100
AcDbEntity
  8
0
370
    35
390
0
 62
     7
100
AcDbCircle
 10
-274.062378
 20
454.700012
 30
0.0
 40
0.5
210
0.0
220
0.0
230
1.0
100
AcDbArc
 50
90.000003
 51
179.999991
  0
LINE
  5
4F5
100
AcDbEntity
  8
0
370
    35
390
0
 62
     7
100
AcDbLine
 10
-274.562378
 20
418.0
 30
0.0
 11
-274.562378
 21
454.700012
 31
0.0
210
0.0
220
0.0
230
1.0
  0
ARC
  5
4F6
100
AcDbEntity
  8
0
370
    35
390
0
 62
     7
100
AcDbCircle
 10
-274.062378
 20
418.0
 30
0.0
 40
0.5
210
0.0
220
0.0
230
1.0
100
AcDbArc
 50
179.999991
 51
269.999997
  0
LINE
  5
4F7
100
AcDbEntity
  8
0
370
    35
390
0
 62
     7
 48
0.0875
100
AcDbLine
 10
-274.062378
 20
417.5
 30
0.0
 11
-270.562378
 21
417.5
 31
0.0
210
0.0
220
0.0
230
1.0
  0
ARC
  5
4F8
100
AcDbEntity
  8
0
370
    35
390
0
 62
     7
100
AcDbCircle
 10
-270.562378
 20
416.5
 30
0.0
 40
1.0
210
0.0
220
0.0
230
1.0
100
AcDbArc
 50
0.0
 51
90.000003
  0
LINE
  5
4F9
100
AcDbEntity
  8
0
370
    35
390
0
 62
     7
 48
0.1125
100
AcDbLine
 10
-269.562378
 20
412.0
 30
0.0
 11
-269.562378
 21
416.5
 31
0.0
210
0.0
220
0.0
230
1.0
  0
ARC
  5
4FA
100
AcDbEntity
  8
0
370
    35
390
0
 62
     7
100
AcDbCircle
 10
-269.062378
 20
412.0
 30
0.0
 40
0.5
210
0.0
220
0.0
230
1.0
100
AcDbArc
 50
179.999991
 51
269.999997
  0
CIRCLE
  5
4FB
100
AcDbEntity
  8
0
370
    35
390
0
 62
     7
100
AcDbCircle
 10
-260.562378
 20
420.5
 30
0.0
 40
2.067
210
0.0
220
0.0
230
1.0
  0
LINE
  5
4FC
100
AcDbEntity
  8
0
370
    35
390
0
 62
     7
 48
0.0075
100
AcDbLine
 10
-272.562378
 20
455.5
 30
0.0
 11
-272.562378
 21
455.200012
 31
0.0
210
0.0
220
0.0
230
1.0
  0
LINE
  5
4FD
100
AcDbEntity
  8
0
370
    35
390
0
 62
     7
 48
0.05
100
AcDbLine
 10
-272.562378
 20
455.5
 30
0.0
 11
-274.562378
 21
455.5
 31
0.0
210
0.0
220
0.0
230
1.0
  0
ARC
  5
4FE
100
AcDbEntity
  8
0
370
    35
390
0
 62
     7
100
AcDbCircle
 10
-274.562378
 20
455.0
 30
0.0
 40
0.5
210
0.0
220
0.0
230
1.0
100
AcDbArc
 50
90.000003
 51
179.999991
  0
LINE
  5
4FF
100
AcDbEntity
  8
0
370
    35
390
0
 62
     7
100
AcDbLine
 10
-275.062378
 20
455.0
 30
0.0
 11
-275.062378
 21
417.5
 31
0.0
210
0.0
220
0.0
230
1.0
  0
ARC
  5
500
100
AcDbEntity
  8
0
370
    35
390
0
 62
     7
100
AcDbCircle
 10
-274.562378
 20
417.5
 30
0.0
 40
0.5
210
0.0
220
0.0
230
1.0
100
AcDbArc
 50
179.999991
 51
269.999997
  0
LINE
  5
501
100
AcDbEntity
  8
0
370
    35
390
0
 62
     7
 48
0.1
100
AcDbLine
 10
-270.562378
 20
417.0
 30
0.0
 11
-274.562378
 21
417.0
 31
0.0
210
0.0
220
0.0
230
1.0
  0
ARC
  5
502
100
AcDbEntity
  8
0
370
    35
390
0
 62
     7
100
AcDbCircle
 10
-270.562378
 20
416.5
 30
0.0
 40
0.5
210
0.0
220
0.0
230
1.0
100
AcDbArc
 50
0.0
 51
90.000003
  0
LINE
  5
503
100
AcDbEntity
  8
0
370
    35
390
0
 62
     7
 48
0.125
100
AcDbLine
 10
-270.062378
 20
411.5
 30
0.0
 11
-270.062378
 21
416.5
 31
0.0
210
0.0
220
0.0
230
1.0
  0
ARC
  5
504
100
AcDbEntity
  8
0
370
    35
390
0
 62
     7
100
AcDbCircle
 10
-269.562378
 20
411.5
 30
0.0
 40
0.5
210
0.0
220
0.0
230
1.0
100
AcDbArc
 50
179.999991
 51
269.999997
  0
LINE
  5
505
100
AcDbEntity
  8
0
370
    35
390
0
 62
     7
 48
0.0625
100
AcDbLine
 10
-269.562378
 20
411.0
 30
0.0
 11
-267.062378
 21
411.0
 31
0.0
210
0.0
220
0.0
230
1.0
  0
ARC
  5
506
100
AcDbEntity
  8
0
370
    35
390
0
 62
     7
100
AcDbCircle
 10
-267.062378
 20
411.5
 30
0.0
 40
0.5
210
0.0
220
0.0
230
1.0
100
AcDbArc
 50
269.999997
 51
360.0
  0
LINE
  5
507
100
AcDbEntity
  8
0
370
    35
390
0
 62
     7
 48
0.0025
100
AcDbLine
 10
-251.062363
 20
411.5
 30
0.0
 11
-250.962357
 21
411.5
 31
0.0
210
0.0
220
0.0
230
1.0
  0
LINE
  5
508
100
AcDbEntity
  8
0
370
    35
390
0
 62
     7
 48
0.0125
100
AcDbLine
 10
-250.962357
 20
411.5
 30
0.0
 11
-250.962357
 21
412.0
 31
0.0
210
0.0
220
0.0
230
1.0
  0
LINE
  5
509
100
AcDbEntity
  8
0
370
    35
390
0
 62
     7
 48
0.1
100
AcDbLine
 10
-250.962357
 20
416.0
 30
0.0
 11
-250.962357
 21
412.0
 31
0.0
210
0.0
220
0.0
230
1.0
  0
LINE
  5
50A
100
AcDbEntity
  8
0
370
    35
390
0
 62
     7
 48
0.0025
100
AcDbLine
 10
-251.062363
 20
416.5
 30
0.0
 11
-250.962357
 21
416.5
 31
0.0
210
0.0
220
0.0
230
1.0
  0
LINE
  5
50B
100
AcDbEntity
  8
0
370
    35
390
0
 62
     7
 48
0.0125
100
AcDbLine
 10
-250.962357
 20
416.0
 30
0.0
 11
-250.962357
 21
416.5
 31
0.0
210
0.0
220
0.0
230
1.0
  0
LINE
  5
50C
100
AcDbEntity
  8
0
370
    35
390
0
 62
     7
 48
0.003259
100
AcDbLine
 10
-250.862366
 20
412.0
 30
0.0
 11
-250.862366
 21
412.130371
 31
0.0
210
0.0
220
0.0
230
1.0
  0
LINE
  5
50D
100
AcDbEntity
  8
0
370
    35
390
0
 62
     7
 48
0.0875
100
AcDbLine
 10
-250.862366
 20
415.630371
 30
0.0
 11
-250.862366
 21
412.130371
 31
0.0
210
0.0
220
0.0
230
1.0
  0
LINE
  5
50E
100
AcDbEntity
  8
0
370
    35
390
0
 62
     7
 48
0.0025
100
AcDbLine
 10
-250.962357
 20
415.900024
 30
0.0
 11
-250.862366
 21
415.900024
 31
0.0
210
0.0
220
0.0
230
1.0
  0
LINE
  5
50F
100
AcDbEntity
  8
0
370
    35
390
0
 62
     7
 48
0.006741
100
AcDbLine
 10
-250.862366
 20
415.630371
 30
0.0
 11
-250.862366
 21
415.900024
 31
0.0
210
0.0
220
0.0
230
1.0
  0
LINE
  5
510
100
AcDbEntity
  8
0
370
    35
390
0
 62
     7
 48
0.0025
100
AcDbLine
 10
-250.962357
 20
412.0
 30
0.0
 11
-250.862366
 21
412.0
 31
0.0
210
0.0
220
0.0
230
1.0
  0
LINE
  5
511
100
AcDbEntity
  8
0
370
    35
390
0
 62
     7
 48
0.0025
100
AcDbLine
 10
-250.962357
 20
412.0
 30
0.0
 11
-250.862366
 21
412.0
 31
0.0
210
0.0
220
0.0
230
1.0
  0
LINE
  5
512
100
AcDbEntity
  8
0
370
    35
390
0
 62
     7
 48
0.1
100
AcDbLine
 10
-187.437714
 20
403.25
 30
0.0
 11
-183.437714
 21
403.25
 31
0.0
210
0.0
220
0.0
230
1.0
  0
LINE
  5
513
100
AcDbEntity
  8
0
370
    35
390
0
 62
     7
 48
0.1
100
AcDbLine
 10
-183.437714
 20
398.75
 30
0.0
 11
-187.437714
 21
398.75
 31
0.0
210
0.0
220
0.0
230
1.0
  0
ARC
  5
514
100
AcDbEntity
  8
0
370
    35
390
0
 62
     7
100
AcDbCircle
 10
-183.437714
 20
401.0
 30
0.0
 40
2.25
210
0.0
220
0.0
230
1.0
100
AcDbArc
 50
269.999997
 51
90.000003
  0
ARC
  5
515
100
AcDbEntity
  8
0
370
    35
390
0
 62
     7
100
AcDbCircle
 10
-187.437714
 20
401.0
 30
0.0
 40
2.25
210
0.0
220
0.0
230
1.0
100
AcDbArc
 50
90.000003
 51
269.999997
  0
LINE
  5
516
100
AcDbEntity
  8
0
370
    35
390
0
 62
     7
 48
0.1
100
AcDbLine
 10
-131.437714
 20
403.25
 30
0.0
 11
-127.437714
 21
403.25
 31
0.0
210
0.0
220
0.0
230
1.0
  0
LINE
  5
517
100
AcDbEntity
  8
0
370
    35
390
0
 62
     7
 48
0.1
100
AcDbLine
 10
-127.437714
 20
398.75
 30
0.0
 11
-131.437714
 21
398.75
 31
0.0
210
0.0
220
0.0
230
1.0
  0
ARC
  5
518
100
AcDbEntity
  8
0
370
    35
390
0
 62
     7
100
AcDbCircle
 10
-127.437714
 20
401.0
 30
0.0
 40
2.25
210
0.0
220
0.0
230
1.0
100
AcDbArc
 50
269.999997
 51
90.000003
  0
ARC
  5
519
100
AcDbEntity
  8
0
370
    35
390
0
 62
     7
100
AcDbCircle
 10
-131.437714
 20
401.0
 30
0.0
 40
2.25
210
0.0
220
0.0
230
1.0
100
AcDbArc
 50
90.000003
 51
269.999997
  0
ENDSEC
  0
SECTION
  2
OBJECTS
  0
DICTIONARY
  5
19
100
AcDbDictionary
280
     0
281
     1
  3
ACAD_GROUP
350
1A
  3
ACAD_MLINESTYLE
350
1B
  3
ACAD_LAYOUT
350
1E
  3
ACAD_PLOTSETTINGS
350
22
  3
ACAD_PLOTSTYLENAME
350
1F
  3
ACAD_WIPEOUT_VARS
350
23
  0
DICTIONARY
  5
1A
102
{ACAD_REACTORS
330
19
102
}
100
AcDbDictionary
280
     0
281
     1
  0
DICTIONARY
  5
1B
102
{ACAD_REACTORS
330
19
102
}
100
AcDbDictionary
280
     0
281
     1
  3
Standard
350
1C
  0
MLINESTYLE
  5
1C
102
{ACAD_REACTORS
330
1B
102
}
100
AcDbMlineStyle
  2
Standard
 70
     0
  3

 62
     0
 51
90.0
 52
90.0
 71
     2
 49
0.5
 62
   256
  6
ByLayer
 49
-0.5
 62
   256
  6
ByLayer
  0
ACDBDICTIONARYWDFLT
  5
1F
102
{ACAD_REACTORS
330
19
102
}
100
AcDbDictionary
281
     1
  3
Normal
350
1D
100
AcDbDictionaryWithDefault
340
1D
  0
ACDBPLACEHOLDER
  5
1D
102
{ACAD_REACTORS
330
1F
102
}
  0
LAYOUT
  5
20
102
{ACAD_REACTORS
330
1E
102
}
100
AcDbPlotSettings
  1

  2

  4

  6

 40
0.0
 41
0.0
 42
0.0
 43
0.0
 44
0.0
 45
0.0
 46
0.0
 47
0.0
 48
0.0
 49
0.0
140
0.0
141
0.0
142
1.0
143
1.0
 70
  1024
 72
     0
 73
     0
 74
     0
  7

 75
     0
147
1.0
148
0.0
149
0.0
100
AcDbLayout
  1
Model
 70
     0
 71
     0
 10
0.0
 20
0.0
 11
0.0
 21
0.0
 12
0.0
 22
0.0
 32
0.0
 14
0.0
 24
0.0
 34
0.0
 15
0.0
 25
0.0
 35
0.0
146
0.0
 13
0.0
 23
0.0
 33
0.0
 16
0.0
 26
0.0
 36
0.0
 17
0.0
 27
0.0
 37
0.0
 76
     0
330
A
331
0
345
0
346
0
  0
LAYOUT
  5
21
102
{ACAD_REACTORS
330
1E
102
}
100
AcDbPlotSettings
  1

  2

  4

  6

 40
0.0
 41
0.0
 42
0.0
 43
0.0
 44
0.0
 45
0.0
 46
0.0
 47
0.0
 48
0.0
 49
0.0
140
0.0
141
0.0
142
1.0
143
1.0
 70
     0
 72
     0
 73
     0
 74
     0
  7

 75
     0
147
1.0
148
0.0
149
0.0
100
AcDbLayout
  1
Layout1
 70
     0
 71
     0
 10
0.0
 20
0.0
 11
0.0
 21
0.0
 12
0.0
 22
0.0
 32
0.0
 14
0.0
 24
0.0
 34
0.0
 15
0.0
 25
0.0
 35
0.0
146
0.0
 13
0.0
 23
0.0
 33
0.0
 16
0.0
 26
0.0
 36
0.0
 17
0.0
 27
0.0
 37
0.0
 76
     0
330
B
331
0
345
0
346
0
  0
DICTIONARY
  5
1E
102
{ACAD_REACTORS
330
19
102
}
100
AcDbDictionary
280
     0
281
     1
  3
Layout1
350
21
  3
Model
350
20
  0
DICTIONARY
  5
22
102
{ACAD_REACTORS
330
19
102
}
100
AcDbDictionary
280
     0
281
     1
  0
WIPEOUTVARIABLES
  5
23
100
AcDbWipeoutVariables
 70
     1
  0
ENDSEC
  0
EOF
