  0
SECTION
  2
HEADER
  9
$ACADVER
  1
AC1009
  9
$INSBASE
 10
0
 20
0
 30
0
  9
$EXTMIN
 10
0
 20
0
  9
$EXTMAX
 10
1682
 20
1188
  9
$LIMMIN
 10
0
 20
0
  9
$LIMMAX
 10
1682
 20
1188
  9
$LTSCALE
 40
2
  0
ENDSEC
  0
SECTION
  2
TABLES
  0
TABLE
  2
LTYPE
 70
     9
  0
LTYPE
  2
CONTINUOUS
 70
    64
  3
実線
 72
    65
 73
     0
 40
0.0
  0
LTYPE
  2
DASHED1
 70
    64
  3
--  --  --  --  --  --  --  --  
 72
    65
 73
     2
 40
2.5
 49
1.25
 49
-1.25
  0
LTYPE
  2
DASHED2
 70
    64
  3
----    ----    ----    ----    
 72
    65
 73
     2
 40
5.0
 49
2.5
 49
-2.5
  0
LTYPE
  2
DASHED3
 70
    64
  3
------  ------  ------  ------  
 72
    65
 73
     2
 40
5.0
 49
3.75
 49
-1.25
  0
LTYPE
  2
CENTER1
 70
    64
  3
----- - ----- - ----- - ----- - 
 72
    65
 73
     4
 40
10.0
 49
6.25
 49
-1.25
 49
1.25
 49
-1.25
  0
LTYPE
  2
CENTER2
 70
    64
  3
----------  --  ----------  --  
 72
    65
 73
     4
 40
20.0
 49
12.5
 49
-2.5
 49
2.5
 49
-2.5
  0
LTYPE
  2
PHANTOM1
 70
    64
  3
--- - - --- - - --- - - --- - - 
 72
    65
 73
     6
 40
10.0
 49
3.25
 49
-1.25
 49
1.25
 49
-1.25
 49
1.25
 49
-1.25
  0
LTYPE
  2
PHANTOM2
 70
    64
  3
--------  -  -  --------  -  -  
 72
    65
 73
     6
 40
20.0
 49
10.0
 49
-2.5
 49
1.25
 49
-2.5
 49
1.25
 49
-2.5
  0
LTYPE
  2
DOT
 70
    64
  3
-   -   -   -   -   -   -   -   
 72
    65
 73
     2
 40
2.5
 49
0.625
 49
-1.875
  0
LTYPE
  2
DUMMY
 70
    64
  3
ダミー
 72
    65
 73
     0
 40
0.0
  0
LTYPE
  2
RAND1
 70
    64
  3
ランダム線1
 72
    65
 73
     4
 40
10.0
 49
1.0
 49
-2.0
 49
3.0
 49
-4.0
  0
LTYPE
  2
RAND2
 70
    64
  3
ランダム線2
 72
    65
 73
     4
 40
14.0
 49
2.0
 49
-3.0
 49
4.0
 49
-5.0
  0
LTYPE
  2
RAND3
 70
    64
  3
ランダム線3
 72
    65
 73
     4
 40
18.0
 49
3.0
 49
-4.0
 49
5.0
 49
-6.0
  0
LTYPE
  2
RAND4
 70
    64
  3
ランダム線4
 72
    65
 73
     4
 40
22.0
 49
4.0
 49
-5.0
 49
6.0
 49
-7.0
  0
LTYPE
  2
RAND5
 70
    64
  3
ランダム線5
 72
    65
 73
     4
 40
26.0
 49
5.0
 49
-6.0
 49
7.0
 49
-8.0
  0
LTYPE
  2
LONG1
 70
    64
  3
----------  --  ----------  --  
 72
    65
 73
     4
 40
40.0
 49
32.5
 49
-2.5
 49
2.5
 49
-2.5
  0
LTYPE
  2
LONG2
 70
    64
  3
--------  -  -  --------  -  -  
 72
    65
 73
     6
 40
40.0
 49
30.0
 49
-2.5
 49
1.25
 49
-2.5
 49
1.25
 49
-2.5
  0
LTYPE
  2
LONG3
 70
    64
  3
+++++++++++++++..+++++++++++++++
 72
    65
 73
     2
 40
40.0
 49
37.5
 49
-2.5
  0
LTYPE
  2
LONG4
 70
    64
  3
+++++++++++++++..+++++++++++++++
 72
    65
 73
     2
 40
80.0
 49
75.0
 49
-5.0
  0
LTYPE
  2
LONG5
 70
    64
  3
----------  --  ----------  --  
 72
    65
 73
     4
 40
60.0
 49
37.5
 49
-7.5
 49
7.5
 49
-7.5
  0
LTYPE
  2
dashed
 70
   64
  3
-------   -------------   ------
 72
   65
 73
    2
 40
7.5
 49
6
 49
-1.5
  0
LTYPE
  2
dashed_spaced
 70
   64
  3
----        --------        ----
 72
   65
 73
    2
 40
12
 49
6
 49
-6
  0
LTYPE
  2
long_dashed_dotted
 70
   64
  3
------------- --- --------------
 72
   65
 73
    4
 40
15.25
 49
12
 49
-1.5
 49
0.25
 49
-1.5
  0
LTYPE
  2
long_dashed_double-dotted
 70
   64
  3
----------- --- --- ------------
 72
   65
 73
    6
 40
17
 49
12
 49
-1.5
 49
0.25
 49
-1.5
 49
0.25
 49
-1.5
  0
LTYPE
  2
long_dashed_triplicate-dotted
 70
   64
  3
--------- --- --- --- ----------
 72
   65
 73
    8
 40
18.75
 49
12
 49
-1.5
 49
0.25
 49
-1.5
 49
0.25
 49
-1.5
 49
0.25
 49
-1.5
  0
LTYPE
  2
dotted
 70
   64
  3
   -       -       -       -    
 72
   65
 73
    2
 40
1.75
 49
0.25
 49
-1.5
  0
LTYPE
  2
chain
 70
   64
  3
-------------- -- --------------
 72
   65
 73
    4
 40
18.5
 49
12
 49
-1.5
 49
3.5
 49
-1.5
  0
LTYPE
  2
chain_double_dash
 70
   64
  3
------------ -- -- -------------
 72
   65
 73
    6
 40
23.5
 49
12
 49
-1.5
 49
3.5
 49
-1.5
 49
3.5
 49
-1.5
  0
LTYPE
  2
dashed_dotted
 70
   64
  3
-----------     -     ----------
 72
   65
 73
    4
 40
9.25
 49
6
 49
-1.5
 49
0.25
 49
-1.5
  0
LTYPE
  2
double-dashed_dotted
 70
   64
  3
------   -----------   -   -----
 72
   65
 73
    6
 40
16.75
 49
6
 49
-1.5
 49
6
 49
-1.5
 49
0.25
 49
-1.5
  0
LTYPE
  2
dashed_double-dotted
 70
   64
  3
---------    -    -    ---------
 72
   65
 73
    6
 40
11
 49
6
 49
-1.5
 49
0.25
 49
-1.5
 49
0.25
 49
-1.5
  0
LTYPE
  2
double-dashed_double-dotted
 70
   64
  3
-----   ---------   -   -   ----
 72
   65
 73
    8
 40
18.5
 49
6
 49
-1.5
 49
6
 49
-1.5
 49
0.25
 49
-1.5
 49
0.25
 49
-1.5
  0
LTYPE
  2
dashed_triplicate-dotted
 70
   64
  3
-------    -    -    -    ------
 72
   65
 73
    8
 40
12.75
 49
6
 49
-1.5
 49
0.25
 49
-1.5
 49
0.25
 49
-1.5
 49
0.25
 49
-1.5
  0
LTYPE
  2
double-dashed_triplicate-dotted
 70
   64
  3
-----  ---------  -  -  -  -----
 72
   65
 73
   10
 40
20.25
 49
6
 49
-1.5
 49
6
 49
-1.5
 49
0.25
 49
-1.5
 49
0.25
 49
-1.5
 49
0.25
 49
-1.5
  0
LTYPE
  2
undefined
 70
   64
  3
--------------------------------
 72
   65
 73
    0
 40
0
  0
ENDTAB
  0
TABLE
  2
STYLE
  5
3
100
AcDbSymbolTable
 70
     1
  0
STYLE
  5
10
100
AcDbSymbolTableRecord
100
AcDbTextStyleTableRecord
  2
STANDARD
 70
     0
 40
0.0
 41
1.0
 50
0.0
 71
     0
 42
0.2
  3
txt
  4
bigfont.shx
  0
STYLE
  5
26
100
AcDbSymbolTableRecord
100
AcDbTextStyleTableRecord
  2
TATEGAKI
 70
    68
 40
0.0
 41
1.0
 50
0.0
 71
     0
 42
1.0
  3
txt
  4
bigfont.shx
  0
ENDTAB
  0
TABLE
  2
LAYER
 70
    2
  0
LAYER
  2
_0-0_0
 70
   64
 62
    7
  6
CONTINUOUS
  0
LAYER
  2
ADD_LINE
 70
   64
 62
    7
  6
CONTINUOUS
  0
ENDTAB
  0
ENDSEC
  0
SECTION
  2
BLOCKS
  0
ENDSEC
  0
SECTION
  2
ENTITIES
  0
LINE
  8
_0-0_0
  6
CONTINUOUS
 62
    7
 10
-494.99749750000001
 20
809.90048200000001
 11
-494.99749750000001
 21
809.89947499999994
  0
LINE
  8
_0-0_0
  6
CONTINUOUS
 62
    7
 10
-468.49749750000001
 20
775.55499299999997
 11
-468.49749750000001
 21
777.79998799999998
  0
LINE
  8
_0-0_0
  6
CONTINUOUS
 62
    7
 10
-468.49749750000001
 20
777.79998799999998
 11
-468.49749750000001
 21
779.79998799999998
  0
LINE
  8
_0-0_0
  6
CONTINUOUS
 62
    7
 10
-468.49749750000001
 20
779.79998799999998
 11
-468.49749750000001
 21
780.29998799999998
  0
LINE
  8
_0-0_0
  6
CONTINUOUS
 62
    7
 10
-468.49749750000001
 20
780.29998799999998
 11
-468.49749750000001
 21
781.29998799999998
  0
LINE
  8
_0-0_0
  6
CONTINUOUS
 62
    7
 10
-468.49749750000001
 20
757.19998199999998
 11
-468.49749750000001
 21
775.55499299999997
  0
LINE
  8
_0-0_0
  6
CONTINUOUS
 62
    7
 10
-371.99749750000001
 20
779.29998799999998
 11
-371.99749750000001
 21
779.79998799999998
  0
LINE
  8
_0-0_0
  6
CONTINUOUS
 62
    7
 10
-371.99749750000001
 20
780.29998799999998
 11
-371.99749750000001
 21
781.29998799999998
  0
LINE
  8
_0-0_0
  6
CONTINUOUS
 62
    7
 10
-371.99749750000001
 20
779.79998799999998
 11
-371.99749750000001
 21
780.29998799999998
  0
ARC
  8
_0-0_0
  6
CONTINUOUS
 62
    7
 10
-385.99749750000001
 20
775.55499299999997
 40
0.5
 50
0
 51
123.74898500000002
  0
ARC
  8
_0-0_0
  6
CONTINUOUS
 62
    7
 10
-387.49749750000001
 20
777.79998799999998
 40
2.2000000000000002
 50
180.00000900000003
 51
303.74900400000001
  0
LINE
  8
_0-0_0
  6
CONTINUOUS
 62
    7
 10
-389.6974795000001
 20
777.79998799999998
 11
-389.6974795000001
 21
779.29998799999998
  0
LINE
  8
_0-0_0
  6
CONTINUOUS
 62
    7
 10
-464.29748549999999
 20
779.29998799999998
 11
-389.6974795000001
 21
779.29998799999998
  0
LINE
  8
_0-0_0
  6
CONTINUOUS
 62
    7
 10
-464.29748549999999
 20
779.29998799999998
 11
-464.29748549999999
 21
777.79998799999998
  0
ARC
  8
_0-0_0
  6
CONTINUOUS
 62
    7
 10
-466.49749750000001
 20
777.79998799999998
 40
2.2000000000000002
 50
236.25102899999999
 51
0
  0
ARC
  8
_0-0_0
  6
CONTINUOUS
 62
    7
 10
-467.99749750000001
 20
775.55499299999997
 40
0.5
 50
56.251010000000008
 51
180.00000900000001
  0
ARC
  8
_0-0_0
  6
CONTINUOUS
 62
    7
 10
-466.49749750000001
 20
757.19998199999998
 40
2
 50
180.00000900000003
 51
269.99999700000001
  0
LINE
  8
_0-0_0
  6
CONTINUOUS
 62
    7
 10
-466.49749750000001
 20
755.19998199999998
 11
-465.49749750000001
 21
755.19998199999998
  0
LINE
  8
_0-0_0
  6
CONTINUOUS
 62
    7
 10
-465.49749750000001
 20
755.19998199999998
 11
-465.49749750000001
 21
756.79998799999998
  0
ARC
  8
_0-0_0
  6
CONTINUOUS
 62
    7
 10
-464.99749750000001
 20
756.79998799999998
 40
0.5
 50
90.000003000000007
 51
180.00000900000001
  0
LINE
  8
_0-0_0
  6
CONTINUOUS
 62
    7
 10
-464.79748549999999
 20
757.29998799999998
 11
-464.99749750000001
 21
757.29998799999998
  0
ARC
  8
_0-0_0
  6
CONTINUOUS
 62
    7
 10
-464.79748549999999
 20
756.79998799999998
 40
0.5
 50
90.000003000000007
 51
180.00000900000001
  0
LINE
  8
_0-0_0
  6
CONTINUOUS
 62
    7
 10
-465.29748549999999
 20
755.29998799999998
 11
-465.29748549999999
 21
756.79998799999998
  0
LINE
  8
_0-0_0
  6
CONTINUOUS
 62
    7
 10
-395.6974795000001
 20
755.29998799999998
 11
-465.29748549999999
 21
755.29998799999998
  0
LINE
  8
_0-0_0
  6
CONTINUOUS
 62
    7
 10
-395.6974795000001
 20
755.29998799999998
 11
-395.6974795000001
 21
756.79998799999998
  0
ARC
  8
_0-0_0
  6
CONTINUOUS
 62
    7
 10
-396.1974795000001
 20
756.79998799999998
 40
0.5
 50
0
 51
90.000003000000007
  0
LINE
  8
_0-0_0
  6
CONTINUOUS
 62
    7
 10
-395.99749750000001
 20
757.29998799999998
 11
-396.1974795000001
 21
757.29998799999998
  0
ARC
  8
_0-0_0
  6
CONTINUOUS
 62
    7
 10
-395.99749750000001
 20
756.79998799999998
 40
0.5
 50
0
 51
90.000003000000007
  0
LINE
  8
_0-0_0
  6
CONTINUOUS
 62
    7
 10
-395.49749750000001
 20
756.79998799999998
 11
-395.49749750000001
 21
755.19998199999998
  0
LINE
  8
_0-0_0
  6
CONTINUOUS
 62
    7
 10
-395.49749750000001
 20
755.19998199999998
 11
-385.49749750000001
 21
755.19998199999998
  0
LINE
  8
_0-0_0
  6
CONTINUOUS
 62
    7
 10
-385.49749750000001
 20
755.19998199999998
 11
-385.49749750000001
 21
756.09997599999997
  0
LINE
  8
_0-0_0
  6
CONTINUOUS
 62
    7
 10
-449.49749750000001
 20
758.704071
 11
-408.09747349999998
 21
758.704071
  0
LINE
  8
_0-0_0
  6
CONTINUOUS
 62
    7
 10
-449.49749750000001
 20
778.29998799999998
 11
-408.09747349999998
 21
778.29998799999998
  0
ARC
  8
_0-0_0
  6
CONTINUOUS
 62
    7
 10
-396.79748549999999
 20
757.49997000000008
 40
0.2
 50
180.00000900000003
 51
269.99999700000001
  0
LINE
  8
_0-0_0
  6
CONTINUOUS
 62
    7
 10
-396.79748549999999
 20
757.29998799999998
 11
-464.1974795000001
 21
757.29998799999998
  0
ARC
  8
_0-0_0
  6
CONTINUOUS
 62
    7
 10
-464.1974795000001
 20
757.49997000000008
 40
0.2
 50
269.99999700000001
 51
0
  0
ARC
  8
_0-0_0
  6
CONTINUOUS
 62
    7
 10
-463.79748549999999
 20
757.49997000000008
 40
0.2
 50
90.000003000000007
 51
180.00000900000001
  0
LINE
  8
_0-0_0
  6
CONTINUOUS
 62
    7
 10
-463.79748549999999
 20
757.69998199999998
 11
-397.1974795000001
 21
757.69998199999998
  0
ARC
  8
_0-0_0
  6
CONTINUOUS
 62
    7
 10
-397.1974795000001
 20
757.49997000000008
 40
0.2
 50
0
 51
90.000003000000007
  0
LINE
  8
_0-0_0
  6
CONTINUOUS
 62
    7
 10
-468.49749750000001
 20
780.29998799999998
 11
-371.99749750000001
 21
780.29998799999998
  0
LINE
  8
_0-0_0
  6
CONTINUOUS
 62
    7
 10
-372.49749750000001
 20
779.29998799999998
 11
-371.99749750000001
 21
779.29998799999998
  0
LINE
  8
_0-0_0
  6
CONTINUOUS
 62
    7
 10
-385.49749750000001
 20
757.29998799999998
 11
-385.49749750000001
 21
756.09997599999997
  0
LINE
  8
_0-0_0
  6
CONTINUOUS
 62
    7
 10
-385.49749750000001
 20
757.29998799999998
 11
-385.49749750000001
 21
774.89999399999999
  0
LINE
  8
_0-0_0
  6
CONTINUOUS
 62
    7
 10
-385.49749750000001
 20
776.87734999999998
 11
-385.49749750000001
 21
774.89999399999999
  0
LINE
  8
_0-0_0
  6
CONTINUOUS
 62
    7
 10
-466.49749750000001
 20
763.78967299999999
 11
-466.49749750000001
 21
774.23767099999998
  0
ARC
  8
_0-0_0
  6
CONTINUOUS
 62
    7
 10
-466.49749750000001
 20
777.79998799999998
 40
2.7000000000000002
 50
285.68033600000007
 51
352.23356600000005
  0
LINE
  8
_0-0_0
  6
CONTINUOUS
 62
    7
 10
-389.49749750000001
 20
775.29998799999998
 11
-389.49749750000001
 21
761.69998199999998
  0
LINE
  8
_0-0_0
  6
CONTINUOUS
 62
    7
 10
-464.49749750000001
 20
779.29998799999998
 11
-464.29748549999999
 21
779.29998799999998
  0
LINE
  8
_0-0_0
  6
CONTINUOUS
 62
    7
 10
-464.49749750000001
 20
779.29998799999998
 11
-464.49749750000001
 21
777.79998799999998
  0
ARC
  8
_0-0_0
  6
CONTINUOUS
 62
    7
 10
-466.49749750000001
 20
777.79998799999998
 40
2
 50
180.00000900000003
 51
0.0000000000000254
  0
LINE
  8
_0-0_0
  6
CONTINUOUS
 62
    7
 10
-372.49749750000001
 20
779.29998799999998
 11
-372.49749750000001
 21
777.59997599999997
  0
LINE
  8
_0-0_0
  6
CONTINUOUS
 62
    7
 10
-385.49749750000001
 20
755.29998799999998
 11
-373.49749750000001
 21
755.29998799999998
  0
LINE
  8
_0-0_0
  6
CONTINUOUS
 62
    7
 10
-373.49749750000001
 20
755.29998799999998
 11
-368.82202150000012
 21
755.29998799999998
  0
LINE
  8
_0-0_0
  6
CONTINUOUS
 62
    7
 10
-373.49749750000001
 20
760.79998799999998
 11
-373.49749750000001
 21
757.79998799999998
  0
LINE
  8
_0-0_0
  6
CONTINUOUS
 62
    7
 10
-373.49749750000001
 20
757.79998799999998
 11
-373.49749750000001
 21
757.29998799999998
  0
LINE
  8
_0-0_0
  6
CONTINUOUS
 62
    7
 10
-373.49749750000001
 20
760.79998799999998
 11
-373.49749750000001
 21
761.29998799999998
  0
ARC
  8
_0-0_0
  6
CONTINUOUS
 62
    7
 10
-379.49749750000001
 20
760.60000600000001
 40
0.500016
 50
180.00117
 51
359.995611
  0
LINE
  8
_0-0_0
  6
CONTINUOUS
 62
    7
 10
-378.99749750000001
 20
760.59997599999997
 11
-378.99749750000001
 21
772.59997599999997
  0
ARC
  8
_0-0_0
  6
CONTINUOUS
 62
    7
 10
-379.49749750000001
 20
772.59997599999997
 40
0.500016
 50
0.001164
 51
179.99560600000004
  0
LINE
  8
_0-0_0
  6
CONTINUOUS
 62
    7
 10
-379.99749750000001
 20
760.59997599999997
 11
-379.99749750000001
 21
772.59997599999997
  0
ARC
  8
_0-0_0
  6
CONTINUOUS
 62
    7
 10
-377.99749750000001
 20
760.60000600000001
 40
0.500016
 50
180.00117
 51
359.995611
  0
LINE
  8
_0-0_0
  6
CONTINUOUS
 62
    7
 10
-377.49749750000001
 20
760.59997599999997
 11
-377.49749750000001
 21
772.59997599999997
  0
ARC
  8
_0-0_0
  6
CONTINUOUS
 62
    7
 10
-377.99749750000001
 20
772.59997599999997
 40
0.500016
 50
0.001164
 51
179.99560600000004
  0
LINE
  8
_0-0_0
  6
CONTINUOUS
 62
    7
 10
-378.49749750000001
 20
760.59997599999997
 11
-378.49749750000001
 21
772.59997599999997
  0
ARC
  8
_0-0_0
  6
CONTINUOUS
 62
    7
 10
-376.49749750000001
 20
760.60000600000001
 40
0.500016
 50
180.00117
 51
359.995611
  0
LINE
  8
_0-0_0
  6
CONTINUOUS
 62
    7
 10
-375.99749750000001
 20
760.59997599999997
 11
-375.99749750000001
 21
772.59997599999997
  0
ARC
  8
_0-0_0
  6
CONTINUOUS
 62
    7
 10
-376.49749750000001
 20
772.59997599999997
 40
0.500016
 50
0.001164
 51
179.99560600000004
  0
LINE
  8
_0-0_0
  6
CONTINUOUS
 62
    7
 10
-376.99749750000001
 20
760.59997599999997
 11
-376.99749750000001
 21
772.59997599999997
  0
ARC
  8
_0-0_0
  6
CONTINUOUS
 62
    7
 10
-374.99749750000001
 20
760.60000600000001
 40
0.500016
 50
180.00117
 51
359.995611
  0
LINE
  8
_0-0_0
  6
CONTINUOUS
 62
    7
 10
-374.49749750000001
 20
760.59997599999997
 11
-374.49749750000001
 21
772.59997599999997
  0
ARC
  8
_0-0_0
  6
CONTINUOUS
 62
    7
 10
-374.99749750000001
 20
772.59997599999997
 40
0.500016
 50
0.001164
 51
179.99560600000004
  0
LINE
  8
_0-0_0
  6
CONTINUOUS
 62
    7
 10
-375.49749750000001
 20
760.59997599999997
 11
-375.49749750000001
 21
772.59997599999997
  0
LINE
  8
_0-0_0
  6
CONTINUOUS
 62
    7
 10
-385.49749750000001
 20
777.59997599999997
 11
-385.49749750000001
 21
776.87734999999998
  0
LINE
  8
_0-0_0
  6
CONTINUOUS
 62
    7
 10
-372.49749750000001
 20
777.59997599999997
 11
-385.49749750000001
 21
777.59997599999997
  0
LINE
  8
_0-0_0
  6
CONTINUOUS
 62
    7
 10
-385.49749750000001
 20
779.29998799999998
 11
-372.49749750000001
 21
779.29998799999998
  0
LINE
  8
_0-0_0
  6
CONTINUOUS
 62
    7
 10
-385.49749750000001
 20
779.29998799999998
 11
-385.49749750000001
 21
777.59997599999997
  0
LINE
  8
_0-0_0
  6
CONTINUOUS
 62
    7
 10
-396.04748549999999
 20
757.27694700000006
 11
-396.04748549999999
 21
757.29998799999998
  0
ARC
  8
_0-0_0
  6
CONTINUOUS
 62
    7
 10
-368.82202150000012
 20
757.29998799999998
 40
2
 50
269.99999700000001
 51
288.43501300000003
  0
LINE
  8
_0-0_0
  6
CONTINUOUS
 62
    7
 10
-389.6974795000001
 20
779.29998799999998
 11
-389.49749750000001
 21
779.29998799999998
  0
ARC
  8
_0-0_0
  6
CONTINUOUS
 62
    7
 10
-387.49749750000001
 20
777.79998799999998
 40
2
 50
180.00000900000003
 51
0.0000000000000254
  0
LINE
  8
_0-0_0
  6
CONTINUOUS
 62
    7
 10
-389.49749750000001
 20
777.79998799999998
 11
-389.49749750000001
 21
779.29998799999998
  0
LINE
  8
_0-0_0
  6
CONTINUOUS
 62
    7
 10
-367.74749750000001
 20
755.54998799999998
 11
-368.18957550000005
 21
755.40261899999996
  0
ARC
  8
_0-0_0
  6
CONTINUOUS
 62
    7
 10
-398.49749750000001
 20
770.89999399999999
 40
2.25
 50
269.99999700000001
 51
90.000002999999992
  0
LINE
  8
_0-0_0
  6
CONTINUOUS
 62
    7
 10
-402.49749750000001
 20
768.64999399999999
 11
-398.49749750000001
 21
768.64999399999999
  0
ARC
  8
_0-0_0
  6
CONTINUOUS
 62
    7
 10
-402.49749750000001
 20
770.89999399999999
 40
2.25
 50
90.000003000000007
 51
269.99999700000006
  0
ARC
  8
_0-0_0
  6
CONTINUOUS
 62
    7
 10
-454.49749750000001
 20
770.89999399999999
 40
2.25
 50
269.99999700000001
 51
90.000002999999992
  0
LINE
  8
_0-0_0
  6
CONTINUOUS
 62
    7
 10
-458.49749750000001
 20
768.64999399999999
 11
-454.49749750000001
 21
768.64999399999999
  0
ARC
  8
_0-0_0
  6
CONTINUOUS
 62
    7
 10
-458.49749750000001
 20
770.89999399999999
 40
2.25
 50
90.000003000000007
 51
269.99999700000006
  0
LINE
  8
_0-0_0
  6
CONTINUOUS
 62
    7
 10
-402.49749750000001
 20
773.14999399999999
 11
-398.49749750000001
 21
773.14999399999999
  0
LINE
  8
_0-0_0
  6
CONTINUOUS
 62
    7
 10
-458.49749750000001
 20
773.14999399999999
 11
-454.49749750000001
 21
773.14999399999999
  0
LINE
  8
_0-0_0
  6
CONTINUOUS
 62
    7
 10
-396.25689749999992
 20
766.89999399999999
 11
-404.73809849999998
 21
766.89999399999999
  0
LINE
  8
_0-0_0
  6
CONTINUOUS
 62
    7
 10
-396.25689749999992
 20
766.89999399999999
 11
-393.9474795000001
 21
770.89999399999999
  0
LINE
  8
_0-0_0
  6
CONTINUOUS
 62
    7
 10
-393.9474795000001
 20
770.89999399999999
 11
-396.25689749999992
 21
774.89999399999999
  0
LINE
  8
_0-0_0
  6
CONTINUOUS
 62
    7
 10
-404.73809849999998
 20
774.89999399999999
 11
-396.25689749999992
 21
774.89999399999999
  0
LINE
  8
_0-0_0
  6
CONTINUOUS
 62
    7
 10
-407.04748549999999
 20
770.89999399999999
 11
-404.73809849999998
 21
774.89999399999999
  0
LINE
  8
_0-0_0
  6
CONTINUOUS
 62
    7
 10
-404.73809849999998
 20
766.89999399999999
 11
-407.04748549999999
 21
770.89999399999999
  0
LINE
  8
_0-0_0
  6
CONTINUOUS
 62
    7
 10
-452.25689749999992
 20
766.89999399999999
 11
-460.73809849999998
 21
766.89999399999999
  0
LINE
  8
_0-0_0
  6
CONTINUOUS
 62
    7
 10
-449.9474795000001
 20
770.89999399999999
 11
-452.25689749999992
 21
766.89999399999999
  0
LINE
  8
_0-0_0
  6
CONTINUOUS
 62
    7
 10
-449.9474795000001
 20
770.89999399999999
 11
-452.25689749999992
 21
774.89999399999999
  0
LINE
  8
_0-0_0
  6
CONTINUOUS
 62
    7
 10
-460.73809849999998
 20
774.89999399999999
 11
-452.25689749999992
 21
774.89999399999999
  0
LINE
  8
_0-0_0
  6
CONTINUOUS
 62
    7
 10
-463.04748549999999
 20
770.89999399999999
 11
-460.73809849999998
 21
774.89999399999999
  0
LINE
  8
_0-0_0
  6
CONTINUOUS
 62
    7
 10
-463.04748549999999
 20
770.89999399999999
 11
-460.73809849999998
 21
766.89999399999999
  0
CIRCLE
  8
_0-0_0
  6
CONTINUOUS
 62
    7
 10
-387.49749750000001
 20
777.79998799999998
 40
1.4750000000000001
  0
CIRCLE
  8
_0-0_0
  6
CONTINUOUS
 62
    7
 10
-466.49749750000001
 20
777.79998799999998
 40
1.4750000000000001
  0
LINE
  8
_0-0_0
  6
CONTINUOUS
 62
    7
 10
-387.04748549999999
 20
777.59997599999997
 11
-386.39749150000011
 21
777.59997599999997
  0
ARC
  8
_0-0_0
  6
CONTINUOUS
 62
    7
 10
-387.04748549999999
 20
777.34997599999997
 40
0.25
 50
90.000003000000007
 51
180.00000900000001
  0
LINE
  8
_0-0_0
  6
CONTINUOUS
 62
    7
 10
-387.29748549999999
 20
777.34997599999997
 11
-387.29748549999999
 21
776.69998199999998
  0
LINE
  8
_0-0_0
  6
CONTINUOUS
 62
    7
 10
-387.6974795000001
 20
776.69998199999998
 11
-387.29748549999999
 21
776.69998199999998
  0
LINE
  8
_0-0_0
  6
CONTINUOUS
 62
    7
 10
-387.6974795000001
 20
776.69998199999998
 11
-387.6974795000001
 21
777.34997599999997
  0
ARC
  8
_0-0_0
  6
CONTINUOUS
 62
    7
 10
-387.9474795000001
 20
777.34997599999997
 40
0.25
 50
0
 51
90.000003000000007
  0
LINE
  8
_0-0_0
  6
CONTINUOUS
 62
    7
 10
-388.59747349999998
 20
777.59997599999997
 11
-387.9474795000001
 21
777.59997599999997
  0
LINE
  8
_0-0_0
  6
CONTINUOUS
 62
    7
 10
-388.59747349999998
 20
777.59997599999997
 11
-388.59747349999998
 21
778
  0
LINE
  8
_0-0_0
  6
CONTINUOUS
 62
    7
 10
-387.9474795000001
 20
778
 11
-388.59747349999998
 21
778
  0
ARC
  8
_0-0_0
  6
CONTINUOUS
 62
    7
 10
-387.9474795000001
 20
778.25
 40
0.25
 50
269.99999700000001
 51
0
  0
LINE
  8
_0-0_0
  6
CONTINUOUS
 62
    7
 10
-387.6974795000001
 20
778.25
 11
-387.6974795000001
 21
778.89999399999999
  0
LINE
  8
_0-0_0
  6
CONTINUOUS
 62
    7
 10
-387.29748549999999
 20
778.89999399999999
 11
-387.6974795000001
 21
778.89999399999999
  0
LINE
  8
_0-0_0
  6
CONTINUOUS
 62
    7
 10
-387.29748549999999
 20
778.89999399999999
 11
-387.29748549999999
 21
778.25
  0
ARC
  8
_0-0_0
  6
CONTINUOUS
 62
    7
 10
-387.04748549999999
 20
778.25
 40
0.25
 50
180.00000900000003
 51
269.99999700000001
  0
LINE
  8
_0-0_0
  6
CONTINUOUS
 62
    7
 10
-386.39749150000011
 20
778
 11
-387.04748549999999
 21
778
  0
LINE
  8
_0-0_0
  6
CONTINUOUS
 62
    7
 10
-386.39749150000011
 20
778
 11
-386.39749150000011
 21
777.59997599999997
  0
LINE
  8
_0-0_0
  6
CONTINUOUS
 62
    7
 10
-466.04748549999999
 20
777.59997599999997
 11
-465.39749150000011
 21
777.59997599999997
  0
ARC
  8
_0-0_0
  6
CONTINUOUS
 62
    7
 10
-466.04748549999999
 20
777.34997599999997
 40
0.25
 50
90.000003000000007
 51
180.00000900000001
  0
LINE
  8
_0-0_0
  6
CONTINUOUS
 62
    7
 10
-466.29748549999999
 20
777.34997599999997
 11
-466.29748549999999
 21
776.69998199999998
  0
LINE
  8
_0-0_0
  6
CONTINUOUS
 62
    7
 10
-466.6974795000001
 20
776.69998199999998
 11
-466.29748549999999
 21
776.69998199999998
  0
LINE
  8
_0-0_0
  6
CONTINUOUS
 62
    7
 10
-466.6974795000001
 20
776.69998199999998
 11
-466.6974795000001
 21
777.34997599999997
  0
ARC
  8
_0-0_0
  6
CONTINUOUS
 62
    7
 10
-466.9474795000001
 20
777.34997599999997
 40
0.25
 50
0
 51
90.000003000000007
  0
LINE
  8
_0-0_0
  6
CONTINUOUS
 62
    7
 10
-467.59747349999998
 20
777.59997599999997
 11
-466.9474795000001
 21
777.59997599999997
  0
LINE
  8
_0-0_0
  6
CONTINUOUS
 62
    7
 10
-467.59747349999998
 20
777.59997599999997
 11
-467.59747349999998
 21
778
  0
LINE
  8
_0-0_0
  6
CONTINUOUS
 62
    7
 10
-466.9474795000001
 20
778
 11
-467.59747349999998
 21
778
  0
ARC
  8
_0-0_0
  6
CONTINUOUS
 62
    7
 10
-466.9474795000001
 20
778.25
 40
0.25
 50
269.99999700000001
 51
0
  0
LINE
  8
_0-0_0
  6
CONTINUOUS
 62
    7
 10
-466.6974795000001
 20
778.25
 11
-466.6974795000001
 21
778.89999399999999
  0
LINE
  8
_0-0_0
  6
CONTINUOUS
 62
    7
 10
-466.29748549999999
 20
778.89999399999999
 11
-466.6974795000001
 21
778.89999399999999
  0
LINE
  8
_0-0_0
  6
CONTINUOUS
 62
    7
 10
-466.29748549999999
 20
778.89999399999999
 11
-466.29748549999999
 21
778.25
  0
ARC
  8
_0-0_0
  6
CONTINUOUS
 62
    7
 10
-466.04748549999999
 20
778.25
 40
0.25
 50
180.00000900000003
 51
269.99999700000001
  0
LINE
  8
_0-0_0
  6
CONTINUOUS
 62
    7
 10
-465.39749150000011
 20
778
 11
-466.04748549999999
 21
778
  0
LINE
  8
_0-0_0
  6
CONTINUOUS
 62
    7
 10
-465.39749150000011
 20
778
 11
-465.39749150000011
 21
777.59997599999997
  0
LINE
  8
_0-0_0
  6
CONTINUOUS
 62
    7
 10
-464.9474795000001
 20
757.27694700000006
 11
-464.9474795000001
 21
757.29998799999998
  0
LINE
  8
_0-0_0
  6
CONTINUOUS
 62
    7
 10
-446.49749750000001
 20
775.29998799999998
 11
-446.49749750000001
 21
762.34298699999999
  0
ARC
  8
_0-0_0
  6
CONTINUOUS
 62
    7
 10
-449.49749750000001
 20
775.29998799999998
 40
3
 50
0
 51
90.000003000000007
  0
LINE
  8
_0-0_0
  6
CONTINUOUS
 62
    7
 10
-410.49749750000001
 20
761.69998199999998
 11
-410.49749750000001
 21
775.29998799999998
  0
LINE
  8
_0-0_0
  6
CONTINUOUS
 62
    7
 10
-427.01000950000002
 20
771.46963499999993
 11
-428.30999750000001
 21
774.96963499999993
  0
ARC
  8
_0-0_0
  6
CONTINUOUS
 62
    7
 10
-429.79748549999999
 20
771.39999399999999
 40
0.2
 50
159.62357
 51
269.99999700000001
  0
LINE
  8
_0-0_0
  6
CONTINUOUS
 62
    7
 10
-385.49749750000001
 20
776.89999399999999
 11
-368.82202150000012
 21
776.89999399999999
  0
ARC
  8
_0-0_0
  6
CONTINUOUS
 62
    7
 10
-368.82202150000012
 20
774.89999399999999
 40
2
 50
71.565000999999995
 51
90.000003000000007
  0
LINE
  8
_0-0_0
  6
CONTINUOUS
 62
    7
 10
-368.18957550000005
 20
776.79736300000002
 11
-368.30908249999993
 21
776.83297700000003
  0
LINE
  8
_0-0_0
  6
CONTINUOUS
 62
    7
 10
-368.30908249999993
 20
776.83297700000003
 11
-368.43063350000011
 21
776.86084000000005
  0
LINE
  8
_0-0_0
  6
CONTINUOUS
 62
    7
 10
-368.43063350000011
 20
776.86084000000005
 11
-368.55377249999992
 21
776.88088999999991
  0
LINE
  8
_0-0_0
  6
CONTINUOUS
 62
    7
 10
-368.55377249999992
 20
776.88088999999991
 11
-368.67797850000011
 21
776.89300500000002
  0
LINE
  8
_0-0_0
  6
CONTINUOUS
 62
    7
 10
-368.67797850000011
 20
776.89300500000002
 11
-368.8027955
 21
776.89712499999996
  0
LINE
  8
_0-0_0
  6
CONTINUOUS
 62
    7
 10
-368.8027955
 20
776.89712499999996
 11
-368.82202150000012
 21
776.897064
  0
LINE
  8
_0-0_0
  6
CONTINUOUS
 62
    7
 10
-363.86505149999994
 20
775.35583500000007
 11
-368.18957550000005
 21
776.79736300000002
  0
LINE
  8
_0-0_0
  6
CONTINUOUS
 62
    7
 10
-364.02313249999997
 20
760.79998799999998
 11
-363.3297735000001
 21
760.79998799999998
  0
LINE
  8
_0-0_0
  6
CONTINUOUS
 62
    7
 10
-364.02313249999997
 20
760.79998799999998
 11
-368.34771750000004
 21
760.79998799999998
  0
LINE
  8
_0-0_0
  6
CONTINUOUS
 62
    7
 10
-368.82202150000012
 20
760.79998799999998
 11
-368.34771750000004
 21
760.79998799999998
  0
LINE
  8
_0-0_0
  6
CONTINUOUS
 62
    7
 10
-373.49749750000001
 20
760.79998799999998
 11
-368.82202150000012
 21
760.79998799999998
  0
LINE
  8
_0-0_0
  6
CONTINUOUS
 62
    7
 10
-362.49749750000001
 20
760.04995699999995
 11
-362.49749750000001
 21
761.17095999999992
  0
LINE
  8
_0-0_0
  6
CONTINUOUS
 62
    7
 10
-362.49749750000001
 20
762.09228499999995
 11
-362.49749750000001
 21
761.17095999999992
  0
LINE
  8
_0-0_0
  6
CONTINUOUS
 62
    7
 10
-351.49749750000001
 20
760.84997599999997
 11
-351.49749750000001
 21
768.83154300000001
  0
ARC
  8
_0-0_0
  6
CONTINUOUS
 62
    7
 10
-357.67138650000015
 20
769.35086100000001
 40
4.9238749999999998
 50
352.49423299999995
 51
1.5359699999999901
  0
LINE
  8
_0-0_0
  6
CONTINUOUS
 62
    7
 10
-352.78967250000005
 20
763.49227900000005
 11
-352.6953125
 21
763.738922
  0
LINE
  8
_0-0_0
  6
CONTINUOUS
 62
    7
 10
-352.6953125
 20
763.738922
 11
-352.61138950000009
 21
763.978882
  0
LINE
  8
_0-0_0
  6
CONTINUOUS
 62
    7
 10
-352.61138950000009
 20
763.978882
 11
-352.53723149999996
 21
764.21301300000005
  0
LINE
  8
_0-0_0
  6
CONTINUOUS
 62
    7
 10
-352.53723149999996
 20
764.21301300000005
 11
-352.47235150000006
 21
764.442047
  0
LINE
  8
_0-0_0
  6
CONTINUOUS
 62
    7
 10
-352.47235150000006
 20
764.442047
 11
-352.41629050000006
 21
764.66671799999995
  0
LINE
  8
_0-0_0
  6
CONTINUOUS
 62
    7
 10
-352.41629050000006
 20
764.66671799999995
 11
-352.36871350000001
 21
764.88769500000001
  0
LINE
  8
_0-0_0
  6
CONTINUOUS
 62
    7
 10
-352.36871350000001
 20
764.88769500000001
 11
-352.32934550000004
 21
765.10562099999993
  0
LINE
  8
_0-0_0
  6
CONTINUOUS
 62
    7
 10
-352.32934550000004
 20
765.10562099999993
 11
-352.29785149999998
 21
765.32104499999991
  0
LINE
  8
_0-0_0
  6
CONTINUOUS
 62
    7
 10
-352.29785149999998
 20
765.32104499999991
 11
-352.27404750000005
 21
765.53457700000001
  0
LINE
  8
_0-0_0
  6
CONTINUOUS
 62
    7
 10
-352.27404750000005
 20
765.53457700000001
 11
-352.25811750000003
 21
765.74230999999997
  0
LINE
  8
_0-0_0
  6
CONTINUOUS
 62
    7
 10
-352.25811750000003
 20
765.74230999999997
 11
-352.24938950000001
 21
765.94915800000001
  0
LINE
  8
_0-0_0
  6
CONTINUOUS
 62
    7
 10
-352.24938950000001
 20
765.94915800000001
 11
-352.24774150000007
 21
766.15560899999991
  0
LINE
  8
_0-0_0
  6
CONTINUOUS
 62
    7
 10
-352.24774150000007
 20
766.15560899999991
 11
-352.25320450000004
 21
766.362213
  0
LINE
  8
_0-0_0
  6
CONTINUOUS
 62
    7
 10
-352.25320450000004
 20
766.362213
 11
-352.26580850000005
 21
766.56939699999998
  0
LINE
  8
_0-0_0
  6
CONTINUOUS
 62
    7
 10
-352.26580850000005
 20
766.56939699999998
 11
-352.28564449999999
 21
766.77767999999992
  0
LINE
  8
_0-0_0
  6
CONTINUOUS
 62
    7
 10
-352.28564449999999
 20
766.77767999999992
 11
-352.31277450000016
 21
766.98761000000002
  0
LINE
  8
_0-0_0
  6
CONTINUOUS
 62
    7
 10
-352.31277450000016
 20
766.98761000000002
 11
-352.34741250000002
 21
767.19967700000007
  0
LINE
  8
_0-0_0
  6
CONTINUOUS
 62
    7
 10
-352.34741250000002
 20
767.19967700000007
 11
-352.38977049999994
 21
767.41442899999993
  0
LINE
  8
_0-0_0
  6
CONTINUOUS
 62
    7
 10
-352.38977049999994
 20
767.41442899999993
 11
-352.44009449999999
 21
767.63241599999992
  0
LINE
  8
_0-0_0
  6
CONTINUOUS
 62
    7
 10
-352.44009449999999
 20
767.63241599999992
 11
-352.49432350000006
 21
767.83871499999998
  0
LINE
  8
_0-0_0
  6
CONTINUOUS
 62
    7
 10
-352.49432350000006
 20
767.83871499999998
 11
-352.55603049999991
 21
768.04882799999996
  0
LINE
  8
_0-0_0
  6
CONTINUOUS
 62
    7
 10
-352.55603049999991
 20
768.04882799999996
 11
-352.62554950000003
 21
768.26327500000002
  0
LINE
  8
_0-0_0
  6
CONTINUOUS
 62
    7
 10
-352.62554950000003
 20
768.26327500000002
 11
-352.70327750000001
 21
768.48269699999992
  0
LINE
  8
_0-0_0
  6
CONTINUOUS
 62
    7
 10
-352.70327750000001
 20
768.48269699999992
 11
-352.78967250000005
 21
768.707672
  0
ARC
  8
_0-0_0
  6
CONTINUOUS
 62
    7
 10
-357.66119350000008
 20
762.84997599999997
 40
4.9136889999999998
 50
352.48898799999995
 51
7.5110139999999577
  0
LINE
  8
_0-0_0
  6
CONTINUOUS
 62
    7
 10
-352.78967250000005
 20
762.207672
 11
-352.7351685000001
 21
762.13775599999997
  0
LINE
  8
_0-0_0
  6
CONTINUOUS
 62
    7
 10
-352.7351685000001
 20
762.13775599999997
 11
-352.68408249999993
 21
762.06890900000008
  0
LINE
  8
_0-0_0
  6
CONTINUOUS
 62
    7
 10
-352.68408249999993
 20
762.06890900000008
 11
-352.63641350000012
 21
762.00140399999998
  0
LINE
  8
_0-0_0
  6
CONTINUOUS
 62
    7
 10
-352.63641350000012
 20
762.00140399999998
 11
-352.59191950000013
 21
761.93487600000003
  0
LINE
  8
_0-0_0
  6
CONTINUOUS
 62
    7
 10
-352.59191950000013
 20
761.93487600000003
 11
-352.53723149999996
 21
761.84732099999997
  0
LINE
  8
_0-0_0
  6
CONTINUOUS
 62
    7
 10
-352.53723149999996
 20
761.84732099999997
 11
-352.48770149999996
 21
761.76123099999995
  0
LINE
  8
_0-0_0
  6
CONTINUOUS
 62
    7
 10
-352.48770149999996
 20
761.76123099999995
 11
-352.44323750000012
 21
761.67639199999996
  0
LINE
  8
_0-0_0
  6
CONTINUOUS
 62
    7
 10
-352.44323750000012
 20
761.67639199999996
 11
-352.3962704999999
 21
761.57608000000005
  0
LINE
  8
_0-0_0
  6
CONTINUOUS
 62
    7
 10
-352.3962704999999
 20
761.57608000000005
 11
-352.35607950000008
 21
761.47714199999996
  0
LINE
  8
_0-0_0
  6
CONTINUOUS
 62
    7
 10
-352.35607950000008
 20
761.47714199999996
 11
-352.3223875000001
 21
761.37939499999993
  0
LINE
  8
_0-0_0
  6
CONTINUOUS
 62
    7
 10
-352.3223875000001
 20
761.37939499999993
 11
-352.29510550000009
 21
761.28259300000002
  0
LINE
  8
_0-0_0
  6
CONTINUOUS
 62
    7
 10
-352.29510550000009
 20
761.28259300000002
 11
-352.27404750000005
 21
761.18652399999996
  0
LINE
  8
_0-0_0
  6
CONTINUOUS
 62
    7
 10
-352.27404750000005
 20
761.18652399999996
 11
-352.25811750000003
 21
761.082672
  0
LINE
  8
_0-0_0
  6
CONTINUOUS
 62
    7
 10
-352.25811750000003
 20
761.082672
 11
-352.24938950000001
 21
760.97924799999998
  0
LINE
  8
_0-0_0
  6
CONTINUOUS
 62
    7
 10
-352.24938950000001
 20
760.97924799999998
 11
-352.24774150000007
 21
760.87600700000007
  0
LINE
  8
_0-0_0
  6
CONTINUOUS
 62
    7
 10
-352.24774150000007
 20
760.87600700000007
 11
-352.25320450000004
 21
760.77273600000001
  0
LINE
  8
_0-0_0
  6
CONTINUOUS
 62
    7
 10
-352.25320450000004
 20
760.77273600000001
 11
-352.26580850000005
 21
760.669129
  0
LINE
  8
_0-0_0
  6
CONTINUOUS
 62
    7
 10
-352.26580850000005
 20
760.669129
 11
-352.28564449999999
 21
760.56497200000001
  0
LINE
  8
_0-0_0
  6
CONTINUOUS
 62
    7
 10
-352.28564449999999
 20
760.56497200000001
 11
-352.31277450000016
 21
760.46002199999998
  0
LINE
  8
_0-0_0
  6
CONTINUOUS
 62
    7
 10
-352.31277450000016
 20
760.46002199999998
 11
-352.34741250000002
 21
760.35400400000003
  0
LINE
  8
_0-0_0
  6
CONTINUOUS
 62
    7
 10
-352.34741250000002
 20
760.35400400000003
 11
-352.38977049999994
 21
760.24661300000002
  0
LINE
  8
_0-0_0
  6
CONTINUOUS
 62
    7
 10
-352.38977049999994
 20
760.24661300000002
 11
-352.44009449999999
 21
760.13760400000001
  0
LINE
  8
_0-0_0
  6
CONTINUOUS
 62
    7
 10
-352.44009449999999
 20
760.13760400000001
 11
-352.48577849999992
 21
760.04995699999995
  0
LINE
  8
_0-0_0
  6
CONTINUOUS
 62
    7
 10
-362.49749750000001
 20
769.99227900000005
 11
-352.78967250000005
 21
769.99227900000005
  0
LINE
  8
_0-0_0
  6
CONTINUOUS
 62
    7
 10
-362.49749750000001
 20
768.707672
 11
-362.49749750000001
 21
769.99227900000005
  0
LINE
  8
_0-0_0
  6
CONTINUOUS
 62
    7
 10
-362.49749750000001
 20
768.707672
 11
-352.78967250000005
 21
768.707672
  0
ARC
  8
_0-0_0
  6
CONTINUOUS
 62
    7
 10
-357.70941149999999
 20
769.34591699999999
 40
4.9620009999999999
 50
1.5813010000000001
 51
7.4847919999999997
  0
LINE
  8
_0-0_0
  6
CONTINUOUS
 62
    7
 10
-362.79748549999999
 20
763.88797
 11
-362.88095150000004
 21
764.26663200000007
  0
LINE
  8
_0-0_0
  6
CONTINUOUS
 62
    7
 10
-362.88095150000004
 20
764.26663200000007
 11
-362.92102049999994
 21
764.45816100000002
  0
LINE
  8
_0-0_0
  6
CONTINUOUS
 62
    7
 10
-362.92102049999994
 20
764.45816100000002
 11
-362.97711150000009
 21
764.7482
  0
LINE
  8
_0-0_0
  6
CONTINUOUS
 62
    7
 10
-362.97711150000009
 20
764.7482
 11
-363.01470949999998
 21
764.96777399999996
  0
LINE
  8
_0-0_0
  6
CONTINUOUS
 62
    7
 10
-363.01470949999998
 20
764.96777399999996
 11
-363.04736350000007
 21
765.18902600000001
  0
LINE
  8
_0-0_0
  6
CONTINUOUS
 62
    7
 10
-363.04736350000007
 20
765.18902600000001
 11
-363.07452450000005
 21
765.41583300000002
  0
LINE
  8
_0-0_0
  6
CONTINUOUS
 62
    7
 10
-363.07452450000005
 20
765.41583300000002
 11
-363.09460450000006
 21
765.64321900000004
  0
LINE
  8
_0-0_0
  6
CONTINUOUS
 62
    7
 10
-363.09460450000006
 20
765.64321900000004
 11
-363.10174550000011
 21
765.75695799999994
  0
LINE
  8
_0-0_0
  6
CONTINUOUS
 62
    7
 10
-363.10174550000011
 20
765.75695799999994
 11
-363.10690350000004
 21
765.87063599999999
  0
LINE
  8
_0-0_0
  6
CONTINUOUS
 62
    7
 10
-363.10690350000004
 20
765.87063599999999
 11
-363.11062650000008
 21
766.022064
  0
LINE
  8
_0-0_0
  6
CONTINUOUS
 62
    7
 10
-363.11062650000008
 20
766.022064
 11
-363.11068750000004
 21
766.17334000000005
  0
LINE
  8
_0-0_0
  6
CONTINUOUS
 62
    7
 10
-363.11068750000004
 20
766.17334000000005
 11
-363.10711650000007
 21
766.32437099999993
  0
LINE
  8
_0-0_0
  6
CONTINUOUS
 62
    7
 10
-363.10711650000007
 20
766.32437099999993
 11
-363.0975954999999
 21
766.51294000000007
  0
LINE
  8
_0-0_0
  6
CONTINUOUS
 62
    7
 10
-363.0975954999999
 20
766.51294000000007
 11
-363.0827334999999
 21
766.70117200000004
  0
LINE
  8
_0-0_0
  6
CONTINUOUS
 62
    7
 10
-363.0827334999999
 20
766.70117200000004
 11
-363.06280549999997
 21
766.88913000000002
  0
LINE
  8
_0-0_0
  6
CONTINUOUS
 62
    7
 10
-363.06280549999997
 20
766.88913000000002
 11
-363.04641749999996
 21
767.01800500000002
  0
LINE
  8
_0-0_0
  6
CONTINUOUS
 62
    7
 10
-363.04641749999996
 20
767.01800500000002
 11
-363.02801550000004
 21
767.14663700000006
  0
LINE
  8
_0-0_0
  6
CONTINUOUS
 62
    7
 10
-363.02801550000004
 20
767.14663700000006
 11
-363.0038454999999
 21
767.29858400000001
  0
LINE
  8
_0-0_0
  6
CONTINUOUS
 62
    7
 10
-363.0038454999999
 20
767.29858400000001
 11
-362.97744749999993
 21
767.44992100000002
  0
LINE
  8
_0-0_0
  6
CONTINUOUS
 62
    7
 10
-362.97744749999993
 20
767.44992100000002
 11
-362.92126450000001
 21
767.74054000000001
  0
LINE
  8
_0-0_0
  6
CONTINUOUS
 62
    7
 10
-362.92126450000001
 20
767.74054000000001
 11
-362.88110350000011
 21
767.93249500000002
  0
LINE
  8
_0-0_0
  6
CONTINUOUS
 62
    7
 10
-362.88110350000011
 20
767.93249500000002
 11
-362.79748549999999
 21
768.31198100000006
  0
LINE
  8
_0-0_0
  6
CONTINUOUS
 62
    7
 10
-362.49749750000001
 20
764.53793300000007
 11
-362.49749750000001
 21
767.66204799999991
  0
LINE
  8
_0-0_0
  6
CONTINUOUS
 62
    7
 10
-337.74746750000008
 20
756.57455499999992
 11
-337.99746750000008
 21
756.54998799999998
  0
LINE
  8
_0-0_0
  6
CONTINUOUS
 62
    7
 10
-337.99746750000008
 20
756.54998799999998
 11
-347.24746750000008
 21
756.54998799999998
  0
LINE
  8
_0-0_0
  6
CONTINUOUS
 62
    7
 10
-347.49746750000008
 20
756.57455499999992
 11
-347.24746750000008
 21
756.54998799999998
  0
LINE
  8
_0-0_0
  6
CONTINUOUS
 62
    7
 10
-337.74746750000008
 20
759.54855399999997
 11
-337.99746750000008
 21
759.82254
  0
LINE
  8
_0-0_0
  6
CONTINUOUS
 62
    7
 10
-337.74746750000008
 20
759.54855399999997
 11
-337.99746750000008
 21
759.65783699999997
  0
LINE
  8
_0-0_0
  6
CONTINUOUS
 62
    7
 10
-337.74746750000008
 20
759.39096100000006
 11
-337.99746750000008
 21
759.65783699999997
  0
LINE
  8
_0-0_0
  6
CONTINUOUS
 62
    7
 10
-337.74746750000008
 20
759.39096100000006
 11
-337.99746750000008
 21
759.47280899999998
  0
LINE
  8
_0-0_0
  6
CONTINUOUS
 62
    7
 10
-337.74746750000008
 20
759.21597300000008
 11
-337.99746750000008
 21
759.47280899999998
  0
LINE
  8
_0-0_0
  6
CONTINUOUS
 62
    7
 10
-337.74746750000008
 20
759.21597300000008
 11
-337.99746750000008
 21
759.26944000000003
  0
LINE
  8
_0-0_0
  6
CONTINUOUS
 62
    7
 10
-337.74746750000008
 20
759.02542100000005
 11
-337.99746750000008
 21
759.26944000000003
  0
LINE
  8
_0-0_0
  6
CONTINUOUS
 62
    7
 10
-337.74746750000008
 20
759.02542100000005
 11
-337.99746750000008
 21
759.04998799999998
  0
LINE
  8
_0-0_0
  6
CONTINUOUS
 62
    7
 10
-337.74746750000008
 20
758.82147199999997
 11
-337.99746750000008
 21
759.04998799999998
  0
LINE
  8
_0-0_0
  6
CONTINUOUS
 62
    7
 10
-337.74746750000008
 20
758.82147199999997
 11
-337.99746750000008
 21
758.81683399999997
  0
LINE
  8
_0-0_0
  6
CONTINUOUS
 62
    7
 10
-337.74746750000008
 20
758.60632299999997
 11
-337.99746750000008
 21
758.81683399999997
  0
LINE
  8
_0-0_0
  6
CONTINUOUS
 62
    7
 10
-337.74746750000008
 20
758.60632299999997
 11
-337.99746750000008
 21
758.57254
  0
LINE
  8
_0-0_0
  6
CONTINUOUS
 62
    7
 10
-337.74746750000008
 20
758.38232399999993
 11
-337.99746750000008
 21
758.57254
  0
LINE
  8
_0-0_0
  6
CONTINUOUS
 62
    7
 10
-337.74746750000008
 20
758.38232399999993
 11
-337.99746750000008
 21
758.31976299999997
  0
LINE
  8
_0-0_0
  6
CONTINUOUS
 62
    7
 10
-337.74746750000008
 20
758.15197799999999
 11
-337.99746750000008
 21
758.31976299999997
  0
LINE
  8
_0-0_0
  6
CONTINUOUS
 62
    7
 10
-337.74746750000008
 20
758.15197799999999
 11
-337.99746750000008
 21
758.06131000000005
  0
LINE
  8
_0-0_0
  6
CONTINUOUS
 62
    7
 10
-337.74746750000008
 20
757.91775499999994
 11
-337.99746750000008
 21
758.06131000000005
  0
LINE
  8
_0-0_0
  6
CONTINUOUS
 62
    7
 10
-337.74746750000008
 20
757.91775499999994
 11
-337.99746750000008
 21
757.79998799999998
  0
LINE
  8
_0-0_0
  6
CONTINUOUS
 62
    7
 10
-337.74746750000008
 20
757.68222100000003
 11
-337.99746750000008
 21
757.79998799999998
  0
LINE
  8
_0-0_0
  6
CONTINUOUS
 62
    7
 10
-337.74746750000008
 20
757.68222100000003
 11
-337.99746750000008
 21
757.53866599999992
  0
LINE
  8
_0-0_0
  6
CONTINUOUS
 62
    7
 10
-337.74746750000008
 20
757.44799799999998
 11
-337.99746750000008
 21
757.53866599999992
  0
LINE
  8
_0-0_0
  6
CONTINUOUS
 62
    7
 10
-337.74746750000008
 20
757.44799799999998
 11
-337.99746750000008
 21
757.280213
  0
LINE
  8
_0-0_0
  6
CONTINUOUS
 62
    7
 10
-337.74746750000008
 20
757.21765099999993
 11
-337.99746750000008
 21
757.280213
  0
LINE
  8
_0-0_0
  6
CONTINUOUS
 62
    7
 10
-337.74746750000008
 20
757.21765099999993
 11
-337.99746750000008
 21
757.02743499999997
  0
LINE
  8
_0-0_0
  6
CONTINUOUS
 62
    7
 10
-337.74746750000008
 20
756.993652
 11
-337.99746750000008
 21
757.02743499999997
  0
LINE
  8
_0-0_0
  6
CONTINUOUS
 62
    7
 10
-337.74746750000008
 20
756.993652
 11
-337.99746750000008
 21
756.783142
  0
LINE
  8
_0-0_0
  6
CONTINUOUS
 62
    7
 10
-337.74746750000008
 20
756.778504
 11
-337.99746750000008
 21
756.783142
  0
LINE
  8
_0-0_0
  6
CONTINUOUS
 62
    7
 10
-337.74746750000008
 20
756.778504
 11
-337.99746750000008
 21
756.54998799999998
  0
LINE
  8
_0-0_0
  6
CONTINUOUS
 62
    7
 10
-337.74746750000008
 20
756.57455499999992
 11
-337.99746750000008
 21
756.33053599999994
  0
LINE
  8
_0-0_0
  6
CONTINUOUS
 62
    7
 10
-337.74746750000008
 20
756.38400300000001
 11
-337.99746750000008
 21
756.33053599999994
  0
LINE
  8
_0-0_0
  6
CONTINUOUS
 62
    7
 10
-337.74746750000008
 20
756.38400300000001
 11
-337.99746750000008
 21
756.12716699999999
  0
LINE
  8
_0-0_0
  6
CONTINUOUS
 62
    7
 10
-337.74746750000008
 20
756.20898399999999
 11
-337.99746750000008
 21
756.12716699999999
  0
LINE
  8
_0-0_0
  6
CONTINUOUS
 62
    7
 10
-337.74746750000008
 20
756.20898399999999
 11
-337.99746750000008
 21
755.94210799999996
  0
LINE
  8
_0-0_0
  6
CONTINUOUS
 62
    7
 10
-337.74746750000008
 20
756.051422
 11
-337.99746750000008
 21
755.94210799999996
  0
LINE
  8
_0-0_0
  6
CONTINUOUS
 62
    7
 10
-337.74746750000008
 20
756.051422
 11
-337.99746750000008
 21
755.77743499999997
  0
LINE
  8
_0-0_0
  6
CONTINUOUS
 62
    7
 10
-337.74746750000008
 20
755.91299400000003
 11
-337.99746750000008
 21
755.77743499999997
  0
LINE
  8
_0-0_0
  6
CONTINUOUS
 62
    7
 10
-337.74746750000008
 20
755.91299400000003
 11
-337.99746750000008
 21
755.63491799999997
  0
LINE
  8
_0-0_0
  6
CONTINUOUS
 62
    7
 10
-337.74746750000008
 20
755.79522700000007
 11
-337.99746750000008
 21
755.63491799999997
  0
LINE
  8
_0-0_0
  6
CONTINUOUS
 62
    7
 10
-337.74746750000008
 20
755.79522700000007
 11
-337.99746750000008
 21
755.51611300000002
  0
LINE
  8
_0-0_0
  6
CONTINUOUS
 62
    7
 10
-337.74746750000008
 20
755.699432
 11
-337.99746750000008
 21
755.51611300000002
  0
LINE
  8
_0-0_0
  6
CONTINUOUS
 62
    7
 10
-337.74746750000008
 20
755.699432
 11
-337.99746750000008
 21
755.42233299999998
  0
LINE
  8
_0-0_0
  6
CONTINUOUS
 62
    7
 10
-337.74746750000008
 20
755.62664799999993
 11
-337.99746750000008
 21
755.42233299999998
  0
LINE
  8
_0-0_0
  6
CONTINUOUS
 62
    7
 10
-337.74746750000008
 20
755.62664799999993
 11
-337.99746750000008
 21
755.35461399999997
  0
LINE
  8
_0-0_0
  6
CONTINUOUS
 62
    7
 10
-337.74746750000008
 20
755.57769800000005
 11
-337.99746750000008
 21
755.35461399999997
  0
LINE
  8
_0-0_0
  6
CONTINUOUS
 62
    7
 10
-337.74746750000008
 20
755.57769800000005
 11
-337.99746750000008
 21
755.31368999999995
  0
LINE
  8
_0-0_0
  6
CONTINUOUS
 62
    7
 10
-337.74746750000008
 20
755.55306999999993
 11
-337.99746750000008
 21
755.31368999999995
  0
LINE
  8
_0-0_0
  6
CONTINUOUS
 62
    7
 10
-337.74746750000008
 20
755.55306999999993
 11
-337.99746750000008
 21
755.29998799999998
  0
LINE
  8
_0-0_0
  6
CONTINUOUS
 62
    7
 10
-337.49746750000008
 20
755.79998799999998
 11
-337.49746750000008
 21
759.55514500000004
  0
LINE
  8
_0-0_0
  6
CONTINUOUS
 62
    7
 10
-337.87744150000003
 20
759.88861099999997
 11
-337.99746750000008
 21
759.965057
  0
LINE
  8
_0-0_0
  6
CONTINUOUS
 62
    7
 10
-337.74746750000008
 20
759.68698100000006
 11
-337.99746750000008
 21
759.965057
  0
LINE
  8
_0-0_0
  6
CONTINUOUS
 62
    7
 10
-337.74746750000008
 20
759.68698100000006
 11
-337.99746750000008
 21
759.82254
  0
LINE
  8
_0-0_0
  6
CONTINUOUS
 62
    7
 10
-337.99746750000008
 20
759.65783699999997
 11
-347.24746750000008
 21
759.65783699999997
  0
LINE
  8
_0-0_0
  6
CONTINUOUS
 62
    7
 10
-347.49746750000008
 20
759.54855399999997
 11
-347.24746750000008
 21
759.65783699999997
  0
LINE
  8
_0-0_0
  6
CONTINUOUS
 62
    7
 10
-337.99746750000008
 20
759.47280899999998
 11
-347.24746750000008
 21
759.47280899999998
  0
LINE
  8
_0-0_0
  6
CONTINUOUS
 62
    7
 10
-347.49746750000008
 20
759.39096100000006
 11
-347.24746750000008
 21
759.47280899999998
  0
LINE
  8
_0-0_0
  6
CONTINUOUS
 62
    7
 10
-337.99746750000008
 20
759.26944000000003
 11
-347.24746750000008
 21
759.26944000000003
  0
LINE
  8
_0-0_0
  6
CONTINUOUS
 62
    7
 10
-347.49746750000008
 20
759.21597300000008
 11
-347.24746750000008
 21
759.26944000000003
  0
LINE
  8
_0-0_0
  6
CONTINUOUS
 62
    7
 10
-337.99746750000008
 20
759.04998799999998
 11
-347.24746750000008
 21
759.04998799999998
  0
LINE
  8
_0-0_0
  6
CONTINUOUS
 62
    7
 10
-347.49746750000008
 20
759.02542100000005
 11
-347.24746750000008
 21
759.04998799999998
  0
LINE
  8
_0-0_0
  6
CONTINUOUS
 62
    7
 10
-337.99746750000008
 20
758.81683399999997
 11
-347.24746750000008
 21
758.81683399999997
  0
LINE
  8
_0-0_0
  6
CONTINUOUS
 62
    7
 10
-337.74746750000008
 20
758.82147199999997
 11
-347.49746750000008
 21
758.82147199999997
  0
LINE
  8
_0-0_0
  6
CONTINUOUS
 62
    7
 10
-347.49746750000008
 20
758.82147199999997
 11
-347.24746750000008
 21
758.81683399999997
  0
LINE
  8
_0-0_0
  6
CONTINUOUS
 62
    7
 10
-337.99746750000008
 20
758.57254
 11
-347.24746750000008
 21
758.57254
  0
LINE
  8
_0-0_0
  6
CONTINUOUS
 62
    7
 10
-337.74746750000008
 20
758.60632299999997
 11
-347.49746750000008
 21
758.60632299999997
  0
LINE
  8
_0-0_0
  6
CONTINUOUS
 62
    7
 10
-347.49746750000008
 20
758.60632299999997
 11
-347.24746750000008
 21
758.57254
  0
LINE
  8
_0-0_0
  6
CONTINUOUS
 62
    7
 10
-337.99746750000008
 20
758.31976299999997
 11
-347.24746750000008
 21
758.31976299999997
  0
LINE
  8
_0-0_0
  6
CONTINUOUS
 62
    7
 10
-337.74746750000008
 20
758.38232399999993
 11
-347.49746750000008
 21
758.38232399999993
  0
LINE
  8
_0-0_0
  6
CONTINUOUS
 62
    7
 10
-347.49746750000008
 20
758.38232399999993
 11
-347.24746750000008
 21
758.31976299999997
  0
LINE
  8
_0-0_0
  6
CONTINUOUS
 62
    7
 10
-337.99746750000008
 20
758.06131000000005
 11
-347.24746750000008
 21
758.06131000000005
  0
LINE
  8
_0-0_0
  6
CONTINUOUS
 62
    7
 10
-337.74746750000008
 20
758.15197799999999
 11
-347.49746750000008
 21
758.15197799999999
  0
LINE
  8
_0-0_0
  6
CONTINUOUS
 62
    7
 10
-347.49746750000008
 20
758.15197799999999
 11
-347.24746750000008
 21
758.06131000000005
  0
LINE
  8
_0-0_0
  6
CONTINUOUS
 62
    7
 10
-337.99746750000008
 20
757.79998799999998
 11
-347.24746750000008
 21
757.79998799999998
  0
LINE
  8
_0-0_0
  6
CONTINUOUS
 62
    7
 10
-337.74746750000008
 20
757.91775499999994
 11
-347.49746750000008
 21
757.91775499999994
  0
LINE
  8
_0-0_0
  6
CONTINUOUS
 62
    7
 10
-347.49746750000008
 20
757.91775499999994
 11
-347.24746750000008
 21
757.79998799999998
  0
LINE
  8
_0-0_0
  6
CONTINUOUS
 62
    7
 10
-337.99746750000008
 20
757.53866599999992
 11
-347.24746750000008
 21
757.53866599999992
  0
LINE
  8
_0-0_0
  6
CONTINUOUS
 62
    7
 10
-337.74746750000008
 20
757.68222100000003
 11
-347.49746750000008
 21
757.68222100000003
  0
LINE
  8
_0-0_0
  6
CONTINUOUS
 62
    7
 10
-347.49746750000008
 20
757.68222100000003
 11
-347.24746750000008
 21
757.53866599999992
  0
LINE
  8
_0-0_0
  6
CONTINUOUS
 62
    7
 10
-337.99746750000008
 20
757.280213
 11
-347.24746750000008
 21
757.280213
  0
LINE
  8
_0-0_0
  6
CONTINUOUS
 62
    7
 10
-337.74746750000008
 20
757.44799799999998
 11
-347.49746750000008
 21
757.44799799999998
  0
LINE
  8
_0-0_0
  6
CONTINUOUS
 62
    7
 10
-347.49746750000008
 20
757.44799799999998
 11
-347.24746750000008
 21
757.280213
  0
LINE
  8
_0-0_0
  6
CONTINUOUS
 62
    7
 10
-337.99746750000008
 20
757.02743499999997
 11
-347.24746750000008
 21
757.02743499999997
  0
LINE
  8
_0-0_0
  6
CONTINUOUS
 62
    7
 10
-337.74746750000008
 20
757.21765099999993
 11
-347.49746750000008
 21
757.21765099999993
  0
LINE
  8
_0-0_0
  6
CONTINUOUS
 62
    7
 10
-347.49746750000008
 20
757.21765099999993
 11
-347.24746750000008
 21
757.02743499999997
  0
LINE
  8
_0-0_0
  6
CONTINUOUS
 62
    7
 10
-337.99746750000008
 20
756.783142
 11
-347.24746750000008
 21
756.783142
  0
LINE
  8
_0-0_0
  6
CONTINUOUS
 62
    7
 10
-337.74746750000008
 20
756.993652
 11
-347.49746750000008
 21
756.993652
  0
LINE
  8
_0-0_0
  6
CONTINUOUS
 62
    7
 10
-347.49746750000008
 20
756.993652
 11
-347.24746750000008
 21
756.783142
  0
LINE
  8
_0-0_0
  6
CONTINUOUS
 62
    7
 10
-337.99746750000008
 20
756.12716699999999
 11
-347.24746750000008
 21
756.12716699999999
  0
LINE
  8
_0-0_0
  6
CONTINUOUS
 62
    7
 10
-347.49746750000008
 20
756.38400300000001
 11
-347.24746750000008
 21
756.12716699999999
  0
LINE
  8
_0-0_0
  6
CONTINUOUS
 62
    7
 10
-337.99746750000008
 20
755.94210799999996
 11
-347.24746750000008
 21
755.94210799999996
  0
LINE
  8
_0-0_0
  6
CONTINUOUS
 62
    7
 10
-347.49746750000008
 20
756.20898399999999
 11
-347.24746750000008
 21
755.94210799999996
  0
LINE
  8
_0-0_0
  6
CONTINUOUS
 62
    7
 10
-337.99746750000008
 20
755.77743499999997
 11
-347.24746750000008
 21
755.77743499999997
  0
LINE
  8
_0-0_0
  6
CONTINUOUS
 62
    7
 10
-347.49746750000008
 20
756.051422
 11
-347.24746750000008
 21
755.77743499999997
  0
LINE
  8
_0-0_0
  6
CONTINUOUS
 62
    7
 10
-337.99746750000008
 20
755.63491799999997
 11
-347.24746750000008
 21
755.63491799999997
  0
LINE
  8
_0-0_0
  6
CONTINUOUS
 62
    7
 10
-347.49746750000008
 20
755.91299400000003
 11
-347.24746750000008
 21
755.63491799999997
  0
LINE
  8
_0-0_0
  6
CONTINUOUS
 62
    7
 10
-337.99746750000008
 20
755.51611300000002
 11
-347.24746750000008
 21
755.51611300000002
  0
LINE
  8
_0-0_0
  6
CONTINUOUS
 62
    7
 10
-347.49746750000008
 20
755.79522700000007
 11
-347.24746750000008
 21
755.51611300000002
  0
LINE
  8
_0-0_0
  6
CONTINUOUS
 62
    7
 10
-337.99746750000008
 20
755.42233299999998
 11
-347.24746750000008
 21
755.42233299999998
  0
LINE
  8
_0-0_0
  6
CONTINUOUS
 62
    7
 10
-347.49746750000008
 20
755.699432
 11
-347.24746750000008
 21
755.42233299999998
  0
LINE
  8
_0-0_0
  6
CONTINUOUS
 62
    7
 10
-337.99746750000008
 20
755.35461399999997
 11
-347.24746750000008
 21
755.35461399999997
  0
LINE
  8
_0-0_0
  6
CONTINUOUS
 62
    7
 10
-347.49746750000008
 20
755.62664799999993
 11
-347.24746750000008
 21
755.35461399999997
  0
LINE
  8
_0-0_0
  6
CONTINUOUS
 62
    7
 10
-337.99746750000008
 20
755.31368999999995
 11
-347.24746750000008
 21
755.31368999999995
  0
LINE
  8
_0-0_0
  6
CONTINUOUS
 62
    7
 10
-347.49746750000008
 20
755.57769800000005
 11
-347.24746750000008
 21
755.31368999999995
  0
LINE
  8
_0-0_0
  6
CONTINUOUS
 62
    7
 10
-337.99746750000008
 20
755.29998799999998
 11
-347.24746750000008
 21
755.29998799999998
  0
LINE
  8
_0-0_0
  6
CONTINUOUS
 62
    7
 10
-347.49746750000008
 20
755.55306999999993
 11
-347.24746750000008
 21
755.29998799999998
  0
LINE
  8
_0-0_0
  6
CONTINUOUS
 62
    7
 10
-337.99746750000008
 20
759.965057
 11
-347.24746750000008
 21
759.965057
  0
LINE
  8
_0-0_0
  6
CONTINUOUS
 62
    7
 10
-337.74746750000008
 20
759.80474900000002
 11
-337.87744150000003
 21
759.88861099999997
  0
LINE
  8
_0-0_0
  6
CONTINUOUS
 62
    7
 10
-347.49746750000008
 20
759.80474900000002
 11
-347.36752350000006
 21
759.88861099999997
  0
LINE
  8
_0-0_0
  6
CONTINUOUS
 62
    7
 10
-347.36752350000006
 20
759.88861099999997
 11
-347.24746750000008
 21
759.965057
  0
LINE
  8
_0-0_0
  6
CONTINUOUS
 62
    7
 10
-337.99746750000008
 20
759.82254
 11
-347.24746750000008
 21
759.82254
  0
LINE
  8
_0-0_0
  6
CONTINUOUS
 62
    7
 10
-347.49746750000008
 20
759.68698100000006
 11
-347.24746750000008
 21
759.82254
  0
LINE
  8
_0-0_0
  6
CONTINUOUS
 62
    7
 10
-337.74746750000008
 20
759.80474900000002
 11
-337.99746750000008
 21
760.08386199999995
  0
LINE
  8
_0-0_0
  6
CONTINUOUS
 62
    7
 10
-337.99746750000008
 20
760.08386199999995
 11
-347.24746750000008
 21
760.08386199999995
  0
LINE
  8
_0-0_0
  6
CONTINUOUS
 62
    7
 10
-347.49746750000008
 20
759.80474900000002
 11
-347.24746750000008
 21
760.08386199999995
  0
LINE
  8
_0-0_0
  6
CONTINUOUS
 62
    7
 10
-337.74746750000008
 20
759.90054299999997
 11
-337.99746750000008
 21
760.08386199999995
  0
LINE
  8
_0-0_0
  6
CONTINUOUS
 62
    7
 10
-347.49746750000008
 20
759.90054299999997
 11
-347.24746750000008
 21
760.08386199999995
  0
LINE
  8
_0-0_0
  6
CONTINUOUS
 62
    7
 10
-337.74746750000008
 20
759.90054299999997
 11
-337.99746750000008
 21
760.17764299999999
  0
LINE
  8
_0-0_0
  6
CONTINUOUS
 62
    7
 10
-337.99746750000008
 20
760.17764299999999
 11
-347.24746750000008
 21
760.17764299999999
  0
LINE
  8
_0-0_0
  6
CONTINUOUS
 62
    7
 10
-347.49746750000008
 20
759.90054299999997
 11
-347.24746750000008
 21
760.17764299999999
  0
LINE
  8
_0-0_0
  6
CONTINUOUS
 62
    7
 10
-337.74746750000008
 20
759.97332800000004
 11
-337.99746750000008
 21
760.17764299999999
  0
LINE
  8
_0-0_0
  6
CONTINUOUS
 62
    7
 10
-347.49746750000008
 20
759.97332800000004
 11
-347.24746750000008
 21
760.17764299999999
  0
LINE
  8
_0-0_0
  6
CONTINUOUS
 62
    7
 10
-337.74746750000008
 20
759.97332800000004
 11
-337.99746750000008
 21
760.245361
  0
LINE
  8
_0-0_0
  6
CONTINUOUS
 62
    7
 10
-337.99746750000008
 20
760.245361
 11
-347.24746750000008
 21
760.245361
  0
LINE
  8
_0-0_0
  6
CONTINUOUS
 62
    7
 10
-347.49746750000008
 20
759.97332800000004
 11
-347.24746750000008
 21
760.245361
  0
LINE
  8
_0-0_0
  6
CONTINUOUS
 62
    7
 10
-337.74746750000008
 20
760.02227799999991
 11
-337.99746750000008
 21
760.245361
  0
LINE
  8
_0-0_0
  6
CONTINUOUS
 62
    7
 10
-347.49746750000008
 20
760.02227799999991
 11
-347.24746750000008
 21
760.245361
  0
LINE
  8
_0-0_0
  6
CONTINUOUS
 62
    7
 10
-337.74746750000008
 20
760.02227799999991
 11
-337.99746750000008
 21
760.28628600000002
  0
LINE
  8
_0-0_0
  6
CONTINUOUS
 62
    7
 10
-337.99746750000008
 20
760.28628600000002
 11
-347.24746750000008
 21
760.28628600000002
  0
LINE
  8
_0-0_0
  6
CONTINUOUS
 62
    7
 10
-347.49746750000008
 20
760.02227799999991
 11
-347.24746750000008
 21
760.28628600000002
  0
LINE
  8
_0-0_0
  6
CONTINUOUS
 62
    7
 10
-337.74746750000008
 20
760.04690600000004
 11
-337.99746750000008
 21
760.28628600000002
  0
LINE
  8
_0-0_0
  6
CONTINUOUS
 62
    7
 10
-347.49746750000008
 20
760.04690600000004
 11
-347.24746750000008
 21
760.28628600000002
  0
LINE
  8
_0-0_0
  6
CONTINUOUS
 62
    7
 10
-337.74746750000008
 20
760.04690600000004
 11
-337.99746750000008
 21
760.29998799999998
  0
LINE
  8
_0-0_0
  6
CONTINUOUS
 62
    7
 10
-337.99746750000008
 20
760.29998799999998
 11
-347.24746750000008
 21
760.29998799999998
  0
LINE
  8
_0-0_0
  6
CONTINUOUS
 62
    7
 10
-347.49746750000008
 20
760.04690600000004
 11
-347.24746750000008
 21
760.29998799999998
  0
LINE
  8
_0-0_0
  6
CONTINUOUS
 62
    7
 10
-337.74746750000008
 20
773.17456100000004
 11
-337.99746750000008
 21
773.14999399999999
  0
LINE
  8
_0-0_0
  6
CONTINUOUS
 62
    7
 10
-337.99746750000008
 20
773.14999399999999
 11
-347.24746750000008
 21
773.14999399999999
  0
LINE
  8
_0-0_0
  6
CONTINUOUS
 62
    7
 10
-347.49746750000008
 20
773.17456100000004
 11
-347.24746750000008
 21
773.14999399999999
  0
LINE
  8
_0-0_0
  6
CONTINUOUS
 62
    7
 10
-337.74746750000008
 20
776.14855999999997
 11
-337.99746750000008
 21
776.42251599999997
  0
LINE
  8
_0-0_0
  6
CONTINUOUS
 62
    7
 10
-337.74746750000008
 20
776.14855999999997
 11
-337.99746750000008
 21
776.25784299999998
  0
LINE
  8
_0-0_0
  6
CONTINUOUS
 62
    7
 10
-337.74746750000008
 20
775.99096699999996
 11
-337.99746750000008
 21
776.25784299999998
  0
LINE
  8
_0-0_0
  6
CONTINUOUS
 62
    7
 10
-337.74746750000008
 20
775.99096699999996
 11
-337.99746750000008
 21
776.07281499999999
  0
LINE
  8
_0-0_0
  6
CONTINUOUS
 62
    7
 10
-337.74746750000008
 20
775.81594900000005
 11
-337.99746750000008
 21
776.07281499999999
  0
LINE
  8
_0-0_0
  6
CONTINUOUS
 62
    7
 10
-337.74746750000008
 20
775.81594900000005
 11
-337.99746750000008
 21
775.86944599999993
  0
LINE
  8
_0-0_0
  6
CONTINUOUS
 62
    7
 10
-337.74746750000008
 20
775.62542699999995
 11
-337.99746750000008
 21
775.86944599999993
  0
LINE
  8
_0-0_0
  6
CONTINUOUS
 62
    7
 10
-337.74746750000008
 20
775.62542699999995
 11
-337.99746750000008
 21
775.64999399999999
  0
LINE
  8
_0-0_0
  6
CONTINUOUS
 62
    7
 10
-337.74746750000008
 20
775.42147799999998
 11
-337.99746750000008
 21
775.64999399999999
  0
LINE
  8
_0-0_0
  6
CONTINUOUS
 62
    7
 10
-337.74746750000008
 20
775.42147799999998
 11
-337.99746750000008
 21
775.41683999999998
  0
LINE
  8
_0-0_0
  6
CONTINUOUS
 62
    7
 10
-337.74746750000008
 20
775.20632899999998
 11
-337.99746750000008
 21
775.41683999999998
  0
LINE
  8
_0-0_0
  6
CONTINUOUS
 62
    7
 10
-337.74746750000008
 20
775.20632899999998
 11
-337.99746750000008
 21
775.17251599999997
  0
LINE
  8
_0-0_0
  6
CONTINUOUS
 62
    7
 10
-337.74746750000008
 20
774.98233000000005
 11
-337.99746750000008
 21
775.17251599999997
  0
LINE
  8
_0-0_0
  6
CONTINUOUS
 62
    7
 10
-337.74746750000008
 20
774.98233000000005
 11
-337.99746750000008
 21
774.91976899999997
  0
LINE
  8
_0-0_0
  6
CONTINUOUS
 62
    7
 10
-337.74746750000008
 20
774.75195299999996
 11
-337.99746750000008
 21
774.91976899999997
  0
LINE
  8
_0-0_0
  6
CONTINUOUS
 62
    7
 10
-337.74746750000008
 20
774.75195299999996
 11
-337.99746750000008
 21
774.66131599999994
  0
LINE
  8
_0-0_0
  6
CONTINUOUS
 62
    7
 10
-337.74746750000008
 20
774.51773099999991
 11
-337.99746750000008
 21
774.66131599999994
  0
LINE
  8
_0-0_0
  6
CONTINUOUS
 62
    7
 10
-337.74746750000008
 20
774.51773099999991
 11
-337.99746750000008
 21
774.39999399999999
  0
LINE
  8
_0-0_0
  6
CONTINUOUS
 62
    7
 10
-337.74746750000008
 20
774.28222699999992
 11
-337.99746750000008
 21
774.39999399999999
  0
LINE
  8
_0-0_0
  6
CONTINUOUS
 62
    7
 10
-337.74746750000008
 20
774.28222699999992
 11
-337.99746750000008
 21
774.13867200000004
  0
LINE
  8
_0-0_0
  6
CONTINUOUS
 62
    7
 10
-337.74746750000008
 20
774.04800399999999
 11
-337.99746750000008
 21
774.13867200000004
  0
LINE
  8
_0-0_0
  6
CONTINUOUS
 62
    7
 10
-337.74746750000008
 20
774.04800399999999
 11
-337.99746750000008
 21
773.88021900000001
  0
LINE
  8
_0-0_0
  6
CONTINUOUS
 62
    7
 10
-337.74746750000008
 20
773.81765799999994
 11
-337.99746750000008
 21
773.88021900000001
  0
LINE
  8
_0-0_0
  6
CONTINUOUS
 62
    7
 10
-337.74746750000008
 20
773.81765799999994
 11
-337.99746750000008
 21
773.62744199999997
  0
LINE
  8
_0-0_0
  6
CONTINUOUS
 62
    7
 10
-337.74746750000008
 20
773.593659
 11
-337.99746750000008
 21
773.62744199999997
  0
LINE
  8
_0-0_0
  6
CONTINUOUS
 62
    7
 10
-337.74746750000008
 20
773.593659
 11
-337.99746750000008
 21
773.38314800000001
  0
LINE
  8
_0-0_0
  6
CONTINUOUS
 62
    7
 10
-337.74746750000008
 20
773.37851000000001
 11
-337.99746750000008
 21
773.38314800000001
  0
LINE
  8
_0-0_0
  6
CONTINUOUS
 62
    7
 10
-337.74746750000008
 20
773.37851000000001
 11
-337.99746750000008
 21
773.14999399999999
  0
LINE
  8
_0-0_0
  6
CONTINUOUS
 62
    7
 10
-337.74746750000008
 20
773.17456100000004
 11
-337.99746750000008
 21
772.93051199999991
  0
LINE
  8
_0-0_0
  6
CONTINUOUS
 62
    7
 10
-337.74746750000008
 20
772.98400900000001
 11
-337.99746750000008
 21
772.93051199999991
  0
LINE
  8
_0-0_0
  6
CONTINUOUS
 62
    7
 10
-337.74746750000008
 20
772.98400900000001
 11
-337.99746750000008
 21
772.72717299999999
  0
LINE
  8
_0-0_0
  6
CONTINUOUS
 62
    7
 10
-337.74746750000008
 20
772.80899099999999
 11
-337.99746750000008
 21
772.72717299999999
  0
LINE
  8
_0-0_0
  6
CONTINUOUS
 62
    7
 10
-337.74746750000008
 20
772.80899099999999
 11
-337.99746750000008
 21
772.54211399999997
  0
LINE
  8
_0-0_0
  6
CONTINUOUS
 62
    7
 10
-337.74746750000008
 20
772.65139799999997
 11
-337.99746750000008
 21
772.54211399999997
  0
LINE
  8
_0-0_0
  6
CONTINUOUS
 62
    7
 10
-337.74746750000008
 20
772.65139799999997
 11
-337.99746750000008
 21
772.37744199999997
  0
LINE
  8
_0-0_0
  6
CONTINUOUS
 62
    7
 10
-337.74746750000008
 20
772.51297
 11
-337.99746750000008
 21
772.37744199999997
  0
LINE
  8
_0-0_0
  6
CONTINUOUS
 62
    7
 10
-337.74746750000008
 20
772.51297
 11
-337.99746750000008
 21
772.23492399999998
  0
LINE
  8
_0-0_0
  6
CONTINUOUS
 62
    7
 10
-337.74746750000008
 20
772.39523299999996
 11
-337.99746750000008
 21
772.23492399999998
  0
LINE
  8
_0-0_0
  6
CONTINUOUS
 62
    7
 10
-337.74746750000008
 20
772.39523299999996
 11
-337.99746750000008
 21
772.11611900000003
  0
LINE
  8
_0-0_0
  6
CONTINUOUS
 62
    7
 10
-337.74746750000008
 20
772.29943900000001
 11
-337.99746750000008
 21
772.11611900000003
  0
LINE
  8
_0-0_0
  6
CONTINUOUS
 62
    7
 10
-337.74746750000008
 20
772.29943900000001
 11
-337.99746750000008
 21
772.02233899999999
  0
LINE
  8
_0-0_0
  6
CONTINUOUS
 62
    7
 10
-337.74746750000008
 20
772.22665400000005
 11
-337.99746750000008
 21
772.02233899999999
  0
LINE
  8
_0-0_0
  6
CONTINUOUS
 62
    7
 10
-337.74746750000008
 20
772.22665400000005
 11
-337.99746750000008
 21
771.95461999999998
  0
LINE
  8
_0-0_0
  6
CONTINUOUS
 62
    7
 10
-337.74746750000008
 20
772.17767299999991
 11
-337.99746750000008
 21
771.95461999999998
  0
LINE
  8
_0-0_0
  6
CONTINUOUS
 62
    7
 10
-337.74746750000008
 20
772.17767299999991
 11
-337.99746750000008
 21
771.91366599999992
  0
LINE
  8
_0-0_0
  6
CONTINUOUS
 62
    7
 10
-337.74746750000008
 20
772.15307600000006
 11
-337.99746750000008
 21
771.91366599999992
  0
LINE
  8
_0-0_0
  6
CONTINUOUS
 62
    7
 10
-337.74746750000008
 20
772.15307600000006
 11
-337.99746750000008
 21
771.89999399999999
  0
LINE
  8
_0-0_0
  6
CONTINUOUS
 62
    7
 10
-337.49746750000008
 20
772.39999399999999
 11
-337.49746750000008
 21
776.15515099999993
  0
LINE
  8
_0-0_0
  6
CONTINUOUS
 62
    7
 10
-337.87744150000003
 20
776.48861699999998
 11
-337.99746750000008
 21
776.56506400000001
  0
LINE
  8
_0-0_0
  6
CONTINUOUS
 62
    7
 10
-337.74746750000008
 20
776.28698699999995
 11
-337.99746750000008
 21
776.56506400000001
  0
LINE
  8
_0-0_0
  6
CONTINUOUS
 62
    7
 10
-337.74746750000008
 20
776.28698699999995
 11
-337.99746750000008
 21
776.42251599999997
  0
LINE
  8
_0-0_0
  6
CONTINUOUS
 62
    7
 10
-337.99746750000008
 20
776.25784299999998
 11
-347.24746750000008
 21
776.25784299999998
  0
LINE
  8
_0-0_0
  6
CONTINUOUS
 62
    7
 10
-347.49746750000008
 20
776.14855999999997
 11
-347.24746750000008
 21
776.25784299999998
  0
LINE
  8
_0-0_0
  6
CONTINUOUS
 62
    7
 10
-337.99746750000008
 20
776.07281499999999
 11
-347.24746750000008
 21
776.07281499999999
  0
LINE
  8
_0-0_0
  6
CONTINUOUS
 62
    7
 10
-347.49746750000008
 20
775.99096699999996
 11
-347.24746750000008
 21
776.07281499999999
  0
LINE
  8
_0-0_0
  6
CONTINUOUS
 62
    7
 10
-337.99746750000008
 20
775.86944599999993
 11
-347.24746750000008
 21
775.86944599999993
  0
LINE
  8
_0-0_0
  6
CONTINUOUS
 62
    7
 10
-347.49746750000008
 20
775.81594900000005
 11
-347.24746750000008
 21
775.86944599999993
  0
LINE
  8
_0-0_0
  6
CONTINUOUS
 62
    7
 10
-337.99746750000008
 20
775.64999399999999
 11
-347.24746750000008
 21
775.64999399999999
  0
LINE
  8
_0-0_0
  6
CONTINUOUS
 62
    7
 10
-347.49746750000008
 20
775.62542699999995
 11
-347.24746750000008
 21
775.64999399999999
  0
LINE
  8
_0-0_0
  6
CONTINUOUS
 62
    7
 10
-337.99746750000008
 20
775.41683999999998
 11
-347.24746750000008
 21
775.41683999999998
  0
LINE
  8
_0-0_0
  6
CONTINUOUS
 62
    7
 10
-337.74746750000008
 20
775.42147799999998
 11
-347.49746750000008
 21
775.42147799999998
  0
LINE
  8
_0-0_0
  6
CONTINUOUS
 62
    7
 10
-347.49746750000008
 20
775.42147799999998
 11
-347.24746750000008
 21
775.41683999999998
  0
LINE
  8
_0-0_0
  6
CONTINUOUS
 62
    7
 10
-337.99746750000008
 20
775.17251599999997
 11
-347.24746750000008
 21
775.17251599999997
  0
LINE
  8
_0-0_0
  6
CONTINUOUS
 62
    7
 10
-337.74746750000008
 20
775.20632899999998
 11
-347.49746750000008
 21
775.20632899999998
  0
LINE
  8
_0-0_0
  6
CONTINUOUS
 62
    7
 10
-347.49746750000008
 20
775.20632899999998
 11
-347.24746750000008
 21
775.17251599999997
  0
LINE
  8
_0-0_0
  6
CONTINUOUS
 62
    7
 10
-337.99746750000008
 20
774.91976899999997
 11
-347.24746750000008
 21
774.91976899999997
  0
LINE
  8
_0-0_0
  6
CONTINUOUS
 62
    7
 10
-337.74746750000008
 20
774.98233000000005
 11
-347.49746750000008
 21
774.98233000000005
  0
LINE
  8
_0-0_0
  6
CONTINUOUS
 62
    7
 10
-347.49746750000008
 20
774.98233000000005
 11
-347.24746750000008
 21
774.91976899999997
  0
LINE
  8
_0-0_0
  6
CONTINUOUS
 62
    7
 10
-337.99746750000008
 20
774.66131599999994
 11
-347.24746750000008
 21
774.66131599999994
  0
LINE
  8
_0-0_0
  6
CONTINUOUS
 62
    7
 10
-337.74746750000008
 20
774.75195299999996
 11
-347.49746750000008
 21
774.75195299999996
  0
LINE
  8
_0-0_0
  6
CONTINUOUS
 62
    7
 10
-347.49746750000008
 20
774.75195299999996
 11
-347.24746750000008
 21
774.66131599999994
  0
LINE
  8
_0-0_0
  6
CONTINUOUS
 62
    7
 10
-337.99746750000008
 20
774.39999399999999
 11
-347.24746750000008
 21
774.39999399999999
  0
LINE
  8
_0-0_0
  6
CONTINUOUS
 62
    7
 10
-337.74746750000008
 20
774.51773099999991
 11
-347.49746750000008
 21
774.51773099999991
  0
LINE
  8
_0-0_0
  6
CONTINUOUS
 62
    7
 10
-347.49746750000008
 20
774.51773099999991
 11
-347.24746750000008
 21
774.39999399999999
  0
LINE
  8
_0-0_0
  6
CONTINUOUS
 62
    7
 10
-337.99746750000008
 20
774.13867200000004
 11
-347.24746750000008
 21
774.13867200000004
  0
LINE
  8
_0-0_0
  6
CONTINUOUS
 62
    7
 10
-337.74746750000008
 20
774.28222699999992
 11
-347.49746750000008
 21
774.28222699999992
  0
LINE
  8
_0-0_0
  6
CONTINUOUS
 62
    7
 10
-347.49746750000008
 20
774.28222699999992
 11
-347.24746750000008
 21
774.13867200000004
  0
LINE
  8
_0-0_0
  6
CONTINUOUS
 62
    7
 10
-337.99746750000008
 20
773.88021900000001
 11
-347.24746750000008
 21
773.88021900000001
  0
LINE
  8
_0-0_0
  6
CONTINUOUS
 62
    7
 10
-337.74746750000008
 20
774.04800399999999
 11
-347.49746750000008
 21
774.04800399999999
  0
LINE
  8
_0-0_0
  6
CONTINUOUS
 62
    7
 10
-347.49746750000008
 20
774.04800399999999
 11
-347.24746750000008
 21
773.88021900000001
  0
LINE
  8
_0-0_0
  6
CONTINUOUS
 62
    7
 10
-337.99746750000008
 20
773.62744199999997
 11
-347.24746750000008
 21
773.62744199999997
  0
LINE
  8
_0-0_0
  6
CONTINUOUS
 62
    7
 10
-337.74746750000008
 20
773.81765799999994
 11
-347.49746750000008
 21
773.81765799999994
  0
LINE
  8
_0-0_0
  6
CONTINUOUS
 62
    7
 10
-347.49746750000008
 20
773.81765799999994
 11
-347.24746750000008
 21
773.62744199999997
  0
LINE
  8
_0-0_0
  6
CONTINUOUS
 62
    7
 10
-337.99746750000008
 20
773.38314800000001
 11
-347.24746750000008
 21
773.38314800000001
  0
LINE
  8
_0-0_0
  6
CONTINUOUS
 62
    7
 10
-337.74746750000008
 20
773.593659
 11
-347.49746750000008
 21
773.593659
  0
LINE
  8
_0-0_0
  6
CONTINUOUS
 62
    7
 10
-347.49746750000008
 20
773.593659
 11
-347.24746750000008
 21
773.38314800000001
  0
LINE
  8
_0-0_0
  6
CONTINUOUS
 62
    7
 10
-337.99746750000008
 20
772.72717299999999
 11
-347.24746750000008
 21
772.72717299999999
  0
LINE
  8
_0-0_0
  6
CONTINUOUS
 62
    7
 10
-347.49746750000008
 20
772.98400900000001
 11
-347.24746750000008
 21
772.72717299999999
  0
LINE
  8
_0-0_0
  6
CONTINUOUS
 62
    7
 10
-337.99746750000008
 20
772.54211399999997
 11
-347.24746750000008
 21
772.54211399999997
  0
LINE
  8
_0-0_0
  6
CONTINUOUS
 62
    7
 10
-347.49746750000008
 20
772.80899099999999
 11
-347.24746750000008
 21
772.54211399999997
  0
LINE
  8
_0-0_0
  6
CONTINUOUS
 62
    7
 10
-337.99746750000008
 20
772.37744199999997
 11
-347.24746750000008
 21
772.37744199999997
  0
LINE
  8
_0-0_0
  6
CONTINUOUS
 62
    7
 10
-347.49746750000008
 20
772.65139799999997
 11
-347.24746750000008
 21
772.37744199999997
  0
LINE
  8
_0-0_0
  6
CONTINUOUS
 62
    7
 10
-337.99746750000008
 20
772.23492399999998
 11
-347.24746750000008
 21
772.23492399999998
  0
LINE
  8
_0-0_0
  6
CONTINUOUS
 62
    7
 10
-347.49746750000008
 20
772.51297
 11
-347.24746750000008
 21
772.23492399999998
  0
LINE
  8
_0-0_0
  6
CONTINUOUS
 62
    7
 10
-337.99746750000008
 20
772.11611900000003
 11
-347.24746750000008
 21
772.11611900000003
  0
LINE
  8
_0-0_0
  6
CONTINUOUS
 62
    7
 10
-347.49746750000008
 20
772.39523299999996
 11
-347.24746750000008
 21
772.11611900000003
  0
LINE
  8
_0-0_0
  6
CONTINUOUS
 62
    7
 10
-337.99746750000008
 20
772.02233899999999
 11
-347.24746750000008
 21
772.02233899999999
  0
LINE
  8
_0-0_0
  6
CONTINUOUS
 62
    7
 10
-347.49746750000008
 20
772.29943900000001
 11
-347.24746750000008
 21
772.02233899999999
  0
LINE
  8
_0-0_0
  6
CONTINUOUS
 62
    7
 10
-337.99746750000008
 20
771.95461999999998
 11
-347.24746750000008
 21
771.95461999999998
  0
LINE
  8
_0-0_0
  6
CONTINUOUS
 62
    7
 10
-347.49746750000008
 20
772.22665400000005
 11
-347.24746750000008
 21
771.95461999999998
  0
LINE
  8
_0-0_0
  6
CONTINUOUS
 62
    7
 10
-337.99746750000008
 20
771.91366599999992
 11
-347.24746750000008
 21
771.91366599999992
  0
LINE
  8
_0-0_0
  6
CONTINUOUS
 62
    7
 10
-347.49746750000008
 20
772.17767299999991
 11
-347.24746750000008
 21
771.91366599999992
  0
LINE
  8
_0-0_0
  6
CONTINUOUS
 62
    7
 10
-337.99746750000008
 20
771.89999399999999
 11
-347.24746750000008
 21
771.89999399999999
  0
LINE
  8
_0-0_0
  6
CONTINUOUS
 62
    7
 10
-347.49746750000008
 20
772.15307600000006
 11
-347.24746750000008
 21
771.89999399999999
  0
LINE
  8
_0-0_0
  6
CONTINUOUS
 62
    7
 10
-337.99746750000008
 20
776.56506400000001
 11
-347.24746750000008
 21
776.56506400000001
  0
LINE
  8
_0-0_0
  6
CONTINUOUS
 62
    7
 10
-337.74746750000008
 20
776.40475500000002
 11
-337.87744150000003
 21
776.48861699999998
  0
LINE
  8
_0-0_0
  6
CONTINUOUS
 62
    7
 10
-347.49746750000008
 20
776.40475500000002
 11
-347.36752350000006
 21
776.48861699999998
  0
LINE
  8
_0-0_0
  6
CONTINUOUS
 62
    7
 10
-347.36752350000006
 20
776.48861699999998
 11
-347.24746750000008
 21
776.56506400000001
  0
LINE
  8
_0-0_0
  6
CONTINUOUS
 62
    7
 10
-337.99746750000008
 20
776.42251599999997
 11
-347.24746750000008
 21
776.42251599999997
  0
LINE
  8
_0-0_0
  6
CONTINUOUS
 62
    7
 10
-347.49746750000008
 20
776.28698699999995
 11
-347.24746750000008
 21
776.42251599999997
  0
LINE
  8
_0-0_0
  6
CONTINUOUS
 62
    7
 10
-337.74746750000008
 20
776.40475500000002
 11
-337.99746750000008
 21
776.68383799999992
  0
LINE
  8
_0-0_0
  6
CONTINUOUS
 62
    7
 10
-337.99746750000008
 20
776.68383799999992
 11
-347.24746750000008
 21
776.68383799999992
  0
LINE
  8
_0-0_0
  6
CONTINUOUS
 62
    7
 10
-347.49746750000008
 20
776.40475500000002
 11
-347.24746750000008
 21
776.68383799999992
  0
LINE
  8
_0-0_0
  6
CONTINUOUS
 62
    7
 10
-337.74746750000008
 20
776.50054899999998
 11
-337.99746750000008
 21
776.68383799999992
  0
LINE
  8
_0-0_0
  6
CONTINUOUS
 62
    7
 10
-347.49746750000008
 20
776.50054899999998
 11
-347.24746750000008
 21
776.68383799999992
  0
LINE
  8
_0-0_0
  6
CONTINUOUS
 62
    7
 10
-337.74746750000008
 20
776.50054899999998
 11
-337.99746750000008
 21
776.77761899999996
  0
LINE
  8
_0-0_0
  6
CONTINUOUS
 62
    7
 10
-337.99746750000008
 20
776.77761899999996
 11
-347.24746750000008
 21
776.77761899999996
  0
LINE
  8
_0-0_0
  6
CONTINUOUS
 62
    7
 10
-347.49746750000008
 20
776.50054899999998
 11
-347.24746750000008
 21
776.77761899999996
  0
LINE
  8
_0-0_0
  6
CONTINUOUS
 62
    7
 10
-337.74746750000008
 20
776.57333399999993
 11
-337.99746750000008
 21
776.77761899999996
  0
LINE
  8
_0-0_0
  6
CONTINUOUS
 62
    7
 10
-347.49746750000008
 20
776.57333399999993
 11
-347.24746750000008
 21
776.77761899999996
  0
LINE
  8
_0-0_0
  6
CONTINUOUS
 62
    7
 10
-337.74746750000008
 20
776.57333399999993
 11
-337.99746750000008
 21
776.84536800000001
  0
LINE
  8
_0-0_0
  6
CONTINUOUS
 62
    7
 10
-337.99746750000008
 20
776.84536800000001
 11
-347.24746750000008
 21
776.84536800000001
  0
LINE
  8
_0-0_0
  6
CONTINUOUS
 62
    7
 10
-347.49746750000008
 20
776.57333399999993
 11
-347.24746750000008
 21
776.84536800000001
  0
LINE
  8
_0-0_0
  6
CONTINUOUS
 62
    7
 10
-337.74746750000008
 20
776.62228400000004
 11
-337.99746750000008
 21
776.84536800000001
  0
LINE
  8
_0-0_0
  6
CONTINUOUS
 62
    7
 10
-347.49746750000008
 20
776.62228400000004
 11
-347.24746750000008
 21
776.84536800000001
  0
LINE
  8
_0-0_0
  6
CONTINUOUS
 62
    7
 10
-337.74746750000008
 20
776.62228400000004
 11
-337.99746750000008
 21
776.88629199999991
  0
LINE
  8
_0-0_0
  6
CONTINUOUS
 62
    7
 10
-337.99746750000008
 20
776.88629199999991
 11
-347.24746750000008
 21
776.88629199999991
  0
LINE
  8
_0-0_0
  6
CONTINUOUS
 62
    7
 10
-347.49746750000008
 20
776.62228400000004
 11
-347.24746750000008
 21
776.88629199999991
  0
LINE
  8
_0-0_0
  6
CONTINUOUS
 62
    7
 10
-337.74746750000008
 20
776.64691199999993
 11
-337.99746750000008
 21
776.88629199999991
  0
LINE
  8
_0-0_0
  6
CONTINUOUS
 62
    7
 10
-347.49746750000008
 20
776.64691199999993
 11
-347.24746750000008
 21
776.88629199999991
  0
LINE
  8
_0-0_0
  6
CONTINUOUS
 62
    7
 10
-337.74746750000008
 20
776.64691199999993
 11
-337.99746750000008
 21
776.89999399999999
  0
LINE
  8
_0-0_0
  6
CONTINUOUS
 62
    7
 10
-337.99746750000008
 20
776.89999399999999
 11
-347.24746750000008
 21
776.89999399999999
  0
LINE
  8
_0-0_0
  6
CONTINUOUS
 62
    7
 10
-347.49746750000008
 20
776.64691199999993
 11
-347.24746750000008
 21
776.89999399999999
  0
LINE
  8
_0-0_0
  6
CONTINUOUS
 62
    7
 10
-292.29748549999999
 20
762.09997599999997
 11
-292.29748549999999
 21
762.10134900000003
  0
LINE
  8
_0-0_0
  6
CONTINUOUS
 62
    7
 10
-292.29748549999999
 20
762.10134900000003
 11
-292.29748549999999
 21
770.09997599999997
  0
LINE
  8
_0-0_0
  6
CONTINUOUS
 62
    7
 10
-347.49746750000008
 20
776.28698699999995
 11
-347.24746750000008
 21
776.56506400000001
  0
LINE
  8
_0-0_0
  6
CONTINUOUS
 62
    7
 10
-337.49746750000008
 20
776.15515099999993
 11
-337.49746750000008
 21
776.39999399999999
  0
LINE
  8
_0-0_0
  6
CONTINUOUS
 62
    7
 10
-347.49746750000008
 20
772.15307600000006
 11
-347.24746750000008
 21
771.91366599999992
  0
LINE
  8
_0-0_0
  6
CONTINUOUS
 62
    7
 10
-347.49746750000008
 20
772.17767299999991
 11
-347.24746750000008
 21
771.95461999999998
  0
LINE
  8
_0-0_0
  6
CONTINUOUS
 62
    7
 10
-347.49746750000008
 20
772.22665400000005
 11
-347.24746750000008
 21
772.02233899999999
  0
LINE
  8
_0-0_0
  6
CONTINUOUS
 62
    7
 10
-347.49746750000008
 20
772.29943900000001
 11
-347.24746750000008
 21
772.11611900000003
  0
LINE
  8
_0-0_0
  6
CONTINUOUS
 62
    7
 10
-347.49746750000008
 20
772.39523299999996
 11
-347.24746750000008
 21
772.23492399999998
  0
LINE
  8
_0-0_0
  6
CONTINUOUS
 62
    7
 10
-347.49746750000008
 20
772.51297
 11
-347.24746750000008
 21
772.37744199999997
  0
LINE
  8
_0-0_0
  6
CONTINUOUS
 62
    7
 10
-347.49746750000008
 20
772.65139799999997
 11
-347.24746750000008
 21
772.54211399999997
  0
LINE
  8
_0-0_0
  6
CONTINUOUS
 62
    7
 10
-347.49746750000008
 20
772.80899099999999
 11
-347.24746750000008
 21
772.72717299999999
  0
LINE
  8
_0-0_0
  6
CONTINUOUS
 62
    7
 10
-337.99746750000008
 20
772.93051199999991
 11
-347.24746750000008
 21
772.93051199999991
  0
LINE
  8
_0-0_0
  6
CONTINUOUS
 62
    7
 10
-347.49746750000008
 20
772.98400900000001
 11
-347.24746750000008
 21
772.93051199999991
  0
LINE
  8
_0-0_0
  6
CONTINUOUS
 62
    7
 10
-347.49746750000008
 20
773.37851000000001
 11
-347.24746750000008
 21
773.38314800000001
  0
LINE
  8
_0-0_0
  6
CONTINUOUS
 62
    7
 10
-337.74746750000008
 20
773.37851000000001
 11
-347.49746750000008
 21
773.37851000000001
  0
LINE
  8
_0-0_0
  6
CONTINUOUS
 62
    7
 10
-347.49746750000008
 20
773.593659
 11
-347.24746750000008
 21
773.62744199999997
  0
LINE
  8
_0-0_0
  6
CONTINUOUS
 62
    7
 10
-347.49746750000008
 20
773.81765799999994
 11
-347.24746750000008
 21
773.88021900000001
  0
LINE
  8
_0-0_0
  6
CONTINUOUS
 62
    7
 10
-347.49746750000008
 20
774.04800399999999
 11
-347.24746750000008
 21
774.13867200000004
  0
LINE
  8
_0-0_0
  6
CONTINUOUS
 62
    7
 10
-347.49746750000008
 20
774.28222699999992
 11
-347.24746750000008
 21
774.39999399999999
  0
LINE
  8
_0-0_0
  6
CONTINUOUS
 62
    7
 10
-347.49746750000008
 20
774.51773099999991
 11
-347.24746750000008
 21
774.66131599999994
  0
LINE
  8
_0-0_0
  6
CONTINUOUS
 62
    7
 10
-347.49746750000008
 20
774.75195299999996
 11
-347.24746750000008
 21
774.91976899999997
  0
LINE
  8
_0-0_0
  6
CONTINUOUS
 62
    7
 10
-347.49746750000008
 20
774.98233000000005
 11
-347.24746750000008
 21
775.17251599999997
  0
LINE
  8
_0-0_0
  6
CONTINUOUS
 62
    7
 10
-347.49746750000008
 20
775.20632899999998
 11
-347.24746750000008
 21
775.41683999999998
  0
LINE
  8
_0-0_0
  6
CONTINUOUS
 62
    7
 10
-347.49746750000008
 20
775.42147799999998
 11
-347.24746750000008
 21
775.64999399999999
  0
LINE
  8
_0-0_0
  6
CONTINUOUS
 62
    7
 10
-347.49746750000008
 20
775.62542699999995
 11
-347.24746750000008
 21
775.86944599999993
  0
LINE
  8
_0-0_0
  6
CONTINUOUS
 62
    7
 10
-347.49746750000008
 20
775.81594900000005
 11
-347.24746750000008
 21
776.07281499999999
  0
LINE
  8
_0-0_0
  6
CONTINUOUS
 62
    7
 10
-347.49746750000008
 20
775.99096699999996
 11
-347.24746750000008
 21
776.25784299999998
  0
LINE
  8
_0-0_0
  6
CONTINUOUS
 62
    7
 10
-347.49746750000008
 20
776.14855999999997
 11
-347.24746750000008
 21
776.42251599999997
  0
LINE
  8
_0-0_0
  6
CONTINUOUS
 62
    7
 10
-347.49746750000008
 20
773.17456100000004
 11
-347.24746750000008
 21
772.93051199999991
  0
LINE
  8
_0-0_0
  6
CONTINUOUS
 62
    7
 10
-347.49746750000008
 20
773.37851000000001
 11
-347.24746750000008
 21
773.14999399999999
  0
LINE
  8
_0-0_0
  6
CONTINUOUS
 62
    7
 10
-347.49746750000008
 20
759.68698100000006
 11
-347.24746750000008
 21
759.965057
  0
LINE
  8
_0-0_0
  6
CONTINUOUS
 62
    7
 10
-337.49746750000008
 20
759.55514500000004
 11
-337.49746750000008
 21
759.79998799999998
  0
LINE
  8
_0-0_0
  6
CONTINUOUS
 62
    7
 10
-347.49746750000008
 20
755.55306999999993
 11
-347.24746750000008
 21
755.31368999999995
  0
LINE
  8
_0-0_0
  6
CONTINUOUS
 62
    7
 10
-347.49746750000008
 20
755.57769800000005
 11
-347.24746750000008
 21
755.35461399999997
  0
LINE
  8
_0-0_0
  6
CONTINUOUS
 62
    7
 10
-347.49746750000008
 20
755.62664799999993
 11
-347.24746750000008
 21
755.42233299999998
  0
LINE
  8
_0-0_0
  6
CONTINUOUS
 62
    7
 10
-347.49746750000008
 20
755.699432
 11
-347.24746750000008
 21
755.51611300000002
  0
LINE
  8
_0-0_0
  6
CONTINUOUS
 62
    7
 10
-347.49746750000008
 20
755.79522700000007
 11
-347.24746750000008
 21
755.63491799999997
  0
LINE
  8
_0-0_0
  6
CONTINUOUS
 62
    7
 10
-347.49746750000008
 20
755.91299400000003
 11
-347.24746750000008
 21
755.77743499999997
  0
LINE
  8
_0-0_0
  6
CONTINUOUS
 62
    7
 10
-347.49746750000008
 20
756.051422
 11
-347.24746750000008
 21
755.94210799999996
  0
LINE
  8
_0-0_0
  6
CONTINUOUS
 62
    7
 10
-347.49746750000008
 20
756.20898399999999
 11
-347.24746750000008
 21
756.12716699999999
  0
LINE
  8
_0-0_0
  6
CONTINUOUS
 62
    7
 10
-337.99746750000008
 20
756.33053599999994
 11
-347.24746750000008
 21
756.33053599999994
  0
LINE
  8
_0-0_0
  6
CONTINUOUS
 62
    7
 10
-347.49746750000008
 20
756.38400300000001
 11
-347.24746750000008
 21
756.33053599999994
  0
LINE
  8
_0-0_0
  6
CONTINUOUS
 62
    7
 10
-347.49746750000008
 20
756.778504
 11
-347.24746750000008
 21
756.783142
  0
LINE
  8
_0-0_0
  6
CONTINUOUS
 62
    7
 10
-337.74746750000008
 20
756.778504
 11
-347.49746750000008
 21
756.778504
  0
LINE
  8
_0-0_0
  6
CONTINUOUS
 62
    7
 10
-347.49746750000008
 20
756.993652
 11
-347.24746750000008
 21
757.02743499999997
  0
LINE
  8
_0-0_0
  6
CONTINUOUS
 62
    7
 10
-347.49746750000008
 20
757.21765099999993
 11
-347.24746750000008
 21
757.280213
  0
LINE
  8
_0-0_0
  6
CONTINUOUS
 62
    7
 10
-347.49746750000008
 20
757.44799799999998
 11
-347.24746750000008
 21
757.53866599999992
  0
LINE
  8
_0-0_0
  6
CONTINUOUS
 62
    7
 10
-347.49746750000008
 20
757.68222100000003
 11
-347.24746750000008
 21
757.79998799999998
  0
LINE
  8
_0-0_0
  6
CONTINUOUS
 62
    7
 10
-347.49746750000008
 20
757.91775499999994
 11
-347.24746750000008
 21
758.06131000000005
  0
LINE
  8
_0-0_0
  6
CONTINUOUS
 62
    7
 10
-347.49746750000008
 20
758.15197799999999
 11
-347.24746750000008
 21
758.31976299999997
  0
LINE
  8
_0-0_0
  6
CONTINUOUS
 62
    7
 10
-347.49746750000008
 20
758.38232399999993
 11
-347.24746750000008
 21
758.57254
  0
LINE
  8
_0-0_0
  6
CONTINUOUS
 62
    7
 10
-347.49746750000008
 20
758.60632299999997
 11
-347.24746750000008
 21
758.81683399999997
  0
LINE
  8
_0-0_0
  6
CONTINUOUS
 62
    7
 10
-347.49746750000008
 20
758.82147199999997
 11
-347.24746750000008
 21
759.04998799999998
  0
LINE
  8
_0-0_0
  6
CONTINUOUS
 62
    7
 10
-347.49746750000008
 20
759.02542100000005
 11
-347.24746750000008
 21
759.26944000000003
  0
LINE
  8
_0-0_0
  6
CONTINUOUS
 62
    7
 10
-347.49746750000008
 20
759.21597300000008
 11
-347.24746750000008
 21
759.47280899999998
  0
LINE
  8
_0-0_0
  6
CONTINUOUS
 62
    7
 10
-347.49746750000008
 20
759.39096100000006
 11
-347.24746750000008
 21
759.65783699999997
  0
LINE
  8
_0-0_0
  6
CONTINUOUS
 62
    7
 10
-347.49746750000008
 20
759.54855399999997
 11
-347.24746750000008
 21
759.82254
  0
LINE
  8
_0-0_0
  6
CONTINUOUS
 62
    7
 10
-347.49746750000008
 20
756.57455499999992
 11
-347.24746750000008
 21
756.33053599999994
  0
LINE
  8
_0-0_0
  6
CONTINUOUS
 62
    7
 10
-347.49746750000008
 20
756.778504
 11
-347.24746750000008
 21
756.54998799999998
  0
LINE
  8
_0-0_0
  6
CONTINUOUS
 62
    7
 10
-350.29748549999999
 20
761.56185899999991
 11
-350.29748549999999
 21
763.83093299999996
  0
LINE
  8
_0-0_0
  6
CONTINUOUS
 62
    7
 10
-350.29748549999999
 20
763.83093299999996
 11
-350.29748549999999
 21
770.63809199999992
  0
LINE
  8
_0-0_0
  6
CONTINUOUS
 62
    7
 10
-347.49746750000008
 20
773.37851000000001
 11
-347.49746750000008
 21
773.593659
  0
LINE
  8
_0-0_0
  6
CONTINUOUS
 62
    7
 10
-347.49746750000008
 20
773.593659
 11
-347.49746750000008
 21
773.81765799999994
  0
LINE
  8
_0-0_0
  6
CONTINUOUS
 62
    7
 10
-347.49746750000008
 20
773.81765799999994
 11
-347.49746750000008
 21
774.04800399999999
  0
LINE
  8
_0-0_0
  6
CONTINUOUS
 62
    7
 10
-347.49746750000008
 20
774.04800399999999
 11
-347.49746750000008
 21
774.28222699999992
  0
LINE
  8
_0-0_0
  6
CONTINUOUS
 62
    7
 10
-347.49746750000008
 20
774.28222699999992
 11
-347.49746750000008
 21
774.51773099999991
  0
LINE
  8
_0-0_0
  6
CONTINUOUS
 62
    7
 10
-347.49746750000008
 20
774.51773099999991
 11
-347.49746750000008
 21
774.75195299999996
  0
LINE
  8
_0-0_0
  6
CONTINUOUS
 62
    7
 10
-347.49746750000008
 20
774.75195299999996
 11
-347.49746750000008
 21
774.98233000000005
  0
LINE
  8
_0-0_0
  6
CONTINUOUS
 62
    7
 10
-347.49746750000008
 20
774.98233000000005
 11
-347.49746750000008
 21
775.20632899999998
  0
LINE
  8
_0-0_0
  6
CONTINUOUS
 62
    7
 10
-347.49746750000008
 20
775.20632899999998
 11
-347.49746750000008
 21
775.42147799999998
  0
LINE
  8
_0-0_0
  6
CONTINUOUS
 62
    7
 10
-347.49746750000008
 20
775.42147799999998
 11
-347.49746750000008
 21
775.62542699999995
  0
LINE
  8
_0-0_0
  6
CONTINUOUS
 62
    7
 10
-347.49746750000008
 20
775.62542699999995
 11
-347.49746750000008
 21
775.81594900000005
  0
LINE
  8
_0-0_0
  6
CONTINUOUS
 62
    7
 10
-347.49746750000008
 20
775.81594900000005
 11
-347.49746750000008
 21
775.99096699999996
  0
LINE
  8
_0-0_0
  6
CONTINUOUS
 62
    7
 10
-347.49746750000008
 20
775.99096699999996
 11
-347.49746750000008
 21
776.14855999999997
  0
LINE
  8
_0-0_0
  6
CONTINUOUS
 62
    7
 10
-347.49746750000008
 20
776.14855999999997
 11
-347.49746750000008
 21
776.28698699999995
  0
LINE
  8
_0-0_0
  6
CONTINUOUS
 62
    7
 10
-347.49746750000008
 20
776.28698699999995
 11
-347.49746750000008
 21
776.37454200000002
  0
LINE
  8
_0-0_0
  6
CONTINUOUS
 62
    7
 10
-347.49746750000008
 20
776.37454200000002
 11
-347.49746750000008
 21
776.40475500000002
  0
LINE
  8
_0-0_0
  6
CONTINUOUS
 62
    7
 10
-347.49746750000008
 20
776.40475500000002
 11
-347.49746750000008
 21
776.50054899999998
  0
LINE
  8
_0-0_0
  6
CONTINUOUS
 62
    7
 10
-347.49746750000008
 20
776.50054899999998
 11
-347.49746750000008
 21
776.57333399999993
  0
LINE
  8
_0-0_0
  6
CONTINUOUS
 62
    7
 10
-347.49746750000008
 20
776.57333399999993
 11
-347.49746750000008
 21
776.64999399999999
  0
LINE
  8
_0-0_0
  6
CONTINUOUS
 62
    7
 10
-347.49746750000008
 20
776.62228400000004
 11
-347.49746750000008
 21
776.64691199999993
  0
LINE
  8
_0-0_0
  6
CONTINUOUS
 62
    7
 10
-347.49746750000008
 20
776.64691199999993
 11
-347.49746750000008
 21
776.64999399999999
  0
LINE
  8
_0-0_0
  6
CONTINUOUS
 62
    7
 10
-347.49746750000008
 20
772.14999399999999
 11
-347.49746750000008
 21
772.15307600000006
  0
LINE
  8
_0-0_0
  6
CONTINUOUS
 62
    7
 10
-347.49746750000008
 20
772.15307600000006
 11
-347.49746750000008
 21
772.17767299999991
  0
LINE
  8
_0-0_0
  6
CONTINUOUS
 62
    7
 10
-347.49746750000008
 20
772.17767299999991
 11
-347.49746750000008
 21
772.22665400000005
  0
LINE
  8
_0-0_0
  6
CONTINUOUS
 62
    7
 10
-347.49746750000008
 20
772.22665400000005
 11
-347.49746750000008
 21
772.29943900000001
  0
LINE
  8
_0-0_0
  6
CONTINUOUS
 62
    7
 10
-347.49746750000008
 20
772.14999399999999
 11
-347.49746750000008
 21
772.39523299999996
  0
LINE
  8
_0-0_0
  6
CONTINUOUS
 62
    7
 10
-347.49746750000008
 20
772.39523299999996
 11
-347.49746750000008
 21
772.51297
  0
LINE
  8
_0-0_0
  6
CONTINUOUS
 62
    7
 10
-347.49746750000008
 20
772.51297
 11
-347.49746750000008
 21
772.65139799999997
  0
LINE
  8
_0-0_0
  6
CONTINUOUS
 62
    7
 10
-347.49746750000008
 20
772.65139799999997
 11
-347.49746750000008
 21
772.80899099999999
  0
LINE
  8
_0-0_0
  6
CONTINUOUS
 62
    7
 10
-347.49746750000008
 20
772.80899099999999
 11
-347.49746750000008
 21
772.98400900000001
  0
LINE
  8
_0-0_0
  6
CONTINUOUS
 62
    7
 10
-347.49746750000008
 20
772.98400900000001
 11
-347.49746750000008
 21
773.17456100000004
  0
LINE
  8
_0-0_0
  6
CONTINUOUS
 62
    7
 10
-347.49746750000008
 20
773.32128899999998
 11
-347.49746750000008
 21
773.37851000000001
  0
LINE
  8
_0-0_0
  6
CONTINUOUS
 62
    7
 10
-347.49746750000008
 20
773.17456100000004
 11
-347.49746750000008
 21
773.32128899999998
  0
LINE
  8
_0-0_0
  6
CONTINUOUS
 62
    7
 10
-347.49746750000008
 20
756.778504
 11
-347.49746750000008
 21
756.993652
  0
LINE
  8
_0-0_0
  6
CONTINUOUS
 62
    7
 10
-347.49746750000008
 20
756.993652
 11
-347.49746750000008
 21
757.21765099999993
  0
LINE
  8
_0-0_0
  6
CONTINUOUS
 62
    7
 10
-347.49746750000008
 20
757.21765099999993
 11
-347.49746750000008
 21
757.44799799999998
  0
LINE
  8
_0-0_0
  6
CONTINUOUS
 62
    7
 10
-347.49746750000008
 20
757.44799799999998
 11
-347.49746750000008
 21
757.68222100000003
  0
LINE
  8
_0-0_0
  6
CONTINUOUS
 62
    7
 10
-347.49746750000008
 20
757.68222100000003
 11
-347.49746750000008
 21
757.91775499999994
  0
LINE
  8
_0-0_0
  6
CONTINUOUS
 62
    7
 10
-347.49746750000008
 20
757.91775499999994
 11
-347.49746750000008
 21
758.15197799999999
  0
LINE
  8
_0-0_0
  6
CONTINUOUS
 62
    7
 10
-347.49746750000008
 20
758.15197799999999
 11
-347.49746750000008
 21
758.38232399999993
  0
LINE
  8
_0-0_0
  6
CONTINUOUS
 62
    7
 10
-347.49746750000008
 20
758.38232399999993
 11
-347.49746750000008
 21
758.60632299999997
  0
LINE
  8
_0-0_0
  6
CONTINUOUS
 62
    7
 10
-347.49746750000008
 20
758.60632299999997
 11
-347.49746750000008
 21
758.82147199999997
  0
LINE
  8
_0-0_0
  6
CONTINUOUS
 62
    7
 10
-347.49746750000008
 20
758.82147199999997
 11
-347.49746750000008
 21
759.02542100000005
  0
LINE
  8
_0-0_0
  6
CONTINUOUS
 62
    7
 10
-347.49746750000008
 20
759.02542100000005
 11
-347.49746750000008
 21
759.21597300000008
  0
LINE
  8
_0-0_0
  6
CONTINUOUS
 62
    7
 10
-347.49746750000008
 20
759.21597300000008
 11
-347.49746750000008
 21
759.39096100000006
  0
LINE
  8
_0-0_0
  6
CONTINUOUS
 62
    7
 10
-347.49746750000008
 20
759.39096100000006
 11
-347.49746750000008
 21
759.54855399999997
  0
LINE
  8
_0-0_0
  6
CONTINUOUS
 62
    7
 10
-347.49746750000008
 20
759.54855399999997
 11
-347.49746750000008
 21
759.68698100000006
  0
LINE
  8
_0-0_0
  6
CONTINUOUS
 62
    7
 10
-347.49746750000008
 20
759.68698100000006
 11
-347.49746750000008
 21
759.77453600000001
  0
LINE
  8
_0-0_0
  6
CONTINUOUS
 62
    7
 10
-347.49746750000008
 20
759.77453600000001
 11
-347.49746750000008
 21
759.80474900000002
  0
LINE
  8
_0-0_0
  6
CONTINUOUS
 62
    7
 10
-347.49746750000008
 20
759.80474900000002
 11
-347.49746750000008
 21
759.90054299999997
  0
LINE
  8
_0-0_0
  6
CONTINUOUS
 62
    7
 10
-347.49746750000008
 20
759.90054299999997
 11
-347.49746750000008
 21
759.97332800000004
  0
LINE
  8
_0-0_0
  6
CONTINUOUS
 62
    7
 10
-347.49746750000008
 20
759.97332800000004
 11
-347.49746750000008
 21
760.04998799999998
  0
LINE
  8
_0-0_0
  6
CONTINUOUS
 62
    7
 10
-347.49746750000008
 20
760.02227799999991
 11
-347.49746750000008
 21
760.04690600000004
  0
LINE
  8
_0-0_0
  6
CONTINUOUS
 62
    7
 10
-347.49746750000008
 20
760.04690600000004
 11
-347.49746750000008
 21
760.04998799999998
  0
LINE
  8
_0-0_0
  6
CONTINUOUS
 62
    7
 10
-347.49746750000008
 20
755.54998799999998
 11
-347.49746750000008
 21
755.55306999999993
  0
LINE
  8
_0-0_0
  6
CONTINUOUS
 62
    7
 10
-347.49746750000008
 20
755.55306999999993
 11
-347.49746750000008
 21
755.57769800000005
  0
LINE
  8
_0-0_0
  6
CONTINUOUS
 62
    7
 10
-347.49746750000008
 20
755.57769800000005
 11
-347.49746750000008
 21
755.62664799999993
  0
LINE
  8
_0-0_0
  6
CONTINUOUS
 62
    7
 10
-347.49746750000008
 20
755.62664799999993
 11
-347.49746750000008
 21
755.699432
  0
LINE
  8
_0-0_0
  6
CONTINUOUS
 62
    7
 10
-347.49746750000008
 20
755.54998799999998
 11
-347.49746750000008
 21
755.79522700000007
  0
LINE
  8
_0-0_0
  6
CONTINUOUS
 62
    7
 10
-347.49746750000008
 20
755.79522700000007
 11
-347.49746750000008
 21
755.91299400000003
  0
LINE
  8
_0-0_0
  6
CONTINUOUS
 62
    7
 10
-347.49746750000008
 20
755.91299400000003
 11
-347.49746750000008
 21
756.051422
  0
LINE
  8
_0-0_0
  6
CONTINUOUS
 62
    7
 10
-347.49746750000008
 20
756.051422
 11
-347.49746750000008
 21
756.20898399999999
  0
LINE
  8
_0-0_0
  6
CONTINUOUS
 62
    7
 10
-347.49746750000008
 20
756.20898399999999
 11
-347.49746750000008
 21
756.38400300000001
  0
LINE
  8
_0-0_0
  6
CONTINUOUS
 62
    7
 10
-347.49746750000008
 20
756.38400300000001
 11
-347.49746750000008
 21
756.57455499999992
  0
LINE
  8
_0-0_0
  6
CONTINUOUS
 62
    7
 10
-347.49746750000008
 20
756.72128299999997
 11
-347.49746750000008
 21
756.778504
  0
LINE
  8
_0-0_0
  6
CONTINUOUS
 62
    7
 10
-347.49746750000008
 20
756.57455499999992
 11
-347.49746750000008
 21
756.72128299999997
  0
LINE
  8
_0-0_0
  6
CONTINUOUS
 62
    7
 10
-351.09747349999998
 20
763.59997599999997
 11
-351.09747349999998
 21
771.09997599999997
  0
LINE
  8
_0-0_0
  6
CONTINUOUS
 62
    7
 10
-351.09747349999998
 20
761.09997599999997
 11
-351.09747349999998
 21
763.59997599999997
  0
LINE
  8
_0-0_0
  6
CONTINUOUS
 62
    7
 10
-362.49749750000001
 20
772.59997599999997
 11
-352.78967250000005
 21
772.59997599999997
  0
LINE
  8
_0-0_0
  6
CONTINUOUS
 62
    7
 10
-352.74749750000001
 20
772.59997599999997
 11
-352.78967250000005
 21
772.59997599999997
  0
LINE
  8
_0-0_0
  6
CONTINUOUS
 62
    7
 10
-362.79748549999999
 20
763.88797
 11
-362.73867850000011
 21
763.64111300000002
  0
LINE
  8
_0-0_0
  6
CONTINUOUS
 62
    7
 10
-362.73867850000011
 20
763.64111300000002
 11
-362.68890349999992
 21
763.44879199999991
  0
LINE
  8
_0-0_0
  6
CONTINUOUS
 62
    7
 10
-362.68890349999992
 20
763.44879199999991
 11
-362.61779750000005
 21
763.18304499999999
  0
LINE
  8
_0-0_0
  6
CONTINUOUS
 62
    7
 10
-362.61779750000005
 20
763.18304499999999
 11
-362.58483849999993
 21
763.05633599999999
  0
LINE
  8
_0-0_0
  6
CONTINUOUS
 62
    7
 10
-362.58483849999993
 20
763.05633599999999
 11
-362.55957050000006
 21
762.95291099999997
  0
LINE
  8
_0-0_0
  6
CONTINUOUS
 62
    7
 10
-362.55957050000006
 20
762.95291099999997
 11
-362.53753649999999
 21
762.852936
  0
LINE
  8
_0-0_0
  6
CONTINUOUS
 62
    7
 10
-362.53753649999999
 20
762.852936
 11
-362.51617450000003
 21
762.73523
  0
LINE
  8
_0-0_0
  6
CONTINUOUS
 62
    7
 10
-362.51617450000003
 20
762.73523
 11
-362.50759850000009
 21
762.67309599999999
  0
LINE
  8
_0-0_0
  6
CONTINUOUS
 62
    7
 10
-362.50759850000009
 20
762.67309599999999
 11
-362.50152550000007
 21
762.61248799999998
  0
LINE
  8
_0-0_0
  6
CONTINUOUS
 62
    7
 10
-362.50152550000007
 20
762.61248799999998
 11
-362.49850450000008
 21
762.56326300000001
  0
LINE
  8
_0-0_0
  6
CONTINUOUS
 62
    7
 10
-362.49850450000008
 20
762.56326300000001
 11
-362.49749750000001
 21
762.51504499999999
  0
LINE
  8
_0-0_0
  6
CONTINUOUS
 62
    7
 10
-362.79748549999999
 20
768.31198100000006
 11
-362.73870850000003
 21
768.558807
  0
LINE
  8
_0-0_0
  6
CONTINUOUS
 62
    7
 10
-362.73870850000003
 20
768.558807
 11
-362.68890349999992
 21
768.75116000000003
  0
LINE
  8
_0-0_0
  6
CONTINUOUS
 62
    7
 10
-362.68890349999992
 20
768.75116000000003
 11
-362.61779750000005
 21
769.01693699999998
  0
LINE
  8
_0-0_0
  6
CONTINUOUS
 62
    7
 10
-362.61779750000005
 20
769.01693699999998
 11
-362.58483849999993
 21
769.14367700000003
  0
LINE
  8
_0-0_0
  6
CONTINUOUS
 62
    7
 10
-362.58483849999993
 20
769.14367700000003
 11
-362.55957050000006
 21
769.24707000000001
  0
LINE
  8
_0-0_0
  6
CONTINUOUS
 62
    7
 10
-362.55957050000006
 20
769.24707000000001
 11
-362.53753649999999
 21
769.34701500000006
  0
LINE
  8
_0-0_0
  6
CONTINUOUS
 62
    7
 10
-362.53753649999999
 20
769.34701500000006
 11
-362.51617450000003
 21
769.46472199999994
  0
LINE
  8
_0-0_0
  6
CONTINUOUS
 62
    7
 10
-362.51617450000003
 20
769.46472199999994
 11
-362.50759850000009
 21
769.52685599999995
  0
LINE
  8
_0-0_0
  6
CONTINUOUS
 62
    7
 10
-362.50759850000009
 20
769.52685599999995
 11
-362.50152550000007
 21
769.58746300000007
  0
LINE
  8
_0-0_0
  6
CONTINUOUS
 62
    7
 10
-362.50152550000007
 20
769.58746300000007
 11
-362.49850450000008
 21
769.63671899999997
  0
LINE
  8
_0-0_0
  6
CONTINUOUS
 62
    7
 10
-362.49850450000008
 20
769.63671899999997
 11
-362.49749750000001
 21
769.68493699999999
  0
LINE
  8
_0-0_0
  6
CONTINUOUS
 62
    7
 10
-362.49749750000001
 20
764.53793300000007
 11
-362.49749750000001
 21
763.49227900000005
  0
LINE
  8
_0-0_0
  6
CONTINUOUS
 62
    7
 10
-362.49749750000001
 20
762.207672
 11
-362.49749750000001
 21
763.49227900000005
  0
LINE
  8
_0-0_0
  6
CONTINUOUS
 62
    7
 10
-362.49749750000001
 20
762.09228499999995
 11
-362.49749750000001
 21
762.207672
  0
ARC
  8
_0-0_0
  6
CONTINUOUS
 62
    7
 10
-364.49749750000001
 20
773.45846600000004
 40
2
 50
0
 51
71.565000999999995
  0
LINE
  8
_0-0_0
  6
CONTINUOUS
 62
    7
 10
-352.78967250000005
 20
772.59997599999997
 11
-352.7351685000001
 21
772.53006000000005
  0
LINE
  8
_0-0_0
  6
CONTINUOUS
 62
    7
 10
-352.7351685000001
 20
772.53006000000005
 11
-352.68408249999993
 21
772.46121199999993
  0
LINE
  8
_0-0_0
  6
CONTINUOUS
 62
    7
 10
-352.68408249999993
 20
772.46121199999993
 11
-352.63641350000012
 21
772.39370699999995
  0
LINE
  8
_0-0_0
  6
CONTINUOUS
 62
    7
 10
-352.63641350000012
 20
772.39370699999995
 11
-352.59191950000013
 21
772.327179
  0
LINE
  8
_0-0_0
  6
CONTINUOUS
 62
    7
 10
-352.59191950000013
 20
772.327179
 11
-352.53723149999996
 21
772.23962400000005
  0
LINE
  8
_0-0_0
  6
CONTINUOUS
 62
    7
 10
-352.53723149999996
 20
772.23962400000005
 11
-352.48770149999996
 21
772.15353400000004
  0
LINE
  8
_0-0_0
  6
CONTINUOUS
 62
    7
 10
-352.48770149999996
 20
772.15353400000004
 11
-352.44323750000012
 21
772.06869499999993
  0
LINE
  8
_0-0_0
  6
CONTINUOUS
 62
    7
 10
-352.44323750000012
 20
772.06869499999993
 11
-352.3962704999999
 21
771.96838400000001
  0
LINE
  8
_0-0_0
  6
CONTINUOUS
 62
    7
 10
-352.3962704999999
 20
771.96838400000001
 11
-352.35607950000008
 21
771.86944599999993
  0
LINE
  8
_0-0_0
  6
CONTINUOUS
 62
    7
 10
-352.35607950000008
 20
771.86944599999993
 11
-352.3223875000001
 21
771.77169800000001
  0
LINE
  8
_0-0_0
  6
CONTINUOUS
 62
    7
 10
-352.3223875000001
 20
771.77169800000001
 11
-352.29510550000009
 21
771.67489599999999
  0
LINE
  8
_0-0_0
  6
CONTINUOUS
 62
    7
 10
-352.29510550000009
 20
771.67489599999999
 11
-352.27404750000005
 21
771.57882700000005
  0
LINE
  8
_0-0_0
  6
CONTINUOUS
 62
    7
 10
-352.27404750000005
 20
771.57882700000005
 11
-352.25811750000003
 21
771.47497599999997
  0
LINE
  8
_0-0_0
  6
CONTINUOUS
 62
    7
 10
-352.25811750000003
 20
771.47497599999997
 11
-352.24938950000001
 21
771.37155200000007
  0
LINE
  8
_0-0_0
  6
CONTINUOUS
 62
    7
 10
-352.24938950000001
 20
771.37155200000007
 11
-352.24774150000007
 21
771.26831100000004
  0
LINE
  8
_0-0_0
  6
CONTINUOUS
 62
    7
 10
-352.24774150000007
 20
771.26831100000004
 11
-352.25320450000004
 21
771.16503899999998
  0
LINE
  8
_0-0_0
  6
CONTINUOUS
 62
    7
 10
-352.25320450000004
 20
771.16503899999998
 11
-352.26580850000005
 21
771.06143199999997
  0
LINE
  8
_0-0_0
  6
CONTINUOUS
 62
    7
 10
-352.26580850000005
 20
771.06143199999997
 11
-352.28564449999999
 21
770.95727499999998
  0
LINE
  8
_0-0_0
  6
CONTINUOUS
 62
    7
 10
-352.28564449999999
 20
770.95727499999998
 11
-352.31277450000016
 21
770.85232599999995
  0
LINE
  8
_0-0_0
  6
CONTINUOUS
 62
    7
 10
-352.31277450000016
 20
770.85232599999995
 11
-352.34741250000002
 21
770.746307
  0
LINE
  8
_0-0_0
  6
CONTINUOUS
 62
    7
 10
-352.34741250000002
 20
770.746307
 11
-352.38977049999994
 21
770.63891599999999
  0
LINE
  8
_0-0_0
  6
CONTINUOUS
 62
    7
 10
-352.38977049999994
 20
770.63891599999999
 11
-352.44009449999999
 21
770.52990699999998
  0
LINE
  8
_0-0_0
  6
CONTINUOUS
 62
    7
 10
-352.44009449999999
 20
770.52990699999998
 11
-352.49432350000006
 21
770.42678799999999
  0
LINE
  8
_0-0_0
  6
CONTINUOUS
 62
    7
 10
-352.49432350000006
 20
770.42678799999999
 11
-352.55603049999991
 21
770.32171599999992
  0
LINE
  8
_0-0_0
  6
CONTINUOUS
 62
    7
 10
-352.55603049999991
 20
770.32171599999992
 11
-352.62554950000003
 21
770.21447799999999
  0
LINE
  8
_0-0_0
  6
CONTINUOUS
 62
    7
 10
-352.62554950000003
 20
770.21447799999999
 11
-352.70327750000001
 21
770.10476700000004
  0
LINE
  8
_0-0_0
  6
CONTINUOUS
 62
    7
 10
-352.70327750000001
 20
770.10476700000004
 11
-352.78967250000005
 21
769.99227900000005
  0
LINE
  8
_0-0_0
  6
CONTINUOUS
 62
    7
 10
-362.49749750000001
 20
770.10766599999999
 11
-362.49749750000001
 21
769.99227900000005
  0
LINE
  8
_0-0_0
  6
CONTINUOUS
 62
    7
 10
-362.49749750000001
 20
768.707672
 11
-362.49749750000001
 21
767.66204799999991
  0
LINE
  8
_0-0_0
  6
CONTINUOUS
 62
    7
 10
-362.49749750000001
 20
763.49227900000005
 11
-352.78967250000005
 21
763.49227900000005
  0
LINE
  8
_0-0_0
  6
CONTINUOUS
 62
    7
 10
-362.49749750000001
 20
762.207672
 11
-352.78967250000005
 21
762.207672
  0
LINE
  8
_0-0_0
  6
CONTINUOUS
 62
    7
 10
-351.49749750000001
 20
768.83154300000001
 11
-351.49749750000001
 21
771.34997599999997
  0
LINE
  8
_0-0_0
  6
CONTINUOUS
 62
    7
 10
-362.49749750000001
 20
773.45846600000004
 11
-362.49749750000001
 21
770.10766599999999
  0
LINE
  8
_0-0_0
  6
CONTINUOUS
 62
    7
 10
-373.49749750000001
 20
755.29998799999998
 11
-373.49749750000001
 21
755.55004899999994
  0
LINE
  8
_0-0_0
  6
CONTINUOUS
 62
    7
 10
-397.99749750000001
 20
775.39999399999999
 11
-402.99749750000001
 21
775.39999399999999
  0
ARC
  8
_0-0_0
  6
CONTINUOUS
 62
    7
 10
-402.99749750000001
 20
770.89999399999999
 40
4.5
 50
90.000003000000007
 51
269.99999700000006
  0
LINE
  8
_0-0_0
  6
CONTINUOUS
 62
    7
 10
-397.99749750000001
 20
766.39999399999999
 11
-402.99749750000001
 21
766.39999399999999
  0
ARC
  8
_0-0_0
  6
CONTINUOUS
 62
    7
 10
-397.99749750000001
 20
770.89999399999999
 40
4.5
 50
269.99999700000001
 51
90.000002999999992
  0
LINE
  8
_0-0_0
  6
CONTINUOUS
 62
    7
 10
-453.99749750000001
 20
775.39999399999999
 11
-458.99749750000001
 21
775.39999399999999
  0
ARC
  8
_0-0_0
  6
CONTINUOUS
 62
    7
 10
-458.99749750000001
 20
770.89999399999999
 40
4.5
 50
90.000003000000007
 51
269.99999700000006
  0
LINE
  8
_0-0_0
  6
CONTINUOUS
 62
    7
 10
-453.99749750000001
 20
766.39999399999999
 11
-458.99749750000001
 21
766.39999399999999
  0
ARC
  8
_0-0_0
  6
CONTINUOUS
 62
    7
 10
-453.99749750000001
 20
770.89999399999999
 40
4.5
 50
269.99999700000001
 51
90.000002999999992
  0
LINE
  8
_0-0_0
  6
CONTINUOUS
 62
    7
 10
-428.68496750000008
 20
774.96963499999993
 11
-429.98498549999999
 21
771.46963499999993
  0
LINE
  8
_0-0_0
  6
CONTINUOUS
 62
    7
 10
-429.79748549999999
 20
771.19998199999998
 11
-427.1974795000001
 21
771.19998199999998
  0
ARC
  8
_0-0_0
  6
CONTINUOUS
 62
    7
 10
-427.1974795000001
 20
771.39999399999999
 40
0.2
 50
269.99999700000001
 51
20.376435000000019
  0
ARC
  8
_0-0_0
  6
CONTINUOUS
 62
    7
 10
-428.49749750000001
 20
774.89999399999999
 40
0.2
 50
20.376434999999997
 51
159.62357000000003
  0
LINE
  8
_0-0_0
  6
CONTINUOUS
 62
    7
 10
-373.49749750000001
 20
755.29998799999998
 11
-373.49749750000001
 21
757.29998799999998
  0
ARC
  8
_0-0_0
  6
CONTINUOUS
 62
    7
 10
-407.49749750000001
 20
761.69998199999998
 40
3
 50
180.00000900000003
 51
269.99999700000001
  0
LINE
  8
_0-0_0
  6
CONTINUOUS
 62
    7
 10
-407.49749750000001
 20
758.69998199999998
 11
-392.49749750000001
 21
758.69998199999998
  0
ARC
  8
_0-0_0
  6
CONTINUOUS
 62
    7
 10
-392.49749750000001
 20
761.69998199999998
 40
3
 50
269.99999700000001
 51
0
  0
ARC
  8
_0-0_0
  6
CONTINUOUS
 62
    7
 10
-392.49749750000001
 20
775.29998799999998
 40
3
 50
0
 51
90.000003000000007
  0
LINE
  8
_0-0_0
  6
CONTINUOUS
 62
    7
 10
-392.49749750000001
 20
778.29998799999998
 11
-407.49749750000001
 21
778.29998799999998
  0
ARC
  8
_0-0_0
  6
CONTINUOUS
 62
    7
 10
-407.49749750000001
 20
775.29998799999998
 40
3
 50
90.000003000000007
 51
180.00000900000001
  0
ARC
  8
_0-0_0
  6
CONTINUOUS
 62
    7
 10
-461.40780650000011
 20
763.78967299999999
 40
5.089683
 50
180.00000900000003
 51
269.99999700000001
  0
LINE
  8
_0-0_0
  6
CONTINUOUS
 62
    7
 10
-461.40780650000011
 20
758.69998199999998
 11
-450.14047249999999
 21
758.69998199999998
  0
ARC
  8
_0-0_0
  6
CONTINUOUS
 62
    7
 10
-450.14047249999999
 20
762.34298699999999
 40
3.6429879999999999
 50
269.99999700000001
 51
0.0000099999999886
  0
LINE
  8
_0-0_0
  6
CONTINUOUS
 62
    7
 10
-449.49749750000001
 20
778.29998799999998
 11
-462.83142050000015
 21
778.29998799999998
  0
ARC
  8
_0-0_0
  6
CONTINUOUS
 62
    7
 10
-462.83142050000015
 20
777.29998799999998
 40
1
 50
90.000003000000007
 51
172.23356100000001
  0
ARC
  8
_0-0_0
  6
CONTINUOUS
 62
    7
 10
-465.49749750000001
 20
774.23767099999998
 40
1
 50
105.68034800000001
 51
180.00000900000001
  0
LINE
  8
_0-0_0
  6
CONTINUOUS
 62
    7
 10
-408.09747349999998
 20
778.29998799999998
 11
-408.09747349999998
 21
778.23937999999998
  0
LINE
  8
_0-0_0
  6
CONTINUOUS
 62
    7
 10
-449.49749750000001
 20
758.75717199999997
 11
-449.49749750000001
 21
758.704071
  0
LINE
  8
_0-0_0
  6
CONTINUOUS
 62
    7
 10
-408.09747349999998
 20
758.76058999999998
 11
-408.09747349999998
 21
758.704071
  0
LINE
  8
_0-0_0
  6
CONTINUOUS
 62
    7
 10
-351.49749750000001
 20
760.84997599999997
 11
-352.29748549999999
 21
760.04998799999998
  0
LINE
  8
_0-0_0
  6
CONTINUOUS
 62
    7
 10
-337.49746750000008
 20
755.79998799999998
 11
-337.9973144999999
 21
755.30014000000006
  0
LINE
  8
_0-0_0
  6
CONTINUOUS
 62
    7
 10
-337.49746750000008
 20
772.39999399999999
 11
-337.9973144999999
 21
771.90014700000006
  0
LINE
  8
_0-0_0
  6
CONTINUOUS
 62
    7
 10
-350.29748549999999
 20
770.09997599999997
 11
-292.29748549999999
 21
770.09997599999997
  0
LINE
  8
_0-0_0
  6
CONTINUOUS
 62
    7
 10
-350.29748549999999
 20
762.09997599999997
 11
-292.29748549999999
 21
762.09997599999997
  0
LINE
  8
_0-0_0
  6
CONTINUOUS
 62
    7
 10
-337.49746750000008
 20
776.39999399999999
 11
-337.9973144999999
 21
776.89984099999992
  0
LINE
  8
_0-0_0
  6
CONTINUOUS
 62
    7
 10
-337.49746750000008
 20
759.79998799999998
 11
-337.9973144999999
 21
760.29983500000003
  0
LINE
  8
_0-0_0
  6
CONTINUOUS
 62
    7
 10
-347.49746750000008
 20
776.64999399999999
 11
-347.24746750000008
 21
776.89999399999999
  0
LINE
  8
_0-0_0
  6
CONTINUOUS
 62
    7
 10
-347.49746750000008
 20
772.14999399999999
 11
-347.24746750000008
 21
771.89999399999999
  0
LINE
  8
_0-0_0
  6
CONTINUOUS
 62
    7
 10
-347.49746750000008
 20
760.04998799999998
 11
-347.24746750000008
 21
760.29998799999998
  0
LINE
  8
_0-0_0
  6
CONTINUOUS
 62
    7
 10
-347.49746750000008
 20
755.54998799999998
 11
-347.24746750000008
 21
755.29998799999998
  0
LINE
  8
_0-0_0
  6
CONTINUOUS
 62
    7
 10
-350.29748549999999
 20
770.63809199999992
 11
-351.09747349999998
 21
771.09997599999997
  0
LINE
  8
_0-0_0
  6
CONTINUOUS
 62
    7
 10
-350.29748549999999
 20
761.56185899999991
 11
-351.09747349999998
 21
761.09997599999997
  0
LINE
  8
_0-0_0
  6
CONTINUOUS
 62
    7
 10
-367.74752850000004
 20
776.64999399999999
 11
-347.49746750000008
 21
776.64999399999999
  0
LINE
  8
_0-0_0
  6
CONTINUOUS
 62
    7
 10
-352.29748549999999
 20
772.14999399999999
 11
-347.49746750000008
 21
772.14999399999999
  0
LINE
  8
_0-0_0
  6
CONTINUOUS
 62
    7
 10
-373.49749750000001
 20
760.04998799999998
 11
-347.49746750000008
 21
760.04998799999998
  0
LINE
  8
_0-0_0
  6
CONTINUOUS
 62
    7
 10
-373.49749750000001
 20
755.54998799999998
 11
-347.49746750000008
 21
755.54998799999998
  0
LINE
  8
_0-0_0
  6
CONTINUOUS
 62
    7
 10
-351.49749750000001
 20
771.09997599999997
 11
-351.09747349999998
 21
771.09997599999997
  0
LINE
  8
_0-0_0
  6
CONTINUOUS
 62
    7
 10
-351.49749750000001
 20
761.09997599999997
 11
-351.09747349999998
 21
761.09997599999997
  0
LINE
  8
_0-0_0
  6
CONTINUOUS
 62
    7
 10
-351.49749750000001
 20
771.34997599999997
 11
-352.74749750000001
 21
772.59997599999997
  0
ARC
  8
_0-0_0
  6
CONTINUOUS
 62
    7
 10
-473.49749750000001
 20
799.59997599999997
 40
8
 50
215.099627
 51
324.90037799999999
  0
LINE
  8
_0-0_0
  6
CONTINUOUS
 62
    7
 10
-482.49749750000001
 20
794.99997000000008
 11
-480.04272450000008
 21
794.99997000000008
  0
LINE
  8
_0-0_0
  6
CONTINUOUS
 62
    7
 10
-482.49749750000001
 20
781.79998799999998
 11
-482.49749750000001
 21
794.99997000000008
  0
LINE
  8
_0-0_0
  6
CONTINUOUS
 62
    7
 10
1690.5024415
 20
781.79998799999998
 11
1690.5024415
 21
794.99997000000008
  0
LINE
  8
_0-0_0
  6
CONTINUOUS
 62
    7
 10
1688.0476074999999
 20
794.99997000000008
 11
1690.5024415
 21
794.99997000000008
  0
ARC
  8
_0-0_0
  6
CONTINUOUS
 62
    7
 10
1681.5024415
 20
799.59997599999997
 40
8
 50
215.099627
 51
324.90037799999999
  0
LINE
  8
_0-0_0
  6
CONTINUOUS
 62
    7
 10
-466.95227049999994
 20
794.99997000000008
 11
1674.9572754999999
 21
794.99997000000008
  0
LINE
  8
_0-0_0
  6
CONTINUOUS
 62
    7
 10
-466.95227049999994
 20
794.99997000000008
 11
-466.86328150000008
 21
795.12927300000001
  0
LINE
  8
_0-0_0
  6
CONTINUOUS
 62
    7
 10
1674.9572754999999
 20
794.99997000000008
 11
1674.8681635
 21
795.12927300000001
  0
LINE
  8
_0-0_0
  6
CONTINUOUS
 62
    7
 10
1688.2297364999999
 20
795.27069099999994
 11
1688.3112795
 21
795.39999399999999
  0
ARC
  8
_0-0_0
  6
CONTINUOUS
 62
    7
 10
1681.5024415
 20
799.59997599999997
 40
8
 50
328.33175599999993
 51
334.05550899999992
  0
LINE
  8
_0-0_0
  6
CONTINUOUS
 62
    7
 10
1688.6962885
 20
796.09997599999997
 11
1688.7900385
 21
796.29998799999998
  0
LINE
  8
_0-0_0
  6
CONTINUOUS
 62
    7
 10
1688.7900385
 20
796.29998799999998
 11
1688.8774415
 21
796.49997000000008
  0
ARC
  8
_0-0_0
  6
CONTINUOUS
 62
    7
 10
1681.5024415
 20
799.59997599999997
 40
8
 50
337.20097500000003
 51
342.54240199999998
  0
LINE
  8
_0-0_0
  6
CONTINUOUS
 62
    7
 10
1689.1340335
 20
797.19998199999998
 11
1689.1940915
 21
797.39999399999999
  0
LINE
  8
_0-0_0
  6
CONTINUOUS
 62
    7
 10
1689.1940915
 20
797.39999399999999
 11
1689.2482904999999
 21
797.59997599999997
  0
ARC
  8
_0-0_0
  6
CONTINUOUS
 62
    7
 10
1681.5024415
 20
799.59997599999997
 40
8
 50
345.52249499999999
 51
350.64797900000002
  0
LINE
  8
_0-0_0
  6
CONTINUOUS
 62
    7
 10
1689.3959964999999
 20
798.29998799999998
 11
1689.4265135000001
 21
798.49997000000008
  0
LINE
  8
_0-0_0
  6
CONTINUOUS
 62
    7
 10
1689.4265135000001
 20
798.49997000000008
 11
1689.4516604999999
 21
798.69998199999998
  0
ARC
  8
_0-0_0
  6
CONTINUOUS
 62
    7
 10
1681.5024415
 20
799.59997599999997
 40
8
 50
353.54056400000002
 51
358.56744600000002
  0
LINE
  8
_0-0_0
  6
CONTINUOUS
 62
    7
 10
1689.4999995000001
 20
799.39999399999999
 11
1689.5024415
 21
799.59997599999997
  0
LINE
  8
_0-0_0
  6
CONTINUOUS
 62
    7
 10
1673.5048824999999
 20
799.39999399999999
 11
1673.5024415
 21
799.59997599999997
  0
ARC
  8
_0-0_0
  6
CONTINUOUS
 62
    7
 10
1681.5024415
 20
799.59997599999997
 40
8
 50
181.432545
 51
186.45945499999999
  0
LINE
  8
_0-0_0
  6
CONTINUOUS
 62
    7
 10
1673.5783695
 20
798.49997000000008
 11
1673.5532224999999
 21
798.69998199999998
  0
LINE
  8
_0-0_0
  6
CONTINUOUS
 62
    7
 10
1673.6088864999999
 20
798.29998799999998
 11
1673.5783695
 21
798.49997000000008
  0
ARC
  8
_0-0_0
  6
CONTINUOUS
 62
    7
 10
1681.5024415
 20
799.59997599999997
 40
8
 50
189.35203999999999
 51
194.47751
  0
LINE
  8
_0-0_0
  6
CONTINUOUS
 62
    7
 10
1673.8107904999999
 20
797.39999399999999
 11
1673.7565915
 21
797.59997599999997
  0
LINE
  8
_0-0_0
  6
CONTINUOUS
 62
    7
 10
1673.8708495000001
 20
797.19998199999998
 11
1673.8107904999999
 21
797.39999399999999
  0
ARC
  8
_0-0_0
  6
CONTINUOUS
 62
    7
 10
1681.5024415
 20
799.59997599999997
 40
8
 50
197.45760300000001
 51
202.79902999999999
  0
LINE
  8
_0-0_0
  6
CONTINUOUS
 62
    7
 10
1674.2148434999999
 20
796.29998799999998
 11
1674.1274415
 21
796.49997000000008
  0
LINE
  8
_0-0_0
  6
CONTINUOUS
 62
    7
 10
1674.3085934999999
 20
796.09997599999997
 11
1674.2148434999999
 21
796.29998799999998
  0
ARC
  8
_0-0_0
  6
CONTINUOUS
 62
    7
 10
1681.5024415
 20
799.59997599999997
 40
8
 50
205.94448199999999
 51
211.66823500000001
  0
LINE
  8
_0-0_0
  6
CONTINUOUS
 62
    7
 10
1674.7751464999999
 20
795.27069099999994
 11
1674.6936034999999
 21
795.39999399999999
  0
LINE
  8
_0-0_0
  6
CONTINUOUS
 62
    7
 10
1674.7751464999999
 20
795.27069099999994
 11
1674.8681635
 21
795.12927300000001
  0
LINE
  8
_0-0_0
  6
CONTINUOUS
 62
    7
 10
1688.0476074999999
 20
794.99997000000008
 11
1688.1367184999999
 21
795.12927300000001
  0
LINE
  8
_0-0_0
  6
CONTINUOUS
 62
    7
 10
1688.2297364999999
 20
795.27069099999994
 11
1688.1367184999999
 21
795.12927300000001
  0
LINE
  8
_0-0_0
  6
CONTINUOUS
 62
    7
 10
1690.5024415
 20
795.12927300000001
 11
1690.5024415
 21
794.99997000000008
  0
LINE
  8
_0-0_0
  6
CONTINUOUS
 62
    7
 10
1690.5024415
 20
803.92929099999992
 11
1690.5024415
 21
804.07070899999997
  0
LINE
  8
_0-0_0
  6
CONTINUOUS
 62
    7
 10
1690.5024415
 20
803.92929099999992
 11
1690.5024415
 21
803.79998799999998
  0
LINE
  8
_0-0_0
  6
CONTINUOUS
 62
    7
 10
1690.5024415
 20
803.09997599999997
 11
1690.5024415
 21
803.79998799999998
  0
LINE
  8
_0-0_0
  6
CONTINUOUS
 62
    7
 10
1690.5024415
 20
802.89999399999999
 11
1690.5024415
 21
803.09997599999997
  0
LINE
  8
_0-0_0
  6
CONTINUOUS
 62
    7
 10
1690.5024415
 20
802.89999399999999
 11
1690.5024415
 21
802.69998199999998
  0
LINE
  8
_0-0_0
  6
CONTINUOUS
 62
    7
 10
1690.5024415
 20
801.99997000000008
 11
1690.5024415
 21
802.69998199999998
  0
LINE
  8
_0-0_0
  6
CONTINUOUS
 62
    7
 10
1690.5024415
 20
801.79998799999998
 11
1690.5024415
 21
801.99997000000008
  0
LINE
  8
_0-0_0
  6
CONTINUOUS
 62
    7
 10
1690.5024415
 20
801.79998799999998
 11
1690.5024415
 21
801.59997599999997
  0
LINE
  8
_0-0_0
  6
CONTINUOUS
 62
    7
 10
1690.5024415
 20
800.89999399999999
 11
1690.5024415
 21
801.59997599999997
  0
LINE
  8
_0-0_0
  6
CONTINUOUS
 62
    7
 10
1690.5024415
 20
800.69998199999998
 11
1690.5024415
 21
800.89999399999999
  0
LINE
  8
_0-0_0
  6
CONTINUOUS
 62
    7
 10
1690.5024415
 20
800.69998199999998
 11
1690.5024415
 21
800.49997000000008
  0
LINE
  8
_0-0_0
  6
CONTINUOUS
 62
    7
 10
1690.5024415
 20
799.79998799999998
 11
1690.5024415
 21
800.49997000000008
  0
LINE
  8
_0-0_0
  6
CONTINUOUS
 62
    7
 10
1690.5024415
 20
799.59997599999997
 11
1690.5024415
 21
799.79998799999998
  0
LINE
  8
_0-0_0
  6
CONTINUOUS
 62
    7
 10
1690.5024415
 20
799.59997599999997
 11
1690.5024415
 21
799.39999399999999
  0
LINE
  8
_0-0_0
  6
CONTINUOUS
 62
    7
 10
1690.5024415
 20
798.69998199999998
 11
1690.5024415
 21
799.39999399999999
  0
LINE
  8
_0-0_0
  6
CONTINUOUS
 62
    7
 10
1690.5024415
 20
798.49997000000008
 11
1690.5024415
 21
798.69998199999998
  0
LINE
  8
_0-0_0
  6
CONTINUOUS
 62
    7
 10
1690.5024415
 20
798.49997000000008
 11
1690.5024415
 21
798.29998799999998
  0
LINE
  8
_0-0_0
  6
CONTINUOUS
 62
    7
 10
1690.5024415
 20
797.59997599999997
 11
1690.5024415
 21
798.29998799999998
  0
LINE
  8
_0-0_0
  6
CONTINUOUS
 62
    7
 10
1690.5024415
 20
797.39999399999999
 11
1690.5024415
 21
797.59997599999997
  0
LINE
  8
_0-0_0
  6
CONTINUOUS
 62
    7
 10
1690.5024415
 20
797.39999399999999
 11
1690.5024415
 21
797.19998199999998
  0
LINE
  8
_0-0_0
  6
CONTINUOUS
 62
    7
 10
1690.5024415
 20
796.49997000000008
 11
1690.5024415
 21
797.19998199999998
  0
LINE
  8
_0-0_0
  6
CONTINUOUS
 62
    7
 10
1690.5024415
 20
796.29998799999998
 11
1690.5024415
 21
796.49997000000008
  0
LINE
  8
_0-0_0
  6
CONTINUOUS
 62
    7
 10
1690.5024415
 20
796.29998799999998
 11
1690.5024415
 21
796.09997599999997
  0
LINE
  8
_0-0_0
  6
CONTINUOUS
 62
    7
 10
1690.5024415
 20
795.39999399999999
 11
1690.5024415
 21
796.09997599999997
  0
LINE
  8
_0-0_0
  6
CONTINUOUS
 62
    7
 10
1690.5024415
 20
795.27069099999994
 11
1690.5024415
 21
795.39999399999999
  0
LINE
  8
_0-0_0
  6
CONTINUOUS
 62
    7
 10
1690.5024415
 20
795.12927300000001
 11
1690.5024415
 21
795.27069099999994
  0
LINE
  8
_0-0_0
  6
CONTINUOUS
 62
    7
 10
1690.5024415
 20
781.29998799999998
 11
1690.5024415
 21
781.79998799999998
  0
LINE
  8
_0-0_0
  6
CONTINUOUS
 62
    7
 10
1690.5024415
 20
809.79998799999998
 11
1690.5024415
 21
809.20602400000007
  0
LINE
  8
_0-0_0
  6
CONTINUOUS
 62
    7
 10
1690.5024415
 20
804.19998199999998
 11
1690.5024415
 21
809.20602400000007
  0
LINE
  8
_0-0_0
  6
CONTINUOUS
 62
    7
 10
1690.5024415
 20
804.07070899999997
 11
1690.5024415
 21
804.19998199999998
  0
LINE
  8
_0-0_0
  6
CONTINUOUS
 62
    7
 10
-482.49749750000001
 20
781.29998799999998
 11
-482.49749750000001
 21
781.79998799999998
  0
LINE
  8
_0-0_0
  6
CONTINUOUS
 62
    7
 10
-482.49749750000001
 20
781.29998799999998
 11
1690.5024415
 21
781.29998799999998
  0
LINE
  8
_0-0_0
  6
CONTINUOUS
 62
    7
 10
-482.49749750000001
 20
795.12927300000001
 11
-482.49749750000001
 21
795.27069099999994
  0
LINE
  8
_0-0_0
  6
CONTINUOUS
 62
    7
 10
-482.49749750000001
 20
795.12927300000001
 11
-482.49749750000001
 21
794.99997000000008
  0
LINE
  8
_0-0_0
  6
CONTINUOUS
 62
    7
 10
-482.49749750000001
 20
809.79998799999998
 11
-482.49749750000001
 21
809.20602400000007
  0
LINE
  8
_0-0_0
  6
CONTINUOUS
 62
    7
 10
-482.49749750000001
 20
804.19998199999998
 11
-482.49749750000001
 21
809.20602400000007
  0
LINE
  8
_0-0_0
  6
CONTINUOUS
 62
    7
 10
-482.49749750000001
 20
804.07070899999997
 11
-482.49749750000001
 21
804.19998199999998
  0
LINE
  8
_0-0_0
  6
CONTINUOUS
 62
    7
 10
-482.49749750000001
 20
803.92929099999992
 11
-482.49749750000001
 21
804.07070899999997
  0
LINE
  8
_0-0_0
  6
CONTINUOUS
 62
    7
 10
-482.49749750000001
 20
803.92929099999992
 11
-482.49749750000001
 21
803.79998799999998
  0
LINE
  8
_0-0_0
  6
CONTINUOUS
 62
    7
 10
-482.49749750000001
 20
803.09997599999997
 11
-482.49749750000001
 21
803.79998799999998
  0
LINE
  8
_0-0_0
  6
CONTINUOUS
 62
    7
 10
-482.49749750000001
 20
802.97070299999996
 11
-482.49749750000001
 21
803.09997599999997
  0
LINE
  8
_0-0_0
  6
CONTINUOUS
 62
    7
 10
-482.49749750000001
 20
802.82928500000003
 11
-482.49749750000001
 21
802.97070299999996
  0
LINE
  8
_0-0_0
  6
CONTINUOUS
 62
    7
 10
-482.49749750000001
 20
802.82928500000003
 11
-482.49749750000001
 21
802.69998199999998
  0
LINE
  8
_0-0_0
  6
CONTINUOUS
 62
    7
 10
-482.49749750000001
 20
801.99997000000008
 11
-482.49749750000001
 21
802.69998199999998
  0
LINE
  8
_0-0_0
  6
CONTINUOUS
 62
    7
 10
-482.49749750000001
 20
801.87069700000006
 11
-482.49749750000001
 21
801.99997000000008
  0
LINE
  8
_0-0_0
  6
CONTINUOUS
 62
    7
 10
-482.49749750000001
 20
801.72927900000002
 11
-482.49749750000001
 21
801.87069700000006
  0
LINE
  8
_0-0_0
  6
CONTINUOUS
 62
    7
 10
-482.49749750000001
 20
801.72927900000002
 11
-482.49749750000001
 21
801.59997599999997
  0
LINE
  8
_0-0_0
  6
CONTINUOUS
 62
    7
 10
-482.49749750000001
 20
800.89999399999999
 11
-482.49749750000001
 21
801.59997599999997
  0
LINE
  8
_0-0_0
  6
CONTINUOUS
 62
    7
 10
-482.49749750000001
 20
800.77069099999994
 11
-482.49749750000001
 21
800.89999399999999
  0
LINE
  8
_0-0_0
  6
CONTINUOUS
 62
    7
 10
-482.49749750000001
 20
800.62927300000001
 11
-482.49749750000001
 21
800.77069099999994
  0
LINE
  8
_0-0_0
  6
CONTINUOUS
 62
    7
 10
-482.49749750000001
 20
800.62927300000001
 11
-482.49749750000001
 21
800.49997000000008
  0
LINE
  8
_0-0_0
  6
CONTINUOUS
 62
    7
 10
-482.49749750000001
 20
799.79998799999998
 11
-482.49749750000001
 21
800.49997000000008
  0
LINE
  8
_0-0_0
  6
CONTINUOUS
 62
    7
 10
-482.49749750000001
 20
799.67068500000005
 11
-482.49749750000001
 21
799.79998799999998
  0
LINE
  8
_0-0_0
  6
CONTINUOUS
 62
    7
 10
-482.49749750000001
 20
799.52926600000001
 11
-482.49749750000001
 21
799.67068500000005
  0
LINE
  8
_0-0_0
  6
CONTINUOUS
 62
    7
 10
-482.49749750000001
 20
799.52926600000001
 11
-482.49749750000001
 21
799.39999399999999
  0
LINE
  8
_0-0_0
  6
CONTINUOUS
 62
    7
 10
-482.49749750000001
 20
798.69998199999998
 11
-482.49749750000001
 21
799.39999399999999
  0
LINE
  8
_0-0_0
  6
CONTINUOUS
 62
    7
 10
-482.49749750000001
 20
798.57070899999997
 11
-482.49749750000001
 21
798.69998199999998
  0
LINE
  8
_0-0_0
  6
CONTINUOUS
 62
    7
 10
-482.49749750000001
 20
798.42929099999992
 11
-482.49749750000001
 21
798.57070899999997
  0
LINE
  8
_0-0_0
  6
CONTINUOUS
 62
    7
 10
-482.49749750000001
 20
798.42929099999992
 11
-482.49749750000001
 21
798.29998799999998
  0
LINE
  8
_0-0_0
  6
CONTINUOUS
 62
    7
 10
-482.49749750000001
 20
797.59997599999997
 11
-482.49749750000001
 21
798.29998799999998
  0
LINE
  8
_0-0_0
  6
CONTINUOUS
 62
    7
 10
-482.49749750000001
 20
797.47070299999996
 11
-482.49749750000001
 21
797.59997599999997
  0
LINE
  8
_0-0_0
  6
CONTINUOUS
 62
    7
 10
-482.49749750000001
 20
797.32928500000003
 11
-482.49749750000001
 21
797.47070299999996
  0
LINE
  8
_0-0_0
  6
CONTINUOUS
 62
    7
 10
-482.49749750000001
 20
797.32928500000003
 11
-482.49749750000001
 21
797.19998199999998
  0
LINE
  8
_0-0_0
  6
CONTINUOUS
 62
    7
 10
-482.49749750000001
 20
796.49997000000008
 11
-482.49749750000001
 21
797.19998199999998
  0
LINE
  8
_0-0_0
  6
CONTINUOUS
 62
    7
 10
-482.49749750000001
 20
796.37069700000006
 11
-482.49749750000001
 21
796.49997000000008
  0
LINE
  8
_0-0_0
  6
CONTINUOUS
 62
    7
 10
-482.49749750000001
 20
796.22927900000002
 11
-482.49749750000001
 21
796.37069700000006
  0
LINE
  8
_0-0_0
  6
CONTINUOUS
 62
    7
 10
-482.49749750000001
 20
796.22927900000002
 11
-482.49749750000001
 21
796.09997599999997
  0
LINE
  8
_0-0_0
  6
CONTINUOUS
 62
    7
 10
-482.49749750000001
 20
795.39999399999999
 11
-482.49749750000001
 21
796.09997599999997
  0
LINE
  8
_0-0_0
  6
CONTINUOUS
 62
    7
 10
-482.49749750000001
 20
795.27069099999994
 11
-482.49749750000001
 21
795.39999399999999
  0
LINE
  8
_0-0_0
  6
CONTINUOUS
 62
    7
 10
-480.04272450000008
 20
794.99997000000008
 11
-480.13168350000001
 21
795.12927300000001
  0
LINE
  8
_0-0_0
  6
CONTINUOUS
 62
    7
 10
-466.77014150000014
 20
795.27069099999994
 11
-466.86328150000008
 21
795.12927300000001
  0
LINE
  8
_0-0_0
  6
CONTINUOUS
 62
    7
 10
-466.77014150000014
 20
795.27069099999994
 11
-466.68865950000009
 21
795.39999399999999
  0
ARC
  8
_0-0_0
  6
CONTINUOUS
 62
    7
 10
-473.49749750000001
 20
799.59997599999997
 40
8
 50
328.33175599999993
 51
334.05550899999992
  0
LINE
  8
_0-0_0
  6
CONTINUOUS
 62
    7
 10
-466.30374150000011
 20
796.09997599999997
 11
-466.20983849999993
 21
796.29998799999998
  0
LINE
  8
_0-0_0
  6
CONTINUOUS
 62
    7
 10
-466.20983849999993
 20
796.29998799999998
 11
-466.12252850000004
 21
796.49997000000008
  0
ARC
  8
_0-0_0
  6
CONTINUOUS
 62
    7
 10
-473.49749750000001
 20
799.59997599999997
 40
8
 50
337.20097500000003
 51
342.54240199999998
  0
LINE
  8
_0-0_0
  6
CONTINUOUS
 62
    7
 10
-465.86596650000001
 20
797.19998199999998
 11
-465.80593850000014
 21
797.39999399999999
  0
LINE
  8
_0-0_0
  6
CONTINUOUS
 62
    7
 10
-465.80593850000014
 20
797.39999399999999
 11
-465.75152550000007
 21
797.59997599999997
  0
ARC
  8
_0-0_0
  6
CONTINUOUS
 62
    7
 10
-473.49749750000001
 20
799.59997599999997
 40
8
 50
345.52249499999999
 51
350.64797900000002
  0
LINE
  8
_0-0_0
  6
CONTINUOUS
 62
    7
 10
-465.60382049999998
 20
798.29998799999998
 11
-465.57348649999994
 21
798.49997000000008
  0
LINE
  8
_0-0_0
  6
CONTINUOUS
 62
    7
 10
-465.57348649999994
 20
798.49997000000008
 11
-465.54827849999992
 21
798.69998199999998
  0
ARC
  8
_0-0_0
  6
CONTINUOUS
 62
    7
 10
-473.49749750000001
 20
799.59997599999997
 40
8
 50
353.54056400000002
 51
358.56744600000002
  0
LINE
  8
_0-0_0
  6
CONTINUOUS
 62
    7
 10
-465.50000050000017
 20
799.39999399999999
 11
-465.49749750000001
 21
799.59997599999997
  0
LINE
  8
_0-0_0
  6
CONTINUOUS
 62
    7
 10
-481.49716149999995
 20
799.52926600000001
 11
-481.49749750000001
 21
799.59997599999997
  0
LINE
  8
_0-0_0
  6
CONTINUOUS
 62
    7
 10
-481.49499549999996
 20
799.39999399999999
 11
-481.49716149999995
 21
799.52926600000001
  0
ARC
  8
_0-0_0
  6
CONTINUOUS
 62
    7
 10
-473.49749750000001
 20
799.59997599999997
 40
8
 50
181.432545
 51
186.45945499999999
  0
LINE
  8
_0-0_0
  6
CONTINUOUS
 62
    7
 10
-481.4309995000001
 20
798.57070899999997
 11
-481.44671650000009
 21
798.69998199999998
  0
LINE
  8
_0-0_0
  6
CONTINUOUS
 62
    7
 10
-481.4309995000001
 20
798.57070899999997
 11
-481.41137750000007
 21
798.42929099999992
  0
LINE
  8
_0-0_0
  6
CONTINUOUS
 62
    7
 10
-481.3911435
 20
798.29998799999998
 11
-481.41137750000007
 21
798.42929099999992
  0
ARC
  8
_0-0_0
  6
CONTINUOUS
 62
    7
 10
-473.49749750000001
 20
799.59997599999997
 40
8
 50
189.35203999999999
 51
194.47751
  0
LINE
  8
_0-0_0
  6
CONTINUOUS
 62
    7
 10
-481.20892350000008
 20
797.47070299999996
 11
-481.24346949999995
 21
797.59997599999997
  0
LINE
  8
_0-0_0
  6
CONTINUOUS
 62
    7
 10
-481.20892350000008
 20
797.47070299999996
 11
-481.16845749999993
 21
797.32928500000003
  0
LINE
  8
_0-0_0
  6
CONTINUOUS
 62
    7
 10
-481.12899749999997
 20
797.19998199999998
 11
-481.16845749999993
 21
797.32928500000003
  0
ARC
  8
_0-0_0
  6
CONTINUOUS
 62
    7
 10
-473.49749750000001
 20
799.59997599999997
 40
8
 50
197.45760300000001
 51
202.79902999999999
  0
LINE
  8
_0-0_0
  6
CONTINUOUS
 62
    7
 10
-480.81674250000015
 20
796.37069700000006
 11
-480.87243650000005
 21
796.49997000000008
  0
LINE
  8
_0-0_0
  6
CONTINUOUS
 62
    7
 10
-480.81674250000015
 20
796.37069700000006
 11
-480.75271650000013
 21
796.22927900000002
  0
LINE
  8
_0-0_0
  6
CONTINUOUS
 62
    7
 10
-480.69122349999998
 20
796.09997599999997
 11
-480.75271650000013
 21
796.22927900000002
  0
ARC
  8
_0-0_0
  6
CONTINUOUS
 62
    7
 10
-473.49749750000001
 20
799.59997599999997
 40
8
 50
205.94448199999999
 51
211.66823500000001
  0
LINE
  8
_0-0_0
  6
CONTINUOUS
 62
    7
 10
-480.22485350000011
 20
795.27069099999994
 11
-480.30630550000001
 21
795.39999399999999
  0
LINE
  8
_0-0_0
  6
CONTINUOUS
 62
    7
 10
-480.22485350000011
 20
795.27069099999994
 11
-480.13168350000001
 21
795.12927300000001
  0
LINE
  8
_0-0_0
  6
CONTINUOUS
 62
    7
 10
1608.0024415
 20
787.29998799999998
 11
1615.0024415
 21
787.29998799999998
  0
ARC
  8
_0-0_0
  6
CONTINUOUS
 62
    7
 10
1608.0024415
 20
786.79998799999998
 40
0.5
 50
90.000003000000007
 51
180.00000900000001
  0
LINE
  8
_0-0_0
  6
CONTINUOUS
 62
    7
 10
1607.5024415
 20
786.79998799999998
 11
1607.5024415
 21
782.79998799999998
  0
ARC
  8
_0-0_0
  6
CONTINUOUS
 62
    7
 10
1608.0024415
 20
782.79998799999998
 40
0.5
 50
180.00000900000003
 51
269.99999700000001
  0
LINE
  8
_0-0_0
  6
CONTINUOUS
 62
    7
 10
1615.0024415
 20
782.29998799999998
 11
1608.0024415
 21
782.29998799999998
  0
ARC
  8
_0-0_0
  6
CONTINUOUS
 62
    7
 10
1615.0024415
 20
782.79998799999998
 40
0.5
 50
269.99999700000001
 51
0
  0
LINE
  8
_0-0_0
  6
CONTINUOUS
 62
    7
 10
1615.5024415
 20
782.79998799999998
 11
1615.5024415
 21
786.79998799999998
  0
ARC
  8
_0-0_0
  6
CONTINUOUS
 62
    7
 10
1615.0024415
 20
786.79998799999998
 40
0.5
 50
0
 51
90.000003000000007
  0
ARC
  8
_0-0_0
  6
CONTINUOUS
 62
    7
 10
-431.99749750000001
 20
786.79998799999998
 40
0.5
 50
90.000003000000007
 51
180.00000900000001
  0
LINE
  8
_0-0_0
  6
CONTINUOUS
 62
    7
 10
-432.49749750000001
 20
786.79998799999998
 11
-432.49749750000001
 21
782.79998799999998
  0
ARC
  8
_0-0_0
  6
CONTINUOUS
 62
    7
 10
-431.99749750000001
 20
782.79998799999998
 40
0.5
 50
180.00000900000003
 51
269.99999700000001
  0
LINE
  8
_0-0_0
  6
CONTINUOUS
 62
    7
 10
-424.99749750000001
 20
782.29998799999998
 11
-431.99749750000001
 21
782.29998799999998
  0
ARC
  8
_0-0_0
  6
CONTINUOUS
 62
    7
 10
-424.99749750000001
 20
782.79998799999998
 40
0.5
 50
269.99999700000001
 51
0
  0
LINE
  8
_0-0_0
  6
CONTINUOUS
 62
    7
 10
-424.49749750000001
 20
782.79998799999998
 11
-424.49749750000001
 21
786.79998799999998
  0
ARC
  8
_0-0_0
  6
CONTINUOUS
 62
    7
 10
-424.99749750000001
 20
786.79998799999998
 40
0.5
 50
0
 51
90.000003000000007
  0
LINE
  8
_0-0_0
  6
CONTINUOUS
 62
    7
 10
-431.99749750000001
 20
787.29998799999998
 11
-424.99749750000001
 21
787.29998799999998
  0
LINE
  8
_0-0_0
  6
CONTINUOUS
 62
    7
 10
-466.68865950000009
 20
795.39999399999999
 11
1674.6936034999999
 21
795.39999399999999
  0
LINE
  8
_0-0_0
  6
CONTINUOUS
 62
    7
 10
-466.30374150000011
 20
796.09997599999997
 11
1674.3085934999999
 21
796.09997599999997
  0
LINE
  8
_0-0_0
  6
CONTINUOUS
 62
    7
 10
-466.20983849999993
 20
796.29998799999998
 11
1674.2148434999999
 21
796.29998799999998
  0
LINE
  8
_0-0_0
  6
CONTINUOUS
 62
    7
 10
-466.12252850000004
 20
796.49997000000008
 11
1674.1274415
 21
796.49997000000008
  0
LINE
  8
_0-0_0
  6
CONTINUOUS
 62
    7
 10
-465.86596650000001
 20
797.19998199999998
 11
1673.8708495000001
 21
797.19998199999998
  0
LINE
  8
_0-0_0
  6
CONTINUOUS
 62
    7
 10
-465.80593850000014
 20
797.39999399999999
 11
1673.8107904999999
 21
797.39999399999999
  0
LINE
  8
_0-0_0
  6
CONTINUOUS
 62
    7
 10
-465.75152550000007
 20
797.59997599999997
 11
1673.7565915
 21
797.59997599999997
  0
LINE
  8
_0-0_0
  6
CONTINUOUS
 62
    7
 10
-465.60382049999998
 20
798.29998799999998
 11
1673.6088864999999
 21
798.29998799999998
  0
LINE
  8
_0-0_0
  6
CONTINUOUS
 62
    7
 10
-465.57348649999994
 20
798.49997000000008
 11
1673.5783695
 21
798.49997000000008
  0
LINE
  8
_0-0_0
  6
CONTINUOUS
 62
    7
 10
-465.54827849999992
 20
798.69998199999998
 11
1673.5532224999999
 21
798.69998199999998
  0
LINE
  8
_0-0_0
  6
CONTINUOUS
 62
    7
 10
-465.50000050000017
 20
799.39999399999999
 11
1673.5048824999999
 21
799.39999399999999
  0
LINE
  8
_0-0_0
  6
CONTINUOUS
 62
    7
 10
-465.49749750000001
 20
799.59997599999997
 11
1673.5024415
 21
799.59997599999997
  0
LINE
  8
_0-0_0
  6
CONTINUOUS
 62
    7
 10
1688.0476074999999
 20
804.19998199999998
 11
1688.1367184999999
 21
804.07070899999997
  0
ARC
  8
_0-0_0
  6
CONTINUOUS
 62
    7
 10
1681.5024415
 20
799.59997599999997
 40
8
 50
35.099632
 51
144.900373
  0
LINE
  8
_0-0_0
  6
CONTINUOUS
 62
    7
 10
1674.9572754999999
 20
804.19998199999998
 11
1674.8681635
 21
804.07070899999997
  0
LINE
  8
_0-0_0
  6
CONTINUOUS
 62
    7
 10
1674.7751464999999
 20
803.92929099999992
 11
1674.8681635
 21
804.07070899999997
  0
LINE
  8
_0-0_0
  6
CONTINUOUS
 62
    7
 10
1674.7751464999999
 20
803.92929099999992
 11
1674.6936034999999
 21
803.79998799999998
  0
ARC
  8
_0-0_0
  6
CONTINUOUS
 62
    7
 10
1681.5024415
 20
799.59997599999997
 40
8
 50
148.33176499999999
 51
154.05551800000001
  0
LINE
  8
_0-0_0
  6
CONTINUOUS
 62
    7
 10
1674.3085934999999
 20
803.09997599999997
 11
1674.2148434999999
 21
802.89999399999999
  0
LINE
  8
_0-0_0
  6
CONTINUOUS
 62
    7
 10
1674.2148434999999
 20
802.89999399999999
 11
1674.1274415
 21
802.69998199999998
  0
ARC
  8
_0-0_0
  6
CONTINUOUS
 62
    7
 10
1681.5024415
 20
799.59997599999997
 40
8
 50
157.20097000000001
 51
162.54239699999999
  0
LINE
  8
_0-0_0
  6
CONTINUOUS
 62
    7
 10
1673.8708495000001
 20
801.99997000000008
 11
1673.8107904999999
 21
801.79998799999998
  0
LINE
  8
_0-0_0
  6
CONTINUOUS
 62
    7
 10
1673.8107904999999
 20
801.79998799999998
 11
1673.7565915
 21
801.59997599999997
  0
ARC
  8
_0-0_0
  6
CONTINUOUS
 62
    7
 10
1681.5024415
 20
799.59997599999997
 40
8
 50
165.52249
 51
170.64796000000001
  0
LINE
  8
_0-0_0
  6
CONTINUOUS
 62
    7
 10
1673.6088864999999
 20
800.89999399999999
 11
1673.5783695
 21
800.69998199999998
  0
LINE
  8
_0-0_0
  6
CONTINUOUS
 62
    7
 10
1673.5783695
 20
800.69998199999998
 11
1673.5532224999999
 21
800.49997000000008
  0
ARC
  8
_0-0_0
  6
CONTINUOUS
 62
    7
 10
1681.5024415
 20
799.59997599999997
 40
8
 50
173.54054500000001
 51
178.567455
  0
LINE
  8
_0-0_0
  6
CONTINUOUS
 62
    7
 10
1673.5048824999999
 20
799.79998799999998
 11
1673.5024415
 21
799.59997599999997
  0
LINE
  8
_0-0_0
  6
CONTINUOUS
 62
    7
 10
1689.4999995000001
 20
799.79998799999998
 11
1689.5024415
 21
799.59997599999997
  0
ARC
  8
_0-0_0
  6
CONTINUOUS
 62
    7
 10
1681.5024415
 20
799.59997599999997
 40
8
 50
1.432544
 51
6.4594489999999993
  0
LINE
  8
_0-0_0
  6
CONTINUOUS
 62
    7
 10
1689.4265135000001
 20
800.69998199999998
 11
1689.4516604999999
 21
800.49997000000008
  0
LINE
  8
_0-0_0
  6
CONTINUOUS
 62
    7
 10
1689.3959964999999
 20
800.89999399999999
 11
1689.4265135000001
 21
800.69998199999998
  0
ARC
  8
_0-0_0
  6
CONTINUOUS
 62
    7
 10
1681.5024415
 20
799.59997599999997
 40
8
 50
9.3520350000000008
 51
14.477510999999998
  0
LINE
  8
_0-0_0
  6
CONTINUOUS
 62
    7
 10
1689.1940915
 20
801.79998799999998
 11
1689.2482904999999
 21
801.59997599999997
  0
LINE
  8
_0-0_0
  6
CONTINUOUS
 62
    7
 10
1689.1340335
 20
801.99997000000008
 11
1689.1940915
 21
801.79998799999998
  0
ARC
  8
_0-0_0
  6
CONTINUOUS
 62
    7
 10
1681.5024415
 20
799.59997599999997
 40
8
 50
17.457602999999999
 51
22.799030999999999
  0
LINE
  8
_0-0_0
  6
CONTINUOUS
 62
    7
 10
1688.7900385
 20
802.89999399999999
 11
1688.8774415
 21
802.69998199999998
  0
LINE
  8
_0-0_0
  6
CONTINUOUS
 62
    7
 10
1688.6962885
 20
803.09997599999997
 11
1688.7900385
 21
802.89999399999999
  0
ARC
  8
_0-0_0
  6
CONTINUOUS
 62
    7
 10
1681.5024415
 20
799.59997599999997
 40
8
 50
25.944476999999999
 51
31.668240000000001
  0
LINE
  8
_0-0_0
  6
CONTINUOUS
 62
    7
 10
1688.2297364999999
 20
803.92929099999992
 11
1688.3112795
 21
803.79998799999998
  0
LINE
  8
_0-0_0
  6
CONTINUOUS
 62
    7
 10
1688.2297364999999
 20
803.92929099999992
 11
1688.1367184999999
 21
804.07070899999997
  0
CIRCLE
  8
_0-0_0
  6
CONTINUOUS
 62
    7
 10
1681.5024415
 20
799.59997599999997
 40
7.5
  0
LINE
  8
_0-0_0
  6
CONTINUOUS
 62
    7
 10
1689.4999995000001
 20
799.39999399999999
 11
1690.5024415
 21
799.39999399999999
  0
LINE
  8
_0-0_0
  6
CONTINUOUS
 62
    7
 10
1689.5024415
 20
799.59997599999997
 11
1690.5024415
 21
799.59997599999997
  0
LINE
  8
_0-0_0
  6
CONTINUOUS
 62
    7
 10
1689.4516604999999
 20
798.69998199999998
 11
1690.5024415
 21
798.69998199999998
  0
LINE
  8
_0-0_0
  6
CONTINUOUS
 62
    7
 10
1689.4265135000001
 20
798.49997000000008
 11
1690.5024415
 21
798.49997000000008
  0
LINE
  8
_0-0_0
  6
CONTINUOUS
 62
    7
 10
1689.3959964999999
 20
798.29998799999998
 11
1690.5024415
 21
798.29998799999998
  0
LINE
  8
_0-0_0
  6
CONTINUOUS
 62
    7
 10
1689.2482904999999
 20
797.59997599999997
 11
1690.5024415
 21
797.59997599999997
  0
LINE
  8
_0-0_0
  6
CONTINUOUS
 62
    7
 10
1689.1940915
 20
797.39999399999999
 11
1690.5024415
 21
797.39999399999999
  0
LINE
  8
_0-0_0
  6
CONTINUOUS
 62
    7
 10
1689.1340335
 20
797.19998199999998
 11
1690.5024415
 21
797.19998199999998
  0
LINE
  8
_0-0_0
  6
CONTINUOUS
 62
    7
 10
1688.8774415
 20
796.49997000000008
 11
1690.5024415
 21
796.49997000000008
  0
LINE
  8
_0-0_0
  6
CONTINUOUS
 62
    7
 10
1688.7900385
 20
796.29998799999998
 11
1690.5024415
 21
796.29998799999998
  0
LINE
  8
_0-0_0
  6
CONTINUOUS
 62
    7
 10
1688.6962885
 20
796.09997599999997
 11
1690.5024415
 21
796.09997599999997
  0
LINE
  8
_0-0_0
  6
CONTINUOUS
 62
    7
 10
1688.3112795
 20
795.39999399999999
 11
1690.5024415
 21
795.39999399999999
  0
LINE
  8
_0-0_0
  6
CONTINUOUS
 62
    7
 10
1688.3112795
 20
803.79998799999998
 11
1690.5024415
 21
803.79998799999998
  0
LINE
  8
_0-0_0
  6
CONTINUOUS
 62
    7
 10
1688.6962885
 20
803.09997599999997
 11
1690.5024415
 21
803.09997599999997
  0
LINE
  8
_0-0_0
  6
CONTINUOUS
 62
    7
 10
1688.7900385
 20
802.89999399999999
 11
1690.5024415
 21
802.89999399999999
  0
LINE
  8
_0-0_0
  6
CONTINUOUS
 62
    7
 10
1688.8774415
 20
802.69998199999998
 11
1690.5024415
 21
802.69998199999998
  0
LINE
  8
_0-0_0
  6
CONTINUOUS
 62
    7
 10
1689.1340335
 20
801.99997000000008
 11
1690.5024415
 21
801.99997000000008
  0
LINE
  8
_0-0_0
  6
CONTINUOUS
 62
    7
 10
1689.1940915
 20
801.79998799999998
 11
1690.5024415
 21
801.79998799999998
  0
LINE
  8
_0-0_0
  6
CONTINUOUS
 62
    7
 10
1689.2482904999999
 20
801.59997599999997
 11
1690.5024415
 21
801.59997599999997
  0
LINE
  8
_0-0_0
  6
CONTINUOUS
 62
    7
 10
1689.3959964999999
 20
800.89999399999999
 11
1690.5024415
 21
800.89999399999999
  0
LINE
  8
_0-0_0
  6
CONTINUOUS
 62
    7
 10
1689.4265135000001
 20
800.69998199999998
 11
1690.5024415
 21
800.69998199999998
  0
LINE
  8
_0-0_0
  6
CONTINUOUS
 62
    7
 10
1689.4516604999999
 20
800.49997000000008
 11
1690.5024415
 21
800.49997000000008
  0
LINE
  8
_0-0_0
  6
CONTINUOUS
 62
    7
 10
1689.4999995000001
 20
799.79998799999998
 11
1690.5024415
 21
799.79998799999998
  0
LINE
  8
_0-0_0
  6
CONTINUOUS
 62
    7
 10
1691.0024415
 20
783.09997599999997
 11
1690.5024415
 21
783.09997599999997
  0
LINE
  8
_0-0_0
  6
CONTINUOUS
 62
    7
 10
1690.5024415
 20
785.29998799999998
 11
1691.0024415
 21
785.29998799999998
  0
LINE
  8
_0-0_0
  6
CONTINUOUS
 62
    7
 10
1691.0024415
 20
787.59997599999997
 11
1690.5024415
 21
787.59997599999997
  0
LINE
  8
_0-0_0
  6
CONTINUOUS
 62
    7
 10
-482.49749750000001
 20
787.59997599999997
 11
-482.99749750000001
 21
787.59997599999997
  0
LINE
  8
_0-0_0
  6
CONTINUOUS
 62
    7
 10
1690.5024415
 20
789.89999399999999
 11
1691.0024415
 21
789.89999399999999
  0
LINE
  8
_0-0_0
  6
CONTINUOUS
 62
    7
 10
1691.0024415
 20
810.09997599999997
 11
1691.0024415
 21
809.99997000000008
  0
LINE
  8
_0-0_0
  6
CONTINUOUS
 62
    7
 10
-482.99749750000001
 20
810.09997599999997
 11
-482.99749750000001
 21
809.99997000000008
  0
LINE
  8
_0-0_0
  6
CONTINUOUS
 62
    7
 10
-482.99749750000001
 20
789.89999399999999
 11
-482.49749750000001
 21
789.89999399999999
  0
LINE
  8
_0-0_0
  6
CONTINUOUS
 62
    7
 10
-482.49749750000001
 20
809.79998799999998
 11
1690.5024415
 21
809.79998799999998
  0
LINE
  8
_0-0_0
  6
CONTINUOUS
 62
    7
 10
-482.49749750000001
 20
809.20602400000007
 11
1690.5024415
 21
809.20602400000007
  0
LINE
  8
_0-0_0
  6
CONTINUOUS
 62
    7
 10
1688.0476074999999
 20
804.19998199999998
 11
1690.5024415
 21
804.19998199999998
  0
LINE
  8
_0-0_0
  6
CONTINUOUS
 62
    7
 10
-482.49749750000001
 20
804.19998199999998
 11
-480.04272450000008
 21
804.19998199999998
  0
ARC
  8
_0-0_0
  6
CONTINUOUS
 62
    7
 10
-473.49749750000001
 20
799.59997599999997
 40
8
 50
35.099632
 51
144.900373
  0
LINE
  8
_0-0_0
  6
CONTINUOUS
 62
    7
 10
-466.95227049999994
 20
804.19998199999998
 11
1674.9572754999999
 21
804.19998199999998
  0
LINE
  8
_0-0_0
  6
CONTINUOUS
 62
    7
 10
-482.99749750000001
 20
783.09997599999997
 11
-482.49749750000001
 21
783.09997599999997
  0
LINE
  8
_0-0_0
  6
CONTINUOUS
 62
    7
 10
-482.99749750000001
 20
785.29998799999998
 11
-482.49749750000001
 21
785.29998799999998
  0
LINE
  8
_0-0_0
  6
CONTINUOUS
 62
    7
 10
-480.04272450000008
 20
804.19998199999998
 11
-480.13168350000001
 21
804.07070899999997
  0
LINE
  8
_0-0_0
  6
CONTINUOUS
 62
    7
 10
-480.22485350000011
 20
803.92929099999992
 11
-480.13168350000001
 21
804.07070899999997
  0
LINE
  8
_0-0_0
  6
CONTINUOUS
 62
    7
 10
-482.49749750000001
 20
803.79998799999998
 11
-480.30630550000001
 21
803.79998799999998
  0
LINE
  8
_0-0_0
  6
CONTINUOUS
 62
    7
 10
-480.22485350000011
 20
803.92929099999992
 11
-480.30630550000001
 21
803.79998799999998
  0
ARC
  8
_0-0_0
  6
CONTINUOUS
 62
    7
 10
-473.49749750000001
 20
799.59997599999997
 40
8
 50
148.33176499999999
 51
154.05551800000001
  0
LINE
  8
_0-0_0
  6
CONTINUOUS
 62
    7
 10
-482.49749750000001
 20
803.09997599999997
 11
-480.69122349999998
 21
803.09997599999997
  0
LINE
  8
_0-0_0
  6
CONTINUOUS
 62
    7
 10
-480.69122349999998
 20
803.09997599999997
 11
-480.75271650000013
 21
802.97070299999996
  0
LINE
  8
_0-0_0
  6
CONTINUOUS
 62
    7
 10
-480.81674250000015
 20
802.82928500000003
 11
-480.75271650000013
 21
802.97070299999996
  0
LINE
  8
_0-0_0
  6
CONTINUOUS
 62
    7
 10
-482.49749750000001
 20
802.69998199999998
 11
-480.87243650000005
 21
802.69998199999998
  0
LINE
  8
_0-0_0
  6
CONTINUOUS
 62
    7
 10
-480.81674250000015
 20
802.82928500000003
 11
-480.87243650000005
 21
802.69998199999998
  0
ARC
  8
_0-0_0
  6
CONTINUOUS
 62
    7
 10
-473.49749750000001
 20
799.59997599999997
 40
8
 50
157.20097000000001
 51
162.54239699999999
  0
LINE
  8
_0-0_0
  6
CONTINUOUS
 62
    7
 10
-482.49749750000001
 20
801.99997000000008
 11
-481.12899749999997
 21
801.99997000000008
  0
LINE
  8
_0-0_0
  6
CONTINUOUS
 62
    7
 10
-481.12899749999997
 20
801.99997000000008
 11
-481.16845749999993
 21
801.87069700000006
  0
LINE
  8
_0-0_0
  6
CONTINUOUS
 62
    7
 10
-481.20892350000008
 20
801.72927900000002
 11
-481.16845749999993
 21
801.87069700000006
  0
LINE
  8
_0-0_0
  6
CONTINUOUS
 62
    7
 10
-482.49749750000001
 20
801.59997599999997
 11
-481.24346949999995
 21
801.59997599999997
  0
LINE
  8
_0-0_0
  6
CONTINUOUS
 62
    7
 10
-481.20892350000008
 20
801.72927900000002
 11
-481.24346949999995
 21
801.59997599999997
  0
ARC
  8
_0-0_0
  6
CONTINUOUS
 62
    7
 10
-473.49749750000001
 20
799.59997599999997
 40
8
 50
165.52249
 51
170.64796000000001
  0
LINE
  8
_0-0_0
  6
CONTINUOUS
 62
    7
 10
-482.49749750000001
 20
800.89999399999999
 11
-481.3911435
 21
800.89999399999999
  0
LINE
  8
_0-0_0
  6
CONTINUOUS
 62
    7
 10
-481.3911435
 20
800.89999399999999
 11
-481.41137750000007
 21
800.77069099999994
  0
LINE
  8
_0-0_0
  6
CONTINUOUS
 62
    7
 10
-481.4309995000001
 20
800.62927300000001
 11
-481.41137750000007
 21
800.77069099999994
  0
LINE
  8
_0-0_0
  6
CONTINUOUS
 62
    7
 10
-482.49749750000001
 20
800.49997000000008
 11
-481.44671650000009
 21
800.49997000000008
  0
LINE
  8
_0-0_0
  6
CONTINUOUS
 62
    7
 10
-481.4309995000001
 20
800.62927300000001
 11
-481.44671650000009
 21
800.49997000000008
  0
ARC
  8
_0-0_0
  6
CONTINUOUS
 62
    7
 10
-473.49749750000001
 20
799.59997599999997
 40
8
 50
173.54054500000001
 51
178.567455
  0
LINE
  8
_0-0_0
  6
CONTINUOUS
 62
    7
 10
-482.49749750000001
 20
799.79998799999998
 11
-481.49499549999996
 21
799.79998799999998
  0
LINE
  8
_0-0_0
  6
CONTINUOUS
 62
    7
 10
-481.49499549999996
 20
799.79998799999998
 11
-481.49716149999995
 21
799.67068500000005
  0
LINE
  8
_0-0_0
  6
CONTINUOUS
 62
    7
 10
-481.49749750000001
 20
799.59997599999997
 11
-481.49716149999995
 21
799.67068500000005
  0
LINE
  8
_0-0_0
  6
CONTINUOUS
 62
    7
 10
-482.49749750000001
 20
799.39999399999999
 11
-481.49499549999996
 21
799.39999399999999
  0
LINE
  8
_0-0_0
  6
CONTINUOUS
 62
    7
 10
-482.49749750000001
 20
798.69998199999998
 11
-481.44671650000009
 21
798.69998199999998
  0
LINE
  8
_0-0_0
  6
CONTINUOUS
 62
    7
 10
-482.49749750000001
 20
798.29998799999998
 11
-481.3911435
 21
798.29998799999998
  0
LINE
  8
_0-0_0
  6
CONTINUOUS
 62
    7
 10
-482.49749750000001
 20
797.59997599999997
 11
-481.24346949999995
 21
797.59997599999997
  0
LINE
  8
_0-0_0
  6
CONTINUOUS
 62
    7
 10
-482.49749750000001
 20
797.19998199999998
 11
-481.12899749999997
 21
797.19998199999998
  0
LINE
  8
_0-0_0
  6
CONTINUOUS
 62
    7
 10
-482.49749750000001
 20
796.49997000000008
 11
-480.87243650000005
 21
796.49997000000008
  0
LINE
  8
_0-0_0
  6
CONTINUOUS
 62
    7
 10
-482.49749750000001
 20
796.09997599999997
 11
-480.69122349999998
 21
796.09997599999997
  0
LINE
  8
_0-0_0
  6
CONTINUOUS
 62
    7
 10
-482.49749750000001
 20
795.39999399999999
 11
-480.30630550000001
 21
795.39999399999999
  0
LINE
  8
_0-0_0
  6
CONTINUOUS
 62
    7
 10
-465.50000050000017
 20
799.79998799999998
 11
-465.49749750000001
 21
799.59997599999997
  0
ARC
  8
_0-0_0
  6
CONTINUOUS
 62
    7
 10
-473.49749750000001
 20
799.59997599999997
 40
8
 50
1.432544
 51
6.4594489999999993
  0
LINE
  8
_0-0_0
  6
CONTINUOUS
 62
    7
 10
-465.57348649999994
 20
800.69998199999998
 11
-465.54827849999992
 21
800.49997000000008
  0
LINE
  8
_0-0_0
  6
CONTINUOUS
 62
    7
 10
-465.60382049999998
 20
800.89999399999999
 11
-465.57348649999994
 21
800.69998199999998
  0
ARC
  8
_0-0_0
  6
CONTINUOUS
 62
    7
 10
-473.49749750000001
 20
799.59997599999997
 40
8
 50
9.3520350000000008
 51
14.477510999999998
  0
LINE
  8
_0-0_0
  6
CONTINUOUS
 62
    7
 10
-465.80593850000014
 20
801.79998799999998
 11
-465.75152550000007
 21
801.59997599999997
  0
LINE
  8
_0-0_0
  6
CONTINUOUS
 62
    7
 10
-465.86596650000001
 20
801.99997000000008
 11
-465.80593850000014
 21
801.79998799999998
  0
ARC
  8
_0-0_0
  6
CONTINUOUS
 62
    7
 10
-473.49749750000001
 20
799.59997599999997
 40
8
 50
17.457602999999999
 51
22.799030999999999
  0
LINE
  8
_0-0_0
  6
CONTINUOUS
 62
    7
 10
-466.20983849999993
 20
802.89999399999999
 11
-466.12252850000004
 21
802.69998199999998
  0
LINE
  8
_0-0_0
  6
CONTINUOUS
 62
    7
 10
-466.30374150000011
 20
803.09997599999997
 11
-466.20983849999993
 21
802.89999399999999
  0
ARC
  8
_0-0_0
  6
CONTINUOUS
 62
    7
 10
-473.49749750000001
 20
799.59997599999997
 40
8
 50
25.944476999999999
 51
31.668240000000001
  0
LINE
  8
_0-0_0
  6
CONTINUOUS
 62
    7
 10
-466.77014150000014
 20
803.92929099999992
 11
-466.68865950000009
 21
803.79998799999998
  0
LINE
  8
_0-0_0
  6
CONTINUOUS
 62
    7
 10
-466.77014150000014
 20
803.92929099999992
 11
-466.86328150000008
 21
804.07070899999997
  0
LINE
  8
_0-0_0
  6
CONTINUOUS
 62
    7
 10
-466.95227049999994
 20
804.19998199999998
 11
-466.86328150000008
 21
804.07070899999997
  0
CIRCLE
  8
_0-0_0
  6
CONTINUOUS
 62
    7
 10
-473.49749750000001
 20
799.59997599999997
 40
7.5
  0
LINE
  8
_0-0_0
  6
CONTINUOUS
 62
    7
 10
-465.50000050000017
 20
799.79998799999998
 11
1673.5048824999999
 21
799.79998799999998
  0
LINE
  8
_0-0_0
  6
CONTINUOUS
 62
    7
 10
-465.54827849999992
 20
800.49997000000008
 11
1673.5532224999999
 21
800.49997000000008
  0
LINE
  8
_0-0_0
  6
CONTINUOUS
 62
    7
 10
-465.57348649999994
 20
800.69998199999998
 11
1673.5783695
 21
800.69998199999998
  0
LINE
  8
_0-0_0
  6
CONTINUOUS
 62
    7
 10
-465.60382049999998
 20
800.89999399999999
 11
1673.6088864999999
 21
800.89999399999999
  0
LINE
  8
_0-0_0
  6
CONTINUOUS
 62
    7
 10
-465.75152550000007
 20
801.59997599999997
 11
1673.7565915
 21
801.59997599999997
  0
LINE
  8
_0-0_0
  6
CONTINUOUS
 62
    7
 10
-465.80593850000014
 20
801.79998799999998
 11
1673.8107904999999
 21
801.79998799999998
  0
LINE
  8
_0-0_0
  6
CONTINUOUS
 62
    7
 10
-465.86596650000001
 20
801.99997000000008
 11
1673.8708495000001
 21
801.99997000000008
  0
LINE
  8
_0-0_0
  6
CONTINUOUS
 62
    7
 10
-466.12252850000004
 20
802.69998199999998
 11
1674.1274415
 21
802.69998199999998
  0
LINE
  8
_0-0_0
  6
CONTINUOUS
 62
    7
 10
-466.20983849999993
 20
802.89999399999999
 11
1674.2148434999999
 21
802.89999399999999
  0
LINE
  8
_0-0_0
  6
CONTINUOUS
 62
    7
 10
-466.30374150000011
 20
803.09997599999997
 11
1674.3085934999999
 21
803.09997599999997
  0
LINE
  8
_0-0_0
  6
CONTINUOUS
 62
    7
 10
-466.68865950000009
 20
803.79998799999998
 11
1674.6936034999999
 21
803.79998799999998
  0
LINE
  8
_0-0_0
  6
CONTINUOUS
 62
    7
 10
1691.0024415
 20
781.59997599999997
 11
1690.5024415
 21
781.59997599999997
  0
LINE
  8
_0-0_0
  6
CONTINUOUS
 62
    7
 10
1691.0024415
 20
809.19998199999998
 11
1691.0024415
 21
809.99997000000008
  0
LINE
  8
_0-0_0
  6
CONTINUOUS
 62
    7
 10
1691.0024415
 20
781.39999399999999
 11
1691.0024415
 21
809.19998199999998
  0
ARC
  8
_0-0_0
  6
CONTINUOUS
 62
    7
 10
1681.5024415
 20
800.29998799999998
 40
12.800000000000001
 50
73.932597000000001
 51
106.06740099999999
  0
LINE
  8
_0-0_0
  6
CONTINUOUS
 62
    7
 10
-482.99749750000001
 20
809.19998199999998
 11
-482.99749750000001
 21
809.99997000000008
  0
LINE
  8
_0-0_0
  6
CONTINUOUS
 62
    7
 10
-482.99749750000001
 20
781.39999399999999
 11
-482.99749750000001
 21
809.19998199999998
  0
ARC
  8
_0-0_0
  6
CONTINUOUS
 62
    7
 10
-473.49749750000001
 20
800.29998799999998
 40
12.800000000000001
 50
73.932597000000001
 51
106.06740099999999
  0
LINE
  8
_0-0_0
  6
CONTINUOUS
 62
    7
 10
237.00250249999999
 20
812.59997599999997
 11
237.00250249999999
 21
818.23989899999992
  0
LINE
  8
_0-0_0
  6
CONTINUOUS
 62
    7
 10
256.00250249999999
 20
818.23989899999992
 11
256.00250249999999
 21
812.59997599999997
  0
LINE
  8
_0-0_0
  6
CONTINUOUS
 62
    7
 10
957.00256349999995
 20
812.59997599999997
 11
957.00256349999995
 21
818.23989899999992
  0
LINE
  8
_0-0_0
  6
CONTINUOUS
 62
    7
 10
976.00256349999995
 20
818.23989899999992
 11
976.00256349999995
 21
812.59997599999997
  0
LINE
  8
_0-0_0
  6
CONTINUOUS
 62
    7
 10
1691.0024415
 20
810.09997599999997
 11
1691.0024415
 21
812.59997599999997
  0
LINE
  8
_0-0_0
  6
CONTINUOUS
 62
    7
 10
-482.99749750000001
 20
812.59997599999997
 11
1691.0024415
 21
812.59997599999997
  0
LINE
  8
_0-0_0
  6
CONTINUOUS
 62
    7
 10
-482.99749750000001
 20
810.09997599999997
 11
-482.99749750000001
 21
812.59997599999997
  0
LINE
  8
_0-0_0
  6
CONTINUOUS
 62
    7
 10
-482.99749750000001
 20
781.59997599999997
 11
-482.49749750000001
 21
781.59997599999997
  0
ARC
  8
_0-0_0
  6
CONTINUOUS
 62
    7
 10
1612.8024905
 20
786.49997000000008
 40
0.2
 50
339.62356199999999
 51
90.000002999999978
  0
LINE
  8
_0-0_0
  6
CONTINUOUS
 62
    7
 10
1612.9899905
 20
786.43035899999995
 11
1611.6899415
 21
782.93035899999995
  0
ARC
  8
_0-0_0
  6
CONTINUOUS
 62
    7
 10
1611.5024415
 20
782.99997000000008
 40
0.2
 50
200.37643
 51
339.62356199999999
  0
LINE
  8
_0-0_0
  6
CONTINUOUS
 62
    7
 10
1610.0148924999999
 20
786.43035899999995
 11
1611.3149415
 21
782.93035899999995
  0
ARC
  8
_0-0_0
  6
CONTINUOUS
 62
    7
 10
1610.2023924999999
 20
786.49997000000008
 40
0.2
 50
90.000003000000007
 51
200.37643
  0
LINE
  8
_0-0_0
  6
CONTINUOUS
 62
    7
 10
1610.2023924999999
 20
786.69998199999998
 11
1612.8024905
 21
786.69998199999998
  0
ARC
  8
_0-0_0
  6
CONTINUOUS
 62
    7
 10
-427.1974795000001
 20
786.49997000000008
 40
0.2
 50
339.62356199999999
 51
90.000002999999978
  0
LINE
  8
_0-0_0
  6
CONTINUOUS
 62
    7
 10
-427.01000950000002
 20
786.43035899999995
 11
-428.30999750000001
 21
782.93035899999995
  0
ARC
  8
_0-0_0
  6
CONTINUOUS
 62
    7
 10
-428.49749750000001
 20
782.99997000000008
 40
0.2
 50
200.37643
 51
339.62356199999999
  0
LINE
  8
_0-0_0
  6
CONTINUOUS
 62
    7
 10
-429.98498549999999
 20
786.43035899999995
 11
-428.68496750000008
 21
782.93035899999995
  0
ARC
  8
_0-0_0
  6
CONTINUOUS
 62
    7
 10
-429.79748549999999
 20
786.49997000000008
 40
0.2
 50
90.000003000000007
 51
200.37643
  0
LINE
  8
_0-0_0
  6
CONTINUOUS
 62
    7
 10
-429.79748549999999
 20
786.69998199999998
 11
-427.1974795000001
 21
786.69998199999998
  0
LINE
  8
_0-0_0
  6
CONTINUOUS
 62
    7
 10
1692.0024415
 20
809.19998199999998
 11
1691.0024415
 21
809.19998199999998
  0
LINE
  8
_0-0_0
  6
CONTINUOUS
 62
    7
 10
1692.0024415
 20
810.23696900000004
 11
1691.0024415
 21
810.23696900000004
  0
LINE
  8
_0-0_0
  6
CONTINUOUS
 62
    7
 10
1692.0024415
 20
781.39999399999999
 11
1691.0024415
 21
781.39999399999999
  0
ARC
  8
_0-0_0
  6
CONTINUOUS
 62
    7
 10
966.50256349999995
 20
800.29998799999998
 40
20.299999
 50
62.096725999999997
 51
117.903272
  0
CIRCLE
  8
_0-0_0
  6
CONTINUOUS
 62
    7
 10
966.50256349999995
 20
816.59997599999997
 40
2.5
  0
ARC
  8
_0-0_0
  6
CONTINUOUS
 62
    7
 10
246.50250249999999
 20
800.29998799999998
 40
20.299999
 50
62.096725999999997
 51
117.903272
  0
CIRCLE
  8
_0-0_0
  6
CONTINUOUS
 62
    7
 10
246.50250249999999
 20
816.59997599999997
 40
2.5
  0
LINE
  8
_0-0_0
  6
CONTINUOUS
 62
    7
 10
-483.99749750000001
 20
809.19998199999998
 11
-482.99749750000001
 21
809.19998199999998
  0
LINE
  8
_0-0_0
  6
CONTINUOUS
 62
    7
 10
-483.99749750000001
 20
810.19998199999998
 11
-482.99749750000001
 21
810.19998199999998
  0
LINE
  8
_0-0_0
  6
CONTINUOUS
 62
    7
 10
-483.99749750000001
 20
781.39999399999999
 11
-482.99749750000001
 21
781.39999399999999
  0
LINE
  8
_0-0_0
  6
CONTINUOUS
 62
    7
 10
1692.0024415
 20
812.39999399999999
 11
1691.0024415
 21
812.39999399999999
  0
LINE
  8
_0-0_0
  6
CONTINUOUS
 62
    7
 10
-483.99749750000001
 20
812.39999399999999
 11
-482.99749750000001
 21
812.39999399999999
  0
LINE
  8
_0-0_0
  6
CONTINUOUS
 62
    7
 10
1693.0024415
 20
808.78576699999996
 11
1693.0014644999999
 21
808.80429099999992
  0
LINE
  8
_0-0_0
  6
CONTINUOUS
 62
    7
 10
1693.0014644999999
 20
808.80429099999992
 11
1692.9985354999999
 21
808.822723
  0
LINE
  8
_0-0_0
  6
CONTINUOUS
 62
    7
 10
1692.9985354999999
 20
808.822723
 11
1692.9931635
 21
808.841858
  0
LINE
  8
_0-0_0
  6
CONTINUOUS
 62
    7
 10
1692.9931635
 20
808.841858
 11
1692.9858394999999
 21
808.86086999999998
  0
LINE
  8
_0-0_0
  6
CONTINUOUS
 62
    7
 10
1692.9858394999999
 20
808.86086999999998
 11
1692.9653315
 21
808.89758299999994
  0
LINE
  8
_0-0_0
  6
CONTINUOUS
 62
    7
 10
1692.9653315
 20
808.89758299999994
 11
1692.9367674999999
 21
808.93325800000002
  0
LINE
  8
_0-0_0
  6
CONTINUOUS
 62
    7
 10
1692.9367674999999
 20
808.93325800000002
 11
1692.9008784999999
 21
808.96756000000005
  0
LINE
  8
_0-0_0
  6
CONTINUOUS
 62
    7
 10
1692.9008784999999
 20
808.96756000000005
 11
1692.8522945
 21
809.00402800000006
  0
LINE
  8
_0-0_0
  6
CONTINUOUS
 62
    7
 10
1692.8522945
 20
809.00402800000006
 11
1692.7956545
 21
809.03802500000006
  0
LINE
  8
_0-0_0
  6
CONTINUOUS
 62
    7
 10
1692.7956545
 20
809.03802500000006
 11
1692.7314455000001
 21
809.06927500000006
  0
LINE
  8
_0-0_0
  6
CONTINUOUS
 62
    7
 10
1692.7314455000001
 20
809.06927500000006
 11
1692.6608885000001
 21
809.097534
  0
LINE
  8
_0-0_0
  6
CONTINUOUS
 62
    7
 10
1692.6608885000001
 20
809.097534
 11
1692.6127925000001
 21
809.11389199999996
  0
LINE
  8
_0-0_0
  6
CONTINUOUS
 62
    7
 10
1692.6127925000001
 20
809.11389199999996
 11
1692.5624995000001
 21
809.12887599999999
  0
LINE
  8
_0-0_0
  6
CONTINUOUS
 62
    7
 10
1692.5624995000001
 20
809.12887599999999
 11
1692.5058595
 21
809.14364599999999
  0
LINE
  8
_0-0_0
  6
CONTINUOUS
 62
    7
 10
1692.5058595
 20
809.14364599999999
 11
1692.4472655
 21
809.15673800000002
  0
LINE
  8
_0-0_0
  6
CONTINUOUS
 62
    7
 10
1692.4472655
 20
809.15673800000002
 11
1692.3305665
 21
809.17706299999998
  0
LINE
  8
_0-0_0
  6
CONTINUOUS
 62
    7
 10
1692.3305665
 20
809.17706299999998
 11
1692.2231445
 21
809.18978900000002
  0
LINE
  8
_0-0_0
  6
CONTINUOUS
 62
    7
 10
1692.2231445
 20
809.18978900000002
 11
1692.1132814999999
 21
809.19741799999997
  0
LINE
  8
_0-0_0
  6
CONTINUOUS
 62
    7
 10
1692.1132814999999
 20
809.19741799999997
 11
1692.0024415
 21
809.19998199999998
  0
LINE
  8
_0-0_0
  6
CONTINUOUS
 62
    7
 10
1693.0024415
 20
808.78576699999996
 11
1693.0024415
 21
809.78582800000004
  0
LINE
  8
_0-0_0
  6
CONTINUOUS
 62
    7
 10
1693.0024415
 20
809.78582800000004
 11
1692.9995114999999
 21
809.81741299999999
  0
LINE
  8
_0-0_0
  6
CONTINUOUS
 62
    7
 10
1692.9995114999999
 20
809.81741299999999
 11
1692.9907224999999
 21
809.84948699999995
  0
LINE
  8
_0-0_0
  6
CONTINUOUS
 62
    7
 10
1692.9907224999999
 20
809.84948699999995
 11
1692.9763184999999
 21
809.88174400000003
  0
LINE
  8
_0-0_0
  6
CONTINUOUS
 62
    7
 10
1692.9763184999999
 20
809.88174400000003
 11
1692.9560544999999
 21
809.91390999999999
  0
LINE
  8
_0-0_0
  6
CONTINUOUS
 62
    7
 10
1692.9560544999999
 20
809.91390999999999
 11
1692.9394534999999
 21
809.93515000000002
  0
LINE
  8
_0-0_0
  6
CONTINUOUS
 62
    7
 10
1692.9394534999999
 20
809.93515000000002
 11
1692.9204104999999
 21
809.95608500000003
  0
LINE
  8
_0-0_0
  6
CONTINUOUS
 62
    7
 10
1692.9204104999999
 20
809.95608500000003
 11
1692.8757324999999
 21
809.99688700000002
  0
LINE
  8
_0-0_0
  6
CONTINUOUS
 62
    7
 10
1692.8757324999999
 20
809.99688700000002
 11
1692.8225095
 21
810.03561400000001
  0
LINE
  8
_0-0_0
  6
CONTINUOUS
 62
    7
 10
1692.8225095
 20
810.03561400000001
 11
1692.7727044999999
 21
810.06582700000001
  0
LINE
  8
_0-0_0
  6
CONTINUOUS
 62
    7
 10
1692.7727044999999
 20
810.06582700000001
 11
1692.7180174999999
 21
810.09405500000003
  0
LINE
  8
_0-0_0
  6
CONTINUOUS
 62
    7
 10
1692.7180174999999
 20
810.09405500000003
 11
1692.6589354999999
 21
810.12008700000001
  0
LINE
  8
_0-0_0
  6
CONTINUOUS
 62
    7
 10
1692.6589354999999
 20
810.12008700000001
 11
1692.6120604999999
 21
810.13809199999992
  0
LINE
  8
_0-0_0
  6
CONTINUOUS
 62
    7
 10
1692.6120604999999
 20
810.13809199999992
 11
1692.5634765
 21
810.15469400000006
  0
LINE
  8
_0-0_0
  6
CONTINUOUS
 62
    7
 10
1692.5634765
 20
810.15469400000006
 11
1692.4611815000001
 21
810.18356300000005
  0
LINE
  8
_0-0_0
  6
CONTINUOUS
 62
    7
 10
1692.4611815000001
 20
810.18356300000005
 11
1692.3532714999999
 21
810.20639000000006
  0
LINE
  8
_0-0_0
  6
CONTINUOUS
 62
    7
 10
1692.3532714999999
 20
810.20639000000006
 11
1692.2416994999999
 21
810.22299199999998
  0
LINE
  8
_0-0_0
  6
CONTINUOUS
 62
    7
 10
1692.2416994999999
 20
810.22299199999998
 11
1692.1276854999999
 21
810.23318500000005
  0
LINE
  8
_0-0_0
  6
CONTINUOUS
 62
    7
 10
1692.1276854999999
 20
810.23318500000005
 11
1692.0024415
 21
810.23696900000004
  0
ARC
  8
_0-0_0
  6
CONTINUOUS
 62
    7
 10
1692.0024415
 20
782.39999399999999
 40
1
 50
269.99999700000001
 51
0
  0
LINE
  8
_0-0_0
  6
CONTINUOUS
 62
    7
 10
1693.0024415
 20
782.39999399999999
 11
1693.0024415
 21
808.78576699999996
  0
CIRCLE
  8
_0-0_0
  6
CONTINUOUS
 62
    7
 10
1681.5024415
 20
799.59997599999997
 40
5
  0
LINE
  8
_0-0_0
  6
CONTINUOUS
 62
    7
 10
-484.99749750000001
 20
808.78576699999996
 11
-484.99649050000016
 21
808.80429099999992
  0
LINE
  8
_0-0_0
  6
CONTINUOUS
 62
    7
 10
-484.99649050000016
 20
808.80429099999992
 11
-484.9934995000001
 21
808.822723
  0
LINE
  8
_0-0_0
  6
CONTINUOUS
 62
    7
 10
-484.9934995000001
 20
808.822723
 11
-484.98825050000005
 21
808.841858
  0
LINE
  8
_0-0_0
  6
CONTINUOUS
 62
    7
 10
-484.98825050000005
 20
808.841858
 11
-484.98086550000016
 21
808.86086999999998
  0
LINE
  8
_0-0_0
  6
CONTINUOUS
 62
    7
 10
-484.98086550000016
 20
808.86086999999998
 11
-484.96032749999995
 21
808.89758299999994
  0
LINE
  8
_0-0_0
  6
CONTINUOUS
 62
    7
 10
-484.96032749999995
 20
808.89758299999994
 11
-484.93191550000006
 21
808.93325800000002
  0
LINE
  8
_0-0_0
  6
CONTINUOUS
 62
    7
 10
-484.93191550000006
 20
808.93325800000002
 11
-484.8960575000001
 21
808.96756000000005
  0
LINE
  8
_0-0_0
  6
CONTINUOUS
 62
    7
 10
-484.8960575000001
 20
808.96756000000005
 11
-484.84741250000002
 21
809.00402800000006
  0
LINE
  8
_0-0_0
  6
CONTINUOUS
 62
    7
 10
-484.84741250000002
 20
809.00402800000006
 11
-484.79064949999997
 21
809.03802500000006
  0
LINE
  8
_0-0_0
  6
CONTINUOUS
 62
    7
 10
-484.79064949999997
 20
809.03802500000006
 11
-484.72650150000004
 21
809.06927500000006
  0
LINE
  8
_0-0_0
  6
CONTINUOUS
 62
    7
 10
-484.72650150000004
 20
809.06927500000006
 11
-484.65585349999992
 21
809.097534
  0
LINE
  8
_0-0_0
  6
CONTINUOUS
 62
    7
 10
-484.65585349999992
 20
809.097534
 11
-484.60775749999993
 21
809.11389199999996
  0
LINE
  8
_0-0_0
  6
CONTINUOUS
 62
    7
 10
-484.60775749999993
 20
809.11389199999996
 11
-484.55761750000011
 21
809.12887599999999
  0
LINE
  8
_0-0_0
  6
CONTINUOUS
 62
    7
 10
-484.55761750000011
 20
809.12887599999999
 11
-484.50091550000002
 21
809.14364599999999
  0
LINE
  8
_0-0_0
  6
CONTINUOUS
 62
    7
 10
-484.50091550000002
 20
809.14364599999999
 11
-484.44232150000016
 21
809.15673800000002
  0
LINE
  8
_0-0_0
  6
CONTINUOUS
 62
    7
 10
-484.44232150000016
 20
809.15673800000002
 11
-484.32553150000012
 21
809.17706299999998
  0
LINE
  8
_0-0_0
  6
CONTINUOUS
 62
    7
 10
-484.32553150000012
 20
809.17706299999998
 11
-484.21813950000001
 21
809.18978900000002
  0
LINE
  8
_0-0_0
  6
CONTINUOUS
 62
    7
 10
-484.21813950000001
 20
809.18978900000002
 11
-484.1083685000001
 21
809.19741799999997
  0
LINE
  8
_0-0_0
  6
CONTINUOUS
 62
    7
 10
-484.1083685000001
 20
809.19741799999997
 11
-483.99749750000001
 21
809.19998199999998
  0
LINE
  8
_0-0_0
  6
CONTINUOUS
 62
    7
 10
-484.99749750000001
 20
809.75543199999993
 11
-484.99459849999994
 21
809.78634699999998
  0
LINE
  8
_0-0_0
  6
CONTINUOUS
 62
    7
 10
-484.99459849999994
 20
809.78634699999998
 11
-484.98590050000007
 21
809.81777999999997
  0
LINE
  8
_0-0_0
  6
CONTINUOUS
 62
    7
 10
-484.98590050000007
 20
809.81777999999997
 11
-484.97140549999995
 21
809.84945700000003
  0
LINE
  8
_0-0_0
  6
CONTINUOUS
 62
    7
 10
-484.97140549999995
 20
809.84945700000003
 11
-484.95123349999994
 21
809.88104299999998
  0
LINE
  8
_0-0_0
  6
CONTINUOUS
 62
    7
 10
-484.95123349999994
 20
809.88104299999998
 11
-484.93472250000013
 21
809.90191699999991
  0
LINE
  8
_0-0_0
  6
CONTINUOUS
 62
    7
 10
-484.93472250000013
 20
809.90191699999991
 11
-484.91583250000008
 21
809.92251599999997
  0
LINE
  8
_0-0_0
  6
CONTINUOUS
 62
    7
 10
-484.91583250000008
 20
809.92251599999997
 11
-484.87118550000014
 21
809.96267699999999
  0
LINE
  8
_0-0_0
  6
CONTINUOUS
 62
    7
 10
-484.87118550000014
 20
809.96267699999999
 11
-484.81805450000002
 21
810.00088499999993
  0
LINE
  8
_0-0_0
  6
CONTINUOUS
 62
    7
 10
-484.81805450000002
 20
810.00088499999993
 11
-484.76815850000003
 21
810.03070099999991
  0
LINE
  8
_0-0_0
  6
CONTINUOUS
 62
    7
 10
-484.76815850000003
 20
810.03070099999991
 11
-484.71350149999989
 21
810.05856300000005
  0
LINE
  8
_0-0_0
  6
CONTINUOUS
 62
    7
 10
-484.71350149999989
 20
810.05856300000005
 11
-484.65451050000001
 21
810.08431999999993
  0
LINE
  8
_0-0_0
  6
CONTINUOUS
 62
    7
 10
-484.65451050000001
 20
810.08431999999993
 11
-484.60775749999993
 21
810.102081
  0
LINE
  8
_0-0_0
  6
CONTINUOUS
 62
    7
 10
-484.60775749999993
 20
810.102081
 11
-484.5590514999999
 21
810.11852999999996
  0
LINE
  8
_0-0_0
  6
CONTINUOUS
 62
    7
 10
-484.5590514999999
 20
810.11852999999996
 11
-484.45660450000014
 21
810.14709500000004
  0
LINE
  8
_0-0_0
  6
CONTINUOUS
 62
    7
 10
-484.45660450000014
 20
810.14709500000004
 11
-484.34878550000008
 21
810.16970800000001
  0
LINE
  8
_0-0_0
  6
CONTINUOUS
 62
    7
 10
-484.34878550000008
 20
810.16970800000001
 11
-484.23712150000006
 21
810.18612699999994
  0
LINE
  8
_0-0_0
  6
CONTINUOUS
 62
    7
 10
-484.23712150000006
 20
810.18612699999994
 11
-484.12295549999999
 21
810.19622800000002
  0
LINE
  8
_0-0_0
  6
CONTINUOUS
 62
    7
 10
-484.12295549999999
 20
810.19622800000002
 11
-483.99749750000001
 21
810.19998199999998
  0
LINE
  8
_0-0_0
  6
CONTINUOUS
 62
    7
 10
-484.99749750000001
 20
808.78576699999996
 11
-484.99749750000001
 21
809.75543199999993
  0
ARC
  8
_0-0_0
  6
CONTINUOUS
 62
    7
 10
-483.99749750000001
 20
782.39999399999999
 40
1
 50
180.00000900000003
 51
269.99999700000001
  0
LINE
  8
_0-0_0
  6
CONTINUOUS
 62
    7
 10
-484.99749750000001
 20
782.39999399999999
 11
-484.99749750000001
 21
808.78576699999996
  0
CIRCLE
  8
_0-0_0
  6
CONTINUOUS
 62
    7
 10
-473.49749750000001
 20
799.59997599999997
 40
5
  0
LINE
  8
_0-0_0
  6
CONTINUOUS
 62
    7
 10
1693.0024415
 20
809.78582800000004
 11
1693.0024415
 21
811.39999399999999
  0
ARC
  8
_0-0_0
  6
CONTINUOUS
 62
    7
 10
1692.0024415
 20
811.39999399999999
 40
1
 50
0
 51
90.000003000000007
  0
ARC
  8
_0-0_0
  6
CONTINUOUS
 62
    7
 10
-483.99749750000001
 20
811.39999399999999
 40
1
 50
90.000003000000007
 51
180.00000900000001
  0
LINE
  8
_0-0_0
  6
CONTINUOUS
 62
    7
 10
-484.99749750000001
 20
809.75543199999993
 11
-484.99749750000001
 21
811.39999399999999
  0
LINE
  8
_0-0_0
  6
CONTINUOUS
 62
    7
 10
-512.9073484999999
 20
781.39999399999999
 11
-512.9073484999999
 21
780.79998799999998
  0
LINE
  8
_0-0_0
  6
CONTINUOUS
 62
    7
 10
-510.4073484999999
 20
775.55499299999997
 11
-510.4073484999999
 21
777.79998799999998
  0
LINE
  8
_0-0_0
  6
CONTINUOUS
 62
    7
 10
-509.4073484999999
 20
777.79998799999998
 11
-509.4073484999999
 21
779.79998799999998
  0
ARC
  8
_0-0_0
  6
CONTINUOUS
 62
    7
 10
-509.9073484999999
 20
779.79998799999998
 40
0.5
 50
0
 51
90.000003000000007
  0
LINE
  8
_0-0_0
  6
CONTINUOUS
 62
    7
 10
-509.9073484999999
 20
780.29998799999998
 11
-511.4073484999999
 21
780.29998799999998
  0
ARC
  8
_0-0_0
  6
CONTINUOUS
 62
    7
 10
-511.4073484999999
 20
781.29998799999998
 40
1
 50
180.00000900000003
 51
269.99999700000001
  0
LINE
  8
_0-0_0
  6
CONTINUOUS
 62
    7
 10
-512.4073484999999
 20
781.39999399999999
 11
-512.4073484999999
 21
781.29998799999998
  0
ARC
  8
_0-0_0
  6
CONTINUOUS
 62
    7
 10
-511.4073484999999
 20
780.79998799999998
 40
1.5
 50
180.00000900000003
 51
269.99999700000001
  0
LINE
  8
_0-0_0
  6
CONTINUOUS
 62
    7
 10
-511.4073484999999
 20
779.29998799999998
 11
-512.10736050000014
 21
779.29998799999998
  0
ARC
  8
_0-0_0
  6
CONTINUOUS
 62
    7
 10
-512.10736050000014
 20
780.29998799999998
 40
1
 50
180.00000900000003
 51
269.99999700000001
  0
LINE
  8
_0-0_0
  6
CONTINUOUS
 62
    7
 10
-513.10736050000014
 20
781.29998799999998
 11
-513.10736050000014
 21
780.29998799999998
  0
LINE
  8
_0-0_0
  6
CONTINUOUS
 62
    7
 10
-521.3073425
 20
780.29998799999998
 11
-521.3073425
 21
781.29998799999998
  0
ARC
  8
_0-0_0
  6
CONTINUOUS
 62
    7
 10
-522.3073425
 20
780.29998799999998
 40
1
 50
269.99999700000001
 51
0
  0
LINE
  8
_0-0_0
  6
CONTINUOUS
 62
    7
 10
-522.3073425
 20
779.29998799999998
 11
-522.50735450000002
 21
779.29998799999998
  0
ARC
  8
_0-0_0
  6
CONTINUOUS
 62
    7
 10
-522.50735450000002
 20
780.29998799999998
 40
1
 50
269.99999700000001
 51
0
  0
LINE
  8
_0-0_0
  6
CONTINUOUS
 62
    7
 10
-521.50735450000002
 20
780.29998799999998
 11
-521.50735450000002
 21
781.39999399999999
  0
LINE
  8
_0-0_0
  6
CONTINUOUS
 62
    7
 10
-522.00735450000002
 20
781.29998799999998
 11
-522.00735450000002
 21
781.39999399999999
  0
ARC
  8
_0-0_0
  6
CONTINUOUS
 62
    7
 10
-523.00738550000005
 20
781.29998799999998
 40
1
 50
269.99999700000001
 51
0
  0
LINE
  8
_0-0_0
  6
CONTINUOUS
 62
    7
 10
-523.00738550000005
 20
780.29998799999998
 11
-524.50738550000005
 21
780.29998799999998
  0
ARC
  8
_0-0_0
  6
CONTINUOUS
 62
    7
 10
-524.50738550000005
 20
779.79998799999998
 40
0.5
 50
90.000003000000007
 51
180.00000900000001
  0
LINE
  8
_0-0_0
  6
CONTINUOUS
 62
    7
 10
-525.00738550000005
 20
779.79998799999998
 11
-525.00738550000005
 21
777.79998799999998
  0
LINE
  8
_0-0_0
  6
CONTINUOUS
 62
    7
 10
-524.00738550000005
 20
775.55499299999997
 11
-524.00738550000005
 21
777.79998799999998
  0
LINE
  8
_0-0_0
  6
CONTINUOUS
 62
    7
 10
-525.9073484999999
 20
757.19998199999998
 11
-525.9073484999999
 21
775.55499299999997
  0
LINE
  8
_0-0_0
  6
CONTINUOUS
 62
    7
 10
-509.10736050000014
 20
757.19998199999998
 11
-509.10736050000014
 21
775.55499299999997
  0
CIRCLE
  8
_0-0_0
  6
CONTINUOUS
 62
    7
 10
-517.20736750000015
 20
777.79998799999998
 40
2.0499999999999998
  0
LINE
  8
_0-0_0
  6
CONTINUOUS
 62
    7
 10
-509.10736050000014
 20
779.29998799999998
 11
-509.10736050000014
 21
779.27499399999999
  0
LINE
  8
_0-0_0
  6
CONTINUOUS
 62
    7
 10
-509.10736050000014
 20
776.05493200000001
 11
-509.10736050000014
 21
776.32498199999998
  0
LINE
  8
_0-0_0
  6
CONTINUOUS
 62
    7
 10
-509.10736050000014
 20
775.55499299999997
 11
-509.10736050000014
 21
776.05499299999997
  0
LINE
  8
_0-0_0
  6
CONTINUOUS
 62
    7
 10
-509.10736050000014
 20
755.19998199999998
 11
-509.10736050000014
 21
757.19998199999998
  0
LINE
  8
_0-0_0
  6
CONTINUOUS
 62
    7
 10
-525.9073484999999
 20
755.19998199999998
 11
-525.9073484999999
 21
757.19998199999998
  0
LINE
  8
_0-0_0
  6
CONTINUOUS
 62
    7
 10
-525.9073484999999
 20
755.19998199999998
 11
-509.10736050000014
 21
755.19998199999998
  0
LINE
  8
_0-0_0
  6
CONTINUOUS
 62
    7
 10
-525.9073484999999
 20
779.29998799999998
 11
-525.9073484999999
 21
777.79998799999998
  0
LINE
  8
_0-0_0
  6
CONTINUOUS
 62
    7
 10
-525.9073484999999
 20
776.05499299999997
 11
-525.9073484999999
 21
777.79998799999998
  0
LINE
  8
_0-0_0
  6
CONTINUOUS
 62
    7
 10
-525.9073484999999
 20
775.55499299999997
 11
-525.9073484999999
 21
776.05499299999997
  0
LINE
  8
_0-0_0
  6
CONTINUOUS
 62
    7
 10
-525.00738550000005
 20
776.05505399999993
 11
-525.00738550000005
 21
777.79998799999998
  0
ARC
  8
_0-0_0
  6
CONTINUOUS
 62
    7
 10
-510.70736750000015
 20
757.29998799999998
 40
2
 50
323.13010300000002
 51
0.0000000000000127
  0
LINE
  8
_0-0_0
  6
CONTINUOUS
 62
    7
 10
-508.70736750000015
 20
757.29998799999998
 11
-508.70736750000015
 21
758.70004300000005
  0
LINE
  8
_0-0_0
  6
CONTINUOUS
 62
    7
 10
-508.4073484999999
 20
763.78967299999999
 11
-508.4073484999999
 21
774.23767099999998
  0
LINE
  8
_0-0_0
  6
CONTINUOUS
 62
    7
 10
-508.4073484999999
 20
775.20047
 11
-508.4073484999999
 21
777.43511999999998
  0
LINE
  8
_0-0_0
  6
CONTINUOUS
 62
    7
 10
-525.9073484999999
 20
779.29998799999998
 11
-525.00738550000005
 21
779.29998799999998
  0
LINE
  8
_0-0_0
  6
CONTINUOUS
 62
    7
 10
-526.00738550000005
 20
758.69998199999998
 11
-525.9073484999999
 21
758.69998199999998
  0
LINE
  8
_0-0_0
  6
CONTINUOUS
 62
    7
 10
-526.00738550000005
 20
758.69998199999998
 11
-526.00738550000005
 21
763.78967299999999
  0
LINE
  8
_0-0_0
  6
CONTINUOUS
 62
    7
 10
-526.00738550000005
 20
774.23767099999998
 11
-526.00738550000005
 21
775.20047
  0
LINE
  8
_0-0_0
  6
CONTINUOUS
 62
    7
 10
-526.00738550000005
 20
778.29998799999998
 11
-525.9073484999999
 21
778.29998799999998
  0
LINE
  8
_0-0_0
  6
CONTINUOUS
 62
    7
 10
-526.00738550000005
 20
777.43511999999998
 11
-526.00738550000005
 21
778.29998799999998
  0
LINE
  8
_0-0_0
  6
CONTINUOUS
 62
    7
 10
-526.00738550000005
 20
775.20047
 11
-526.00738550000005
 21
777.43511999999998
  0
LINE
  8
_0-0_0
  6
CONTINUOUS
 62
    7
 10
-526.00738550000005
 20
763.78967299999999
 11
-526.00738550000005
 21
774.23767099999998
  0
LINE
  8
_0-0_0
  6
CONTINUOUS
 62
    7
 10
-525.70733650000011
 20
777.18872099999999
 11
-525.70733650000011
 21
779.07498199999998
  0
LINE
  8
_0-0_0
  6
CONTINUOUS
 62
    7
 10
-525.70733650000011
 20
776.52499399999999
 11
-525.70733650000011
 21
777.18872099999999
  0
LINE
  8
_0-0_0
  6
CONTINUOUS
 62
    7
 10
-508.70736750000015
 20
778.41125499999998
 11
-508.70736750000015
 21
776.52529900000002
  0
LINE
  8
_0-0_0
  6
CONTINUOUS
 62
    7
 10
-508.70736750000015
 20
779.06662000000006
 11
-508.70736750000015
 21
778.41125499999998
  0
LINE
  8
_0-0_0
  6
CONTINUOUS
 62
    7
 10
-508.4073484999999
 20
758.69998199999998
 11
-508.4073484999999
 21
763.78967299999999
  0
LINE
  8
_0-0_0
  6
CONTINUOUS
 62
    7
 10
-508.4073484999999
 20
777.43511999999998
 11
-508.4073484999999
 21
778.29998799999998
  0
LINE
  8
_0-0_0
  6
CONTINUOUS
 62
    7
 10
-508.4073484999999
 20
774.23767099999998
 11
-508.4073484999999
 21
775.20047
  0
LINE
  8
_0-0_0
  6
CONTINUOUS
 62
    7
 10
-508.4073484999999
 20
778.29998799999998
 11
-508.70736750000015
 21
778.29998799999998
  0
LINE
  8
_0-0_0
  6
CONTINUOUS
 62
    7
 10
-508.4073484999999
 20
758.69998199999998
 11
-509.10736050000014
 21
758.69998199999998
  0
LINE
  8
_0-0_0
  6
CONTINUOUS
 62
    7
 10
-509.10736050000014
 20
779.29998799999998
 11
-509.4073484999999
 21
779.29998799999998
  0
LINE
  8
_0-0_0
  6
CONTINUOUS
 62
    7
 10
-509.4073484999999
 20
777.79998799999998
 11
-509.4073484999999
 21
776.05505399999993
  0
LINE
  8
_0-0_0
  6
CONTINUOUS
 62
    7
 10
-513.10736050000014
 20
781.29998799999998
 11
-513.10736050000014
 21
781.40005500000007
  0
LINE
  8
_0-0_0
  6
CONTINUOUS
 62
    7
 10
-521.3073425
 20
781.40005500000007
 11
-521.3073425
 21
781.29998799999998
  0
LINE
  8
_0-0_0
  6
CONTINUOUS
 62
    7
 10
-510.4073484999999
 20
776.05499299999997
 11
-509.10736050000014
 21
776.05499299999997
  0
ARC
  8
_0-0_0
  6
CONTINUOUS
 62
    7
 10
-525.20733650000011
 20
779.07498199999998
 40
0.2
 50
359.91222800000003
 51
89.999948000000003
  0
ARC
  8
_0-0_0
  6
CONTINUOUS
 62
    7
 10
-525.20745850000003
 20
776.52514700000006
 40
0.200169
 50
270.02985900000004
 51
2.3526610000000452
  0
LINE
  8
_0-0_0
  6
CONTINUOUS
 62
    7
 10
-525.50738550000005
 20
779.27499399999999
 11
-525.20733650000011
 21
779.27499399999999
  0
LINE
  8
_0-0_0
  6
CONTINUOUS
 62
    7
 10
-525.50738550000005
 20
776.32498199999998
 11
-525.20733650000011
 21
776.32498199999998
  0
ARC
  8
_0-0_0
  6
CONTINUOUS
 62
    7
 10
-525.50726350000014
 20
779.07482899999991
 40
0.200169
 50
90.029849999999996
 51
182.352667
  0
ARC
  8
_0-0_0
  6
CONTINUOUS
 62
    7
 10
-525.50738550000005
 20
776.52499399999999
 40
0.2
 50
179.912237
 51
269.99994299999997
  0
ARC
  8
_0-0_0
  6
CONTINUOUS
 62
    7
 10
-509.20724450000012
 20
776.52514700000006
 40
0.200169
 50
177.647333
 51
269.97013600000002
  0
ARC
  8
_0-0_0
  6
CONTINUOUS
 62
    7
 10
-509.20736750000015
 20
779.07498199999998
 40
0.2
 50
90.000049999999987
 51
180.08776299999997
  0
LINE
  8
_0-0_0
  6
CONTINUOUS
 62
    7
 10
-508.9073484999999
 20
776.32498199999998
 11
-509.20736750000015
 21
776.32498199999998
  0
LINE
  8
_0-0_0
  6
CONTINUOUS
 62
    7
 10
-508.9073484999999
 20
779.27499399999999
 11
-509.20736750000015
 21
779.27499399999999
  0
ARC
  8
_0-0_0
  6
CONTINUOUS
 62
    7
 10
-508.9073484999999
 20
776.52499399999999
 40
0.2
 50
270.00005199999998
 51
0.0877600000000175
  0
ARC
  8
_0-0_0
  6
CONTINUOUS
 62
    7
 10
-508.90747050000004
 20
779.07482899999991
 40
0.200169
 50
357.64733799999999
 51
89.970147999999995
  0
LINE
  8
_0-0_0
  6
CONTINUOUS
 62
    7
 10
-525.9073484999999
 20
776.05499299999997
 11
-524.00738550000005
 21
776.05499299999997
  0
LINE
  8
_0-0_0
  6
CONTINUOUS
 62
    7
 10
-508.4073484999999
 20
781.79998799999998
 11
-508.4073484999999
 21
794.99997000000008
  0
ARC
  8
_0-0_0
  6
CONTINUOUS
 62
    7
 10
-508.9073484999999
 20
781.79998799999998
 40
0.5
 50
269.99999700000001
 51
0
  0
ARC
  8
_0-0_0
  6
CONTINUOUS
 62
    7
 10
-508.46594249999998
 20
795.19998199999998
 40
0.1
 50
135
 51
225
  0
LINE
  8
_0-0_0
  6
CONTINUOUS
 62
    7
 10
-508.53665150000006
 20
795.12927300000001
 11
-508.4073484999999
 21
794.99997000000008
  0
LINE
  8
_0-0_0
  6
CONTINUOUS
 62
    7
 10
-508.9073484999999
 20
781.29998799999998
 11
-510.8073425
 21
781.29998799999998
  0
ARC
  8
_0-0_0
  6
CONTINUOUS
 62
    7
 10
-510.8073425
 20
781.79998799999998
 40
0.5
 50
233.12990600000001
 51
269.99999700000001
  0
ARC
  8
_0-0_0
  6
CONTINUOUS
 62
    7
 10
-523.50738550000005
 20
781.79998799999998
 40
0.5
 50
269.99999700000001
 51
306.87009999999998
  0
LINE
  8
_0-0_0
  6
CONTINUOUS
 62
    7
 10
-523.50738550000005
 20
781.29998799999998
 11
-525.4073484999999
 21
781.29998799999998
  0
ARC
  8
_0-0_0
  6
CONTINUOUS
 62
    7
 10
-525.4073484999999
 20
781.79998799999998
 40
0.5
 50
180.00000900000003
 51
269.99999700000001
  0
LINE
  8
_0-0_0
  6
CONTINUOUS
 62
    7
 10
-525.9073484999999
 20
791.23498500000005
 11
-525.9073484999999
 21
781.79998799999998
  0
LINE
  8
_0-0_0
  6
CONTINUOUS
 62
    7
 10
-525.9073484999999
 20
791.23498500000005
 11
-525.20733650000011
 21
791.23498500000005
  0
LINE
  8
_0-0_0
  6
CONTINUOUS
 62
    7
 10
-509.20736750000015
 20
809.79998799999998
 11
-509.00131250000004
 21
809.79998799999998
  0
LINE
  8
_0-0_0
  6
CONTINUOUS
 62
    7
 10
-509.00131250000004
 20
809.79998799999998
 11
-508.4073484999999
 21
809.20602400000007
  0
LINE
  8
_0-0_0
  6
CONTINUOUS
 62
    7
 10
-508.4073484999999
 20
804.19998199999998
 11
-508.4073484999999
 21
809.20602400000007
  0
LINE
  8
_0-0_0
  6
CONTINUOUS
 62
    7
 10
-508.53665150000006
 20
804.07070899999997
 11
-508.4073484999999
 21
804.19998199999998
  0
ARC
  8
_0-0_0
  6
CONTINUOUS
 62
    7
 10
-508.46594249999998
 20
803.99997000000008
 40
0.1
 50
135
 51
225
  0
LINE
  8
_0-0_0
  6
CONTINUOUS
 62
    7
 10
-508.53665150000006
 20
803.92929099999992
 11
-508.4073484999999
 21
803.79998799999998
  0
LINE
  8
_0-0_0
  6
CONTINUOUS
 62
    7
 10
-508.4073484999999
 20
803.09997599999997
 11
-508.4073484999999
 21
803.79998799999998
  0
LINE
  8
_0-0_0
  6
CONTINUOUS
 62
    7
 10
-508.53665150000006
 20
802.97070299999996
 11
-508.4073484999999
 21
803.09997599999997
  0
ARC
  8
_0-0_0
  6
CONTINUOUS
 62
    7
 10
-508.46594249999998
 20
802.89999399999999
 40
0.1
 50
135
 51
225
  0
LINE
  8
_0-0_0
  6
CONTINUOUS
 62
    7
 10
-508.53665150000006
 20
802.82928500000003
 11
-508.4073484999999
 21
802.69998199999998
  0
LINE
  8
_0-0_0
  6
CONTINUOUS
 62
    7
 10
-508.4073484999999
 20
801.99997000000008
 11
-508.4073484999999
 21
802.69998199999998
  0
LINE
  8
_0-0_0
  6
CONTINUOUS
 62
    7
 10
-508.53665150000006
 20
801.87069700000006
 11
-508.4073484999999
 21
801.99997000000008
  0
ARC
  8
_0-0_0
  6
CONTINUOUS
 62
    7
 10
-508.46594249999998
 20
801.79998799999998
 40
0.1
 50
135
 51
225
  0
LINE
  8
_0-0_0
  6
CONTINUOUS
 62
    7
 10
-508.53665150000006
 20
801.72927900000002
 11
-508.4073484999999
 21
801.59997599999997
  0
LINE
  8
_0-0_0
  6
CONTINUOUS
 62
    7
 10
-508.4073484999999
 20
800.89999399999999
 11
-508.4073484999999
 21
801.59997599999997
  0
LINE
  8
_0-0_0
  6
CONTINUOUS
 62
    7
 10
-508.53665150000006
 20
800.77069099999994
 11
-508.4073484999999
 21
800.89999399999999
  0
ARC
  8
_0-0_0
  6
CONTINUOUS
 62
    7
 10
-508.46594249999998
 20
800.69998199999998
 40
0.1
 50
135
 51
225
  0
LINE
  8
_0-0_0
  6
CONTINUOUS
 62
    7
 10
-508.53665150000006
 20
800.62927300000001
 11
-508.4073484999999
 21
800.49997000000008
  0
LINE
  8
_0-0_0
  6
CONTINUOUS
 62
    7
 10
-508.4073484999999
 20
799.79998799999998
 11
-508.4073484999999
 21
800.49997000000008
  0
LINE
  8
_0-0_0
  6
CONTINUOUS
 62
    7
 10
-508.53665150000006
 20
799.67068500000005
 11
-508.4073484999999
 21
799.79998799999998
  0
ARC
  8
_0-0_0
  6
CONTINUOUS
 62
    7
 10
-508.46594249999998
 20
799.59997599999997
 40
0.1
 50
135
 51
225
  0
LINE
  8
_0-0_0
  6
CONTINUOUS
 62
    7
 10
-508.53665150000006
 20
799.52926600000001
 11
-508.4073484999999
 21
799.39999399999999
  0
LINE
  8
_0-0_0
  6
CONTINUOUS
 62
    7
 10
-508.4073484999999
 20
798.69998199999998
 11
-508.4073484999999
 21
799.39999399999999
  0
LINE
  8
_0-0_0
  6
CONTINUOUS
 62
    7
 10
-508.53665150000006
 20
798.57070899999997
 11
-508.4073484999999
 21
798.69998199999998
  0
ARC
  8
_0-0_0
  6
CONTINUOUS
 62
    7
 10
-508.46594249999998
 20
798.49997000000008
 40
0.1
 50
135
 51
225
  0
LINE
  8
_0-0_0
  6
CONTINUOUS
 62
    7
 10
-508.53665150000006
 20
798.42929099999992
 11
-508.4073484999999
 21
798.29998799999998
  0
LINE
  8
_0-0_0
  6
CONTINUOUS
 62
    7
 10
-508.4073484999999
 20
797.59997599999997
 11
-508.4073484999999
 21
798.29998799999998
  0
LINE
  8
_0-0_0
  6
CONTINUOUS
 62
    7
 10
-508.53665150000006
 20
797.47070299999996
 11
-508.4073484999999
 21
797.59997599999997
  0
ARC
  8
_0-0_0
  6
CONTINUOUS
 62
    7
 10
-508.46594249999998
 20
797.39999399999999
 40
0.1
 50
135
 51
225
  0
LINE
  8
_0-0_0
  6
CONTINUOUS
 62
    7
 10
-508.53665150000006
 20
797.32928500000003
 11
-508.4073484999999
 21
797.19998199999998
  0
LINE
  8
_0-0_0
  6
CONTINUOUS
 62
    7
 10
-508.4073484999999
 20
796.49997000000008
 11
-508.4073484999999
 21
797.19998199999998
  0
LINE
  8
_0-0_0
  6
CONTINUOUS
 62
    7
 10
-508.53665150000006
 20
796.37069700000006
 11
-508.4073484999999
 21
796.49997000000008
  0
ARC
  8
_0-0_0
  6
CONTINUOUS
 62
    7
 10
-508.46594249999998
 20
796.29998799999998
 40
0.1
 50
135
 51
225
  0
LINE
  8
_0-0_0
  6
CONTINUOUS
 62
    7
 10
-508.53665150000006
 20
796.22927900000002
 11
-508.4073484999999
 21
796.09997599999997
  0
LINE
  8
_0-0_0
  6
CONTINUOUS
 62
    7
 10
-508.4073484999999
 20
795.39999399999999
 11
-508.4073484999999
 21
796.09997599999997
  0
LINE
  8
_0-0_0
  6
CONTINUOUS
 62
    7
 10
-508.53665150000006
 20
795.27069099999994
 11
-508.4073484999999
 21
795.39999399999999
  0
LINE
  8
_0-0_0
  6
CONTINUOUS
 62
    7
 10
-508.4073484999999
 20
787.29998799999998
 11
-508.3073425
 21
787.29998799999998
  0
LINE
  8
_0-0_0
  6
CONTINUOUS
 62
    7
 10
-508.3073425
 20
786.79998799999998
 11
-508.3073425
 21
787.29998799999998
  0
LINE
  8
_0-0_0
  6
CONTINUOUS
 62
    7
 10
-508.3073425
 20
786.79998799999998
 11
-508.3073425
 21
782.79998799999998
  0
LINE
  8
_0-0_0
  6
CONTINUOUS
 62
    7
 10
-508.4073484999999
 20
782.29998799999998
 11
-508.3073425
 21
782.29998799999998
  0
LINE
  8
_0-0_0
  6
CONTINUOUS
 62
    7
 10
-508.3073425
 20
782.29998799999998
 11
-508.3073425
 21
782.79998799999998
  0
LINE
  8
_0-0_0
  6
CONTINUOUS
 62
    7
 10
-525.9073484999999
 20
791.29998799999998
 11
-525.9073484999999
 21
791.23498500000005
  0
LINE
  8
_0-0_0
  6
CONTINUOUS
 62
    7
 10
-509.4073484999999
 20
810.09997599999997
 11
-509.4073484999999
 21
809.99997000000008
  0
ARC
  8
_0-0_0
  6
CONTINUOUS
 62
    7
 10
-521.9073484999999
 20
810.09997599999997
 40
2.5
 50
90.000003000000007
 51
180.00000900000001
  0
LINE
  8
_0-0_0
  6
CONTINUOUS
 62
    7
 10
-526.00738550000005
 20
791.29998799999998
 11
-525.20733650000011
 21
791.29998799999998
  0
LINE
  8
_0-0_0
  6
CONTINUOUS
 62
    7
 10
-525.50738550000005
 20
813.09997599999997
 11
-525.50738550000005
 21
808.87844900000005
  0
LINE
  8
_0-0_0
  6
CONTINUOUS
 62
    7
 10
-524.4073484999999
 20
813.09997599999997
 11
-524.4073484999999
 21
810.09997599999997
  0
LINE
  8
_0-0_0
  6
CONTINUOUS
 62
    7
 10
-525.50738550000005
 20
808.87844900000005
 11
-525.20733650000011
 21
808.87844900000005
  0
LINE
  8
_0-0_0
  6
CONTINUOUS
 62
    7
 10
-525.50738550000005
 20
818.23989899999992
 11
-524.4073484999999
 21
818.23989899999992
  0
LINE
  8
_0-0_0
  6
CONTINUOUS
 62
    7
 10
-524.4073484999999
 20
813.10049400000003
 11
-524.4073484999999
 21
818.23989899999992
  0
LINE
  8
_0-0_0
  6
CONTINUOUS
 62
    7
 10
-526.00738550000005
 20
812.60098300000004
 11
-526.00738550000005
 21
817.67208899999991
  0
LINE
  8
_0-0_0
  6
CONTINUOUS
 62
    7
 10
-525.50738550000005
 20
818.23989899999992
 11
-526.00738550000005
 21
817.67208899999991
  0
ARC
  8
_0-0_0
  6
CONTINUOUS
 62
    7
 10
-511.9073484999999
 20
810.09997599999997
 40
2.5
 50
0
 51
90.000003000000007
  0
LINE
  8
_0-0_0
  6
CONTINUOUS
 62
    7
 10
-524.4073484999999
 20
810
 11
-524.4073484999999
 21
810.09997599999997
  0
LINE
  8
_0-0_0
  6
CONTINUOUS
 62
    7
 10
-511.9073484999999
 20
812.59997599999997
 11
-521.9073484999999
 21
812.59997599999997
  0
LINE
  8
_0-0_0
  6
CONTINUOUS
 62
    7
 10
-508.20736750000015
 20
782.79998799999998
 11
-508.20736750000015
 21
782.93035899999995
  0
LINE
  8
_0-0_0
  6
CONTINUOUS
 62
    7
 10
-508.20736750000015
 20
786.43035899999995
 11
-508.20736750000015
 21
782.93035899999995
  0
LINE
  8
_0-0_0
  6
CONTINUOUS
 62
    7
 10
-508.3073425
 20
786.69998199999998
 11
-508.20736750000015
 21
786.69998199999998
  0
LINE
  8
_0-0_0
  6
CONTINUOUS
 62
    7
 10
-508.20736750000015
 20
786.43035899999995
 11
-508.20736750000015
 21
786.69998199999998
  0
LINE
  8
_0-0_0
  6
CONTINUOUS
 62
    7
 10
-524.4073484999999
 20
820.60000600000001
 11
-524.4073484999999
 21
818.23989899999992
  0
LINE
  8
_0-0_0
  6
CONTINUOUS
 62
    7
 10
-508.60736050000014
 20
809.19998199999998
 11
-509.60736050000014
 21
810.19998199999998
  0
LINE
  8
_0-0_0
  6
CONTINUOUS
 62
    7
 10
-508.60736050000014
 20
781.39999399999999
 11
-508.60736050000014
 21
809.19998199999998
  0
LINE
  8
_0-0_0
  6
CONTINUOUS
 62
    7
 10
-525.20733650000011
 20
781.39999399999999
 11
-508.60736050000014
 21
781.39999399999999
  0
LINE
  8
_0-0_0
  6
CONTINUOUS
 62
    7
 10
-525.20733650000011
 20
809.19998199999998
 11
-525.20733650000011
 21
781.39999399999999
  0
LINE
  8
_0-0_0
  6
CONTINUOUS
 62
    7
 10
-526.00738550000005
 20
791.29998799999998
 11
-526.00738550000005
 21
808.11279300000001
  0
LINE
  8
_0-0_0
  6
CONTINUOUS
 62
    7
 10
-526.00738550000005
 20
812.59997599999997
 11
-526.00738550000005
 21
808.11279300000001
  0
ARC
  8
_0-0_0
  6
CONTINUOUS
 62
    7
 10
-494.55560349999996
 20
788.11779799999999
 40
37.269466000000001
 50
146.14857699999999
 51
147.55443399999999
  0
LINE
  8
_0-0_0
  6
CONTINUOUS
 62
    7
 10
-525.50738550000005
 20
820.60000600000001
 11
-525.50738550000005
 21
818.23989899999992
  0
LINE
  8
_0-0_0
  6
CONTINUOUS
 62
    7
 10
-526.00738550000005
 20
820.10000600000001
 11
-526.00738550000005
 21
817.67208899999991
  0
ARC
  8
_0-0_0
  6
CONTINUOUS
 62
    7
 10
-512.17639150000014
 20
809.79998799999998
 40
2.6000000000000001
 50
8.8498839999999994
 51
90.000002999999992
  0
LINE
  8
_0-0_0
  6
CONTINUOUS
 62
    7
 10
-512.17639150000014
 20
812.39999399999999
 11
-521.63830550000011
 21
812.39999399999999
  0
ARC
  8
_0-0_0
  6
CONTINUOUS
 62
    7
 10
-521.63830550000011
 20
809.79998799999998
 40
2.6000000000000001
 50
90.000003000000007
 51
171.150115
  0
LINE
  8
_0-0_0
  6
CONTINUOUS
 62
    7
 10
-525.20733650000011
 20
809.19998199999998
 11
-524.20733650000011
 21
810.19998199999998
  0
LINE
  8
_0-0_0
  6
CONTINUOUS
 62
    7
 10
-509.60736050000014
 20
808.78576699999996
 11
-508.60736050000014
 21
809.19998199999998
  0
ARC
  8
_0-0_0
  6
CONTINUOUS
 62
    7
 10
-515.14990250000005
 20
820.98611499999993
 40
12.126564999999999
 50
292.155034
 51
297.19674500000002
  0
LINE
  8
_0-0_0
  6
CONTINUOUS
 62
    7
 10
-509.60736050000014
 20
782.39999399999999
 11
-508.60736050000014
 21
781.39999399999999
  0
LINE
  8
_0-0_0
  6
CONTINUOUS
 62
    7
 10
-524.20733650000011
 20
782.39999399999999
 11
-525.20733650000011
 21
781.39999399999999
  0
LINE
  8
_0-0_0
  6
CONTINUOUS
 62
    7
 10
-524.20733650000011
 20
808.78576699999996
 11
-525.20733650000011
 21
809.19998199999998
  0
ARC
  8
_0-0_0
  6
CONTINUOUS
 62
    7
 10
-518.66482550000001
 20
820.98611499999993
 40
12.126567
 50
242.80325699999997
 51
247.84494000000001
  0
CIRCLE
  8
_0-0_0
  6
CONTINUOUS
 62
    7
 10
-516.9073484999999
 20
789.59997599999997
 40
2.0670000000000002
  0
LINE
  8
_0-0_0
  6
CONTINUOUS
 62
    7
 10
-524.4073484999999
 20
813.09997599999997
 11
-525.50738550000005
 21
813.09997599999997
  0
LINE
  8
_0-0_0
  6
CONTINUOUS
 62
    7
 10
-508.3073425
 20
782.79998799999998
 11
-508.20736750000015
 21
782.79998799999998
  0
LINE
  8
_0-0_0
  6
CONTINUOUS
 62
    7
 10
-508.3073425
 20
782.79998799999998
 11
-508.20736750000015
 21
782.79998799999998
  0
LINE
  8
_0-0_0
  6
CONTINUOUS
 62
    7
 10
-526.00738550000005
 20
812.59997599999997
 11
-525.50738550000005
 21
813.09997599999997
  0
LINE
  8
_0-0_0
  6
CONTINUOUS
 62
    7
 10
-524.4073484999999
 20
820.60000600000001
 11
-525.50738550000005
 21
820.60000600000001
  0
LINE
  8
_0-0_0
  6
CONTINUOUS
 62
    7
 10
-526.00738550000005
 20
820.10000600000001
 11
-525.50738550000005
 21
820.60000600000001
  0
ENDSEC
  0
EOF
