  0
SECTION
  2
HEADER
  9
$ACADVER
  1
AC1009
  9
$INSBASE
 10
0
 20
0
 30
0
  9
$EXTMIN
 10
0
 20
0
  9
$EXTMAX
 10
1682
 20
1188
  9
$LIMMIN
 10
0
 20
0
  9
$LIMMAX
 10
1682
 20
1188
  9
$LTSCALE
 40
2
  0
ENDSEC
  0
SECTION
  2
TABLES
  0
TABLE
  2
LTYPE
 70
     9
  0
LTYPE
  2
CONTINUOUS
 70
    64
  3
実線
 72
    65
 73
     0
 40
0.0
  0
LTYPE
  2
DASHED1
 70
    64
  3
--  --  --  --  --  --  --  --  
 72
    65
 73
     2
 40
2.5
 49
1.25
 49
-1.25
  0
LTYPE
  2
DASHED2
 70
    64
  3
----    ----    ----    ----    
 72
    65
 73
     2
 40
5.0
 49
2.5
 49
-2.5
  0
LTYPE
  2
DASHED3
 70
    64
  3
------  ------  ------  ------  
 72
    65
 73
     2
 40
5.0
 49
3.75
 49
-1.25
  0
LTYPE
  2
CENTER1
 70
    64
  3
----- - ----- - ----- - ----- - 
 72
    65
 73
     4
 40
10.0
 49
6.25
 49
-1.25
 49
1.25
 49
-1.25
  0
LTYPE
  2
CENTER2
 70
    64
  3
----------  --  ----------  --  
 72
    65
 73
     4
 40
20.0
 49
12.5
 49
-2.5
 49
2.5
 49
-2.5
  0
LTYPE
  2
PHANTOM1
 70
    64
  3
--- - - --- - - --- - - --- - - 
 72
    65
 73
     6
 40
10.0
 49
3.25
 49
-1.25
 49
1.25
 49
-1.25
 49
1.25
 49
-1.25
  0
LTYPE
  2
PHANTOM2
 70
    64
  3
--------  -  -  --------  -  -  
 72
    65
 73
     6
 40
20.0
 49
10.0
 49
-2.5
 49
1.25
 49
-2.5
 49
1.25
 49
-2.5
  0
LTYPE
  2
DOT
 70
    64
  3
-   -   -   -   -   -   -   -   
 72
    65
 73
     2
 40
2.5
 49
0.625
 49
-1.875
  0
LTYPE
  2
DUMMY
 70
    64
  3
ダミー
 72
    65
 73
     0
 40
0.0
  0
LTYPE
  2
RAND1
 70
    64
  3
ランダム線1
 72
    65
 73
     4
 40
10.0
 49
1.0
 49
-2.0
 49
3.0
 49
-4.0
  0
LTYPE
  2
RAND2
 70
    64
  3
ランダム線2
 72
    65
 73
     4
 40
14.0
 49
2.0
 49
-3.0
 49
4.0
 49
-5.0
  0
LTYPE
  2
RAND3
 70
    64
  3
ランダム線3
 72
    65
 73
     4
 40
18.0
 49
3.0
 49
-4.0
 49
5.0
 49
-6.0
  0
LTYPE
  2
RAND4
 70
    64
  3
ランダム線4
 72
    65
 73
     4
 40
22.0
 49
4.0
 49
-5.0
 49
6.0
 49
-7.0
  0
LTYPE
  2
RAND5
 70
    64
  3
ランダム線5
 72
    65
 73
     4
 40
26.0
 49
5.0
 49
-6.0
 49
7.0
 49
-8.0
  0
LTYPE
  2
LONG1
 70
    64
  3
----------  --  ----------  --  
 72
    65
 73
     4
 40
40.0
 49
32.5
 49
-2.5
 49
2.5
 49
-2.5
  0
LTYPE
  2
LONG2
 70
    64
  3
--------  -  -  --------  -  -  
 72
    65
 73
     6
 40
40.0
 49
30.0
 49
-2.5
 49
1.25
 49
-2.5
 49
1.25
 49
-2.5
  0
LTYPE
  2
LONG3
 70
    64
  3
+++++++++++++++..+++++++++++++++
 72
    65
 73
     2
 40
40.0
 49
37.5
 49
-2.5
  0
LTYPE
  2
LONG4
 70
    64
  3
+++++++++++++++..+++++++++++++++
 72
    65
 73
     2
 40
80.0
 49
75.0
 49
-5.0
  0
LTYPE
  2
LONG5
 70
    64
  3
----------  --  ----------  --  
 72
    65
 73
     4
 40
60.0
 49
37.5
 49
-7.5
 49
7.5
 49
-7.5
  0
LTYPE
  2
dashed
 70
   64
  3
-------   -------------   ------
 72
   65
 73
    2
 40
7.5
 49
6
 49
-1.5
  0
LTYPE
  2
dashed_spaced
 70
   64
  3
----        --------        ----
 72
   65
 73
    2
 40
12
 49
6
 49
-6
  0
LTYPE
  2
long_dashed_dotted
 70
   64
  3
------------- --- --------------
 72
   65
 73
    4
 40
15.25
 49
12
 49
-1.5
 49
0.25
 49
-1.5
  0
LTYPE
  2
long_dashed_double-dotted
 70
   64
  3
----------- --- --- ------------
 72
   65
 73
    6
 40
17
 49
12
 49
-1.5
 49
0.25
 49
-1.5
 49
0.25
 49
-1.5
  0
LTYPE
  2
long_dashed_triplicate-dotted
 70
   64
  3
--------- --- --- --- ----------
 72
   65
 73
    8
 40
18.75
 49
12
 49
-1.5
 49
0.25
 49
-1.5
 49
0.25
 49
-1.5
 49
0.25
 49
-1.5
  0
LTYPE
  2
dotted
 70
   64
  3
   -       -       -       -    
 72
   65
 73
    2
 40
1.75
 49
0.25
 49
-1.5
  0
LTYPE
  2
chain
 70
   64
  3
-------------- -- --------------
 72
   65
 73
    4
 40
18.5
 49
12
 49
-1.5
 49
3.5
 49
-1.5
  0
LTYPE
  2
chain_double_dash
 70
   64
  3
------------ -- -- -------------
 72
   65
 73
    6
 40
23.5
 49
12
 49
-1.5
 49
3.5
 49
-1.5
 49
3.5
 49
-1.5
  0
LTYPE
  2
dashed_dotted
 70
   64
  3
-----------     -     ----------
 72
   65
 73
    4
 40
9.25
 49
6
 49
-1.5
 49
0.25
 49
-1.5
  0
LTYPE
  2
double-dashed_dotted
 70
   64
  3
------   -----------   -   -----
 72
   65
 73
    6
 40
16.75
 49
6
 49
-1.5
 49
6
 49
-1.5
 49
0.25
 49
-1.5
  0
LTYPE
  2
dashed_double-dotted
 70
   64
  3
---------    -    -    ---------
 72
   65
 73
    6
 40
11
 49
6
 49
-1.5
 49
0.25
 49
-1.5
 49
0.25
 49
-1.5
  0
LTYPE
  2
double-dashed_double-dotted
 70
   64
  3
-----   ---------   -   -   ----
 72
   65
 73
    8
 40
18.5
 49
6
 49
-1.5
 49
6
 49
-1.5
 49
0.25
 49
-1.5
 49
0.25
 49
-1.5
  0
LTYPE
  2
dashed_triplicate-dotted
 70
   64
  3
-------    -    -    -    ------
 72
   65
 73
    8
 40
12.75
 49
6
 49
-1.5
 49
0.25
 49
-1.5
 49
0.25
 49
-1.5
 49
0.25
 49
-1.5
  0
LTYPE
  2
double-dashed_triplicate-dotted
 70
   64
  3
-----  ---------  -  -  -  -----
 72
   65
 73
   10
 40
20.25
 49
6
 49
-1.5
 49
6
 49
-1.5
 49
0.25
 49
-1.5
 49
0.25
 49
-1.5
 49
0.25
 49
-1.5
  0
LTYPE
  2
undefined
 70
   64
  3
--------------------------------
 72
   65
 73
    0
 40
0
  0
ENDTAB
  0
TABLE
  2
STYLE
  5
3
100
AcDbSymbolTable
 70
     1
  0
STYLE
  5
10
100
AcDbSymbolTableRecord
100
AcDbTextStyleTableRecord
  2
STANDARD
 70
     0
 40
0.0
 41
1.0
 50
0.0
 71
     0
 42
0.2
  3
txt
  4
bigfont.shx
  0
STYLE
  5
26
100
AcDbSymbolTableRecord
100
AcDbTextStyleTableRecord
  2
TATEGAKI
 70
    68
 40
0.0
 41
1.0
 50
0.0
 71
     0
 42
1.0
  3
txt
  4
bigfont.shx
  0
ENDTAB
  0
TABLE
  2
LAYER
 70
    2
  0
LAYER
  2
_0-0_0
 70
   64
 62
    7
  6
CONTINUOUS
  0
LAYER
  2
ADD_LINE
 70
   64
 62
    7
  6
CONTINUOUS
  0
ENDTAB
  0
ENDSEC
  0
SECTION
  2
BLOCKS
  0
ENDSEC
  0
SECTION
  2
ENTITIES
  0
POINT
  8
_0-0_0
 62
    7
 10
-12.997589500000004
 20
768.89999399999999
  0
LINE
  8
_0-0_0
  6
CONTINUOUS
 62
    7
 10
-119.9975895
 20
809.90048200000001
 11
-119.9975895
 21
809.89947499999994
  0
LINE
  8
_0-0_0
  6
CONTINUOUS
 62
    7
 10
-93.497589500000004
 20
775.55499299999997
 11
-93.497589500000004
 21
777.79998799999998
  0
LINE
  8
_0-0_0
  6
CONTINUOUS
 62
    7
 10
-93.497589500000004
 20
777.79998799999998
 11
-93.497589500000004
 21
779.79998799999998
  0
LINE
  8
_0-0_0
  6
CONTINUOUS
 62
    7
 10
-93.497589500000004
 20
779.79998799999998
 11
-93.497589500000004
 21
780.29998799999998
  0
LINE
  8
_0-0_0
  6
CONTINUOUS
 62
    7
 10
-93.497589500000004
 20
780.29998799999998
 11
-93.497589500000004
 21
781.29998799999998
  0
LINE
  8
_0-0_0
  6
CONTINUOUS
 62
    7
 10
-93.497589500000004
 20
757.19998199999998
 11
-93.497589500000004
 21
775.55499299999997
  0
LINE
  8
_0-0_0
  6
CONTINUOUS
 62
    7
 10
3.0024104999999963
 20
779.29998799999998
 11
3.0024104999999963
 21
779.79998799999998
  0
LINE
  8
_0-0_0
  6
CONTINUOUS
 62
    7
 10
3.0024104999999963
 20
780.29998799999998
 11
3.0024104999999963
 21
781.29998799999998
  0
LINE
  8
_0-0_0
  6
CONTINUOUS
 62
    7
 10
3.0024104999999963
 20
779.79998799999998
 11
3.0024104999999963
 21
780.29998799999998
  0
ARC
  8
_0-0_0
  6
CONTINUOUS
 62
    7
 10
-10.997589500000004
 20
775.55499299999997
 40
0.5
 50
0
 51
123.74898500000002
  0
ARC
  8
_0-0_0
  6
CONTINUOUS
 62
    7
 10
-12.497589500000004
 20
777.79998799999998
 40
2.2000000000000002
 50
180.00000900000003
 51
303.74900400000001
  0
LINE
  8
_0-0_0
  6
CONTINUOUS
 62
    7
 10
-14.697586499999943
 20
777.79998799999998
 11
-14.697586499999943
 21
779.29998799999998
  0
LINE
  8
_0-0_0
  6
CONTINUOUS
 62
    7
 10
-89.297592499999951
 20
779.29998799999998
 11
-14.697586499999943
 21
779.29998799999998
  0
LINE
  8
_0-0_0
  6
CONTINUOUS
 62
    7
 10
-89.297592499999951
 20
779.29998799999998
 11
-89.297592499999951
 21
777.79998799999998
  0
ARC
  8
_0-0_0
  6
CONTINUOUS
 62
    7
 10
-91.497589500000004
 20
777.79998799999998
 40
2.2000000000000002
 50
236.25102899999999
 51
0
  0
ARC
  8
_0-0_0
  6
CONTINUOUS
 62
    7
 10
-92.997589500000004
 20
775.55499299999997
 40
0.5
 50
56.251010000000008
 51
180.00000900000001
  0
ARC
  8
_0-0_0
  6
CONTINUOUS
 62
    7
 10
-91.497589500000004
 20
757.19998199999998
 40
2
 50
180.00000900000003
 51
269.99999700000001
  0
LINE
  8
_0-0_0
  6
CONTINUOUS
 62
    7
 10
-91.497589500000004
 20
755.19998199999998
 11
-90.497589500000004
 21
755.19998199999998
  0
LINE
  8
_0-0_0
  6
CONTINUOUS
 62
    7
 10
-90.497589500000004
 20
755.19998199999998
 11
-90.497589500000004
 21
756.79998799999998
  0
ARC
  8
_0-0_0
  6
CONTINUOUS
 62
    7
 10
-89.997589500000004
 20
756.79998799999998
 40
0.5
 50
90.000003000000007
 51
180.00000900000001
  0
LINE
  8
_0-0_0
  6
CONTINUOUS
 62
    7
 10
-89.797592499999951
 20
757.29998799999998
 11
-89.997589500000004
 21
757.29998799999998
  0
ARC
  8
_0-0_0
  6
CONTINUOUS
 62
    7
 10
-89.797592499999951
 20
756.79998799999998
 40
0.5
 50
90.000003000000007
 51
180.00000900000001
  0
LINE
  8
_0-0_0
  6
CONTINUOUS
 62
    7
 10
-90.297592499999951
 20
755.29998799999998
 11
-90.297592499999951
 21
756.79998799999998
  0
LINE
  8
_0-0_0
  6
CONTINUOUS
 62
    7
 10
-20.697586499999943
 20
755.29998799999998
 11
-90.297592499999951
 21
755.29998799999998
  0
LINE
  8
_0-0_0
  6
CONTINUOUS
 62
    7
 10
-20.697586499999943
 20
755.29998799999998
 11
-20.697586499999943
 21
756.79998799999998
  0
ARC
  8
_0-0_0
  6
CONTINUOUS
 62
    7
 10
-21.197586499999943
 20
756.79998799999998
 40
0.5
 50
0
 51
90.000003000000007
  0
LINE
  8
_0-0_0
  6
CONTINUOUS
 62
    7
 10
-20.997589500000004
 20
757.29998799999998
 11
-21.197586499999943
 21
757.29998799999998
  0
ARC
  8
_0-0_0
  6
CONTINUOUS
 62
    7
 10
-20.997589500000004
 20
756.79998799999998
 40
0.5
 50
0
 51
90.000003000000007
  0
LINE
  8
_0-0_0
  6
CONTINUOUS
 62
    7
 10
-20.497589500000004
 20
756.79998799999998
 11
-20.497589500000004
 21
755.19998199999998
  0
LINE
  8
_0-0_0
  6
CONTINUOUS
 62
    7
 10
-20.497589500000004
 20
755.19998199999998
 11
-10.497589500000004
 21
755.19998199999998
  0
LINE
  8
_0-0_0
  6
CONTINUOUS
 62
    7
 10
-10.497589500000004
 20
755.19998199999998
 11
-10.497589500000004
 21
756.09997599999997
  0
LINE
  8
_0-0_0
  6
CONTINUOUS
 62
    7
 10
-74.497604499999966
 20
758.704071
 11
-33.097595500000011
 21
758.704071
  0
LINE
  8
_0-0_0
  6
CONTINUOUS
 62
    7
 10
-74.497604499999966
 20
778.29998799999998
 11
-33.097595500000011
 21
778.29998799999998
  0
ARC
  8
_0-0_0
  6
CONTINUOUS
 62
    7
 10
-21.797592499999951
 20
757.49997000000008
 40
0.2
 50
180.00000900000003
 51
269.99999700000001
  0
LINE
  8
_0-0_0
  6
CONTINUOUS
 62
    7
 10
-21.797592499999951
 20
757.29998799999998
 11
-89.197586499999943
 21
757.29998799999998
  0
ARC
  8
_0-0_0
  6
CONTINUOUS
 62
    7
 10
-89.197586499999943
 20
757.49997000000008
 40
0.2
 50
269.99999700000001
 51
0
  0
ARC
  8
_0-0_0
  6
CONTINUOUS
 62
    7
 10
-88.797592499999951
 20
757.49997000000008
 40
0.2
 50
90.000003000000007
 51
180.00000900000001
  0
LINE
  8
_0-0_0
  6
CONTINUOUS
 62
    7
 10
-88.797592499999951
 20
757.69998199999998
 11
-22.197586499999943
 21
757.69998199999998
  0
ARC
  8
_0-0_0
  6
CONTINUOUS
 62
    7
 10
-22.197586499999943
 20
757.49997000000008
 40
0.2
 50
0
 51
90.000003000000007
  0
LINE
  8
_0-0_0
  6
CONTINUOUS
 62
    7
 10
-93.497589500000004
 20
780.29998799999998
 11
3.0024104999999963
 21
780.29998799999998
  0
LINE
  8
_0-0_0
  6
CONTINUOUS
 62
    7
 10
2.5024104999999963
 20
779.29998799999998
 11
3.0024104999999963
 21
779.29998799999998
  0
LINE
  8
_0-0_0
  6
CONTINUOUS
 62
    7
 10
-10.497589500000004
 20
757.29998799999998
 11
-10.497589500000004
 21
756.09997599999997
  0
LINE
  8
_0-0_0
  6
CONTINUOUS
 62
    7
 10
-10.497589500000004
 20
757.29998799999998
 11
-10.497589500000004
 21
774.89999399999999
  0
LINE
  8
_0-0_0
  6
CONTINUOUS
 62
    7
 10
-10.497589500000004
 20
776.87734999999998
 11
-10.497589500000004
 21
774.89999399999999
  0
LINE
  8
_0-0_0
  6
CONTINUOUS
 62
    7
 10
-91.497589500000004
 20
763.78967299999999
 11
-91.497589500000004
 21
774.23767099999998
  0
ARC
  8
_0-0_0
  6
CONTINUOUS
 62
    7
 10
-91.497589500000004
 20
777.79998799999998
 40
2.7000000000000002
 50
285.68033600000007
 51
352.23356600000005
  0
LINE
  8
_0-0_0
  6
CONTINUOUS
 62
    7
 10
-14.497589500000004
 20
775.29998799999998
 11
-14.497589500000004
 21
761.69998199999998
  0
LINE
  8
_0-0_0
  6
CONTINUOUS
 62
    7
 10
-89.497589500000004
 20
779.29998799999998
 11
-89.297592499999951
 21
779.29998799999998
  0
LINE
  8
_0-0_0
  6
CONTINUOUS
 62
    7
 10
-89.497589500000004
 20
779.29998799999998
 11
-89.497589500000004
 21
777.79998799999998
  0
ARC
  8
_0-0_0
  6
CONTINUOUS
 62
    7
 10
-91.497589500000004
 20
777.79998799999998
 40
2
 50
180.00000900000003
 51
0.0000000000000254
  0
LINE
  8
_0-0_0
  6
CONTINUOUS
 62
    7
 10
2.5024104999999963
 20
779.29998799999998
 11
2.5024104999999963
 21
777.59997599999997
  0
LINE
  8
_0-0_0
  6
CONTINUOUS
 62
    7
 10
-10.497589500000004
 20
755.29998799999998
 11
1.5024104999999963
 21
755.29998799999998
  0
LINE
  8
_0-0_0
  6
CONTINUOUS
 62
    7
 10
1.5024104999999963
 20
755.29998799999998
 11
6.1778564999999617
 21
755.29998799999998
  0
LINE
  8
_0-0_0
  6
CONTINUOUS
 62
    7
 10
1.5024104999999963
 20
760.79998799999998
 11
1.5024104999999963
 21
757.79998799999998
  0
LINE
  8
_0-0_0
  6
CONTINUOUS
 62
    7
 10
1.5024104999999963
 20
757.79998799999998
 11
1.5024104999999963
 21
757.29998799999998
  0
LINE
  8
_0-0_0
  6
CONTINUOUS
 62
    7
 10
1.5024104999999963
 20
760.79998799999998
 11
1.5024104999999963
 21
761.29998799999998
  0
ARC
  8
_0-0_0
  6
CONTINUOUS
 62
    7
 10
-4.4976044999999658
 20
760.60000600000001
 40
0.500016
 50
180.00117
 51
359.995611
  0
LINE
  8
_0-0_0
  6
CONTINUOUS
 62
    7
 10
-3.9975895000000037
 20
760.59997599999997
 11
-3.9975895000000037
 21
772.59997599999997
  0
ARC
  8
_0-0_0
  6
CONTINUOUS
 62
    7
 10
-4.4976044999999658
 20
772.59997599999997
 40
0.500016
 50
0.001164
 51
179.99560600000004
  0
LINE
  8
_0-0_0
  6
CONTINUOUS
 62
    7
 10
-4.9975895000000037
 20
760.59997599999997
 11
-4.9975895000000037
 21
772.59997599999997
  0
ARC
  8
_0-0_0
  6
CONTINUOUS
 62
    7
 10
-2.9976044999999658
 20
760.60000600000001
 40
0.500016
 50
180.00117
 51
359.995611
  0
LINE
  8
_0-0_0
  6
CONTINUOUS
 62
    7
 10
-2.4975895000000037
 20
760.59997599999997
 11
-2.4975895000000037
 21
772.59997599999997
  0
ARC
  8
_0-0_0
  6
CONTINUOUS
 62
    7
 10
-2.9976044999999658
 20
772.59997599999997
 40
0.500016
 50
0.001164
 51
179.99560600000004
  0
LINE
  8
_0-0_0
  6
CONTINUOUS
 62
    7
 10
-3.4975895000000037
 20
760.59997599999997
 11
-3.4975895000000037
 21
772.59997599999997
  0
ARC
  8
_0-0_0
  6
CONTINUOUS
 62
    7
 10
-1.4976044999999658
 20
760.60000600000001
 40
0.500016
 50
180.00117
 51
359.995611
  0
LINE
  8
_0-0_0
  6
CONTINUOUS
 62
    7
 10
-0.9975895000000036
 20
760.59997599999997
 11
-0.9975895000000036
 21
772.59997599999997
  0
ARC
  8
_0-0_0
  6
CONTINUOUS
 62
    7
 10
-1.4976044999999658
 20
772.59997599999997
 40
0.500016
 50
0.001164
 51
179.99560600000004
  0
LINE
  8
_0-0_0
  6
CONTINUOUS
 62
    7
 10
-1.9975895000000037
 20
760.59997599999997
 11
-1.9975895000000037
 21
772.59997599999997
  0
ARC
  8
_0-0_0
  6
CONTINUOUS
 62
    7
 10
0.0023955000000341
 20
760.60000600000001
 40
0.500016
 50
180.00117
 51
359.995611
  0
LINE
  8
_0-0_0
  6
CONTINUOUS
 62
    7
 10
0.5024104999999963
 20
760.59997599999997
 11
0.5024104999999963
 21
772.59997599999997
  0
ARC
  8
_0-0_0
  6
CONTINUOUS
 62
    7
 10
0.0023955000000341
 20
772.59997599999997
 40
0.500016
 50
0.001164
 51
179.99560600000004
  0
LINE
  8
_0-0_0
  6
CONTINUOUS
 62
    7
 10
-0.4975895000000036
 20
760.59997599999997
 11
-0.4975895000000036
 21
772.59997599999997
  0
LINE
  8
_0-0_0
  6
CONTINUOUS
 62
    7
 10
-10.497589500000004
 20
777.59997599999997
 11
-10.497589500000004
 21
776.87734999999998
  0
LINE
  8
_0-0_0
  6
CONTINUOUS
 62
    7
 10
2.5024104999999963
 20
777.59997599999997
 11
-10.497589500000004
 21
777.59997599999997
  0
LINE
  8
_0-0_0
  6
CONTINUOUS
 62
    7
 10
-10.497589500000004
 20
779.29998799999998
 11
2.5024104999999963
 21
779.29998799999998
  0
LINE
  8
_0-0_0
  6
CONTINUOUS
 62
    7
 10
-10.497589500000004
 20
779.29998799999998
 11
-10.497589500000004
 21
777.59997599999997
  0
LINE
  8
_0-0_0
  6
CONTINUOUS
 62
    7
 10
-21.047592499999951
 20
757.27694700000006
 11
-21.047592499999951
 21
757.29998799999998
  0
ARC
  8
_0-0_0
  6
CONTINUOUS
 62
    7
 10
6.1778564999999617
 20
757.29998799999998
 40
2
 50
269.99999700000001
 51
288.43501300000003
  0
LINE
  8
_0-0_0
  6
CONTINUOUS
 62
    7
 10
-14.697586499999943
 20
779.29998799999998
 11
-14.497589500000004
 21
779.29998799999998
  0
ARC
  8
_0-0_0
  6
CONTINUOUS
 62
    7
 10
-12.497589500000004
 20
777.79998799999998
 40
2
 50
180.00000900000003
 51
0.0000000000000254
  0
LINE
  8
_0-0_0
  6
CONTINUOUS
 62
    7
 10
-14.497589500000004
 20
777.79998799999998
 11
-14.497589500000004
 21
779.29998799999998
  0
LINE
  8
_0-0_0
  6
CONTINUOUS
 62
    7
 10
7.2523955000000342
 20
755.54998799999998
 11
6.8103025000000343
 21
755.40261899999996
  0
ARC
  8
_0-0_0
  6
CONTINUOUS
 62
    7
 10
-23.497589500000004
 20
770.89999399999999
 40
2.25
 50
269.99999700000001
 51
90.000002999999992
  0
LINE
  8
_0-0_0
  6
CONTINUOUS
 62
    7
 10
-27.497604499999966
 20
768.64999399999999
 11
-23.497589500000004
 21
768.64999399999999
  0
ARC
  8
_0-0_0
  6
CONTINUOUS
 62
    7
 10
-27.497604499999966
 20
770.89999399999999
 40
2.25
 50
90.000003000000007
 51
269.99999700000006
  0
ARC
  8
_0-0_0
  6
CONTINUOUS
 62
    7
 10
-79.497604499999966
 20
770.89999399999999
 40
2.25
 50
269.99999700000001
 51
90.000002999999992
  0
LINE
  8
_0-0_0
  6
CONTINUOUS
 62
    7
 10
-83.497604499999966
 20
768.64999399999999
 11
-79.497604499999966
 21
768.64999399999999
  0
ARC
  8
_0-0_0
  6
CONTINUOUS
 62
    7
 10
-83.497604499999966
 20
770.89999399999999
 40
2.25
 50
90.000003000000007
 51
269.99999700000006
  0
LINE
  8
_0-0_0
  6
CONTINUOUS
 62
    7
 10
-27.497604499999966
 20
773.14999399999999
 11
-23.497589500000004
 21
773.14999399999999
  0
LINE
  8
_0-0_0
  6
CONTINUOUS
 62
    7
 10
-83.497604499999966
 20
773.14999399999999
 11
-79.497604499999966
 21
773.14999399999999
  0
LINE
  8
_0-0_0
  6
CONTINUOUS
 62
    7
 10
-21.256988500000034
 20
766.89999399999999
 11
-29.738205500000049
 21
766.89999399999999
  0
LINE
  8
_0-0_0
  6
CONTINUOUS
 62
    7
 10
-21.256988500000034
 20
766.89999399999999
 11
-18.947586499999943
 21
770.89999399999999
  0
LINE
  8
_0-0_0
  6
CONTINUOUS
 62
    7
 10
-18.947586499999943
 20
770.89999399999999
 11
-21.256988500000034
 21
774.89999399999999
  0
LINE
  8
_0-0_0
  6
CONTINUOUS
 62
    7
 10
-29.738205500000049
 20
774.89999399999999
 11
-21.256988500000034
 21
774.89999399999999
  0
LINE
  8
_0-0_0
  6
CONTINUOUS
 62
    7
 10
-32.047592499999951
 20
770.89999399999999
 11
-29.738205500000049
 21
774.89999399999999
  0
LINE
  8
_0-0_0
  6
CONTINUOUS
 62
    7
 10
-29.738205500000049
 20
766.89999399999999
 11
-32.047592499999951
 21
770.89999399999999
  0
LINE
  8
_0-0_0
  6
CONTINUOUS
 62
    7
 10
-77.257003499999996
 20
766.89999399999999
 11
-85.738189499999976
 21
766.89999399999999
  0
LINE
  8
_0-0_0
  6
CONTINUOUS
 62
    7
 10
-74.947586499999943
 20
770.89999399999999
 11
-77.257003499999996
 21
766.89999399999999
  0
LINE
  8
_0-0_0
  6
CONTINUOUS
 62
    7
 10
-74.947586499999943
 20
770.89999399999999
 11
-77.257003499999996
 21
774.89999399999999
  0
LINE
  8
_0-0_0
  6
CONTINUOUS
 62
    7
 10
-85.738189499999976
 20
774.89999399999999
 11
-77.257003499999996
 21
774.89999399999999
  0
LINE
  8
_0-0_0
  6
CONTINUOUS
 62
    7
 10
-88.047592499999951
 20
770.89999399999999
 11
-85.738189499999976
 21
774.89999399999999
  0
LINE
  8
_0-0_0
  6
CONTINUOUS
 62
    7
 10
-88.047592499999951
 20
770.89999399999999
 11
-85.738189499999976
 21
766.89999399999999
  0
CIRCLE
  8
_0-0_0
  6
CONTINUOUS
 62
    7
 10
-12.497589500000004
 20
777.79998799999998
 40
1.4750000000000001
  0
CIRCLE
  8
_0-0_0
  6
CONTINUOUS
 62
    7
 10
-91.497589500000004
 20
777.79998799999998
 40
1.4750000000000001
  0
LINE
  8
_0-0_0
  6
CONTINUOUS
 62
    7
 10
-12.047592499999951
 20
777.59997599999997
 11
-11.397598499999958
 21
777.59997599999997
  0
ARC
  8
_0-0_0
  6
CONTINUOUS
 62
    7
 10
-12.047592499999951
 20
777.34997599999997
 40
0.25
 50
90.000003000000007
 51
180.00000900000001
  0
LINE
  8
_0-0_0
  6
CONTINUOUS
 62
    7
 10
-12.297592499999951
 20
777.34997599999997
 11
-12.297592499999951
 21
776.69998199999998
  0
LINE
  8
_0-0_0
  6
CONTINUOUS
 62
    7
 10
-12.697586499999943
 20
776.69998199999998
 11
-12.297592499999951
 21
776.69998199999998
  0
LINE
  8
_0-0_0
  6
CONTINUOUS
 62
    7
 10
-12.697586499999943
 20
776.69998199999998
 11
-12.697586499999943
 21
777.34997599999997
  0
ARC
  8
_0-0_0
  6
CONTINUOUS
 62
    7
 10
-12.947586499999943
 20
777.34997599999997
 40
0.25
 50
0
 51
90.000003000000007
  0
LINE
  8
_0-0_0
  6
CONTINUOUS
 62
    7
 10
-13.597595500000011
 20
777.59997599999997
 11
-12.947586499999943
 21
777.59997599999997
  0
LINE
  8
_0-0_0
  6
CONTINUOUS
 62
    7
 10
-13.597595500000011
 20
777.59997599999997
 11
-13.597595500000011
 21
778
  0
LINE
  8
_0-0_0
  6
CONTINUOUS
 62
    7
 10
-12.947586499999943
 20
778
 11
-13.597595500000011
 21
778
  0
ARC
  8
_0-0_0
  6
CONTINUOUS
 62
    7
 10
-12.947586499999943
 20
778.25
 40
0.25
 50
269.99999700000001
 51
0
  0
LINE
  8
_0-0_0
  6
CONTINUOUS
 62
    7
 10
-12.697586499999943
 20
778.25
 11
-12.697586499999943
 21
778.89999399999999
  0
LINE
  8
_0-0_0
  6
CONTINUOUS
 62
    7
 10
-12.297592499999951
 20
778.89999399999999
 11
-12.697586499999943
 21
778.89999399999999
  0
LINE
  8
_0-0_0
  6
CONTINUOUS
 62
    7
 10
-12.297592499999951
 20
778.89999399999999
 11
-12.297592499999951
 21
778.25
  0
ARC
  8
_0-0_0
  6
CONTINUOUS
 62
    7
 10
-12.047592499999951
 20
778.25
 40
0.25
 50
180.00000900000003
 51
269.99999700000001
  0
LINE
  8
_0-0_0
  6
CONTINUOUS
 62
    7
 10
-11.397598499999958
 20
778
 11
-12.047592499999951
 21
778
  0
LINE
  8
_0-0_0
  6
CONTINUOUS
 62
    7
 10
-11.397598499999958
 20
778
 11
-11.397598499999958
 21
777.59997599999997
  0
LINE
  8
_0-0_0
  6
CONTINUOUS
 62
    7
 10
-91.047592499999951
 20
777.59997599999997
 11
-90.397598499999958
 21
777.59997599999997
  0
ARC
  8
_0-0_0
  6
CONTINUOUS
 62
    7
 10
-91.047592499999951
 20
777.34997599999997
 40
0.25
 50
90.000003000000007
 51
180.00000900000001
  0
LINE
  8
_0-0_0
  6
CONTINUOUS
 62
    7
 10
-91.297592499999951
 20
777.34997599999997
 11
-91.297592499999951
 21
776.69998199999998
  0
LINE
  8
_0-0_0
  6
CONTINUOUS
 62
    7
 10
-91.697586499999943
 20
776.69998199999998
 11
-91.297592499999951
 21
776.69998199999998
  0
LINE
  8
_0-0_0
  6
CONTINUOUS
 62
    7
 10
-91.697586499999943
 20
776.69998199999998
 11
-91.697586499999943
 21
777.34997599999997
  0
ARC
  8
_0-0_0
  6
CONTINUOUS
 62
    7
 10
-91.947586499999943
 20
777.34997599999997
 40
0.25
 50
0
 51
90.000003000000007
  0
LINE
  8
_0-0_0
  6
CONTINUOUS
 62
    7
 10
-92.597595500000011
 20
777.59997599999997
 11
-91.947586499999943
 21
777.59997599999997
  0
LINE
  8
_0-0_0
  6
CONTINUOUS
 62
    7
 10
-92.597595500000011
 20
777.59997599999997
 11
-92.597595500000011
 21
778
  0
LINE
  8
_0-0_0
  6
CONTINUOUS
 62
    7
 10
-91.947586499999943
 20
778
 11
-92.597595500000011
 21
778
  0
ARC
  8
_0-0_0
  6
CONTINUOUS
 62
    7
 10
-91.947586499999943
 20
778.25
 40
0.25
 50
269.99999700000001
 51
0
  0
LINE
  8
_0-0_0
  6
CONTINUOUS
 62
    7
 10
-91.697586499999943
 20
778.25
 11
-91.697586499999943
 21
778.89999399999999
  0
LINE
  8
_0-0_0
  6
CONTINUOUS
 62
    7
 10
-91.297592499999951
 20
778.89999399999999
 11
-91.697586499999943
 21
778.89999399999999
  0
LINE
  8
_0-0_0
  6
CONTINUOUS
 62
    7
 10
-91.297592499999951
 20
778.89999399999999
 11
-91.297592499999951
 21
778.25
  0
ARC
  8
_0-0_0
  6
CONTINUOUS
 62
    7
 10
-91.047592499999951
 20
778.25
 40
0.25
 50
180.00000900000003
 51
269.99999700000001
  0
LINE
  8
_0-0_0
  6
CONTINUOUS
 62
    7
 10
-90.397598499999958
 20
778
 11
-91.047592499999951
 21
778
  0
LINE
  8
_0-0_0
  6
CONTINUOUS
 62
    7
 10
-90.397598499999958
 20
778
 11
-90.397598499999958
 21
777.59997599999997
  0
LINE
  8
_0-0_0
  6
CONTINUOUS
 62
    7
 10
-89.947586499999943
 20
757.27694700000006
 11
-89.947586499999943
 21
757.29998799999998
  0
LINE
  8
_0-0_0
  6
CONTINUOUS
 62
    7
 10
-71.497604499999966
 20
775.29998799999998
 11
-71.497604499999966
 21
762.34298699999999
  0
ARC
  8
_0-0_0
  6
CONTINUOUS
 62
    7
 10
-74.497604499999966
 20
775.29998799999998
 40
3
 50
0
 51
90.000003000000007
  0
LINE
  8
_0-0_0
  6
CONTINUOUS
 62
    7
 10
-35.497604499999966
 20
761.69998199999998
 11
-35.497604499999966
 21
775.29998799999998
  0
LINE
  8
_0-0_0
  6
CONTINUOUS
 62
    7
 10
-52.010116499999981
 20
771.46963499999993
 11
-53.310104499999966
 21
774.96963499999993
  0
ARC
  8
_0-0_0
  6
CONTINUOUS
 62
    7
 10
-54.797592499999951
 20
771.39999399999999
 40
0.2
 50
159.62357
 51
269.99999700000001
  0
LINE
  8
_0-0_0
  6
CONTINUOUS
 62
    7
 10
-10.497589500000004
 20
776.89999399999999
 11
6.1778564999999617
 21
776.89999399999999
  0
ARC
  8
_0-0_0
  6
CONTINUOUS
 62
    7
 10
6.1778564999999617
 20
774.89999399999999
 40
2
 50
71.565000999999995
 51
90.000003000000007
  0
LINE
  8
_0-0_0
  6
CONTINUOUS
 62
    7
 10
6.8103174999999965
 20
776.79736300000002
 11
6.6908114999999952
 21
776.83297700000003
  0
LINE
  8
_0-0_0
  6
CONTINUOUS
 62
    7
 10
6.6908114999999952
 20
776.83297700000003
 11
6.5692595000000438
 21
776.86084000000005
  0
LINE
  8
_0-0_0
  6
CONTINUOUS
 62
    7
 10
6.5692595000000438
 20
776.86084000000005
 11
6.446136499999966
 21
776.88088999999991
  0
LINE
  8
_0-0_0
  6
CONTINUOUS
 62
    7
 10
6.446136499999966
 20
776.88088999999991
 11
6.3219145000000481
 21
776.89300500000002
  0
LINE
  8
_0-0_0
  6
CONTINUOUS
 62
    7
 10
6.3219145000000481
 20
776.89300500000002
 11
6.197082499999965
 21
776.89712499999996
  0
LINE
  8
_0-0_0
  6
CONTINUOUS
 62
    7
 10
6.197082499999965
 20
776.89712499999996
 11
6.1778564999999617
 21
776.897064
  0
LINE
  8
_0-0_0
  6
CONTINUOUS
 62
    7
 10
11.134857499999953
 20
775.35583500000007
 11
6.8103025000000343
 21
776.79736300000002
  0
LINE
  8
_0-0_0
  6
CONTINUOUS
 62
    7
 10
10.976745499999993
 20
760.79998799999998
 11
11.670104499999979
 21
760.79998799999998
  0
LINE
  8
_0-0_0
  6
CONTINUOUS
 62
    7
 10
10.976745499999993
 20
760.79998799999998
 11
6.6521915000000718
 21
760.79998799999998
  0
LINE
  8
_0-0_0
  6
CONTINUOUS
 62
    7
 10
6.1778564999999617
 20
760.79998799999998
 11
6.6521915000000718
 21
760.79998799999998
  0
LINE
  8
_0-0_0
  6
CONTINUOUS
 62
    7
 10
1.5024104999999963
 20
760.79998799999998
 11
6.1778564999999617
 21
760.79998799999998
  0
LINE
  8
_0-0_0
  6
CONTINUOUS
 62
    7
 10
12.502410499999996
 20
760.04995699999995
 11
12.502410499999996
 21
761.17095999999992
  0
LINE
  8
_0-0_0
  6
CONTINUOUS
 62
    7
 10
12.502410499999996
 20
762.09228499999995
 11
12.502410499999996
 21
761.17095999999992
  0
LINE
  8
_0-0_0
  6
CONTINUOUS
 62
    7
 10
23.502410499999996
 20
760.84997599999997
 11
23.502410499999996
 21
768.83154300000001
  0
ARC
  8
_0-0_0
  6
CONTINUOUS
 62
    7
 10
17.328521499999965
 20
769.35086100000001
 40
4.9238749999999998
 50
352.49423299999995
 51
1.5359699999999901
  0
LINE
  8
_0-0_0
  6
CONTINUOUS
 62
    7
 10
22.210235499999953
 20
763.49227900000005
 11
22.304565499999967
 21
763.738922
  0
LINE
  8
_0-0_0
  6
CONTINUOUS
 62
    7
 10
22.304565499999967
 20
763.738922
 11
22.388519500000029
 21
763.978882
  0
LINE
  8
_0-0_0
  6
CONTINUOUS
 62
    7
 10
22.388519500000029
 20
763.978882
 11
22.462676500000043
 21
764.21301300000005
  0
LINE
  8
_0-0_0
  6
CONTINUOUS
 62
    7
 10
22.462676500000043
 20
764.21301300000005
 11
22.527557500000057
 21
764.442047
  0
LINE
  8
_0-0_0
  6
CONTINUOUS
 62
    7
 10
22.527557500000057
 20
764.442047
 11
22.583602499999984
 21
764.66671799999995
  0
LINE
  8
_0-0_0
  6
CONTINUOUS
 62
    7
 10
22.583602499999984
 20
764.66671799999995
 11
22.631164500000068
 21
764.88769500000001
  0
LINE
  8
_0-0_0
  6
CONTINUOUS
 62
    7
 10
22.631164500000068
 20
764.88769500000001
 11
22.67056249999996
 21
765.10562099999993
  0
LINE
  8
_0-0_0
  6
CONTINUOUS
 62
    7
 10
22.67056249999996
 20
765.10562099999993
 11
22.702056500000026
 21
765.32104499999991
  0
LINE
  8
_0-0_0
  6
CONTINUOUS
 62
    7
 10
22.702056500000026
 20
765.32104499999991
 11
22.725830500000029
 21
765.53457700000001
  0
LINE
  8
_0-0_0
  6
CONTINUOUS
 62
    7
 10
22.725830500000029
 20
765.53457700000001
 11
22.741760500000055
 21
765.74230999999997
  0
LINE
  8
_0-0_0
  6
CONTINUOUS
 62
    7
 10
22.741760500000055
 20
765.74230999999997
 11
22.750518499999998
 21
765.94915800000001
  0
LINE
  8
_0-0_0
  6
CONTINUOUS
 62
    7
 10
22.750518499999998
 20
765.94915800000001
 11
22.752151499999968
 21
766.15560899999991
  0
LINE
  8
_0-0_0
  6
CONTINUOUS
 62
    7
 10
22.752151499999968
 20
766.15560899999991
 11
22.746688500000005
 21
766.362213
  0
LINE
  8
_0-0_0
  6
CONTINUOUS
 62
    7
 10
22.746688500000005
 20
766.362213
 11
22.734069500000032
 21
766.56939699999998
  0
LINE
  8
_0-0_0
  6
CONTINUOUS
 62
    7
 10
22.734069500000032
 20
766.56939699999998
 11
22.714263500000015
 21
766.77767999999992
  0
LINE
  8
_0-0_0
  6
CONTINUOUS
 62
    7
 10
22.714263500000015
 20
766.77767999999992
 11
22.687118499999997
 21
766.98761000000002
  0
LINE
  8
_0-0_0
  6
CONTINUOUS
 62
    7
 10
22.687118499999997
 20
766.98761000000002
 11
22.652465500000062
 21
767.19967700000007
  0
LINE
  8
_0-0_0
  6
CONTINUOUS
 62
    7
 10
22.652465500000062
 20
767.19967700000007
 11
22.610122499999989
 21
767.41442899999993
  0
LINE
  8
_0-0_0
  6
CONTINUOUS
 62
    7
 10
22.610122499999989
 20
767.41442899999993
 11
22.559799500000054
 21
767.63241599999992
  0
LINE
  8
_0-0_0
  6
CONTINUOUS
 62
    7
 10
22.559799500000054
 20
767.63241599999992
 11
22.505554500000017
 21
767.83871499999998
  0
LINE
  8
_0-0_0
  6
CONTINUOUS
 62
    7
 10
22.505554500000017
 20
767.83871499999998
 11
22.443847499999947
 21
768.04882799999996
  0
LINE
  8
_0-0_0
  6
CONTINUOUS
 62
    7
 10
22.443847499999947
 20
768.04882799999996
 11
22.374328500000047
 21
768.26327500000002
  0
LINE
  8
_0-0_0
  6
CONTINUOUS
 62
    7
 10
22.374328500000047
 20
768.26327500000002
 11
22.29661550000003
 21
768.48269699999992
  0
LINE
  8
_0-0_0
  6
CONTINUOUS
 62
    7
 10
22.29661550000003
 20
768.48269699999992
 11
22.210235499999953
 21
768.707672
  0
ARC
  8
_0-0_0
  6
CONTINUOUS
 62
    7
 10
17.338684499999999
 20
762.84997599999997
 40
4.9136889999999998
 50
352.48898799999995
 51
7.5110139999999577
  0
LINE
  8
_0-0_0
  6
CONTINUOUS
 62
    7
 10
22.210235499999953
 20
762.207672
 11
22.264724500000057
 21
762.13775599999997
  0
LINE
  8
_0-0_0
  6
CONTINUOUS
 62
    7
 10
22.264724500000057
 20
762.13775599999997
 11
22.315826499999957
 21
762.06890900000008
  0
LINE
  8
_0-0_0
  6
CONTINUOUS
 62
    7
 10
22.315826499999957
 20
762.06890900000008
 11
22.363464499999964
 21
762.00140399999998
  0
LINE
  8
_0-0_0
  6
CONTINUOUS
 62
    7
 10
22.363464499999964
 20
762.00140399999998
 11
22.40795849999995
 21
761.93487600000003
  0
LINE
  8
_0-0_0
  6
CONTINUOUS
 62
    7
 10
22.40795849999995
 20
761.93487600000003
 11
22.462676500000043
 21
761.84732099999997
  0
LINE
  8
_0-0_0
  6
CONTINUOUS
 62
    7
 10
22.462676500000043
 20
761.84732099999997
 11
22.512191499999972
 21
761.76123099999995
  0
LINE
  8
_0-0_0
  6
CONTINUOUS
 62
    7
 10
22.512191499999972
 20
761.76123099999995
 11
22.556655500000033
 21
761.67639199999996
  0
LINE
  8
_0-0_0
  6
CONTINUOUS
 62
    7
 10
22.556655500000033
 20
761.67639199999996
 11
22.603622500000029
 21
761.57608000000005
  0
LINE
  8
_0-0_0
  6
CONTINUOUS
 62
    7
 10
22.603622500000029
 20
761.57608000000005
 11
22.643829500000038
 21
761.47714199999996
  0
LINE
  8
_0-0_0
  6
CONTINUOUS
 62
    7
 10
22.643829500000038
 20
761.47714199999996
 11
22.677490499999976
 21
761.37939499999993
  0
LINE
  8
_0-0_0
  6
CONTINUOUS
 62
    7
 10
22.677490499999976
 20
761.37939499999993
 11
22.70478849999995
 21
761.28259300000002
  0
LINE
  8
_0-0_0
  6
CONTINUOUS
 62
    7
 10
22.70478849999995
 20
761.28259300000002
 11
22.725830500000029
 21
761.18652399999996
  0
LINE
  8
_0-0_0
  6
CONTINUOUS
 62
    7
 10
22.725830500000029
 20
761.18652399999996
 11
22.741760500000055
 21
761.082672
  0
LINE
  8
_0-0_0
  6
CONTINUOUS
 62
    7
 10
22.741760500000055
 20
761.082672
 11
22.750518499999998
 21
760.97924799999998
  0
LINE
  8
_0-0_0
  6
CONTINUOUS
 62
    7
 10
22.750518499999998
 20
760.97924799999998
 11
22.752151499999968
 21
760.87600700000007
  0
LINE
  8
_0-0_0
  6
CONTINUOUS
 62
    7
 10
22.752151499999968
 20
760.87600700000007
 11
22.746688500000005
 21
760.77273600000001
  0
LINE
  8
_0-0_0
  6
CONTINUOUS
 62
    7
 10
22.746688500000005
 20
760.77273600000001
 11
22.734069500000032
 21
760.669129
  0
LINE
  8
_0-0_0
  6
CONTINUOUS
 62
    7
 10
22.734069500000032
 20
760.669129
 11
22.714263500000015
 21
760.56497200000001
  0
LINE
  8
_0-0_0
  6
CONTINUOUS
 62
    7
 10
22.714263500000015
 20
760.56497200000001
 11
22.687118499999997
 21
760.46002199999998
  0
LINE
  8
_0-0_0
  6
CONTINUOUS
 62
    7
 10
22.687118499999997
 20
760.46002199999998
 11
22.652465500000062
 21
760.35400400000003
  0
LINE
  8
_0-0_0
  6
CONTINUOUS
 62
    7
 10
22.652465500000062
 20
760.35400400000003
 11
22.610122499999989
 21
760.24661300000002
  0
LINE
  8
_0-0_0
  6
CONTINUOUS
 62
    7
 10
22.610122499999989
 20
760.24661300000002
 11
22.559799500000054
 21
760.13760400000001
  0
LINE
  8
_0-0_0
  6
CONTINUOUS
 62
    7
 10
22.559799500000054
 20
760.13760400000001
 11
22.514114500000005
 21
760.04995699999995
  0
LINE
  8
_0-0_0
  6
CONTINUOUS
 62
    7
 10
12.502410499999996
 20
769.99227900000005
 11
22.210235499999953
 21
769.99227900000005
  0
LINE
  8
_0-0_0
  6
CONTINUOUS
 62
    7
 10
12.502410499999996
 20
768.707672
 11
12.502410499999996
 21
769.99227900000005
  0
LINE
  8
_0-0_0
  6
CONTINUOUS
 62
    7
 10
12.502410499999996
 20
768.707672
 11
22.210235499999953
 21
768.707672
  0
ARC
  8
_0-0_0
  6
CONTINUOUS
 62
    7
 10
17.290496500000017
 20
769.34591699999999
 40
4.9620009999999999
 50
1.5813010000000001
 51
7.4847919999999997
  0
LINE
  8
_0-0_0
  6
CONTINUOUS
 62
    7
 10
12.202407500000049
 20
763.88797
 11
12.118942500000003
 21
764.26663200000007
  0
LINE
  8
_0-0_0
  6
CONTINUOUS
 62
    7
 10
12.118942500000003
 20
764.26663200000007
 11
12.078857500000026
 21
764.45816100000002
  0
LINE
  8
_0-0_0
  6
CONTINUOUS
 62
    7
 10
12.078857500000026
 20
764.45816100000002
 11
12.022766499999989
 21
764.7482
  0
LINE
  8
_0-0_0
  6
CONTINUOUS
 62
    7
 10
12.022766499999989
 20
764.7482
 11
11.985168499999986
 21
764.96777399999996
  0
LINE
  8
_0-0_0
  6
CONTINUOUS
 62
    7
 10
11.985168499999986
 20
764.96777399999996
 11
11.952529499999969
 21
765.18902600000001
  0
LINE
  8
_0-0_0
  6
CONTINUOUS
 62
    7
 10
11.952529499999969
 20
765.18902600000001
 11
11.925369499999988
 21
765.41583300000002
  0
LINE
  8
_0-0_0
  6
CONTINUOUS
 62
    7
 10
11.925369499999988
 20
765.41583300000002
 11
11.905303499999945
 21
765.64321900000004
  0
LINE
  8
_0-0_0
  6
CONTINUOUS
 62
    7
 10
11.905303499999945
 20
765.64321900000004
 11
11.89814750000005
 21
765.75695799999994
  0
LINE
  8
_0-0_0
  6
CONTINUOUS
 62
    7
 10
11.89814750000005
 20
765.75695799999994
 11
11.892990499999996
 21
765.87063599999999
  0
LINE
  8
_0-0_0
  6
CONTINUOUS
 62
    7
 10
11.892990499999996
 20
765.87063599999999
 11
11.889266499999962
 21
766.022064
  0
LINE
  8
_0-0_0
  6
CONTINUOUS
 62
    7
 10
11.889266499999962
 20
766.022064
 11
11.889205500000003
 21
766.17334000000005
  0
LINE
  8
_0-0_0
  6
CONTINUOUS
 62
    7
 10
11.889205500000003
 20
766.17334000000005
 11
11.892791500000044
 21
766.32437099999993
  0
LINE
  8
_0-0_0
  6
CONTINUOUS
 62
    7
 10
11.892791500000044
 20
766.32437099999993
 11
11.902297500000032
 21
766.51294000000007
  0
LINE
  8
_0-0_0
  6
CONTINUOUS
 62
    7
 10
11.902297500000032
 20
766.51294000000007
 11
11.917159500000025
 21
766.70117200000004
  0
LINE
  8
_0-0_0
  6
CONTINUOUS
 62
    7
 10
11.917159500000025
 20
766.70117200000004
 11
11.937087499999961
 21
766.88913000000002
  0
LINE
  8
_0-0_0
  6
CONTINUOUS
 62
    7
 10
11.937087499999961
 20
766.88913000000002
 11
11.953475499999968
 21
767.01800500000002
  0
LINE
  8
_0-0_0
  6
CONTINUOUS
 62
    7
 10
11.953475499999968
 20
767.01800500000002
 11
11.971877500000005
 21
767.14663700000006
  0
LINE
  8
_0-0_0
  6
CONTINUOUS
 62
    7
 10
11.971877500000005
 20
767.14663700000006
 11
11.996047500000032
 21
767.29858400000001
  0
LINE
  8
_0-0_0
  6
CONTINUOUS
 62
    7
 10
11.996047500000032
 20
767.29858400000001
 11
12.022445500000003
 21
767.44992100000002
  0
LINE
  8
_0-0_0
  6
CONTINUOUS
 62
    7
 10
12.022445500000003
 20
767.44992100000002
 11
12.07861349999996
 21
767.74054000000001
  0
LINE
  8
_0-0_0
  6
CONTINUOUS
 62
    7
 10
12.07861349999996
 20
767.74054000000001
 11
12.118774499999972
 21
767.93249500000002
  0
LINE
  8
_0-0_0
  6
CONTINUOUS
 62
    7
 10
12.118774499999972
 20
767.93249500000002
 11
12.202407500000049
 21
768.31198100000006
  0
LINE
  8
_0-0_0
  6
CONTINUOUS
 62
    7
 10
12.502410499999996
 20
764.53793300000007
 11
12.502410499999996
 21
767.66204799999991
  0
LINE
  8
_0-0_0
  6
CONTINUOUS
 62
    7
 10
37.252403500000014
 20
756.57455499999992
 11
37.002403500000014
 21
756.54998799999998
  0
LINE
  8
_0-0_0
  6
CONTINUOUS
 62
    7
 10
37.002403500000014
 20
756.54998799999998
 11
27.752403500000014
 21
756.54998799999998
  0
LINE
  8
_0-0_0
  6
CONTINUOUS
 62
    7
 10
27.502403500000014
 20
756.57455499999992
 11
27.752403500000014
 21
756.54998799999998
  0
LINE
  8
_0-0_0
  6
CONTINUOUS
 62
    7
 10
37.252403500000014
 20
759.54855399999997
 11
37.002403500000014
 21
759.82254
  0
LINE
  8
_0-0_0
  6
CONTINUOUS
 62
    7
 10
37.252403500000014
 20
759.54855399999997
 11
37.002403500000014
 21
759.65783699999997
  0
LINE
  8
_0-0_0
  6
CONTINUOUS
 62
    7
 10
37.252403500000014
 20
759.39096100000006
 11
37.002403500000014
 21
759.65783699999997
  0
LINE
  8
_0-0_0
  6
CONTINUOUS
 62
    7
 10
37.252403500000014
 20
759.39096100000006
 11
37.002403500000014
 21
759.47280899999998
  0
LINE
  8
_0-0_0
  6
CONTINUOUS
 62
    7
 10
37.252403500000014
 20
759.21597300000008
 11
37.002403500000014
 21
759.47280899999998
  0
LINE
  8
_0-0_0
  6
CONTINUOUS
 62
    7
 10
37.252403500000014
 20
759.21597300000008
 11
37.002403500000014
 21
759.26944000000003
  0
LINE
  8
_0-0_0
  6
CONTINUOUS
 62
    7
 10
37.252403500000014
 20
759.02542100000005
 11
37.002403500000014
 21
759.26944000000003
  0
LINE
  8
_0-0_0
  6
CONTINUOUS
 62
    7
 10
37.252403500000014
 20
759.02542100000005
 11
37.002403500000014
 21
759.04998799999998
  0
LINE
  8
_0-0_0
  6
CONTINUOUS
 62
    7
 10
37.252403500000014
 20
758.82147199999997
 11
37.002403500000014
 21
759.04998799999998
  0
LINE
  8
_0-0_0
  6
CONTINUOUS
 62
    7
 10
37.252403500000014
 20
758.82147199999997
 11
37.002403500000014
 21
758.81683399999997
  0
LINE
  8
_0-0_0
  6
CONTINUOUS
 62
    7
 10
37.252403500000014
 20
758.60632299999997
 11
37.002403500000014
 21
758.81683399999997
  0
LINE
  8
_0-0_0
  6
CONTINUOUS
 62
    7
 10
37.252403500000014
 20
758.60632299999997
 11
37.002403500000014
 21
758.57254
  0
LINE
  8
_0-0_0
  6
CONTINUOUS
 62
    7
 10
37.252403500000014
 20
758.38232399999993
 11
37.002403500000014
 21
758.57254
  0
LINE
  8
_0-0_0
  6
CONTINUOUS
 62
    7
 10
37.252403500000014
 20
758.38232399999993
 11
37.002403500000014
 21
758.31976299999997
  0
LINE
  8
_0-0_0
  6
CONTINUOUS
 62
    7
 10
37.252403500000014
 20
758.15197799999999
 11
37.002403500000014
 21
758.31976299999997
  0
LINE
  8
_0-0_0
  6
CONTINUOUS
 62
    7
 10
37.252403500000014
 20
758.15197799999999
 11
37.002403500000014
 21
758.06131000000005
  0
LINE
  8
_0-0_0
  6
CONTINUOUS
 62
    7
 10
37.252403500000014
 20
757.91775499999994
 11
37.002403500000014
 21
758.06131000000005
  0
LINE
  8
_0-0_0
  6
CONTINUOUS
 62
    7
 10
37.252403500000014
 20
757.91775499999994
 11
37.002403500000014
 21
757.79998799999998
  0
LINE
  8
_0-0_0
  6
CONTINUOUS
 62
    7
 10
37.252403500000014
 20
757.68222100000003
 11
37.002403500000014
 21
757.79998799999998
  0
LINE
  8
_0-0_0
  6
CONTINUOUS
 62
    7
 10
37.252403500000014
 20
757.68222100000003
 11
37.002403500000014
 21
757.53866599999992
  0
LINE
  8
_0-0_0
  6
CONTINUOUS
 62
    7
 10
37.252403500000014
 20
757.44799799999998
 11
37.002403500000014
 21
757.53866599999992
  0
LINE
  8
_0-0_0
  6
CONTINUOUS
 62
    7
 10
37.252403500000014
 20
757.44799799999998
 11
37.002403500000014
 21
757.280213
  0
LINE
  8
_0-0_0
  6
CONTINUOUS
 62
    7
 10
37.252403500000014
 20
757.21765099999993
 11
37.002403500000014
 21
757.280213
  0
LINE
  8
_0-0_0
  6
CONTINUOUS
 62
    7
 10
37.252403500000014
 20
757.21765099999993
 11
37.002403500000014
 21
757.02743499999997
  0
LINE
  8
_0-0_0
  6
CONTINUOUS
 62
    7
 10
37.252403500000014
 20
756.993652
 11
37.002403500000014
 21
757.02743499999997
  0
LINE
  8
_0-0_0
  6
CONTINUOUS
 62
    7
 10
37.252403500000014
 20
756.993652
 11
37.002403500000014
 21
756.783142
  0
LINE
  8
_0-0_0
  6
CONTINUOUS
 62
    7
 10
37.252403500000014
 20
756.778504
 11
37.002403500000014
 21
756.783142
  0
LINE
  8
_0-0_0
  6
CONTINUOUS
 62
    7
 10
37.252403500000014
 20
756.778504
 11
37.002403500000014
 21
756.54998799999998
  0
LINE
  8
_0-0_0
  6
CONTINUOUS
 62
    7
 10
37.252403500000014
 20
756.57455499999992
 11
37.002403500000014
 21
756.33053599999994
  0
LINE
  8
_0-0_0
  6
CONTINUOUS
 62
    7
 10
37.252403500000014
 20
756.38400300000001
 11
37.002403500000014
 21
756.33053599999994
  0
LINE
  8
_0-0_0
  6
CONTINUOUS
 62
    7
 10
37.252403500000014
 20
756.38400300000001
 11
37.002403500000014
 21
756.12716699999999
  0
LINE
  8
_0-0_0
  6
CONTINUOUS
 62
    7
 10
37.252403500000014
 20
756.20898399999999
 11
37.002403500000014
 21
756.12716699999999
  0
LINE
  8
_0-0_0
  6
CONTINUOUS
 62
    7
 10
37.252403500000014
 20
756.20898399999999
 11
37.002403500000014
 21
755.94210799999996
  0
LINE
  8
_0-0_0
  6
CONTINUOUS
 62
    7
 10
37.252403500000014
 20
756.051422
 11
37.002403500000014
 21
755.94210799999996
  0
LINE
  8
_0-0_0
  6
CONTINUOUS
 62
    7
 10
37.252403500000014
 20
756.051422
 11
37.002403500000014
 21
755.77743499999997
  0
LINE
  8
_0-0_0
  6
CONTINUOUS
 62
    7
 10
37.252403500000014
 20
755.91299400000003
 11
37.002403500000014
 21
755.77743499999997
  0
LINE
  8
_0-0_0
  6
CONTINUOUS
 62
    7
 10
37.252403500000014
 20
755.91299400000003
 11
37.002403500000014
 21
755.63491799999997
  0
LINE
  8
_0-0_0
  6
CONTINUOUS
 62
    7
 10
37.252403500000014
 20
755.79522700000007
 11
37.002403500000014
 21
755.63491799999997
  0
LINE
  8
_0-0_0
  6
CONTINUOUS
 62
    7
 10
37.252403500000014
 20
755.79522700000007
 11
37.002403500000014
 21
755.51611300000002
  0
LINE
  8
_0-0_0
  6
CONTINUOUS
 62
    7
 10
37.252403500000014
 20
755.699432
 11
37.002403500000014
 21
755.51611300000002
  0
LINE
  8
_0-0_0
  6
CONTINUOUS
 62
    7
 10
37.252403500000014
 20
755.699432
 11
37.002403500000014
 21
755.42233299999998
  0
LINE
  8
_0-0_0
  6
CONTINUOUS
 62
    7
 10
37.252403500000014
 20
755.62664799999993
 11
37.002403500000014
 21
755.42233299999998
  0
LINE
  8
_0-0_0
  6
CONTINUOUS
 62
    7
 10
37.252403500000014
 20
755.62664799999993
 11
37.002403500000014
 21
755.35461399999997
  0
LINE
  8
_0-0_0
  6
CONTINUOUS
 62
    7
 10
37.252403500000014
 20
755.57769800000005
 11
37.002403500000014
 21
755.35461399999997
  0
LINE
  8
_0-0_0
  6
CONTINUOUS
 62
    7
 10
37.252403500000014
 20
755.57769800000005
 11
37.002403500000014
 21
755.31368999999995
  0
LINE
  8
_0-0_0
  6
CONTINUOUS
 62
    7
 10
37.252403500000014
 20
755.55306999999993
 11
37.002403500000014
 21
755.31368999999995
  0
LINE
  8
_0-0_0
  6
CONTINUOUS
 62
    7
 10
37.252403500000014
 20
755.55306999999993
 11
37.002403500000014
 21
755.29998799999998
  0
LINE
  8
_0-0_0
  6
CONTINUOUS
 62
    7
 10
37.502403500000014
 20
755.79998799999998
 11
37.502403500000014
 21
759.55514500000004
  0
LINE
  8
_0-0_0
  6
CONTINUOUS
 62
    7
 10
37.122444500000029
 20
759.88861099999997
 11
37.002403500000014
 21
759.965057
  0
LINE
  8
_0-0_0
  6
CONTINUOUS
 62
    7
 10
37.252403500000014
 20
759.68698100000006
 11
37.002403500000014
 21
759.965057
  0
LINE
  8
_0-0_0
  6
CONTINUOUS
 62
    7
 10
37.252403500000014
 20
759.68698100000006
 11
37.002403500000014
 21
759.82254
  0
LINE
  8
_0-0_0
  6
CONTINUOUS
 62
    7
 10
37.002403500000014
 20
759.65783699999997
 11
27.752403500000014
 21
759.65783699999997
  0
LINE
  8
_0-0_0
  6
CONTINUOUS
 62
    7
 10
27.502403500000014
 20
759.54855399999997
 11
27.752403500000014
 21
759.65783699999997
  0
LINE
  8
_0-0_0
  6
CONTINUOUS
 62
    7
 10
37.002403500000014
 20
759.47280899999998
 11
27.752403500000014
 21
759.47280899999998
  0
LINE
  8
_0-0_0
  6
CONTINUOUS
 62
    7
 10
27.502403500000014
 20
759.39096100000006
 11
27.752403500000014
 21
759.47280899999998
  0
LINE
  8
_0-0_0
  6
CONTINUOUS
 62
    7
 10
37.002403500000014
 20
759.26944000000003
 11
27.752403500000014
 21
759.26944000000003
  0
LINE
  8
_0-0_0
  6
CONTINUOUS
 62
    7
 10
27.502403500000014
 20
759.21597300000008
 11
27.752403500000014
 21
759.26944000000003
  0
LINE
  8
_0-0_0
  6
CONTINUOUS
 62
    7
 10
37.002403500000014
 20
759.04998799999998
 11
27.752403500000014
 21
759.04998799999998
  0
LINE
  8
_0-0_0
  6
CONTINUOUS
 62
    7
 10
27.502403500000014
 20
759.02542100000005
 11
27.752403500000014
 21
759.04998799999998
  0
LINE
  8
_0-0_0
  6
CONTINUOUS
 62
    7
 10
37.002403500000014
 20
758.81683399999997
 11
27.752403500000014
 21
758.81683399999997
  0
LINE
  8
_0-0_0
  6
CONTINUOUS
 62
    7
 10
37.252403500000014
 20
758.82147199999997
 11
27.502403500000014
 21
758.82147199999997
  0
LINE
  8
_0-0_0
  6
CONTINUOUS
 62
    7
 10
27.502403500000014
 20
758.82147199999997
 11
27.752403500000014
 21
758.81683399999997
  0
LINE
  8
_0-0_0
  6
CONTINUOUS
 62
    7
 10
37.002403500000014
 20
758.57254
 11
27.752403500000014
 21
758.57254
  0
LINE
  8
_0-0_0
  6
CONTINUOUS
 62
    7
 10
37.252403500000014
 20
758.60632299999997
 11
27.502403500000014
 21
758.60632299999997
  0
LINE
  8
_0-0_0
  6
CONTINUOUS
 62
    7
 10
27.502403500000014
 20
758.60632299999997
 11
27.752403500000014
 21
758.57254
  0
LINE
  8
_0-0_0
  6
CONTINUOUS
 62
    7
 10
37.002403500000014
 20
758.31976299999997
 11
27.752403500000014
 21
758.31976299999997
  0
LINE
  8
_0-0_0
  6
CONTINUOUS
 62
    7
 10
37.252403500000014
 20
758.38232399999993
 11
27.502403500000014
 21
758.38232399999993
  0
LINE
  8
_0-0_0
  6
CONTINUOUS
 62
    7
 10
27.502403500000014
 20
758.38232399999993
 11
27.752403500000014
 21
758.31976299999997
  0
LINE
  8
_0-0_0
  6
CONTINUOUS
 62
    7
 10
37.002403500000014
 20
758.06131000000005
 11
27.752403500000014
 21
758.06131000000005
  0
LINE
  8
_0-0_0
  6
CONTINUOUS
 62
    7
 10
37.252403500000014
 20
758.15197799999999
 11
27.502403500000014
 21
758.15197799999999
  0
LINE
  8
_0-0_0
  6
CONTINUOUS
 62
    7
 10
27.502403500000014
 20
758.15197799999999
 11
27.752403500000014
 21
758.06131000000005
  0
LINE
  8
_0-0_0
  6
CONTINUOUS
 62
    7
 10
37.002403500000014
 20
757.79998799999998
 11
27.752403500000014
 21
757.79998799999998
  0
LINE
  8
_0-0_0
  6
CONTINUOUS
 62
    7
 10
37.252403500000014
 20
757.91775499999994
 11
27.502403500000014
 21
757.91775499999994
  0
LINE
  8
_0-0_0
  6
CONTINUOUS
 62
    7
 10
27.502403500000014
 20
757.91775499999994
 11
27.752403500000014
 21
757.79998799999998
  0
LINE
  8
_0-0_0
  6
CONTINUOUS
 62
    7
 10
37.002403500000014
 20
757.53866599999992
 11
27.752403500000014
 21
757.53866599999992
  0
LINE
  8
_0-0_0
  6
CONTINUOUS
 62
    7
 10
37.252403500000014
 20
757.68222100000003
 11
27.502403500000014
 21
757.68222100000003
  0
LINE
  8
_0-0_0
  6
CONTINUOUS
 62
    7
 10
27.502403500000014
 20
757.68222100000003
 11
27.752403500000014
 21
757.53866599999992
  0
LINE
  8
_0-0_0
  6
CONTINUOUS
 62
    7
 10
37.002403500000014
 20
757.280213
 11
27.752403500000014
 21
757.280213
  0
LINE
  8
_0-0_0
  6
CONTINUOUS
 62
    7
 10
37.252403500000014
 20
757.44799799999998
 11
27.502403500000014
 21
757.44799799999998
  0
LINE
  8
_0-0_0
  6
CONTINUOUS
 62
    7
 10
27.502403500000014
 20
757.44799799999998
 11
27.752403500000014
 21
757.280213
  0
LINE
  8
_0-0_0
  6
CONTINUOUS
 62
    7
 10
37.002403500000014
 20
757.02743499999997
 11
27.752403500000014
 21
757.02743499999997
  0
LINE
  8
_0-0_0
  6
CONTINUOUS
 62
    7
 10
37.252403500000014
 20
757.21765099999993
 11
27.502403500000014
 21
757.21765099999993
  0
LINE
  8
_0-0_0
  6
CONTINUOUS
 62
    7
 10
27.502403500000014
 20
757.21765099999993
 11
27.752403500000014
 21
757.02743499999997
  0
LINE
  8
_0-0_0
  6
CONTINUOUS
 62
    7
 10
37.002403500000014
 20
756.783142
 11
27.752403500000014
 21
756.783142
  0
LINE
  8
_0-0_0
  6
CONTINUOUS
 62
    7
 10
37.252403500000014
 20
756.993652
 11
27.502403500000014
 21
756.993652
  0
LINE
  8
_0-0_0
  6
CONTINUOUS
 62
    7
 10
27.502403500000014
 20
756.993652
 11
27.752403500000014
 21
756.783142
  0
LINE
  8
_0-0_0
  6
CONTINUOUS
 62
    7
 10
37.002403500000014
 20
756.12716699999999
 11
27.752403500000014
 21
756.12716699999999
  0
LINE
  8
_0-0_0
  6
CONTINUOUS
 62
    7
 10
27.502403500000014
 20
756.38400300000001
 11
27.752403500000014
 21
756.12716699999999
  0
LINE
  8
_0-0_0
  6
CONTINUOUS
 62
    7
 10
37.002403500000014
 20
755.94210799999996
 11
27.752403500000014
 21
755.94210799999996
  0
LINE
  8
_0-0_0
  6
CONTINUOUS
 62
    7
 10
27.502403500000014
 20
756.20898399999999
 11
27.752403500000014
 21
755.94210799999996
  0
LINE
  8
_0-0_0
  6
CONTINUOUS
 62
    7
 10
37.002403500000014
 20
755.77743499999997
 11
27.752403500000014
 21
755.77743499999997
  0
LINE
  8
_0-0_0
  6
CONTINUOUS
 62
    7
 10
27.502403500000014
 20
756.051422
 11
27.752403500000014
 21
755.77743499999997
  0
LINE
  8
_0-0_0
  6
CONTINUOUS
 62
    7
 10
37.002403500000014
 20
755.63491799999997
 11
27.752403500000014
 21
755.63491799999997
  0
LINE
  8
_0-0_0
  6
CONTINUOUS
 62
    7
 10
27.502403500000014
 20
755.91299400000003
 11
27.752403500000014
 21
755.63491799999997
  0
LINE
  8
_0-0_0
  6
CONTINUOUS
 62
    7
 10
37.002403500000014
 20
755.51611300000002
 11
27.752403500000014
 21
755.51611300000002
  0
LINE
  8
_0-0_0
  6
CONTINUOUS
 62
    7
 10
27.502403500000014
 20
755.79522700000007
 11
27.752403500000014
 21
755.51611300000002
  0
LINE
  8
_0-0_0
  6
CONTINUOUS
 62
    7
 10
37.002403500000014
 20
755.42233299999998
 11
27.752403500000014
 21
755.42233299999998
  0
LINE
  8
_0-0_0
  6
CONTINUOUS
 62
    7
 10
27.502403500000014
 20
755.699432
 11
27.752403500000014
 21
755.42233299999998
  0
LINE
  8
_0-0_0
  6
CONTINUOUS
 62
    7
 10
37.002403500000014
 20
755.35461399999997
 11
27.752403500000014
 21
755.35461399999997
  0
LINE
  8
_0-0_0
  6
CONTINUOUS
 62
    7
 10
27.502403500000014
 20
755.62664799999993
 11
27.752403500000014
 21
755.35461399999997
  0
LINE
  8
_0-0_0
  6
CONTINUOUS
 62
    7
 10
37.002403500000014
 20
755.31368999999995
 11
27.752403500000014
 21
755.31368999999995
  0
LINE
  8
_0-0_0
  6
CONTINUOUS
 62
    7
 10
27.502403500000014
 20
755.57769800000005
 11
27.752403500000014
 21
755.31368999999995
  0
LINE
  8
_0-0_0
  6
CONTINUOUS
 62
    7
 10
37.002403500000014
 20
755.29998799999998
 11
27.752403500000014
 21
755.29998799999998
  0
LINE
  8
_0-0_0
  6
CONTINUOUS
 62
    7
 10
27.502403500000014
 20
755.55306999999993
 11
27.752403500000014
 21
755.29998799999998
  0
LINE
  8
_0-0_0
  6
CONTINUOUS
 62
    7
 10
37.002403500000014
 20
759.965057
 11
27.752403500000014
 21
759.965057
  0
LINE
  8
_0-0_0
  6
CONTINUOUS
 62
    7
 10
37.252403500000014
 20
759.80474900000002
 11
37.122444500000029
 21
759.88861099999997
  0
LINE
  8
_0-0_0
  6
CONTINUOUS
 62
    7
 10
27.502403500000014
 20
759.80474900000002
 11
27.632377499999961
 21
759.88861099999997
  0
LINE
  8
_0-0_0
  6
CONTINUOUS
 62
    7
 10
27.632377499999961
 20
759.88861099999997
 11
27.752403500000014
 21
759.965057
  0
LINE
  8
_0-0_0
  6
CONTINUOUS
 62
    7
 10
37.002403500000014
 20
759.82254
 11
27.752403500000014
 21
759.82254
  0
LINE
  8
_0-0_0
  6
CONTINUOUS
 62
    7
 10
27.502403500000014
 20
759.68698100000006
 11
27.752403500000014
 21
759.82254
  0
LINE
  8
_0-0_0
  6
CONTINUOUS
 62
    7
 10
37.252403500000014
 20
759.80474900000002
 11
37.002403500000014
 21
760.08386199999995
  0
LINE
  8
_0-0_0
  6
CONTINUOUS
 62
    7
 10
37.002403500000014
 20
760.08386199999995
 11
27.752403500000014
 21
760.08386199999995
  0
LINE
  8
_0-0_0
  6
CONTINUOUS
 62
    7
 10
27.502403500000014
 20
759.80474900000002
 11
27.752403500000014
 21
760.08386199999995
  0
LINE
  8
_0-0_0
  6
CONTINUOUS
 62
    7
 10
37.252403500000014
 20
759.90054299999997
 11
37.002403500000014
 21
760.08386199999995
  0
LINE
  8
_0-0_0
  6
CONTINUOUS
 62
    7
 10
27.502403500000014
 20
759.90054299999997
 11
27.752403500000014
 21
760.08386199999995
  0
LINE
  8
_0-0_0
  6
CONTINUOUS
 62
    7
 10
37.252403500000014
 20
759.90054299999997
 11
37.002403500000014
 21
760.17764299999999
  0
LINE
  8
_0-0_0
  6
CONTINUOUS
 62
    7
 10
37.002403500000014
 20
760.17764299999999
 11
27.752403500000014
 21
760.17764299999999
  0
LINE
  8
_0-0_0
  6
CONTINUOUS
 62
    7
 10
27.502403500000014
 20
759.90054299999997
 11
27.752403500000014
 21
760.17764299999999
  0
LINE
  8
_0-0_0
  6
CONTINUOUS
 62
    7
 10
37.252403500000014
 20
759.97332800000004
 11
37.002403500000014
 21
760.17764299999999
  0
LINE
  8
_0-0_0
  6
CONTINUOUS
 62
    7
 10
27.502403500000014
 20
759.97332800000004
 11
27.752403500000014
 21
760.17764299999999
  0
LINE
  8
_0-0_0
  6
CONTINUOUS
 62
    7
 10
37.252403500000014
 20
759.97332800000004
 11
37.002403500000014
 21
760.245361
  0
LINE
  8
_0-0_0
  6
CONTINUOUS
 62
    7
 10
37.002403500000014
 20
760.245361
 11
27.752403500000014
 21
760.245361
  0
LINE
  8
_0-0_0
  6
CONTINUOUS
 62
    7
 10
27.502403500000014
 20
759.97332800000004
 11
27.752403500000014
 21
760.245361
  0
LINE
  8
_0-0_0
  6
CONTINUOUS
 62
    7
 10
37.252403500000014
 20
760.02227799999991
 11
37.002403500000014
 21
760.245361
  0
LINE
  8
_0-0_0
  6
CONTINUOUS
 62
    7
 10
27.502403500000014
 20
760.02227799999991
 11
27.752403500000014
 21
760.245361
  0
LINE
  8
_0-0_0
  6
CONTINUOUS
 62
    7
 10
37.252403500000014
 20
760.02227799999991
 11
37.002403500000014
 21
760.28628600000002
  0
LINE
  8
_0-0_0
  6
CONTINUOUS
 62
    7
 10
37.002403500000014
 20
760.28628600000002
 11
27.752403500000014
 21
760.28628600000002
  0
LINE
  8
_0-0_0
  6
CONTINUOUS
 62
    7
 10
27.502403500000014
 20
760.02227799999991
 11
27.752403500000014
 21
760.28628600000002
  0
LINE
  8
_0-0_0
  6
CONTINUOUS
 62
    7
 10
37.252403500000014
 20
760.04690600000004
 11
37.002403500000014
 21
760.28628600000002
  0
LINE
  8
_0-0_0
  6
CONTINUOUS
 62
    7
 10
27.502403500000014
 20
760.04690600000004
 11
27.752403500000014
 21
760.28628600000002
  0
LINE
  8
_0-0_0
  6
CONTINUOUS
 62
    7
 10
37.252403500000014
 20
760.04690600000004
 11
37.002403500000014
 21
760.29998799999998
  0
LINE
  8
_0-0_0
  6
CONTINUOUS
 62
    7
 10
37.002403500000014
 20
760.29998799999998
 11
27.752403500000014
 21
760.29998799999998
  0
LINE
  8
_0-0_0
  6
CONTINUOUS
 62
    7
 10
27.502403500000014
 20
760.04690600000004
 11
27.752403500000014
 21
760.29998799999998
  0
LINE
  8
_0-0_0
  6
CONTINUOUS
 62
    7
 10
37.252403500000014
 20
773.17456100000004
 11
37.002403500000014
 21
773.14999399999999
  0
LINE
  8
_0-0_0
  6
CONTINUOUS
 62
    7
 10
37.002403500000014
 20
773.14999399999999
 11
27.752403500000014
 21
773.14999399999999
  0
LINE
  8
_0-0_0
  6
CONTINUOUS
 62
    7
 10
27.502403500000014
 20
773.17456100000004
 11
27.752403500000014
 21
773.14999399999999
  0
LINE
  8
_0-0_0
  6
CONTINUOUS
 62
    7
 10
37.252403500000014
 20
776.14855999999997
 11
37.002403500000014
 21
776.42251599999997
  0
LINE
  8
_0-0_0
  6
CONTINUOUS
 62
    7
 10
37.252403500000014
 20
776.14855999999997
 11
37.002403500000014
 21
776.25784299999998
  0
LINE
  8
_0-0_0
  6
CONTINUOUS
 62
    7
 10
37.252403500000014
 20
775.99096699999996
 11
37.002403500000014
 21
776.25784299999998
  0
LINE
  8
_0-0_0
  6
CONTINUOUS
 62
    7
 10
37.252403500000014
 20
775.99096699999996
 11
37.002403500000014
 21
776.07281499999999
  0
LINE
  8
_0-0_0
  6
CONTINUOUS
 62
    7
 10
37.252403500000014
 20
775.81594900000005
 11
37.002403500000014
 21
776.07281499999999
  0
LINE
  8
_0-0_0
  6
CONTINUOUS
 62
    7
 10
37.252403500000014
 20
775.81594900000005
 11
37.002403500000014
 21
775.86944599999993
  0
LINE
  8
_0-0_0
  6
CONTINUOUS
 62
    7
 10
37.252403500000014
 20
775.62542699999995
 11
37.002403500000014
 21
775.86944599999993
  0
LINE
  8
_0-0_0
  6
CONTINUOUS
 62
    7
 10
37.252403500000014
 20
775.62542699999995
 11
37.002403500000014
 21
775.64999399999999
  0
LINE
  8
_0-0_0
  6
CONTINUOUS
 62
    7
 10
37.252403500000014
 20
775.42147799999998
 11
37.002403500000014
 21
775.64999399999999
  0
LINE
  8
_0-0_0
  6
CONTINUOUS
 62
    7
 10
37.252403500000014
 20
775.42147799999998
 11
37.002403500000014
 21
775.41683999999998
  0
LINE
  8
_0-0_0
  6
CONTINUOUS
 62
    7
 10
37.252403500000014
 20
775.20632899999998
 11
37.002403500000014
 21
775.41683999999998
  0
LINE
  8
_0-0_0
  6
CONTINUOUS
 62
    7
 10
37.252403500000014
 20
775.20632899999998
 11
37.002403500000014
 21
775.17251599999997
  0
LINE
  8
_0-0_0
  6
CONTINUOUS
 62
    7
 10
37.252403500000014
 20
774.98233000000005
 11
37.002403500000014
 21
775.17251599999997
  0
LINE
  8
_0-0_0
  6
CONTINUOUS
 62
    7
 10
37.252403500000014
 20
774.98233000000005
 11
37.002403500000014
 21
774.91976899999997
  0
LINE
  8
_0-0_0
  6
CONTINUOUS
 62
    7
 10
37.252403500000014
 20
774.75195299999996
 11
37.002403500000014
 21
774.91976899999997
  0
LINE
  8
_0-0_0
  6
CONTINUOUS
 62
    7
 10
37.252403500000014
 20
774.75195299999996
 11
37.002403500000014
 21
774.66131599999994
  0
LINE
  8
_0-0_0
  6
CONTINUOUS
 62
    7
 10
37.252403500000014
 20
774.51773099999991
 11
37.002403500000014
 21
774.66131599999994
  0
LINE
  8
_0-0_0
  6
CONTINUOUS
 62
    7
 10
37.252403500000014
 20
774.51773099999991
 11
37.002403500000014
 21
774.39999399999999
  0
LINE
  8
_0-0_0
  6
CONTINUOUS
 62
    7
 10
37.252403500000014
 20
774.28222699999992
 11
37.002403500000014
 21
774.39999399999999
  0
LINE
  8
_0-0_0
  6
CONTINUOUS
 62
    7
 10
37.252403500000014
 20
774.28222699999992
 11
37.002403500000014
 21
774.13867200000004
  0
LINE
  8
_0-0_0
  6
CONTINUOUS
 62
    7
 10
37.252403500000014
 20
774.04800399999999
 11
37.002403500000014
 21
774.13867200000004
  0
LINE
  8
_0-0_0
  6
CONTINUOUS
 62
    7
 10
37.252403500000014
 20
774.04800399999999
 11
37.002403500000014
 21
773.88021900000001
  0
LINE
  8
_0-0_0
  6
CONTINUOUS
 62
    7
 10
37.252403500000014
 20
773.81765799999994
 11
37.002403500000014
 21
773.88021900000001
  0
LINE
  8
_0-0_0
  6
CONTINUOUS
 62
    7
 10
37.252403500000014
 20
773.81765799999994
 11
37.002403500000014
 21
773.62744199999997
  0
LINE
  8
_0-0_0
  6
CONTINUOUS
 62
    7
 10
37.252403500000014
 20
773.593659
 11
37.002403500000014
 21
773.62744199999997
  0
LINE
  8
_0-0_0
  6
CONTINUOUS
 62
    7
 10
37.252403500000014
 20
773.593659
 11
37.002403500000014
 21
773.38314800000001
  0
LINE
  8
_0-0_0
  6
CONTINUOUS
 62
    7
 10
37.252403500000014
 20
773.37851000000001
 11
37.002403500000014
 21
773.38314800000001
  0
LINE
  8
_0-0_0
  6
CONTINUOUS
 62
    7
 10
37.252403500000014
 20
773.37851000000001
 11
37.002403500000014
 21
773.14999399999999
  0
LINE
  8
_0-0_0
  6
CONTINUOUS
 62
    7
 10
37.252403500000014
 20
773.17456100000004
 11
37.002403500000014
 21
772.93051199999991
  0
LINE
  8
_0-0_0
  6
CONTINUOUS
 62
    7
 10
37.252403500000014
 20
772.98400900000001
 11
37.002403500000014
 21
772.93051199999991
  0
LINE
  8
_0-0_0
  6
CONTINUOUS
 62
    7
 10
37.252403500000014
 20
772.98400900000001
 11
37.002403500000014
 21
772.72717299999999
  0
LINE
  8
_0-0_0
  6
CONTINUOUS
 62
    7
 10
37.252403500000014
 20
772.80899099999999
 11
37.002403500000014
 21
772.72717299999999
  0
LINE
  8
_0-0_0
  6
CONTINUOUS
 62
    7
 10
37.252403500000014
 20
772.80899099999999
 11
37.002403500000014
 21
772.54211399999997
  0
LINE
  8
_0-0_0
  6
CONTINUOUS
 62
    7
 10
37.252403500000014
 20
772.65139799999997
 11
37.002403500000014
 21
772.54211399999997
  0
LINE
  8
_0-0_0
  6
CONTINUOUS
 62
    7
 10
37.252403500000014
 20
772.65139799999997
 11
37.002403500000014
 21
772.37744199999997
  0
LINE
  8
_0-0_0
  6
CONTINUOUS
 62
    7
 10
37.252403500000014
 20
772.51297
 11
37.002403500000014
 21
772.37744199999997
  0
LINE
  8
_0-0_0
  6
CONTINUOUS
 62
    7
 10
37.252403500000014
 20
772.51297
 11
37.002403500000014
 21
772.23492399999998
  0
LINE
  8
_0-0_0
  6
CONTINUOUS
 62
    7
 10
37.252403500000014
 20
772.39523299999996
 11
37.002403500000014
 21
772.23492399999998
  0
LINE
  8
_0-0_0
  6
CONTINUOUS
 62
    7
 10
37.252403500000014
 20
772.39523299999996
 11
37.002403500000014
 21
772.11611900000003
  0
LINE
  8
_0-0_0
  6
CONTINUOUS
 62
    7
 10
37.252403500000014
 20
772.29943900000001
 11
37.002403500000014
 21
772.11611900000003
  0
LINE
  8
_0-0_0
  6
CONTINUOUS
 62
    7
 10
37.252403500000014
 20
772.29943900000001
 11
37.002403500000014
 21
772.02233899999999
  0
LINE
  8
_0-0_0
  6
CONTINUOUS
 62
    7
 10
37.252403500000014
 20
772.22665400000005
 11
37.002403500000014
 21
772.02233899999999
  0
LINE
  8
_0-0_0
  6
CONTINUOUS
 62
    7
 10
37.252403500000014
 20
772.22665400000005
 11
37.002403500000014
 21
771.95461999999998
  0
LINE
  8
_0-0_0
  6
CONTINUOUS
 62
    7
 10
37.252403500000014
 20
772.17767299999991
 11
37.002403500000014
 21
771.95461999999998
  0
LINE
  8
_0-0_0
  6
CONTINUOUS
 62
    7
 10
37.252403500000014
 20
772.17767299999991
 11
37.002403500000014
 21
771.91366599999992
  0
LINE
  8
_0-0_0
  6
CONTINUOUS
 62
    7
 10
37.252403500000014
 20
772.15307600000006
 11
37.002403500000014
 21
771.91366599999992
  0
LINE
  8
_0-0_0
  6
CONTINUOUS
 62
    7
 10
37.252403500000014
 20
772.15307600000006
 11
37.002403500000014
 21
771.89999399999999
  0
LINE
  8
_0-0_0
  6
CONTINUOUS
 62
    7
 10
37.502403500000014
 20
772.39999399999999
 11
37.502403500000014
 21
776.15515099999993
  0
LINE
  8
_0-0_0
  6
CONTINUOUS
 62
    7
 10
37.122444500000029
 20
776.48861699999998
 11
37.002403500000014
 21
776.56506400000001
  0
LINE
  8
_0-0_0
  6
CONTINUOUS
 62
    7
 10
37.252403500000014
 20
776.28698699999995
 11
37.002403500000014
 21
776.56506400000001
  0
LINE
  8
_0-0_0
  6
CONTINUOUS
 62
    7
 10
37.252403500000014
 20
776.28698699999995
 11
37.002403500000014
 21
776.42251599999997
  0
LINE
  8
_0-0_0
  6
CONTINUOUS
 62
    7
 10
37.002403500000014
 20
776.25784299999998
 11
27.752403500000014
 21
776.25784299999998
  0
LINE
  8
_0-0_0
  6
CONTINUOUS
 62
    7
 10
27.502403500000014
 20
776.14855999999997
 11
27.752403500000014
 21
776.25784299999998
  0
LINE
  8
_0-0_0
  6
CONTINUOUS
 62
    7
 10
37.002403500000014
 20
776.07281499999999
 11
27.752403500000014
 21
776.07281499999999
  0
LINE
  8
_0-0_0
  6
CONTINUOUS
 62
    7
 10
27.502403500000014
 20
775.99096699999996
 11
27.752403500000014
 21
776.07281499999999
  0
LINE
  8
_0-0_0
  6
CONTINUOUS
 62
    7
 10
37.002403500000014
 20
775.86944599999993
 11
27.752403500000014
 21
775.86944599999993
  0
LINE
  8
_0-0_0
  6
CONTINUOUS
 62
    7
 10
27.502403500000014
 20
775.81594900000005
 11
27.752403500000014
 21
775.86944599999993
  0
LINE
  8
_0-0_0
  6
CONTINUOUS
 62
    7
 10
37.002403500000014
 20
775.64999399999999
 11
27.752403500000014
 21
775.64999399999999
  0
LINE
  8
_0-0_0
  6
CONTINUOUS
 62
    7
 10
27.502403500000014
 20
775.62542699999995
 11
27.752403500000014
 21
775.64999399999999
  0
LINE
  8
_0-0_0
  6
CONTINUOUS
 62
    7
 10
37.002403500000014
 20
775.41683999999998
 11
27.752403500000014
 21
775.41683999999998
  0
LINE
  8
_0-0_0
  6
CONTINUOUS
 62
    7
 10
37.252403500000014
 20
775.42147799999998
 11
27.502403500000014
 21
775.42147799999998
  0
LINE
  8
_0-0_0
  6
CONTINUOUS
 62
    7
 10
27.502403500000014
 20
775.42147799999998
 11
27.752403500000014
 21
775.41683999999998
  0
LINE
  8
_0-0_0
  6
CONTINUOUS
 62
    7
 10
37.002403500000014
 20
775.17251599999997
 11
27.752403500000014
 21
775.17251599999997
  0
LINE
  8
_0-0_0
  6
CONTINUOUS
 62
    7
 10
37.252403500000014
 20
775.20632899999998
 11
27.502403500000014
 21
775.20632899999998
  0
LINE
  8
_0-0_0
  6
CONTINUOUS
 62
    7
 10
27.502403500000014
 20
775.20632899999998
 11
27.752403500000014
 21
775.17251599999997
  0
LINE
  8
_0-0_0
  6
CONTINUOUS
 62
    7
 10
37.002403500000014
 20
774.91976899999997
 11
27.752403500000014
 21
774.91976899999997
  0
LINE
  8
_0-0_0
  6
CONTINUOUS
 62
    7
 10
37.252403500000014
 20
774.98233000000005
 11
27.502403500000014
 21
774.98233000000005
  0
LINE
  8
_0-0_0
  6
CONTINUOUS
 62
    7
 10
27.502403500000014
 20
774.98233000000005
 11
27.752403500000014
 21
774.91976899999997
  0
LINE
  8
_0-0_0
  6
CONTINUOUS
 62
    7
 10
37.002403500000014
 20
774.66131599999994
 11
27.752403500000014
 21
774.66131599999994
  0
LINE
  8
_0-0_0
  6
CONTINUOUS
 62
    7
 10
37.252403500000014
 20
774.75195299999996
 11
27.502403500000014
 21
774.75195299999996
  0
LINE
  8
_0-0_0
  6
CONTINUOUS
 62
    7
 10
27.502403500000014
 20
774.75195299999996
 11
27.752403500000014
 21
774.66131599999994
  0
LINE
  8
_0-0_0
  6
CONTINUOUS
 62
    7
 10
37.002403500000014
 20
774.39999399999999
 11
27.752403500000014
 21
774.39999399999999
  0
LINE
  8
_0-0_0
  6
CONTINUOUS
 62
    7
 10
37.252403500000014
 20
774.51773099999991
 11
27.502403500000014
 21
774.51773099999991
  0
LINE
  8
_0-0_0
  6
CONTINUOUS
 62
    7
 10
27.502403500000014
 20
774.51773099999991
 11
27.752403500000014
 21
774.39999399999999
  0
LINE
  8
_0-0_0
  6
CONTINUOUS
 62
    7
 10
37.002403500000014
 20
774.13867200000004
 11
27.752403500000014
 21
774.13867200000004
  0
LINE
  8
_0-0_0
  6
CONTINUOUS
 62
    7
 10
37.252403500000014
 20
774.28222699999992
 11
27.502403500000014
 21
774.28222699999992
  0
LINE
  8
_0-0_0
  6
CONTINUOUS
 62
    7
 10
27.502403500000014
 20
774.28222699999992
 11
27.752403500000014
 21
774.13867200000004
  0
LINE
  8
_0-0_0
  6
CONTINUOUS
 62
    7
 10
37.002403500000014
 20
773.88021900000001
 11
27.752403500000014
 21
773.88021900000001
  0
LINE
  8
_0-0_0
  6
CONTINUOUS
 62
    7
 10
37.252403500000014
 20
774.04800399999999
 11
27.502403500000014
 21
774.04800399999999
  0
LINE
  8
_0-0_0
  6
CONTINUOUS
 62
    7
 10
27.502403500000014
 20
774.04800399999999
 11
27.752403500000014
 21
773.88021900000001
  0
LINE
  8
_0-0_0
  6
CONTINUOUS
 62
    7
 10
37.002403500000014
 20
773.62744199999997
 11
27.752403500000014
 21
773.62744199999997
  0
LINE
  8
_0-0_0
  6
CONTINUOUS
 62
    7
 10
37.252403500000014
 20
773.81765799999994
 11
27.502403500000014
 21
773.81765799999994
  0
LINE
  8
_0-0_0
  6
CONTINUOUS
 62
    7
 10
27.502403500000014
 20
773.81765799999994
 11
27.752403500000014
 21
773.62744199999997
  0
LINE
  8
_0-0_0
  6
CONTINUOUS
 62
    7
 10
37.002403500000014
 20
773.38314800000001
 11
27.752403500000014
 21
773.38314800000001
  0
LINE
  8
_0-0_0
  6
CONTINUOUS
 62
    7
 10
37.252403500000014
 20
773.593659
 11
27.502403500000014
 21
773.593659
  0
LINE
  8
_0-0_0
  6
CONTINUOUS
 62
    7
 10
27.502403500000014
 20
773.593659
 11
27.752403500000014
 21
773.38314800000001
  0
LINE
  8
_0-0_0
  6
CONTINUOUS
 62
    7
 10
37.002403500000014
 20
772.72717299999999
 11
27.752403500000014
 21
772.72717299999999
  0
LINE
  8
_0-0_0
  6
CONTINUOUS
 62
    7
 10
27.502403500000014
 20
772.98400900000001
 11
27.752403500000014
 21
772.72717299999999
  0
LINE
  8
_0-0_0
  6
CONTINUOUS
 62
    7
 10
37.002403500000014
 20
772.54211399999997
 11
27.752403500000014
 21
772.54211399999997
  0
LINE
  8
_0-0_0
  6
CONTINUOUS
 62
    7
 10
27.502403500000014
 20
772.80899099999999
 11
27.752403500000014
 21
772.54211399999997
  0
LINE
  8
_0-0_0
  6
CONTINUOUS
 62
    7
 10
37.002403500000014
 20
772.37744199999997
 11
27.752403500000014
 21
772.37744199999997
  0
LINE
  8
_0-0_0
  6
CONTINUOUS
 62
    7
 10
27.502403500000014
 20
772.65139799999997
 11
27.752403500000014
 21
772.37744199999997
  0
LINE
  8
_0-0_0
  6
CONTINUOUS
 62
    7
 10
37.002403500000014
 20
772.23492399999998
 11
27.752403500000014
 21
772.23492399999998
  0
LINE
  8
_0-0_0
  6
CONTINUOUS
 62
    7
 10
27.502403500000014
 20
772.51297
 11
27.752403500000014
 21
772.23492399999998
  0
LINE
  8
_0-0_0
  6
CONTINUOUS
 62
    7
 10
37.002403500000014
 20
772.11611900000003
 11
27.752403500000014
 21
772.11611900000003
  0
LINE
  8
_0-0_0
  6
CONTINUOUS
 62
    7
 10
27.502403500000014
 20
772.39523299999996
 11
27.752403500000014
 21
772.11611900000003
  0
LINE
  8
_0-0_0
  6
CONTINUOUS
 62
    7
 10
37.002403500000014
 20
772.02233899999999
 11
27.752403500000014
 21
772.02233899999999
  0
LINE
  8
_0-0_0
  6
CONTINUOUS
 62
    7
 10
27.502403500000014
 20
772.29943900000001
 11
27.752403500000014
 21
772.02233899999999
  0
LINE
  8
_0-0_0
  6
CONTINUOUS
 62
    7
 10
37.002403500000014
 20
771.95461999999998
 11
27.752403500000014
 21
771.95461999999998
  0
LINE
  8
_0-0_0
  6
CONTINUOUS
 62
    7
 10
27.502403500000014
 20
772.22665400000005
 11
27.752403500000014
 21
771.95461999999998
  0
LINE
  8
_0-0_0
  6
CONTINUOUS
 62
    7
 10
37.002403500000014
 20
771.91366599999992
 11
27.752403500000014
 21
771.91366599999992
  0
LINE
  8
_0-0_0
  6
CONTINUOUS
 62
    7
 10
27.502403500000014
 20
772.17767299999991
 11
27.752403500000014
 21
771.91366599999992
  0
LINE
  8
_0-0_0
  6
CONTINUOUS
 62
    7
 10
37.002403500000014
 20
771.89999399999999
 11
27.752403500000014
 21
771.89999399999999
  0
LINE
  8
_0-0_0
  6
CONTINUOUS
 62
    7
 10
27.502403500000014
 20
772.15307600000006
 11
27.752403500000014
 21
771.89999399999999
  0
LINE
  8
_0-0_0
  6
CONTINUOUS
 62
    7
 10
37.002403500000014
 20
776.56506400000001
 11
27.752403500000014
 21
776.56506400000001
  0
LINE
  8
_0-0_0
  6
CONTINUOUS
 62
    7
 10
37.252403500000014
 20
776.40475500000002
 11
37.122444500000029
 21
776.48861699999998
  0
LINE
  8
_0-0_0
  6
CONTINUOUS
 62
    7
 10
27.502403500000014
 20
776.40475500000002
 11
27.632377499999961
 21
776.48861699999998
  0
LINE
  8
_0-0_0
  6
CONTINUOUS
 62
    7
 10
27.632377499999961
 20
776.48861699999998
 11
27.752403500000014
 21
776.56506400000001
  0
LINE
  8
_0-0_0
  6
CONTINUOUS
 62
    7
 10
37.002403500000014
 20
776.42251599999997
 11
27.752403500000014
 21
776.42251599999997
  0
LINE
  8
_0-0_0
  6
CONTINUOUS
 62
    7
 10
27.502403500000014
 20
776.28698699999995
 11
27.752403500000014
 21
776.42251599999997
  0
LINE
  8
_0-0_0
  6
CONTINUOUS
 62
    7
 10
37.252403500000014
 20
776.40475500000002
 11
37.002403500000014
 21
776.68383799999992
  0
LINE
  8
_0-0_0
  6
CONTINUOUS
 62
    7
 10
37.002403500000014
 20
776.68383799999992
 11
27.752403500000014
 21
776.68383799999992
  0
LINE
  8
_0-0_0
  6
CONTINUOUS
 62
    7
 10
27.502403500000014
 20
776.40475500000002
 11
27.752403500000014
 21
776.68383799999992
  0
LINE
  8
_0-0_0
  6
CONTINUOUS
 62
    7
 10
37.252403500000014
 20
776.50054899999998
 11
37.002403500000014
 21
776.68383799999992
  0
LINE
  8
_0-0_0
  6
CONTINUOUS
 62
    7
 10
27.502403500000014
 20
776.50054899999998
 11
27.752403500000014
 21
776.68383799999992
  0
LINE
  8
_0-0_0
  6
CONTINUOUS
 62
    7
 10
37.252403500000014
 20
776.50054899999998
 11
37.002403500000014
 21
776.77761899999996
  0
LINE
  8
_0-0_0
  6
CONTINUOUS
 62
    7
 10
37.002403500000014
 20
776.77761899999996
 11
27.752403500000014
 21
776.77761899999996
  0
LINE
  8
_0-0_0
  6
CONTINUOUS
 62
    7
 10
27.502403500000014
 20
776.50054899999998
 11
27.752403500000014
 21
776.77761899999996
  0
LINE
  8
_0-0_0
  6
CONTINUOUS
 62
    7
 10
37.252403500000014
 20
776.57333399999993
 11
37.002403500000014
 21
776.77761899999996
  0
LINE
  8
_0-0_0
  6
CONTINUOUS
 62
    7
 10
27.502403500000014
 20
776.57333399999993
 11
27.752403500000014
 21
776.77761899999996
  0
LINE
  8
_0-0_0
  6
CONTINUOUS
 62
    7
 10
37.252403500000014
 20
776.57333399999993
 11
37.002403500000014
 21
776.84536800000001
  0
LINE
  8
_0-0_0
  6
CONTINUOUS
 62
    7
 10
37.002403500000014
 20
776.84536800000001
 11
27.752403500000014
 21
776.84536800000001
  0
LINE
  8
_0-0_0
  6
CONTINUOUS
 62
    7
 10
27.502403500000014
 20
776.57333399999993
 11
27.752403500000014
 21
776.84536800000001
  0
LINE
  8
_0-0_0
  6
CONTINUOUS
 62
    7
 10
37.252403500000014
 20
776.62228400000004
 11
37.002403500000014
 21
776.84536800000001
  0
LINE
  8
_0-0_0
  6
CONTINUOUS
 62
    7
 10
27.502403500000014
 20
776.62228400000004
 11
27.752403500000014
 21
776.84536800000001
  0
LINE
  8
_0-0_0
  6
CONTINUOUS
 62
    7
 10
37.252403500000014
 20
776.62228400000004
 11
37.002403500000014
 21
776.88629199999991
  0
LINE
  8
_0-0_0
  6
CONTINUOUS
 62
    7
 10
37.002403500000014
 20
776.88629199999991
 11
27.752403500000014
 21
776.88629199999991
  0
LINE
  8
_0-0_0
  6
CONTINUOUS
 62
    7
 10
27.502403500000014
 20
776.62228400000004
 11
27.752403500000014
 21
776.88629199999991
  0
LINE
  8
_0-0_0
  6
CONTINUOUS
 62
    7
 10
37.252403500000014
 20
776.64691199999993
 11
37.002403500000014
 21
776.88629199999991
  0
LINE
  8
_0-0_0
  6
CONTINUOUS
 62
    7
 10
27.502403500000014
 20
776.64691199999993
 11
27.752403500000014
 21
776.88629199999991
  0
LINE
  8
_0-0_0
  6
CONTINUOUS
 62
    7
 10
37.252403500000014
 20
776.64691199999993
 11
37.002403500000014
 21
776.89999399999999
  0
LINE
  8
_0-0_0
  6
CONTINUOUS
 62
    7
 10
37.002403500000014
 20
776.89999399999999
 11
27.752403500000014
 21
776.89999399999999
  0
LINE
  8
_0-0_0
  6
CONTINUOUS
 62
    7
 10
27.502403500000014
 20
776.64691199999993
 11
27.752403500000014
 21
776.89999399999999
  0
LINE
  8
_0-0_0
  6
CONTINUOUS
 62
    7
 10
82.702407500000049
 20
762.09997599999997
 11
82.702407500000049
 21
762.10134900000003
  0
LINE
  8
_0-0_0
  6
CONTINUOUS
 62
    7
 10
82.702407500000049
 20
762.10134900000003
 11
82.702407500000049
 21
770.09997599999997
  0
LINE
  8
_0-0_0
  6
CONTINUOUS
 62
    7
 10
27.502403500000014
 20
776.28698699999995
 11
27.752403500000014
 21
776.56506400000001
  0
LINE
  8
_0-0_0
  6
CONTINUOUS
 62
    7
 10
37.502403500000014
 20
776.15515099999993
 11
37.502403500000014
 21
776.39999399999999
  0
LINE
  8
_0-0_0
  6
CONTINUOUS
 62
    7
 10
27.502403500000014
 20
772.15307600000006
 11
27.752403500000014
 21
771.91366599999992
  0
LINE
  8
_0-0_0
  6
CONTINUOUS
 62
    7
 10
27.502403500000014
 20
772.17767299999991
 11
27.752403500000014
 21
771.95461999999998
  0
LINE
  8
_0-0_0
  6
CONTINUOUS
 62
    7
 10
27.502403500000014
 20
772.22665400000005
 11
27.752403500000014
 21
772.02233899999999
  0
LINE
  8
_0-0_0
  6
CONTINUOUS
 62
    7
 10
27.502403500000014
 20
772.29943900000001
 11
27.752403500000014
 21
772.11611900000003
  0
LINE
  8
_0-0_0
  6
CONTINUOUS
 62
    7
 10
27.502403500000014
 20
772.39523299999996
 11
27.752403500000014
 21
772.23492399999998
  0
LINE
  8
_0-0_0
  6
CONTINUOUS
 62
    7
 10
27.502403500000014
 20
772.51297
 11
27.752403500000014
 21
772.37744199999997
  0
LINE
  8
_0-0_0
  6
CONTINUOUS
 62
    7
 10
27.502403500000014
 20
772.65139799999997
 11
27.752403500000014
 21
772.54211399999997
  0
LINE
  8
_0-0_0
  6
CONTINUOUS
 62
    7
 10
27.502403500000014
 20
772.80899099999999
 11
27.752403500000014
 21
772.72717299999999
  0
LINE
  8
_0-0_0
  6
CONTINUOUS
 62
    7
 10
37.002403500000014
 20
772.93051199999991
 11
27.752403500000014
 21
772.93051199999991
  0
LINE
  8
_0-0_0
  6
CONTINUOUS
 62
    7
 10
27.502403500000014
 20
772.98400900000001
 11
27.752403500000014
 21
772.93051199999991
  0
LINE
  8
_0-0_0
  6
CONTINUOUS
 62
    7
 10
27.502403500000014
 20
773.37851000000001
 11
27.752403500000014
 21
773.38314800000001
  0
LINE
  8
_0-0_0
  6
CONTINUOUS
 62
    7
 10
37.252403500000014
 20
773.37851000000001
 11
27.502403500000014
 21
773.37851000000001
  0
LINE
  8
_0-0_0
  6
CONTINUOUS
 62
    7
 10
27.502403500000014
 20
773.593659
 11
27.752403500000014
 21
773.62744199999997
  0
LINE
  8
_0-0_0
  6
CONTINUOUS
 62
    7
 10
27.502403500000014
 20
773.81765799999994
 11
27.752403500000014
 21
773.88021900000001
  0
LINE
  8
_0-0_0
  6
CONTINUOUS
 62
    7
 10
27.502403500000014
 20
774.04800399999999
 11
27.752403500000014
 21
774.13867200000004
  0
LINE
  8
_0-0_0
  6
CONTINUOUS
 62
    7
 10
27.502403500000014
 20
774.28222699999992
 11
27.752403500000014
 21
774.39999399999999
  0
LINE
  8
_0-0_0
  6
CONTINUOUS
 62
    7
 10
27.502403500000014
 20
774.51773099999991
 11
27.752403500000014
 21
774.66131599999994
  0
LINE
  8
_0-0_0
  6
CONTINUOUS
 62
    7
 10
27.502403500000014
 20
774.75195299999996
 11
27.752403500000014
 21
774.91976899999997
  0
LINE
  8
_0-0_0
  6
CONTINUOUS
 62
    7
 10
27.502403500000014
 20
774.98233000000005
 11
27.752403500000014
 21
775.17251599999997
  0
LINE
  8
_0-0_0
  6
CONTINUOUS
 62
    7
 10
27.502403500000014
 20
775.20632899999998
 11
27.752403500000014
 21
775.41683999999998
  0
LINE
  8
_0-0_0
  6
CONTINUOUS
 62
    7
 10
27.502403500000014
 20
775.42147799999998
 11
27.752403500000014
 21
775.64999399999999
  0
LINE
  8
_0-0_0
  6
CONTINUOUS
 62
    7
 10
27.502403500000014
 20
775.62542699999995
 11
27.752403500000014
 21
775.86944599999993
  0
LINE
  8
_0-0_0
  6
CONTINUOUS
 62
    7
 10
27.502403500000014
 20
775.81594900000005
 11
27.752403500000014
 21
776.07281499999999
  0
LINE
  8
_0-0_0
  6
CONTINUOUS
 62
    7
 10
27.502403500000014
 20
775.99096699999996
 11
27.752403500000014
 21
776.25784299999998
  0
LINE
  8
_0-0_0
  6
CONTINUOUS
 62
    7
 10
27.502403500000014
 20
776.14855999999997
 11
27.752403500000014
 21
776.42251599999997
  0
LINE
  8
_0-0_0
  6
CONTINUOUS
 62
    7
 10
27.502403500000014
 20
773.17456100000004
 11
27.752403500000014
 21
772.93051199999991
  0
LINE
  8
_0-0_0
  6
CONTINUOUS
 62
    7
 10
27.502403500000014
 20
773.37851000000001
 11
27.752403500000014
 21
773.14999399999999
  0
LINE
  8
_0-0_0
  6
CONTINUOUS
 62
    7
 10
27.502403500000014
 20
759.68698100000006
 11
27.752403500000014
 21
759.965057
  0
LINE
  8
_0-0_0
  6
CONTINUOUS
 62
    7
 10
37.502403500000014
 20
759.55514500000004
 11
37.502403500000014
 21
759.79998799999998
  0
LINE
  8
_0-0_0
  6
CONTINUOUS
 62
    7
 10
27.502403500000014
 20
755.55306999999993
 11
27.752403500000014
 21
755.31368999999995
  0
LINE
  8
_0-0_0
  6
CONTINUOUS
 62
    7
 10
27.502403500000014
 20
755.57769800000005
 11
27.752403500000014
 21
755.35461399999997
  0
LINE
  8
_0-0_0
  6
CONTINUOUS
 62
    7
 10
27.502403500000014
 20
755.62664799999993
 11
27.752403500000014
 21
755.42233299999998
  0
LINE
  8
_0-0_0
  6
CONTINUOUS
 62
    7
 10
27.502403500000014
 20
755.699432
 11
27.752403500000014
 21
755.51611300000002
  0
LINE
  8
_0-0_0
  6
CONTINUOUS
 62
    7
 10
27.502403500000014
 20
755.79522700000007
 11
27.752403500000014
 21
755.63491799999997
  0
LINE
  8
_0-0_0
  6
CONTINUOUS
 62
    7
 10
27.502403500000014
 20
755.91299400000003
 11
27.752403500000014
 21
755.77743499999997
  0
LINE
  8
_0-0_0
  6
CONTINUOUS
 62
    7
 10
27.502403500000014
 20
756.051422
 11
27.752403500000014
 21
755.94210799999996
  0
LINE
  8
_0-0_0
  6
CONTINUOUS
 62
    7
 10
27.502403500000014
 20
756.20898399999999
 11
27.752403500000014
 21
756.12716699999999
  0
LINE
  8
_0-0_0
  6
CONTINUOUS
 62
    7
 10
37.002403500000014
 20
756.33053599999994
 11
27.752403500000014
 21
756.33053599999994
  0
LINE
  8
_0-0_0
  6
CONTINUOUS
 62
    7
 10
27.502403500000014
 20
756.38400300000001
 11
27.752403500000014
 21
756.33053599999994
  0
LINE
  8
_0-0_0
  6
CONTINUOUS
 62
    7
 10
27.502403500000014
 20
756.778504
 11
27.752403500000014
 21
756.783142
  0
LINE
  8
_0-0_0
  6
CONTINUOUS
 62
    7
 10
37.252403500000014
 20
756.778504
 11
27.502403500000014
 21
756.778504
  0
LINE
  8
_0-0_0
  6
CONTINUOUS
 62
    7
 10
27.502403500000014
 20
756.993652
 11
27.752403500000014
 21
757.02743499999997
  0
LINE
  8
_0-0_0
  6
CONTINUOUS
 62
    7
 10
27.502403500000014
 20
757.21765099999993
 11
27.752403500000014
 21
757.280213
  0
LINE
  8
_0-0_0
  6
CONTINUOUS
 62
    7
 10
27.502403500000014
 20
757.44799799999998
 11
27.752403500000014
 21
757.53866599999992
  0
LINE
  8
_0-0_0
  6
CONTINUOUS
 62
    7
 10
27.502403500000014
 20
757.68222100000003
 11
27.752403500000014
 21
757.79998799999998
  0
LINE
  8
_0-0_0
  6
CONTINUOUS
 62
    7
 10
27.502403500000014
 20
757.91775499999994
 11
27.752403500000014
 21
758.06131000000005
  0
LINE
  8
_0-0_0
  6
CONTINUOUS
 62
    7
 10
27.502403500000014
 20
758.15197799999999
 11
27.752403500000014
 21
758.31976299999997
  0
LINE
  8
_0-0_0
  6
CONTINUOUS
 62
    7
 10
27.502403500000014
 20
758.38232399999993
 11
27.752403500000014
 21
758.57254
  0
LINE
  8
_0-0_0
  6
CONTINUOUS
 62
    7
 10
27.502403500000014
 20
758.60632299999997
 11
27.752403500000014
 21
758.81683399999997
  0
LINE
  8
_0-0_0
  6
CONTINUOUS
 62
    7
 10
27.502403500000014
 20
758.82147199999997
 11
27.752403500000014
 21
759.04998799999998
  0
LINE
  8
_0-0_0
  6
CONTINUOUS
 62
    7
 10
27.502403500000014
 20
759.02542100000005
 11
27.752403500000014
 21
759.26944000000003
  0
LINE
  8
_0-0_0
  6
CONTINUOUS
 62
    7
 10
27.502403500000014
 20
759.21597300000008
 11
27.752403500000014
 21
759.47280899999998
  0
LINE
  8
_0-0_0
  6
CONTINUOUS
 62
    7
 10
27.502403500000014
 20
759.39096100000006
 11
27.752403500000014
 21
759.65783699999997
  0
LINE
  8
_0-0_0
  6
CONTINUOUS
 62
    7
 10
27.502403500000014
 20
759.54855399999997
 11
27.752403500000014
 21
759.82254
  0
LINE
  8
_0-0_0
  6
CONTINUOUS
 62
    7
 10
27.502403500000014
 20
756.57455499999992
 11
27.752403500000014
 21
756.33053599999994
  0
LINE
  8
_0-0_0
  6
CONTINUOUS
 62
    7
 10
27.502403500000014
 20
756.778504
 11
27.752403500000014
 21
756.54998799999998
  0
LINE
  8
_0-0_0
  6
CONTINUOUS
 62
    7
 10
24.702407500000049
 20
761.56185899999991
 11
24.702407500000049
 21
763.83093299999996
  0
LINE
  8
_0-0_0
  6
CONTINUOUS
 62
    7
 10
24.702407500000049
 20
763.83093299999996
 11
24.702407500000049
 21
770.63809199999992
  0
LINE
  8
_0-0_0
  6
CONTINUOUS
 62
    7
 10
27.502403500000014
 20
773.37851000000001
 11
27.502403500000014
 21
773.593659
  0
LINE
  8
_0-0_0
  6
CONTINUOUS
 62
    7
 10
27.502403500000014
 20
773.593659
 11
27.502403500000014
 21
773.81765799999994
  0
LINE
  8
_0-0_0
  6
CONTINUOUS
 62
    7
 10
27.502403500000014
 20
773.81765799999994
 11
27.502403500000014
 21
774.04800399999999
  0
LINE
  8
_0-0_0
  6
CONTINUOUS
 62
    7
 10
27.502403500000014
 20
774.04800399999999
 11
27.502403500000014
 21
774.28222699999992
  0
LINE
  8
_0-0_0
  6
CONTINUOUS
 62
    7
 10
27.502403500000014
 20
774.28222699999992
 11
27.502403500000014
 21
774.51773099999991
  0
LINE
  8
_0-0_0
  6
CONTINUOUS
 62
    7
 10
27.502403500000014
 20
774.51773099999991
 11
27.502403500000014
 21
774.75195299999996
  0
LINE
  8
_0-0_0
  6
CONTINUOUS
 62
    7
 10
27.502403500000014
 20
774.75195299999996
 11
27.502403500000014
 21
774.98233000000005
  0
LINE
  8
_0-0_0
  6
CONTINUOUS
 62
    7
 10
27.502403500000014
 20
774.98233000000005
 11
27.502403500000014
 21
775.20632899999998
  0
LINE
  8
_0-0_0
  6
CONTINUOUS
 62
    7
 10
27.502403500000014
 20
775.20632899999998
 11
27.502403500000014
 21
775.42147799999998
  0
LINE
  8
_0-0_0
  6
CONTINUOUS
 62
    7
 10
27.502403500000014
 20
775.42147799999998
 11
27.502403500000014
 21
775.62542699999995
  0
LINE
  8
_0-0_0
  6
CONTINUOUS
 62
    7
 10
27.502403500000014
 20
775.62542699999995
 11
27.502403500000014
 21
775.81594900000005
  0
LINE
  8
_0-0_0
  6
CONTINUOUS
 62
    7
 10
27.502403500000014
 20
775.81594900000005
 11
27.502403500000014
 21
775.99096699999996
  0
LINE
  8
_0-0_0
  6
CONTINUOUS
 62
    7
 10
27.502403500000014
 20
775.99096699999996
 11
27.502403500000014
 21
776.14855999999997
  0
LINE
  8
_0-0_0
  6
CONTINUOUS
 62
    7
 10
27.502403500000014
 20
776.14855999999997
 11
27.502403500000014
 21
776.28698699999995
  0
LINE
  8
_0-0_0
  6
CONTINUOUS
 62
    7
 10
27.502403500000014
 20
776.28698699999995
 11
27.502403500000014
 21
776.37454200000002
  0
LINE
  8
_0-0_0
  6
CONTINUOUS
 62
    7
 10
27.502403500000014
 20
776.37454200000002
 11
27.502403500000014
 21
776.40475500000002
  0
LINE
  8
_0-0_0
  6
CONTINUOUS
 62
    7
 10
27.502403500000014
 20
776.40475500000002
 11
27.502403500000014
 21
776.50054899999998
  0
LINE
  8
_0-0_0
  6
CONTINUOUS
 62
    7
 10
27.502403500000014
 20
776.50054899999998
 11
27.502403500000014
 21
776.57333399999993
  0
LINE
  8
_0-0_0
  6
CONTINUOUS
 62
    7
 10
27.502403500000014
 20
776.57333399999993
 11
27.502403500000014
 21
776.62228400000004
  0
LINE
  8
_0-0_0
  6
CONTINUOUS
 62
    7
 10
27.502403500000014
 20
776.62228400000004
 11
27.502403500000014
 21
776.64999399999999
  0
LINE
  8
_0-0_0
  6
CONTINUOUS
 62
    7
 10
27.502403500000014
 20
776.64691199999993
 11
27.502403500000014
 21
776.64999399999999
  0
LINE
  8
_0-0_0
  6
CONTINUOUS
 62
    7
 10
27.502403500000014
 20
772.14999399999999
 11
27.502403500000014
 21
772.15307600000006
  0
LINE
  8
_0-0_0
  6
CONTINUOUS
 62
    7
 10
27.502403500000014
 20
772.15307600000006
 11
27.502403500000014
 21
772.17767299999991
  0
LINE
  8
_0-0_0
  6
CONTINUOUS
 62
    7
 10
27.502403500000014
 20
772.17767299999991
 11
27.502403500000014
 21
772.22665400000005
  0
LINE
  8
_0-0_0
  6
CONTINUOUS
 62
    7
 10
27.502403500000014
 20
772.14999399999999
 11
27.502403500000014
 21
772.29943900000001
  0
LINE
  8
_0-0_0
  6
CONTINUOUS
 62
    7
 10
27.502403500000014
 20
772.29943900000001
 11
27.502403500000014
 21
772.39523299999996
  0
LINE
  8
_0-0_0
  6
CONTINUOUS
 62
    7
 10
27.502403500000014
 20
772.39523299999996
 11
27.502403500000014
 21
772.51297
  0
LINE
  8
_0-0_0
  6
CONTINUOUS
 62
    7
 10
27.502403500000014
 20
772.51297
 11
27.502403500000014
 21
772.65139799999997
  0
LINE
  8
_0-0_0
  6
CONTINUOUS
 62
    7
 10
27.502403500000014
 20
772.65139799999997
 11
27.502403500000014
 21
772.80899099999999
  0
LINE
  8
_0-0_0
  6
CONTINUOUS
 62
    7
 10
27.502403500000014
 20
772.80899099999999
 11
27.502403500000014
 21
772.98400900000001
  0
LINE
  8
_0-0_0
  6
CONTINUOUS
 62
    7
 10
27.502403500000014
 20
772.98400900000001
 11
27.502403500000014
 21
773.17456100000004
  0
LINE
  8
_0-0_0
  6
CONTINUOUS
 62
    7
 10
27.502403500000014
 20
773.32128899999998
 11
27.502403500000014
 21
773.37851000000001
  0
LINE
  8
_0-0_0
  6
CONTINUOUS
 62
    7
 10
27.502403500000014
 20
773.17456100000004
 11
27.502403500000014
 21
773.32128899999998
  0
LINE
  8
_0-0_0
  6
CONTINUOUS
 62
    7
 10
27.502403500000014
 20
756.778504
 11
27.502403500000014
 21
756.993652
  0
LINE
  8
_0-0_0
  6
CONTINUOUS
 62
    7
 10
27.502403500000014
 20
756.993652
 11
27.502403500000014
 21
757.21765099999993
  0
LINE
  8
_0-0_0
  6
CONTINUOUS
 62
    7
 10
27.502403500000014
 20
757.21765099999993
 11
27.502403500000014
 21
757.44799799999998
  0
LINE
  8
_0-0_0
  6
CONTINUOUS
 62
    7
 10
27.502403500000014
 20
757.44799799999998
 11
27.502403500000014
 21
757.68222100000003
  0
LINE
  8
_0-0_0
  6
CONTINUOUS
 62
    7
 10
27.502403500000014
 20
757.68222100000003
 11
27.502403500000014
 21
757.91775499999994
  0
LINE
  8
_0-0_0
  6
CONTINUOUS
 62
    7
 10
27.502403500000014
 20
757.91775499999994
 11
27.502403500000014
 21
758.15197799999999
  0
LINE
  8
_0-0_0
  6
CONTINUOUS
 62
    7
 10
27.502403500000014
 20
758.15197799999999
 11
27.502403500000014
 21
758.38232399999993
  0
LINE
  8
_0-0_0
  6
CONTINUOUS
 62
    7
 10
27.502403500000014
 20
758.38232399999993
 11
27.502403500000014
 21
758.60632299999997
  0
LINE
  8
_0-0_0
  6
CONTINUOUS
 62
    7
 10
27.502403500000014
 20
758.60632299999997
 11
27.502403500000014
 21
758.82147199999997
  0
LINE
  8
_0-0_0
  6
CONTINUOUS
 62
    7
 10
27.502403500000014
 20
758.82147199999997
 11
27.502403500000014
 21
759.02542100000005
  0
LINE
  8
_0-0_0
  6
CONTINUOUS
 62
    7
 10
27.502403500000014
 20
759.02542100000005
 11
27.502403500000014
 21
759.21597300000008
  0
LINE
  8
_0-0_0
  6
CONTINUOUS
 62
    7
 10
27.502403500000014
 20
759.21597300000008
 11
27.502403500000014
 21
759.39096100000006
  0
LINE
  8
_0-0_0
  6
CONTINUOUS
 62
    7
 10
27.502403500000014
 20
759.39096100000006
 11
27.502403500000014
 21
759.54855399999997
  0
LINE
  8
_0-0_0
  6
CONTINUOUS
 62
    7
 10
27.502403500000014
 20
759.54855399999997
 11
27.502403500000014
 21
759.68698100000006
  0
LINE
  8
_0-0_0
  6
CONTINUOUS
 62
    7
 10
27.502403500000014
 20
759.68698100000006
 11
27.502403500000014
 21
759.77453600000001
  0
LINE
  8
_0-0_0
  6
CONTINUOUS
 62
    7
 10
27.502403500000014
 20
759.77453600000001
 11
27.502403500000014
 21
759.80474900000002
  0
LINE
  8
_0-0_0
  6
CONTINUOUS
 62
    7
 10
27.502403500000014
 20
759.80474900000002
 11
27.502403500000014
 21
759.90054299999997
  0
LINE
  8
_0-0_0
  6
CONTINUOUS
 62
    7
 10
27.502403500000014
 20
759.90054299999997
 11
27.502403500000014
 21
759.97332800000004
  0
LINE
  8
_0-0_0
  6
CONTINUOUS
 62
    7
 10
27.502403500000014
 20
759.97332800000004
 11
27.502403500000014
 21
760.02227799999991
  0
LINE
  8
_0-0_0
  6
CONTINUOUS
 62
    7
 10
27.502403500000014
 20
760.02227799999991
 11
27.502403500000014
 21
760.04998799999998
  0
LINE
  8
_0-0_0
  6
CONTINUOUS
 62
    7
 10
27.502403500000014
 20
760.04690600000004
 11
27.502403500000014
 21
760.04998799999998
  0
LINE
  8
_0-0_0
  6
CONTINUOUS
 62
    7
 10
27.502403500000014
 20
755.54998799999998
 11
27.502403500000014
 21
755.55306999999993
  0
LINE
  8
_0-0_0
  6
CONTINUOUS
 62
    7
 10
27.502403500000014
 20
755.55306999999993
 11
27.502403500000014
 21
755.57769800000005
  0
LINE
  8
_0-0_0
  6
CONTINUOUS
 62
    7
 10
27.502403500000014
 20
755.57769800000005
 11
27.502403500000014
 21
755.62664799999993
  0
LINE
  8
_0-0_0
  6
CONTINUOUS
 62
    7
 10
27.502403500000014
 20
755.62664799999993
 11
27.502403500000014
 21
755.699432
  0
LINE
  8
_0-0_0
  6
CONTINUOUS
 62
    7
 10
27.502403500000014
 20
755.54998799999998
 11
27.502403500000014
 21
755.79522700000007
  0
LINE
  8
_0-0_0
  6
CONTINUOUS
 62
    7
 10
27.502403500000014
 20
755.79522700000007
 11
27.502403500000014
 21
755.91299400000003
  0
LINE
  8
_0-0_0
  6
CONTINUOUS
 62
    7
 10
27.502403500000014
 20
755.91299400000003
 11
27.502403500000014
 21
756.051422
  0
LINE
  8
_0-0_0
  6
CONTINUOUS
 62
    7
 10
27.502403500000014
 20
756.051422
 11
27.502403500000014
 21
756.20898399999999
  0
LINE
  8
_0-0_0
  6
CONTINUOUS
 62
    7
 10
27.502403500000014
 20
756.20898399999999
 11
27.502403500000014
 21
756.38400300000001
  0
LINE
  8
_0-0_0
  6
CONTINUOUS
 62
    7
 10
27.502403500000014
 20
756.38400300000001
 11
27.502403500000014
 21
756.57455499999992
  0
LINE
  8
_0-0_0
  6
CONTINUOUS
 62
    7
 10
27.502403500000014
 20
756.72128299999997
 11
27.502403500000014
 21
756.778504
  0
LINE
  8
_0-0_0
  6
CONTINUOUS
 62
    7
 10
27.502403500000014
 20
756.57455499999992
 11
27.502403500000014
 21
756.72128299999997
  0
LINE
  8
_0-0_0
  6
CONTINUOUS
 62
    7
 10
23.902404499999989
 20
763.59997599999997
 11
23.902404499999989
 21
771.09997599999997
  0
LINE
  8
_0-0_0
  6
CONTINUOUS
 62
    7
 10
23.902404499999989
 20
761.09997599999997
 11
23.902404499999989
 21
763.59997599999997
  0
LINE
  8
_0-0_0
  6
CONTINUOUS
 62
    7
 10
12.502410499999996
 20
772.59997599999997
 11
22.210235499999953
 21
772.59997599999997
  0
LINE
  8
_0-0_0
  6
CONTINUOUS
 62
    7
 10
22.252410499999996
 20
772.59997599999997
 11
22.210235499999953
 21
772.59997599999997
  0
LINE
  8
_0-0_0
  6
CONTINUOUS
 62
    7
 10
12.202407500000049
 20
763.88797
 11
12.261215500000048
 21
763.64111300000002
  0
LINE
  8
_0-0_0
  6
CONTINUOUS
 62
    7
 10
12.261215500000048
 20
763.64111300000002
 11
12.310974500000043
 21
763.44879199999991
  0
LINE
  8
_0-0_0
  6
CONTINUOUS
 62
    7
 10
12.310974500000043
 20
763.44879199999991
 11
12.382095499999991
 21
763.18304499999999
  0
LINE
  8
_0-0_0
  6
CONTINUOUS
 62
    7
 10
12.382095499999991
 20
763.18304499999999
 11
12.415054499999997
 21
763.05633599999999
  0
LINE
  8
_0-0_0
  6
CONTINUOUS
 62
    7
 10
12.415054499999997
 20
763.05633599999999
 11
12.440307500000017
 21
762.95291099999997
  0
LINE
  8
_0-0_0
  6
CONTINUOUS
 62
    7
 10
12.440307500000017
 20
762.95291099999997
 11
12.46234149999998
 21
762.852936
  0
LINE
  8
_0-0_0
  6
CONTINUOUS
 62
    7
 10
12.46234149999998
 20
762.852936
 11
12.483734499999969
 21
762.73523
  0
LINE
  8
_0-0_0
  6
CONTINUOUS
 62
    7
 10
12.483734499999969
 20
762.73523
 11
12.492294500000071
 21
762.67309599999999
  0
LINE
  8
_0-0_0
  6
CONTINUOUS
 62
    7
 10
12.492294500000071
 20
762.67309599999999
 11
12.498382500000048
 21
762.61248799999998
  0
LINE
  8
_0-0_0
  6
CONTINUOUS
 62
    7
 10
12.498382500000048
 20
762.61248799999998
 11
12.501388499999962
 21
762.56326300000001
  0
LINE
  8
_0-0_0
  6
CONTINUOUS
 62
    7
 10
12.501388499999962
 20
762.56326300000001
 11
12.502410499999996
 21
762.51504499999999
  0
LINE
  8
_0-0_0
  6
CONTINUOUS
 62
    7
 10
12.202407500000049
 20
768.31198100000006
 11
12.261199499999975
 21
768.558807
  0
LINE
  8
_0-0_0
  6
CONTINUOUS
 62
    7
 10
12.261199499999975
 20
768.558807
 11
12.310974500000043
 21
768.75116000000003
  0
LINE
  8
_0-0_0
  6
CONTINUOUS
 62
    7
 10
12.310974500000043
 20
768.75116000000003
 11
12.382095499999991
 21
769.01693699999998
  0
LINE
  8
_0-0_0
  6
CONTINUOUS
 62
    7
 10
12.382095499999991
 20
769.01693699999998
 11
12.415054499999997
 21
769.14367700000003
  0
LINE
  8
_0-0_0
  6
CONTINUOUS
 62
    7
 10
12.415054499999997
 20
769.14367700000003
 11
12.440322499999979
 21
769.24707000000001
  0
LINE
  8
_0-0_0
  6
CONTINUOUS
 62
    7
 10
12.440322499999979
 20
769.24707000000001
 11
12.46234149999998
 21
769.34701500000006
  0
LINE
  8
_0-0_0
  6
CONTINUOUS
 62
    7
 10
12.46234149999998
 20
769.34701500000006
 11
12.483718500000009
 21
769.46472199999994
  0
LINE
  8
_0-0_0
  6
CONTINUOUS
 62
    7
 10
12.483718500000009
 20
769.46472199999994
 11
12.492294500000071
 21
769.52685599999995
  0
LINE
  8
_0-0_0
  6
CONTINUOUS
 62
    7
 10
12.492294500000071
 20
769.52685599999995
 11
12.498382500000048
 21
769.58746300000007
  0
LINE
  8
_0-0_0
  6
CONTINUOUS
 62
    7
 10
12.498382500000048
 20
769.58746300000007
 11
12.501388499999962
 21
769.63671899999997
  0
LINE
  8
_0-0_0
  6
CONTINUOUS
 62
    7
 10
12.501388499999962
 20
769.63671899999997
 11
12.502410499999996
 21
769.68493699999999
  0
LINE
  8
_0-0_0
  6
CONTINUOUS
 62
    7
 10
12.502410499999996
 20
764.53793300000007
 11
12.502410499999996
 21
763.49227900000005
  0
LINE
  8
_0-0_0
  6
CONTINUOUS
 62
    7
 10
12.502410499999996
 20
762.207672
 11
12.502410499999996
 21
763.49227900000005
  0
LINE
  8
_0-0_0
  6
CONTINUOUS
 62
    7
 10
12.502410499999996
 20
762.09228499999995
 11
12.502410499999996
 21
762.207672
  0
ARC
  8
_0-0_0
  6
CONTINUOUS
 62
    7
 10
10.502410499999996
 20
773.45846600000004
 40
2
 50
0
 51
71.565000999999995
  0
LINE
  8
_0-0_0
  6
CONTINUOUS
 62
    7
 10
22.210235499999953
 20
772.59997599999997
 11
22.264724500000057
 21
772.53006000000005
  0
LINE
  8
_0-0_0
  6
CONTINUOUS
 62
    7
 10
22.264724500000057
 20
772.53006000000005
 11
22.315826499999957
 21
772.46121199999993
  0
LINE
  8
_0-0_0
  6
CONTINUOUS
 62
    7
 10
22.315826499999957
 20
772.46121199999993
 11
22.363464499999964
 21
772.39370699999995
  0
LINE
  8
_0-0_0
  6
CONTINUOUS
 62
    7
 10
22.363464499999964
 20
772.39370699999995
 11
22.40795849999995
 21
772.327179
  0
LINE
  8
_0-0_0
  6
CONTINUOUS
 62
    7
 10
22.40795849999995
 20
772.327179
 11
22.462676500000043
 21
772.23962400000005
  0
LINE
  8
_0-0_0
  6
CONTINUOUS
 62
    7
 10
22.462676500000043
 20
772.23962400000005
 11
22.512191499999972
 21
772.15353400000004
  0
LINE
  8
_0-0_0
  6
CONTINUOUS
 62
    7
 10
22.512191499999972
 20
772.15353400000004
 11
22.556655500000033
 21
772.06869499999993
  0
LINE
  8
_0-0_0
  6
CONTINUOUS
 62
    7
 10
22.556655500000033
 20
772.06869499999993
 11
22.603622500000029
 21
771.96838400000001
  0
LINE
  8
_0-0_0
  6
CONTINUOUS
 62
    7
 10
22.603622500000029
 20
771.96838400000001
 11
22.643829500000038
 21
771.86944599999993
  0
LINE
  8
_0-0_0
  6
CONTINUOUS
 62
    7
 10
22.643829500000038
 20
771.86944599999993
 11
22.677490499999976
 21
771.77169800000001
  0
LINE
  8
_0-0_0
  6
CONTINUOUS
 62
    7
 10
22.677490499999976
 20
771.77169800000001
 11
22.70478849999995
 21
771.67489599999999
  0
LINE
  8
_0-0_0
  6
CONTINUOUS
 62
    7
 10
22.70478849999995
 20
771.67489599999999
 11
22.725830500000029
 21
771.57882700000005
  0
LINE
  8
_0-0_0
  6
CONTINUOUS
 62
    7
 10
22.725830500000029
 20
771.57882700000005
 11
22.741760500000055
 21
771.47497599999997
  0
LINE
  8
_0-0_0
  6
CONTINUOUS
 62
    7
 10
22.741760500000055
 20
771.47497599999997
 11
22.750518499999998
 21
771.37155200000007
  0
LINE
  8
_0-0_0
  6
CONTINUOUS
 62
    7
 10
22.750518499999998
 20
771.37155200000007
 11
22.752151499999968
 21
771.26831100000004
  0
LINE
  8
_0-0_0
  6
CONTINUOUS
 62
    7
 10
22.752151499999968
 20
771.26831100000004
 11
22.746688500000005
 21
771.16503899999998
  0
LINE
  8
_0-0_0
  6
CONTINUOUS
 62
    7
 10
22.746688500000005
 20
771.16503899999998
 11
22.734069500000032
 21
771.06143199999997
  0
LINE
  8
_0-0_0
  6
CONTINUOUS
 62
    7
 10
22.734069500000032
 20
771.06143199999997
 11
22.714263500000015
 21
770.95727499999998
  0
LINE
  8
_0-0_0
  6
CONTINUOUS
 62
    7
 10
22.714263500000015
 20
770.95727499999998
 11
22.687118499999997
 21
770.85232599999995
  0
LINE
  8
_0-0_0
  6
CONTINUOUS
 62
    7
 10
22.687118499999997
 20
770.85232599999995
 11
22.652465500000062
 21
770.746307
  0
LINE
  8
_0-0_0
  6
CONTINUOUS
 62
    7
 10
22.652465500000062
 20
770.746307
 11
22.610122499999989
 21
770.63891599999999
  0
LINE
  8
_0-0_0
  6
CONTINUOUS
 62
    7
 10
22.610122499999989
 20
770.63891599999999
 11
22.559799500000054
 21
770.52990699999998
  0
LINE
  8
_0-0_0
  6
CONTINUOUS
 62
    7
 10
22.559799500000054
 20
770.52990699999998
 11
22.505554500000017
 21
770.42678799999999
  0
LINE
  8
_0-0_0
  6
CONTINUOUS
 62
    7
 10
22.505554500000017
 20
770.42678799999999
 11
22.443847499999947
 21
770.32171599999992
  0
LINE
  8
_0-0_0
  6
CONTINUOUS
 62
    7
 10
22.443847499999947
 20
770.32171599999992
 11
22.374328500000047
 21
770.21447799999999
  0
LINE
  8
_0-0_0
  6
CONTINUOUS
 62
    7
 10
22.374328500000047
 20
770.21447799999999
 11
22.29661550000003
 21
770.10476700000004
  0
LINE
  8
_0-0_0
  6
CONTINUOUS
 62
    7
 10
22.29661550000003
 20
770.10476700000004
 11
22.210235499999953
 21
769.99227900000005
  0
LINE
  8
_0-0_0
  6
CONTINUOUS
 62
    7
 10
12.502410499999996
 20
770.10766599999999
 11
12.502410499999996
 21
769.99227900000005
  0
LINE
  8
_0-0_0
  6
CONTINUOUS
 62
    7
 10
12.502410499999996
 20
768.707672
 11
12.502410499999996
 21
767.66204799999991
  0
LINE
  8
_0-0_0
  6
CONTINUOUS
 62
    7
 10
12.502410499999996
 20
763.49227900000005
 11
22.210235499999953
 21
763.49227900000005
  0
LINE
  8
_0-0_0
  6
CONTINUOUS
 62
    7
 10
12.502410499999996
 20
762.207672
 11
22.210235499999953
 21
762.207672
  0
LINE
  8
_0-0_0
  6
CONTINUOUS
 62
    7
 10
23.502410499999996
 20
768.83154300000001
 11
23.502410499999996
 21
771.34997599999997
  0
LINE
  8
_0-0_0
  6
CONTINUOUS
 62
    7
 10
12.502410499999996
 20
773.45846600000004
 11
12.502410499999996
 21
770.10766599999999
  0
LINE
  8
_0-0_0
  6
CONTINUOUS
 62
    7
 10
1.5024104999999963
 20
755.29998799999998
 11
1.5024104999999963
 21
755.55004899999994
  0
LINE
  8
_0-0_0
  6
CONTINUOUS
 62
    7
 10
-22.997589500000004
 20
775.39999399999999
 11
-27.997604499999966
 21
775.39999399999999
  0
ARC
  8
_0-0_0
  6
CONTINUOUS
 62
    7
 10
-27.997604499999966
 20
770.89999399999999
 40
4.5
 50
90.000003000000007
 51
269.99999700000006
  0
LINE
  8
_0-0_0
  6
CONTINUOUS
 62
    7
 10
-22.997589500000004
 20
766.39999399999999
 11
-27.997604499999966
 21
766.39999399999999
  0
ARC
  8
_0-0_0
  6
CONTINUOUS
 62
    7
 10
-22.997589500000004
 20
770.89999399999999
 40
4.5
 50
269.99999700000001
 51
90.000002999999992
  0
LINE
  8
_0-0_0
  6
CONTINUOUS
 62
    7
 10
-78.997604499999966
 20
775.39999399999999
 11
-83.997604499999966
 21
775.39999399999999
  0
ARC
  8
_0-0_0
  6
CONTINUOUS
 62
    7
 10
-83.997604499999966
 20
770.89999399999999
 40
4.5
 50
90.000003000000007
 51
269.99999700000006
  0
LINE
  8
_0-0_0
  6
CONTINUOUS
 62
    7
 10
-78.997604499999966
 20
766.39999399999999
 11
-83.997604499999966
 21
766.39999399999999
  0
ARC
  8
_0-0_0
  6
CONTINUOUS
 62
    7
 10
-78.997604499999966
 20
770.89999399999999
 40
4.5
 50
269.99999700000001
 51
90.000002999999992
  0
LINE
  8
_0-0_0
  6
CONTINUOUS
 62
    7
 10
-53.685073500000044
 20
774.96963499999993
 11
-54.985076499999991
 21
771.46963499999993
  0
LINE
  8
_0-0_0
  6
CONTINUOUS
 62
    7
 10
-54.797592499999951
 20
771.19998199999998
 11
-52.197586499999943
 21
771.19998199999998
  0
ARC
  8
_0-0_0
  6
CONTINUOUS
 62
    7
 10
-52.197586499999943
 20
771.39999399999999
 40
0.2
 50
269.99999700000001
 51
20.376435000000019
  0
ARC
  8
_0-0_0
  6
CONTINUOUS
 62
    7
 10
-53.497604499999966
 20
774.89999399999999
 40
0.2
 50
20.376434999999997
 51
159.62357000000003
  0
LINE
  8
_0-0_0
  6
CONTINUOUS
 62
    7
 10
1.5024104999999963
 20
755.29998799999998
 11
1.5024104999999963
 21
757.29998799999998
  0
ARC
  8
_0-0_0
  6
CONTINUOUS
 62
    7
 10
-32.497604499999966
 20
761.69998199999998
 40
3
 50
180.00000900000003
 51
269.99999700000001
  0
LINE
  8
_0-0_0
  6
CONTINUOUS
 62
    7
 10
-32.497604499999966
 20
758.69998199999998
 11
-17.497589500000004
 21
758.69998199999998
  0
ARC
  8
_0-0_0
  6
CONTINUOUS
 62
    7
 10
-17.497589500000004
 20
761.69998199999998
 40
3
 50
269.99999700000001
 51
0
  0
ARC
  8
_0-0_0
  6
CONTINUOUS
 62
    7
 10
-17.497589500000004
 20
775.29998799999998
 40
3
 50
0
 51
90.000003000000007
  0
LINE
  8
_0-0_0
  6
CONTINUOUS
 62
    7
 10
-17.497589500000004
 20
778.29998799999998
 11
-32.497604499999966
 21
778.29998799999998
  0
ARC
  8
_0-0_0
  6
CONTINUOUS
 62
    7
 10
-32.497604499999966
 20
775.29998799999998
 40
3
 50
90.000003000000007
 51
180.00000900000001
  0
ARC
  8
_0-0_0
  6
CONTINUOUS
 62
    7
 10
-86.40791349999995
 20
763.78967299999999
 40
5.089683
 50
180.00000900000003
 51
269.99999700000001
  0
LINE
  8
_0-0_0
  6
CONTINUOUS
 62
    7
 10
-86.40791349999995
 20
758.69998199999998
 11
-75.140579500000058
 21
758.69998199999998
  0
ARC
  8
_0-0_0
  6
CONTINUOUS
 62
    7
 10
-75.140579500000058
 20
762.34298699999999
 40
3.6429879999999999
 50
269.99999700000001
 51
0.0000099999999886
  0
LINE
  8
_0-0_0
  6
CONTINUOUS
 62
    7
 10
-74.497604499999966
 20
778.29998799999998
 11
-87.831527499999993
 21
778.29998799999998
  0
ARC
  8
_0-0_0
  6
CONTINUOUS
 62
    7
 10
-87.831527499999993
 20
777.29998799999998
 40
1
 50
90.000003000000007
 51
172.23356100000001
  0
ARC
  8
_0-0_0
  6
CONTINUOUS
 62
    7
 10
-90.497589500000004
 20
774.23767099999998
 40
1
 50
105.68034800000001
 51
180.00000900000001
  0
LINE
  8
_0-0_0
  6
CONTINUOUS
 62
    7
 10
-33.097595500000011
 20
778.29998799999998
 11
-33.097595500000011
 21
778.23937999999998
  0
LINE
  8
_0-0_0
  6
CONTINUOUS
 62
    7
 10
-74.497604499999966
 20
758.75717199999997
 11
-74.497604499999966
 21
758.704071
  0
LINE
  8
_0-0_0
  6
CONTINUOUS
 62
    7
 10
-33.097595500000011
 20
758.76058999999998
 11
-33.097595500000011
 21
758.704071
  0
LINE
  8
_0-0_0
  6
CONTINUOUS
 62
    7
 10
23.502410499999996
 20
760.84997599999997
 11
22.702407500000049
 21
760.04998799999998
  0
LINE
  8
_0-0_0
  6
CONTINUOUS
 62
    7
 10
37.502403500000014
 20
755.79998799999998
 11
37.002571500000045
 21
755.30014000000006
  0
LINE
  8
_0-0_0
  6
CONTINUOUS
 62
    7
 10
37.502403500000014
 20
772.39999399999999
 11
37.002571500000045
 21
771.90014700000006
  0
LINE
  8
_0-0_0
  6
CONTINUOUS
 62
    7
 10
24.702407500000049
 20
770.09997599999997
 11
82.702407500000049
 21
770.09997599999997
  0
LINE
  8
_0-0_0
  6
CONTINUOUS
 62
    7
 10
24.702407500000049
 20
762.09997599999997
 11
82.702407500000049
 21
762.09997599999997
  0
LINE
  8
_0-0_0
  6
CONTINUOUS
 62
    7
 10
37.502403500000014
 20
776.39999399999999
 11
37.002571500000045
 21
776.89984099999992
  0
LINE
  8
_0-0_0
  6
CONTINUOUS
 62
    7
 10
37.502403500000014
 20
759.79998799999998
 11
37.002571500000045
 21
760.29983500000003
  0
LINE
  8
_0-0_0
  6
CONTINUOUS
 62
    7
 10
27.502403500000014
 20
776.64999399999999
 11
27.752403500000014
 21
776.89999399999999
  0
LINE
  8
_0-0_0
  6
CONTINUOUS
 62
    7
 10
27.502403500000014
 20
772.14999399999999
 11
27.752403500000014
 21
771.89999399999999
  0
LINE
  8
_0-0_0
  6
CONTINUOUS
 62
    7
 10
27.502403500000014
 20
760.04998799999998
 11
27.752403500000014
 21
760.29998799999998
  0
LINE
  8
_0-0_0
  6
CONTINUOUS
 62
    7
 10
27.502403500000014
 20
755.54998799999998
 11
27.752403500000014
 21
755.29998799999998
  0
LINE
  8
_0-0_0
  6
CONTINUOUS
 62
    7
 10
24.702407500000049
 20
770.63809199999992
 11
23.902404499999989
 21
771.09997599999997
  0
LINE
  8
_0-0_0
  6
CONTINUOUS
 62
    7
 10
24.702407500000049
 20
761.56185899999991
 11
23.902404499999989
 21
761.09997599999997
  0
LINE
  8
_0-0_0
  6
CONTINUOUS
 62
    7
 10
7.2523654999999962
 20
776.64999399999999
 11
27.502403500000014
 21
776.64999399999999
  0
LINE
  8
_0-0_0
  6
CONTINUOUS
 62
    7
 10
22.702407500000049
 20
772.14999399999999
 11
27.502403500000014
 21
772.14999399999999
  0
LINE
  8
_0-0_0
  6
CONTINUOUS
 62
    7
 10
1.5024104999999963
 20
760.04998799999998
 11
27.502403500000014
 21
760.04998799999998
  0
LINE
  8
_0-0_0
  6
CONTINUOUS
 62
    7
 10
1.5024104999999963
 20
755.54998799999998
 11
27.502403500000014
 21
755.54998799999998
  0
LINE
  8
_0-0_0
  6
CONTINUOUS
 62
    7
 10
23.502410499999996
 20
771.09997599999997
 11
23.902404499999989
 21
771.09997599999997
  0
LINE
  8
_0-0_0
  6
CONTINUOUS
 62
    7
 10
23.502410499999996
 20
761.09997599999997
 11
23.902404499999989
 21
761.09997599999997
  0
LINE
  8
_0-0_0
  6
CONTINUOUS
 62
    7
 10
23.502410499999996
 20
771.34997599999997
 11
22.252410499999996
 21
772.59997599999997
  0
ARC
  8
_0-0_0
  6
CONTINUOUS
 62
    7
 10
-98.497589500000004
 20
799.59997599999997
 40
8
 50
215.099627
 51
324.90037799999999
  0
LINE
  8
_0-0_0
  6
CONTINUOUS
 62
    7
 10
-107.4975895
 20
794.99997000000008
 11
-105.04281649999996
 21
794.99997000000008
  0
LINE
  8
_0-0_0
  6
CONTINUOUS
 62
    7
 10
-107.4975895
 20
781.79998799999998
 11
-107.4975895
 21
794.99997000000008
  0
LINE
  8
_0-0_0
  6
CONTINUOUS
 62
    7
 10
1565.5025025
 20
781.79998799999998
 11
1565.5025025
 21
794.99997000000008
  0
LINE
  8
_0-0_0
  6
CONTINUOUS
 62
    7
 10
1563.0477905
 20
794.99997000000008
 11
1565.5025025
 21
794.99997000000008
  0
ARC
  8
_0-0_0
  6
CONTINUOUS
 62
    7
 10
1556.5025025
 20
799.59997599999997
 40
8
 50
215.099627
 51
324.90037799999999
  0
LINE
  8
_0-0_0
  6
CONTINUOUS
 62
    7
 10
-91.952362499999936
 20
794.99997000000008
 11
1549.9572145
 21
794.99997000000008
  0
LINE
  8
_0-0_0
  6
CONTINUOUS
 62
    7
 10
-91.952362499999936
 20
794.99997000000008
 11
-91.863388499999928
 21
795.12927300000001
  0
LINE
  8
_0-0_0
  6
CONTINUOUS
 62
    7
 10
1549.9572145
 20
794.99997000000008
 11
1549.8683475
 21
795.12927300000001
  0
LINE
  8
_0-0_0
  6
CONTINUOUS
 62
    7
 10
1563.2297974999999
 20
795.27069099999994
 11
1563.3113404999999
 21
795.39999399999999
  0
ARC
  8
_0-0_0
  6
CONTINUOUS
 62
    7
 10
1556.5025025
 20
799.59997599999997
 40
8
 50
328.33175599999993
 51
334.05550899999992
  0
LINE
  8
_0-0_0
  6
CONTINUOUS
 62
    7
 10
1563.6962275000001
 20
796.09997599999997
 11
1563.7902225
 21
796.29998799999998
  0
LINE
  8
_0-0_0
  6
CONTINUOUS
 62
    7
 10
1563.7902225
 20
796.29998799999998
 11
1563.8775025
 21
796.49997000000008
  0
ARC
  8
_0-0_0
  6
CONTINUOUS
 62
    7
 10
1556.5025025
 20
799.59997599999997
 40
8
 50
337.20097500000003
 51
342.54240199999998
  0
LINE
  8
_0-0_0
  6
CONTINUOUS
 62
    7
 10
1564.1339725
 20
797.19998199999998
 11
1564.1940305000001
 21
797.39999399999999
  0
LINE
  8
_0-0_0
  6
CONTINUOUS
 62
    7
 10
1564.1940305000001
 20
797.39999399999999
 11
1564.2484744999999
 21
797.59997599999997
  0
ARC
  8
_0-0_0
  6
CONTINUOUS
 62
    7
 10
1556.5025025
 20
799.59997599999997
 40
8
 50
345.52249499999999
 51
350.64797900000002
  0
LINE
  8
_0-0_0
  6
CONTINUOUS
 62
    7
 10
1564.3961795
 20
798.29998799999998
 11
1564.4265745
 21
798.49997000000008
  0
LINE
  8
_0-0_0
  6
CONTINUOUS
 62
    7
 10
1564.4265745
 20
798.49997000000008
 11
1564.4517215000001
 21
798.69998199999998
  0
ARC
  8
_0-0_0
  6
CONTINUOUS
 62
    7
 10
1556.5025025
 20
799.59997599999997
 40
8
 50
353.54056400000002
 51
358.56744600000002
  0
LINE
  8
_0-0_0
  6
CONTINUOUS
 62
    7
 10
1564.5000605
 20
799.39999399999999
 11
1564.5025025
 21
799.59997599999997
  0
LINE
  8
_0-0_0
  6
CONTINUOUS
 62
    7
 10
1548.5049435000001
 20
799.39999399999999
 11
1548.5025025
 21
799.59997599999997
  0
ARC
  8
_0-0_0
  6
CONTINUOUS
 62
    7
 10
1556.5025025
 20
799.59997599999997
 40
8
 50
181.432545
 51
186.45945499999999
  0
LINE
  8
_0-0_0
  6
CONTINUOUS
 62
    7
 10
1548.5784305
 20
798.49997000000008
 11
1548.5532834999999
 21
798.69998199999998
  0
LINE
  8
_0-0_0
  6
CONTINUOUS
 62
    7
 10
1548.6088255
 20
798.29998799999998
 11
1548.5784305
 21
798.49997000000008
  0
ARC
  8
_0-0_0
  6
CONTINUOUS
 62
    7
 10
1556.5025025
 20
799.59997599999997
 40
8
 50
189.35203999999999
 51
194.47751
  0
LINE
  8
_0-0_0
  6
CONTINUOUS
 62
    7
 10
1548.8109744999999
 20
797.39999399999999
 11
1548.7565305000001
 21
797.59997599999997
  0
LINE
  8
_0-0_0
  6
CONTINUOUS
 62
    7
 10
1548.8710325
 20
797.19998199999998
 11
1548.8109744999999
 21
797.39999399999999
  0
ARC
  8
_0-0_0
  6
CONTINUOUS
 62
    7
 10
1556.5025025
 20
799.59997599999997
 40
8
 50
197.45760300000001
 51
202.79902999999999
  0
LINE
  8
_0-0_0
  6
CONTINUOUS
 62
    7
 10
1549.2147825
 20
796.29998799999998
 11
1549.1275025
 21
796.49997000000008
  0
LINE
  8
_0-0_0
  6
CONTINUOUS
 62
    7
 10
1549.3087765
 20
796.09997599999997
 11
1549.2147825
 21
796.29998799999998
  0
ARC
  8
_0-0_0
  6
CONTINUOUS
 62
    7
 10
1556.5025025
 20
799.59997599999997
 40
8
 50
205.94448199999999
 51
211.66823500000001
  0
LINE
  8
_0-0_0
  6
CONTINUOUS
 62
    7
 10
1549.7752075000001
 20
795.27069099999994
 11
1549.6936645000001
 21
795.39999399999999
  0
LINE
  8
_0-0_0
  6
CONTINUOUS
 62
    7
 10
1549.7752075000001
 20
795.27069099999994
 11
1549.8683475
 21
795.12927300000001
  0
LINE
  8
_0-0_0
  6
CONTINUOUS
 62
    7
 10
1563.0477905
 20
794.99997000000008
 11
1563.1366575
 21
795.12927300000001
  0
LINE
  8
_0-0_0
  6
CONTINUOUS
 62
    7
 10
1563.2297974999999
 20
795.27069099999994
 11
1563.1366575
 21
795.12927300000001
  0
LINE
  8
_0-0_0
  6
CONTINUOUS
 62
    7
 10
1565.5025025
 20
795.12927300000001
 11
1565.5025025
 21
794.99997000000008
  0
LINE
  8
_0-0_0
  6
CONTINUOUS
 62
    7
 10
1565.5025025
 20
803.92929099999992
 11
1565.5025025
 21
804.07070899999997
  0
LINE
  8
_0-0_0
  6
CONTINUOUS
 62
    7
 10
1565.5025025
 20
803.92929099999992
 11
1565.5025025
 21
803.79998799999998
  0
LINE
  8
_0-0_0
  6
CONTINUOUS
 62
    7
 10
1565.5025025
 20
803.09997599999997
 11
1565.5025025
 21
803.79998799999998
  0
LINE
  8
_0-0_0
  6
CONTINUOUS
 62
    7
 10
1565.5025025
 20
802.89999399999999
 11
1565.5025025
 21
803.09997599999997
  0
LINE
  8
_0-0_0
  6
CONTINUOUS
 62
    7
 10
1565.5025025
 20
802.89999399999999
 11
1565.5025025
 21
802.69998199999998
  0
LINE
  8
_0-0_0
  6
CONTINUOUS
 62
    7
 10
1565.5025025
 20
801.99997000000008
 11
1565.5025025
 21
802.69998199999998
  0
LINE
  8
_0-0_0
  6
CONTINUOUS
 62
    7
 10
1565.5025025
 20
801.79998799999998
 11
1565.5025025
 21
801.99997000000008
  0
LINE
  8
_0-0_0
  6
CONTINUOUS
 62
    7
 10
1565.5025025
 20
801.79998799999998
 11
1565.5025025
 21
801.59997599999997
  0
LINE
  8
_0-0_0
  6
CONTINUOUS
 62
    7
 10
1565.5025025
 20
800.89999399999999
 11
1565.5025025
 21
801.59997599999997
  0
LINE
  8
_0-0_0
  6
CONTINUOUS
 62
    7
 10
1565.5025025
 20
800.69998199999998
 11
1565.5025025
 21
800.89999399999999
  0
LINE
  8
_0-0_0
  6
CONTINUOUS
 62
    7
 10
1565.5025025
 20
800.69998199999998
 11
1565.5025025
 21
800.49997000000008
  0
LINE
  8
_0-0_0
  6
CONTINUOUS
 62
    7
 10
1565.5025025
 20
799.79998799999998
 11
1565.5025025
 21
800.49997000000008
  0
LINE
  8
_0-0_0
  6
CONTINUOUS
 62
    7
 10
1565.5025025
 20
799.59997599999997
 11
1565.5025025
 21
799.79998799999998
  0
LINE
  8
_0-0_0
  6
CONTINUOUS
 62
    7
 10
1565.5025025
 20
799.59997599999997
 11
1565.5025025
 21
799.39999399999999
  0
LINE
  8
_0-0_0
  6
CONTINUOUS
 62
    7
 10
1565.5025025
 20
798.69998199999998
 11
1565.5025025
 21
799.39999399999999
  0
LINE
  8
_0-0_0
  6
CONTINUOUS
 62
    7
 10
1565.5025025
 20
798.49997000000008
 11
1565.5025025
 21
798.69998199999998
  0
LINE
  8
_0-0_0
  6
CONTINUOUS
 62
    7
 10
1565.5025025
 20
798.49997000000008
 11
1565.5025025
 21
798.29998799999998
  0
LINE
  8
_0-0_0
  6
CONTINUOUS
 62
    7
 10
1565.5025025
 20
797.59997599999997
 11
1565.5025025
 21
798.29998799999998
  0
LINE
  8
_0-0_0
  6
CONTINUOUS
 62
    7
 10
1565.5025025
 20
797.39999399999999
 11
1565.5025025
 21
797.59997599999997
  0
LINE
  8
_0-0_0
  6
CONTINUOUS
 62
    7
 10
1565.5025025
 20
797.39999399999999
 11
1565.5025025
 21
797.19998199999998
  0
LINE
  8
_0-0_0
  6
CONTINUOUS
 62
    7
 10
1565.5025025
 20
796.49997000000008
 11
1565.5025025
 21
797.19998199999998
  0
LINE
  8
_0-0_0
  6
CONTINUOUS
 62
    7
 10
1565.5025025
 20
796.29998799999998
 11
1565.5025025
 21
796.49997000000008
  0
LINE
  8
_0-0_0
  6
CONTINUOUS
 62
    7
 10
1565.5025025
 20
796.29998799999998
 11
1565.5025025
 21
796.09997599999997
  0
LINE
  8
_0-0_0
  6
CONTINUOUS
 62
    7
 10
1565.5025025
 20
795.39999399999999
 11
1565.5025025
 21
796.09997599999997
  0
LINE
  8
_0-0_0
  6
CONTINUOUS
 62
    7
 10
1565.5025025
 20
795.27069099999994
 11
1565.5025025
 21
795.39999399999999
  0
LINE
  8
_0-0_0
  6
CONTINUOUS
 62
    7
 10
1565.5025025
 20
795.12927300000001
 11
1565.5025025
 21
795.27069099999994
  0
LINE
  8
_0-0_0
  6
CONTINUOUS
 62
    7
 10
1565.5025025
 20
781.29998799999998
 11
1565.5025025
 21
781.79998799999998
  0
LINE
  8
_0-0_0
  6
CONTINUOUS
 62
    7
 10
1565.5025025
 20
809.79998799999998
 11
1565.5025025
 21
809.20602400000007
  0
LINE
  8
_0-0_0
  6
CONTINUOUS
 62
    7
 10
1565.5025025
 20
804.19998199999998
 11
1565.5025025
 21
809.20602400000007
  0
LINE
  8
_0-0_0
  6
CONTINUOUS
 62
    7
 10
1565.5025025
 20
804.07070899999997
 11
1565.5025025
 21
804.19998199999998
  0
LINE
  8
_0-0_0
  6
CONTINUOUS
 62
    7
 10
-107.4975895
 20
781.29998799999998
 11
-107.4975895
 21
781.79998799999998
  0
LINE
  8
_0-0_0
  6
CONTINUOUS
 62
    7
 10
-107.4975895
 20
781.29998799999998
 11
1565.5025025
 21
781.29998799999998
  0
LINE
  8
_0-0_0
  6
CONTINUOUS
 62
    7
 10
-107.4975895
 20
795.12927300000001
 11
-107.4975895
 21
795.27069099999994
  0
LINE
  8
_0-0_0
  6
CONTINUOUS
 62
    7
 10
-107.4975895
 20
795.12927300000001
 11
-107.4975895
 21
794.99997000000008
  0
LINE
  8
_0-0_0
  6
CONTINUOUS
 62
    7
 10
-107.4975895
 20
809.79998799999998
 11
-107.4975895
 21
809.20602400000007
  0
LINE
  8
_0-0_0
  6
CONTINUOUS
 62
    7
 10
-107.4975895
 20
804.19998199999998
 11
-107.4975895
 21
809.20602400000007
  0
LINE
  8
_0-0_0
  6
CONTINUOUS
 62
    7
 10
-107.4975895
 20
804.07070899999997
 11
-107.4975895
 21
804.19998199999998
  0
LINE
  8
_0-0_0
  6
CONTINUOUS
 62
    7
 10
-107.4975895
 20
803.92929099999992
 11
-107.4975895
 21
804.07070899999997
  0
LINE
  8
_0-0_0
  6
CONTINUOUS
 62
    7
 10
-107.4975895
 20
803.92929099999992
 11
-107.4975895
 21
803.79998799999998
  0
LINE
  8
_0-0_0
  6
CONTINUOUS
 62
    7
 10
-107.4975895
 20
803.09997599999997
 11
-107.4975895
 21
803.79998799999998
  0
LINE
  8
_0-0_0
  6
CONTINUOUS
 62
    7
 10
-107.4975895
 20
802.97070299999996
 11
-107.4975895
 21
803.09997599999997
  0
LINE
  8
_0-0_0
  6
CONTINUOUS
 62
    7
 10
-107.4975895
 20
802.82928500000003
 11
-107.4975895
 21
802.97070299999996
  0
LINE
  8
_0-0_0
  6
CONTINUOUS
 62
    7
 10
-107.4975895
 20
802.82928500000003
 11
-107.4975895
 21
802.69998199999998
  0
LINE
  8
_0-0_0
  6
CONTINUOUS
 62
    7
 10
-107.4975895
 20
801.99997000000008
 11
-107.4975895
 21
802.69998199999998
  0
LINE
  8
_0-0_0
  6
CONTINUOUS
 62
    7
 10
-107.4975895
 20
801.87069700000006
 11
-107.4975895
 21
801.99997000000008
  0
LINE
  8
_0-0_0
  6
CONTINUOUS
 62
    7
 10
-107.4975895
 20
801.72927900000002
 11
-107.4975895
 21
801.87069700000006
  0
LINE
  8
_0-0_0
  6
CONTINUOUS
 62
    7
 10
-107.4975895
 20
801.72927900000002
 11
-107.4975895
 21
801.59997599999997
  0
LINE
  8
_0-0_0
  6
CONTINUOUS
 62
    7
 10
-107.4975895
 20
800.89999399999999
 11
-107.4975895
 21
801.59997599999997
  0
LINE
  8
_0-0_0
  6
CONTINUOUS
 62
    7
 10
-107.4975895
 20
800.77069099999994
 11
-107.4975895
 21
800.89999399999999
  0
LINE
  8
_0-0_0
  6
CONTINUOUS
 62
    7
 10
-107.4975895
 20
800.62927300000001
 11
-107.4975895
 21
800.77069099999994
  0
LINE
  8
_0-0_0
  6
CONTINUOUS
 62
    7
 10
-107.4975895
 20
800.62927300000001
 11
-107.4975895
 21
800.49997000000008
  0
LINE
  8
_0-0_0
  6
CONTINUOUS
 62
    7
 10
-107.4975895
 20
799.79998799999998
 11
-107.4975895
 21
800.49997000000008
  0
LINE
  8
_0-0_0
  6
CONTINUOUS
 62
    7
 10
-107.4975895
 20
799.67068500000005
 11
-107.4975895
 21
799.79998799999998
  0
LINE
  8
_0-0_0
  6
CONTINUOUS
 62
    7
 10
-107.4975895
 20
799.52926600000001
 11
-107.4975895
 21
799.67068500000005
  0
LINE
  8
_0-0_0
  6
CONTINUOUS
 62
    7
 10
-107.4975895
 20
799.52926600000001
 11
-107.4975895
 21
799.39999399999999
  0
LINE
  8
_0-0_0
  6
CONTINUOUS
 62
    7
 10
-107.4975895
 20
798.69998199999998
 11
-107.4975895
 21
799.39999399999999
  0
LINE
  8
_0-0_0
  6
CONTINUOUS
 62
    7
 10
-107.4975895
 20
798.57070899999997
 11
-107.4975895
 21
798.69998199999998
  0
LINE
  8
_0-0_0
  6
CONTINUOUS
 62
    7
 10
-107.4975895
 20
798.42929099999992
 11
-107.4975895
 21
798.57070899999997
  0
LINE
  8
_0-0_0
  6
CONTINUOUS
 62
    7
 10
-107.4975895
 20
798.42929099999992
 11
-107.4975895
 21
798.29998799999998
  0
LINE
  8
_0-0_0
  6
CONTINUOUS
 62
    7
 10
-107.4975895
 20
797.59997599999997
 11
-107.4975895
 21
798.29998799999998
  0
LINE
  8
_0-0_0
  6
CONTINUOUS
 62
    7
 10
-107.4975895
 20
797.47070299999996
 11
-107.4975895
 21
797.59997599999997
  0
LINE
  8
_0-0_0
  6
CONTINUOUS
 62
    7
 10
-107.4975895
 20
797.32928500000003
 11
-107.4975895
 21
797.47070299999996
  0
LINE
  8
_0-0_0
  6
CONTINUOUS
 62
    7
 10
-107.4975895
 20
797.32928500000003
 11
-107.4975895
 21
797.19998199999998
  0
LINE
  8
_0-0_0
  6
CONTINUOUS
 62
    7
 10
-107.4975895
 20
796.49997000000008
 11
-107.4975895
 21
797.19998199999998
  0
LINE
  8
_0-0_0
  6
CONTINUOUS
 62
    7
 10
-107.4975895
 20
796.37069700000006
 11
-107.4975895
 21
796.49997000000008
  0
LINE
  8
_0-0_0
  6
CONTINUOUS
 62
    7
 10
-107.4975895
 20
796.22927900000002
 11
-107.4975895
 21
796.37069700000006
  0
LINE
  8
_0-0_0
  6
CONTINUOUS
 62
    7
 10
-107.4975895
 20
796.22927900000002
 11
-107.4975895
 21
796.09997599999997
  0
LINE
  8
_0-0_0
  6
CONTINUOUS
 62
    7
 10
-107.4975895
 20
795.39999399999999
 11
-107.4975895
 21
796.09997599999997
  0
LINE
  8
_0-0_0
  6
CONTINUOUS
 62
    7
 10
-107.4975895
 20
795.27069099999994
 11
-107.4975895
 21
795.39999399999999
  0
LINE
  8
_0-0_0
  6
CONTINUOUS
 62
    7
 10
-105.04281649999996
 20
794.99997000000008
 11
-105.13180549999993
 21
795.12927300000001
  0
LINE
  8
_0-0_0
  6
CONTINUOUS
 62
    7
 10
-91.77024849999998
 20
795.27069099999994
 11
-91.863388499999928
 21
795.12927300000001
  0
LINE
  8
_0-0_0
  6
CONTINUOUS
 62
    7
 10
-91.77024849999998
 20
795.27069099999994
 11
-91.688766499999929
 21
795.39999399999999
  0
ARC
  8
_0-0_0
  6
CONTINUOUS
 62
    7
 10
-98.497589500000004
 20
799.59997599999997
 40
8
 50
328.33175599999993
 51
334.05550899999992
  0
LINE
  8
_0-0_0
  6
CONTINUOUS
 62
    7
 10
-91.303848499999958
 20
796.09997599999997
 11
-91.209930499999928
 21
796.29998799999998
  0
LINE
  8
_0-0_0
  6
CONTINUOUS
 62
    7
 10
-91.209930499999928
 20
796.29998799999998
 11
-91.122634500000004
 21
796.49997000000008
  0
ARC
  8
_0-0_0
  6
CONTINUOUS
 62
    7
 10
-98.497589500000004
 20
799.59997599999997
 40
8
 50
337.20097500000003
 51
342.54240199999998
  0
LINE
  8
_0-0_0
  6
CONTINUOUS
 62
    7
 10
-90.86607349999997
 20
797.19998199999998
 11
-90.806045499999982
 21
797.39999399999999
  0
LINE
  8
_0-0_0
  6
CONTINUOUS
 62
    7
 10
-90.806045499999982
 20
797.39999399999999
 11
-90.751632500000028
 21
797.59997599999997
  0
ARC
  8
_0-0_0
  6
CONTINUOUS
 62
    7
 10
-98.497589500000004
 20
799.59997599999997
 40
8
 50
345.52249499999999
 51
350.64797900000002
  0
LINE
  8
_0-0_0
  6
CONTINUOUS
 62
    7
 10
-90.603927500000054
 20
798.29998799999998
 11
-90.573577500000056
 21
798.49997000000008
  0
LINE
  8
_0-0_0
  6
CONTINUOUS
 62
    7
 10
-90.573577500000056
 20
798.49997000000008
 11
-90.548385499999995
 21
798.69998199999998
  0
ARC
  8
_0-0_0
  6
CONTINUOUS
 62
    7
 10
-98.497589500000004
 20
799.59997599999997
 40
8
 50
353.54056400000002
 51
358.56744600000002
  0
LINE
  8
_0-0_0
  6
CONTINUOUS
 62
    7
 10
-90.500091500000053
 20
799.39999399999999
 11
-90.497589500000004
 21
799.59997599999997
  0
LINE
  8
_0-0_0
  6
CONTINUOUS
 62
    7
 10
-106.49728349999998
 20
799.52926600000001
 11
-106.4975895
 21
799.59997599999997
  0
LINE
  8
_0-0_0
  6
CONTINUOUS
 62
    7
 10
-106.49510150000003
 20
799.39999399999999
 11
-106.49728349999998
 21
799.52926600000001
  0
ARC
  8
_0-0_0
  6
CONTINUOUS
 62
    7
 10
-98.497589500000004
 20
799.59997599999997
 40
8
 50
181.432545
 51
186.45945499999999
  0
LINE
  8
_0-0_0
  6
CONTINUOUS
 62
    7
 10
-106.43110649999994
 20
798.57070899999997
 11
-106.44680749999998
 21
798.69998199999998
  0
LINE
  8
_0-0_0
  6
CONTINUOUS
 62
    7
 10
-106.43110649999994
 20
798.57070899999997
 11
-106.41146849999996
 21
798.42929099999992
  0
LINE
  8
_0-0_0
  6
CONTINUOUS
 62
    7
 10
-106.39126550000003
 20
798.29998799999998
 11
-106.41146849999996
 21
798.42929099999992
  0
ARC
  8
_0-0_0
  6
CONTINUOUS
 62
    7
 10
-98.497589500000004
 20
799.59997599999997
 40
8
 50
189.35203999999999
 51
194.47751
  0
LINE
  8
_0-0_0
  6
CONTINUOUS
 62
    7
 10
-106.20903049999993
 20
797.47070299999996
 11
-106.24356050000006
 21
797.59997599999997
  0
LINE
  8
_0-0_0
  6
CONTINUOUS
 62
    7
 10
-106.20903049999993
 20
797.47070299999996
 11
-106.1685635
 21
797.32928500000003
  0
LINE
  8
_0-0_0
  6
CONTINUOUS
 62
    7
 10
-106.12910450000004
 20
797.19998199999998
 11
-106.1685635
 21
797.32928500000003
  0
ARC
  8
_0-0_0
  6
CONTINUOUS
 62
    7
 10
-98.497589500000004
 20
799.59997599999997
 40
8
 50
197.45760300000001
 51
202.79902999999999
  0
LINE
  8
_0-0_0
  6
CONTINUOUS
 62
    7
 10
-105.81686449999995
 20
796.37069700000006
 11
-105.87254350000001
 21
796.49997000000008
  0
LINE
  8
_0-0_0
  6
CONTINUOUS
 62
    7
 10
-105.81686449999995
 20
796.37069700000006
 11
-105.75282249999998
 21
796.22927900000002
  0
LINE
  8
_0-0_0
  6
CONTINUOUS
 62
    7
 10
-105.69134550000001
 20
796.09997599999997
 11
-105.75282249999998
 21
796.22927900000002
  0
ARC
  8
_0-0_0
  6
CONTINUOUS
 62
    7
 10
-98.497589500000004
 20
799.59997599999997
 40
8
 50
205.94448199999999
 51
211.66823500000001
  0
LINE
  8
_0-0_0
  6
CONTINUOUS
 62
    7
 10
-105.22494549999999
 20
795.27069099999994
 11
-105.30641149999997
 21
795.39999399999999
  0
LINE
  8
_0-0_0
  6
CONTINUOUS
 62
    7
 10
-105.22494549999999
 20
795.27069099999994
 11
-105.13180549999993
 21
795.12927300000001
  0
LINE
  8
_0-0_0
  6
CONTINUOUS
 62
    7
 10
1483.0025025
 20
787.29998799999998
 11
1490.0025025
 21
787.29998799999998
  0
ARC
  8
_0-0_0
  6
CONTINUOUS
 62
    7
 10
1483.0025025
 20
786.79998799999998
 40
0.5
 50
90.000003000000007
 51
180.00000900000001
  0
LINE
  8
_0-0_0
  6
CONTINUOUS
 62
    7
 10
1482.5025025
 20
786.79998799999998
 11
1482.5025025
 21
782.79998799999998
  0
ARC
  8
_0-0_0
  6
CONTINUOUS
 62
    7
 10
1483.0025025
 20
782.79998799999998
 40
0.5
 50
180.00000900000003
 51
269.99999700000001
  0
LINE
  8
_0-0_0
  6
CONTINUOUS
 62
    7
 10
1490.0025025
 20
782.29998799999998
 11
1483.0025025
 21
782.29998799999998
  0
ARC
  8
_0-0_0
  6
CONTINUOUS
 62
    7
 10
1490.0025025
 20
782.79998799999998
 40
0.5
 50
269.99999700000001
 51
0
  0
LINE
  8
_0-0_0
  6
CONTINUOUS
 62
    7
 10
1490.5025025
 20
782.79998799999998
 11
1490.5025025
 21
786.79998799999998
  0
ARC
  8
_0-0_0
  6
CONTINUOUS
 62
    7
 10
1490.0025025
 20
786.79998799999998
 40
0.5
 50
0
 51
90.000003000000007
  0
ARC
  8
_0-0_0
  6
CONTINUOUS
 62
    7
 10
-56.997604499999966
 20
786.79998799999998
 40
0.5
 50
90.000003000000007
 51
180.00000900000001
  0
LINE
  8
_0-0_0
  6
CONTINUOUS
 62
    7
 10
-57.497604499999966
 20
786.79998799999998
 11
-57.497604499999966
 21
782.79998799999998
  0
ARC
  8
_0-0_0
  6
CONTINUOUS
 62
    7
 10
-56.997604499999966
 20
782.79998799999998
 40
0.5
 50
180.00000900000003
 51
269.99999700000001
  0
LINE
  8
_0-0_0
  6
CONTINUOUS
 62
    7
 10
-49.997604499999966
 20
782.29998799999998
 11
-56.997604499999966
 21
782.29998799999998
  0
ARC
  8
_0-0_0
  6
CONTINUOUS
 62
    7
 10
-49.997604499999966
 20
782.79998799999998
 40
0.5
 50
269.99999700000001
 51
0
  0
LINE
  8
_0-0_0
  6
CONTINUOUS
 62
    7
 10
-49.497604499999966
 20
782.79998799999998
 11
-49.497604499999966
 21
786.79998799999998
  0
ARC
  8
_0-0_0
  6
CONTINUOUS
 62
    7
 10
-49.997604499999966
 20
786.79998799999998
 40
0.5
 50
0
 51
90.000003000000007
  0
LINE
  8
_0-0_0
  6
CONTINUOUS
 62
    7
 10
-56.997604499999966
 20
787.29998799999998
 11
-49.997604499999966
 21
787.29998799999998
  0
LINE
  8
_0-0_0
  6
CONTINUOUS
 62
    7
 10
-91.688766499999929
 20
795.39999399999999
 11
1549.6936645000001
 21
795.39999399999999
  0
LINE
  8
_0-0_0
  6
CONTINUOUS
 62
    7
 10
-91.303848499999958
 20
796.09997599999997
 11
1549.3087765
 21
796.09997599999997
  0
LINE
  8
_0-0_0
  6
CONTINUOUS
 62
    7
 10
-91.209930499999928
 20
796.29998799999998
 11
1549.2147825
 21
796.29998799999998
  0
LINE
  8
_0-0_0
  6
CONTINUOUS
 62
    7
 10
-91.122634500000004
 20
796.49997000000008
 11
1549.1275025
 21
796.49997000000008
  0
LINE
  8
_0-0_0
  6
CONTINUOUS
 62
    7
 10
-90.86607349999997
 20
797.19998199999998
 11
1548.8710325
 21
797.19998199999998
  0
LINE
  8
_0-0_0
  6
CONTINUOUS
 62
    7
 10
-90.806045499999982
 20
797.39999399999999
 11
1548.8109744999999
 21
797.39999399999999
  0
LINE
  8
_0-0_0
  6
CONTINUOUS
 62
    7
 10
-90.751632500000028
 20
797.59997599999997
 11
1548.7565305000001
 21
797.59997599999997
  0
LINE
  8
_0-0_0
  6
CONTINUOUS
 62
    7
 10
-90.603927500000054
 20
798.29998799999998
 11
1548.6088255
 21
798.29998799999998
  0
LINE
  8
_0-0_0
  6
CONTINUOUS
 62
    7
 10
-90.573577500000056
 20
798.49997000000008
 11
1548.5784305
 21
798.49997000000008
  0
LINE
  8
_0-0_0
  6
CONTINUOUS
 62
    7
 10
-90.548385499999995
 20
798.69998199999998
 11
1548.5532834999999
 21
798.69998199999998
  0
LINE
  8
_0-0_0
  6
CONTINUOUS
 62
    7
 10
-90.500091500000053
 20
799.39999399999999
 11
1548.5049435000001
 21
799.39999399999999
  0
LINE
  8
_0-0_0
  6
CONTINUOUS
 62
    7
 10
-90.497589500000004
 20
799.59997599999997
 11
1548.5025025
 21
799.59997599999997
  0
LINE
  8
_0-0_0
  6
CONTINUOUS
 62
    7
 10
1563.0477905
 20
804.19998199999998
 11
1563.1366575
 21
804.07070899999997
  0
ARC
  8
_0-0_0
  6
CONTINUOUS
 62
    7
 10
1556.5025025
 20
799.59997599999997
 40
8
 50
35.099632
 51
144.900373
  0
LINE
  8
_0-0_0
  6
CONTINUOUS
 62
    7
 10
1549.9572145
 20
804.19998199999998
 11
1549.8683475
 21
804.07070899999997
  0
LINE
  8
_0-0_0
  6
CONTINUOUS
 62
    7
 10
1549.7752075000001
 20
803.92929099999992
 11
1549.8683475
 21
804.07070899999997
  0
LINE
  8
_0-0_0
  6
CONTINUOUS
 62
    7
 10
1549.7752075000001
 20
803.92929099999992
 11
1549.6936645000001
 21
803.79998799999998
  0
ARC
  8
_0-0_0
  6
CONTINUOUS
 62
    7
 10
1556.5025025
 20
799.59997599999997
 40
8
 50
148.33176499999999
 51
154.05551800000001
  0
LINE
  8
_0-0_0
  6
CONTINUOUS
 62
    7
 10
1549.3087765
 20
803.09997599999997
 11
1549.2147825
 21
802.89999399999999
  0
LINE
  8
_0-0_0
  6
CONTINUOUS
 62
    7
 10
1549.2147825
 20
802.89999399999999
 11
1549.1275025
 21
802.69998199999998
  0
ARC
  8
_0-0_0
  6
CONTINUOUS
 62
    7
 10
1556.5025025
 20
799.59997599999997
 40
8
 50
157.20097000000001
 51
162.54239699999999
  0
LINE
  8
_0-0_0
  6
CONTINUOUS
 62
    7
 10
1548.8710325
 20
801.99997000000008
 11
1548.8109744999999
 21
801.79998799999998
  0
LINE
  8
_0-0_0
  6
CONTINUOUS
 62
    7
 10
1548.8109744999999
 20
801.79998799999998
 11
1548.7565305000001
 21
801.59997599999997
  0
ARC
  8
_0-0_0
  6
CONTINUOUS
 62
    7
 10
1556.5025025
 20
799.59997599999997
 40
8
 50
165.52249
 51
170.64796000000001
  0
LINE
  8
_0-0_0
  6
CONTINUOUS
 62
    7
 10
1548.6088255
 20
800.89999399999999
 11
1548.5784305
 21
800.69998199999998
  0
LINE
  8
_0-0_0
  6
CONTINUOUS
 62
    7
 10
1548.5784305
 20
800.69998199999998
 11
1548.5532834999999
 21
800.49997000000008
  0
ARC
  8
_0-0_0
  6
CONTINUOUS
 62
    7
 10
1556.5025025
 20
799.59997599999997
 40
8
 50
173.54054500000001
 51
178.567455
  0
LINE
  8
_0-0_0
  6
CONTINUOUS
 62
    7
 10
1548.5049435000001
 20
799.79998799999998
 11
1548.5025025
 21
799.59997599999997
  0
LINE
  8
_0-0_0
  6
CONTINUOUS
 62
    7
 10
1564.5000605
 20
799.79998799999998
 11
1564.5025025
 21
799.59997599999997
  0
ARC
  8
_0-0_0
  6
CONTINUOUS
 62
    7
 10
1556.5025025
 20
799.59997599999997
 40
8
 50
1.432544
 51
6.4594489999999993
  0
LINE
  8
_0-0_0
  6
CONTINUOUS
 62
    7
 10
1564.4265745
 20
800.69998199999998
 11
1564.4517215000001
 21
800.49997000000008
  0
LINE
  8
_0-0_0
  6
CONTINUOUS
 62
    7
 10
1564.3961795
 20
800.89999399999999
 11
1564.4265745
 21
800.69998199999998
  0
ARC
  8
_0-0_0
  6
CONTINUOUS
 62
    7
 10
1556.5025025
 20
799.59997599999997
 40
8
 50
9.3520350000000008
 51
14.477510999999998
  0
LINE
  8
_0-0_0
  6
CONTINUOUS
 62
    7
 10
1564.1940305000001
 20
801.79998799999998
 11
1564.2484744999999
 21
801.59997599999997
  0
LINE
  8
_0-0_0
  6
CONTINUOUS
 62
    7
 10
1564.1339725
 20
801.99997000000008
 11
1564.1940305000001
 21
801.79998799999998
  0
ARC
  8
_0-0_0
  6
CONTINUOUS
 62
    7
 10
1556.5025025
 20
799.59997599999997
 40
8
 50
17.457602999999999
 51
22.799030999999999
  0
LINE
  8
_0-0_0
  6
CONTINUOUS
 62
    7
 10
1563.7902225
 20
802.89999399999999
 11
1563.8775025
 21
802.69998199999998
  0
LINE
  8
_0-0_0
  6
CONTINUOUS
 62
    7
 10
1563.6962275000001
 20
803.09997599999997
 11
1563.7902225
 21
802.89999399999999
  0
ARC
  8
_0-0_0
  6
CONTINUOUS
 62
    7
 10
1556.5025025
 20
799.59997599999997
 40
8
 50
25.944476999999999
 51
31.668240000000001
  0
LINE
  8
_0-0_0
  6
CONTINUOUS
 62
    7
 10
1563.2297974999999
 20
803.92929099999992
 11
1563.3113404999999
 21
803.79998799999998
  0
LINE
  8
_0-0_0
  6
CONTINUOUS
 62
    7
 10
1563.2297974999999
 20
803.92929099999992
 11
1563.1366575
 21
804.07070899999997
  0
CIRCLE
  8
_0-0_0
  6
CONTINUOUS
 62
    7
 10
1556.5025025
 20
799.59997599999997
 40
7.5
  0
LINE
  8
_0-0_0
  6
CONTINUOUS
 62
    7
 10
1564.5000605
 20
799.39999399999999
 11
1565.5025025
 21
799.39999399999999
  0
LINE
  8
_0-0_0
  6
CONTINUOUS
 62
    7
 10
1564.5025025
 20
799.59997599999997
 11
1565.5025025
 21
799.59997599999997
  0
LINE
  8
_0-0_0
  6
CONTINUOUS
 62
    7
 10
1564.4517215000001
 20
798.69998199999998
 11
1565.5025025
 21
798.69998199999998
  0
LINE
  8
_0-0_0
  6
CONTINUOUS
 62
    7
 10
1564.4265745
 20
798.49997000000008
 11
1565.5025025
 21
798.49997000000008
  0
LINE
  8
_0-0_0
  6
CONTINUOUS
 62
    7
 10
1564.3961795
 20
798.29998799999998
 11
1565.5025025
 21
798.29998799999998
  0
LINE
  8
_0-0_0
  6
CONTINUOUS
 62
    7
 10
1564.2484744999999
 20
797.59997599999997
 11
1565.5025025
 21
797.59997599999997
  0
LINE
  8
_0-0_0
  6
CONTINUOUS
 62
    7
 10
1564.1940305000001
 20
797.39999399999999
 11
1565.5025025
 21
797.39999399999999
  0
LINE
  8
_0-0_0
  6
CONTINUOUS
 62
    7
 10
1564.1339725
 20
797.19998199999998
 11
1565.5025025
 21
797.19998199999998
  0
LINE
  8
_0-0_0
  6
CONTINUOUS
 62
    7
 10
1563.8775025
 20
796.49997000000008
 11
1565.5025025
 21
796.49997000000008
  0
LINE
  8
_0-0_0
  6
CONTINUOUS
 62
    7
 10
1563.7902225
 20
796.29998799999998
 11
1565.5025025
 21
796.29998799999998
  0
LINE
  8
_0-0_0
  6
CONTINUOUS
 62
    7
 10
1563.6962275000001
 20
796.09997599999997
 11
1565.5025025
 21
796.09997599999997
  0
LINE
  8
_0-0_0
  6
CONTINUOUS
 62
    7
 10
1563.3113404999999
 20
795.39999399999999
 11
1565.5025025
 21
795.39999399999999
  0
LINE
  8
_0-0_0
  6
CONTINUOUS
 62
    7
 10
1563.3113404999999
 20
803.79998799999998
 11
1565.5025025
 21
803.79998799999998
  0
LINE
  8
_0-0_0
  6
CONTINUOUS
 62
    7
 10
1563.6962275000001
 20
803.09997599999997
 11
1565.5025025
 21
803.09997599999997
  0
LINE
  8
_0-0_0
  6
CONTINUOUS
 62
    7
 10
1563.7902225
 20
802.89999399999999
 11
1565.5025025
 21
802.89999399999999
  0
LINE
  8
_0-0_0
  6
CONTINUOUS
 62
    7
 10
1563.8775025
 20
802.69998199999998
 11
1565.5025025
 21
802.69998199999998
  0
LINE
  8
_0-0_0
  6
CONTINUOUS
 62
    7
 10
1564.1339725
 20
801.99997000000008
 11
1565.5025025
 21
801.99997000000008
  0
LINE
  8
_0-0_0
  6
CONTINUOUS
 62
    7
 10
1564.1940305000001
 20
801.79998799999998
 11
1565.5025025
 21
801.79998799999998
  0
LINE
  8
_0-0_0
  6
CONTINUOUS
 62
    7
 10
1564.2484744999999
 20
801.59997599999997
 11
1565.5025025
 21
801.59997599999997
  0
LINE
  8
_0-0_0
  6
CONTINUOUS
 62
    7
 10
1564.3961795
 20
800.89999399999999
 11
1565.5025025
 21
800.89999399999999
  0
LINE
  8
_0-0_0
  6
CONTINUOUS
 62
    7
 10
1564.4265745
 20
800.69998199999998
 11
1565.5025025
 21
800.69998199999998
  0
LINE
  8
_0-0_0
  6
CONTINUOUS
 62
    7
 10
1564.4517215000001
 20
800.49997000000008
 11
1565.5025025
 21
800.49997000000008
  0
LINE
  8
_0-0_0
  6
CONTINUOUS
 62
    7
 10
1564.5000605
 20
799.79998799999998
 11
1565.5025025
 21
799.79998799999998
  0
LINE
  8
_0-0_0
  6
CONTINUOUS
 62
    7
 10
1566.0025025
 20
783.09997599999997
 11
1565.5025025
 21
783.09997599999997
  0
LINE
  8
_0-0_0
  6
CONTINUOUS
 62
    7
 10
1565.5025025
 20
785.29998799999998
 11
1566.0025025
 21
785.29998799999998
  0
LINE
  8
_0-0_0
  6
CONTINUOUS
 62
    7
 10
1566.0025025
 20
787.59997599999997
 11
1565.5025025
 21
787.59997599999997
  0
LINE
  8
_0-0_0
  6
CONTINUOUS
 62
    7
 10
-107.4975895
 20
787.59997599999997
 11
-107.9975895
 21
787.59997599999997
  0
LINE
  8
_0-0_0
  6
CONTINUOUS
 62
    7
 10
1565.5025025
 20
789.89999399999999
 11
1566.0025025
 21
789.89999399999999
  0
LINE
  8
_0-0_0
  6
CONTINUOUS
 62
    7
 10
1566.0025025
 20
810.09997599999997
 11
1566.0025025
 21
809.99997000000008
  0
LINE
  8
_0-0_0
  6
CONTINUOUS
 62
    7
 10
-107.9975895
 20
810.09997599999997
 11
-107.9975895
 21
809.99997000000008
  0
LINE
  8
_0-0_0
  6
CONTINUOUS
 62
    7
 10
-107.9975895
 20
789.89999399999999
 11
-107.4975895
 21
789.89999399999999
  0
LINE
  8
_0-0_0
  6
CONTINUOUS
 62
    7
 10
-107.4975895
 20
809.79998799999998
 11
1565.5025025
 21
809.79998799999998
  0
LINE
  8
_0-0_0
  6
CONTINUOUS
 62
    7
 10
-107.4975895
 20
809.20602400000007
 11
1565.5025025
 21
809.20602400000007
  0
LINE
  8
_0-0_0
  6
CONTINUOUS
 62
    7
 10
1563.0477905
 20
804.19998199999998
 11
1565.5025025
 21
804.19998199999998
  0
LINE
  8
_0-0_0
  6
CONTINUOUS
 62
    7
 10
-107.4975895
 20
804.19998199999998
 11
-105.04281649999996
 21
804.19998199999998
  0
ARC
  8
_0-0_0
  6
CONTINUOUS
 62
    7
 10
-98.497589500000004
 20
799.59997599999997
 40
8
 50
35.099632
 51
144.900373
  0
LINE
  8
_0-0_0
  6
CONTINUOUS
 62
    7
 10
-91.952362499999936
 20
804.19998199999998
 11
1549.9572145
 21
804.19998199999998
  0
LINE
  8
_0-0_0
  6
CONTINUOUS
 62
    7
 10
-107.9975895
 20
783.09997599999997
 11
-107.49760449999997
 21
783.09997599999997
  0
LINE
  8
_0-0_0
  6
CONTINUOUS
 62
    7
 10
-107.9975895
 20
785.29998799999998
 11
-107.4975895
 21
785.29998799999998
  0
LINE
  8
_0-0_0
  6
CONTINUOUS
 62
    7
 10
-105.04281649999996
 20
804.19998199999998
 11
-105.13180549999993
 21
804.07070899999997
  0
LINE
  8
_0-0_0
  6
CONTINUOUS
 62
    7
 10
-105.22494549999999
 20
803.92929099999992
 11
-105.13180549999993
 21
804.07070899999997
  0
LINE
  8
_0-0_0
  6
CONTINUOUS
 62
    7
 10
-107.4975895
 20
803.79998799999998
 11
-105.30641149999997
 21
803.79998799999998
  0
LINE
  8
_0-0_0
  6
CONTINUOUS
 62
    7
 10
-105.22494549999999
 20
803.92929099999992
 11
-105.30641149999997
 21
803.79998799999998
  0
ARC
  8
_0-0_0
  6
CONTINUOUS
 62
    7
 10
-98.497589500000004
 20
799.59997599999997
 40
8
 50
148.33176499999999
 51
154.05551800000001
  0
LINE
  8
_0-0_0
  6
CONTINUOUS
 62
    7
 10
-107.4975895
 20
803.09997599999997
 11
-105.69134550000001
 21
803.09997599999997
  0
LINE
  8
_0-0_0
  6
CONTINUOUS
 62
    7
 10
-105.69134550000001
 20
803.09997599999997
 11
-105.75282249999998
 21
802.97070299999996
  0
LINE
  8
_0-0_0
  6
CONTINUOUS
 62
    7
 10
-105.81686449999995
 20
802.82928500000003
 11
-105.75282249999998
 21
802.97070299999996
  0
LINE
  8
_0-0_0
  6
CONTINUOUS
 62
    7
 10
-107.4975895
 20
802.69998199999998
 11
-105.87254350000001
 21
802.69998199999998
  0
LINE
  8
_0-0_0
  6
CONTINUOUS
 62
    7
 10
-105.81686449999995
 20
802.82928500000003
 11
-105.87254350000001
 21
802.69998199999998
  0
ARC
  8
_0-0_0
  6
CONTINUOUS
 62
    7
 10
-98.497589500000004
 20
799.59997599999997
 40
8
 50
157.20097000000001
 51
162.54239699999999
  0
LINE
  8
_0-0_0
  6
CONTINUOUS
 62
    7
 10
-107.4975895
 20
801.99997000000008
 11
-106.12910450000004
 21
801.99997000000008
  0
LINE
  8
_0-0_0
  6
CONTINUOUS
 62
    7
 10
-106.12910450000004
 20
801.99997000000008
 11
-106.1685635
 21
801.87069700000006
  0
LINE
  8
_0-0_0
  6
CONTINUOUS
 62
    7
 10
-106.20903049999993
 20
801.72927900000002
 11
-106.1685635
 21
801.87069700000006
  0
LINE
  8
_0-0_0
  6
CONTINUOUS
 62
    7
 10
-107.4975895
 20
801.59997599999997
 11
-106.24356050000006
 21
801.59997599999997
  0
LINE
  8
_0-0_0
  6
CONTINUOUS
 62
    7
 10
-106.20903049999993
 20
801.72927900000002
 11
-106.24356050000006
 21
801.59997599999997
  0
ARC
  8
_0-0_0
  6
CONTINUOUS
 62
    7
 10
-98.497589500000004
 20
799.59997599999997
 40
8
 50
165.52249
 51
170.64796000000001
  0
LINE
  8
_0-0_0
  6
CONTINUOUS
 62
    7
 10
-107.4975895
 20
800.89999399999999
 11
-106.39126550000003
 21
800.89999399999999
  0
LINE
  8
_0-0_0
  6
CONTINUOUS
 62
    7
 10
-106.39126550000003
 20
800.89999399999999
 11
-106.41146849999996
 21
800.77069099999994
  0
LINE
  8
_0-0_0
  6
CONTINUOUS
 62
    7
 10
-106.43110649999994
 20
800.62927300000001
 11
-106.41146849999996
 21
800.77069099999994
  0
LINE
  8
_0-0_0
  6
CONTINUOUS
 62
    7
 10
-107.4975895
 20
800.49997000000008
 11
-106.44680749999998
 21
800.49997000000008
  0
LINE
  8
_0-0_0
  6
CONTINUOUS
 62
    7
 10
-106.43110649999994
 20
800.62927300000001
 11
-106.44680749999998
 21
800.49997000000008
  0
ARC
  8
_0-0_0
  6
CONTINUOUS
 62
    7
 10
-98.497589500000004
 20
799.59997599999997
 40
8
 50
173.54054500000001
 51
178.567455
  0
LINE
  8
_0-0_0
  6
CONTINUOUS
 62
    7
 10
-107.4975895
 20
799.79998799999998
 11
-106.49510150000003
 21
799.79998799999998
  0
LINE
  8
_0-0_0
  6
CONTINUOUS
 62
    7
 10
-106.49510150000003
 20
799.79998799999998
 11
-106.49728349999998
 21
799.67068500000005
  0
LINE
  8
_0-0_0
  6
CONTINUOUS
 62
    7
 10
-106.4975895
 20
799.59997599999997
 11
-106.49728349999998
 21
799.67068500000005
  0
LINE
  8
_0-0_0
  6
CONTINUOUS
 62
    7
 10
-107.4975895
 20
799.39999399999999
 11
-106.49510150000003
 21
799.39999399999999
  0
LINE
  8
_0-0_0
  6
CONTINUOUS
 62
    7
 10
-107.4975895
 20
798.69998199999998
 11
-106.44680749999998
 21
798.69998199999998
  0
LINE
  8
_0-0_0
  6
CONTINUOUS
 62
    7
 10
-107.4975895
 20
798.29998799999998
 11
-106.39126550000003
 21
798.29998799999998
  0
LINE
  8
_0-0_0
  6
CONTINUOUS
 62
    7
 10
-107.4975895
 20
797.59997599999997
 11
-106.24356050000006
 21
797.59997599999997
  0
LINE
  8
_0-0_0
  6
CONTINUOUS
 62
    7
 10
-107.4975895
 20
797.19998199999998
 11
-106.12910450000004
 21
797.19998199999998
  0
LINE
  8
_0-0_0
  6
CONTINUOUS
 62
    7
 10
-107.4975895
 20
796.49997000000008
 11
-105.87254350000001
 21
796.49997000000008
  0
LINE
  8
_0-0_0
  6
CONTINUOUS
 62
    7
 10
-107.4975895
 20
796.09997599999997
 11
-105.69134550000001
 21
796.09997599999997
  0
LINE
  8
_0-0_0
  6
CONTINUOUS
 62
    7
 10
-107.4975895
 20
795.39999399999999
 11
-105.30641149999997
 21
795.39999399999999
  0
LINE
  8
_0-0_0
  6
CONTINUOUS
 62
    7
 10
-90.500091500000053
 20
799.79998799999998
 11
-90.497589500000004
 21
799.59997599999997
  0
ARC
  8
_0-0_0
  6
CONTINUOUS
 62
    7
 10
-98.497589500000004
 20
799.59997599999997
 40
8
 50
1.432544
 51
6.4594489999999993
  0
LINE
  8
_0-0_0
  6
CONTINUOUS
 62
    7
 10
-90.573577500000056
 20
800.69998199999998
 11
-90.548385499999995
 21
800.49997000000008
  0
LINE
  8
_0-0_0
  6
CONTINUOUS
 62
    7
 10
-90.603927500000054
 20
800.89999399999999
 11
-90.573577500000056
 21
800.69998199999998
  0
ARC
  8
_0-0_0
  6
CONTINUOUS
 62
    7
 10
-98.497589500000004
 20
799.59997599999997
 40
8
 50
9.3520350000000008
 51
14.477510999999998
  0
LINE
  8
_0-0_0
  6
CONTINUOUS
 62
    7
 10
-90.806045499999982
 20
801.79998799999998
 11
-90.751632500000028
 21
801.59997599999997
  0
LINE
  8
_0-0_0
  6
CONTINUOUS
 62
    7
 10
-90.86607349999997
 20
801.99997000000008
 11
-90.806045499999982
 21
801.79998799999998
  0
ARC
  8
_0-0_0
  6
CONTINUOUS
 62
    7
 10
-98.497589500000004
 20
799.59997599999997
 40
8
 50
17.457602999999999
 51
22.799030999999999
  0
LINE
  8
_0-0_0
  6
CONTINUOUS
 62
    7
 10
-91.209930499999928
 20
802.89999399999999
 11
-91.122634500000004
 21
802.69998199999998
  0
LINE
  8
_0-0_0
  6
CONTINUOUS
 62
    7
 10
-91.303848499999958
 20
803.09997599999997
 11
-91.209930499999928
 21
802.89999399999999
  0
ARC
  8
_0-0_0
  6
CONTINUOUS
 62
    7
 10
-98.497589500000004
 20
799.59997599999997
 40
8
 50
25.944476999999999
 51
31.668240000000001
  0
LINE
  8
_0-0_0
  6
CONTINUOUS
 62
    7
 10
-91.77024849999998
 20
803.92929099999992
 11
-91.688766499999929
 21
803.79998799999998
  0
LINE
  8
_0-0_0
  6
CONTINUOUS
 62
    7
 10
-91.77024849999998
 20
803.92929099999992
 11
-91.863388499999928
 21
804.07070899999997
  0
LINE
  8
_0-0_0
  6
CONTINUOUS
 62
    7
 10
-91.952362499999936
 20
804.19998199999998
 11
-91.863388499999928
 21
804.07070899999997
  0
CIRCLE
  8
_0-0_0
  6
CONTINUOUS
 62
    7
 10
-98.497589500000004
 20
799.59997599999997
 40
7.5
  0
LINE
  8
_0-0_0
  6
CONTINUOUS
 62
    7
 10
-90.500091500000053
 20
799.79998799999998
 11
1548.5049435000001
 21
799.79998799999998
  0
LINE
  8
_0-0_0
  6
CONTINUOUS
 62
    7
 10
-90.548385499999995
 20
800.49997000000008
 11
1548.5532834999999
 21
800.49997000000008
  0
LINE
  8
_0-0_0
  6
CONTINUOUS
 62
    7
 10
-90.573577500000056
 20
800.69998199999998
 11
1548.5784305
 21
800.69998199999998
  0
LINE
  8
_0-0_0
  6
CONTINUOUS
 62
    7
 10
-90.603927500000054
 20
800.89999399999999
 11
1548.6088255
 21
800.89999399999999
  0
LINE
  8
_0-0_0
  6
CONTINUOUS
 62
    7
 10
-90.751632500000028
 20
801.59997599999997
 11
1548.7565305000001
 21
801.59997599999997
  0
LINE
  8
_0-0_0
  6
CONTINUOUS
 62
    7
 10
-90.806045499999982
 20
801.79998799999998
 11
1548.8109744999999
 21
801.79998799999998
  0
LINE
  8
_0-0_0
  6
CONTINUOUS
 62
    7
 10
-90.86607349999997
 20
801.99997000000008
 11
1548.8710325
 21
801.99997000000008
  0
LINE
  8
_0-0_0
  6
CONTINUOUS
 62
    7
 10
-91.122634500000004
 20
802.69998199999998
 11
1549.1275025
 21
802.69998199999998
  0
LINE
  8
_0-0_0
  6
CONTINUOUS
 62
    7
 10
-91.209930499999928
 20
802.89999399999999
 11
1549.2147825
 21
802.89999399999999
  0
LINE
  8
_0-0_0
  6
CONTINUOUS
 62
    7
 10
-91.303848499999958
 20
803.09997599999997
 11
1549.3087765
 21
803.09997599999997
  0
LINE
  8
_0-0_0
  6
CONTINUOUS
 62
    7
 10
-91.688766499999929
 20
803.79998799999998
 11
1549.6936645000001
 21
803.79998799999998
  0
LINE
  8
_0-0_0
  6
CONTINUOUS
 62
    7
 10
1566.0025025
 20
781.59997599999997
 11
1565.5025025
 21
781.59997599999997
  0
LINE
  8
_0-0_0
  6
CONTINUOUS
 62
    7
 10
1566.0025025
 20
809.19998199999998
 11
1566.0025025
 21
809.99997000000008
  0
LINE
  8
_0-0_0
  6
CONTINUOUS
 62
    7
 10
1566.0025025
 20
781.39999399999999
 11
1566.0025025
 21
809.19998199999998
  0
ARC
  8
_0-0_0
  6
CONTINUOUS
 62
    7
 10
1556.5025025
 20
800.29998799999998
 40
12.800000000000001
 50
73.932597000000001
 51
106.06740099999999
  0
LINE
  8
_0-0_0
  6
CONTINUOUS
 62
    7
 10
-107.9975895
 20
809.19998199999998
 11
-107.9975895
 21
809.99997000000008
  0
LINE
  8
_0-0_0
  6
CONTINUOUS
 62
    7
 10
-107.9975895
 20
781.39999399999999
 11
-107.9975895
 21
809.19998199999998
  0
ARC
  8
_0-0_0
  6
CONTINUOUS
 62
    7
 10
-98.497589500000004
 20
800.29998799999998
 40
12.800000000000001
 50
73.932597000000001
 51
106.06740099999999
  0
LINE
  8
_0-0_0
  6
CONTINUOUS
 62
    7
 10
442.00238050000002
 20
812.59997599999997
 11
442.00238050000002
 21
818.23989899999992
  0
LINE
  8
_0-0_0
  6
CONTINUOUS
 62
    7
 10
461.00238050000002
 20
818.23989899999992
 11
461.00238050000002
 21
812.59997599999997
  0
LINE
  8
_0-0_0
  6
CONTINUOUS
 62
    7
 10
992.00250249999999
 20
812.59997599999997
 11
992.00250249999999
 21
818.23989899999992
  0
LINE
  8
_0-0_0
  6
CONTINUOUS
 62
    7
 10
1011.0025025
 20
818.23989899999992
 11
1011.0025025
 21
812.59997599999997
  0
LINE
  8
_0-0_0
  6
CONTINUOUS
 62
    7
 10
1566.0025025
 20
810.09997599999997
 11
1566.0025025
 21
812.59997599999997
  0
LINE
  8
_0-0_0
  6
CONTINUOUS
 62
    7
 10
-107.9975895
 20
812.59997599999997
 11
1566.0025025
 21
812.59997599999997
  0
LINE
  8
_0-0_0
  6
CONTINUOUS
 62
    7
 10
-107.9975895
 20
810.09997599999997
 11
-107.9975895
 21
812.59997599999997
  0
LINE
  8
_0-0_0
  6
CONTINUOUS
 62
    7
 10
-107.9975895
 20
781.59997599999997
 11
-107.49760449999997
 21
781.59997599999997
  0
ARC
  8
_0-0_0
  6
CONTINUOUS
 62
    7
 10
1487.8025514999999
 20
786.49997000000008
 40
0.2
 50
339.62356199999999
 51
90.000002999999978
  0
LINE
  8
_0-0_0
  6
CONTINUOUS
 62
    7
 10
1487.9899295
 20
786.43035899999995
 11
1486.6900025
 21
782.93035899999995
  0
ARC
  8
_0-0_0
  6
CONTINUOUS
 62
    7
 10
1486.5025025
 20
782.99997000000008
 40
0.2
 50
200.37643
 51
339.62356199999999
  0
LINE
  8
_0-0_0
  6
CONTINUOUS
 62
    7
 10
1485.0150755
 20
786.43035899999995
 11
1486.3150025
 21
782.93035899999995
  0
ARC
  8
_0-0_0
  6
CONTINUOUS
 62
    7
 10
1485.2024535
 20
786.49997000000008
 40
0.2
 50
90.000003000000007
 51
200.37643
  0
LINE
  8
_0-0_0
  6
CONTINUOUS
 62
    7
 10
1485.2024535
 20
786.69998199999998
 11
1487.8025514999999
 21
786.69998199999998
  0
ARC
  8
_0-0_0
  6
CONTINUOUS
 62
    7
 10
-52.197586499999943
 20
786.49997000000008
 40
0.2
 50
339.62356199999999
 51
90.000002999999978
  0
LINE
  8
_0-0_0
  6
CONTINUOUS
 62
    7
 10
-52.010116499999981
 20
786.43035899999995
 11
-53.310104499999966
 21
782.93035899999995
  0
ARC
  8
_0-0_0
  6
CONTINUOUS
 62
    7
 10
-53.497604499999966
 20
782.99997000000008
 40
0.2
 50
200.37643
 51
339.62356199999999
  0
LINE
  8
_0-0_0
  6
CONTINUOUS
 62
    7
 10
-54.985076499999991
 20
786.43035899999995
 11
-53.685073500000044
 21
782.93035899999995
  0
ARC
  8
_0-0_0
  6
CONTINUOUS
 62
    7
 10
-54.797592499999951
 20
786.49997000000008
 40
0.2
 50
90.000003000000007
 51
200.37643
  0
LINE
  8
_0-0_0
  6
CONTINUOUS
 62
    7
 10
-54.797592499999951
 20
786.69998199999998
 11
-52.197586499999943
 21
786.69998199999998
  0
LINE
  8
_0-0_0
  6
CONTINUOUS
 62
    7
 10
1567.0025025
 20
809.19998199999998
 11
1566.0025025
 21
809.19998199999998
  0
LINE
  8
_0-0_0
  6
CONTINUOUS
 62
    7
 10
1567.0025025
 20
810.23696900000004
 11
1566.0025025
 21
810.23696900000004
  0
LINE
  8
_0-0_0
  6
CONTINUOUS
 62
    7
 10
1567.0025025
 20
781.39999399999999
 11
1566.0025025
 21
781.39999399999999
  0
ARC
  8
_0-0_0
  6
CONTINUOUS
 62
    7
 10
1001.5025025
 20
800.29998799999998
 40
20.299999
 50
62.096725999999997
 51
117.903272
  0
CIRCLE
  8
_0-0_0
  6
CONTINUOUS
 62
    7
 10
1001.5025025
 20
816.59997599999997
 40
2.5
  0
ARC
  8
_0-0_0
  6
CONTINUOUS
 62
    7
 10
451.50238050000002
 20
800.29998799999998
 40
20.299999
 50
62.096725999999997
 51
117.903272
  0
CIRCLE
  8
_0-0_0
  6
CONTINUOUS
 62
    7
 10
451.50238050000002
 20
816.59997599999997
 40
2.5
  0
LINE
  8
_0-0_0
  6
CONTINUOUS
 62
    7
 10
-108.9975895
 20
809.19998199999998
 11
-107.9975895
 21
809.19998199999998
  0
LINE
  8
_0-0_0
  6
CONTINUOUS
 62
    7
 10
-108.9975895
 20
810.19998199999998
 11
-107.9975895
 21
810.19998199999998
  0
LINE
  8
_0-0_0
  6
CONTINUOUS
 62
    7
 10
-108.9975895
 20
781.39999399999999
 11
-107.9975895
 21
781.39999399999999
  0
LINE
  8
_0-0_0
  6
CONTINUOUS
 62
    7
 10
1567.0025025
 20
812.39999399999999
 11
1566.0025025
 21
812.39999399999999
  0
LINE
  8
_0-0_0
  6
CONTINUOUS
 62
    7
 10
-108.9975895
 20
812.39999399999999
 11
-107.9975895
 21
812.39999399999999
  0
LINE
  8
_0-0_0
  6
CONTINUOUS
 62
    7
 10
1568.0025025
 20
808.78576699999996
 11
1568.0015255000001
 21
808.80429099999992
  0
LINE
  8
_0-0_0
  6
CONTINUOUS
 62
    7
 10
1568.0015255000001
 20
808.80429099999992
 11
1567.9984744999999
 21
808.822723
  0
LINE
  8
_0-0_0
  6
CONTINUOUS
 62
    7
 10
1567.9984744999999
 20
808.822723
 11
1567.9932255000001
 21
808.841858
  0
LINE
  8
_0-0_0
  6
CONTINUOUS
 62
    7
 10
1567.9932255000001
 20
808.841858
 11
1567.9859005000001
 21
808.86086999999998
  0
LINE
  8
_0-0_0
  6
CONTINUOUS
 62
    7
 10
1567.9859005000001
 20
808.86086999999998
 11
1567.9653935000001
 21
808.89758299999994
  0
LINE
  8
_0-0_0
  6
CONTINUOUS
 62
    7
 10
1567.9653935000001
 20
808.89758299999994
 11
1567.9369505
 21
808.93325800000002
  0
LINE
  8
_0-0_0
  6
CONTINUOUS
 62
    7
 10
1567.9369505
 20
808.93325800000002
 11
1567.9010615
 21
808.96756000000005
  0
LINE
  8
_0-0_0
  6
CONTINUOUS
 62
    7
 10
1567.9010615
 20
808.96756000000005
 11
1567.8524775000001
 21
809.00402800000006
  0
LINE
  8
_0-0_0
  6
CONTINUOUS
 62
    7
 10
1567.8524775000001
 20
809.00402800000006
 11
1567.7957154999999
 21
809.03802500000006
  0
LINE
  8
_0-0_0
  6
CONTINUOUS
 62
    7
 10
1567.7957154999999
 20
809.03802500000006
 11
1567.7315065
 21
809.06927500000006
  0
LINE
  8
_0-0_0
  6
CONTINUOUS
 62
    7
 10
1567.7315065
 20
809.06927500000006
 11
1567.6608275000001
 21
809.097534
  0
LINE
  8
_0-0_0
  6
CONTINUOUS
 62
    7
 10
1567.6608275000001
 20
809.097534
 11
1567.6127315000001
 21
809.11389199999996
  0
LINE
  8
_0-0_0
  6
CONTINUOUS
 62
    7
 10
1567.6127315000001
 20
809.11389199999996
 11
1567.5626835
 21
809.12887599999999
  0
LINE
  8
_0-0_0
  6
CONTINUOUS
 62
    7
 10
1567.5626835
 20
809.12887599999999
 11
1567.5059205
 21
809.14364599999999
  0
LINE
  8
_0-0_0
  6
CONTINUOUS
 62
    7
 10
1567.5059205
 20
809.14364599999999
 11
1567.4473264999999
 21
809.15673800000002
  0
LINE
  8
_0-0_0
  6
CONTINUOUS
 62
    7
 10
1567.4473264999999
 20
809.15673800000002
 11
1567.3305055000001
 21
809.17706299999998
  0
LINE
  8
_0-0_0
  6
CONTINUOUS
 62
    7
 10
1567.3305055000001
 20
809.17706299999998
 11
1567.2232054999999
 21
809.18978900000002
  0
LINE
  8
_0-0_0
  6
CONTINUOUS
 62
    7
 10
1567.2232054999999
 20
809.18978900000002
 11
1567.1133425
 21
809.19741799999997
  0
LINE
  8
_0-0_0
  6
CONTINUOUS
 62
    7
 10
1567.1133425
 20
809.19741799999997
 11
1567.0025025
 21
809.19998199999998
  0
LINE
  8
_0-0_0
  6
CONTINUOUS
 62
    7
 10
1568.0025025
 20
808.78576699999996
 11
1568.0025025
 21
809.78582800000004
  0
LINE
  8
_0-0_0
  6
CONTINUOUS
 62
    7
 10
1568.0025025
 20
809.78582800000004
 11
1567.9995725000001
 21
809.81741299999999
  0
LINE
  8
_0-0_0
  6
CONTINUOUS
 62
    7
 10
1567.9995725000001
 20
809.81741299999999
 11
1567.9909055000001
 21
809.84948699999995
  0
LINE
  8
_0-0_0
  6
CONTINUOUS
 62
    7
 10
1567.9909055000001
 20
809.84948699999995
 11
1567.9763795000001
 21
809.88174400000003
  0
LINE
  8
_0-0_0
  6
CONTINUOUS
 62
    7
 10
1567.9763795000001
 20
809.88174400000003
 11
1567.9561154999999
 21
809.91390999999999
  0
LINE
  8
_0-0_0
  6
CONTINUOUS
 62
    7
 10
1567.9561154999999
 20
809.91390999999999
 11
1567.9395145000001
 21
809.93515000000002
  0
LINE
  8
_0-0_0
  6
CONTINUOUS
 62
    7
 10
1567.9395145000001
 20
809.93515000000002
 11
1567.9205935
 21
809.95608500000003
  0
LINE
  8
_0-0_0
  6
CONTINUOUS
 62
    7
 10
1567.9205935
 20
809.95608500000003
 11
1567.8757935000001
 21
809.99688700000002
  0
LINE
  8
_0-0_0
  6
CONTINUOUS
 62
    7
 10
1567.8757935000001
 20
809.99688700000002
 11
1567.8225705
 21
810.03561400000001
  0
LINE
  8
_0-0_0
  6
CONTINUOUS
 62
    7
 10
1567.8225705
 20
810.03561400000001
 11
1567.7726435
 21
810.06582700000001
  0
LINE
  8
_0-0_0
  6
CONTINUOUS
 62
    7
 10
1567.7726435
 20
810.06582700000001
 11
1567.7179564999999
 21
810.09405500000003
  0
LINE
  8
_0-0_0
  6
CONTINUOUS
 62
    7
 10
1567.7179564999999
 20
810.09405500000003
 11
1567.6589965000001
 21
810.12008700000001
  0
LINE
  8
_0-0_0
  6
CONTINUOUS
 62
    7
 10
1567.6589965000001
 20
810.12008700000001
 11
1567.6122435
 21
810.13809199999992
  0
LINE
  8
_0-0_0
  6
CONTINUOUS
 62
    7
 10
1567.6122435
 20
810.13809199999992
 11
1567.5635374999999
 21
810.15469400000006
  0
LINE
  8
_0-0_0
  6
CONTINUOUS
 62
    7
 10
1567.5635374999999
 20
810.15469400000006
 11
1567.4611205000001
 21
810.18356300000005
  0
LINE
  8
_0-0_0
  6
CONTINUOUS
 62
    7
 10
1567.4611205000001
 20
810.18356300000005
 11
1567.3534545
 21
810.20639000000006
  0
LINE
  8
_0-0_0
  6
CONTINUOUS
 62
    7
 10
1567.3534545
 20
810.20639000000006
 11
1567.2417605000001
 21
810.22299199999998
  0
LINE
  8
_0-0_0
  6
CONTINUOUS
 62
    7
 10
1567.2417605000001
 20
810.22299199999998
 11
1567.1277465000001
 21
810.23318500000005
  0
LINE
  8
_0-0_0
  6
CONTINUOUS
 62
    7
 10
1567.1277465000001
 20
810.23318500000005
 11
1567.0025025
 21
810.23696900000004
  0
ARC
  8
_0-0_0
  6
CONTINUOUS
 62
    7
 10
1567.0025025
 20
782.39999399999999
 40
1
 50
269.99999700000001
 51
0
  0
LINE
  8
_0-0_0
  6
CONTINUOUS
 62
    7
 10
1568.0025025
 20
782.39999399999999
 11
1568.0025025
 21
808.78576699999996
  0
CIRCLE
  8
_0-0_0
  6
CONTINUOUS
 62
    7
 10
1556.5025025
 20
799.59997599999997
 40
5
  0
LINE
  8
_0-0_0
  6
CONTINUOUS
 62
    7
 10
-109.9975895
 20
808.78576699999996
 11
-109.99659750000001
 21
808.80429099999992
  0
LINE
  8
_0-0_0
  6
CONTINUOUS
 62
    7
 10
-109.99659750000001
 20
808.80429099999992
 11
-109.99359149999998
 21
808.822723
  0
LINE
  8
_0-0_0
  6
CONTINUOUS
 62
    7
 10
-109.99359149999998
 20
808.822723
 11
-109.98835750000001
 21
808.841858
  0
LINE
  8
_0-0_0
  6
CONTINUOUS
 62
    7
 10
-109.98835750000001
 20
808.841858
 11
-109.98097250000001
 21
808.86086999999998
  0
LINE
  8
_0-0_0
  6
CONTINUOUS
 62
    7
 10
-109.98097250000001
 20
808.86086999999998
 11
-109.96043450000002
 21
808.89758299999994
  0
LINE
  8
_0-0_0
  6
CONTINUOUS
 62
    7
 10
-109.96043450000002
 20
808.89758299999994
 11
-109.93203749999998
 21
808.93325800000002
  0
LINE
  8
_0-0_0
  6
CONTINUOUS
 62
    7
 10
-109.93203749999998
 20
808.93325800000002
 11
-109.89614849999998
 21
808.96756000000005
  0
LINE
  8
_0-0_0
  6
CONTINUOUS
 62
    7
 10
-109.89614849999998
 20
808.96756000000005
 11
-109.84753449999994
 21
809.00402800000006
  0
LINE
  8
_0-0_0
  6
CONTINUOUS
 62
    7
 10
-109.84753449999994
 20
809.00402800000006
 11
-109.79075650000004
 21
809.03802500000006
  0
LINE
  8
_0-0_0
  6
CONTINUOUS
 62
    7
 10
-109.79075650000004
 20
809.03802500000006
 11
-109.7266085
 21
809.06927500000006
  0
LINE
  8
_0-0_0
  6
CONTINUOUS
 62
    7
 10
-109.7266085
 20
809.06927500000006
 11
-109.65596049999999
 21
809.097534
  0
LINE
  8
_0-0_0
  6
CONTINUOUS
 62
    7
 10
-109.65596049999999
 20
809.097534
 11
-109.60787949999997
 21
809.11389199999996
  0
LINE
  8
_0-0_0
  6
CONTINUOUS
 62
    7
 10
-109.60787949999997
 20
809.11389199999996
 11
-109.55773950000003
 21
809.12887599999999
  0
LINE
  8
_0-0_0
  6
CONTINUOUS
 62
    7
 10
-109.55773950000003
 20
809.12887599999999
 11
-109.50103749999994
 21
809.14364599999999
  0
LINE
  8
_0-0_0
  6
CONTINUOUS
 62
    7
 10
-109.50103749999994
 20
809.14364599999999
 11
-109.44242850000001
 21
809.15673800000002
  0
LINE
  8
_0-0_0
  6
CONTINUOUS
 62
    7
 10
-109.44242850000001
 20
809.15673800000002
 11
-109.32565350000004
 21
809.17706299999998
  0
LINE
  8
_0-0_0
  6
CONTINUOUS
 62
    7
 10
-109.32565350000004
 20
809.17706299999998
 11
-109.21824649999996
 21
809.18978900000002
  0
LINE
  8
_0-0_0
  6
CONTINUOUS
 62
    7
 10
-109.21824649999996
 20
809.18978900000002
 11
-109.10847450000006
 21
809.19741799999997
  0
LINE
  8
_0-0_0
  6
CONTINUOUS
 62
    7
 10
-109.10847450000006
 20
809.19741799999997
 11
-108.9975895
 21
809.19998199999998
  0
LINE
  8
_0-0_0
  6
CONTINUOUS
 62
    7
 10
-109.9975895
 20
809.75543199999993
 11
-109.99470550000001
 21
809.78634699999998
  0
LINE
  8
_0-0_0
  6
CONTINUOUS
 62
    7
 10
-109.99470550000001
 20
809.78634699999998
 11
-109.98600750000003
 21
809.81777999999997
  0
LINE
  8
_0-0_0
  6
CONTINUOUS
 62
    7
 10
-109.98600750000003
 20
809.81777999999997
 11
-109.97151150000002
 21
809.84945700000003
  0
LINE
  8
_0-0_0
  6
CONTINUOUS
 62
    7
 10
-109.97151150000002
 20
809.84945700000003
 11
-109.95135549999998
 21
809.88104299999998
  0
LINE
  8
_0-0_0
  6
CONTINUOUS
 62
    7
 10
-109.95135549999998
 20
809.88104299999998
 11
-109.93482949999998
 21
809.90191699999991
  0
LINE
  8
_0-0_0
  6
CONTINUOUS
 62
    7
 10
-109.93482949999998
 20
809.90191699999991
 11
-109.91592449999996
 21
809.92251599999997
  0
LINE
  8
_0-0_0
  6
CONTINUOUS
 62
    7
 10
-109.91592449999996
 20
809.92251599999997
 11
-109.87129249999998
 21
809.96267699999999
  0
LINE
  8
_0-0_0
  6
CONTINUOUS
 62
    7
 10
-109.87129249999998
 20
809.96267699999999
 11
-109.81816149999997
 21
810.00088499999993
  0
LINE
  8
_0-0_0
  6
CONTINUOUS
 62
    7
 10
-109.81816149999997
 20
810.00088499999993
 11
-109.76826449999999
 21
810.03070099999991
  0
LINE
  8
_0-0_0
  6
CONTINUOUS
 62
    7
 10
-109.76826449999999
 20
810.03070099999991
 11
-109.7135925
 21
810.05856300000005
  0
LINE
  8
_0-0_0
  6
CONTINUOUS
 62
    7
 10
-109.7135925
 20
810.05856300000005
 11
-109.65461749999997
 21
810.08431999999993
  0
LINE
  8
_0-0_0
  6
CONTINUOUS
 62
    7
 10
-109.65461749999997
 20
810.08431999999993
 11
-109.60786450000001
 21
810.102081
  0
LINE
  8
_0-0_0
  6
CONTINUOUS
 62
    7
 10
-109.60786450000001
 20
810.102081
 11
-109.55915849999997
 21
810.11852999999996
  0
LINE
  8
_0-0_0
  6
CONTINUOUS
 62
    7
 10
-109.55915849999997
 20
810.11852999999996
 11
-109.45672650000006
 21
810.14709500000004
  0
LINE
  8
_0-0_0
  6
CONTINUOUS
 62
    7
 10
-109.45672650000006
 20
810.14709500000004
 11
-109.3489075
 21
810.16970800000001
  0
LINE
  8
_0-0_0
  6
CONTINUOUS
 62
    7
 10
-109.3489075
 20
810.16970800000001
 11
-109.23721350000005
 21
810.18612699999994
  0
LINE
  8
_0-0_0
  6
CONTINUOUS
 62
    7
 10
-109.23721350000005
 20
810.18612699999994
 11
-109.12306250000006
 21
810.19622800000002
  0
LINE
  8
_0-0_0
  6
CONTINUOUS
 62
    7
 10
-109.12306250000006
 20
810.19622800000002
 11
-108.9975895
 21
810.19998199999998
  0
LINE
  8
_0-0_0
  6
CONTINUOUS
 62
    7
 10
-109.9975895
 20
808.78576699999996
 11
-109.9975895
 21
809.75543199999993
  0
ARC
  8
_0-0_0
  6
CONTINUOUS
 62
    7
 10
-108.9975895
 20
782.39999399999999
 40
1
 50
180.00000900000003
 51
269.99999700000001
  0
LINE
  8
_0-0_0
  6
CONTINUOUS
 62
    7
 10
-109.9975895
 20
782.39999399999999
 11
-109.9975895
 21
808.78576699999996
  0
CIRCLE
  8
_0-0_0
  6
CONTINUOUS
 62
    7
 10
-98.497589500000004
 20
799.59997599999997
 40
5
  0
LINE
  8
_0-0_0
  6
CONTINUOUS
 62
    7
 10
1568.0025025
 20
809.78582800000004
 11
1568.0025025
 21
811.39999399999999
  0
ARC
  8
_0-0_0
  6
CONTINUOUS
 62
    7
 10
1567.0025025
 20
811.39999399999999
 40
1
 50
0
 51
90.000003000000007
  0
ARC
  8
_0-0_0
  6
CONTINUOUS
 62
    7
 10
-108.9975895
 20
811.39999399999999
 40
1
 50
90.000003000000007
 51
180.00000900000001
  0
LINE
  8
_0-0_0
  6
CONTINUOUS
 62
    7
 10
-109.9975895
 20
809.75543199999993
 11
-109.9975895
 21
811.39999399999999
  0
LINE
  8
_0-0_0
  6
CONTINUOUS
 62
    7
 10
-137.90745549999997
 20
781.39999399999999
 11
-137.90745549999997
 21
780.79998799999998
  0
LINE
  8
_0-0_0
  6
CONTINUOUS
 62
    7
 10
-135.40745549999997
 20
775.55499299999997
 11
-135.40745549999997
 21
777.79998799999998
  0
LINE
  8
_0-0_0
  6
CONTINUOUS
 62
    7
 10
-134.40745549999997
 20
777.79998799999998
 11
-134.40745549999997
 21
779.79998799999998
  0
ARC
  8
_0-0_0
  6
CONTINUOUS
 62
    7
 10
-134.90745549999997
 20
779.79998799999998
 40
0.5
 50
0
 51
90.000003000000007
  0
LINE
  8
_0-0_0
  6
CONTINUOUS
 62
    7
 10
-134.90745549999997
 20
780.29998799999998
 11
-136.40745549999997
 21
780.29998799999998
  0
ARC
  8
_0-0_0
  6
CONTINUOUS
 62
    7
 10
-136.40745549999997
 20
781.29998799999998
 40
1
 50
180.00000900000003
 51
269.99999700000001
  0
LINE
  8
_0-0_0
  6
CONTINUOUS
 62
    7
 10
-137.40745549999997
 20
781.39999399999999
 11
-137.40745549999997
 21
781.29998799999998
  0
ARC
  8
_0-0_0
  6
CONTINUOUS
 62
    7
 10
-136.40745549999997
 20
780.79998799999998
 40
1.5
 50
180.00000900000003
 51
269.99999700000001
  0
LINE
  8
_0-0_0
  6
CONTINUOUS
 62
    7
 10
-136.40745549999997
 20
779.29998799999998
 11
-137.10746749999998
 21
779.29998799999998
  0
ARC
  8
_0-0_0
  6
CONTINUOUS
 62
    7
 10
-137.10746749999998
 20
780.29998799999998
 40
1
 50
180.00000900000003
 51
269.99999700000001
  0
LINE
  8
_0-0_0
  6
CONTINUOUS
 62
    7
 10
-138.10746749999998
 20
781.29998799999998
 11
-138.10746749999998
 21
780.29998799999998
  0
LINE
  8
_0-0_0
  6
CONTINUOUS
 62
    7
 10
-146.3074345
 20
780.29998799999998
 11
-146.3074345
 21
781.29998799999998
  0
ARC
  8
_0-0_0
  6
CONTINUOUS
 62
    7
 10
-147.3074345
 20
780.29998799999998
 40
1
 50
269.99999700000001
 51
0
  0
LINE
  8
_0-0_0
  6
CONTINUOUS
 62
    7
 10
-147.3074345
 20
779.29998799999998
 11
-147.50744650000001
 21
779.29998799999998
  0
ARC
  8
_0-0_0
  6
CONTINUOUS
 62
    7
 10
-147.50744650000001
 20
780.29998799999998
 40
1
 50
269.99999700000001
 51
0
  0
LINE
  8
_0-0_0
  6
CONTINUOUS
 62
    7
 10
-146.50744650000001
 20
780.29998799999998
 11
-146.50744650000001
 21
781.39999399999999
  0
LINE
  8
_0-0_0
  6
CONTINUOUS
 62
    7
 10
-147.00744650000001
 20
781.29998799999998
 11
-147.00744650000001
 21
781.39999399999999
  0
ARC
  8
_0-0_0
  6
CONTINUOUS
 62
    7
 10
-148.00744650000001
 20
781.29998799999998
 40
1
 50
269.99999700000001
 51
0
  0
LINE
  8
_0-0_0
  6
CONTINUOUS
 62
    7
 10
-148.00744650000001
 20
780.29998799999998
 11
-149.50744650000001
 21
780.29998799999998
  0
ARC
  8
_0-0_0
  6
CONTINUOUS
 62
    7
 10
-149.50744650000001
 20
779.79998799999998
 40
0.5
 50
90.000003000000007
 51
180.00000900000001
  0
LINE
  8
_0-0_0
  6
CONTINUOUS
 62
    7
 10
-150.00744650000001
 20
779.79998799999998
 11
-150.00744650000001
 21
777.79998799999998
  0
LINE
  8
_0-0_0
  6
CONTINUOUS
 62
    7
 10
-149.00744650000001
 20
775.55499299999997
 11
-149.00744650000001
 21
777.79998799999998
  0
LINE
  8
_0-0_0
  6
CONTINUOUS
 62
    7
 10
-150.90747050000004
 20
757.19998199999998
 11
-150.90747050000004
 21
775.55499299999997
  0
LINE
  8
_0-0_0
  6
CONTINUOUS
 62
    7
 10
-134.10746749999998
 20
757.19998199999998
 11
-134.10746749999998
 21
775.55499299999997
  0
CIRCLE
  8
_0-0_0
  6
CONTINUOUS
 62
    7
 10
-142.20745850000003
 20
777.79998799999998
 40
2.0499999999999998
  0
LINE
  8
_0-0_0
  6
CONTINUOUS
 62
    7
 10
-134.10746749999998
 20
779.29998799999998
 11
-134.10746749999998
 21
779.27499399999999
  0
LINE
  8
_0-0_0
  6
CONTINUOUS
 62
    7
 10
-134.10746749999998
 20
776.05493200000001
 11
-134.10746749999998
 21
776.32498199999998
  0
LINE
  8
_0-0_0
  6
CONTINUOUS
 62
    7
 10
-134.10746749999998
 20
775.55499299999997
 11
-134.10746749999998
 21
776.05499299999997
  0
LINE
  8
_0-0_0
  6
CONTINUOUS
 62
    7
 10
-134.10746749999998
 20
755.19998199999998
 11
-134.10746749999998
 21
757.19998199999998
  0
LINE
  8
_0-0_0
  6
CONTINUOUS
 62
    7
 10
-150.90747050000004
 20
755.19998199999998
 11
-150.90747050000004
 21
757.19998199999998
  0
LINE
  8
_0-0_0
  6
CONTINUOUS
 62
    7
 10
-150.90747050000004
 20
755.19998199999998
 11
-134.10746749999998
 21
755.19998199999998
  0
LINE
  8
_0-0_0
  6
CONTINUOUS
 62
    7
 10
-150.90747050000004
 20
779.29998799999998
 11
-150.90747050000004
 21
777.79998799999998
  0
LINE
  8
_0-0_0
  6
CONTINUOUS
 62
    7
 10
-150.90747050000004
 20
776.05499299999997
 11
-150.90747050000004
 21
777.79998799999998
  0
LINE
  8
_0-0_0
  6
CONTINUOUS
 62
    7
 10
-150.90747050000004
 20
775.55499299999997
 11
-150.90747050000004
 21
776.05499299999997
  0
LINE
  8
_0-0_0
  6
CONTINUOUS
 62
    7
 10
-150.00744650000001
 20
776.05505399999993
 11
-150.00744650000001
 21
777.79998799999998
  0
ARC
  8
_0-0_0
  6
CONTINUOUS
 62
    7
 10
-135.70745850000003
 20
757.29998799999998
 40
2
 50
323.13010300000002
 51
0.0000000000000127
  0
LINE
  8
_0-0_0
  6
CONTINUOUS
 62
    7
 10
-133.70745850000003
 20
757.29998799999998
 11
-133.70745850000003
 21
758.70004300000005
  0
LINE
  8
_0-0_0
  6
CONTINUOUS
 62
    7
 10
-133.40745549999997
 20
763.78967299999999
 11
-133.40745549999997
 21
774.23767099999998
  0
LINE
  8
_0-0_0
  6
CONTINUOUS
 62
    7
 10
-133.40745549999997
 20
775.20047
 11
-133.40745549999997
 21
777.43511999999998
  0
LINE
  8
_0-0_0
  6
CONTINUOUS
 62
    7
 10
-150.90747050000004
 20
779.29998799999998
 11
-150.00744650000001
 21
779.29998799999998
  0
LINE
  8
_0-0_0
  6
CONTINUOUS
 62
    7
 10
-151.00744650000001
 20
758.69998199999998
 11
-150.90747050000004
 21
758.69998199999998
  0
LINE
  8
_0-0_0
  6
CONTINUOUS
 62
    7
 10
-151.00744650000001
 20
758.69998199999998
 11
-151.00744650000001
 21
763.78967299999999
  0
LINE
  8
_0-0_0
  6
CONTINUOUS
 62
    7
 10
-151.00744650000001
 20
774.23767099999998
 11
-151.00744650000001
 21
775.20047
  0
LINE
  8
_0-0_0
  6
CONTINUOUS
 62
    7
 10
-151.00744650000001
 20
778.29998799999998
 11
-150.90747050000004
 21
778.29998799999998
  0
LINE
  8
_0-0_0
  6
CONTINUOUS
 62
    7
 10
-151.00744650000001
 20
777.43511999999998
 11
-151.00744650000001
 21
778.29998799999998
  0
LINE
  8
_0-0_0
  6
CONTINUOUS
 62
    7
 10
-151.00744650000001
 20
775.20047
 11
-151.00744650000001
 21
777.43511999999998
  0
LINE
  8
_0-0_0
  6
CONTINUOUS
 62
    7
 10
-151.00744650000001
 20
763.78967299999999
 11
-151.00744650000001
 21
774.23767099999998
  0
LINE
  8
_0-0_0
  6
CONTINUOUS
 62
    7
 10
-150.70745850000003
 20
777.18872099999999
 11
-150.70745850000003
 21
779.07498199999998
  0
LINE
  8
_0-0_0
  6
CONTINUOUS
 62
    7
 10
-150.70745850000003
 20
776.52499399999999
 11
-150.70745850000003
 21
777.18872099999999
  0
LINE
  8
_0-0_0
  6
CONTINUOUS
 62
    7
 10
-133.70745850000003
 20
778.41125499999998
 11
-133.70745850000003
 21
776.52529900000002
  0
LINE
  8
_0-0_0
  6
CONTINUOUS
 62
    7
 10
-133.70745850000003
 20
779.06662000000006
 11
-133.70745850000003
 21
778.41125499999998
  0
LINE
  8
_0-0_0
  6
CONTINUOUS
 62
    7
 10
-133.40745549999997
 20
758.69998199999998
 11
-133.40745549999997
 21
763.78967299999999
  0
LINE
  8
_0-0_0
  6
CONTINUOUS
 62
    7
 10
-133.40745549999997
 20
777.43511999999998
 11
-133.40745549999997
 21
778.29998799999998
  0
LINE
  8
_0-0_0
  6
CONTINUOUS
 62
    7
 10
-133.40745549999997
 20
774.23767099999998
 11
-133.40745549999997
 21
775.20047
  0
LINE
  8
_0-0_0
  6
CONTINUOUS
 62
    7
 10
-133.40745549999997
 20
778.29998799999998
 11
-133.70747349999999
 21
778.29998799999998
  0
LINE
  8
_0-0_0
  6
CONTINUOUS
 62
    7
 10
-133.40745549999997
 20
758.69998199999998
 11
-134.10746749999998
 21
758.69998199999998
  0
LINE
  8
_0-0_0
  6
CONTINUOUS
 62
    7
 10
-134.10746749999998
 20
779.29998799999998
 11
-134.40745549999997
 21
779.29998799999998
  0
LINE
  8
_0-0_0
  6
CONTINUOUS
 62
    7
 10
-134.40745549999997
 20
777.79998799999998
 11
-134.40745549999997
 21
776.05505399999993
  0
LINE
  8
_0-0_0
  6
CONTINUOUS
 62
    7
 10
-138.10746749999998
 20
781.29998799999998
 11
-138.10746749999998
 21
781.40005500000007
  0
LINE
  8
_0-0_0
  6
CONTINUOUS
 62
    7
 10
-146.3074345
 20
781.40005500000007
 11
-146.3074345
 21
781.29998799999998
  0
LINE
  8
_0-0_0
  6
CONTINUOUS
 62
    7
 10
-135.40745549999997
 20
776.05499299999997
 11
-134.10746749999998
 21
776.05499299999997
  0
ARC
  8
_0-0_0
  6
CONTINUOUS
 62
    7
 10
-150.20745850000003
 20
779.07498199999998
 40
0.2
 50
359.91222800000003
 51
89.999948000000003
  0
ARC
  8
_0-0_0
  6
CONTINUOUS
 62
    7
 10
-150.20758049999995
 20
776.52514700000006
 40
0.200169
 50
270.02985900000004
 51
2.3526610000000452
  0
LINE
  8
_0-0_0
  6
CONTINUOUS
 62
    7
 10
-150.50744650000001
 20
779.27499399999999
 11
-150.20745850000003
 21
779.27499399999999
  0
LINE
  8
_0-0_0
  6
CONTINUOUS
 62
    7
 10
-150.50744650000001
 20
776.32498199999998
 11
-150.20745850000003
 21
776.32498199999998
  0
ARC
  8
_0-0_0
  6
CONTINUOUS
 62
    7
 10
-150.50738550000005
 20
779.07482899999991
 40
0.200169
 50
90.029849999999996
 51
182.352667
  0
ARC
  8
_0-0_0
  6
CONTINUOUS
 62
    7
 10
-150.50744650000001
 20
776.52499399999999
 40
0.2
 50
179.912237
 51
269.99994299999997
  0
ARC
  8
_0-0_0
  6
CONTINUOUS
 62
    7
 10
-134.20735149999996
 20
776.52514700000006
 40
0.200169
 50
177.647333
 51
269.97013600000002
  0
ARC
  8
_0-0_0
  6
CONTINUOUS
 62
    7
 10
-134.20745850000003
 20
779.07498199999998
 40
0.2
 50
90.000049999999987
 51
180.08776299999997
  0
LINE
  8
_0-0_0
  6
CONTINUOUS
 62
    7
 10
-133.90745549999997
 20
776.32498199999998
 11
-134.20745850000003
 21
776.32498199999998
  0
LINE
  8
_0-0_0
  6
CONTINUOUS
 62
    7
 10
-133.90745549999997
 20
779.27499399999999
 11
-134.20745850000003
 21
779.27499399999999
  0
ARC
  8
_0-0_0
  6
CONTINUOUS
 62
    7
 10
-133.90745549999997
 20
776.52499399999999
 40
0.2
 50
270.00005199999998
 51
0.0877600000000175
  0
ARC
  8
_0-0_0
  6
CONTINUOUS
 62
    7
 10
-133.90756250000004
 20
779.07482899999991
 40
0.200169
 50
357.64733799999999
 51
89.970147999999995
  0
LINE
  8
_0-0_0
  6
CONTINUOUS
 62
    7
 10
-150.90747050000004
 20
776.05499299999997
 11
-149.00744650000001
 21
776.05499299999997
  0
LINE
  8
_0-0_0
  6
CONTINUOUS
 62
    7
 10
-133.40745549999997
 20
781.79998799999998
 11
-133.40745549999997
 21
794.99997000000008
  0
ARC
  8
_0-0_0
  6
CONTINUOUS
 62
    7
 10
-133.90745549999997
 20
781.79998799999998
 40
0.5
 50
269.99999700000001
 51
0
  0
ARC
  8
_0-0_0
  6
CONTINUOUS
 62
    7
 10
-133.46604950000005
 20
795.19998199999998
 40
0.1
 50
135
 51
225
  0
LINE
  8
_0-0_0
  6
CONTINUOUS
 62
    7
 10
-133.53675850000002
 20
795.12927300000001
 11
-133.40745549999997
 21
794.99997000000008
  0
LINE
  8
_0-0_0
  6
CONTINUOUS
 62
    7
 10
-133.90745549999997
 20
781.29998799999998
 11
-135.80746449999992
 21
781.29998799999998
  0
ARC
  8
_0-0_0
  6
CONTINUOUS
 62
    7
 10
-135.80746449999992
 20
781.79998799999998
 40
0.5
 50
233.12990600000001
 51
269.99999700000001
  0
ARC
  8
_0-0_0
  6
CONTINUOUS
 62
    7
 10
-148.50744650000001
 20
781.79998799999998
 40
0.5
 50
269.99999700000001
 51
306.87009999999998
  0
LINE
  8
_0-0_0
  6
CONTINUOUS
 62
    7
 10
-148.50744650000001
 20
781.29998799999998
 11
-150.40747050000004
 21
781.29998799999998
  0
ARC
  8
_0-0_0
  6
CONTINUOUS
 62
    7
 10
-150.40747050000004
 20
781.79998799999998
 40
0.5
 50
180.00000900000003
 51
269.99999700000001
  0
LINE
  8
_0-0_0
  6
CONTINUOUS
 62
    7
 10
-150.90747050000004
 20
791.23498500000005
 11
-150.90747050000004
 21
781.79998799999998
  0
LINE
  8
_0-0_0
  6
CONTINUOUS
 62
    7
 10
-150.90747050000004
 20
791.23498500000005
 11
-150.20745850000003
 21
791.23498500000005
  0
LINE
  8
_0-0_0
  6
CONTINUOUS
 62
    7
 10
-134.20745850000003
 20
809.79998799999998
 11
-134.00143449999996
 21
809.79998799999998
  0
LINE
  8
_0-0_0
  6
CONTINUOUS
 62
    7
 10
-134.00143449999996
 20
809.79998799999998
 11
-133.40745549999997
 21
809.20602400000007
  0
LINE
  8
_0-0_0
  6
CONTINUOUS
 62
    7
 10
-133.40745549999997
 20
804.19998199999998
 11
-133.40745549999997
 21
809.20602400000007
  0
LINE
  8
_0-0_0
  6
CONTINUOUS
 62
    7
 10
-133.53675850000002
 20
804.07070899999997
 11
-133.40745549999997
 21
804.19998199999998
  0
ARC
  8
_0-0_0
  6
CONTINUOUS
 62
    7
 10
-133.46604950000005
 20
803.99997000000008
 40
0.1
 50
135
 51
225
  0
LINE
  8
_0-0_0
  6
CONTINUOUS
 62
    7
 10
-133.53675850000002
 20
803.92929099999992
 11
-133.40745549999997
 21
803.79998799999998
  0
LINE
  8
_0-0_0
  6
CONTINUOUS
 62
    7
 10
-133.40745549999997
 20
803.09997599999997
 11
-133.40745549999997
 21
803.79998799999998
  0
LINE
  8
_0-0_0
  6
CONTINUOUS
 62
    7
 10
-133.53675850000002
 20
802.97070299999996
 11
-133.40745549999997
 21
803.09997599999997
  0
ARC
  8
_0-0_0
  6
CONTINUOUS
 62
    7
 10
-133.46604950000005
 20
802.89999399999999
 40
0.1
 50
135
 51
225
  0
LINE
  8
_0-0_0
  6
CONTINUOUS
 62
    7
 10
-133.53675850000002
 20
802.82928500000003
 11
-133.40745549999997
 21
802.69998199999998
  0
LINE
  8
_0-0_0
  6
CONTINUOUS
 62
    7
 10
-133.40745549999997
 20
801.99997000000008
 11
-133.40745549999997
 21
802.69998199999998
  0
LINE
  8
_0-0_0
  6
CONTINUOUS
 62
    7
 10
-133.53675850000002
 20
801.87069700000006
 11
-133.40745549999997
 21
801.99997000000008
  0
ARC
  8
_0-0_0
  6
CONTINUOUS
 62
    7
 10
-133.46604950000005
 20
801.79998799999998
 40
0.1
 50
135
 51
225
  0
LINE
  8
_0-0_0
  6
CONTINUOUS
 62
    7
 10
-133.53675850000002
 20
801.72927900000002
 11
-133.40745549999997
 21
801.59997599999997
  0
LINE
  8
_0-0_0
  6
CONTINUOUS
 62
    7
 10
-133.40745549999997
 20
800.89999399999999
 11
-133.40745549999997
 21
801.59997599999997
  0
LINE
  8
_0-0_0
  6
CONTINUOUS
 62
    7
 10
-133.53675850000002
 20
800.77069099999994
 11
-133.40745549999997
 21
800.89999399999999
  0
ARC
  8
_0-0_0
  6
CONTINUOUS
 62
    7
 10
-133.46604950000005
 20
800.69998199999998
 40
0.1
 50
135
 51
225
  0
LINE
  8
_0-0_0
  6
CONTINUOUS
 62
    7
 10
-133.53675850000002
 20
800.62927300000001
 11
-133.40745549999997
 21
800.49997000000008
  0
LINE
  8
_0-0_0
  6
CONTINUOUS
 62
    7
 10
-133.40745549999997
 20
799.79998799999998
 11
-133.40745549999997
 21
800.49997000000008
  0
LINE
  8
_0-0_0
  6
CONTINUOUS
 62
    7
 10
-133.53675850000002
 20
799.67068500000005
 11
-133.40745549999997
 21
799.79998799999998
  0
ARC
  8
_0-0_0
  6
CONTINUOUS
 62
    7
 10
-133.46604950000005
 20
799.59997599999997
 40
0.1
 50
135
 51
225
  0
LINE
  8
_0-0_0
  6
CONTINUOUS
 62
    7
 10
-133.53675850000002
 20
799.52926600000001
 11
-133.40745549999997
 21
799.39999399999999
  0
LINE
  8
_0-0_0
  6
CONTINUOUS
 62
    7
 10
-133.40745549999997
 20
798.69998199999998
 11
-133.40745549999997
 21
799.39999399999999
  0
LINE
  8
_0-0_0
  6
CONTINUOUS
 62
    7
 10
-133.53675850000002
 20
798.57070899999997
 11
-133.40745549999997
 21
798.69998199999998
  0
ARC
  8
_0-0_0
  6
CONTINUOUS
 62
    7
 10
-133.46604950000005
 20
798.49997000000008
 40
0.1
 50
135
 51
225
  0
LINE
  8
_0-0_0
  6
CONTINUOUS
 62
    7
 10
-133.53675850000002
 20
798.42929099999992
 11
-133.40745549999997
 21
798.29998799999998
  0
LINE
  8
_0-0_0
  6
CONTINUOUS
 62
    7
 10
-133.40745549999997
 20
797.59997599999997
 11
-133.40745549999997
 21
798.29998799999998
  0
LINE
  8
_0-0_0
  6
CONTINUOUS
 62
    7
 10
-133.53675850000002
 20
797.47070299999996
 11
-133.40745549999997
 21
797.59997599999997
  0
ARC
  8
_0-0_0
  6
CONTINUOUS
 62
    7
 10
-133.46604950000005
 20
797.39999399999999
 40
0.1
 50
135
 51
225
  0
LINE
  8
_0-0_0
  6
CONTINUOUS
 62
    7
 10
-133.53675850000002
 20
797.32928500000003
 11
-133.40745549999997
 21
797.19998199999998
  0
LINE
  8
_0-0_0
  6
CONTINUOUS
 62
    7
 10
-133.40745549999997
 20
796.49997000000008
 11
-133.40745549999997
 21
797.19998199999998
  0
LINE
  8
_0-0_0
  6
CONTINUOUS
 62
    7
 10
-133.53675850000002
 20
796.37069700000006
 11
-133.40745549999997
 21
796.49997000000008
  0
ARC
  8
_0-0_0
  6
CONTINUOUS
 62
    7
 10
-133.46604950000005
 20
796.29998799999998
 40
0.1
 50
135
 51
225
  0
LINE
  8
_0-0_0
  6
CONTINUOUS
 62
    7
 10
-133.53675850000002
 20
796.22927900000002
 11
-133.40745549999997
 21
796.09997599999997
  0
LINE
  8
_0-0_0
  6
CONTINUOUS
 62
    7
 10
-133.40745549999997
 20
795.39999399999999
 11
-133.40745549999997
 21
796.09997599999997
  0
LINE
  8
_0-0_0
  6
CONTINUOUS
 62
    7
 10
-133.53675850000002
 20
795.27069099999994
 11
-133.40745549999997
 21
795.39999399999999
  0
LINE
  8
_0-0_0
  6
CONTINUOUS
 62
    7
 10
-133.40745549999997
 20
787.29998799999998
 11
-133.30746449999992
 21
787.29998799999998
  0
LINE
  8
_0-0_0
  6
CONTINUOUS
 62
    7
 10
-133.30746449999992
 20
786.79998799999998
 11
-133.30746449999992
 21
787.29998799999998
  0
LINE
  8
_0-0_0
  6
CONTINUOUS
 62
    7
 10
-133.30746449999992
 20
786.79998799999998
 11
-133.30746449999992
 21
782.79998799999998
  0
LINE
  8
_0-0_0
  6
CONTINUOUS
 62
    7
 10
-133.40745549999997
 20
782.29998799999998
 11
-133.30746449999992
 21
782.29998799999998
  0
LINE
  8
_0-0_0
  6
CONTINUOUS
 62
    7
 10
-133.30746449999992
 20
782.29998799999998
 11
-133.30746449999992
 21
782.79998799999998
  0
LINE
  8
_0-0_0
  6
CONTINUOUS
 62
    7
 10
-150.90747050000004
 20
791.29998799999998
 11
-150.90747050000004
 21
791.23498500000005
  0
LINE
  8
_0-0_0
  6
CONTINUOUS
 62
    7
 10
-134.40745549999997
 20
810.09997599999997
 11
-134.40745549999997
 21
809.99997000000008
  0
ARC
  8
_0-0_0
  6
CONTINUOUS
 62
    7
 10
-146.90747050000004
 20
810.09997599999997
 40
2.5
 50
90.000003000000007
 51
180.00000900000001
  0
LINE
  8
_0-0_0
  6
CONTINUOUS
 62
    7
 10
-151.00744650000001
 20
791.29998799999998
 11
-150.20745850000003
 21
791.29998799999998
  0
LINE
  8
_0-0_0
  6
CONTINUOUS
 62
    7
 10
-150.50744650000001
 20
813.09997599999997
 11
-150.50744650000001
 21
808.87844900000005
  0
LINE
  8
_0-0_0
  6
CONTINUOUS
 62
    7
 10
-149.40747050000004
 20
813.09997599999997
 11
-149.40747050000004
 21
810.09997599999997
  0
LINE
  8
_0-0_0
  6
CONTINUOUS
 62
    7
 10
-150.50744650000001
 20
808.87844900000005
 11
-150.20745850000003
 21
808.87844900000005
  0
LINE
  8
_0-0_0
  6
CONTINUOUS
 62
    7
 10
-150.50744650000001
 20
818.23989899999992
 11
-149.40747050000004
 21
818.23989899999992
  0
LINE
  8
_0-0_0
  6
CONTINUOUS
 62
    7
 10
-149.40747050000004
 20
813.10037199999999
 11
-149.40747050000004
 21
818.23989899999992
  0
LINE
  8
_0-0_0
  6
CONTINUOUS
 62
    7
 10
-151.00744650000001
 20
812.60073899999998
 11
-151.00744650000001
 21
817.67208899999991
  0
LINE
  8
_0-0_0
  6
CONTINUOUS
 62
    7
 10
-150.50744650000001
 20
818.23989899999992
 11
-151.00744650000001
 21
817.67208899999991
  0
ARC
  8
_0-0_0
  6
CONTINUOUS
 62
    7
 10
-136.90745549999997
 20
810.09997599999997
 40
2.5
 50
0
 51
90.000003000000007
  0
LINE
  8
_0-0_0
  6
CONTINUOUS
 62
    7
 10
-149.40747050000004
 20
810
 11
-149.40747050000004
 21
810.09997599999997
  0
LINE
  8
_0-0_0
  6
CONTINUOUS
 62
    7
 10
-136.90745549999997
 20
812.59997599999997
 11
-146.90747050000004
 21
812.59997599999997
  0
LINE
  8
_0-0_0
  6
CONTINUOUS
 62
    7
 10
-133.20745850000003
 20
782.79998799999998
 11
-133.20745850000003
 21
782.93035899999995
  0
LINE
  8
_0-0_0
  6
CONTINUOUS
 62
    7
 10
-133.20745850000003
 20
786.43035899999995
 11
-133.20745850000003
 21
782.93035899999995
  0
LINE
  8
_0-0_0
  6
CONTINUOUS
 62
    7
 10
-133.30746449999992
 20
786.69998199999998
 11
-133.20745850000003
 21
786.69998199999998
  0
LINE
  8
_0-0_0
  6
CONTINUOUS
 62
    7
 10
-133.20745850000003
 20
786.43035899999995
 11
-133.20745850000003
 21
786.69998199999998
  0
LINE
  8
_0-0_0
  6
CONTINUOUS
 62
    7
 10
-149.40747050000004
 20
820.60000600000001
 11
-149.40747050000004
 21
818.23989899999992
  0
LINE
  8
_0-0_0
  6
CONTINUOUS
 62
    7
 10
-133.60746749999998
 20
809.19998199999998
 11
-134.60746749999998
 21
810.19998199999998
  0
LINE
  8
_0-0_0
  6
CONTINUOUS
 62
    7
 10
-133.60746749999998
 20
781.39999399999999
 11
-133.60746749999998
 21
809.19998199999998
  0
LINE
  8
_0-0_0
  6
CONTINUOUS
 62
    7
 10
-150.20745850000003
 20
781.39999399999999
 11
-133.60746749999998
 21
781.39999399999999
  0
LINE
  8
_0-0_0
  6
CONTINUOUS
 62
    7
 10
-150.20745850000003
 20
809.19998199999998
 11
-150.20745850000003
 21
781.39999399999999
  0
LINE
  8
_0-0_0
  6
CONTINUOUS
 62
    7
 10
-151.00744650000001
 20
791.29998799999998
 11
-151.00744650000001
 21
808.11279300000001
  0
LINE
  8
_0-0_0
  6
CONTINUOUS
 62
    7
 10
-151.00744650000001
 20
812.59997599999997
 11
-151.00744650000001
 21
808.11279300000001
  0
ARC
  8
_0-0_0
  6
CONTINUOUS
 62
    7
 10
-119.55572549999999
 20
788.11779799999999
 40
37.269466000000001
 50
146.14857699999999
 51
147.55443399999999
  0
LINE
  8
_0-0_0
  6
CONTINUOUS
 62
    7
 10
-150.50744650000001
 20
820.60000600000001
 11
-150.50744650000001
 21
818.23989899999992
  0
LINE
  8
_0-0_0
  6
CONTINUOUS
 62
    7
 10
-151.00744650000001
 20
820.10000600000001
 11
-151.00744650000001
 21
817.67208899999991
  0
ARC
  8
_0-0_0
  6
CONTINUOUS
 62
    7
 10
-137.17651350000006
 20
809.79998799999998
 40
2.6000000000000001
 50
8.8498839999999994
 51
90.000002999999992
  0
LINE
  8
_0-0_0
  6
CONTINUOUS
 62
    7
 10
-137.17651350000006
 20
812.39999399999999
 11
-146.63842750000003
 21
812.39999399999999
  0
ARC
  8
_0-0_0
  6
CONTINUOUS
 62
    7
 10
-146.63842750000003
 20
809.79998799999998
 40
2.6000000000000001
 50
90.000003000000007
 51
171.150115
  0
LINE
  8
_0-0_0
  6
CONTINUOUS
 62
    7
 10
-150.20745850000003
 20
809.19998199999998
 11
-149.20745850000003
 21
810.19998199999998
  0
LINE
  8
_0-0_0
  6
CONTINUOUS
 62
    7
 10
-134.60746749999998
 20
808.78576699999996
 11
-133.60746749999998
 21
809.19998199999998
  0
ARC
  8
_0-0_0
  6
CONTINUOUS
 62
    7
 10
-140.15000950000001
 20
820.98611499999993
 40
12.126564999999999
 50
292.155034
 51
297.19674500000002
  0
LINE
  8
_0-0_0
  6
CONTINUOUS
 62
    7
 10
-134.60746749999998
 20
782.39999399999999
 11
-133.60746749999998
 21
781.39999399999999
  0
LINE
  8
_0-0_0
  6
CONTINUOUS
 62
    7
 10
-149.20745850000003
 20
782.39999399999999
 11
-150.20745850000003
 21
781.39999399999999
  0
LINE
  8
_0-0_0
  6
CONTINUOUS
 62
    7
 10
-149.20745850000003
 20
808.78576699999996
 11
-150.20745850000003
 21
809.19998199999998
  0
ARC
  8
_0-0_0
  6
CONTINUOUS
 62
    7
 10
-143.6649175
 20
820.98611499999993
 40
12.126567
 50
242.80325699999997
 51
247.84494000000001
  0
CIRCLE
  8
_0-0_0
  6
CONTINUOUS
 62
    7
 10
-141.90745549999997
 20
789.59997599999997
 40
2.0670000000000002
  0
LINE
  8
_0-0_0
  6
CONTINUOUS
 62
    7
 10
-149.40747050000004
 20
813.09997599999997
 11
-150.50744650000001
 21
813.09997599999997
  0
LINE
  8
_0-0_0
  6
CONTINUOUS
 62
    7
 10
-133.30746449999992
 20
782.79998799999998
 11
-133.20745850000003
 21
782.79998799999998
  0
LINE
  8
_0-0_0
  6
CONTINUOUS
 62
    7
 10
-133.30746449999992
 20
782.79998799999998
 11
-133.20745850000003
 21
782.79998799999998
  0
LINE
  8
_0-0_0
  6
CONTINUOUS
 62
    7
 10
-151.00744650000001
 20
812.59997599999997
 11
-150.50744650000001
 21
813.09997599999997
  0
LINE
  8
_0-0_0
  6
CONTINUOUS
 62
    7
 10
-149.40747050000004
 20
820.60000600000001
 11
-150.50744650000001
 21
820.60000600000001
  0
LINE
  8
_0-0_0
  6
CONTINUOUS
 62
    7
 10
-151.00744650000001
 20
820.10000600000001
 11
-150.50744650000001
 21
820.60000600000001
  0
ENDSEC
  0
EOF
