  0
SECTION
  2
HEADER
  9
$ACADVER
  1
AC1009
  9
$INSBASE
 10
0
 20
0
 30
0
  9
$EXTMIN
 10
0
 20
0
  9
$EXTMAX
 10
1682
 20
1188
  9
$LIMMIN
 10
0
 20
0
  9
$LIMMAX
 10
1682
 20
1188
  9
$LTSCALE
 40
2
  0
ENDSEC
  0
SECTION
  2
TABLES
  0
TABLE
  2
LTYPE
 70
     9
  0
LTYPE
  2
CONTINUOUS
 70
    64
  3
実線
 72
    65
 73
     0
 40
0.0
  0
LTYPE
  2
DASHED1
 70
    64
  3
--  --  --  --  --  --  --  --  
 72
    65
 73
     2
 40
2.5
 49
1.25
 49
-1.25
  0
LTYPE
  2
DASHED2
 70
    64
  3
----    ----    ----    ----    
 72
    65
 73
     2
 40
5.0
 49
2.5
 49
-2.5
  0
LTYPE
  2
DASHED3
 70
    64
  3
------  ------  ------  ------  
 72
    65
 73
     2
 40
5.0
 49
3.75
 49
-1.25
  0
LTYPE
  2
CENTER1
 70
    64
  3
----- - ----- - ----- - ----- - 
 72
    65
 73
     4
 40
10.0
 49
6.25
 49
-1.25
 49
1.25
 49
-1.25
  0
LTYPE
  2
CENTER2
 70
    64
  3
----------  --  ----------  --  
 72
    65
 73
     4
 40
20.0
 49
12.5
 49
-2.5
 49
2.5
 49
-2.5
  0
LTYPE
  2
PHANTOM1
 70
    64
  3
--- - - --- - - --- - - --- - - 
 72
    65
 73
     6
 40
10.0
 49
3.25
 49
-1.25
 49
1.25
 49
-1.25
 49
1.25
 49
-1.25
  0
LTYPE
  2
PHANTOM2
 70
    64
  3
--------  -  -  --------  -  -  
 72
    65
 73
     6
 40
20.0
 49
10.0
 49
-2.5
 49
1.25
 49
-2.5
 49
1.25
 49
-2.5
  0
LTYPE
  2
DOT
 70
    64
  3
-   -   -   -   -   -   -   -   
 72
    65
 73
     2
 40
2.5
 49
0.625
 49
-1.875
  0
LTYPE
  2
DUMMY
 70
    64
  3
ダミー
 72
    65
 73
     0
 40
0.0
  0
LTYPE
  2
RAND1
 70
    64
  3
ランダム線1
 72
    65
 73
     4
 40
10.0
 49
1.0
 49
-2.0
 49
3.0
 49
-4.0
  0
LTYPE
  2
RAND2
 70
    64
  3
ランダム線2
 72
    65
 73
     4
 40
14.0
 49
2.0
 49
-3.0
 49
4.0
 49
-5.0
  0
LTYPE
  2
RAND3
 70
    64
  3
ランダム線3
 72
    65
 73
     4
 40
18.0
 49
3.0
 49
-4.0
 49
5.0
 49
-6.0
  0
LTYPE
  2
RAND4
 70
    64
  3
ランダム線4
 72
    65
 73
     4
 40
22.0
 49
4.0
 49
-5.0
 49
6.0
 49
-7.0
  0
LTYPE
  2
RAND5
 70
    64
  3
ランダム線5
 72
    65
 73
     4
 40
26.0
 49
5.0
 49
-6.0
 49
7.0
 49
-8.0
  0
LTYPE
  2
LONG1
 70
    64
  3
----------  --  ----------  --  
 72
    65
 73
     4
 40
40.0
 49
32.5
 49
-2.5
 49
2.5
 49
-2.5
  0
LTYPE
  2
LONG2
 70
    64
  3
--------  -  -  --------  -  -  
 72
    65
 73
     6
 40
40.0
 49
30.0
 49
-2.5
 49
1.25
 49
-2.5
 49
1.25
 49
-2.5
  0
LTYPE
  2
LONG3
 70
    64
  3
+++++++++++++++..+++++++++++++++
 72
    65
 73
     2
 40
40.0
 49
37.5
 49
-2.5
  0
LTYPE
  2
LONG4
 70
    64
  3
+++++++++++++++..+++++++++++++++
 72
    65
 73
     2
 40
80.0
 49
75.0
 49
-5.0
  0
LTYPE
  2
LONG5
 70
    64
  3
----------  --  ----------  --  
 72
    65
 73
     4
 40
60.0
 49
37.5
 49
-7.5
 49
7.5
 49
-7.5
  0
LTYPE
  2
dashed
 70
   64
  3
-------   -------------   ------
 72
   65
 73
    2
 40
7.5
 49
6
 49
-1.5
  0
LTYPE
  2
dashed_spaced
 70
   64
  3
----        --------        ----
 72
   65
 73
    2
 40
12
 49
6
 49
-6
  0
LTYPE
  2
long_dashed_dotted
 70
   64
  3
------------- --- --------------
 72
   65
 73
    4
 40
15.25
 49
12
 49
-1.5
 49
0.25
 49
-1.5
  0
LTYPE
  2
long_dashed_double-dotted
 70
   64
  3
----------- --- --- ------------
 72
   65
 73
    6
 40
17
 49
12
 49
-1.5
 49
0.25
 49
-1.5
 49
0.25
 49
-1.5
  0
LTYPE
  2
long_dashed_triplicate-dotted
 70
   64
  3
--------- --- --- --- ----------
 72
   65
 73
    8
 40
18.75
 49
12
 49
-1.5
 49
0.25
 49
-1.5
 49
0.25
 49
-1.5
 49
0.25
 49
-1.5
  0
LTYPE
  2
dotted
 70
   64
  3
   -       -       -       -    
 72
   65
 73
    2
 40
1.75
 49
0.25
 49
-1.5
  0
LTYPE
  2
chain
 70
   64
  3
-------------- -- --------------
 72
   65
 73
    4
 40
18.5
 49
12
 49
-1.5
 49
3.5
 49
-1.5
  0
LTYPE
  2
chain_double_dash
 70
   64
  3
------------ -- -- -------------
 72
   65
 73
    6
 40
23.5
 49
12
 49
-1.5
 49
3.5
 49
-1.5
 49
3.5
 49
-1.5
  0
LTYPE
  2
dashed_dotted
 70
   64
  3
-----------     -     ----------
 72
   65
 73
    4
 40
9.25
 49
6
 49
-1.5
 49
0.25
 49
-1.5
  0
LTYPE
  2
double-dashed_dotted
 70
   64
  3
------   -----------   -   -----
 72
   65
 73
    6
 40
16.75
 49
6
 49
-1.5
 49
6
 49
-1.5
 49
0.25
 49
-1.5
  0
LTYPE
  2
dashed_double-dotted
 70
   64
  3
---------    -    -    ---------
 72
   65
 73
    6
 40
11
 49
6
 49
-1.5
 49
0.25
 49
-1.5
 49
0.25
 49
-1.5
  0
LTYPE
  2
double-dashed_double-dotted
 70
   64
  3
-----   ---------   -   -   ----
 72
   65
 73
    8
 40
18.5
 49
6
 49
-1.5
 49
6
 49
-1.5
 49
0.25
 49
-1.5
 49
0.25
 49
-1.5
  0
LTYPE
  2
dashed_triplicate-dotted
 70
   64
  3
-------    -    -    -    ------
 72
   65
 73
    8
 40
12.75
 49
6
 49
-1.5
 49
0.25
 49
-1.5
 49
0.25
 49
-1.5
 49
0.25
 49
-1.5
  0
LTYPE
  2
double-dashed_triplicate-dotted
 70
   64
  3
-----  ---------  -  -  -  -----
 72
   65
 73
   10
 40
20.25
 49
6
 49
-1.5
 49
6
 49
-1.5
 49
0.25
 49
-1.5
 49
0.25
 49
-1.5
 49
0.25
 49
-1.5
  0
LTYPE
  2
undefined
 70
   64
  3
--------------------------------
 72
   65
 73
    0
 40
0
  0
ENDTAB
  0
TABLE
  2
STYLE
  5
3
100
AcDbSymbolTable
 70
     1
  0
STYLE
  5
10
100
AcDbSymbolTableRecord
100
AcDbTextStyleTableRecord
  2
STANDARD
 70
     0
 40
0.0
 41
1.0
 50
0.0
 71
     0
 42
0.2
  3
txt
  4
bigfont.shx
  0
STYLE
  5
26
100
AcDbSymbolTableRecord
100
AcDbTextStyleTableRecord
  2
TATEGAKI
 70
    68
 40
0.0
 41
1.0
 50
0.0
 71
     0
 42
1.0
  3
txt
  4
bigfont.shx
  0
ENDTAB
  0
TABLE
  2
LAYER
 70
    2
  0
LAYER
  2
_0-0_0
 70
   64
 62
    7
  6
CONTINUOUS
  0
LAYER
  2
ADD_LINE
 70
   64
 62
    7
  6
CONTINUOUS
  0
ENDTAB
  0
ENDSEC
  0
SECTION
  2
BLOCKS
  0
ENDSEC
  0
SECTION
  2
ENTITIES
  0
POINT
  8
_0-0_0
 62
    7
 10
62.002403500000014
 20
768.89999399999999
  0
LINE
  8
_0-0_0
  6
CONTINUOUS
 62
    7
 10
-44.997589500000004
 20
809.90048200000001
 11
-44.997589500000004
 21
809.89947499999994
  0
LINE
  8
_0-0_0
  6
CONTINUOUS
 62
    7
 10
-18.497589500000004
 20
775.55499299999997
 11
-18.497589500000004
 21
777.79998799999998
  0
LINE
  8
_0-0_0
  6
CONTINUOUS
 62
    7
 10
-18.497589500000004
 20
777.79998799999998
 11
-18.497589500000004
 21
779.79998799999998
  0
LINE
  8
_0-0_0
  6
CONTINUOUS
 62
    7
 10
-18.497589500000004
 20
779.79998799999998
 11
-18.497589500000004
 21
780.29998799999998
  0
LINE
  8
_0-0_0
  6
CONTINUOUS
 62
    7
 10
-18.497589500000004
 20
780.29998799999998
 11
-18.497589500000004
 21
781.29998799999998
  0
LINE
  8
_0-0_0
  6
CONTINUOUS
 62
    7
 10
-18.497589500000004
 20
757.19998199999998
 11
-18.497589500000004
 21
775.55499299999997
  0
LINE
  8
_0-0_0
  6
CONTINUOUS
 62
    7
 10
78.002403500000014
 20
779.29998799999998
 11
78.002403500000014
 21
779.79998799999998
  0
LINE
  8
_0-0_0
  6
CONTINUOUS
 62
    7
 10
78.002403500000014
 20
780.29998799999998
 11
78.002403500000014
 21
781.29998799999998
  0
LINE
  8
_0-0_0
  6
CONTINUOUS
 62
    7
 10
78.002403500000014
 20
779.79998799999998
 11
78.002403500000014
 21
780.29998799999998
  0
ARC
  8
_0-0_0
  6
CONTINUOUS
 62
    7
 10
64.002403500000014
 20
775.55499299999997
 40
0.5
 50
0
 51
123.74898500000002
  0
ARC
  8
_0-0_0
  6
CONTINUOUS
 62
    7
 10
62.502403500000014
 20
777.79998799999998
 40
2.2000000000000002
 50
180.00000900000003
 51
303.74900400000001
  0
LINE
  8
_0-0_0
  6
CONTINUOUS
 62
    7
 10
60.302406499999961
 20
777.79998799999998
 11
60.302406499999961
 21
779.29998799999998
  0
LINE
  8
_0-0_0
  6
CONTINUOUS
 62
    7
 10
-14.297607500000026
 20
779.29998799999998
 11
60.302406499999961
 21
779.29998799999998
  0
LINE
  8
_0-0_0
  6
CONTINUOUS
 62
    7
 10
-14.297607500000026
 20
779.29998799999998
 11
-14.297607500000026
 21
777.79998799999998
  0
ARC
  8
_0-0_0
  6
CONTINUOUS
 62
    7
 10
-16.497589500000004
 20
777.79998799999998
 40
2.2000000000000002
 50
236.25102899999999
 51
0
  0
ARC
  8
_0-0_0
  6
CONTINUOUS
 62
    7
 10
-17.997589500000004
 20
775.55499299999997
 40
0.5
 50
56.251010000000008
 51
180.00000900000001
  0
ARC
  8
_0-0_0
  6
CONTINUOUS
 62
    7
 10
-16.497589500000004
 20
757.19998199999998
 40
2
 50
180.00000900000003
 51
269.99999700000001
  0
LINE
  8
_0-0_0
  6
CONTINUOUS
 62
    7
 10
-16.497589500000004
 20
755.19998199999998
 11
-15.497589500000004
 21
755.19998199999998
  0
LINE
  8
_0-0_0
  6
CONTINUOUS
 62
    7
 10
-15.497589500000004
 20
755.19998199999998
 11
-15.497589500000004
 21
756.79998799999998
  0
ARC
  8
_0-0_0
  6
CONTINUOUS
 62
    7
 10
-14.997589500000004
 20
756.79998799999998
 40
0.5
 50
90.000003000000007
 51
180.00000900000001
  0
LINE
  8
_0-0_0
  6
CONTINUOUS
 62
    7
 10
-14.797607500000026
 20
757.29998799999998
 11
-14.997589500000004
 21
757.29998799999998
  0
ARC
  8
_0-0_0
  6
CONTINUOUS
 62
    7
 10
-14.797607500000026
 20
756.79998799999998
 40
0.5
 50
90.000003000000007
 51
180.00000900000001
  0
LINE
  8
_0-0_0
  6
CONTINUOUS
 62
    7
 10
-15.297607500000026
 20
755.29998799999998
 11
-15.297607500000026
 21
756.79998799999998
  0
LINE
  8
_0-0_0
  6
CONTINUOUS
 62
    7
 10
54.302406499999961
 20
755.29998799999998
 11
-15.297607500000026
 21
755.29998799999998
  0
LINE
  8
_0-0_0
  6
CONTINUOUS
 62
    7
 10
54.302406499999961
 20
755.29998799999998
 11
54.302406499999961
 21
756.79998799999998
  0
ARC
  8
_0-0_0
  6
CONTINUOUS
 62
    7
 10
53.802406499999961
 20
756.79998799999998
 40
0.5
 50
0
 51
90.000003000000007
  0
LINE
  8
_0-0_0
  6
CONTINUOUS
 62
    7
 10
54.002403500000014
 20
757.29998799999998
 11
53.802406499999961
 21
757.29998799999998
  0
ARC
  8
_0-0_0
  6
CONTINUOUS
 62
    7
 10
54.002403500000014
 20
756.79998799999998
 40
0.5
 50
0
 51
90.000003000000007
  0
LINE
  8
_0-0_0
  6
CONTINUOUS
 62
    7
 10
54.502403500000014
 20
756.79998799999998
 11
54.502403500000014
 21
755.19998199999998
  0
LINE
  8
_0-0_0
  6
CONTINUOUS
 62
    7
 10
54.502403500000014
 20
755.19998199999998
 11
64.502403500000014
 21
755.19998199999998
  0
LINE
  8
_0-0_0
  6
CONTINUOUS
 62
    7
 10
64.502403500000014
 20
755.19998199999998
 11
64.502403500000014
 21
756.09997599999997
  0
LINE
  8
_0-0_0
  6
CONTINUOUS
 62
    7
 10
0.502380500000072
 20
758.704071
 11
41.902397500000006
 21
758.704071
  0
LINE
  8
_0-0_0
  6
CONTINUOUS
 62
    7
 10
0.502380500000072
 20
778.29998799999998
 11
41.902397500000006
 21
778.29998799999998
  0
ARC
  8
_0-0_0
  6
CONTINUOUS
 62
    7
 10
53.202400500000067
 20
757.49997000000008
 40
0.2
 50
180.00000900000003
 51
269.99999700000001
  0
LINE
  8
_0-0_0
  6
CONTINUOUS
 62
    7
 10
53.202400500000067
 20
757.29998799999998
 11
-14.197601500000019
 21
757.29998799999998
  0
ARC
  8
_0-0_0
  6
CONTINUOUS
 62
    7
 10
-14.197601500000019
 20
757.49997000000008
 40
0.2
 50
269.99999700000001
 51
0
  0
ARC
  8
_0-0_0
  6
CONTINUOUS
 62
    7
 10
-13.797607500000026
 20
757.49997000000008
 40
0.2
 50
90.000003000000007
 51
180.00000900000001
  0
LINE
  8
_0-0_0
  6
CONTINUOUS
 62
    7
 10
-13.797607500000026
 20
757.69998199999998
 11
52.802406499999961
 21
757.69998199999998
  0
ARC
  8
_0-0_0
  6
CONTINUOUS
 62
    7
 10
52.802406499999961
 20
757.49997000000008
 40
0.2
 50
0
 51
90.000003000000007
  0
LINE
  8
_0-0_0
  6
CONTINUOUS
 62
    7
 10
-18.497589500000004
 20
780.29998799999998
 11
78.002403500000014
 21
780.29998799999998
  0
LINE
  8
_0-0_0
  6
CONTINUOUS
 62
    7
 10
77.502403500000014
 20
779.29998799999998
 11
78.002403500000014
 21
779.29998799999998
  0
LINE
  8
_0-0_0
  6
CONTINUOUS
 62
    7
 10
64.502403500000014
 20
757.29998799999998
 11
64.502403500000014
 21
756.09997599999997
  0
LINE
  8
_0-0_0
  6
CONTINUOUS
 62
    7
 10
64.502403500000014
 20
757.29998799999998
 11
64.502403500000014
 21
774.89999399999999
  0
LINE
  8
_0-0_0
  6
CONTINUOUS
 62
    7
 10
64.502403500000014
 20
776.87734999999998
 11
64.502403500000014
 21
774.89999399999999
  0
LINE
  8
_0-0_0
  6
CONTINUOUS
 62
    7
 10
-16.497589500000004
 20
763.78967299999999
 11
-16.497589500000004
 21
774.23767099999998
  0
ARC
  8
_0-0_0
  6
CONTINUOUS
 62
    7
 10
-16.497589500000004
 20
777.79998799999998
 40
2.7000000000000002
 50
285.68033600000007
 51
352.23356600000005
  0
LINE
  8
_0-0_0
  6
CONTINUOUS
 62
    7
 10
60.502403500000014
 20
775.29998799999998
 11
60.502403500000014
 21
761.69998199999998
  0
LINE
  8
_0-0_0
  6
CONTINUOUS
 62
    7
 10
-14.497589500000004
 20
779.29998799999998
 11
-14.297607500000026
 21
779.29998799999998
  0
LINE
  8
_0-0_0
  6
CONTINUOUS
 62
    7
 10
-14.497589500000004
 20
779.29998799999998
 11
-14.497589500000004
 21
777.79998799999998
  0
ARC
  8
_0-0_0
  6
CONTINUOUS
 62
    7
 10
-16.497589500000004
 20
777.79998799999998
 40
2
 50
180.00000900000003
 51
0.0000000000000254
  0
LINE
  8
_0-0_0
  6
CONTINUOUS
 62
    7
 10
77.502403500000014
 20
779.29998799999998
 11
77.502403500000014
 21
777.59997599999997
  0
LINE
  8
_0-0_0
  6
CONTINUOUS
 62
    7
 10
64.502403500000014
 20
755.29998799999998
 11
76.502403500000014
 21
755.29998799999998
  0
LINE
  8
_0-0_0
  6
CONTINUOUS
 62
    7
 10
76.502403500000014
 20
755.29998799999998
 11
81.177848499999982
 21
755.29998799999998
  0
LINE
  8
_0-0_0
  6
CONTINUOUS
 62
    7
 10
76.502403500000014
 20
760.79998799999998
 11
76.502403500000014
 21
757.79998799999998
  0
LINE
  8
_0-0_0
  6
CONTINUOUS
 62
    7
 10
76.502403500000014
 20
757.79998799999998
 11
76.502403500000014
 21
757.29998799999998
  0
LINE
  8
_0-0_0
  6
CONTINUOUS
 62
    7
 10
76.502403500000014
 20
760.79998799999998
 11
76.502403500000014
 21
761.29998799999998
  0
ARC
  8
_0-0_0
  6
CONTINUOUS
 62
    7
 10
70.502387500000054
 20
760.60000600000001
 40
0.500016
 50
180.00117
 51
359.995611
  0
LINE
  8
_0-0_0
  6
CONTINUOUS
 62
    7
 10
71.002403500000014
 20
760.59997599999997
 11
71.002403500000014
 21
772.59997599999997
  0
ARC
  8
_0-0_0
  6
CONTINUOUS
 62
    7
 10
70.502387500000054
 20
772.59997599999997
 40
0.500016
 50
0.001164
 51
179.99560600000004
  0
LINE
  8
_0-0_0
  6
CONTINUOUS
 62
    7
 10
70.002403500000014
 20
760.59997599999997
 11
70.002403500000014
 21
772.59997599999997
  0
ARC
  8
_0-0_0
  6
CONTINUOUS
 62
    7
 10
72.002387500000054
 20
760.60000600000001
 40
0.500016
 50
180.00117
 51
359.995611
  0
LINE
  8
_0-0_0
  6
CONTINUOUS
 62
    7
 10
72.502403500000014
 20
760.59997599999997
 11
72.502403500000014
 21
772.59997599999997
  0
ARC
  8
_0-0_0
  6
CONTINUOUS
 62
    7
 10
72.002387500000054
 20
772.59997599999997
 40
0.500016
 50
0.001164
 51
179.99560600000004
  0
LINE
  8
_0-0_0
  6
CONTINUOUS
 62
    7
 10
71.502403500000014
 20
760.59997599999997
 11
71.502403500000014
 21
772.59997599999997
  0
ARC
  8
_0-0_0
  6
CONTINUOUS
 62
    7
 10
73.502387500000054
 20
760.60000600000001
 40
0.500016
 50
180.00117
 51
359.995611
  0
LINE
  8
_0-0_0
  6
CONTINUOUS
 62
    7
 10
74.002403500000014
 20
760.59997599999997
 11
74.002403500000014
 21
772.59997599999997
  0
ARC
  8
_0-0_0
  6
CONTINUOUS
 62
    7
 10
73.502387500000054
 20
772.59997599999997
 40
0.500016
 50
0.001164
 51
179.99560600000004
  0
LINE
  8
_0-0_0
  6
CONTINUOUS
 62
    7
 10
73.002403500000014
 20
760.59997599999997
 11
73.002403500000014
 21
772.59997599999997
  0
ARC
  8
_0-0_0
  6
CONTINUOUS
 62
    7
 10
75.002387500000054
 20
760.60000600000001
 40
0.500016
 50
180.00117
 51
359.995611
  0
LINE
  8
_0-0_0
  6
CONTINUOUS
 62
    7
 10
75.502403500000014
 20
760.59997599999997
 11
75.502403500000014
 21
772.59997599999997
  0
ARC
  8
_0-0_0
  6
CONTINUOUS
 62
    7
 10
75.002387500000054
 20
772.59997599999997
 40
0.500016
 50
0.001164
 51
179.99560600000004
  0
LINE
  8
_0-0_0
  6
CONTINUOUS
 62
    7
 10
74.502403500000014
 20
760.59997599999997
 11
74.502403500000014
 21
772.59997599999997
  0
LINE
  8
_0-0_0
  6
CONTINUOUS
 62
    7
 10
64.502403500000014
 20
777.59997599999997
 11
64.502403500000014
 21
776.87734999999998
  0
LINE
  8
_0-0_0
  6
CONTINUOUS
 62
    7
 10
77.502403500000014
 20
777.59997599999997
 11
64.502403500000014
 21
777.59997599999997
  0
LINE
  8
_0-0_0
  6
CONTINUOUS
 62
    7
 10
64.502403500000014
 20
779.29998799999998
 11
77.502403500000014
 21
779.29998799999998
  0
LINE
  8
_0-0_0
  6
CONTINUOUS
 62
    7
 10
64.502403500000014
 20
779.29998799999998
 11
64.502403500000014
 21
777.59997599999997
  0
LINE
  8
_0-0_0
  6
CONTINUOUS
 62
    7
 10
53.952400500000067
 20
757.27694700000006
 11
53.952400500000067
 21
757.29998799999998
  0
ARC
  8
_0-0_0
  6
CONTINUOUS
 62
    7
 10
81.177848499999982
 20
757.29998799999998
 40
2
 50
269.99999700000001
 51
288.43501300000003
  0
LINE
  8
_0-0_0
  6
CONTINUOUS
 62
    7
 10
60.302406499999961
 20
779.29998799999998
 11
60.502403500000014
 21
779.29998799999998
  0
ARC
  8
_0-0_0
  6
CONTINUOUS
 62
    7
 10
62.502403500000014
 20
777.79998799999998
 40
2
 50
180.00000900000003
 51
0.0000000000000254
  0
LINE
  8
_0-0_0
  6
CONTINUOUS
 62
    7
 10
60.502403500000014
 20
777.79998799999998
 11
60.502403500000014
 21
779.29998799999998
  0
LINE
  8
_0-0_0
  6
CONTINUOUS
 62
    7
 10
82.252387500000054
 20
755.54998799999998
 11
81.810295500000052
 21
755.40261899999996
  0
ARC
  8
_0-0_0
  6
CONTINUOUS
 62
    7
 10
51.502403500000014
 20
770.89999399999999
 40
2.25
 50
269.99999700000001
 51
90.000002999999992
  0
LINE
  8
_0-0_0
  6
CONTINUOUS
 62
    7
 10
47.502395500000034
 20
768.64999399999999
 11
51.502403500000014
 21
768.64999399999999
  0
ARC
  8
_0-0_0
  6
CONTINUOUS
 62
    7
 10
47.502395500000034
 20
770.89999399999999
 40
2.25
 50
90.000003000000007
 51
269.99999700000006
  0
ARC
  8
_0-0_0
  6
CONTINUOUS
 62
    7
 10
-4.4976194999999279
 20
770.89999399999999
 40
2.25
 50
269.99999700000001
 51
90.000002999999992
  0
LINE
  8
_0-0_0
  6
CONTINUOUS
 62
    7
 10
-8.4976194999999279
 20
768.64999399999999
 11
-4.4976194999999279
 21
768.64999399999999
  0
ARC
  8
_0-0_0
  6
CONTINUOUS
 62
    7
 10
-8.4976194999999279
 20
770.89999399999999
 40
2.25
 50
90.000003000000007
 51
269.99999700000006
  0
LINE
  8
_0-0_0
  6
CONTINUOUS
 62
    7
 10
47.502395500000034
 20
773.14999399999999
 11
51.502403500000014
 21
773.14999399999999
  0
LINE
  8
_0-0_0
  6
CONTINUOUS
 62
    7
 10
-8.4976194999999279
 20
773.14999399999999
 11
-4.4976194999999279
 21
773.14999399999999
  0
LINE
  8
_0-0_0
  6
CONTINUOUS
 62
    7
 10
53.743003499999986
 20
766.89999399999999
 11
45.261794499999951
 21
766.89999399999999
  0
LINE
  8
_0-0_0
  6
CONTINUOUS
 62
    7
 10
53.743003499999986
 20
766.89999399999999
 11
56.052406499999961
 21
770.89999399999999
  0
LINE
  8
_0-0_0
  6
CONTINUOUS
 62
    7
 10
56.052406499999961
 20
770.89999399999999
 11
53.743003499999986
 21
774.89999399999999
  0
LINE
  8
_0-0_0
  6
CONTINUOUS
 62
    7
 10
45.261794499999951
 20
774.89999399999999
 11
53.743003499999986
 21
774.89999399999999
  0
LINE
  8
_0-0_0
  6
CONTINUOUS
 62
    7
 10
42.952392499999974
 20
770.89999399999999
 11
45.261794499999951
 21
774.89999399999999
  0
LINE
  8
_0-0_0
  6
CONTINUOUS
 62
    7
 10
45.261794499999951
 20
766.89999399999999
 11
42.952392499999974
 21
770.89999399999999
  0
LINE
  8
_0-0_0
  6
CONTINUOUS
 62
    7
 10
-2.2570194999999558
 20
766.89999399999999
 11
-10.738189499999976
 21
766.89999399999999
  0
LINE
  8
_0-0_0
  6
CONTINUOUS
 62
    7
 10
0.0523984999999811
 20
770.89999399999999
 11
-2.2570194999999558
 21
766.89999399999999
  0
LINE
  8
_0-0_0
  6
CONTINUOUS
 62
    7
 10
0.0523984999999811
 20
770.89999399999999
 11
-2.2570194999999558
 21
774.89999399999999
  0
LINE
  8
_0-0_0
  6
CONTINUOUS
 62
    7
 10
-10.738189499999976
 20
774.89999399999999
 11
-2.2570194999999558
 21
774.89999399999999
  0
LINE
  8
_0-0_0
  6
CONTINUOUS
 62
    7
 10
-13.047607500000026
 20
770.89999399999999
 11
-10.738189499999976
 21
774.89999399999999
  0
LINE
  8
_0-0_0
  6
CONTINUOUS
 62
    7
 10
-13.047607500000026
 20
770.89999399999999
 11
-10.738189499999976
 21
766.89999399999999
  0
CIRCLE
  8
_0-0_0
  6
CONTINUOUS
 62
    7
 10
62.502403500000014
 20
777.79998799999998
 40
1.4750000000000001
  0
CIRCLE
  8
_0-0_0
  6
CONTINUOUS
 62
    7
 10
-16.497589500000004
 20
777.79998799999998
 40
1.4750000000000001
  0
LINE
  8
_0-0_0
  6
CONTINUOUS
 62
    7
 10
62.952400500000067
 20
777.59997599999997
 11
63.602394499999946
 21
777.59997599999997
  0
ARC
  8
_0-0_0
  6
CONTINUOUS
 62
    7
 10
62.952400500000067
 20
777.34997599999997
 40
0.25
 50
90.000003000000007
 51
180.00000900000001
  0
LINE
  8
_0-0_0
  6
CONTINUOUS
 62
    7
 10
62.702400500000067
 20
777.34997599999997
 11
62.702400500000067
 21
776.69998199999998
  0
LINE
  8
_0-0_0
  6
CONTINUOUS
 62
    7
 10
62.302406499999961
 20
776.69998199999998
 11
62.702400500000067
 21
776.69998199999998
  0
LINE
  8
_0-0_0
  6
CONTINUOUS
 62
    7
 10
62.302406499999961
 20
776.69998199999998
 11
62.302406499999961
 21
777.34997599999997
  0
ARC
  8
_0-0_0
  6
CONTINUOUS
 62
    7
 10
62.052406499999961
 20
777.34997599999997
 40
0.25
 50
0
 51
90.000003000000007
  0
LINE
  8
_0-0_0
  6
CONTINUOUS
 62
    7
 10
61.402397500000006
 20
777.59997599999997
 11
62.052406499999961
 21
777.59997599999997
  0
LINE
  8
_0-0_0
  6
CONTINUOUS
 62
    7
 10
61.402397500000006
 20
777.59997599999997
 11
61.402397500000006
 21
778
  0
LINE
  8
_0-0_0
  6
CONTINUOUS
 62
    7
 10
62.052406499999961
 20
778
 11
61.402397500000006
 21
778
  0
ARC
  8
_0-0_0
  6
CONTINUOUS
 62
    7
 10
62.052406499999961
 20
778.25
 40
0.25
 50
269.99999700000001
 51
0
  0
LINE
  8
_0-0_0
  6
CONTINUOUS
 62
    7
 10
62.302406499999961
 20
778.25
 11
62.302406499999961
 21
778.89999399999999
  0
LINE
  8
_0-0_0
  6
CONTINUOUS
 62
    7
 10
62.702400500000067
 20
778.89999399999999
 11
62.302406499999961
 21
778.89999399999999
  0
LINE
  8
_0-0_0
  6
CONTINUOUS
 62
    7
 10
62.702400500000067
 20
778.89999399999999
 11
62.702400500000067
 21
778.25
  0
ARC
  8
_0-0_0
  6
CONTINUOUS
 62
    7
 10
62.952400500000067
 20
778.25
 40
0.25
 50
180.00000900000003
 51
269.99999700000001
  0
LINE
  8
_0-0_0
  6
CONTINUOUS
 62
    7
 10
63.602394499999946
 20
778
 11
62.952400500000067
 21
778
  0
LINE
  8
_0-0_0
  6
CONTINUOUS
 62
    7
 10
63.602394499999946
 20
778
 11
63.602394499999946
 21
777.59997599999997
  0
LINE
  8
_0-0_0
  6
CONTINUOUS
 62
    7
 10
-16.047607500000026
 20
777.59997599999997
 11
-15.397613500000034
 21
777.59997599999997
  0
ARC
  8
_0-0_0
  6
CONTINUOUS
 62
    7
 10
-16.047607500000026
 20
777.34997599999997
 40
0.25
 50
90.000003000000007
 51
180.00000900000001
  0
LINE
  8
_0-0_0
  6
CONTINUOUS
 62
    7
 10
-16.297607500000026
 20
777.34997599999997
 11
-16.297607500000026
 21
776.69998199999998
  0
LINE
  8
_0-0_0
  6
CONTINUOUS
 62
    7
 10
-16.697601500000019
 20
776.69998199999998
 11
-16.297607500000026
 21
776.69998199999998
  0
LINE
  8
_0-0_0
  6
CONTINUOUS
 62
    7
 10
-16.697601500000019
 20
776.69998199999998
 11
-16.697601500000019
 21
777.34997599999997
  0
ARC
  8
_0-0_0
  6
CONTINUOUS
 62
    7
 10
-16.947601500000019
 20
777.34997599999997
 40
0.25
 50
0
 51
90.000003000000007
  0
LINE
  8
_0-0_0
  6
CONTINUOUS
 62
    7
 10
-17.597595500000011
 20
777.59997599999997
 11
-16.947601500000019
 21
777.59997599999997
  0
LINE
  8
_0-0_0
  6
CONTINUOUS
 62
    7
 10
-17.597595500000011
 20
777.59997599999997
 11
-17.597595500000011
 21
778
  0
LINE
  8
_0-0_0
  6
CONTINUOUS
 62
    7
 10
-16.947601500000019
 20
778
 11
-17.597595500000011
 21
778
  0
ARC
  8
_0-0_0
  6
CONTINUOUS
 62
    7
 10
-16.947601500000019
 20
778.25
 40
0.25
 50
269.99999700000001
 51
0
  0
LINE
  8
_0-0_0
  6
CONTINUOUS
 62
    7
 10
-16.697601500000019
 20
778.25
 11
-16.697601500000019
 21
778.89999399999999
  0
LINE
  8
_0-0_0
  6
CONTINUOUS
 62
    7
 10
-16.297607500000026
 20
778.89999399999999
 11
-16.697601500000019
 21
778.89999399999999
  0
LINE
  8
_0-0_0
  6
CONTINUOUS
 62
    7
 10
-16.297607500000026
 20
778.89999399999999
 11
-16.297607500000026
 21
778.25
  0
ARC
  8
_0-0_0
  6
CONTINUOUS
 62
    7
 10
-16.047607500000026
 20
778.25
 40
0.25
 50
180.00000900000003
 51
269.99999700000001
  0
LINE
  8
_0-0_0
  6
CONTINUOUS
 62
    7
 10
-15.397613500000034
 20
778
 11
-16.047607500000026
 21
778
  0
LINE
  8
_0-0_0
  6
CONTINUOUS
 62
    7
 10
-15.397613500000034
 20
778
 11
-15.397613500000034
 21
777.59997599999997
  0
LINE
  8
_0-0_0
  6
CONTINUOUS
 62
    7
 10
-14.947601500000019
 20
757.27694700000006
 11
-14.947601500000019
 21
757.29998799999998
  0
LINE
  8
_0-0_0
  6
CONTINUOUS
 62
    7
 10
3.5023805000000721
 20
775.29998799999998
 11
3.5023805000000721
 21
762.34298699999999
  0
ARC
  8
_0-0_0
  6
CONTINUOUS
 62
    7
 10
0.502380500000072
 20
775.29998799999998
 40
3
 50
0
 51
90.000003000000007
  0
LINE
  8
_0-0_0
  6
CONTINUOUS
 62
    7
 10
39.502395500000034
 20
761.69998199999998
 11
39.502395500000034
 21
775.29998799999998
  0
LINE
  8
_0-0_0
  6
CONTINUOUS
 62
    7
 10
22.989883500000019
 20
771.46963499999993
 11
21.689880500000072
 21
774.96963499999993
  0
ARC
  8
_0-0_0
  6
CONTINUOUS
 62
    7
 10
20.202400500000067
 20
771.39999399999999
 40
0.2
 50
159.62357
 51
269.99999700000001
  0
LINE
  8
_0-0_0
  6
CONTINUOUS
 62
    7
 10
64.502403500000014
 20
776.89999399999999
 11
81.177848499999982
 21
776.89999399999999
  0
ARC
  8
_0-0_0
  6
CONTINUOUS
 62
    7
 10
81.177848499999982
 20
774.89999399999999
 40
2
 50
71.565000999999995
 51
90.000003000000007
  0
LINE
  8
_0-0_0
  6
CONTINUOUS
 62
    7
 10
81.810310500000014
 20
776.79736300000002
 11
81.690803500000015
 21
776.83297700000003
  0
LINE
  8
_0-0_0
  6
CONTINUOUS
 62
    7
 10
81.690803500000015
 20
776.83297700000003
 11
81.569251500000064
 21
776.86084000000005
  0
LINE
  8
_0-0_0
  6
CONTINUOUS
 62
    7
 10
81.569251500000064
 20
776.86084000000005
 11
81.446128499999986
 21
776.88088999999991
  0
LINE
  8
_0-0_0
  6
CONTINUOUS
 62
    7
 10
81.446128499999986
 20
776.88088999999991
 11
81.321906500000068
 21
776.89300500000002
  0
LINE
  8
_0-0_0
  6
CONTINUOUS
 62
    7
 10
81.321906500000068
 20
776.89300500000002
 11
81.197074499999985
 21
776.89712499999996
  0
LINE
  8
_0-0_0
  6
CONTINUOUS
 62
    7
 10
81.197074499999985
 20
776.89712499999996
 11
81.177848499999982
 21
776.897064
  0
LINE
  8
_0-0_0
  6
CONTINUOUS
 62
    7
 10
86.134849499999973
 20
775.35583500000007
 11
81.810295500000052
 21
776.79736300000002
  0
LINE
  8
_0-0_0
  6
CONTINUOUS
 62
    7
 10
85.976737500000013
 20
760.79998799999998
 11
86.670097499999997
 21
760.79998799999998
  0
LINE
  8
_0-0_0
  6
CONTINUOUS
 62
    7
 10
85.976737500000013
 20
760.79998799999998
 11
81.652183499999978
 21
760.79998799999998
  0
LINE
  8
_0-0_0
  6
CONTINUOUS
 62
    7
 10
81.177848499999982
 20
760.79998799999998
 11
81.652183499999978
 21
760.79998799999998
  0
LINE
  8
_0-0_0
  6
CONTINUOUS
 62
    7
 10
76.502403500000014
 20
760.79998799999998
 11
81.177848499999982
 21
760.79998799999998
  0
LINE
  8
_0-0_0
  6
CONTINUOUS
 62
    7
 10
87.502403500000014
 20
760.04995699999995
 11
87.502403500000014
 21
761.17095999999992
  0
LINE
  8
_0-0_0
  6
CONTINUOUS
 62
    7
 10
87.502403500000014
 20
762.09228499999995
 11
87.502403500000014
 21
761.17095999999992
  0
LINE
  8
_0-0_0
  6
CONTINUOUS
 62
    7
 10
98.502403500000014
 20
760.84997599999997
 11
98.502403500000014
 21
768.83154300000001
  0
ARC
  8
_0-0_0
  6
CONTINUOUS
 62
    7
 10
92.328514499999983
 20
769.35086100000001
 40
4.9238749999999998
 50
352.49423299999995
 51
1.5359699999999901
  0
LINE
  8
_0-0_0
  6
CONTINUOUS
 62
    7
 10
97.210227499999974
 20
763.49227900000005
 11
97.304557499999987
 21
763.738922
  0
LINE
  8
_0-0_0
  6
CONTINUOUS
 62
    7
 10
97.304557499999987
 20
763.738922
 11
97.38851150000005
 21
763.978882
  0
LINE
  8
_0-0_0
  6
CONTINUOUS
 62
    7
 10
97.38851150000005
 20
763.978882
 11
97.462669500000061
 21
764.21301300000005
  0
LINE
  8
_0-0_0
  6
CONTINUOUS
 62
    7
 10
97.462669500000061
 20
764.21301300000005
 11
97.527549499999964
 21
764.442047
  0
LINE
  8
_0-0_0
  6
CONTINUOUS
 62
    7
 10
97.527549499999964
 20
764.442047
 11
97.583595500000001
 21
764.66671799999995
  0
LINE
  8
_0-0_0
  6
CONTINUOUS
 62
    7
 10
97.583595500000001
 20
764.66671799999995
 11
97.631156499999975
 21
764.88769500000001
  0
LINE
  8
_0-0_0
  6
CONTINUOUS
 62
    7
 10
97.631156499999975
 20
764.88769500000001
 11
97.670555499999978
 21
765.10562099999993
  0
LINE
  8
_0-0_0
  6
CONTINUOUS
 62
    7
 10
97.670555499999978
 20
765.10562099999993
 11
97.702049500000044
 21
765.32104499999991
  0
LINE
  8
_0-0_0
  6
CONTINUOUS
 62
    7
 10
97.702049500000044
 20
765.32104499999991
 11
97.725822500000049
 21
765.53457700000001
  0
LINE
  8
_0-0_0
  6
CONTINUOUS
 62
    7
 10
97.725822500000049
 20
765.53457700000001
 11
97.741752499999961
 21
765.74230999999997
  0
LINE
  8
_0-0_0
  6
CONTINUOUS
 62
    7
 10
97.741752499999961
 20
765.74230999999997
 11
97.750511500000016
 21
765.94915800000001
  0
LINE
  8
_0-0_0
  6
CONTINUOUS
 62
    7
 10
97.750511500000016
 20
765.94915800000001
 11
97.752143499999988
 21
766.15560899999991
  0
LINE
  8
_0-0_0
  6
CONTINUOUS
 62
    7
 10
97.752143499999988
 20
766.15560899999991
 11
97.746681500000022
 21
766.362213
  0
LINE
  8
_0-0_0
  6
CONTINUOUS
 62
    7
 10
97.746681500000022
 20
766.362213
 11
97.73406250000005
 21
766.56939699999998
  0
LINE
  8
_0-0_0
  6
CONTINUOUS
 62
    7
 10
97.73406250000005
 20
766.56939699999998
 11
97.714256500000033
 21
766.77767999999992
  0
LINE
  8
_0-0_0
  6
CONTINUOUS
 62
    7
 10
97.714256500000033
 20
766.77767999999992
 11
97.687110500000017
 21
766.98761000000002
  0
LINE
  8
_0-0_0
  6
CONTINUOUS
 62
    7
 10
97.687110500000017
 20
766.98761000000002
 11
97.652458499999966
 21
767.19967700000007
  0
LINE
  8
_0-0_0
  6
CONTINUOUS
 62
    7
 10
97.652458499999966
 20
767.19967700000007
 11
97.610114500000009
 21
767.41442899999993
  0
LINE
  8
_0-0_0
  6
CONTINUOUS
 62
    7
 10
97.610114500000009
 20
767.41442899999993
 11
97.55979149999996
 21
767.63241599999992
  0
LINE
  8
_0-0_0
  6
CONTINUOUS
 62
    7
 10
97.55979149999996
 20
767.63241599999992
 11
97.505546500000037
 21
767.83871499999998
  0
LINE
  8
_0-0_0
  6
CONTINUOUS
 62
    7
 10
97.505546500000037
 20
767.83871499999998
 11
97.443839499999967
 21
768.04882799999996
  0
LINE
  8
_0-0_0
  6
CONTINUOUS
 62
    7
 10
97.443839499999967
 20
768.04882799999996
 11
97.374320500000067
 21
768.26327500000002
  0
LINE
  8
_0-0_0
  6
CONTINUOUS
 62
    7
 10
97.374320500000067
 20
768.26327500000002
 11
97.29660750000005
 21
768.48269699999992
  0
LINE
  8
_0-0_0
  6
CONTINUOUS
 62
    7
 10
97.29660750000005
 20
768.48269699999992
 11
97.210227499999974
 21
768.707672
  0
ARC
  8
_0-0_0
  6
CONTINUOUS
 62
    7
 10
92.33867650000002
 20
762.84997599999997
 40
4.9136889999999998
 50
352.48898799999995
 51
7.5110139999999577
  0
LINE
  8
_0-0_0
  6
CONTINUOUS
 62
    7
 10
97.210227499999974
 20
762.207672
 11
97.264717499999961
 21
762.13775599999997
  0
LINE
  8
_0-0_0
  6
CONTINUOUS
 62
    7
 10
97.264717499999961
 20
762.13775599999997
 11
97.315818499999978
 21
762.06890900000008
  0
LINE
  8
_0-0_0
  6
CONTINUOUS
 62
    7
 10
97.315818499999978
 20
762.06890900000008
 11
97.363456499999984
 21
762.00140399999998
  0
LINE
  8
_0-0_0
  6
CONTINUOUS
 62
    7
 10
97.363456499999984
 20
762.00140399999998
 11
97.407951499999967
 21
761.93487600000003
  0
LINE
  8
_0-0_0
  6
CONTINUOUS
 62
    7
 10
97.407951499999967
 20
761.93487600000003
 11
97.462669500000061
 21
761.84732099999997
  0
LINE
  8
_0-0_0
  6
CONTINUOUS
 62
    7
 10
97.462669500000061
 20
761.84732099999997
 11
97.512184499999989
 21
761.76123099999995
  0
LINE
  8
_0-0_0
  6
CONTINUOUS
 62
    7
 10
97.512184499999989
 20
761.76123099999995
 11
97.556648500000051
 21
761.67639199999996
  0
LINE
  8
_0-0_0
  6
CONTINUOUS
 62
    7
 10
97.556648500000051
 20
761.67639199999996
 11
97.603614500000049
 21
761.57608000000005
  0
LINE
  8
_0-0_0
  6
CONTINUOUS
 62
    7
 10
97.603614500000049
 20
761.57608000000005
 11
97.643821500000058
 21
761.47714199999996
  0
LINE
  8
_0-0_0
  6
CONTINUOUS
 62
    7
 10
97.643821500000058
 20
761.47714199999996
 11
97.677482499999996
 21
761.37939499999993
  0
LINE
  8
_0-0_0
  6
CONTINUOUS
 62
    7
 10
97.677482499999996
 20
761.37939499999993
 11
97.70478049999997
 21
761.28259300000002
  0
LINE
  8
_0-0_0
  6
CONTINUOUS
 62
    7
 10
97.70478049999997
 20
761.28259300000002
 11
97.725822500000049
 21
761.18652399999996
  0
LINE
  8
_0-0_0
  6
CONTINUOUS
 62
    7
 10
97.725822500000049
 20
761.18652399999996
 11
97.741752499999961
 21
761.082672
  0
LINE
  8
_0-0_0
  6
CONTINUOUS
 62
    7
 10
97.741752499999961
 20
761.082672
 11
97.750511500000016
 21
760.97924799999998
  0
LINE
  8
_0-0_0
  6
CONTINUOUS
 62
    7
 10
97.750511500000016
 20
760.97924799999998
 11
97.752143499999988
 21
760.87600700000007
  0
LINE
  8
_0-0_0
  6
CONTINUOUS
 62
    7
 10
97.752143499999988
 20
760.87600700000007
 11
97.746681500000022
 21
760.77273600000001
  0
LINE
  8
_0-0_0
  6
CONTINUOUS
 62
    7
 10
97.746681500000022
 20
760.77273600000001
 11
97.73406250000005
 21
760.669129
  0
LINE
  8
_0-0_0
  6
CONTINUOUS
 62
    7
 10
97.73406250000005
 20
760.669129
 11
97.714256500000033
 21
760.56497200000001
  0
LINE
  8
_0-0_0
  6
CONTINUOUS
 62
    7
 10
97.714256500000033
 20
760.56497200000001
 11
97.687110500000017
 21
760.46002199999998
  0
LINE
  8
_0-0_0
  6
CONTINUOUS
 62
    7
 10
97.687110500000017
 20
760.46002199999998
 11
97.652458499999966
 21
760.35400400000003
  0
LINE
  8
_0-0_0
  6
CONTINUOUS
 62
    7
 10
97.652458499999966
 20
760.35400400000003
 11
97.610114500000009
 21
760.24661300000002
  0
LINE
  8
_0-0_0
  6
CONTINUOUS
 62
    7
 10
97.610114500000009
 20
760.24661300000002
 11
97.55979149999996
 21
760.13760400000001
  0
LINE
  8
_0-0_0
  6
CONTINUOUS
 62
    7
 10
97.55979149999996
 20
760.13760400000001
 11
97.514106500000025
 21
760.04995699999995
  0
LINE
  8
_0-0_0
  6
CONTINUOUS
 62
    7
 10
87.502403500000014
 20
769.99227900000005
 11
97.210227499999974
 21
769.99227900000005
  0
LINE
  8
_0-0_0
  6
CONTINUOUS
 62
    7
 10
87.502403500000014
 20
768.707672
 11
87.502403500000014
 21
769.99227900000005
  0
LINE
  8
_0-0_0
  6
CONTINUOUS
 62
    7
 10
87.502403500000014
 20
768.707672
 11
97.210227499999974
 21
768.707672
  0
ARC
  8
_0-0_0
  6
CONTINUOUS
 62
    7
 10
92.290489500000035
 20
769.34591699999999
 40
4.9620009999999999
 50
1.5813010000000001
 51
7.4847919999999997
  0
LINE
  8
_0-0_0
  6
CONTINUOUS
 62
    7
 10
87.202400500000067
 20
763.88797
 11
87.118934500000023
 21
764.26663200000007
  0
LINE
  8
_0-0_0
  6
CONTINUOUS
 62
    7
 10
87.118934500000023
 20
764.26663200000007
 11
87.078849500000047
 21
764.45816100000002
  0
LINE
  8
_0-0_0
  6
CONTINUOUS
 62
    7
 10
87.078849500000047
 20
764.45816100000002
 11
87.022758500000009
 21
764.7482
  0
LINE
  8
_0-0_0
  6
CONTINUOUS
 62
    7
 10
87.022758500000009
 20
764.7482
 11
86.985160500000006
 21
764.96777399999996
  0
LINE
  8
_0-0_0
  6
CONTINUOUS
 62
    7
 10
86.985160500000006
 20
764.96777399999996
 11
86.952522499999986
 21
765.18902600000001
  0
LINE
  8
_0-0_0
  6
CONTINUOUS
 62
    7
 10
86.952522499999986
 20
765.18902600000001
 11
86.925361500000008
 21
765.41583300000002
  0
LINE
  8
_0-0_0
  6
CONTINUOUS
 62
    7
 10
86.925361500000008
 20
765.41583300000002
 11
86.905296499999963
 21
765.64321900000004
  0
LINE
  8
_0-0_0
  6
CONTINUOUS
 62
    7
 10
86.905296499999963
 20
765.64321900000004
 11
86.898139499999957
 21
765.75695799999994
  0
LINE
  8
_0-0_0
  6
CONTINUOUS
 62
    7
 10
86.898139499999957
 20
765.75695799999994
 11
86.892982500000016
 21
765.87063599999999
  0
LINE
  8
_0-0_0
  6
CONTINUOUS
 62
    7
 10
86.892982500000016
 20
765.87063599999999
 11
86.88925949999998
 21
766.022064
  0
LINE
  8
_0-0_0
  6
CONTINUOUS
 62
    7
 10
86.88925949999998
 20
766.022064
 11
86.88919850000002
 21
766.17334000000005
  0
LINE
  8
_0-0_0
  6
CONTINUOUS
 62
    7
 10
86.88919850000002
 20
766.17334000000005
 11
86.892784500000062
 21
766.32437099999993
  0
LINE
  8
_0-0_0
  6
CONTINUOUS
 62
    7
 10
86.892784500000062
 20
766.32437099999993
 11
86.902290500000049
 21
766.51294000000007
  0
LINE
  8
_0-0_0
  6
CONTINUOUS
 62
    7
 10
86.902290500000049
 20
766.51294000000007
 11
86.917152500000043
 21
766.70117200000004
  0
LINE
  8
_0-0_0
  6
CONTINUOUS
 62
    7
 10
86.917152500000043
 20
766.70117200000004
 11
86.937080499999979
 21
766.88913000000002
  0
LINE
  8
_0-0_0
  6
CONTINUOUS
 62
    7
 10
86.937080499999979
 20
766.88913000000002
 11
86.953468499999985
 21
767.01800500000002
  0
LINE
  8
_0-0_0
  6
CONTINUOUS
 62
    7
 10
86.953468499999985
 20
767.01800500000002
 11
86.971870500000023
 21
767.14663700000006
  0
LINE
  8
_0-0_0
  6
CONTINUOUS
 62
    7
 10
86.971870500000023
 20
767.14663700000006
 11
86.996040500000049
 21
767.29858400000001
  0
LINE
  8
_0-0_0
  6
CONTINUOUS
 62
    7
 10
86.996040500000049
 20
767.29858400000001
 11
87.022437500000024
 21
767.44992100000002
  0
LINE
  8
_0-0_0
  6
CONTINUOUS
 62
    7
 10
87.022437500000024
 20
767.44992100000002
 11
87.078605499999981
 21
767.74054000000001
  0
LINE
  8
_0-0_0
  6
CONTINUOUS
 62
    7
 10
87.078605499999981
 20
767.74054000000001
 11
87.118766499999992
 21
767.93249500000002
  0
LINE
  8
_0-0_0
  6
CONTINUOUS
 62
    7
 10
87.118766499999992
 20
767.93249500000002
 11
87.202400500000067
 21
768.31198100000006
  0
LINE
  8
_0-0_0
  6
CONTINUOUS
 62
    7
 10
87.502403500000014
 20
764.53793300000007
 11
87.502403500000014
 21
767.66204799999991
  0
LINE
  8
_0-0_0
  6
CONTINUOUS
 62
    7
 10
112.25239750000003
 20
756.57455499999992
 11
112.00239750000003
 21
756.54998799999998
  0
LINE
  8
_0-0_0
  6
CONTINUOUS
 62
    7
 10
112.00239750000003
 20
756.54998799999998
 11
102.75239550000003
 21
756.54998799999998
  0
LINE
  8
_0-0_0
  6
CONTINUOUS
 62
    7
 10
102.50239550000003
 20
756.57455499999992
 11
102.75239550000003
 21
756.54998799999998
  0
LINE
  8
_0-0_0
  6
CONTINUOUS
 62
    7
 10
112.25239750000003
 20
759.54855399999997
 11
112.00239750000003
 21
759.82254
  0
LINE
  8
_0-0_0
  6
CONTINUOUS
 62
    7
 10
112.25239750000003
 20
759.54855399999997
 11
112.00239750000003
 21
759.65783699999997
  0
LINE
  8
_0-0_0
  6
CONTINUOUS
 62
    7
 10
112.25239750000003
 20
759.39096100000006
 11
112.00239750000003
 21
759.65783699999997
  0
LINE
  8
_0-0_0
  6
CONTINUOUS
 62
    7
 10
112.25239750000003
 20
759.39096100000006
 11
112.00239750000003
 21
759.47280899999998
  0
LINE
  8
_0-0_0
  6
CONTINUOUS
 62
    7
 10
112.25239750000003
 20
759.21597300000008
 11
112.00239750000003
 21
759.47280899999998
  0
LINE
  8
_0-0_0
  6
CONTINUOUS
 62
    7
 10
112.25239750000003
 20
759.21597300000008
 11
112.00239750000003
 21
759.26944000000003
  0
LINE
  8
_0-0_0
  6
CONTINUOUS
 62
    7
 10
112.25239750000003
 20
759.02542100000005
 11
112.00239750000003
 21
759.26944000000003
  0
LINE
  8
_0-0_0
  6
CONTINUOUS
 62
    7
 10
112.25239750000003
 20
759.02542100000005
 11
112.00239750000003
 21
759.04998799999998
  0
LINE
  8
_0-0_0
  6
CONTINUOUS
 62
    7
 10
112.25239750000003
 20
758.82147199999997
 11
112.00239750000003
 21
759.04998799999998
  0
LINE
  8
_0-0_0
  6
CONTINUOUS
 62
    7
 10
112.25239750000003
 20
758.82147199999997
 11
112.00239750000003
 21
758.81683399999997
  0
LINE
  8
_0-0_0
  6
CONTINUOUS
 62
    7
 10
112.25239750000003
 20
758.60632299999997
 11
112.00239750000003
 21
758.81683399999997
  0
LINE
  8
_0-0_0
  6
CONTINUOUS
 62
    7
 10
112.25239750000003
 20
758.60632299999997
 11
112.00239750000003
 21
758.57254
  0
LINE
  8
_0-0_0
  6
CONTINUOUS
 62
    7
 10
112.25239750000003
 20
758.38232399999993
 11
112.00239750000003
 21
758.57254
  0
LINE
  8
_0-0_0
  6
CONTINUOUS
 62
    7
 10
112.25239750000003
 20
758.38232399999993
 11
112.00239750000003
 21
758.31976299999997
  0
LINE
  8
_0-0_0
  6
CONTINUOUS
 62
    7
 10
112.25239750000003
 20
758.15197799999999
 11
112.00239750000003
 21
758.31976299999997
  0
LINE
  8
_0-0_0
  6
CONTINUOUS
 62
    7
 10
112.25239750000003
 20
758.15197799999999
 11
112.00239750000003
 21
758.06131000000005
  0
LINE
  8
_0-0_0
  6
CONTINUOUS
 62
    7
 10
112.25239750000003
 20
757.91775499999994
 11
112.00239750000003
 21
758.06131000000005
  0
LINE
  8
_0-0_0
  6
CONTINUOUS
 62
    7
 10
112.25239750000003
 20
757.91775499999994
 11
112.00239750000003
 21
757.79998799999998
  0
LINE
  8
_0-0_0
  6
CONTINUOUS
 62
    7
 10
112.25239750000003
 20
757.68222100000003
 11
112.00239750000003
 21
757.79998799999998
  0
LINE
  8
_0-0_0
  6
CONTINUOUS
 62
    7
 10
112.25239750000003
 20
757.68222100000003
 11
112.00239750000003
 21
757.53866599999992
  0
LINE
  8
_0-0_0
  6
CONTINUOUS
 62
    7
 10
112.25239750000003
 20
757.44799799999998
 11
112.00239750000003
 21
757.53866599999992
  0
LINE
  8
_0-0_0
  6
CONTINUOUS
 62
    7
 10
112.25239750000003
 20
757.44799799999998
 11
112.00239750000003
 21
757.280213
  0
LINE
  8
_0-0_0
  6
CONTINUOUS
 62
    7
 10
112.25239750000003
 20
757.21765099999993
 11
112.00239750000003
 21
757.280213
  0
LINE
  8
_0-0_0
  6
CONTINUOUS
 62
    7
 10
112.25239750000003
 20
757.21765099999993
 11
112.00239750000003
 21
757.02743499999997
  0
LINE
  8
_0-0_0
  6
CONTINUOUS
 62
    7
 10
112.25239750000003
 20
756.993652
 11
112.00239750000003
 21
757.02743499999997
  0
LINE
  8
_0-0_0
  6
CONTINUOUS
 62
    7
 10
112.25239750000003
 20
756.993652
 11
112.00239750000003
 21
756.783142
  0
LINE
  8
_0-0_0
  6
CONTINUOUS
 62
    7
 10
112.25239750000003
 20
756.778504
 11
112.00239750000003
 21
756.783142
  0
LINE
  8
_0-0_0
  6
CONTINUOUS
 62
    7
 10
112.25239750000003
 20
756.778504
 11
112.00239750000003
 21
756.54998799999998
  0
LINE
  8
_0-0_0
  6
CONTINUOUS
 62
    7
 10
112.25239750000003
 20
756.57455499999992
 11
112.00239750000003
 21
756.33053599999994
  0
LINE
  8
_0-0_0
  6
CONTINUOUS
 62
    7
 10
112.25239750000003
 20
756.38400300000001
 11
112.00239750000003
 21
756.33053599999994
  0
LINE
  8
_0-0_0
  6
CONTINUOUS
 62
    7
 10
112.25239750000003
 20
756.38400300000001
 11
112.00239750000003
 21
756.12716699999999
  0
LINE
  8
_0-0_0
  6
CONTINUOUS
 62
    7
 10
112.25239750000003
 20
756.20898399999999
 11
112.00239750000003
 21
756.12716699999999
  0
LINE
  8
_0-0_0
  6
CONTINUOUS
 62
    7
 10
112.25239750000003
 20
756.20898399999999
 11
112.00239750000003
 21
755.94210799999996
  0
LINE
  8
_0-0_0
  6
CONTINUOUS
 62
    7
 10
112.25239750000003
 20
756.051422
 11
112.00239750000003
 21
755.94210799999996
  0
LINE
  8
_0-0_0
  6
CONTINUOUS
 62
    7
 10
112.25239750000003
 20
756.051422
 11
112.00239750000003
 21
755.77743499999997
  0
LINE
  8
_0-0_0
  6
CONTINUOUS
 62
    7
 10
112.25239750000003
 20
755.91299400000003
 11
112.00239750000003
 21
755.77743499999997
  0
LINE
  8
_0-0_0
  6
CONTINUOUS
 62
    7
 10
112.25239750000003
 20
755.91299400000003
 11
112.00239750000003
 21
755.63491799999997
  0
LINE
  8
_0-0_0
  6
CONTINUOUS
 62
    7
 10
112.25239750000003
 20
755.79522700000007
 11
112.00239750000003
 21
755.63491799999997
  0
LINE
  8
_0-0_0
  6
CONTINUOUS
 62
    7
 10
112.25239750000003
 20
755.79522700000007
 11
112.00239750000003
 21
755.51611300000002
  0
LINE
  8
_0-0_0
  6
CONTINUOUS
 62
    7
 10
112.25239750000003
 20
755.699432
 11
112.00239750000003
 21
755.51611300000002
  0
LINE
  8
_0-0_0
  6
CONTINUOUS
 62
    7
 10
112.25239750000003
 20
755.699432
 11
112.00239750000003
 21
755.42233299999998
  0
LINE
  8
_0-0_0
  6
CONTINUOUS
 62
    7
 10
112.25239750000003
 20
755.62664799999993
 11
112.00239750000003
 21
755.42233299999998
  0
LINE
  8
_0-0_0
  6
CONTINUOUS
 62
    7
 10
112.25239750000003
 20
755.62664799999993
 11
112.00239750000003
 21
755.35461399999997
  0
LINE
  8
_0-0_0
  6
CONTINUOUS
 62
    7
 10
112.25239750000003
 20
755.57769800000005
 11
112.00239750000003
 21
755.35461399999997
  0
LINE
  8
_0-0_0
  6
CONTINUOUS
 62
    7
 10
112.25239750000003
 20
755.57769800000005
 11
112.00239750000003
 21
755.31368999999995
  0
LINE
  8
_0-0_0
  6
CONTINUOUS
 62
    7
 10
112.25239750000003
 20
755.55306999999993
 11
112.00239750000003
 21
755.31368999999995
  0
LINE
  8
_0-0_0
  6
CONTINUOUS
 62
    7
 10
112.25239750000003
 20
755.55306999999993
 11
112.00239750000003
 21
755.29998799999998
  0
LINE
  8
_0-0_0
  6
CONTINUOUS
 62
    7
 10
112.50239750000003
 20
755.79998799999998
 11
112.50239750000003
 21
759.55514500000004
  0
LINE
  8
_0-0_0
  6
CONTINUOUS
 62
    7
 10
112.12243850000004
 20
759.88861099999997
 11
112.00239750000003
 21
759.965057
  0
LINE
  8
_0-0_0
  6
CONTINUOUS
 62
    7
 10
112.25239750000003
 20
759.68698100000006
 11
112.00239750000003
 21
759.965057
  0
LINE
  8
_0-0_0
  6
CONTINUOUS
 62
    7
 10
112.25239750000003
 20
759.68698100000006
 11
112.00239750000003
 21
759.82254
  0
LINE
  8
_0-0_0
  6
CONTINUOUS
 62
    7
 10
112.00239750000003
 20
759.65783699999997
 11
102.75239550000003
 21
759.65783699999997
  0
LINE
  8
_0-0_0
  6
CONTINUOUS
 62
    7
 10
102.50239550000003
 20
759.54855399999997
 11
102.75239550000003
 21
759.65783699999997
  0
LINE
  8
_0-0_0
  6
CONTINUOUS
 62
    7
 10
112.00239750000003
 20
759.47280899999998
 11
102.75239550000003
 21
759.47280899999998
  0
LINE
  8
_0-0_0
  6
CONTINUOUS
 62
    7
 10
102.50239550000003
 20
759.39096100000006
 11
102.75239550000003
 21
759.47280899999998
  0
LINE
  8
_0-0_0
  6
CONTINUOUS
 62
    7
 10
112.00239750000003
 20
759.26944000000003
 11
102.75239550000003
 21
759.26944000000003
  0
LINE
  8
_0-0_0
  6
CONTINUOUS
 62
    7
 10
102.50239550000003
 20
759.21597300000008
 11
102.75239550000003
 21
759.26944000000003
  0
LINE
  8
_0-0_0
  6
CONTINUOUS
 62
    7
 10
112.00239750000003
 20
759.04998799999998
 11
102.75239550000003
 21
759.04998799999998
  0
LINE
  8
_0-0_0
  6
CONTINUOUS
 62
    7
 10
102.50239550000003
 20
759.02542100000005
 11
102.75239550000003
 21
759.04998799999998
  0
LINE
  8
_0-0_0
  6
CONTINUOUS
 62
    7
 10
112.00239750000003
 20
758.81683399999997
 11
102.75239550000003
 21
758.81683399999997
  0
LINE
  8
_0-0_0
  6
CONTINUOUS
 62
    7
 10
112.25239750000003
 20
758.82147199999997
 11
102.50239550000003
 21
758.82147199999997
  0
LINE
  8
_0-0_0
  6
CONTINUOUS
 62
    7
 10
102.50239550000003
 20
758.82147199999997
 11
102.75239550000003
 21
758.81683399999997
  0
LINE
  8
_0-0_0
  6
CONTINUOUS
 62
    7
 10
112.00239750000003
 20
758.57254
 11
102.75239550000003
 21
758.57254
  0
LINE
  8
_0-0_0
  6
CONTINUOUS
 62
    7
 10
112.25239750000003
 20
758.60632299999997
 11
102.50239550000003
 21
758.60632299999997
  0
LINE
  8
_0-0_0
  6
CONTINUOUS
 62
    7
 10
102.50239550000003
 20
758.60632299999997
 11
102.75239550000003
 21
758.57254
  0
LINE
  8
_0-0_0
  6
CONTINUOUS
 62
    7
 10
112.00239750000003
 20
758.31976299999997
 11
102.75239550000003
 21
758.31976299999997
  0
LINE
  8
_0-0_0
  6
CONTINUOUS
 62
    7
 10
112.25239750000003
 20
758.38232399999993
 11
102.50239550000003
 21
758.38232399999993
  0
LINE
  8
_0-0_0
  6
CONTINUOUS
 62
    7
 10
102.50239550000003
 20
758.38232399999993
 11
102.75239550000003
 21
758.31976299999997
  0
LINE
  8
_0-0_0
  6
CONTINUOUS
 62
    7
 10
112.00239750000003
 20
758.06131000000005
 11
102.75239550000003
 21
758.06131000000005
  0
LINE
  8
_0-0_0
  6
CONTINUOUS
 62
    7
 10
112.25239750000003
 20
758.15197799999999
 11
102.50239550000003
 21
758.15197799999999
  0
LINE
  8
_0-0_0
  6
CONTINUOUS
 62
    7
 10
102.50239550000003
 20
758.15197799999999
 11
102.75239550000003
 21
758.06131000000005
  0
LINE
  8
_0-0_0
  6
CONTINUOUS
 62
    7
 10
112.00239750000003
 20
757.79998799999998
 11
102.75239550000003
 21
757.79998799999998
  0
LINE
  8
_0-0_0
  6
CONTINUOUS
 62
    7
 10
112.25239750000003
 20
757.91775499999994
 11
102.50239550000003
 21
757.91775499999994
  0
LINE
  8
_0-0_0
  6
CONTINUOUS
 62
    7
 10
102.50239550000003
 20
757.91775499999994
 11
102.75239550000003
 21
757.79998799999998
  0
LINE
  8
_0-0_0
  6
CONTINUOUS
 62
    7
 10
112.00239750000003
 20
757.53866599999992
 11
102.75239550000003
 21
757.53866599999992
  0
LINE
  8
_0-0_0
  6
CONTINUOUS
 62
    7
 10
112.25239750000003
 20
757.68222100000003
 11
102.50239550000003
 21
757.68222100000003
  0
LINE
  8
_0-0_0
  6
CONTINUOUS
 62
    7
 10
102.50239550000003
 20
757.68222100000003
 11
102.75239550000003
 21
757.53866599999992
  0
LINE
  8
_0-0_0
  6
CONTINUOUS
 62
    7
 10
112.00239750000003
 20
757.280213
 11
102.75239550000003
 21
757.280213
  0
LINE
  8
_0-0_0
  6
CONTINUOUS
 62
    7
 10
112.25239750000003
 20
757.44799799999998
 11
102.50239550000003
 21
757.44799799999998
  0
LINE
  8
_0-0_0
  6
CONTINUOUS
 62
    7
 10
102.50239550000003
 20
757.44799799999998
 11
102.75239550000003
 21
757.280213
  0
LINE
  8
_0-0_0
  6
CONTINUOUS
 62
    7
 10
112.00239750000003
 20
757.02743499999997
 11
102.75239550000003
 21
757.02743499999997
  0
LINE
  8
_0-0_0
  6
CONTINUOUS
 62
    7
 10
112.25239750000003
 20
757.21765099999993
 11
102.50239550000003
 21
757.21765099999993
  0
LINE
  8
_0-0_0
  6
CONTINUOUS
 62
    7
 10
102.50239550000003
 20
757.21765099999993
 11
102.75239550000003
 21
757.02743499999997
  0
LINE
  8
_0-0_0
  6
CONTINUOUS
 62
    7
 10
112.00239750000003
 20
756.783142
 11
102.75239550000003
 21
756.783142
  0
LINE
  8
_0-0_0
  6
CONTINUOUS
 62
    7
 10
112.25239750000003
 20
756.993652
 11
102.50239550000003
 21
756.993652
  0
LINE
  8
_0-0_0
  6
CONTINUOUS
 62
    7
 10
102.50239550000003
 20
756.993652
 11
102.75239550000003
 21
756.783142
  0
LINE
  8
_0-0_0
  6
CONTINUOUS
 62
    7
 10
112.00239750000003
 20
756.12716699999999
 11
102.75239550000003
 21
756.12716699999999
  0
LINE
  8
_0-0_0
  6
CONTINUOUS
 62
    7
 10
102.50239550000003
 20
756.38400300000001
 11
102.75239550000003
 21
756.12716699999999
  0
LINE
  8
_0-0_0
  6
CONTINUOUS
 62
    7
 10
112.00239750000003
 20
755.94210799999996
 11
102.75239550000003
 21
755.94210799999996
  0
LINE
  8
_0-0_0
  6
CONTINUOUS
 62
    7
 10
102.50239550000003
 20
756.20898399999999
 11
102.75239550000003
 21
755.94210799999996
  0
LINE
  8
_0-0_0
  6
CONTINUOUS
 62
    7
 10
112.00239750000003
 20
755.77743499999997
 11
102.75239550000003
 21
755.77743499999997
  0
LINE
  8
_0-0_0
  6
CONTINUOUS
 62
    7
 10
102.50239550000003
 20
756.051422
 11
102.75239550000003
 21
755.77743499999997
  0
LINE
  8
_0-0_0
  6
CONTINUOUS
 62
    7
 10
112.00239750000003
 20
755.63491799999997
 11
102.75239550000003
 21
755.63491799999997
  0
LINE
  8
_0-0_0
  6
CONTINUOUS
 62
    7
 10
102.50239550000003
 20
755.91299400000003
 11
102.75239550000003
 21
755.63491799999997
  0
LINE
  8
_0-0_0
  6
CONTINUOUS
 62
    7
 10
112.00239750000003
 20
755.51611300000002
 11
102.75239550000003
 21
755.51611300000002
  0
LINE
  8
_0-0_0
  6
CONTINUOUS
 62
    7
 10
102.50239550000003
 20
755.79522700000007
 11
102.75239550000003
 21
755.51611300000002
  0
LINE
  8
_0-0_0
  6
CONTINUOUS
 62
    7
 10
112.00239750000003
 20
755.42233299999998
 11
102.75239550000003
 21
755.42233299999998
  0
LINE
  8
_0-0_0
  6
CONTINUOUS
 62
    7
 10
102.50239550000003
 20
755.699432
 11
102.75239550000003
 21
755.42233299999998
  0
LINE
  8
_0-0_0
  6
CONTINUOUS
 62
    7
 10
112.00239750000003
 20
755.35461399999997
 11
102.75239550000003
 21
755.35461399999997
  0
LINE
  8
_0-0_0
  6
CONTINUOUS
 62
    7
 10
102.50239550000003
 20
755.62664799999993
 11
102.75239550000003
 21
755.35461399999997
  0
LINE
  8
_0-0_0
  6
CONTINUOUS
 62
    7
 10
112.00239750000003
 20
755.31368999999995
 11
102.75239550000003
 21
755.31368999999995
  0
LINE
  8
_0-0_0
  6
CONTINUOUS
 62
    7
 10
102.50239550000003
 20
755.57769800000005
 11
102.75239550000003
 21
755.31368999999995
  0
LINE
  8
_0-0_0
  6
CONTINUOUS
 62
    7
 10
112.00239750000003
 20
755.29998799999998
 11
102.75239550000003
 21
755.29998799999998
  0
LINE
  8
_0-0_0
  6
CONTINUOUS
 62
    7
 10
102.50239550000003
 20
755.55306999999993
 11
102.75239550000003
 21
755.29998799999998
  0
LINE
  8
_0-0_0
  6
CONTINUOUS
 62
    7
 10
112.00239750000003
 20
759.965057
 11
102.75239550000003
 21
759.965057
  0
LINE
  8
_0-0_0
  6
CONTINUOUS
 62
    7
 10
112.25239750000003
 20
759.80474900000002
 11
112.12243850000004
 21
759.88861099999997
  0
LINE
  8
_0-0_0
  6
CONTINUOUS
 62
    7
 10
102.50239550000003
 20
759.80474900000002
 11
102.63236949999998
 21
759.88861099999997
  0
LINE
  8
_0-0_0
  6
CONTINUOUS
 62
    7
 10
102.63236949999998
 20
759.88861099999997
 11
102.75239550000003
 21
759.965057
  0
LINE
  8
_0-0_0
  6
CONTINUOUS
 62
    7
 10
112.00239750000003
 20
759.82254
 11
102.75239550000003
 21
759.82254
  0
LINE
  8
_0-0_0
  6
CONTINUOUS
 62
    7
 10
102.50239550000003
 20
759.68698100000006
 11
102.75239550000003
 21
759.82254
  0
LINE
  8
_0-0_0
  6
CONTINUOUS
 62
    7
 10
112.25239750000003
 20
759.80474900000002
 11
112.00239750000003
 21
760.08386199999995
  0
LINE
  8
_0-0_0
  6
CONTINUOUS
 62
    7
 10
112.00239750000003
 20
760.08386199999995
 11
102.75239550000003
 21
760.08386199999995
  0
LINE
  8
_0-0_0
  6
CONTINUOUS
 62
    7
 10
102.50239550000003
 20
759.80474900000002
 11
102.75239550000003
 21
760.08386199999995
  0
LINE
  8
_0-0_0
  6
CONTINUOUS
 62
    7
 10
112.25239750000003
 20
759.90054299999997
 11
112.00239750000003
 21
760.08386199999995
  0
LINE
  8
_0-0_0
  6
CONTINUOUS
 62
    7
 10
102.50239550000003
 20
759.90054299999997
 11
102.75239550000003
 21
760.08386199999995
  0
LINE
  8
_0-0_0
  6
CONTINUOUS
 62
    7
 10
112.25239750000003
 20
759.90054299999997
 11
112.00239750000003
 21
760.17764299999999
  0
LINE
  8
_0-0_0
  6
CONTINUOUS
 62
    7
 10
112.00239750000003
 20
760.17764299999999
 11
102.75239550000003
 21
760.17764299999999
  0
LINE
  8
_0-0_0
  6
CONTINUOUS
 62
    7
 10
102.50239550000003
 20
759.90054299999997
 11
102.75239550000003
 21
760.17764299999999
  0
LINE
  8
_0-0_0
  6
CONTINUOUS
 62
    7
 10
112.25239750000003
 20
759.97332800000004
 11
112.00239750000003
 21
760.17764299999999
  0
LINE
  8
_0-0_0
  6
CONTINUOUS
 62
    7
 10
102.50239550000003
 20
759.97332800000004
 11
102.75239550000003
 21
760.17764299999999
  0
LINE
  8
_0-0_0
  6
CONTINUOUS
 62
    7
 10
112.25239750000003
 20
759.97332800000004
 11
112.00239750000003
 21
760.245361
  0
LINE
  8
_0-0_0
  6
CONTINUOUS
 62
    7
 10
112.00239750000003
 20
760.245361
 11
102.75239550000003
 21
760.245361
  0
LINE
  8
_0-0_0
  6
CONTINUOUS
 62
    7
 10
102.50239550000003
 20
759.97332800000004
 11
102.75239550000003
 21
760.245361
  0
LINE
  8
_0-0_0
  6
CONTINUOUS
 62
    7
 10
112.25239750000003
 20
760.02227799999991
 11
112.00239750000003
 21
760.245361
  0
LINE
  8
_0-0_0
  6
CONTINUOUS
 62
    7
 10
102.50239550000003
 20
760.02227799999991
 11
102.75239550000003
 21
760.245361
  0
LINE
  8
_0-0_0
  6
CONTINUOUS
 62
    7
 10
112.25239750000003
 20
760.02227799999991
 11
112.00239750000003
 21
760.28628600000002
  0
LINE
  8
_0-0_0
  6
CONTINUOUS
 62
    7
 10
112.00239750000003
 20
760.28628600000002
 11
102.75239550000003
 21
760.28628600000002
  0
LINE
  8
_0-0_0
  6
CONTINUOUS
 62
    7
 10
102.50239550000003
 20
760.02227799999991
 11
102.75239550000003
 21
760.28628600000002
  0
LINE
  8
_0-0_0
  6
CONTINUOUS
 62
    7
 10
112.25239750000003
 20
760.04690600000004
 11
112.00239750000003
 21
760.28628600000002
  0
LINE
  8
_0-0_0
  6
CONTINUOUS
 62
    7
 10
102.50239550000003
 20
760.04690600000004
 11
102.75239550000003
 21
760.28628600000002
  0
LINE
  8
_0-0_0
  6
CONTINUOUS
 62
    7
 10
112.25239750000003
 20
760.04690600000004
 11
112.00239750000003
 21
760.29998799999998
  0
LINE
  8
_0-0_0
  6
CONTINUOUS
 62
    7
 10
112.00239750000003
 20
760.29998799999998
 11
102.75239550000003
 21
760.29998799999998
  0
LINE
  8
_0-0_0
  6
CONTINUOUS
 62
    7
 10
102.50239550000003
 20
760.04690600000004
 11
102.75239550000003
 21
760.29998799999998
  0
LINE
  8
_0-0_0
  6
CONTINUOUS
 62
    7
 10
112.25239750000003
 20
773.17456100000004
 11
112.00239750000003
 21
773.14999399999999
  0
LINE
  8
_0-0_0
  6
CONTINUOUS
 62
    7
 10
112.00239750000003
 20
773.14999399999999
 11
102.75239550000003
 21
773.14999399999999
  0
LINE
  8
_0-0_0
  6
CONTINUOUS
 62
    7
 10
102.50239550000003
 20
773.17456100000004
 11
102.75239550000003
 21
773.14999399999999
  0
LINE
  8
_0-0_0
  6
CONTINUOUS
 62
    7
 10
112.25239750000003
 20
776.14855999999997
 11
112.00239750000003
 21
776.42251599999997
  0
LINE
  8
_0-0_0
  6
CONTINUOUS
 62
    7
 10
112.25239750000003
 20
776.14855999999997
 11
112.00239750000003
 21
776.25784299999998
  0
LINE
  8
_0-0_0
  6
CONTINUOUS
 62
    7
 10
112.25239750000003
 20
775.99096699999996
 11
112.00239750000003
 21
776.25784299999998
  0
LINE
  8
_0-0_0
  6
CONTINUOUS
 62
    7
 10
112.25239750000003
 20
775.99096699999996
 11
112.00239750000003
 21
776.07281499999999
  0
LINE
  8
_0-0_0
  6
CONTINUOUS
 62
    7
 10
112.25239750000003
 20
775.81594900000005
 11
112.00239750000003
 21
776.07281499999999
  0
LINE
  8
_0-0_0
  6
CONTINUOUS
 62
    7
 10
112.25239750000003
 20
775.81594900000005
 11
112.00239750000003
 21
775.86944599999993
  0
LINE
  8
_0-0_0
  6
CONTINUOUS
 62
    7
 10
112.25239750000003
 20
775.62542699999995
 11
112.00239750000003
 21
775.86944599999993
  0
LINE
  8
_0-0_0
  6
CONTINUOUS
 62
    7
 10
112.25239750000003
 20
775.62542699999995
 11
112.00239750000003
 21
775.64999399999999
  0
LINE
  8
_0-0_0
  6
CONTINUOUS
 62
    7
 10
112.25239750000003
 20
775.42147799999998
 11
112.00239750000003
 21
775.64999399999999
  0
LINE
  8
_0-0_0
  6
CONTINUOUS
 62
    7
 10
112.25239750000003
 20
775.42147799999998
 11
112.00239750000003
 21
775.41683999999998
  0
LINE
  8
_0-0_0
  6
CONTINUOUS
 62
    7
 10
112.25239750000003
 20
775.20632899999998
 11
112.00239750000003
 21
775.41683999999998
  0
LINE
  8
_0-0_0
  6
CONTINUOUS
 62
    7
 10
112.25239750000003
 20
775.20632899999998
 11
112.00239750000003
 21
775.17251599999997
  0
LINE
  8
_0-0_0
  6
CONTINUOUS
 62
    7
 10
112.25239750000003
 20
774.98233000000005
 11
112.00239750000003
 21
775.17251599999997
  0
LINE
  8
_0-0_0
  6
CONTINUOUS
 62
    7
 10
112.25239750000003
 20
774.98233000000005
 11
112.00239750000003
 21
774.91976899999997
  0
LINE
  8
_0-0_0
  6
CONTINUOUS
 62
    7
 10
112.25239750000003
 20
774.75195299999996
 11
112.00239750000003
 21
774.91976899999997
  0
LINE
  8
_0-0_0
  6
CONTINUOUS
 62
    7
 10
112.25239750000003
 20
774.75195299999996
 11
112.00239750000003
 21
774.66131599999994
  0
LINE
  8
_0-0_0
  6
CONTINUOUS
 62
    7
 10
112.25239750000003
 20
774.51773099999991
 11
112.00239750000003
 21
774.66131599999994
  0
LINE
  8
_0-0_0
  6
CONTINUOUS
 62
    7
 10
112.25239750000003
 20
774.51773099999991
 11
112.00239750000003
 21
774.39999399999999
  0
LINE
  8
_0-0_0
  6
CONTINUOUS
 62
    7
 10
112.25239750000003
 20
774.28222699999992
 11
112.00239750000003
 21
774.39999399999999
  0
LINE
  8
_0-0_0
  6
CONTINUOUS
 62
    7
 10
112.25239750000003
 20
774.28222699999992
 11
112.00239750000003
 21
774.13867200000004
  0
LINE
  8
_0-0_0
  6
CONTINUOUS
 62
    7
 10
112.25239750000003
 20
774.04800399999999
 11
112.00239750000003
 21
774.13867200000004
  0
LINE
  8
_0-0_0
  6
CONTINUOUS
 62
    7
 10
112.25239750000003
 20
774.04800399999999
 11
112.00239750000003
 21
773.88021900000001
  0
LINE
  8
_0-0_0
  6
CONTINUOUS
 62
    7
 10
112.25239750000003
 20
773.81765799999994
 11
112.00239750000003
 21
773.88021900000001
  0
LINE
  8
_0-0_0
  6
CONTINUOUS
 62
    7
 10
112.25239750000003
 20
773.81765799999994
 11
112.00239750000003
 21
773.62744199999997
  0
LINE
  8
_0-0_0
  6
CONTINUOUS
 62
    7
 10
112.25239750000003
 20
773.593659
 11
112.00239750000003
 21
773.62744199999997
  0
LINE
  8
_0-0_0
  6
CONTINUOUS
 62
    7
 10
112.25239750000003
 20
773.593659
 11
112.00239750000003
 21
773.38314800000001
  0
LINE
  8
_0-0_0
  6
CONTINUOUS
 62
    7
 10
112.25239750000003
 20
773.37851000000001
 11
112.00239750000003
 21
773.38314800000001
  0
LINE
  8
_0-0_0
  6
CONTINUOUS
 62
    7
 10
112.25239750000003
 20
773.37851000000001
 11
112.00239750000003
 21
773.14999399999999
  0
LINE
  8
_0-0_0
  6
CONTINUOUS
 62
    7
 10
112.25239750000003
 20
773.17456100000004
 11
112.00239750000003
 21
772.93051199999991
  0
LINE
  8
_0-0_0
  6
CONTINUOUS
 62
    7
 10
112.25239750000003
 20
772.98400900000001
 11
112.00239750000003
 21
772.93051199999991
  0
LINE
  8
_0-0_0
  6
CONTINUOUS
 62
    7
 10
112.25239750000003
 20
772.98400900000001
 11
112.00239750000003
 21
772.72717299999999
  0
LINE
  8
_0-0_0
  6
CONTINUOUS
 62
    7
 10
112.25239750000003
 20
772.80899099999999
 11
112.00239750000003
 21
772.72717299999999
  0
LINE
  8
_0-0_0
  6
CONTINUOUS
 62
    7
 10
112.25239750000003
 20
772.80899099999999
 11
112.00239750000003
 21
772.54211399999997
  0
LINE
  8
_0-0_0
  6
CONTINUOUS
 62
    7
 10
112.25239750000003
 20
772.65139799999997
 11
112.00239750000003
 21
772.54211399999997
  0
LINE
  8
_0-0_0
  6
CONTINUOUS
 62
    7
 10
112.25239750000003
 20
772.65139799999997
 11
112.00239750000003
 21
772.37744199999997
  0
LINE
  8
_0-0_0
  6
CONTINUOUS
 62
    7
 10
112.25239750000003
 20
772.51297
 11
112.00239750000003
 21
772.37744199999997
  0
LINE
  8
_0-0_0
  6
CONTINUOUS
 62
    7
 10
112.25239750000003
 20
772.51297
 11
112.00239750000003
 21
772.23492399999998
  0
LINE
  8
_0-0_0
  6
CONTINUOUS
 62
    7
 10
112.25239750000003
 20
772.39523299999996
 11
112.00239750000003
 21
772.23492399999998
  0
LINE
  8
_0-0_0
  6
CONTINUOUS
 62
    7
 10
112.25239750000003
 20
772.39523299999996
 11
112.00239750000003
 21
772.11611900000003
  0
LINE
  8
_0-0_0
  6
CONTINUOUS
 62
    7
 10
112.25239750000003
 20
772.29943900000001
 11
112.00239750000003
 21
772.11611900000003
  0
LINE
  8
_0-0_0
  6
CONTINUOUS
 62
    7
 10
112.25239750000003
 20
772.29943900000001
 11
112.00239750000003
 21
772.02233899999999
  0
LINE
  8
_0-0_0
  6
CONTINUOUS
 62
    7
 10
112.25239750000003
 20
772.22665400000005
 11
112.00239750000003
 21
772.02233899999999
  0
LINE
  8
_0-0_0
  6
CONTINUOUS
 62
    7
 10
112.25239750000003
 20
772.22665400000005
 11
112.00239750000003
 21
771.95461999999998
  0
LINE
  8
_0-0_0
  6
CONTINUOUS
 62
    7
 10
112.25239750000003
 20
772.17767299999991
 11
112.00239750000003
 21
771.95461999999998
  0
LINE
  8
_0-0_0
  6
CONTINUOUS
 62
    7
 10
112.25239750000003
 20
772.17767299999991
 11
112.00239750000003
 21
771.91366599999992
  0
LINE
  8
_0-0_0
  6
CONTINUOUS
 62
    7
 10
112.25239750000003
 20
772.15307600000006
 11
112.00239750000003
 21
771.91366599999992
  0
LINE
  8
_0-0_0
  6
CONTINUOUS
 62
    7
 10
112.25239750000003
 20
772.15307600000006
 11
112.00239750000003
 21
771.89999399999999
  0
LINE
  8
_0-0_0
  6
CONTINUOUS
 62
    7
 10
112.50239750000003
 20
772.39999399999999
 11
112.50239750000003
 21
776.15515099999993
  0
LINE
  8
_0-0_0
  6
CONTINUOUS
 62
    7
 10
112.12243850000004
 20
776.48861699999998
 11
112.00239750000003
 21
776.56506400000001
  0
LINE
  8
_0-0_0
  6
CONTINUOUS
 62
    7
 10
112.25239750000003
 20
776.28698699999995
 11
112.00239750000003
 21
776.56506400000001
  0
LINE
  8
_0-0_0
  6
CONTINUOUS
 62
    7
 10
112.25239750000003
 20
776.28698699999995
 11
112.00239750000003
 21
776.42251599999997
  0
LINE
  8
_0-0_0
  6
CONTINUOUS
 62
    7
 10
112.00239750000003
 20
776.25784299999998
 11
102.75239550000003
 21
776.25784299999998
  0
LINE
  8
_0-0_0
  6
CONTINUOUS
 62
    7
 10
102.50239550000003
 20
776.14855999999997
 11
102.75239550000003
 21
776.25784299999998
  0
LINE
  8
_0-0_0
  6
CONTINUOUS
 62
    7
 10
112.00239750000003
 20
776.07281499999999
 11
102.75239550000003
 21
776.07281499999999
  0
LINE
  8
_0-0_0
  6
CONTINUOUS
 62
    7
 10
102.50239550000003
 20
775.99096699999996
 11
102.75239550000003
 21
776.07281499999999
  0
LINE
  8
_0-0_0
  6
CONTINUOUS
 62
    7
 10
112.00239750000003
 20
775.86944599999993
 11
102.75239550000003
 21
775.86944599999993
  0
LINE
  8
_0-0_0
  6
CONTINUOUS
 62
    7
 10
102.50239550000003
 20
775.81594900000005
 11
102.75239550000003
 21
775.86944599999993
  0
LINE
  8
_0-0_0
  6
CONTINUOUS
 62
    7
 10
112.00239750000003
 20
775.64999399999999
 11
102.75239550000003
 21
775.64999399999999
  0
LINE
  8
_0-0_0
  6
CONTINUOUS
 62
    7
 10
102.50239550000003
 20
775.62542699999995
 11
102.75239550000003
 21
775.64999399999999
  0
LINE
  8
_0-0_0
  6
CONTINUOUS
 62
    7
 10
112.00239750000003
 20
775.41683999999998
 11
102.75239550000003
 21
775.41683999999998
  0
LINE
  8
_0-0_0
  6
CONTINUOUS
 62
    7
 10
112.25239750000003
 20
775.42147799999998
 11
102.50239550000003
 21
775.42147799999998
  0
LINE
  8
_0-0_0
  6
CONTINUOUS
 62
    7
 10
102.50239550000003
 20
775.42147799999998
 11
102.75239550000003
 21
775.41683999999998
  0
LINE
  8
_0-0_0
  6
CONTINUOUS
 62
    7
 10
112.00239750000003
 20
775.17251599999997
 11
102.75239550000003
 21
775.17251599999997
  0
LINE
  8
_0-0_0
  6
CONTINUOUS
 62
    7
 10
112.25239750000003
 20
775.20632899999998
 11
102.50239550000003
 21
775.20632899999998
  0
LINE
  8
_0-0_0
  6
CONTINUOUS
 62
    7
 10
102.50239550000003
 20
775.20632899999998
 11
102.75239550000003
 21
775.17251599999997
  0
LINE
  8
_0-0_0
  6
CONTINUOUS
 62
    7
 10
112.00239750000003
 20
774.91976899999997
 11
102.75239550000003
 21
774.91976899999997
  0
LINE
  8
_0-0_0
  6
CONTINUOUS
 62
    7
 10
112.25239750000003
 20
774.98233000000005
 11
102.50239550000003
 21
774.98233000000005
  0
LINE
  8
_0-0_0
  6
CONTINUOUS
 62
    7
 10
102.50239550000003
 20
774.98233000000005
 11
102.75239550000003
 21
774.91976899999997
  0
LINE
  8
_0-0_0
  6
CONTINUOUS
 62
    7
 10
112.00239750000003
 20
774.66131599999994
 11
102.75239550000003
 21
774.66131599999994
  0
LINE
  8
_0-0_0
  6
CONTINUOUS
 62
    7
 10
112.25239750000003
 20
774.75195299999996
 11
102.50239550000003
 21
774.75195299999996
  0
LINE
  8
_0-0_0
  6
CONTINUOUS
 62
    7
 10
102.50239550000003
 20
774.75195299999996
 11
102.75239550000003
 21
774.66131599999994
  0
LINE
  8
_0-0_0
  6
CONTINUOUS
 62
    7
 10
112.00239750000003
 20
774.39999399999999
 11
102.75239550000003
 21
774.39999399999999
  0
LINE
  8
_0-0_0
  6
CONTINUOUS
 62
    7
 10
112.25239750000003
 20
774.51773099999991
 11
102.50239550000003
 21
774.51773099999991
  0
LINE
  8
_0-0_0
  6
CONTINUOUS
 62
    7
 10
102.50239550000003
 20
774.51773099999991
 11
102.75239550000003
 21
774.39999399999999
  0
LINE
  8
_0-0_0
  6
CONTINUOUS
 62
    7
 10
112.00239750000003
 20
774.13867200000004
 11
102.75239550000003
 21
774.13867200000004
  0
LINE
  8
_0-0_0
  6
CONTINUOUS
 62
    7
 10
112.25239750000003
 20
774.28222699999992
 11
102.50239550000003
 21
774.28222699999992
  0
LINE
  8
_0-0_0
  6
CONTINUOUS
 62
    7
 10
102.50239550000003
 20
774.28222699999992
 11
102.75239550000003
 21
774.13867200000004
  0
LINE
  8
_0-0_0
  6
CONTINUOUS
 62
    7
 10
112.00239750000003
 20
773.88021900000001
 11
102.75239550000003
 21
773.88021900000001
  0
LINE
  8
_0-0_0
  6
CONTINUOUS
 62
    7
 10
112.25239750000003
 20
774.04800399999999
 11
102.50239550000003
 21
774.04800399999999
  0
LINE
  8
_0-0_0
  6
CONTINUOUS
 62
    7
 10
102.50239550000003
 20
774.04800399999999
 11
102.75239550000003
 21
773.88021900000001
  0
LINE
  8
_0-0_0
  6
CONTINUOUS
 62
    7
 10
112.00239750000003
 20
773.62744199999997
 11
102.75239550000003
 21
773.62744199999997
  0
LINE
  8
_0-0_0
  6
CONTINUOUS
 62
    7
 10
112.25239750000003
 20
773.81765799999994
 11
102.50239550000003
 21
773.81765799999994
  0
LINE
  8
_0-0_0
  6
CONTINUOUS
 62
    7
 10
102.50239550000003
 20
773.81765799999994
 11
102.75239550000003
 21
773.62744199999997
  0
LINE
  8
_0-0_0
  6
CONTINUOUS
 62
    7
 10
112.00239750000003
 20
773.38314800000001
 11
102.75239550000003
 21
773.38314800000001
  0
LINE
  8
_0-0_0
  6
CONTINUOUS
 62
    7
 10
112.25239750000003
 20
773.593659
 11
102.50239550000003
 21
773.593659
  0
LINE
  8
_0-0_0
  6
CONTINUOUS
 62
    7
 10
102.50239550000003
 20
773.593659
 11
102.75239550000003
 21
773.38314800000001
  0
LINE
  8
_0-0_0
  6
CONTINUOUS
 62
    7
 10
112.00239750000003
 20
772.72717299999999
 11
102.75239550000003
 21
772.72717299999999
  0
LINE
  8
_0-0_0
  6
CONTINUOUS
 62
    7
 10
102.50239550000003
 20
772.98400900000001
 11
102.75239550000003
 21
772.72717299999999
  0
LINE
  8
_0-0_0
  6
CONTINUOUS
 62
    7
 10
112.00239750000003
 20
772.54211399999997
 11
102.75239550000003
 21
772.54211399999997
  0
LINE
  8
_0-0_0
  6
CONTINUOUS
 62
    7
 10
102.50239550000003
 20
772.80899099999999
 11
102.75239550000003
 21
772.54211399999997
  0
LINE
  8
_0-0_0
  6
CONTINUOUS
 62
    7
 10
112.00239750000003
 20
772.37744199999997
 11
102.75239550000003
 21
772.37744199999997
  0
LINE
  8
_0-0_0
  6
CONTINUOUS
 62
    7
 10
102.50239550000003
 20
772.65139799999997
 11
102.75239550000003
 21
772.37744199999997
  0
LINE
  8
_0-0_0
  6
CONTINUOUS
 62
    7
 10
112.00239750000003
 20
772.23492399999998
 11
102.75239550000003
 21
772.23492399999998
  0
LINE
  8
_0-0_0
  6
CONTINUOUS
 62
    7
 10
102.50239550000003
 20
772.51297
 11
102.75239550000003
 21
772.23492399999998
  0
LINE
  8
_0-0_0
  6
CONTINUOUS
 62
    7
 10
112.00239750000003
 20
772.11611900000003
 11
102.75239550000003
 21
772.11611900000003
  0
LINE
  8
_0-0_0
  6
CONTINUOUS
 62
    7
 10
102.50239550000003
 20
772.39523299999996
 11
102.75239550000003
 21
772.11611900000003
  0
LINE
  8
_0-0_0
  6
CONTINUOUS
 62
    7
 10
112.00239750000003
 20
772.02233899999999
 11
102.75239550000003
 21
772.02233899999999
  0
LINE
  8
_0-0_0
  6
CONTINUOUS
 62
    7
 10
102.50239550000003
 20
772.29943900000001
 11
102.75239550000003
 21
772.02233899999999
  0
LINE
  8
_0-0_0
  6
CONTINUOUS
 62
    7
 10
112.00239750000003
 20
771.95461999999998
 11
102.75239550000003
 21
771.95461999999998
  0
LINE
  8
_0-0_0
  6
CONTINUOUS
 62
    7
 10
102.50239550000003
 20
772.22665400000005
 11
102.75239550000003
 21
771.95461999999998
  0
LINE
  8
_0-0_0
  6
CONTINUOUS
 62
    7
 10
112.00239750000003
 20
771.91366599999992
 11
102.75239550000003
 21
771.91366599999992
  0
LINE
  8
_0-0_0
  6
CONTINUOUS
 62
    7
 10
102.50239550000003
 20
772.17767299999991
 11
102.75239550000003
 21
771.91366599999992
  0
LINE
  8
_0-0_0
  6
CONTINUOUS
 62
    7
 10
112.00239750000003
 20
771.89999399999999
 11
102.75239550000003
 21
771.89999399999999
  0
LINE
  8
_0-0_0
  6
CONTINUOUS
 62
    7
 10
102.50239550000003
 20
772.15307600000006
 11
102.75239550000003
 21
771.89999399999999
  0
LINE
  8
_0-0_0
  6
CONTINUOUS
 62
    7
 10
112.00239750000003
 20
776.56506400000001
 11
102.75239550000003
 21
776.56506400000001
  0
LINE
  8
_0-0_0
  6
CONTINUOUS
 62
    7
 10
112.25239750000003
 20
776.40475500000002
 11
112.12243850000004
 21
776.48861699999998
  0
LINE
  8
_0-0_0
  6
CONTINUOUS
 62
    7
 10
102.50239550000003
 20
776.40475500000002
 11
102.63236949999998
 21
776.48861699999998
  0
LINE
  8
_0-0_0
  6
CONTINUOUS
 62
    7
 10
102.63236949999998
 20
776.48861699999998
 11
102.75239550000003
 21
776.56506400000001
  0
LINE
  8
_0-0_0
  6
CONTINUOUS
 62
    7
 10
112.00239750000003
 20
776.42251599999997
 11
102.75239550000003
 21
776.42251599999997
  0
LINE
  8
_0-0_0
  6
CONTINUOUS
 62
    7
 10
102.50239550000003
 20
776.28698699999995
 11
102.75239550000003
 21
776.42251599999997
  0
LINE
  8
_0-0_0
  6
CONTINUOUS
 62
    7
 10
112.25239750000003
 20
776.40475500000002
 11
112.00239750000003
 21
776.68383799999992
  0
LINE
  8
_0-0_0
  6
CONTINUOUS
 62
    7
 10
112.00239750000003
 20
776.68383799999992
 11
102.75239550000003
 21
776.68383799999992
  0
LINE
  8
_0-0_0
  6
CONTINUOUS
 62
    7
 10
102.50239550000003
 20
776.40475500000002
 11
102.75239550000003
 21
776.68383799999992
  0
LINE
  8
_0-0_0
  6
CONTINUOUS
 62
    7
 10
112.25239750000003
 20
776.50054899999998
 11
112.00239750000003
 21
776.68383799999992
  0
LINE
  8
_0-0_0
  6
CONTINUOUS
 62
    7
 10
102.50239550000003
 20
776.50054899999998
 11
102.75239550000003
 21
776.68383799999992
  0
LINE
  8
_0-0_0
  6
CONTINUOUS
 62
    7
 10
112.25239750000003
 20
776.50054899999998
 11
112.00239750000003
 21
776.77761899999996
  0
LINE
  8
_0-0_0
  6
CONTINUOUS
 62
    7
 10
112.00239750000003
 20
776.77761899999996
 11
102.75239550000003
 21
776.77761899999996
  0
LINE
  8
_0-0_0
  6
CONTINUOUS
 62
    7
 10
102.50239550000003
 20
776.50054899999998
 11
102.75239550000003
 21
776.77761899999996
  0
LINE
  8
_0-0_0
  6
CONTINUOUS
 62
    7
 10
112.25239750000003
 20
776.57333399999993
 11
112.00239750000003
 21
776.77761899999996
  0
LINE
  8
_0-0_0
  6
CONTINUOUS
 62
    7
 10
102.50239550000003
 20
776.57333399999993
 11
102.75239550000003
 21
776.77761899999996
  0
LINE
  8
_0-0_0
  6
CONTINUOUS
 62
    7
 10
112.25239750000003
 20
776.57333399999993
 11
112.00239750000003
 21
776.84536800000001
  0
LINE
  8
_0-0_0
  6
CONTINUOUS
 62
    7
 10
112.00239750000003
 20
776.84536800000001
 11
102.75239550000003
 21
776.84536800000001
  0
LINE
  8
_0-0_0
  6
CONTINUOUS
 62
    7
 10
102.50239550000003
 20
776.57333399999993
 11
102.75239550000003
 21
776.84536800000001
  0
LINE
  8
_0-0_0
  6
CONTINUOUS
 62
    7
 10
112.25239750000003
 20
776.62228400000004
 11
112.00239750000003
 21
776.84536800000001
  0
LINE
  8
_0-0_0
  6
CONTINUOUS
 62
    7
 10
102.50239550000003
 20
776.62228400000004
 11
102.75239550000003
 21
776.84536800000001
  0
LINE
  8
_0-0_0
  6
CONTINUOUS
 62
    7
 10
112.25239750000003
 20
776.62228400000004
 11
112.00239750000003
 21
776.88629199999991
  0
LINE
  8
_0-0_0
  6
CONTINUOUS
 62
    7
 10
112.00239750000003
 20
776.88629199999991
 11
102.75239550000003
 21
776.88629199999991
  0
LINE
  8
_0-0_0
  6
CONTINUOUS
 62
    7
 10
102.50239550000003
 20
776.62228400000004
 11
102.75239550000003
 21
776.88629199999991
  0
LINE
  8
_0-0_0
  6
CONTINUOUS
 62
    7
 10
112.25239750000003
 20
776.64691199999993
 11
112.00239750000003
 21
776.88629199999991
  0
LINE
  8
_0-0_0
  6
CONTINUOUS
 62
    7
 10
102.50239550000003
 20
776.64691199999993
 11
102.75239550000003
 21
776.88629199999991
  0
LINE
  8
_0-0_0
  6
CONTINUOUS
 62
    7
 10
112.25239750000003
 20
776.64691199999993
 11
112.00239750000003
 21
776.89999399999999
  0
LINE
  8
_0-0_0
  6
CONTINUOUS
 62
    7
 10
112.00239750000003
 20
776.89999399999999
 11
102.75239550000003
 21
776.89999399999999
  0
LINE
  8
_0-0_0
  6
CONTINUOUS
 62
    7
 10
102.50239550000003
 20
776.64691199999993
 11
102.75239550000003
 21
776.89999399999999
  0
LINE
  8
_0-0_0
  6
CONTINUOUS
 62
    7
 10
157.70240050000007
 20
762.09997599999997
 11
157.70240050000007
 21
762.10134900000003
  0
LINE
  8
_0-0_0
  6
CONTINUOUS
 62
    7
 10
157.70240050000007
 20
762.10134900000003
 11
157.70240050000007
 21
770.09997599999997
  0
LINE
  8
_0-0_0
  6
CONTINUOUS
 62
    7
 10
102.50239550000003
 20
776.28698699999995
 11
102.75239550000003
 21
776.56506400000001
  0
LINE
  8
_0-0_0
  6
CONTINUOUS
 62
    7
 10
112.50239750000003
 20
776.15515099999993
 11
112.50239750000003
 21
776.39999399999999
  0
LINE
  8
_0-0_0
  6
CONTINUOUS
 62
    7
 10
102.50239550000003
 20
772.15307600000006
 11
102.75239550000003
 21
771.91366599999992
  0
LINE
  8
_0-0_0
  6
CONTINUOUS
 62
    7
 10
102.50239550000003
 20
772.17767299999991
 11
102.75239550000003
 21
771.95461999999998
  0
LINE
  8
_0-0_0
  6
CONTINUOUS
 62
    7
 10
102.50239550000003
 20
772.22665400000005
 11
102.75239550000003
 21
772.02233899999999
  0
LINE
  8
_0-0_0
  6
CONTINUOUS
 62
    7
 10
102.50239550000003
 20
772.29943900000001
 11
102.75239550000003
 21
772.11611900000003
  0
LINE
  8
_0-0_0
  6
CONTINUOUS
 62
    7
 10
102.50239550000003
 20
772.39523299999996
 11
102.75239550000003
 21
772.23492399999998
  0
LINE
  8
_0-0_0
  6
CONTINUOUS
 62
    7
 10
102.50239550000003
 20
772.51297
 11
102.75239550000003
 21
772.37744199999997
  0
LINE
  8
_0-0_0
  6
CONTINUOUS
 62
    7
 10
102.50239550000003
 20
772.65139799999997
 11
102.75239550000003
 21
772.54211399999997
  0
LINE
  8
_0-0_0
  6
CONTINUOUS
 62
    7
 10
102.50239550000003
 20
772.80899099999999
 11
102.75239550000003
 21
772.72717299999999
  0
LINE
  8
_0-0_0
  6
CONTINUOUS
 62
    7
 10
112.00239750000003
 20
772.93051199999991
 11
102.75239550000003
 21
772.93051199999991
  0
LINE
  8
_0-0_0
  6
CONTINUOUS
 62
    7
 10
102.50239550000003
 20
772.98400900000001
 11
102.75239550000003
 21
772.93051199999991
  0
LINE
  8
_0-0_0
  6
CONTINUOUS
 62
    7
 10
102.50239550000003
 20
773.37851000000001
 11
102.75239550000003
 21
773.38314800000001
  0
LINE
  8
_0-0_0
  6
CONTINUOUS
 62
    7
 10
112.25239750000003
 20
773.37851000000001
 11
102.50239550000003
 21
773.37851000000001
  0
LINE
  8
_0-0_0
  6
CONTINUOUS
 62
    7
 10
102.50239550000003
 20
773.593659
 11
102.75239550000003
 21
773.62744199999997
  0
LINE
  8
_0-0_0
  6
CONTINUOUS
 62
    7
 10
102.50239550000003
 20
773.81765799999994
 11
102.75239550000003
 21
773.88021900000001
  0
LINE
  8
_0-0_0
  6
CONTINUOUS
 62
    7
 10
102.50239550000003
 20
774.04800399999999
 11
102.75239550000003
 21
774.13867200000004
  0
LINE
  8
_0-0_0
  6
CONTINUOUS
 62
    7
 10
102.50239550000003
 20
774.28222699999992
 11
102.75239550000003
 21
774.39999399999999
  0
LINE
  8
_0-0_0
  6
CONTINUOUS
 62
    7
 10
102.50239550000003
 20
774.51773099999991
 11
102.75239550000003
 21
774.66131599999994
  0
LINE
  8
_0-0_0
  6
CONTINUOUS
 62
    7
 10
102.50239550000003
 20
774.75195299999996
 11
102.75239550000003
 21
774.91976899999997
  0
LINE
  8
_0-0_0
  6
CONTINUOUS
 62
    7
 10
102.50239550000003
 20
774.98233000000005
 11
102.75239550000003
 21
775.17251599999997
  0
LINE
  8
_0-0_0
  6
CONTINUOUS
 62
    7
 10
102.50239550000003
 20
775.20632899999998
 11
102.75239550000003
 21
775.41683999999998
  0
LINE
  8
_0-0_0
  6
CONTINUOUS
 62
    7
 10
102.50239550000003
 20
775.42147799999998
 11
102.75239550000003
 21
775.64999399999999
  0
LINE
  8
_0-0_0
  6
CONTINUOUS
 62
    7
 10
102.50239550000003
 20
775.62542699999995
 11
102.75239550000003
 21
775.86944599999993
  0
LINE
  8
_0-0_0
  6
CONTINUOUS
 62
    7
 10
102.50239550000003
 20
775.81594900000005
 11
102.75239550000003
 21
776.07281499999999
  0
LINE
  8
_0-0_0
  6
CONTINUOUS
 62
    7
 10
102.50239550000003
 20
775.99096699999996
 11
102.75239550000003
 21
776.25784299999998
  0
LINE
  8
_0-0_0
  6
CONTINUOUS
 62
    7
 10
102.50239550000003
 20
776.14855999999997
 11
102.75239550000003
 21
776.42251599999997
  0
LINE
  8
_0-0_0
  6
CONTINUOUS
 62
    7
 10
102.50239550000003
 20
773.17456100000004
 11
102.75239550000003
 21
772.93051199999991
  0
LINE
  8
_0-0_0
  6
CONTINUOUS
 62
    7
 10
102.50239550000003
 20
773.37851000000001
 11
102.75239550000003
 21
773.14999399999999
  0
LINE
  8
_0-0_0
  6
CONTINUOUS
 62
    7
 10
102.50239550000003
 20
759.68698100000006
 11
102.75239550000003
 21
759.965057
  0
LINE
  8
_0-0_0
  6
CONTINUOUS
 62
    7
 10
112.50239750000003
 20
759.55514500000004
 11
112.50239750000003
 21
759.79998799999998
  0
LINE
  8
_0-0_0
  6
CONTINUOUS
 62
    7
 10
102.50239550000003
 20
755.55306999999993
 11
102.75239550000003
 21
755.31368999999995
  0
LINE
  8
_0-0_0
  6
CONTINUOUS
 62
    7
 10
102.50239550000003
 20
755.57769800000005
 11
102.75239550000003
 21
755.35461399999997
  0
LINE
  8
_0-0_0
  6
CONTINUOUS
 62
    7
 10
102.50239550000003
 20
755.62664799999993
 11
102.75239550000003
 21
755.42233299999998
  0
LINE
  8
_0-0_0
  6
CONTINUOUS
 62
    7
 10
102.50239550000003
 20
755.699432
 11
102.75239550000003
 21
755.51611300000002
  0
LINE
  8
_0-0_0
  6
CONTINUOUS
 62
    7
 10
102.50239550000003
 20
755.79522700000007
 11
102.75239550000003
 21
755.63491799999997
  0
LINE
  8
_0-0_0
  6
CONTINUOUS
 62
    7
 10
102.50239550000003
 20
755.91299400000003
 11
102.75239550000003
 21
755.77743499999997
  0
LINE
  8
_0-0_0
  6
CONTINUOUS
 62
    7
 10
102.50239550000003
 20
756.051422
 11
102.75239550000003
 21
755.94210799999996
  0
LINE
  8
_0-0_0
  6
CONTINUOUS
 62
    7
 10
102.50239550000003
 20
756.20898399999999
 11
102.75239550000003
 21
756.12716699999999
  0
LINE
  8
_0-0_0
  6
CONTINUOUS
 62
    7
 10
112.00239750000003
 20
756.33053599999994
 11
102.75239550000003
 21
756.33053599999994
  0
LINE
  8
_0-0_0
  6
CONTINUOUS
 62
    7
 10
102.50239550000003
 20
756.38400300000001
 11
102.75239550000003
 21
756.33053599999994
  0
LINE
  8
_0-0_0
  6
CONTINUOUS
 62
    7
 10
102.50239550000003
 20
756.778504
 11
102.75239550000003
 21
756.783142
  0
LINE
  8
_0-0_0
  6
CONTINUOUS
 62
    7
 10
112.25239750000003
 20
756.778504
 11
102.50239550000003
 21
756.778504
  0
LINE
  8
_0-0_0
  6
CONTINUOUS
 62
    7
 10
102.50239550000003
 20
756.993652
 11
102.75239550000003
 21
757.02743499999997
  0
LINE
  8
_0-0_0
  6
CONTINUOUS
 62
    7
 10
102.50239550000003
 20
757.21765099999993
 11
102.75239550000003
 21
757.280213
  0
LINE
  8
_0-0_0
  6
CONTINUOUS
 62
    7
 10
102.50239550000003
 20
757.44799799999998
 11
102.75239550000003
 21
757.53866599999992
  0
LINE
  8
_0-0_0
  6
CONTINUOUS
 62
    7
 10
102.50239550000003
 20
757.68222100000003
 11
102.75239550000003
 21
757.79998799999998
  0
LINE
  8
_0-0_0
  6
CONTINUOUS
 62
    7
 10
102.50239550000003
 20
757.91775499999994
 11
102.75239550000003
 21
758.06131000000005
  0
LINE
  8
_0-0_0
  6
CONTINUOUS
 62
    7
 10
102.50239550000003
 20
758.15197799999999
 11
102.75239550000003
 21
758.31976299999997
  0
LINE
  8
_0-0_0
  6
CONTINUOUS
 62
    7
 10
102.50239550000003
 20
758.38232399999993
 11
102.75239550000003
 21
758.57254
  0
LINE
  8
_0-0_0
  6
CONTINUOUS
 62
    7
 10
102.50239550000003
 20
758.60632299999997
 11
102.75239550000003
 21
758.81683399999997
  0
LINE
  8
_0-0_0
  6
CONTINUOUS
 62
    7
 10
102.50239550000003
 20
758.82147199999997
 11
102.75239550000003
 21
759.04998799999998
  0
LINE
  8
_0-0_0
  6
CONTINUOUS
 62
    7
 10
102.50239550000003
 20
759.02542100000005
 11
102.75239550000003
 21
759.26944000000003
  0
LINE
  8
_0-0_0
  6
CONTINUOUS
 62
    7
 10
102.50239550000003
 20
759.21597300000008
 11
102.75239550000003
 21
759.47280899999998
  0
LINE
  8
_0-0_0
  6
CONTINUOUS
 62
    7
 10
102.50239550000003
 20
759.39096100000006
 11
102.75239550000003
 21
759.65783699999997
  0
LINE
  8
_0-0_0
  6
CONTINUOUS
 62
    7
 10
102.50239550000003
 20
759.54855399999997
 11
102.75239550000003
 21
759.82254
  0
LINE
  8
_0-0_0
  6
CONTINUOUS
 62
    7
 10
102.50239550000003
 20
756.57455499999992
 11
102.75239550000003
 21
756.33053599999994
  0
LINE
  8
_0-0_0
  6
CONTINUOUS
 62
    7
 10
102.50239550000003
 20
756.778504
 11
102.75239550000003
 21
756.54998799999998
  0
LINE
  8
_0-0_0
  6
CONTINUOUS
 62
    7
 10
99.702400500000067
 20
761.56185899999991
 11
99.702400500000067
 21
763.83093299999996
  0
LINE
  8
_0-0_0
  6
CONTINUOUS
 62
    7
 10
99.702400500000067
 20
763.83093299999996
 11
99.702400500000067
 21
770.63809199999992
  0
LINE
  8
_0-0_0
  6
CONTINUOUS
 62
    7
 10
102.50239550000003
 20
773.37851000000001
 11
102.50239550000003
 21
773.593659
  0
LINE
  8
_0-0_0
  6
CONTINUOUS
 62
    7
 10
102.50239550000003
 20
773.593659
 11
102.50239550000003
 21
773.81765799999994
  0
LINE
  8
_0-0_0
  6
CONTINUOUS
 62
    7
 10
102.50239550000003
 20
773.81765799999994
 11
102.50239550000003
 21
774.04800399999999
  0
LINE
  8
_0-0_0
  6
CONTINUOUS
 62
    7
 10
102.50239550000003
 20
774.04800399999999
 11
102.50239550000003
 21
774.28222699999992
  0
LINE
  8
_0-0_0
  6
CONTINUOUS
 62
    7
 10
102.50239550000003
 20
774.28222699999992
 11
102.50239550000003
 21
774.51773099999991
  0
LINE
  8
_0-0_0
  6
CONTINUOUS
 62
    7
 10
102.50239550000003
 20
774.51773099999991
 11
102.50239550000003
 21
774.75195299999996
  0
LINE
  8
_0-0_0
  6
CONTINUOUS
 62
    7
 10
102.50239550000003
 20
774.75195299999996
 11
102.50239550000003
 21
774.98233000000005
  0
LINE
  8
_0-0_0
  6
CONTINUOUS
 62
    7
 10
102.50239550000003
 20
774.98233000000005
 11
102.50239550000003
 21
775.20632899999998
  0
LINE
  8
_0-0_0
  6
CONTINUOUS
 62
    7
 10
102.50239550000003
 20
775.20632899999998
 11
102.50239550000003
 21
775.42147799999998
  0
LINE
  8
_0-0_0
  6
CONTINUOUS
 62
    7
 10
102.50239550000003
 20
775.42147799999998
 11
102.50239550000003
 21
775.62542699999995
  0
LINE
  8
_0-0_0
  6
CONTINUOUS
 62
    7
 10
102.50239550000003
 20
775.62542699999995
 11
102.50239550000003
 21
775.81594900000005
  0
LINE
  8
_0-0_0
  6
CONTINUOUS
 62
    7
 10
102.50239550000003
 20
775.81594900000005
 11
102.50239550000003
 21
775.99096699999996
  0
LINE
  8
_0-0_0
  6
CONTINUOUS
 62
    7
 10
102.50239550000003
 20
775.99096699999996
 11
102.50239550000003
 21
776.14855999999997
  0
LINE
  8
_0-0_0
  6
CONTINUOUS
 62
    7
 10
102.50239550000003
 20
776.14855999999997
 11
102.50239550000003
 21
776.28698699999995
  0
LINE
  8
_0-0_0
  6
CONTINUOUS
 62
    7
 10
102.50239550000003
 20
776.28698699999995
 11
102.50239550000003
 21
776.37454200000002
  0
LINE
  8
_0-0_0
  6
CONTINUOUS
 62
    7
 10
102.50239550000003
 20
776.37454200000002
 11
102.50239550000003
 21
776.40475500000002
  0
LINE
  8
_0-0_0
  6
CONTINUOUS
 62
    7
 10
102.50239550000003
 20
776.40475500000002
 11
102.50239550000003
 21
776.50054899999998
  0
LINE
  8
_0-0_0
  6
CONTINUOUS
 62
    7
 10
102.50239550000003
 20
776.50054899999998
 11
102.50239550000003
 21
776.57333399999993
  0
LINE
  8
_0-0_0
  6
CONTINUOUS
 62
    7
 10
102.50239550000003
 20
776.57333399999993
 11
102.50239550000003
 21
776.62228400000004
  0
LINE
  8
_0-0_0
  6
CONTINUOUS
 62
    7
 10
102.50239550000003
 20
776.62228400000004
 11
102.50239550000003
 21
776.64999399999999
  0
LINE
  8
_0-0_0
  6
CONTINUOUS
 62
    7
 10
102.50239550000003
 20
776.64691199999993
 11
102.50239550000003
 21
776.64999399999999
  0
LINE
  8
_0-0_0
  6
CONTINUOUS
 62
    7
 10
102.50239550000003
 20
772.14999399999999
 11
102.50239550000003
 21
772.15307600000006
  0
LINE
  8
_0-0_0
  6
CONTINUOUS
 62
    7
 10
102.50239550000003
 20
772.15307600000006
 11
102.50239550000003
 21
772.17767299999991
  0
LINE
  8
_0-0_0
  6
CONTINUOUS
 62
    7
 10
102.50239550000003
 20
772.17767299999991
 11
102.50239550000003
 21
772.22665400000005
  0
LINE
  8
_0-0_0
  6
CONTINUOUS
 62
    7
 10
102.50239550000003
 20
772.22665400000005
 11
102.50239550000003
 21
772.29943900000001
  0
LINE
  8
_0-0_0
  6
CONTINUOUS
 62
    7
 10
102.50239550000003
 20
772.14999399999999
 11
102.50239550000003
 21
772.39523299999996
  0
LINE
  8
_0-0_0
  6
CONTINUOUS
 62
    7
 10
102.50239550000003
 20
772.39523299999996
 11
102.50239550000003
 21
772.51297
  0
LINE
  8
_0-0_0
  6
CONTINUOUS
 62
    7
 10
102.50239550000003
 20
772.51297
 11
102.50239550000003
 21
772.65139799999997
  0
LINE
  8
_0-0_0
  6
CONTINUOUS
 62
    7
 10
102.50239550000003
 20
772.65139799999997
 11
102.50239550000003
 21
772.80899099999999
  0
LINE
  8
_0-0_0
  6
CONTINUOUS
 62
    7
 10
102.50239550000003
 20
772.80899099999999
 11
102.50239550000003
 21
772.98400900000001
  0
LINE
  8
_0-0_0
  6
CONTINUOUS
 62
    7
 10
102.50239550000003
 20
772.98400900000001
 11
102.50239550000003
 21
773.17456100000004
  0
LINE
  8
_0-0_0
  6
CONTINUOUS
 62
    7
 10
102.50239550000003
 20
773.32128899999998
 11
102.50239550000003
 21
773.37851000000001
  0
LINE
  8
_0-0_0
  6
CONTINUOUS
 62
    7
 10
102.50239550000003
 20
773.17456100000004
 11
102.50239550000003
 21
773.32128899999998
  0
LINE
  8
_0-0_0
  6
CONTINUOUS
 62
    7
 10
102.50239550000003
 20
756.778504
 11
102.50239550000003
 21
756.993652
  0
LINE
  8
_0-0_0
  6
CONTINUOUS
 62
    7
 10
102.50239550000003
 20
756.993652
 11
102.50239550000003
 21
757.21765099999993
  0
LINE
  8
_0-0_0
  6
CONTINUOUS
 62
    7
 10
102.50239550000003
 20
757.21765099999993
 11
102.50239550000003
 21
757.44799799999998
  0
LINE
  8
_0-0_0
  6
CONTINUOUS
 62
    7
 10
102.50239550000003
 20
757.44799799999998
 11
102.50239550000003
 21
757.68222100000003
  0
LINE
  8
_0-0_0
  6
CONTINUOUS
 62
    7
 10
102.50239550000003
 20
757.68222100000003
 11
102.50239550000003
 21
757.91775499999994
  0
LINE
  8
_0-0_0
  6
CONTINUOUS
 62
    7
 10
102.50239550000003
 20
757.91775499999994
 11
102.50239550000003
 21
758.15197799999999
  0
LINE
  8
_0-0_0
  6
CONTINUOUS
 62
    7
 10
102.50239550000003
 20
758.15197799999999
 11
102.50239550000003
 21
758.38232399999993
  0
LINE
  8
_0-0_0
  6
CONTINUOUS
 62
    7
 10
102.50239550000003
 20
758.38232399999993
 11
102.50239550000003
 21
758.60632299999997
  0
LINE
  8
_0-0_0
  6
CONTINUOUS
 62
    7
 10
102.50239550000003
 20
758.60632299999997
 11
102.50239550000003
 21
758.82147199999997
  0
LINE
  8
_0-0_0
  6
CONTINUOUS
 62
    7
 10
102.50239550000003
 20
758.82147199999997
 11
102.50239550000003
 21
759.02542100000005
  0
LINE
  8
_0-0_0
  6
CONTINUOUS
 62
    7
 10
102.50239550000003
 20
759.02542100000005
 11
102.50239550000003
 21
759.21597300000008
  0
LINE
  8
_0-0_0
  6
CONTINUOUS
 62
    7
 10
102.50239550000003
 20
759.21597300000008
 11
102.50239550000003
 21
759.39096100000006
  0
LINE
  8
_0-0_0
  6
CONTINUOUS
 62
    7
 10
102.50239550000003
 20
759.39096100000006
 11
102.50239550000003
 21
759.54855399999997
  0
LINE
  8
_0-0_0
  6
CONTINUOUS
 62
    7
 10
102.50239550000003
 20
759.54855399999997
 11
102.50239550000003
 21
759.68698100000006
  0
LINE
  8
_0-0_0
  6
CONTINUOUS
 62
    7
 10
102.50239550000003
 20
759.68698100000006
 11
102.50239550000003
 21
759.77453600000001
  0
LINE
  8
_0-0_0
  6
CONTINUOUS
 62
    7
 10
102.50239550000003
 20
759.77453600000001
 11
102.50239550000003
 21
759.80474900000002
  0
LINE
  8
_0-0_0
  6
CONTINUOUS
 62
    7
 10
102.50239550000003
 20
759.80474900000002
 11
102.50239550000003
 21
759.90054299999997
  0
LINE
  8
_0-0_0
  6
CONTINUOUS
 62
    7
 10
102.50239550000003
 20
759.90054299999997
 11
102.50239550000003
 21
759.97332800000004
  0
LINE
  8
_0-0_0
  6
CONTINUOUS
 62
    7
 10
102.50239550000003
 20
759.97332800000004
 11
102.50239550000003
 21
760.02227799999991
  0
LINE
  8
_0-0_0
  6
CONTINUOUS
 62
    7
 10
102.50239550000003
 20
760.02227799999991
 11
102.50239550000003
 21
760.04998799999998
  0
LINE
  8
_0-0_0
  6
CONTINUOUS
 62
    7
 10
102.50239550000003
 20
760.04690600000004
 11
102.50239550000003
 21
760.04998799999998
  0
LINE
  8
_0-0_0
  6
CONTINUOUS
 62
    7
 10
102.50239550000003
 20
755.54998799999998
 11
102.50239550000003
 21
755.55306999999993
  0
LINE
  8
_0-0_0
  6
CONTINUOUS
 62
    7
 10
102.50239550000003
 20
755.55306999999993
 11
102.50239550000003
 21
755.57769800000005
  0
LINE
  8
_0-0_0
  6
CONTINUOUS
 62
    7
 10
102.50239550000003
 20
755.57769800000005
 11
102.50239550000003
 21
755.62664799999993
  0
LINE
  8
_0-0_0
  6
CONTINUOUS
 62
    7
 10
102.50239550000003
 20
755.54998799999998
 11
102.50239550000003
 21
755.699432
  0
LINE
  8
_0-0_0
  6
CONTINUOUS
 62
    7
 10
102.50239550000003
 20
755.699432
 11
102.50239550000003
 21
755.79522700000007
  0
LINE
  8
_0-0_0
  6
CONTINUOUS
 62
    7
 10
102.50239550000003
 20
755.79522700000007
 11
102.50239550000003
 21
755.91299400000003
  0
LINE
  8
_0-0_0
  6
CONTINUOUS
 62
    7
 10
102.50239550000003
 20
755.91299400000003
 11
102.50239550000003
 21
756.051422
  0
LINE
  8
_0-0_0
  6
CONTINUOUS
 62
    7
 10
102.50239550000003
 20
756.051422
 11
102.50239550000003
 21
756.20898399999999
  0
LINE
  8
_0-0_0
  6
CONTINUOUS
 62
    7
 10
102.50239550000003
 20
756.20898399999999
 11
102.50239550000003
 21
756.38400300000001
  0
LINE
  8
_0-0_0
  6
CONTINUOUS
 62
    7
 10
102.50239550000003
 20
756.38400300000001
 11
102.50239550000003
 21
756.57455499999992
  0
LINE
  8
_0-0_0
  6
CONTINUOUS
 62
    7
 10
102.50239550000003
 20
756.72128299999997
 11
102.50239550000003
 21
756.778504
  0
LINE
  8
_0-0_0
  6
CONTINUOUS
 62
    7
 10
102.50239550000003
 20
756.57455499999992
 11
102.50239550000003
 21
756.72128299999997
  0
LINE
  8
_0-0_0
  6
CONTINUOUS
 62
    7
 10
98.902397500000006
 20
763.59997599999997
 11
98.902397500000006
 21
771.09997599999997
  0
LINE
  8
_0-0_0
  6
CONTINUOUS
 62
    7
 10
98.902397500000006
 20
761.09997599999997
 11
98.902397500000006
 21
763.59997599999997
  0
LINE
  8
_0-0_0
  6
CONTINUOUS
 62
    7
 10
87.502403500000014
 20
772.59997599999997
 11
97.210227499999974
 21
772.59997599999997
  0
LINE
  8
_0-0_0
  6
CONTINUOUS
 62
    7
 10
97.252403500000014
 20
772.59997599999997
 11
97.210227499999974
 21
772.59997599999997
  0
LINE
  8
_0-0_0
  6
CONTINUOUS
 62
    7
 10
87.202400500000067
 20
763.88797
 11
87.261207499999955
 21
763.64111300000002
  0
LINE
  8
_0-0_0
  6
CONTINUOUS
 62
    7
 10
87.261207499999955
 20
763.64111300000002
 11
87.31096649999995
 21
763.44879199999991
  0
LINE
  8
_0-0_0
  6
CONTINUOUS
 62
    7
 10
87.31096649999995
 20
763.44879199999991
 11
87.382087500000011
 21
763.18304499999999
  0
LINE
  8
_0-0_0
  6
CONTINUOUS
 62
    7
 10
87.382087500000011
 20
763.18304499999999
 11
87.415046500000017
 21
763.05633599999999
  0
LINE
  8
_0-0_0
  6
CONTINUOUS
 62
    7
 10
87.415046500000017
 20
763.05633599999999
 11
87.440299500000037
 21
762.95291099999997
  0
LINE
  8
_0-0_0
  6
CONTINUOUS
 62
    7
 10
87.440299500000037
 20
762.95291099999997
 11
87.4623335
 21
762.852936
  0
LINE
  8
_0-0_0
  6
CONTINUOUS
 62
    7
 10
87.4623335
 20
762.852936
 11
87.483726499999989
 21
762.73523
  0
LINE
  8
_0-0_0
  6
CONTINUOUS
 62
    7
 10
87.483726499999989
 20
762.73523
 11
87.492286499999977
 21
762.67309599999999
  0
LINE
  8
_0-0_0
  6
CONTINUOUS
 62
    7
 10
87.492286499999977
 20
762.67309599999999
 11
87.498374499999954
 21
762.61248799999998
  0
LINE
  8
_0-0_0
  6
CONTINUOUS
 62
    7
 10
87.498374499999954
 20
762.61248799999998
 11
87.501380499999982
 21
762.56326300000001
  0
LINE
  8
_0-0_0
  6
CONTINUOUS
 62
    7
 10
87.501380499999982
 20
762.56326300000001
 11
87.502403500000014
 21
762.51504499999999
  0
LINE
  8
_0-0_0
  6
CONTINUOUS
 62
    7
 10
87.202400500000067
 20
768.31198100000006
 11
87.261192499999993
 21
768.558807
  0
LINE
  8
_0-0_0
  6
CONTINUOUS
 62
    7
 10
87.261192499999993
 20
768.558807
 11
87.31096649999995
 21
768.75116000000003
  0
LINE
  8
_0-0_0
  6
CONTINUOUS
 62
    7
 10
87.31096649999995
 20
768.75116000000003
 11
87.382087500000011
 21
769.01693699999998
  0
LINE
  8
_0-0_0
  6
CONTINUOUS
 62
    7
 10
87.382087500000011
 20
769.01693699999998
 11
87.415046500000017
 21
769.14367700000003
  0
LINE
  8
_0-0_0
  6
CONTINUOUS
 62
    7
 10
87.415046500000017
 20
769.14367700000003
 11
87.440315499999997
 21
769.24707000000001
  0
LINE
  8
_0-0_0
  6
CONTINUOUS
 62
    7
 10
87.440315499999997
 20
769.24707000000001
 11
87.4623335
 21
769.34701500000006
  0
LINE
  8
_0-0_0
  6
CONTINUOUS
 62
    7
 10
87.4623335
 20
769.34701500000006
 11
87.483711500000027
 21
769.46472199999994
  0
LINE
  8
_0-0_0
  6
CONTINUOUS
 62
    7
 10
87.483711500000027
 20
769.46472199999994
 11
87.492286499999977
 21
769.52685599999995
  0
LINE
  8
_0-0_0
  6
CONTINUOUS
 62
    7
 10
87.492286499999977
 20
769.52685599999995
 11
87.498374499999954
 21
769.58746300000007
  0
LINE
  8
_0-0_0
  6
CONTINUOUS
 62
    7
 10
87.498374499999954
 20
769.58746300000007
 11
87.501380499999982
 21
769.63671899999997
  0
LINE
  8
_0-0_0
  6
CONTINUOUS
 62
    7
 10
87.501380499999982
 20
769.63671899999997
 11
87.502403500000014
 21
769.68493699999999
  0
LINE
  8
_0-0_0
  6
CONTINUOUS
 62
    7
 10
87.502403500000014
 20
764.53793300000007
 11
87.502403500000014
 21
763.49227900000005
  0
LINE
  8
_0-0_0
  6
CONTINUOUS
 62
    7
 10
87.502403500000014
 20
762.207672
 11
87.502403500000014
 21
763.49227900000005
  0
LINE
  8
_0-0_0
  6
CONTINUOUS
 62
    7
 10
87.502403500000014
 20
762.09228499999995
 11
87.502403500000014
 21
762.207672
  0
ARC
  8
_0-0_0
  6
CONTINUOUS
 62
    7
 10
85.502403500000014
 20
773.45846600000004
 40
2
 50
0
 51
71.565000999999995
  0
LINE
  8
_0-0_0
  6
CONTINUOUS
 62
    7
 10
97.210227499999974
 20
772.59997599999997
 11
97.264717499999961
 21
772.53006000000005
  0
LINE
  8
_0-0_0
  6
CONTINUOUS
 62
    7
 10
97.264717499999961
 20
772.53006000000005
 11
97.315818499999978
 21
772.46121199999993
  0
LINE
  8
_0-0_0
  6
CONTINUOUS
 62
    7
 10
97.315818499999978
 20
772.46121199999993
 11
97.363456499999984
 21
772.39370699999995
  0
LINE
  8
_0-0_0
  6
CONTINUOUS
 62
    7
 10
97.363456499999984
 20
772.39370699999995
 11
97.407951499999967
 21
772.327179
  0
LINE
  8
_0-0_0
  6
CONTINUOUS
 62
    7
 10
97.407951499999967
 20
772.327179
 11
97.462669500000061
 21
772.23962400000005
  0
LINE
  8
_0-0_0
  6
CONTINUOUS
 62
    7
 10
97.462669500000061
 20
772.23962400000005
 11
97.512184499999989
 21
772.15353400000004
  0
LINE
  8
_0-0_0
  6
CONTINUOUS
 62
    7
 10
97.512184499999989
 20
772.15353400000004
 11
97.556648500000051
 21
772.06869499999993
  0
LINE
  8
_0-0_0
  6
CONTINUOUS
 62
    7
 10
97.556648500000051
 20
772.06869499999993
 11
97.603614500000049
 21
771.96838400000001
  0
LINE
  8
_0-0_0
  6
CONTINUOUS
 62
    7
 10
97.603614500000049
 20
771.96838400000001
 11
97.643821500000058
 21
771.86944599999993
  0
LINE
  8
_0-0_0
  6
CONTINUOUS
 62
    7
 10
97.643821500000058
 20
771.86944599999993
 11
97.677482499999996
 21
771.77169800000001
  0
LINE
  8
_0-0_0
  6
CONTINUOUS
 62
    7
 10
97.677482499999996
 20
771.77169800000001
 11
97.70478049999997
 21
771.67489599999999
  0
LINE
  8
_0-0_0
  6
CONTINUOUS
 62
    7
 10
97.70478049999997
 20
771.67489599999999
 11
97.725822500000049
 21
771.57882700000005
  0
LINE
  8
_0-0_0
  6
CONTINUOUS
 62
    7
 10
97.725822500000049
 20
771.57882700000005
 11
97.741752499999961
 21
771.47497599999997
  0
LINE
  8
_0-0_0
  6
CONTINUOUS
 62
    7
 10
97.741752499999961
 20
771.47497599999997
 11
97.750511500000016
 21
771.37155200000007
  0
LINE
  8
_0-0_0
  6
CONTINUOUS
 62
    7
 10
97.750511500000016
 20
771.37155200000007
 11
97.752143499999988
 21
771.26831100000004
  0
LINE
  8
_0-0_0
  6
CONTINUOUS
 62
    7
 10
97.752143499999988
 20
771.26831100000004
 11
97.746681500000022
 21
771.16503899999998
  0
LINE
  8
_0-0_0
  6
CONTINUOUS
 62
    7
 10
97.746681500000022
 20
771.16503899999998
 11
97.73406250000005
 21
771.06143199999997
  0
LINE
  8
_0-0_0
  6
CONTINUOUS
 62
    7
 10
97.73406250000005
 20
771.06143199999997
 11
97.714256500000033
 21
770.95727499999998
  0
LINE
  8
_0-0_0
  6
CONTINUOUS
 62
    7
 10
97.714256500000033
 20
770.95727499999998
 11
97.687110500000017
 21
770.85232599999995
  0
LINE
  8
_0-0_0
  6
CONTINUOUS
 62
    7
 10
97.687110500000017
 20
770.85232599999995
 11
97.652458499999966
 21
770.746307
  0
LINE
  8
_0-0_0
  6
CONTINUOUS
 62
    7
 10
97.652458499999966
 20
770.746307
 11
97.610114500000009
 21
770.63891599999999
  0
LINE
  8
_0-0_0
  6
CONTINUOUS
 62
    7
 10
97.610114500000009
 20
770.63891599999999
 11
97.55979149999996
 21
770.52990699999998
  0
LINE
  8
_0-0_0
  6
CONTINUOUS
 62
    7
 10
97.55979149999996
 20
770.52990699999998
 11
97.505546500000037
 21
770.42678799999999
  0
LINE
  8
_0-0_0
  6
CONTINUOUS
 62
    7
 10
97.505546500000037
 20
770.42678799999999
 11
97.443839499999967
 21
770.32171599999992
  0
LINE
  8
_0-0_0
  6
CONTINUOUS
 62
    7
 10
97.443839499999967
 20
770.32171599999992
 11
97.374320500000067
 21
770.21447799999999
  0
LINE
  8
_0-0_0
  6
CONTINUOUS
 62
    7
 10
97.374320500000067
 20
770.21447799999999
 11
97.29660750000005
 21
770.10476700000004
  0
LINE
  8
_0-0_0
  6
CONTINUOUS
 62
    7
 10
97.29660750000005
 20
770.10476700000004
 11
97.210227499999974
 21
769.99227900000005
  0
LINE
  8
_0-0_0
  6
CONTINUOUS
 62
    7
 10
87.502403500000014
 20
770.10766599999999
 11
87.502403500000014
 21
769.99227900000005
  0
LINE
  8
_0-0_0
  6
CONTINUOUS
 62
    7
 10
87.502403500000014
 20
768.707672
 11
87.502403500000014
 21
767.66204799999991
  0
LINE
  8
_0-0_0
  6
CONTINUOUS
 62
    7
 10
87.502403500000014
 20
763.49227900000005
 11
97.210227499999974
 21
763.49227900000005
  0
LINE
  8
_0-0_0
  6
CONTINUOUS
 62
    7
 10
87.502403500000014
 20
762.207672
 11
97.210227499999974
 21
762.207672
  0
LINE
  8
_0-0_0
  6
CONTINUOUS
 62
    7
 10
98.502403500000014
 20
768.83154300000001
 11
98.502403500000014
 21
771.34997599999997
  0
LINE
  8
_0-0_0
  6
CONTINUOUS
 62
    7
 10
87.502403500000014
 20
773.45846600000004
 11
87.502403500000014
 21
770.10766599999999
  0
LINE
  8
_0-0_0
  6
CONTINUOUS
 62
    7
 10
76.502403500000014
 20
755.29998799999998
 11
76.502403500000014
 21
755.55004899999994
  0
LINE
  8
_0-0_0
  6
CONTINUOUS
 62
    7
 10
52.002403500000014
 20
775.39999399999999
 11
47.002395500000034
 21
775.39999399999999
  0
ARC
  8
_0-0_0
  6
CONTINUOUS
 62
    7
 10
47.002395500000034
 20
770.89999399999999
 40
4.5
 50
90.000003000000007
 51
269.99999700000006
  0
LINE
  8
_0-0_0
  6
CONTINUOUS
 62
    7
 10
52.002403500000014
 20
766.39999399999999
 11
47.002395500000034
 21
766.39999399999999
  0
ARC
  8
_0-0_0
  6
CONTINUOUS
 62
    7
 10
52.002403500000014
 20
770.89999399999999
 40
4.5
 50
269.99999700000001
 51
90.000002999999992
  0
LINE
  8
_0-0_0
  6
CONTINUOUS
 62
    7
 10
-3.9976194999999279
 20
775.39999399999999
 11
-8.9976194999999279
 21
775.39999399999999
  0
ARC
  8
_0-0_0
  6
CONTINUOUS
 62
    7
 10
-8.9976194999999279
 20
770.89999399999999
 40
4.5
 50
90.000003000000007
 51
269.99999700000006
  0
LINE
  8
_0-0_0
  6
CONTINUOUS
 62
    7
 10
-3.9976194999999279
 20
766.39999399999999
 11
-8.9976194999999279
 21
766.39999399999999
  0
ARC
  8
_0-0_0
  6
CONTINUOUS
 62
    7
 10
-3.9976194999999279
 20
770.89999399999999
 40
4.5
 50
269.99999700000001
 51
90.000002999999992
  0
LINE
  8
_0-0_0
  6
CONTINUOUS
 62
    7
 10
21.314910499999996
 20
774.96963499999993
 11
20.014915500000029
 21
771.46963499999993
  0
LINE
  8
_0-0_0
  6
CONTINUOUS
 62
    7
 10
20.202400500000067
 20
771.19998199999998
 11
22.802398499999981
 21
771.19998199999998
  0
ARC
  8
_0-0_0
  6
CONTINUOUS
 62
    7
 10
22.802398499999981
 20
771.39999399999999
 40
0.2
 50
269.99999700000001
 51
20.376435000000019
  0
ARC
  8
_0-0_0
  6
CONTINUOUS
 62
    7
 10
21.502395500000034
 20
774.89999399999999
 40
0.2
 50
20.376434999999997
 51
159.62357000000003
  0
LINE
  8
_0-0_0
  6
CONTINUOUS
 62
    7
 10
76.502403500000014
 20
755.29998799999998
 11
76.502403500000014
 21
757.29998799999998
  0
ARC
  8
_0-0_0
  6
CONTINUOUS
 62
    7
 10
42.502395500000034
 20
761.69998199999998
 40
3
 50
180.00000900000003
 51
269.99999700000001
  0
LINE
  8
_0-0_0
  6
CONTINUOUS
 62
    7
 10
42.502395500000034
 20
758.69998199999998
 11
57.502403500000014
 21
758.69998199999998
  0
ARC
  8
_0-0_0
  6
CONTINUOUS
 62
    7
 10
57.502403500000014
 20
761.69998199999998
 40
3
 50
269.99999700000001
 51
0
  0
ARC
  8
_0-0_0
  6
CONTINUOUS
 62
    7
 10
57.502403500000014
 20
775.29998799999998
 40
3
 50
0
 51
90.000003000000007
  0
LINE
  8
_0-0_0
  6
CONTINUOUS
 62
    7
 10
57.502403500000014
 20
778.29998799999998
 11
42.502395500000034
 21
778.29998799999998
  0
ARC
  8
_0-0_0
  6
CONTINUOUS
 62
    7
 10
42.502395500000034
 20
775.29998799999998
 40
3
 50
90.000003000000007
 51
180.00000900000001
  0
ARC
  8
_0-0_0
  6
CONTINUOUS
 62
    7
 10
-11.407928500000025
 20
763.78967299999999
 40
5.089683
 50
180.00000900000003
 51
269.99999700000001
  0
LINE
  8
_0-0_0
  6
CONTINUOUS
 62
    7
 10
-11.407928500000025
 20
758.69998199999998
 11
-0.1405945000000201
 21
758.69998199999998
  0
ARC
  8
_0-0_0
  6
CONTINUOUS
 62
    7
 10
-0.1405945000000201
 20
762.34298699999999
 40
3.6429879999999999
 50
269.99999700000001
 51
0.0000099999999886
  0
LINE
  8
_0-0_0
  6
CONTINUOUS
 62
    7
 10
0.502380500000072
 20
778.29998799999998
 11
-12.831543499999952
 21
778.29998799999998
  0
ARC
  8
_0-0_0
  6
CONTINUOUS
 62
    7
 10
-12.831543499999952
 20
777.29998799999998
 40
1
 50
90.000003000000007
 51
172.23356100000001
  0
ARC
  8
_0-0_0
  6
CONTINUOUS
 62
    7
 10
-15.497589500000004
 20
774.23767099999998
 40
1
 50
105.68034800000001
 51
180.00000900000001
  0
LINE
  8
_0-0_0
  6
CONTINUOUS
 62
    7
 10
41.902397500000006
 20
778.29998799999998
 11
41.902397500000006
 21
778.23937999999998
  0
LINE
  8
_0-0_0
  6
CONTINUOUS
 62
    7
 10
0.502380500000072
 20
758.75717199999997
 11
0.502380500000072
 21
758.704071
  0
LINE
  8
_0-0_0
  6
CONTINUOUS
 62
    7
 10
41.902397500000006
 20
758.76058999999998
 11
41.902397500000006
 21
758.704071
  0
LINE
  8
_0-0_0
  6
CONTINUOUS
 62
    7
 10
98.502403500000014
 20
760.84997599999997
 11
97.702400500000067
 21
760.04998799999998
  0
LINE
  8
_0-0_0
  6
CONTINUOUS
 62
    7
 10
112.50239750000003
 20
755.79998799999998
 11
112.00256550000006
 21
755.30014000000006
  0
LINE
  8
_0-0_0
  6
CONTINUOUS
 62
    7
 10
112.50239750000003
 20
772.39999399999999
 11
112.00256550000006
 21
771.90014700000006
  0
LINE
  8
_0-0_0
  6
CONTINUOUS
 62
    7
 10
99.702400500000067
 20
770.09997599999997
 11
157.70240050000007
 21
770.09997599999997
  0
LINE
  8
_0-0_0
  6
CONTINUOUS
 62
    7
 10
99.702400500000067
 20
762.09997599999997
 11
157.70240050000007
 21
762.09997599999997
  0
LINE
  8
_0-0_0
  6
CONTINUOUS
 62
    7
 10
112.50239750000003
 20
776.39999399999999
 11
112.00256550000006
 21
776.89984099999992
  0
LINE
  8
_0-0_0
  6
CONTINUOUS
 62
    7
 10
112.50239750000003
 20
759.79998799999998
 11
112.00256550000006
 21
760.29983500000003
  0
LINE
  8
_0-0_0
  6
CONTINUOUS
 62
    7
 10
102.50239550000003
 20
776.64999399999999
 11
102.75239550000003
 21
776.89999399999999
  0
LINE
  8
_0-0_0
  6
CONTINUOUS
 62
    7
 10
102.50239550000003
 20
772.14999399999999
 11
102.75239550000003
 21
771.89999399999999
  0
LINE
  8
_0-0_0
  6
CONTINUOUS
 62
    7
 10
102.50239550000003
 20
760.04998799999998
 11
102.75239550000003
 21
760.29998799999998
  0
LINE
  8
_0-0_0
  6
CONTINUOUS
 62
    7
 10
102.50239550000003
 20
755.54998799999998
 11
102.75239550000003
 21
755.29998799999998
  0
LINE
  8
_0-0_0
  6
CONTINUOUS
 62
    7
 10
99.702400500000067
 20
770.63809199999992
 11
98.902397500000006
 21
771.09997599999997
  0
LINE
  8
_0-0_0
  6
CONTINUOUS
 62
    7
 10
99.702400500000067
 20
761.56185899999991
 11
98.902397500000006
 21
761.09997599999997
  0
LINE
  8
_0-0_0
  6
CONTINUOUS
 62
    7
 10
82.252357500000016
 20
776.64999399999999
 11
102.50239550000003
 21
776.64999399999999
  0
LINE
  8
_0-0_0
  6
CONTINUOUS
 62
    7
 10
97.702400500000067
 20
772.14999399999999
 11
102.50239550000003
 21
772.14999399999999
  0
LINE
  8
_0-0_0
  6
CONTINUOUS
 62
    7
 10
76.502403500000014
 20
760.04998799999998
 11
102.50239550000003
 21
760.04998799999998
  0
LINE
  8
_0-0_0
  6
CONTINUOUS
 62
    7
 10
76.502403500000014
 20
755.54998799999998
 11
102.50239550000003
 21
755.54998799999998
  0
LINE
  8
_0-0_0
  6
CONTINUOUS
 62
    7
 10
98.502403500000014
 20
771.09997599999997
 11
98.902397500000006
 21
771.09997599999997
  0
LINE
  8
_0-0_0
  6
CONTINUOUS
 62
    7
 10
98.502403500000014
 20
761.09997599999997
 11
98.902397500000006
 21
761.09997599999997
  0
LINE
  8
_0-0_0
  6
CONTINUOUS
 62
    7
 10
98.502403500000014
 20
771.34997599999997
 11
97.252403500000014
 21
772.59997599999997
  0
ARC
  8
_0-0_0
  6
CONTINUOUS
 62
    7
 10
-23.497589500000004
 20
799.59997599999997
 40
8
 50
215.099627
 51
324.90037799999999
  0
LINE
  8
_0-0_0
  6
CONTINUOUS
 62
    7
 10
-32.497589500000004
 20
794.99997000000008
 11
-30.042816499999958
 21
794.99997000000008
  0
LINE
  8
_0-0_0
  6
CONTINUOUS
 62
    7
 10
-32.497589500000004
 20
781.79998799999998
 11
-32.497589500000004
 21
794.99997000000008
  0
LINE
  8
_0-0_0
  6
CONTINUOUS
 62
    7
 10
1540.5025025
 20
781.79998799999998
 11
1540.5025025
 21
794.99997000000008
  0
LINE
  8
_0-0_0
  6
CONTINUOUS
 62
    7
 10
1538.0477905
 20
794.99997000000008
 11
1540.5025025
 21
794.99997000000008
  0
ARC
  8
_0-0_0
  6
CONTINUOUS
 62
    7
 10
1531.5025025
 20
799.59997599999997
 40
8
 50
215.099627
 51
324.90037799999999
  0
LINE
  8
_0-0_0
  6
CONTINUOUS
 62
    7
 10
-16.952362499999936
 20
794.99997000000008
 11
1524.9572145
 21
794.99997000000008
  0
LINE
  8
_0-0_0
  6
CONTINUOUS
 62
    7
 10
-16.952362499999936
 20
794.99997000000008
 11
-16.863403500000004
 21
795.12927300000001
  0
LINE
  8
_0-0_0
  6
CONTINUOUS
 62
    7
 10
1524.9572145
 20
794.99997000000008
 11
1524.8683475
 21
795.12927300000001
  0
LINE
  8
_0-0_0
  6
CONTINUOUS
 62
    7
 10
1538.2297974999999
 20
795.27069099999994
 11
1538.3113404999999
 21
795.39999399999999
  0
ARC
  8
_0-0_0
  6
CONTINUOUS
 62
    7
 10
1531.5025025
 20
799.59997599999997
 40
8
 50
328.33175599999993
 51
334.05550899999992
  0
LINE
  8
_0-0_0
  6
CONTINUOUS
 62
    7
 10
1538.6962275000001
 20
796.09997599999997
 11
1538.7902225
 21
796.29998799999998
  0
LINE
  8
_0-0_0
  6
CONTINUOUS
 62
    7
 10
1538.7902225
 20
796.29998799999998
 11
1538.8775025
 21
796.49997000000008
  0
ARC
  8
_0-0_0
  6
CONTINUOUS
 62
    7
 10
1531.5025025
 20
799.59997599999997
 40
8
 50
337.20097500000003
 51
342.54240199999998
  0
LINE
  8
_0-0_0
  6
CONTINUOUS
 62
    7
 10
1539.1339725
 20
797.19998199999998
 11
1539.1940305000001
 21
797.39999399999999
  0
LINE
  8
_0-0_0
  6
CONTINUOUS
 62
    7
 10
1539.1940305000001
 20
797.39999399999999
 11
1539.2484744999999
 21
797.59997599999997
  0
ARC
  8
_0-0_0
  6
CONTINUOUS
 62
    7
 10
1531.5025025
 20
799.59997599999997
 40
8
 50
345.52249499999999
 51
350.64797900000002
  0
LINE
  8
_0-0_0
  6
CONTINUOUS
 62
    7
 10
1539.3961795
 20
798.29998799999998
 11
1539.4265745
 21
798.49997000000008
  0
LINE
  8
_0-0_0
  6
CONTINUOUS
 62
    7
 10
1539.4265745
 20
798.49997000000008
 11
1539.4517215000001
 21
798.69998199999998
  0
ARC
  8
_0-0_0
  6
CONTINUOUS
 62
    7
 10
1531.5025025
 20
799.59997599999997
 40
8
 50
353.54056400000002
 51
358.56744600000002
  0
LINE
  8
_0-0_0
  6
CONTINUOUS
 62
    7
 10
1539.5000605
 20
799.39999399999999
 11
1539.5025025
 21
799.59997599999997
  0
LINE
  8
_0-0_0
  6
CONTINUOUS
 62
    7
 10
1523.5049435000001
 20
799.39999399999999
 11
1523.5025025
 21
799.59997599999997
  0
ARC
  8
_0-0_0
  6
CONTINUOUS
 62
    7
 10
1531.5025025
 20
799.59997599999997
 40
8
 50
181.432545
 51
186.45945499999999
  0
LINE
  8
_0-0_0
  6
CONTINUOUS
 62
    7
 10
1523.5784305
 20
798.49997000000008
 11
1523.5532834999999
 21
798.69998199999998
  0
LINE
  8
_0-0_0
  6
CONTINUOUS
 62
    7
 10
1523.6088255
 20
798.29998799999998
 11
1523.5784305
 21
798.49997000000008
  0
ARC
  8
_0-0_0
  6
CONTINUOUS
 62
    7
 10
1531.5025025
 20
799.59997599999997
 40
8
 50
189.35203999999999
 51
194.47751
  0
LINE
  8
_0-0_0
  6
CONTINUOUS
 62
    7
 10
1523.8109744999999
 20
797.39999399999999
 11
1523.7565305000001
 21
797.59997599999997
  0
LINE
  8
_0-0_0
  6
CONTINUOUS
 62
    7
 10
1523.8710325
 20
797.19998199999998
 11
1523.8109744999999
 21
797.39999399999999
  0
ARC
  8
_0-0_0
  6
CONTINUOUS
 62
    7
 10
1531.5025025
 20
799.59997599999997
 40
8
 50
197.45760300000001
 51
202.79902999999999
  0
LINE
  8
_0-0_0
  6
CONTINUOUS
 62
    7
 10
1524.2147825
 20
796.29998799999998
 11
1524.1275025
 21
796.49997000000008
  0
LINE
  8
_0-0_0
  6
CONTINUOUS
 62
    7
 10
1524.3087765
 20
796.09997599999997
 11
1524.2147825
 21
796.29998799999998
  0
ARC
  8
_0-0_0
  6
CONTINUOUS
 62
    7
 10
1531.5025025
 20
799.59997599999997
 40
8
 50
205.94448199999999
 51
211.66823500000001
  0
LINE
  8
_0-0_0
  6
CONTINUOUS
 62
    7
 10
1524.7752075000001
 20
795.27069099999994
 11
1524.6936645000001
 21
795.39999399999999
  0
LINE
  8
_0-0_0
  6
CONTINUOUS
 62
    7
 10
1524.7752075000001
 20
795.27069099999994
 11
1524.8683475
 21
795.12927300000001
  0
LINE
  8
_0-0_0
  6
CONTINUOUS
 62
    7
 10
1538.0477905
 20
794.99997000000008
 11
1538.1366575
 21
795.12927300000001
  0
LINE
  8
_0-0_0
  6
CONTINUOUS
 62
    7
 10
1538.2297974999999
 20
795.27069099999994
 11
1538.1366575
 21
795.12927300000001
  0
LINE
  8
_0-0_0
  6
CONTINUOUS
 62
    7
 10
1540.5025025
 20
795.12927300000001
 11
1540.5025025
 21
794.99997000000008
  0
LINE
  8
_0-0_0
  6
CONTINUOUS
 62
    7
 10
1540.5025025
 20
803.92929099999992
 11
1540.5025025
 21
804.07070899999997
  0
LINE
  8
_0-0_0
  6
CONTINUOUS
 62
    7
 10
1540.5025025
 20
803.92929099999992
 11
1540.5025025
 21
803.79998799999998
  0
LINE
  8
_0-0_0
  6
CONTINUOUS
 62
    7
 10
1540.5025025
 20
803.09997599999997
 11
1540.5025025
 21
803.79998799999998
  0
LINE
  8
_0-0_0
  6
CONTINUOUS
 62
    7
 10
1540.5025025
 20
802.89999399999999
 11
1540.5025025
 21
803.09997599999997
  0
LINE
  8
_0-0_0
  6
CONTINUOUS
 62
    7
 10
1540.5025025
 20
802.89999399999999
 11
1540.5025025
 21
802.69998199999998
  0
LINE
  8
_0-0_0
  6
CONTINUOUS
 62
    7
 10
1540.5025025
 20
801.99997000000008
 11
1540.5025025
 21
802.69998199999998
  0
LINE
  8
_0-0_0
  6
CONTINUOUS
 62
    7
 10
1540.5025025
 20
801.79998799999998
 11
1540.5025025
 21
801.99997000000008
  0
LINE
  8
_0-0_0
  6
CONTINUOUS
 62
    7
 10
1540.5025025
 20
801.79998799999998
 11
1540.5025025
 21
801.59997599999997
  0
LINE
  8
_0-0_0
  6
CONTINUOUS
 62
    7
 10
1540.5025025
 20
800.89999399999999
 11
1540.5025025
 21
801.59997599999997
  0
LINE
  8
_0-0_0
  6
CONTINUOUS
 62
    7
 10
1540.5025025
 20
800.69998199999998
 11
1540.5025025
 21
800.89999399999999
  0
LINE
  8
_0-0_0
  6
CONTINUOUS
 62
    7
 10
1540.5025025
 20
800.69998199999998
 11
1540.5025025
 21
800.49997000000008
  0
LINE
  8
_0-0_0
  6
CONTINUOUS
 62
    7
 10
1540.5025025
 20
799.79998799999998
 11
1540.5025025
 21
800.49997000000008
  0
LINE
  8
_0-0_0
  6
CONTINUOUS
 62
    7
 10
1540.5025025
 20
799.59997599999997
 11
1540.5025025
 21
799.79998799999998
  0
LINE
  8
_0-0_0
  6
CONTINUOUS
 62
    7
 10
1540.5025025
 20
799.59997599999997
 11
1540.5025025
 21
799.39999399999999
  0
LINE
  8
_0-0_0
  6
CONTINUOUS
 62
    7
 10
1540.5025025
 20
798.69998199999998
 11
1540.5025025
 21
799.39999399999999
  0
LINE
  8
_0-0_0
  6
CONTINUOUS
 62
    7
 10
1540.5025025
 20
798.49997000000008
 11
1540.5025025
 21
798.69998199999998
  0
LINE
  8
_0-0_0
  6
CONTINUOUS
 62
    7
 10
1540.5025025
 20
798.49997000000008
 11
1540.5025025
 21
798.29998799999998
  0
LINE
  8
_0-0_0
  6
CONTINUOUS
 62
    7
 10
1540.5025025
 20
797.59997599999997
 11
1540.5025025
 21
798.29998799999998
  0
LINE
  8
_0-0_0
  6
CONTINUOUS
 62
    7
 10
1540.5025025
 20
797.39999399999999
 11
1540.5025025
 21
797.59997599999997
  0
LINE
  8
_0-0_0
  6
CONTINUOUS
 62
    7
 10
1540.5025025
 20
797.39999399999999
 11
1540.5025025
 21
797.19998199999998
  0
LINE
  8
_0-0_0
  6
CONTINUOUS
 62
    7
 10
1540.5025025
 20
796.49997000000008
 11
1540.5025025
 21
797.19998199999998
  0
LINE
  8
_0-0_0
  6
CONTINUOUS
 62
    7
 10
1540.5025025
 20
796.29998799999998
 11
1540.5025025
 21
796.49997000000008
  0
LINE
  8
_0-0_0
  6
CONTINUOUS
 62
    7
 10
1540.5025025
 20
796.29998799999998
 11
1540.5025025
 21
796.09997599999997
  0
LINE
  8
_0-0_0
  6
CONTINUOUS
 62
    7
 10
1540.5025025
 20
795.39999399999999
 11
1540.5025025
 21
796.09997599999997
  0
LINE
  8
_0-0_0
  6
CONTINUOUS
 62
    7
 10
1540.5025025
 20
795.27069099999994
 11
1540.5025025
 21
795.39999399999999
  0
LINE
  8
_0-0_0
  6
CONTINUOUS
 62
    7
 10
1540.5025025
 20
795.12927300000001
 11
1540.5025025
 21
795.27069099999994
  0
LINE
  8
_0-0_0
  6
CONTINUOUS
 62
    7
 10
1540.5025025
 20
781.29998799999998
 11
1540.5025025
 21
781.79998799999998
  0
LINE
  8
_0-0_0
  6
CONTINUOUS
 62
    7
 10
1540.5025025
 20
809.79998799999998
 11
1540.5025025
 21
809.20602400000007
  0
LINE
  8
_0-0_0
  6
CONTINUOUS
 62
    7
 10
1540.5025025
 20
804.19998199999998
 11
1540.5025025
 21
809.20602400000007
  0
LINE
  8
_0-0_0
  6
CONTINUOUS
 62
    7
 10
1540.5025025
 20
804.07070899999997
 11
1540.5025025
 21
804.19998199999998
  0
LINE
  8
_0-0_0
  6
CONTINUOUS
 62
    7
 10
-32.497589500000004
 20
781.29998799999998
 11
-32.497589500000004
 21
781.79998799999998
  0
LINE
  8
_0-0_0
  6
CONTINUOUS
 62
    7
 10
-32.497589500000004
 20
781.29998799999998
 11
1540.5025025
 21
781.29998799999998
  0
LINE
  8
_0-0_0
  6
CONTINUOUS
 62
    7
 10
-32.497589500000004
 20
795.12927300000001
 11
-32.497589500000004
 21
795.27069099999994
  0
LINE
  8
_0-0_0
  6
CONTINUOUS
 62
    7
 10
-32.497589500000004
 20
795.12927300000001
 11
-32.497589500000004
 21
794.99997000000008
  0
LINE
  8
_0-0_0
  6
CONTINUOUS
 62
    7
 10
-32.497589500000004
 20
809.79998799999998
 11
-32.497589500000004
 21
809.20602400000007
  0
LINE
  8
_0-0_0
  6
CONTINUOUS
 62
    7
 10
-32.497589500000004
 20
804.19998199999998
 11
-32.497589500000004
 21
809.20602400000007
  0
LINE
  8
_0-0_0
  6
CONTINUOUS
 62
    7
 10
-32.497589500000004
 20
804.07070899999997
 11
-32.497589500000004
 21
804.19998199999998
  0
LINE
  8
_0-0_0
  6
CONTINUOUS
 62
    7
 10
-32.497589500000004
 20
803.92929099999992
 11
-32.497589500000004
 21
804.07070899999997
  0
LINE
  8
_0-0_0
  6
CONTINUOUS
 62
    7
 10
-32.497589500000004
 20
803.92929099999992
 11
-32.497589500000004
 21
803.79998799999998
  0
LINE
  8
_0-0_0
  6
CONTINUOUS
 62
    7
 10
-32.497589500000004
 20
803.09997599999997
 11
-32.497589500000004
 21
803.79998799999998
  0
LINE
  8
_0-0_0
  6
CONTINUOUS
 62
    7
 10
-32.497589500000004
 20
802.97070299999996
 11
-32.497589500000004
 21
803.09997599999997
  0
LINE
  8
_0-0_0
  6
CONTINUOUS
 62
    7
 10
-32.497589500000004
 20
802.82928500000003
 11
-32.497589500000004
 21
802.97070299999996
  0
LINE
  8
_0-0_0
  6
CONTINUOUS
 62
    7
 10
-32.497589500000004
 20
802.82928500000003
 11
-32.497589500000004
 21
802.69998199999998
  0
LINE
  8
_0-0_0
  6
CONTINUOUS
 62
    7
 10
-32.497589500000004
 20
801.99997000000008
 11
-32.497589500000004
 21
802.69998199999998
  0
LINE
  8
_0-0_0
  6
CONTINUOUS
 62
    7
 10
-32.497589500000004
 20
801.87069700000006
 11
-32.497589500000004
 21
801.99997000000008
  0
LINE
  8
_0-0_0
  6
CONTINUOUS
 62
    7
 10
-32.497589500000004
 20
801.72927900000002
 11
-32.497589500000004
 21
801.87069700000006
  0
LINE
  8
_0-0_0
  6
CONTINUOUS
 62
    7
 10
-32.497589500000004
 20
801.72927900000002
 11
-32.497589500000004
 21
801.59997599999997
  0
LINE
  8
_0-0_0
  6
CONTINUOUS
 62
    7
 10
-32.497589500000004
 20
800.89999399999999
 11
-32.497589500000004
 21
801.59997599999997
  0
LINE
  8
_0-0_0
  6
CONTINUOUS
 62
    7
 10
-32.497589500000004
 20
800.77069099999994
 11
-32.497589500000004
 21
800.89999399999999
  0
LINE
  8
_0-0_0
  6
CONTINUOUS
 62
    7
 10
-32.497589500000004
 20
800.62927300000001
 11
-32.497589500000004
 21
800.77069099999994
  0
LINE
  8
_0-0_0
  6
CONTINUOUS
 62
    7
 10
-32.497589500000004
 20
800.62927300000001
 11
-32.497589500000004
 21
800.49997000000008
  0
LINE
  8
_0-0_0
  6
CONTINUOUS
 62
    7
 10
-32.497589500000004
 20
799.79998799999998
 11
-32.497589500000004
 21
800.49997000000008
  0
LINE
  8
_0-0_0
  6
CONTINUOUS
 62
    7
 10
-32.497589500000004
 20
799.67068500000005
 11
-32.497589500000004
 21
799.79998799999998
  0
LINE
  8
_0-0_0
  6
CONTINUOUS
 62
    7
 10
-32.497589500000004
 20
799.52926600000001
 11
-32.497589500000004
 21
799.67068500000005
  0
LINE
  8
_0-0_0
  6
CONTINUOUS
 62
    7
 10
-32.497589500000004
 20
799.52926600000001
 11
-32.497589500000004
 21
799.39999399999999
  0
LINE
  8
_0-0_0
  6
CONTINUOUS
 62
    7
 10
-32.497589500000004
 20
798.69998199999998
 11
-32.497589500000004
 21
799.39999399999999
  0
LINE
  8
_0-0_0
  6
CONTINUOUS
 62
    7
 10
-32.497589500000004
 20
798.57070899999997
 11
-32.497589500000004
 21
798.69998199999998
  0
LINE
  8
_0-0_0
  6
CONTINUOUS
 62
    7
 10
-32.497589500000004
 20
798.42929099999992
 11
-32.497589500000004
 21
798.57070899999997
  0
LINE
  8
_0-0_0
  6
CONTINUOUS
 62
    7
 10
-32.497589500000004
 20
798.42929099999992
 11
-32.497589500000004
 21
798.29998799999998
  0
LINE
  8
_0-0_0
  6
CONTINUOUS
 62
    7
 10
-32.497589500000004
 20
797.59997599999997
 11
-32.497589500000004
 21
798.29998799999998
  0
LINE
  8
_0-0_0
  6
CONTINUOUS
 62
    7
 10
-32.497589500000004
 20
797.47070299999996
 11
-32.497589500000004
 21
797.59997599999997
  0
LINE
  8
_0-0_0
  6
CONTINUOUS
 62
    7
 10
-32.497589500000004
 20
797.32928500000003
 11
-32.497589500000004
 21
797.47070299999996
  0
LINE
  8
_0-0_0
  6
CONTINUOUS
 62
    7
 10
-32.497589500000004
 20
797.32928500000003
 11
-32.497589500000004
 21
797.19998199999998
  0
LINE
  8
_0-0_0
  6
CONTINUOUS
 62
    7
 10
-32.497589500000004
 20
796.49997000000008
 11
-32.497589500000004
 21
797.19998199999998
  0
LINE
  8
_0-0_0
  6
CONTINUOUS
 62
    7
 10
-32.497589500000004
 20
796.37069700000006
 11
-32.497589500000004
 21
796.49997000000008
  0
LINE
  8
_0-0_0
  6
CONTINUOUS
 62
    7
 10
-32.497589500000004
 20
796.22927900000002
 11
-32.497589500000004
 21
796.37069700000006
  0
LINE
  8
_0-0_0
  6
CONTINUOUS
 62
    7
 10
-32.497589500000004
 20
796.22927900000002
 11
-32.497589500000004
 21
796.09997599999997
  0
LINE
  8
_0-0_0
  6
CONTINUOUS
 62
    7
 10
-32.497589500000004
 20
795.39999399999999
 11
-32.497589500000004
 21
796.09997599999997
  0
LINE
  8
_0-0_0
  6
CONTINUOUS
 62
    7
 10
-32.497589500000004
 20
795.27069099999994
 11
-32.497589500000004
 21
795.39999399999999
  0
LINE
  8
_0-0_0
  6
CONTINUOUS
 62
    7
 10
-30.042816499999958
 20
794.99997000000008
 11
-30.131805499999928
 21
795.12927300000001
  0
LINE
  8
_0-0_0
  6
CONTINUOUS
 62
    7
 10
-16.770263500000056
 20
795.27069099999994
 11
-16.863403500000004
 21
795.12927300000001
  0
LINE
  8
_0-0_0
  6
CONTINUOUS
 62
    7
 10
-16.770263500000056
 20
795.27069099999994
 11
-16.688781500000005
 21
795.39999399999999
  0
ARC
  8
_0-0_0
  6
CONTINUOUS
 62
    7
 10
-23.497589500000004
 20
799.59997599999997
 40
8
 50
328.33175599999993
 51
334.05550899999992
  0
LINE
  8
_0-0_0
  6
CONTINUOUS
 62
    7
 10
-16.303863500000034
 20
796.09997599999997
 11
-16.209930499999928
 21
796.29998799999998
  0
LINE
  8
_0-0_0
  6
CONTINUOUS
 62
    7
 10
-16.209930499999928
 20
796.29998799999998
 11
-16.122650499999963
 21
796.49997000000008
  0
ARC
  8
_0-0_0
  6
CONTINUOUS
 62
    7
 10
-23.497589500000004
 20
799.59997599999997
 40
8
 50
337.20097500000003
 51
342.54240199999998
  0
LINE
  8
_0-0_0
  6
CONTINUOUS
 62
    7
 10
-15.866088499999933
 20
797.19998199999998
 11
-15.806060500000058
 21
797.39999399999999
  0
LINE
  8
_0-0_0
  6
CONTINUOUS
 62
    7
 10
-15.806060500000058
 20
797.39999399999999
 11
-15.751648499999988
 21
797.59997599999997
  0
ARC
  8
_0-0_0
  6
CONTINUOUS
 62
    7
 10
-23.497589500000004
 20
799.59997599999997
 40
8
 50
345.52249499999999
 51
350.64797900000002
  0
LINE
  8
_0-0_0
  6
CONTINUOUS
 62
    7
 10
-15.603942500000016
 20
798.29998799999998
 11
-15.573577500000056
 21
798.49997000000008
  0
LINE
  8
_0-0_0
  6
CONTINUOUS
 62
    7
 10
-15.573577500000056
 20
798.49997000000008
 11
-15.548400499999957
 21
798.69998199999998
  0
ARC
  8
_0-0_0
  6
CONTINUOUS
 62
    7
 10
-23.497589500000004
 20
799.59997599999997
 40
8
 50
353.54056400000002
 51
358.56744600000002
  0
LINE
  8
_0-0_0
  6
CONTINUOUS
 62
    7
 10
-15.500091500000053
 20
799.39999399999999
 11
-15.497589500000004
 21
799.59997599999997
  0
LINE
  8
_0-0_0
  6
CONTINUOUS
 62
    7
 10
-31.49728349999998
 20
799.52926600000001
 11
-31.497589500000004
 21
799.59997599999997
  0
LINE
  8
_0-0_0
  6
CONTINUOUS
 62
    7
 10
-31.495117499999992
 20
799.39999399999999
 11
-31.49728349999998
 21
799.52926600000001
  0
ARC
  8
_0-0_0
  6
CONTINUOUS
 62
    7
 10
-23.497589500000004
 20
799.59997599999997
 40
8
 50
181.432545
 51
186.45945499999999
  0
LINE
  8
_0-0_0
  6
CONTINUOUS
 62
    7
 10
-31.431121500000017
 20
798.57070899999997
 11
-31.446807499999977
 21
798.69998199999998
  0
LINE
  8
_0-0_0
  6
CONTINUOUS
 62
    7
 10
-31.431121500000017
 20
798.57070899999997
 11
-31.411468499999955
 21
798.42929099999992
  0
LINE
  8
_0-0_0
  6
CONTINUOUS
 62
    7
 10
-31.391265500000031
 20
798.29998799999998
 11
-31.411468499999955
 21
798.42929099999992
  0
ARC
  8
_0-0_0
  6
CONTINUOUS
 62
    7
 10
-23.497589500000004
 20
799.59997599999997
 40
8
 50
189.35203999999999
 51
194.47751
  0
LINE
  8
_0-0_0
  6
CONTINUOUS
 62
    7
 10
-31.209045500000002
 20
797.47070299999996
 11
-31.243560500000058
 21
797.59997599999997
  0
LINE
  8
_0-0_0
  6
CONTINUOUS
 62
    7
 10
-31.209045500000002
 20
797.47070299999996
 11
-31.168579499999964
 21
797.32928500000003
  0
LINE
  8
_0-0_0
  6
CONTINUOUS
 62
    7
 10
-31.129119500000002
 20
797.19998199999998
 11
-31.168579499999964
 21
797.32928500000003
  0
ARC
  8
_0-0_0
  6
CONTINUOUS
 62
    7
 10
-23.497589500000004
 20
799.59997599999997
 40
8
 50
197.45760300000001
 51
202.79902999999999
  0
LINE
  8
_0-0_0
  6
CONTINUOUS
 62
    7
 10
-30.816864499999951
 20
796.37069700000006
 11
-30.872558499999968
 21
796.49997000000008
  0
LINE
  8
_0-0_0
  6
CONTINUOUS
 62
    7
 10
-30.816864499999951
 20
796.37069700000006
 11
-30.752838500000053
 21
796.22927900000002
  0
LINE
  8
_0-0_0
  6
CONTINUOUS
 62
    7
 10
-30.691345500000011
 20
796.09997599999997
 11
-30.752838500000053
 21
796.22927900000002
  0
ARC
  8
_0-0_0
  6
CONTINUOUS
 62
    7
 10
-23.497589500000004
 20
799.59997599999997
 40
8
 50
205.94448199999999
 51
211.66823500000001
  0
LINE
  8
_0-0_0
  6
CONTINUOUS
 62
    7
 10
-30.22494549999999
 20
795.27069099999994
 11
-30.306427499999927
 21
795.39999399999999
  0
LINE
  8
_0-0_0
  6
CONTINUOUS
 62
    7
 10
-30.22494549999999
 20
795.27069099999994
 11
-30.131805499999928
 21
795.12927300000001
  0
LINE
  8
_0-0_0
  6
CONTINUOUS
 62
    7
 10
1458.0025025
 20
787.29998799999998
 11
1465.0025025
 21
787.29998799999998
  0
ARC
  8
_0-0_0
  6
CONTINUOUS
 62
    7
 10
1458.0025025
 20
786.79998799999998
 40
0.5
 50
90.000003000000007
 51
180.00000900000001
  0
LINE
  8
_0-0_0
  6
CONTINUOUS
 62
    7
 10
1457.5025025
 20
786.79998799999998
 11
1457.5025025
 21
782.79998799999998
  0
ARC
  8
_0-0_0
  6
CONTINUOUS
 62
    7
 10
1458.0025025
 20
782.79998799999998
 40
0.5
 50
180.00000900000003
 51
269.99999700000001
  0
LINE
  8
_0-0_0
  6
CONTINUOUS
 62
    7
 10
1465.0025025
 20
782.29998799999998
 11
1458.0025025
 21
782.29998799999998
  0
ARC
  8
_0-0_0
  6
CONTINUOUS
 62
    7
 10
1465.0025025
 20
782.79998799999998
 40
0.5
 50
269.99999700000001
 51
0
  0
LINE
  8
_0-0_0
  6
CONTINUOUS
 62
    7
 10
1465.5025025
 20
782.79998799999998
 11
1465.5025025
 21
786.79998799999998
  0
ARC
  8
_0-0_0
  6
CONTINUOUS
 62
    7
 10
1465.0025025
 20
786.79998799999998
 40
0.5
 50
0
 51
90.000003000000007
  0
ARC
  8
_0-0_0
  6
CONTINUOUS
 62
    7
 10
18.002395500000034
 20
786.79998799999998
 40
0.5
 50
90.000003000000007
 51
180.00000900000001
  0
LINE
  8
_0-0_0
  6
CONTINUOUS
 62
    7
 10
17.502395500000034
 20
786.79998799999998
 11
17.502395500000034
 21
782.79998799999998
  0
ARC
  8
_0-0_0
  6
CONTINUOUS
 62
    7
 10
18.002395500000034
 20
782.79998799999998
 40
0.5
 50
180.00000900000003
 51
269.99999700000001
  0
LINE
  8
_0-0_0
  6
CONTINUOUS
 62
    7
 10
25.002395500000034
 20
782.29998799999998
 11
18.002395500000034
 21
782.29998799999998
  0
ARC
  8
_0-0_0
  6
CONTINUOUS
 62
    7
 10
25.002395500000034
 20
782.79998799999998
 40
0.5
 50
269.99999700000001
 51
0
  0
LINE
  8
_0-0_0
  6
CONTINUOUS
 62
    7
 10
25.502395500000034
 20
782.79998799999998
 11
25.502395500000034
 21
786.79998799999998
  0
ARC
  8
_0-0_0
  6
CONTINUOUS
 62
    7
 10
25.002395500000034
 20
786.79998799999998
 40
0.5
 50
0
 51
90.000003000000007
  0
LINE
  8
_0-0_0
  6
CONTINUOUS
 62
    7
 10
18.002395500000034
 20
787.29998799999998
 11
25.002395500000034
 21
787.29998799999998
  0
LINE
  8
_0-0_0
  6
CONTINUOUS
 62
    7
 10
-16.688781500000005
 20
795.39999399999999
 11
1524.6936645000001
 21
795.39999399999999
  0
LINE
  8
_0-0_0
  6
CONTINUOUS
 62
    7
 10
-16.303863500000034
 20
796.09997599999997
 11
1524.3087765
 21
796.09997599999997
  0
LINE
  8
_0-0_0
  6
CONTINUOUS
 62
    7
 10
-16.209930499999928
 20
796.29998799999998
 11
1524.2147825
 21
796.29998799999998
  0
LINE
  8
_0-0_0
  6
CONTINUOUS
 62
    7
 10
-16.122650499999963
 20
796.49997000000008
 11
1524.1275025
 21
796.49997000000008
  0
LINE
  8
_0-0_0
  6
CONTINUOUS
 62
    7
 10
-15.866088499999933
 20
797.19998199999998
 11
1523.8710325
 21
797.19998199999998
  0
LINE
  8
_0-0_0
  6
CONTINUOUS
 62
    7
 10
-15.806060500000058
 20
797.39999399999999
 11
1523.8109744999999
 21
797.39999399999999
  0
LINE
  8
_0-0_0
  6
CONTINUOUS
 62
    7
 10
-15.751648499999988
 20
797.59997599999997
 11
1523.7565305000001
 21
797.59997599999997
  0
LINE
  8
_0-0_0
  6
CONTINUOUS
 62
    7
 10
-15.603942500000016
 20
798.29998799999998
 11
1523.6088255
 21
798.29998799999998
  0
LINE
  8
_0-0_0
  6
CONTINUOUS
 62
    7
 10
-15.573577500000056
 20
798.49997000000008
 11
1523.5784305
 21
798.49997000000008
  0
LINE
  8
_0-0_0
  6
CONTINUOUS
 62
    7
 10
-15.548400499999957
 20
798.69998199999998
 11
1523.5532834999999
 21
798.69998199999998
  0
LINE
  8
_0-0_0
  6
CONTINUOUS
 62
    7
 10
-15.500091500000053
 20
799.39999399999999
 11
1523.5049435000001
 21
799.39999399999999
  0
LINE
  8
_0-0_0
  6
CONTINUOUS
 62
    7
 10
-15.497589500000004
 20
799.59997599999997
 11
1523.5025025
 21
799.59997599999997
  0
LINE
  8
_0-0_0
  6
CONTINUOUS
 62
    7
 10
1538.0477905
 20
804.19998199999998
 11
1538.1366575
 21
804.07070899999997
  0
ARC
  8
_0-0_0
  6
CONTINUOUS
 62
    7
 10
1531.5025025
 20
799.59997599999997
 40
8
 50
35.099632
 51
144.900373
  0
LINE
  8
_0-0_0
  6
CONTINUOUS
 62
    7
 10
1524.9572145
 20
804.19998199999998
 11
1524.8683475
 21
804.07070899999997
  0
LINE
  8
_0-0_0
  6
CONTINUOUS
 62
    7
 10
1524.7752075000001
 20
803.92929099999992
 11
1524.8683475
 21
804.07070899999997
  0
LINE
  8
_0-0_0
  6
CONTINUOUS
 62
    7
 10
1524.7752075000001
 20
803.92929099999992
 11
1524.6936645000001
 21
803.79998799999998
  0
ARC
  8
_0-0_0
  6
CONTINUOUS
 62
    7
 10
1531.5025025
 20
799.59997599999997
 40
8
 50
148.33176499999999
 51
154.05551800000001
  0
LINE
  8
_0-0_0
  6
CONTINUOUS
 62
    7
 10
1524.3087765
 20
803.09997599999997
 11
1524.2147825
 21
802.89999399999999
  0
LINE
  8
_0-0_0
  6
CONTINUOUS
 62
    7
 10
1524.2147825
 20
802.89999399999999
 11
1524.1275025
 21
802.69998199999998
  0
ARC
  8
_0-0_0
  6
CONTINUOUS
 62
    7
 10
1531.5025025
 20
799.59997599999997
 40
8
 50
157.20097000000001
 51
162.54239699999999
  0
LINE
  8
_0-0_0
  6
CONTINUOUS
 62
    7
 10
1523.8710325
 20
801.99997000000008
 11
1523.8109744999999
 21
801.79998799999998
  0
LINE
  8
_0-0_0
  6
CONTINUOUS
 62
    7
 10
1523.8109744999999
 20
801.79998799999998
 11
1523.7565305000001
 21
801.59997599999997
  0
ARC
  8
_0-0_0
  6
CONTINUOUS
 62
    7
 10
1531.5025025
 20
799.59997599999997
 40
8
 50
165.52249
 51
170.64796000000001
  0
LINE
  8
_0-0_0
  6
CONTINUOUS
 62
    7
 10
1523.6088255
 20
800.89999399999999
 11
1523.5784305
 21
800.69998199999998
  0
LINE
  8
_0-0_0
  6
CONTINUOUS
 62
    7
 10
1523.5784305
 20
800.69998199999998
 11
1523.5532834999999
 21
800.49997000000008
  0
ARC
  8
_0-0_0
  6
CONTINUOUS
 62
    7
 10
1531.5025025
 20
799.59997599999997
 40
8
 50
173.54054500000001
 51
178.567455
  0
LINE
  8
_0-0_0
  6
CONTINUOUS
 62
    7
 10
1523.5049435000001
 20
799.79998799999998
 11
1523.5025025
 21
799.59997599999997
  0
LINE
  8
_0-0_0
  6
CONTINUOUS
 62
    7
 10
1539.5000605
 20
799.79998799999998
 11
1539.5025025
 21
799.59997599999997
  0
ARC
  8
_0-0_0
  6
CONTINUOUS
 62
    7
 10
1531.5025025
 20
799.59997599999997
 40
8
 50
1.432544
 51
6.4594489999999993
  0
LINE
  8
_0-0_0
  6
CONTINUOUS
 62
    7
 10
1539.4265745
 20
800.69998199999998
 11
1539.4517215000001
 21
800.49997000000008
  0
LINE
  8
_0-0_0
  6
CONTINUOUS
 62
    7
 10
1539.3961795
 20
800.89999399999999
 11
1539.4265745
 21
800.69998199999998
  0
ARC
  8
_0-0_0
  6
CONTINUOUS
 62
    7
 10
1531.5025025
 20
799.59997599999997
 40
8
 50
9.3520350000000008
 51
14.477510999999998
  0
LINE
  8
_0-0_0
  6
CONTINUOUS
 62
    7
 10
1539.1940305000001
 20
801.79998799999998
 11
1539.2484744999999
 21
801.59997599999997
  0
LINE
  8
_0-0_0
  6
CONTINUOUS
 62
    7
 10
1539.1339725
 20
801.99997000000008
 11
1539.1940305000001
 21
801.79998799999998
  0
ARC
  8
_0-0_0
  6
CONTINUOUS
 62
    7
 10
1531.5025025
 20
799.59997599999997
 40
8
 50
17.457602999999999
 51
22.799030999999999
  0
LINE
  8
_0-0_0
  6
CONTINUOUS
 62
    7
 10
1538.7902225
 20
802.89999399999999
 11
1538.8775025
 21
802.69998199999998
  0
LINE
  8
_0-0_0
  6
CONTINUOUS
 62
    7
 10
1538.6962275000001
 20
803.09997599999997
 11
1538.7902225
 21
802.89999399999999
  0
ARC
  8
_0-0_0
  6
CONTINUOUS
 62
    7
 10
1531.5025025
 20
799.59997599999997
 40
8
 50
25.944476999999999
 51
31.668240000000001
  0
LINE
  8
_0-0_0
  6
CONTINUOUS
 62
    7
 10
1538.2297974999999
 20
803.92929099999992
 11
1538.3113404999999
 21
803.79998799999998
  0
LINE
  8
_0-0_0
  6
CONTINUOUS
 62
    7
 10
1538.2297974999999
 20
803.92929099999992
 11
1538.1366575
 21
804.07070899999997
  0
CIRCLE
  8
_0-0_0
  6
CONTINUOUS
 62
    7
 10
1531.5025025
 20
799.59997599999997
 40
7.5
  0
LINE
  8
_0-0_0
  6
CONTINUOUS
 62
    7
 10
1539.5000605
 20
799.39999399999999
 11
1540.5025025
 21
799.39999399999999
  0
LINE
  8
_0-0_0
  6
CONTINUOUS
 62
    7
 10
1539.5025025
 20
799.59997599999997
 11
1540.5025025
 21
799.59997599999997
  0
LINE
  8
_0-0_0
  6
CONTINUOUS
 62
    7
 10
1539.4517215000001
 20
798.69998199999998
 11
1540.5025025
 21
798.69998199999998
  0
LINE
  8
_0-0_0
  6
CONTINUOUS
 62
    7
 10
1539.4265745
 20
798.49997000000008
 11
1540.5025025
 21
798.49997000000008
  0
LINE
  8
_0-0_0
  6
CONTINUOUS
 62
    7
 10
1539.3961795
 20
798.29998799999998
 11
1540.5025025
 21
798.29998799999998
  0
LINE
  8
_0-0_0
  6
CONTINUOUS
 62
    7
 10
1539.2484744999999
 20
797.59997599999997
 11
1540.5025025
 21
797.59997599999997
  0
LINE
  8
_0-0_0
  6
CONTINUOUS
 62
    7
 10
1539.1940305000001
 20
797.39999399999999
 11
1540.5025025
 21
797.39999399999999
  0
LINE
  8
_0-0_0
  6
CONTINUOUS
 62
    7
 10
1539.1339725
 20
797.19998199999998
 11
1540.5025025
 21
797.19998199999998
  0
LINE
  8
_0-0_0
  6
CONTINUOUS
 62
    7
 10
1538.8775025
 20
796.49997000000008
 11
1540.5025025
 21
796.49997000000008
  0
LINE
  8
_0-0_0
  6
CONTINUOUS
 62
    7
 10
1538.7902225
 20
796.29998799999998
 11
1540.5025025
 21
796.29998799999998
  0
LINE
  8
_0-0_0
  6
CONTINUOUS
 62
    7
 10
1538.6962275000001
 20
796.09997599999997
 11
1540.5025025
 21
796.09997599999997
  0
LINE
  8
_0-0_0
  6
CONTINUOUS
 62
    7
 10
1538.3113404999999
 20
795.39999399999999
 11
1540.5025025
 21
795.39999399999999
  0
LINE
  8
_0-0_0
  6
CONTINUOUS
 62
    7
 10
1538.3113404999999
 20
803.79998799999998
 11
1540.5025025
 21
803.79998799999998
  0
LINE
  8
_0-0_0
  6
CONTINUOUS
 62
    7
 10
1538.6962275000001
 20
803.09997599999997
 11
1540.5025025
 21
803.09997599999997
  0
LINE
  8
_0-0_0
  6
CONTINUOUS
 62
    7
 10
1538.7902225
 20
802.89999399999999
 11
1540.5025025
 21
802.89999399999999
  0
LINE
  8
_0-0_0
  6
CONTINUOUS
 62
    7
 10
1538.8775025
 20
802.69998199999998
 11
1540.5025025
 21
802.69998199999998
  0
LINE
  8
_0-0_0
  6
CONTINUOUS
 62
    7
 10
1539.1339725
 20
801.99997000000008
 11
1540.5025025
 21
801.99997000000008
  0
LINE
  8
_0-0_0
  6
CONTINUOUS
 62
    7
 10
1539.1940305000001
 20
801.79998799999998
 11
1540.5025025
 21
801.79998799999998
  0
LINE
  8
_0-0_0
  6
CONTINUOUS
 62
    7
 10
1539.2484744999999
 20
801.59997599999997
 11
1540.5025025
 21
801.59997599999997
  0
LINE
  8
_0-0_0
  6
CONTINUOUS
 62
    7
 10
1539.3961795
 20
800.89999399999999
 11
1540.5025025
 21
800.89999399999999
  0
LINE
  8
_0-0_0
  6
CONTINUOUS
 62
    7
 10
1539.4265745
 20
800.69998199999998
 11
1540.5025025
 21
800.69998199999998
  0
LINE
  8
_0-0_0
  6
CONTINUOUS
 62
    7
 10
1539.4517215000001
 20
800.49997000000008
 11
1540.5025025
 21
800.49997000000008
  0
LINE
  8
_0-0_0
  6
CONTINUOUS
 62
    7
 10
1539.5000605
 20
799.79998799999998
 11
1540.5025025
 21
799.79998799999998
  0
LINE
  8
_0-0_0
  6
CONTINUOUS
 62
    7
 10
1541.0025025
 20
783.09997599999997
 11
1540.5025025
 21
783.09997599999997
  0
LINE
  8
_0-0_0
  6
CONTINUOUS
 62
    7
 10
1540.5025025
 20
785.29998799999998
 11
1541.0025025
 21
785.29998799999998
  0
LINE
  8
_0-0_0
  6
CONTINUOUS
 62
    7
 10
1541.0025025
 20
787.59997599999997
 11
1540.5025025
 21
787.59997599999997
  0
LINE
  8
_0-0_0
  6
CONTINUOUS
 62
    7
 10
-32.497589500000004
 20
787.59997599999997
 11
-32.997589500000004
 21
787.59997599999997
  0
LINE
  8
_0-0_0
  6
CONTINUOUS
 62
    7
 10
1540.5025025
 20
789.89999399999999
 11
1541.0025025
 21
789.89999399999999
  0
LINE
  8
_0-0_0
  6
CONTINUOUS
 62
    7
 10
1541.0025025
 20
810.09997599999997
 11
1541.0025025
 21
809.99997000000008
  0
LINE
  8
_0-0_0
  6
CONTINUOUS
 62
    7
 10
-32.997589500000004
 20
810.09997599999997
 11
-32.997589500000004
 21
809.99997000000008
  0
LINE
  8
_0-0_0
  6
CONTINUOUS
 62
    7
 10
-32.997589500000004
 20
789.89999399999999
 11
-32.497589500000004
 21
789.89999399999999
  0
LINE
  8
_0-0_0
  6
CONTINUOUS
 62
    7
 10
-32.497589500000004
 20
809.79998799999998
 11
1540.5025025
 21
809.79998799999998
  0
LINE
  8
_0-0_0
  6
CONTINUOUS
 62
    7
 10
-32.497589500000004
 20
809.20602400000007
 11
1540.5025025
 21
809.20602400000007
  0
LINE
  8
_0-0_0
  6
CONTINUOUS
 62
    7
 10
1538.0477905
 20
804.19998199999998
 11
1540.5025025
 21
804.19998199999998
  0
LINE
  8
_0-0_0
  6
CONTINUOUS
 62
    7
 10
-32.497589500000004
 20
804.19998199999998
 11
-30.042816499999958
 21
804.19998199999998
  0
ARC
  8
_0-0_0
  6
CONTINUOUS
 62
    7
 10
-23.497589500000004
 20
799.59997599999997
 40
8
 50
35.099632
 51
144.900373
  0
LINE
  8
_0-0_0
  6
CONTINUOUS
 62
    7
 10
-16.952362499999936
 20
804.19998199999998
 11
1524.9572145
 21
804.19998199999998
  0
LINE
  8
_0-0_0
  6
CONTINUOUS
 62
    7
 10
-32.997589500000004
 20
783.09997599999997
 11
-32.497619499999928
 21
783.09997599999997
  0
LINE
  8
_0-0_0
  6
CONTINUOUS
 62
    7
 10
-32.997589500000004
 20
785.29998799999998
 11
-32.497589500000004
 21
785.29998799999998
  0
LINE
  8
_0-0_0
  6
CONTINUOUS
 62
    7
 10
-30.042816499999958
 20
804.19998199999998
 11
-30.131805499999928
 21
804.07070899999997
  0
LINE
  8
_0-0_0
  6
CONTINUOUS
 62
    7
 10
-30.22494549999999
 20
803.92929099999992
 11
-30.131805499999928
 21
804.07070899999997
  0
LINE
  8
_0-0_0
  6
CONTINUOUS
 62
    7
 10
-32.497589500000004
 20
803.79998799999998
 11
-30.306427499999927
 21
803.79998799999998
  0
LINE
  8
_0-0_0
  6
CONTINUOUS
 62
    7
 10
-30.22494549999999
 20
803.92929099999992
 11
-30.306427499999927
 21
803.79998799999998
  0
ARC
  8
_0-0_0
  6
CONTINUOUS
 62
    7
 10
-23.497589500000004
 20
799.59997599999997
 40
8
 50
148.33176499999999
 51
154.05551800000001
  0
LINE
  8
_0-0_0
  6
CONTINUOUS
 62
    7
 10
-32.497589500000004
 20
803.09997599999997
 11
-30.691345500000011
 21
803.09997599999997
  0
LINE
  8
_0-0_0
  6
CONTINUOUS
 62
    7
 10
-30.691345500000011
 20
803.09997599999997
 11
-30.752838500000053
 21
802.97070299999996
  0
LINE
  8
_0-0_0
  6
CONTINUOUS
 62
    7
 10
-30.816864499999951
 20
802.82928500000003
 11
-30.752838500000053
 21
802.97070299999996
  0
LINE
  8
_0-0_0
  6
CONTINUOUS
 62
    7
 10
-32.497589500000004
 20
802.69998199999998
 11
-30.872558499999968
 21
802.69998199999998
  0
LINE
  8
_0-0_0
  6
CONTINUOUS
 62
    7
 10
-30.816864499999951
 20
802.82928500000003
 11
-30.872558499999968
 21
802.69998199999998
  0
ARC
  8
_0-0_0
  6
CONTINUOUS
 62
    7
 10
-23.497589500000004
 20
799.59997599999997
 40
8
 50
157.20097000000001
 51
162.54239699999999
  0
LINE
  8
_0-0_0
  6
CONTINUOUS
 62
    7
 10
-32.497589500000004
 20
801.99997000000008
 11
-31.129119500000002
 21
801.99997000000008
  0
LINE
  8
_0-0_0
  6
CONTINUOUS
 62
    7
 10
-31.129119500000002
 20
801.99997000000008
 11
-31.168579499999964
 21
801.87069700000006
  0
LINE
  8
_0-0_0
  6
CONTINUOUS
 62
    7
 10
-31.209045500000002
 20
801.72927900000002
 11
-31.168579499999964
 21
801.87069700000006
  0
LINE
  8
_0-0_0
  6
CONTINUOUS
 62
    7
 10
-32.497589500000004
 20
801.59997599999997
 11
-31.243560500000058
 21
801.59997599999997
  0
LINE
  8
_0-0_0
  6
CONTINUOUS
 62
    7
 10
-31.209045500000002
 20
801.72927900000002
 11
-31.243560500000058
 21
801.59997599999997
  0
ARC
  8
_0-0_0
  6
CONTINUOUS
 62
    7
 10
-23.497589500000004
 20
799.59997599999997
 40
8
 50
165.52249
 51
170.64796000000001
  0
LINE
  8
_0-0_0
  6
CONTINUOUS
 62
    7
 10
-32.497589500000004
 20
800.89999399999999
 11
-31.391265500000031
 21
800.89999399999999
  0
LINE
  8
_0-0_0
  6
CONTINUOUS
 62
    7
 10
-31.391265500000031
 20
800.89999399999999
 11
-31.411468499999955
 21
800.77069099999994
  0
LINE
  8
_0-0_0
  6
CONTINUOUS
 62
    7
 10
-31.431121500000017
 20
800.62927300000001
 11
-31.411468499999955
 21
800.77069099999994
  0
LINE
  8
_0-0_0
  6
CONTINUOUS
 62
    7
 10
-32.497589500000004
 20
800.49997000000008
 11
-31.446807499999977
 21
800.49997000000008
  0
LINE
  8
_0-0_0
  6
CONTINUOUS
 62
    7
 10
-31.431121500000017
 20
800.62927300000001
 11
-31.446807499999977
 21
800.49997000000008
  0
ARC
  8
_0-0_0
  6
CONTINUOUS
 62
    7
 10
-23.497589500000004
 20
799.59997599999997
 40
8
 50
173.54054500000001
 51
178.567455
  0
LINE
  8
_0-0_0
  6
CONTINUOUS
 62
    7
 10
-32.497589500000004
 20
799.79998799999998
 11
-31.495117499999992
 21
799.79998799999998
  0
LINE
  8
_0-0_0
  6
CONTINUOUS
 62
    7
 10
-31.495117499999992
 20
799.79998799999998
 11
-31.49728349999998
 21
799.67068500000005
  0
LINE
  8
_0-0_0
  6
CONTINUOUS
 62
    7
 10
-31.497589500000004
 20
799.59997599999997
 11
-31.49728349999998
 21
799.67068500000005
  0
LINE
  8
_0-0_0
  6
CONTINUOUS
 62
    7
 10
-32.497589500000004
 20
799.39999399999999
 11
-31.495117499999992
 21
799.39999399999999
  0
LINE
  8
_0-0_0
  6
CONTINUOUS
 62
    7
 10
-32.497589500000004
 20
798.69998199999998
 11
-31.446807499999977
 21
798.69998199999998
  0
LINE
  8
_0-0_0
  6
CONTINUOUS
 62
    7
 10
-32.497589500000004
 20
798.29998799999998
 11
-31.391265500000031
 21
798.29998799999998
  0
LINE
  8
_0-0_0
  6
CONTINUOUS
 62
    7
 10
-32.497589500000004
 20
797.59997599999997
 11
-31.243560500000058
 21
797.59997599999997
  0
LINE
  8
_0-0_0
  6
CONTINUOUS
 62
    7
 10
-32.497589500000004
 20
797.19998199999998
 11
-31.129119500000002
 21
797.19998199999998
  0
LINE
  8
_0-0_0
  6
CONTINUOUS
 62
    7
 10
-32.497589500000004
 20
796.49997000000008
 11
-30.872558499999968
 21
796.49997000000008
  0
LINE
  8
_0-0_0
  6
CONTINUOUS
 62
    7
 10
-32.497589500000004
 20
796.09997599999997
 11
-30.691345500000011
 21
796.09997599999997
  0
LINE
  8
_0-0_0
  6
CONTINUOUS
 62
    7
 10
-32.497589500000004
 20
795.39999399999999
 11
-30.306427499999927
 21
795.39999399999999
  0
LINE
  8
_0-0_0
  6
CONTINUOUS
 62
    7
 10
-15.500091500000053
 20
799.79998799999998
 11
-15.497589500000004
 21
799.59997599999997
  0
ARC
  8
_0-0_0
  6
CONTINUOUS
 62
    7
 10
-23.497589500000004
 20
799.59997599999997
 40
8
 50
1.432544
 51
6.4594489999999993
  0
LINE
  8
_0-0_0
  6
CONTINUOUS
 62
    7
 10
-15.573577500000056
 20
800.69998199999998
 11
-15.548400499999957
 21
800.49997000000008
  0
LINE
  8
_0-0_0
  6
CONTINUOUS
 62
    7
 10
-15.603942500000016
 20
800.89999399999999
 11
-15.573577500000056
 21
800.69998199999998
  0
ARC
  8
_0-0_0
  6
CONTINUOUS
 62
    7
 10
-23.497589500000004
 20
799.59997599999997
 40
8
 50
9.3520350000000008
 51
14.477510999999998
  0
LINE
  8
_0-0_0
  6
CONTINUOUS
 62
    7
 10
-15.806060500000058
 20
801.79998799999998
 11
-15.751648499999988
 21
801.59997599999997
  0
LINE
  8
_0-0_0
  6
CONTINUOUS
 62
    7
 10
-15.866088499999933
 20
801.99997000000008
 11
-15.806060500000058
 21
801.79998799999998
  0
ARC
  8
_0-0_0
  6
CONTINUOUS
 62
    7
 10
-23.497589500000004
 20
799.59997599999997
 40
8
 50
17.457602999999999
 51
22.799030999999999
  0
LINE
  8
_0-0_0
  6
CONTINUOUS
 62
    7
 10
-16.209930499999928
 20
802.89999399999999
 11
-16.122650499999963
 21
802.69998199999998
  0
LINE
  8
_0-0_0
  6
CONTINUOUS
 62
    7
 10
-16.303863500000034
 20
803.09997599999997
 11
-16.209930499999928
 21
802.89999399999999
  0
ARC
  8
_0-0_0
  6
CONTINUOUS
 62
    7
 10
-23.497589500000004
 20
799.59997599999997
 40
8
 50
25.944476999999999
 51
31.668240000000001
  0
LINE
  8
_0-0_0
  6
CONTINUOUS
 62
    7
 10
-16.770263500000056
 20
803.92929099999992
 11
-16.688781500000005
 21
803.79998799999998
  0
LINE
  8
_0-0_0
  6
CONTINUOUS
 62
    7
 10
-16.770263500000056
 20
803.92929099999992
 11
-16.863403500000004
 21
804.07070899999997
  0
LINE
  8
_0-0_0
  6
CONTINUOUS
 62
    7
 10
-16.952362499999936
 20
804.19998199999998
 11
-16.863403500000004
 21
804.07070899999997
  0
CIRCLE
  8
_0-0_0
  6
CONTINUOUS
 62
    7
 10
-23.497589500000004
 20
799.59997599999997
 40
7.5
  0
LINE
  8
_0-0_0
  6
CONTINUOUS
 62
    7
 10
-15.500091500000053
 20
799.79998799999998
 11
1523.5049435000001
 21
799.79998799999998
  0
LINE
  8
_0-0_0
  6
CONTINUOUS
 62
    7
 10
-15.548400499999957
 20
800.49997000000008
 11
1523.5532834999999
 21
800.49997000000008
  0
LINE
  8
_0-0_0
  6
CONTINUOUS
 62
    7
 10
-15.573577500000056
 20
800.69998199999998
 11
1523.5784305
 21
800.69998199999998
  0
LINE
  8
_0-0_0
  6
CONTINUOUS
 62
    7
 10
-15.603942500000016
 20
800.89999399999999
 11
1523.6088255
 21
800.89999399999999
  0
LINE
  8
_0-0_0
  6
CONTINUOUS
 62
    7
 10
-15.751648499999988
 20
801.59997599999997
 11
1523.7565305000001
 21
801.59997599999997
  0
LINE
  8
_0-0_0
  6
CONTINUOUS
 62
    7
 10
-15.806060500000058
 20
801.79998799999998
 11
1523.8109744999999
 21
801.79998799999998
  0
LINE
  8
_0-0_0
  6
CONTINUOUS
 62
    7
 10
-15.866088499999933
 20
801.99997000000008
 11
1523.8710325
 21
801.99997000000008
  0
LINE
  8
_0-0_0
  6
CONTINUOUS
 62
    7
 10
-16.122650499999963
 20
802.69998199999998
 11
1524.1275025
 21
802.69998199999998
  0
LINE
  8
_0-0_0
  6
CONTINUOUS
 62
    7
 10
-16.209930499999928
 20
802.89999399999999
 11
1524.2147825
 21
802.89999399999999
  0
LINE
  8
_0-0_0
  6
CONTINUOUS
 62
    7
 10
-16.303863500000034
 20
803.09997599999997
 11
1524.3087765
 21
803.09997599999997
  0
LINE
  8
_0-0_0
  6
CONTINUOUS
 62
    7
 10
-16.688781500000005
 20
803.79998799999998
 11
1524.6936645000001
 21
803.79998799999998
  0
LINE
  8
_0-0_0
  6
CONTINUOUS
 62
    7
 10
1541.0025025
 20
781.59997599999997
 11
1540.5025025
 21
781.59997599999997
  0
LINE
  8
_0-0_0
  6
CONTINUOUS
 62
    7
 10
1541.0025025
 20
809.19998199999998
 11
1541.0025025
 21
809.99997000000008
  0
LINE
  8
_0-0_0
  6
CONTINUOUS
 62
    7
 10
1541.0025025
 20
781.39999399999999
 11
1541.0025025
 21
809.19998199999998
  0
ARC
  8
_0-0_0
  6
CONTINUOUS
 62
    7
 10
1531.5025025
 20
800.29998799999998
 40
12.800000000000001
 50
73.932597000000001
 51
106.06740099999999
  0
LINE
  8
_0-0_0
  6
CONTINUOUS
 62
    7
 10
-32.997589500000004
 20
809.19998199999998
 11
-32.997589500000004
 21
809.99997000000008
  0
LINE
  8
_0-0_0
  6
CONTINUOUS
 62
    7
 10
-32.997589500000004
 20
781.39999399999999
 11
-32.997589500000004
 21
809.19998199999998
  0
ARC
  8
_0-0_0
  6
CONTINUOUS
 62
    7
 10
-23.497589500000004
 20
800.29998799999998
 40
12.800000000000001
 50
73.932597000000001
 51
106.06740099999999
  0
LINE
  8
_0-0_0
  6
CONTINUOUS
 62
    7
 10
487.00238050000002
 20
812.59997599999997
 11
487.00238050000002
 21
818.23989899999992
  0
LINE
  8
_0-0_0
  6
CONTINUOUS
 62
    7
 10
506.00238050000002
 20
818.23989899999992
 11
506.00238050000002
 21
812.59997599999997
  0
LINE
  8
_0-0_0
  6
CONTINUOUS
 62
    7
 10
1007.0025025
 20
812.59997599999997
 11
1007.0025025
 21
818.23989899999992
  0
LINE
  8
_0-0_0
  6
CONTINUOUS
 62
    7
 10
1026.0025025
 20
818.23989899999992
 11
1026.0025025
 21
812.59997599999997
  0
LINE
  8
_0-0_0
  6
CONTINUOUS
 62
    7
 10
1541.0025025
 20
810.09997599999997
 11
1541.0025025
 21
812.59997599999997
  0
LINE
  8
_0-0_0
  6
CONTINUOUS
 62
    7
 10
-32.997589500000004
 20
812.59997599999997
 11
1541.0025025
 21
812.59997599999997
  0
LINE
  8
_0-0_0
  6
CONTINUOUS
 62
    7
 10
-32.997589500000004
 20
810.09997599999997
 11
-32.997589500000004
 21
812.59997599999997
  0
LINE
  8
_0-0_0
  6
CONTINUOUS
 62
    7
 10
-32.997589500000004
 20
781.59997599999997
 11
-32.497619499999928
 21
781.59997599999997
  0
ARC
  8
_0-0_0
  6
CONTINUOUS
 62
    7
 10
1462.8025514999999
 20
786.49997000000008
 40
0.2
 50
339.62356199999999
 51
90.000002999999978
  0
LINE
  8
_0-0_0
  6
CONTINUOUS
 62
    7
 10
1462.9899295
 20
786.43035899999995
 11
1461.6900025
 21
782.93035899999995
  0
ARC
  8
_0-0_0
  6
CONTINUOUS
 62
    7
 10
1461.5025025
 20
782.99997000000008
 40
0.2
 50
200.37643
 51
339.62356199999999
  0
LINE
  8
_0-0_0
  6
CONTINUOUS
 62
    7
 10
1460.0150755
 20
786.43035899999995
 11
1461.3150025
 21
782.93035899999995
  0
ARC
  8
_0-0_0
  6
CONTINUOUS
 62
    7
 10
1460.2024535
 20
786.49997000000008
 40
0.2
 50
90.000003000000007
 51
200.37643
  0
LINE
  8
_0-0_0
  6
CONTINUOUS
 62
    7
 10
1460.2024535
 20
786.69998199999998
 11
1462.8025514999999
 21
786.69998199999998
  0
ARC
  8
_0-0_0
  6
CONTINUOUS
 62
    7
 10
22.802398499999981
 20
786.49997000000008
 40
0.2
 50
339.62356199999999
 51
90.000002999999978
  0
LINE
  8
_0-0_0
  6
CONTINUOUS
 62
    7
 10
22.989883500000019
 20
786.43035899999995
 11
21.689880500000072
 21
782.93035899999995
  0
ARC
  8
_0-0_0
  6
CONTINUOUS
 62
    7
 10
21.502395500000034
 20
782.99997000000008
 40
0.2
 50
200.37643
 51
339.62356199999999
  0
LINE
  8
_0-0_0
  6
CONTINUOUS
 62
    7
 10
20.014915500000029
 20
786.43035899999995
 11
21.314910499999996
 21
782.93035899999995
  0
ARC
  8
_0-0_0
  6
CONTINUOUS
 62
    7
 10
20.202400500000067
 20
786.49997000000008
 40
0.2
 50
90.000003000000007
 51
200.37643
  0
LINE
  8
_0-0_0
  6
CONTINUOUS
 62
    7
 10
20.202400500000067
 20
786.69998199999998
 11
22.802398499999981
 21
786.69998199999998
  0
LINE
  8
_0-0_0
  6
CONTINUOUS
 62
    7
 10
1542.0025025
 20
809.19998199999998
 11
1541.0025025
 21
809.19998199999998
  0
LINE
  8
_0-0_0
  6
CONTINUOUS
 62
    7
 10
1542.0025025
 20
810.23696900000004
 11
1541.0025025
 21
810.23696900000004
  0
LINE
  8
_0-0_0
  6
CONTINUOUS
 62
    7
 10
1542.0025025
 20
781.39999399999999
 11
1541.0025025
 21
781.39999399999999
  0
ARC
  8
_0-0_0
  6
CONTINUOUS
 62
    7
 10
1016.5025025
 20
800.29998799999998
 40
20.299999
 50
62.096725999999997
 51
117.903272
  0
CIRCLE
  8
_0-0_0
  6
CONTINUOUS
 62
    7
 10
1016.5025025
 20
816.59997599999997
 40
2.5
  0
ARC
  8
_0-0_0
  6
CONTINUOUS
 62
    7
 10
496.50238050000002
 20
800.29998799999998
 40
20.299999
 50
62.096725999999997
 51
117.903272
  0
CIRCLE
  8
_0-0_0
  6
CONTINUOUS
 62
    7
 10
496.50238050000002
 20
816.59997599999997
 40
2.5
  0
LINE
  8
_0-0_0
  6
CONTINUOUS
 62
    7
 10
-33.997589500000004
 20
809.19998199999998
 11
-32.997589500000004
 21
809.19998199999998
  0
LINE
  8
_0-0_0
  6
CONTINUOUS
 62
    7
 10
-33.997589500000004
 20
810.19998199999998
 11
-32.997589500000004
 21
810.19998199999998
  0
LINE
  8
_0-0_0
  6
CONTINUOUS
 62
    7
 10
-33.997589500000004
 20
781.39999399999999
 11
-32.997589500000004
 21
781.39999399999999
  0
LINE
  8
_0-0_0
  6
CONTINUOUS
 62
    7
 10
1542.0025025
 20
812.39999399999999
 11
1541.0025025
 21
812.39999399999999
  0
LINE
  8
_0-0_0
  6
CONTINUOUS
 62
    7
 10
-33.997589500000004
 20
812.39999399999999
 11
-32.997589500000004
 21
812.39999399999999
  0
LINE
  8
_0-0_0
  6
CONTINUOUS
 62
    7
 10
1543.0025025
 20
808.78576699999996
 11
1543.0015255000001
 21
808.80429099999992
  0
LINE
  8
_0-0_0
  6
CONTINUOUS
 62
    7
 10
1543.0015255000001
 20
808.80429099999992
 11
1542.9984744999999
 21
808.822723
  0
LINE
  8
_0-0_0
  6
CONTINUOUS
 62
    7
 10
1542.9984744999999
 20
808.822723
 11
1542.9932255000001
 21
808.841858
  0
LINE
  8
_0-0_0
  6
CONTINUOUS
 62
    7
 10
1542.9932255000001
 20
808.841858
 11
1542.9859005000001
 21
808.86086999999998
  0
LINE
  8
_0-0_0
  6
CONTINUOUS
 62
    7
 10
1542.9859005000001
 20
808.86086999999998
 11
1542.9653935000001
 21
808.89758299999994
  0
LINE
  8
_0-0_0
  6
CONTINUOUS
 62
    7
 10
1542.9653935000001
 20
808.89758299999994
 11
1542.9369505
 21
808.93325800000002
  0
LINE
  8
_0-0_0
  6
CONTINUOUS
 62
    7
 10
1542.9369505
 20
808.93325800000002
 11
1542.9010615
 21
808.96756000000005
  0
LINE
  8
_0-0_0
  6
CONTINUOUS
 62
    7
 10
1542.9010615
 20
808.96756000000005
 11
1542.8524775000001
 21
809.00402800000006
  0
LINE
  8
_0-0_0
  6
CONTINUOUS
 62
    7
 10
1542.8524775000001
 20
809.00402800000006
 11
1542.7957154999999
 21
809.03802500000006
  0
LINE
  8
_0-0_0
  6
CONTINUOUS
 62
    7
 10
1542.7957154999999
 20
809.03802500000006
 11
1542.7315065
 21
809.06927500000006
  0
LINE
  8
_0-0_0
  6
CONTINUOUS
 62
    7
 10
1542.7315065
 20
809.06927500000006
 11
1542.6608275000001
 21
809.097534
  0
LINE
  8
_0-0_0
  6
CONTINUOUS
 62
    7
 10
1542.6608275000001
 20
809.097534
 11
1542.6127315000001
 21
809.11389199999996
  0
LINE
  8
_0-0_0
  6
CONTINUOUS
 62
    7
 10
1542.6127315000001
 20
809.11389199999996
 11
1542.5626835
 21
809.12887599999999
  0
LINE
  8
_0-0_0
  6
CONTINUOUS
 62
    7
 10
1542.5626835
 20
809.12887599999999
 11
1542.5059205
 21
809.14364599999999
  0
LINE
  8
_0-0_0
  6
CONTINUOUS
 62
    7
 10
1542.5059205
 20
809.14364599999999
 11
1542.4473264999999
 21
809.15673800000002
  0
LINE
  8
_0-0_0
  6
CONTINUOUS
 62
    7
 10
1542.4473264999999
 20
809.15673800000002
 11
1542.3305055000001
 21
809.17706299999998
  0
LINE
  8
_0-0_0
  6
CONTINUOUS
 62
    7
 10
1542.3305055000001
 20
809.17706299999998
 11
1542.2232054999999
 21
809.18978900000002
  0
LINE
  8
_0-0_0
  6
CONTINUOUS
 62
    7
 10
1542.2232054999999
 20
809.18978900000002
 11
1542.1133425
 21
809.19741799999997
  0
LINE
  8
_0-0_0
  6
CONTINUOUS
 62
    7
 10
1542.1133425
 20
809.19741799999997
 11
1542.0025025
 21
809.19998199999998
  0
LINE
  8
_0-0_0
  6
CONTINUOUS
 62
    7
 10
1543.0025025
 20
808.78576699999996
 11
1543.0025025
 21
809.78582800000004
  0
LINE
  8
_0-0_0
  6
CONTINUOUS
 62
    7
 10
1543.0025025
 20
809.78582800000004
 11
1542.9995725000001
 21
809.81741299999999
  0
LINE
  8
_0-0_0
  6
CONTINUOUS
 62
    7
 10
1542.9995725000001
 20
809.81741299999999
 11
1542.9909055000001
 21
809.84948699999995
  0
LINE
  8
_0-0_0
  6
CONTINUOUS
 62
    7
 10
1542.9909055000001
 20
809.84948699999995
 11
1542.9763795000001
 21
809.88174400000003
  0
LINE
  8
_0-0_0
  6
CONTINUOUS
 62
    7
 10
1542.9763795000001
 20
809.88174400000003
 11
1542.9561154999999
 21
809.91390999999999
  0
LINE
  8
_0-0_0
  6
CONTINUOUS
 62
    7
 10
1542.9561154999999
 20
809.91390999999999
 11
1542.9395145000001
 21
809.93515000000002
  0
LINE
  8
_0-0_0
  6
CONTINUOUS
 62
    7
 10
1542.9395145000001
 20
809.93515000000002
 11
1542.9205935
 21
809.95608500000003
  0
LINE
  8
_0-0_0
  6
CONTINUOUS
 62
    7
 10
1542.9205935
 20
809.95608500000003
 11
1542.8757935000001
 21
809.99688700000002
  0
LINE
  8
_0-0_0
  6
CONTINUOUS
 62
    7
 10
1542.8757935000001
 20
809.99688700000002
 11
1542.8225705
 21
810.03561400000001
  0
LINE
  8
_0-0_0
  6
CONTINUOUS
 62
    7
 10
1542.8225705
 20
810.03561400000001
 11
1542.7726435
 21
810.06582700000001
  0
LINE
  8
_0-0_0
  6
CONTINUOUS
 62
    7
 10
1542.7726435
 20
810.06582700000001
 11
1542.7179564999999
 21
810.09405500000003
  0
LINE
  8
_0-0_0
  6
CONTINUOUS
 62
    7
 10
1542.7179564999999
 20
810.09405500000003
 11
1542.6589965000001
 21
810.12008700000001
  0
LINE
  8
_0-0_0
  6
CONTINUOUS
 62
    7
 10
1542.6589965000001
 20
810.12008700000001
 11
1542.6122435
 21
810.13809199999992
  0
LINE
  8
_0-0_0
  6
CONTINUOUS
 62
    7
 10
1542.6122435
 20
810.13809199999992
 11
1542.5635374999999
 21
810.15469400000006
  0
LINE
  8
_0-0_0
  6
CONTINUOUS
 62
    7
 10
1542.5635374999999
 20
810.15469400000006
 11
1542.4611205000001
 21
810.18356300000005
  0
LINE
  8
_0-0_0
  6
CONTINUOUS
 62
    7
 10
1542.4611205000001
 20
810.18356300000005
 11
1542.3534545
 21
810.20639000000006
  0
LINE
  8
_0-0_0
  6
CONTINUOUS
 62
    7
 10
1542.3534545
 20
810.20639000000006
 11
1542.2417605000001
 21
810.22299199999998
  0
LINE
  8
_0-0_0
  6
CONTINUOUS
 62
    7
 10
1542.2417605000001
 20
810.22299199999998
 11
1542.1277465000001
 21
810.23318500000005
  0
LINE
  8
_0-0_0
  6
CONTINUOUS
 62
    7
 10
1542.1277465000001
 20
810.23318500000005
 11
1542.0025025
 21
810.23696900000004
  0
ARC
  8
_0-0_0
  6
CONTINUOUS
 62
    7
 10
1542.0025025
 20
782.39999399999999
 40
1
 50
269.99999700000001
 51
0
  0
LINE
  8
_0-0_0
  6
CONTINUOUS
 62
    7
 10
1543.0025025
 20
782.39999399999999
 11
1543.0025025
 21
808.78576699999996
  0
LINE
  8
_0-0_0
  6
CONTINUOUS
 62
    7
 10
-34.997589500000004
 20
808.78576699999996
 11
-34.996612499999969
 21
808.80429099999992
  0
LINE
  8
_0-0_0
  6
CONTINUOUS
 62
    7
 10
-34.996612499999969
 20
808.80429099999992
 11
-34.99359149999998
 21
808.822723
  0
LINE
  8
_0-0_0
  6
CONTINUOUS
 62
    7
 10
-34.99359149999998
 20
808.822723
 11
-34.988372499999969
 21
808.841858
  0
LINE
  8
_0-0_0
  6
CONTINUOUS
 62
    7
 10
-34.988372499999969
 20
808.841858
 11
-34.980987499999969
 21
808.86086999999998
  0
LINE
  8
_0-0_0
  6
CONTINUOUS
 62
    7
 10
-34.980987499999969
 20
808.86086999999998
 11
-34.960449499999982
 21
808.89758299999994
  0
LINE
  8
_0-0_0
  6
CONTINUOUS
 62
    7
 10
-34.960449499999982
 20
808.89758299999994
 11
-34.932037499999979
 21
808.93325800000002
  0
LINE
  8
_0-0_0
  6
CONTINUOUS
 62
    7
 10
-34.932037499999979
 20
808.93325800000002
 11
-34.896148499999981
 21
808.96756000000005
  0
LINE
  8
_0-0_0
  6
CONTINUOUS
 62
    7
 10
-34.896148499999981
 20
808.96756000000005
 11
-34.847534499999938
 21
809.00402800000006
  0
LINE
  8
_0-0_0
  6
CONTINUOUS
 62
    7
 10
-34.847534499999938
 20
809.00402800000006
 11
-34.790771500000005
 21
809.03802500000006
  0
LINE
  8
_0-0_0
  6
CONTINUOUS
 62
    7
 10
-34.790771500000005
 20
809.03802500000006
 11
-34.72662349999996
 21
809.06927500000006
  0
LINE
  8
_0-0_0
  6
CONTINUOUS
 62
    7
 10
-34.72662349999996
 20
809.06927500000006
 11
-34.655975499999954
 21
809.097534
  0
LINE
  8
_0-0_0
  6
CONTINUOUS
 62
    7
 10
-34.655975499999954
 20
809.097534
 11
-34.607879499999967
 21
809.11389199999996
  0
LINE
  8
_0-0_0
  6
CONTINUOUS
 62
    7
 10
-34.607879499999967
 20
809.11389199999996
 11
-34.557739500000025
 21
809.12887599999999
  0
LINE
  8
_0-0_0
  6
CONTINUOUS
 62
    7
 10
-34.557739500000025
 20
809.12887599999999
 11
-34.501037499999939
 21
809.14364599999999
  0
LINE
  8
_0-0_0
  6
CONTINUOUS
 62
    7
 10
-34.501037499999939
 20
809.14364599999999
 11
-34.442443499999968
 21
809.15673800000002
  0
LINE
  8
_0-0_0
  6
CONTINUOUS
 62
    7
 10
-34.442443499999968
 20
809.15673800000002
 11
-34.325653500000044
 21
809.17706299999998
  0
LINE
  8
_0-0_0
  6
CONTINUOUS
 62
    7
 10
-34.325653500000044
 20
809.17706299999998
 11
-34.218261499999926
 21
809.18978900000002
  0
LINE
  8
_0-0_0
  6
CONTINUOUS
 62
    7
 10
-34.218261499999926
 20
809.18978900000002
 11
-34.108490500000016
 21
809.19741799999997
  0
LINE
  8
_0-0_0
  6
CONTINUOUS
 62
    7
 10
-34.108490500000016
 20
809.19741799999997
 11
-33.997589500000004
 21
809.19998199999998
  0
LINE
  8
_0-0_0
  6
CONTINUOUS
 62
    7
 10
-34.997589500000004
 20
809.75543199999993
 11
-34.994720499999971
 21
809.78634699999998
  0
LINE
  8
_0-0_0
  6
CONTINUOUS
 62
    7
 10
-34.994720499999971
 20
809.78634699999998
 11
-34.986023499999988
 21
809.81777999999997
  0
LINE
  8
_0-0_0
  6
CONTINUOUS
 62
    7
 10
-34.986023499999988
 20
809.81777999999997
 11
-34.971527499999979
 21
809.84945700000003
  0
LINE
  8
_0-0_0
  6
CONTINUOUS
 62
    7
 10
-34.971527499999979
 20
809.84945700000003
 11
-34.951355499999977
 21
809.88104299999998
  0
LINE
  8
_0-0_0
  6
CONTINUOUS
 62
    7
 10
-34.951355499999977
 20
809.88104299999998
 11
-34.934845499999938
 21
809.90191699999991
  0
LINE
  8
_0-0_0
  6
CONTINUOUS
 62
    7
 10
-34.934845499999938
 20
809.90191699999991
 11
-34.91592449999996
 21
809.92251599999997
  0
LINE
  8
_0-0_0
  6
CONTINUOUS
 62
    7
 10
-34.91592449999996
 20
809.92251599999997
 11
-34.871307500000057
 21
809.96267699999999
  0
LINE
  8
_0-0_0
  6
CONTINUOUS
 62
    7
 10
-34.871307500000057
 20
809.96267699999999
 11
-34.818176499999936
 21
810.00088499999993
  0
LINE
  8
_0-0_0
  6
CONTINUOUS
 62
    7
 10
-34.818176499999936
 20
810.00088499999993
 11
-34.768280499999946
 21
810.03070099999991
  0
LINE
  8
_0-0_0
  6
CONTINUOUS
 62
    7
 10
-34.768280499999946
 20
810.03070099999991
 11
-34.713592500000004
 21
810.05856300000005
  0
LINE
  8
_0-0_0
  6
CONTINUOUS
 62
    7
 10
-34.713592500000004
 20
810.05856300000005
 11
-34.654632499999934
 21
810.08431999999993
  0
LINE
  8
_0-0_0
  6
CONTINUOUS
 62
    7
 10
-34.654632499999934
 20
810.08431999999993
 11
-34.607879499999967
 21
810.102081
  0
LINE
  8
_0-0_0
  6
CONTINUOUS
 62
    7
 10
-34.607879499999967
 20
810.102081
 11
-34.559173500000043
 21
810.11852999999996
  0
LINE
  8
_0-0_0
  6
CONTINUOUS
 62
    7
 10
-34.559173500000043
 20
810.11852999999996
 11
-34.456726500000059
 21
810.14709500000004
  0
LINE
  8
_0-0_0
  6
CONTINUOUS
 62
    7
 10
-34.456726500000059
 20
810.14709500000004
 11
-34.348907499999996
 21
810.16970800000001
  0
LINE
  8
_0-0_0
  6
CONTINUOUS
 62
    7
 10
-34.348907499999996
 20
810.16970800000001
 11
-34.237213500000053
 21
810.18612699999994
  0
LINE
  8
_0-0_0
  6
CONTINUOUS
 62
    7
 10
-34.237213500000053
 20
810.18612699999994
 11
-34.123077500000022
 21
810.19622800000002
  0
LINE
  8
_0-0_0
  6
CONTINUOUS
 62
    7
 10
-34.123077500000022
 20
810.19622800000002
 11
-33.997589500000004
 21
810.19998199999998
  0
LINE
  8
_0-0_0
  6
CONTINUOUS
 62
    7
 10
-34.997589500000004
 20
808.78576699999996
 11
-34.997589500000004
 21
809.75543199999993
  0
ARC
  8
_0-0_0
  6
CONTINUOUS
 62
    7
 10
-33.997589500000004
 20
782.39999399999999
 40
1
 50
180.00000900000003
 51
269.99999700000001
  0
LINE
  8
_0-0_0
  6
CONTINUOUS
 62
    7
 10
-34.997589500000004
 20
782.39999399999999
 11
-34.997589500000004
 21
808.78576699999996
  0
CIRCLE
  8
_0-0_0
  6
CONTINUOUS
 62
    7
 10
-23.497589500000004
 20
799.59997599999997
 40
5
  0
CIRCLE
  8
_0-0_0
  6
CONTINUOUS
 62
    7
 10
1531.5025025
 20
799.59997599999997
 40
5
  0
LINE
  8
_0-0_0
  6
CONTINUOUS
 62
    7
 10
1543.0025025
 20
809.78582800000004
 11
1543.0025025
 21
811.39999399999999
  0
ARC
  8
_0-0_0
  6
CONTINUOUS
 62
    7
 10
1542.0025025
 20
811.39999399999999
 40
1
 50
0
 51
90.000003000000007
  0
ARC
  8
_0-0_0
  6
CONTINUOUS
 62
    7
 10
-33.997589500000004
 20
811.39999399999999
 40
1
 50
90.000003000000007
 51
180.00000900000001
  0
LINE
  8
_0-0_0
  6
CONTINUOUS
 62
    7
 10
-34.997589500000004
 20
809.75543199999993
 11
-34.997589500000004
 21
811.39999399999999
  0
LINE
  8
_0-0_0
  6
CONTINUOUS
 62
    7
 10
-62.907470500000045
 20
781.39999399999999
 11
-62.907470500000045
 21
780.79998799999998
  0
LINE
  8
_0-0_0
  6
CONTINUOUS
 62
    7
 10
-60.407470500000045
 20
775.55499299999997
 11
-60.407470500000045
 21
777.79998799999998
  0
LINE
  8
_0-0_0
  6
CONTINUOUS
 62
    7
 10
-59.407470500000045
 20
777.79998799999998
 11
-59.407470500000045
 21
779.79998799999998
  0
ARC
  8
_0-0_0
  6
CONTINUOUS
 62
    7
 10
-59.907470500000045
 20
779.79998799999998
 40
0.5
 50
0
 51
90.000003000000007
  0
LINE
  8
_0-0_0
  6
CONTINUOUS
 62
    7
 10
-59.907470500000045
 20
780.29998799999998
 11
-61.407470500000045
 21
780.29998799999998
  0
ARC
  8
_0-0_0
  6
CONTINUOUS
 62
    7
 10
-61.407470500000045
 20
781.29998799999998
 40
1
 50
180.00000900000003
 51
269.99999700000001
  0
LINE
  8
_0-0_0
  6
CONTINUOUS
 62
    7
 10
-62.407470500000045
 20
781.39999399999999
 11
-62.407470500000045
 21
781.29998799999998
  0
ARC
  8
_0-0_0
  6
CONTINUOUS
 62
    7
 10
-61.407470500000045
 20
780.79998799999998
 40
1.5
 50
180.00000900000003
 51
269.99999700000001
  0
LINE
  8
_0-0_0
  6
CONTINUOUS
 62
    7
 10
-61.407470500000045
 20
779.29998799999998
 11
-62.10748250000006
 21
779.29998799999998
  0
ARC
  8
_0-0_0
  6
CONTINUOUS
 62
    7
 10
-62.10748250000006
 20
780.29998799999998
 40
1
 50
180.00000900000003
 51
269.99999700000001
  0
LINE
  8
_0-0_0
  6
CONTINUOUS
 62
    7
 10
-63.10748250000006
 20
781.29998799999998
 11
-63.10748250000006
 21
780.29998799999998
  0
LINE
  8
_0-0_0
  6
CONTINUOUS
 62
    7
 10
-71.307464499999924
 20
780.29998799999998
 11
-71.307464499999924
 21
781.29998799999998
  0
ARC
  8
_0-0_0
  6
CONTINUOUS
 62
    7
 10
-72.307464499999924
 20
780.29998799999998
 40
1
 50
269.99999700000001
 51
0
  0
LINE
  8
_0-0_0
  6
CONTINUOUS
 62
    7
 10
-72.307464499999924
 20
779.29998799999998
 11
-72.507476499999939
 21
779.29998799999998
  0
ARC
  8
_0-0_0
  6
CONTINUOUS
 62
    7
 10
-72.507476499999939
 20
780.29998799999998
 40
1
 50
269.99999700000001
 51
0
  0
LINE
  8
_0-0_0
  6
CONTINUOUS
 62
    7
 10
-71.507476499999939
 20
780.29998799999998
 11
-71.507476499999939
 21
781.39999399999999
  0
LINE
  8
_0-0_0
  6
CONTINUOUS
 62
    7
 10
-72.007476499999939
 20
781.29998799999998
 11
-72.007476499999939
 21
781.39999399999999
  0
ARC
  8
_0-0_0
  6
CONTINUOUS
 62
    7
 10
-73.007476499999939
 20
781.29998799999998
 40
1
 50
269.99999700000001
 51
0
  0
LINE
  8
_0-0_0
  6
CONTINUOUS
 62
    7
 10
-73.007476499999939
 20
780.29998799999998
 11
-74.507476499999939
 21
780.29998799999998
  0
ARC
  8
_0-0_0
  6
CONTINUOUS
 62
    7
 10
-74.507476499999939
 20
779.79998799999998
 40
0.5
 50
90.000003000000007
 51
180.00000900000001
  0
LINE
  8
_0-0_0
  6
CONTINUOUS
 62
    7
 10
-75.007476499999939
 20
779.79998799999998
 11
-75.007476499999939
 21
777.79998799999998
  0
LINE
  8
_0-0_0
  6
CONTINUOUS
 62
    7
 10
-74.007476499999939
 20
775.55499299999997
 11
-74.007476499999939
 21
777.79998799999998
  0
LINE
  8
_0-0_0
  6
CONTINUOUS
 62
    7
 10
-75.907470500000045
 20
757.19998199999998
 11
-75.907470500000045
 21
775.55499299999997
  0
LINE
  8
_0-0_0
  6
CONTINUOUS
 62
    7
 10
-59.10748250000006
 20
757.19998199999998
 11
-59.10748250000006
 21
775.55499299999997
  0
CIRCLE
  8
_0-0_0
  6
CONTINUOUS
 62
    7
 10
-67.20745850000003
 20
777.79998799999998
 40
2.0499999999999998
  0
LINE
  8
_0-0_0
  6
CONTINUOUS
 62
    7
 10
-59.10748250000006
 20
779.29998799999998
 11
-59.10748250000006
 21
779.27499399999999
  0
LINE
  8
_0-0_0
  6
CONTINUOUS
 62
    7
 10
-59.10748250000006
 20
776.05493200000001
 11
-59.10748250000006
 21
776.32498199999998
  0
LINE
  8
_0-0_0
  6
CONTINUOUS
 62
    7
 10
-59.10748250000006
 20
775.55499299999997
 11
-59.10748250000006
 21
776.05499299999997
  0
LINE
  8
_0-0_0
  6
CONTINUOUS
 62
    7
 10
-59.10748250000006
 20
755.19998199999998
 11
-59.10748250000006
 21
757.19998199999998
  0
LINE
  8
_0-0_0
  6
CONTINUOUS
 62
    7
 10
-75.907470500000045
 20
755.19998199999998
 11
-75.907470500000045
 21
757.19998199999998
  0
LINE
  8
_0-0_0
  6
CONTINUOUS
 62
    7
 10
-75.907470500000045
 20
755.19998199999998
 11
-59.10748250000006
 21
755.19998199999998
  0
LINE
  8
_0-0_0
  6
CONTINUOUS
 62
    7
 10
-75.907470500000045
 20
779.29998799999998
 11
-75.907470500000045
 21
777.79998799999998
  0
LINE
  8
_0-0_0
  6
CONTINUOUS
 62
    7
 10
-75.907470500000045
 20
776.05499299999997
 11
-75.907470500000045
 21
777.79998799999998
  0
LINE
  8
_0-0_0
  6
CONTINUOUS
 62
    7
 10
-75.907470500000045
 20
775.55499299999997
 11
-75.907470500000045
 21
776.05499299999997
  0
LINE
  8
_0-0_0
  6
CONTINUOUS
 62
    7
 10
-75.007476499999939
 20
776.05505399999993
 11
-75.007476499999939
 21
777.79998799999998
  0
ARC
  8
_0-0_0
  6
CONTINUOUS
 62
    7
 10
-60.70745850000003
 20
757.29998799999998
 40
2
 50
323.13010300000002
 51
0.0000000000000127
  0
LINE
  8
_0-0_0
  6
CONTINUOUS
 62
    7
 10
-58.70745850000003
 20
757.29998799999998
 11
-58.70745850000003
 21
758.70004300000005
  0
LINE
  8
_0-0_0
  6
CONTINUOUS
 62
    7
 10
-58.407470500000045
 20
763.78967299999999
 11
-58.407470500000045
 21
774.23767099999998
  0
LINE
  8
_0-0_0
  6
CONTINUOUS
 62
    7
 10
-58.407470500000045
 20
775.20047
 11
-58.407470500000045
 21
777.43511999999998
  0
LINE
  8
_0-0_0
  6
CONTINUOUS
 62
    7
 10
-75.907470500000045
 20
779.29998799999998
 11
-75.007476499999939
 21
779.29998799999998
  0
LINE
  8
_0-0_0
  6
CONTINUOUS
 62
    7
 10
-76.007476499999939
 20
758.69998199999998
 11
-75.907470500000045
 21
758.69998199999998
  0
LINE
  8
_0-0_0
  6
CONTINUOUS
 62
    7
 10
-76.007476499999939
 20
758.69998199999998
 11
-76.007476499999939
 21
763.78967299999999
  0
LINE
  8
_0-0_0
  6
CONTINUOUS
 62
    7
 10
-76.007476499999939
 20
774.23767099999998
 11
-76.007476499999939
 21
775.20047
  0
LINE
  8
_0-0_0
  6
CONTINUOUS
 62
    7
 10
-76.007476499999939
 20
778.29998799999998
 11
-75.907470500000045
 21
778.29998799999998
  0
LINE
  8
_0-0_0
  6
CONTINUOUS
 62
    7
 10
-76.007476499999939
 20
777.43511999999998
 11
-76.007476499999939
 21
778.29998799999998
  0
LINE
  8
_0-0_0
  6
CONTINUOUS
 62
    7
 10
-76.007476499999939
 20
775.20047
 11
-76.007476499999939
 21
777.43511999999998
  0
LINE
  8
_0-0_0
  6
CONTINUOUS
 62
    7
 10
-76.007476499999939
 20
763.78967299999999
 11
-76.007476499999939
 21
774.23767099999998
  0
LINE
  8
_0-0_0
  6
CONTINUOUS
 62
    7
 10
-75.70745850000003
 20
777.18872099999999
 11
-75.70745850000003
 21
779.07498199999998
  0
LINE
  8
_0-0_0
  6
CONTINUOUS
 62
    7
 10
-75.70745850000003
 20
776.52499399999999
 11
-75.70745850000003
 21
777.18872099999999
  0
LINE
  8
_0-0_0
  6
CONTINUOUS
 62
    7
 10
-58.70745850000003
 20
778.41125499999998
 11
-58.70745850000003
 21
776.52529900000002
  0
LINE
  8
_0-0_0
  6
CONTINUOUS
 62
    7
 10
-58.70745850000003
 20
779.06662000000006
 11
-58.70745850000003
 21
778.41125499999998
  0
LINE
  8
_0-0_0
  6
CONTINUOUS
 62
    7
 10
-58.407470500000045
 20
758.69998199999998
 11
-58.407470500000045
 21
763.78967299999999
  0
LINE
  8
_0-0_0
  6
CONTINUOUS
 62
    7
 10
-58.407470500000045
 20
777.43511999999998
 11
-58.407470500000045
 21
778.29998799999998
  0
LINE
  8
_0-0_0
  6
CONTINUOUS
 62
    7
 10
-58.407470500000045
 20
774.23767099999998
 11
-58.407470500000045
 21
775.20047
  0
LINE
  8
_0-0_0
  6
CONTINUOUS
 62
    7
 10
-58.407470500000045
 20
778.29998799999998
 11
-58.707489499999951
 21
778.29998799999998
  0
LINE
  8
_0-0_0
  6
CONTINUOUS
 62
    7
 10
-58.407470500000045
 20
758.69998199999998
 11
-59.10748250000006
 21
758.69998199999998
  0
LINE
  8
_0-0_0
  6
CONTINUOUS
 62
    7
 10
-59.10748250000006
 20
779.29998799999998
 11
-59.407470500000045
 21
779.29998799999998
  0
LINE
  8
_0-0_0
  6
CONTINUOUS
 62
    7
 10
-59.407470500000045
 20
777.79998799999998
 11
-59.407470500000045
 21
776.05505399999993
  0
LINE
  8
_0-0_0
  6
CONTINUOUS
 62
    7
 10
-63.10748250000006
 20
781.29998799999998
 11
-63.10748250000006
 21
781.40005500000007
  0
LINE
  8
_0-0_0
  6
CONTINUOUS
 62
    7
 10
-71.307464499999924
 20
781.40005500000007
 11
-71.307464499999924
 21
781.29998799999998
  0
LINE
  8
_0-0_0
  6
CONTINUOUS
 62
    7
 10
-60.407470500000045
 20
776.05499299999997
 11
-59.10748250000006
 21
776.05499299999997
  0
ARC
  8
_0-0_0
  6
CONTINUOUS
 62
    7
 10
-75.20745850000003
 20
779.07498199999998
 40
0.2
 50
359.91222800000003
 51
89.999948000000003
  0
ARC
  8
_0-0_0
  6
CONTINUOUS
 62
    7
 10
-75.207580499999949
 20
776.52514700000006
 40
0.200169
 50
270.02985900000004
 51
2.3526610000000452
  0
LINE
  8
_0-0_0
  6
CONTINUOUS
 62
    7
 10
-75.507476499999939
 20
779.27499399999999
 11
-75.20745850000003
 21
779.27499399999999
  0
LINE
  8
_0-0_0
  6
CONTINUOUS
 62
    7
 10
-75.507476499999939
 20
776.32498199999998
 11
-75.20745850000003
 21
776.32498199999998
  0
ARC
  8
_0-0_0
  6
CONTINUOUS
 62
    7
 10
-75.507354500000019
 20
779.07482899999991
 40
0.200169
 50
90.029849999999996
 51
182.352667
  0
ARC
  8
_0-0_0
  6
CONTINUOUS
 62
    7
 10
-75.507476499999939
 20
776.52499399999999
 40
0.2
 50
179.912237
 51
269.99994299999997
  0
ARC
  8
_0-0_0
  6
CONTINUOUS
 62
    7
 10
-59.207367500000032
 20
776.52514700000006
 40
0.200169
 50
177.647333
 51
269.97013600000002
  0
ARC
  8
_0-0_0
  6
CONTINUOUS
 62
    7
 10
-59.20745850000003
 20
779.07498199999998
 40
0.2
 50
90.000049999999987
 51
180.08776299999997
  0
LINE
  8
_0-0_0
  6
CONTINUOUS
 62
    7
 10
-58.907470500000045
 20
776.32498199999998
 11
-59.20745850000003
 21
776.32498199999998
  0
LINE
  8
_0-0_0
  6
CONTINUOUS
 62
    7
 10
-58.907470500000045
 20
779.27499399999999
 11
-59.20745850000003
 21
779.27499399999999
  0
ARC
  8
_0-0_0
  6
CONTINUOUS
 62
    7
 10
-58.907470500000045
 20
776.52499399999999
 40
0.2
 50
270.00005199999998
 51
0.0877600000000175
  0
ARC
  8
_0-0_0
  6
CONTINUOUS
 62
    7
 10
-58.90756250000004
 20
779.07482899999991
 40
0.200169
 50
357.64733799999999
 51
89.970147999999995
  0
LINE
  8
_0-0_0
  6
CONTINUOUS
 62
    7
 10
-75.907470500000045
 20
776.05499299999997
 11
-74.007476499999939
 21
776.05499299999997
  0
LINE
  8
_0-0_0
  6
CONTINUOUS
 62
    7
 10
-58.407470500000045
 20
781.79998799999998
 11
-58.407470500000045
 21
794.99997000000008
  0
ARC
  8
_0-0_0
  6
CONTINUOUS
 62
    7
 10
-58.907470500000045
 20
781.79998799999998
 40
0.5
 50
269.99999700000001
 51
0
  0
ARC
  8
_0-0_0
  6
CONTINUOUS
 62
    7
 10
-58.466064500000016
 20
795.19998199999998
 40
0.1
 50
135
 51
225
  0
LINE
  8
_0-0_0
  6
CONTINUOUS
 62
    7
 10
-58.536773499999981
 20
795.12927300000001
 11
-58.407470500000045
 21
794.99997000000008
  0
LINE
  8
_0-0_0
  6
CONTINUOUS
 62
    7
 10
-58.907470500000045
 20
781.29998799999998
 11
-60.807464499999924
 21
781.29998799999998
  0
ARC
  8
_0-0_0
  6
CONTINUOUS
 62
    7
 10
-60.807464499999924
 20
781.79998799999998
 40
0.5
 50
233.12990600000001
 51
269.99999700000001
  0
ARC
  8
_0-0_0
  6
CONTINUOUS
 62
    7
 10
-73.507476499999939
 20
781.79998799999998
 40
0.5
 50
269.99999700000001
 51
306.87009999999998
  0
LINE
  8
_0-0_0
  6
CONTINUOUS
 62
    7
 10
-73.507476499999939
 20
781.29998799999998
 11
-75.407470500000045
 21
781.29998799999998
  0
ARC
  8
_0-0_0
  6
CONTINUOUS
 62
    7
 10
-75.407470500000045
 20
781.79998799999998
 40
0.5
 50
180.00000900000003
 51
269.99999700000001
  0
LINE
  8
_0-0_0
  6
CONTINUOUS
 62
    7
 10
-75.907470500000045
 20
791.23498500000005
 11
-75.907470500000045
 21
781.79998799999998
  0
LINE
  8
_0-0_0
  6
CONTINUOUS
 62
    7
 10
-75.907470500000045
 20
791.23498500000005
 11
-75.20745850000003
 21
791.23498500000005
  0
LINE
  8
_0-0_0
  6
CONTINUOUS
 62
    7
 10
-59.20745850000003
 20
809.79998799999998
 11
-59.001434499999959
 21
809.79998799999998
  0
LINE
  8
_0-0_0
  6
CONTINUOUS
 62
    7
 10
-59.001434499999959
 20
809.79998799999998
 11
-58.407470500000045
 21
809.20602400000007
  0
LINE
  8
_0-0_0
  6
CONTINUOUS
 62
    7
 10
-58.407470500000045
 20
804.19998199999998
 11
-58.407470500000045
 21
809.20602400000007
  0
LINE
  8
_0-0_0
  6
CONTINUOUS
 62
    7
 10
-58.536773499999981
 20
804.07070899999997
 11
-58.407470500000045
 21
804.19998199999998
  0
ARC
  8
_0-0_0
  6
CONTINUOUS
 62
    7
 10
-58.466064500000016
 20
803.99997000000008
 40
0.1
 50
135
 51
225
  0
LINE
  8
_0-0_0
  6
CONTINUOUS
 62
    7
 10
-58.536773499999981
 20
803.92929099999992
 11
-58.407470500000045
 21
803.79998799999998
  0
LINE
  8
_0-0_0
  6
CONTINUOUS
 62
    7
 10
-58.407470500000045
 20
803.09997599999997
 11
-58.407470500000045
 21
803.79998799999998
  0
LINE
  8
_0-0_0
  6
CONTINUOUS
 62
    7
 10
-58.536773499999981
 20
802.97070299999996
 11
-58.407470500000045
 21
803.09997599999997
  0
ARC
  8
_0-0_0
  6
CONTINUOUS
 62
    7
 10
-58.466064500000016
 20
802.89999399999999
 40
0.1
 50
135
 51
225
  0
LINE
  8
_0-0_0
  6
CONTINUOUS
 62
    7
 10
-58.536773499999981
 20
802.82928500000003
 11
-58.407470500000045
 21
802.69998199999998
  0
LINE
  8
_0-0_0
  6
CONTINUOUS
 62
    7
 10
-58.407470500000045
 20
801.99997000000008
 11
-58.407470500000045
 21
802.69998199999998
  0
LINE
  8
_0-0_0
  6
CONTINUOUS
 62
    7
 10
-58.536773499999981
 20
801.87069700000006
 11
-58.407470500000045
 21
801.99997000000008
  0
ARC
  8
_0-0_0
  6
CONTINUOUS
 62
    7
 10
-58.466064500000016
 20
801.79998799999998
 40
0.1
 50
135
 51
225
  0
LINE
  8
_0-0_0
  6
CONTINUOUS
 62
    7
 10
-58.536773499999981
 20
801.72927900000002
 11
-58.407470500000045
 21
801.59997599999997
  0
LINE
  8
_0-0_0
  6
CONTINUOUS
 62
    7
 10
-58.407470500000045
 20
800.89999399999999
 11
-58.407470500000045
 21
801.59997599999997
  0
LINE
  8
_0-0_0
  6
CONTINUOUS
 62
    7
 10
-58.536773499999981
 20
800.77069099999994
 11
-58.407470500000045
 21
800.89999399999999
  0
ARC
  8
_0-0_0
  6
CONTINUOUS
 62
    7
 10
-58.466064500000016
 20
800.69998199999998
 40
0.1
 50
135
 51
225
  0
LINE
  8
_0-0_0
  6
CONTINUOUS
 62
    7
 10
-58.536773499999981
 20
800.62927300000001
 11
-58.407470500000045
 21
800.49997000000008
  0
LINE
  8
_0-0_0
  6
CONTINUOUS
 62
    7
 10
-58.407470500000045
 20
799.79998799999998
 11
-58.407470500000045
 21
800.49997000000008
  0
LINE
  8
_0-0_0
  6
CONTINUOUS
 62
    7
 10
-58.536773499999981
 20
799.67068500000005
 11
-58.407470500000045
 21
799.79998799999998
  0
ARC
  8
_0-0_0
  6
CONTINUOUS
 62
    7
 10
-58.466064500000016
 20
799.59997599999997
 40
0.1
 50
135
 51
225
  0
LINE
  8
_0-0_0
  6
CONTINUOUS
 62
    7
 10
-58.536773499999981
 20
799.52926600000001
 11
-58.407470500000045
 21
799.39999399999999
  0
LINE
  8
_0-0_0
  6
CONTINUOUS
 62
    7
 10
-58.407470500000045
 20
798.69998199999998
 11
-58.407470500000045
 21
799.39999399999999
  0
LINE
  8
_0-0_0
  6
CONTINUOUS
 62
    7
 10
-58.536773499999981
 20
798.57070899999997
 11
-58.407470500000045
 21
798.69998199999998
  0
ARC
  8
_0-0_0
  6
CONTINUOUS
 62
    7
 10
-58.466064500000016
 20
798.49997000000008
 40
0.1
 50
135
 51
225
  0
LINE
  8
_0-0_0
  6
CONTINUOUS
 62
    7
 10
-58.536773499999981
 20
798.42929099999992
 11
-58.407470500000045
 21
798.29998799999998
  0
LINE
  8
_0-0_0
  6
CONTINUOUS
 62
    7
 10
-58.407470500000045
 20
797.59997599999997
 11
-58.407470500000045
 21
798.29998799999998
  0
LINE
  8
_0-0_0
  6
CONTINUOUS
 62
    7
 10
-58.536773499999981
 20
797.47070299999996
 11
-58.407470500000045
 21
797.59997599999997
  0
ARC
  8
_0-0_0
  6
CONTINUOUS
 62
    7
 10
-58.466064500000016
 20
797.39999399999999
 40
0.1
 50
135
 51
225
  0
LINE
  8
_0-0_0
  6
CONTINUOUS
 62
    7
 10
-58.536773499999981
 20
797.32928500000003
 11
-58.407470500000045
 21
797.19998199999998
  0
LINE
  8
_0-0_0
  6
CONTINUOUS
 62
    7
 10
-58.407470500000045
 20
796.49997000000008
 11
-58.407470500000045
 21
797.19998199999998
  0
LINE
  8
_0-0_0
  6
CONTINUOUS
 62
    7
 10
-58.536773499999981
 20
796.37069700000006
 11
-58.407470500000045
 21
796.49997000000008
  0
ARC
  8
_0-0_0
  6
CONTINUOUS
 62
    7
 10
-58.466064500000016
 20
796.29998799999998
 40
0.1
 50
135
 51
225
  0
LINE
  8
_0-0_0
  6
CONTINUOUS
 62
    7
 10
-58.536773499999981
 20
796.22927900000002
 11
-58.407470500000045
 21
796.09997599999997
  0
LINE
  8
_0-0_0
  6
CONTINUOUS
 62
    7
 10
-58.407470500000045
 20
795.39999399999999
 11
-58.407470500000045
 21
796.09997599999997
  0
LINE
  8
_0-0_0
  6
CONTINUOUS
 62
    7
 10
-58.536773499999981
 20
795.27069099999994
 11
-58.407470500000045
 21
795.39999399999999
  0
LINE
  8
_0-0_0
  6
CONTINUOUS
 62
    7
 10
-58.407470500000045
 20
787.29998799999998
 11
-58.307464499999924
 21
787.29998799999998
  0
LINE
  8
_0-0_0
  6
CONTINUOUS
 62
    7
 10
-58.307464499999924
 20
786.79998799999998
 11
-58.307464499999924
 21
787.29998799999998
  0
LINE
  8
_0-0_0
  6
CONTINUOUS
 62
    7
 10
-58.307464499999924
 20
786.79998799999998
 11
-58.307464499999924
 21
782.79998799999998
  0
LINE
  8
_0-0_0
  6
CONTINUOUS
 62
    7
 10
-58.407470500000045
 20
782.29998799999998
 11
-58.307464499999924
 21
782.29998799999998
  0
LINE
  8
_0-0_0
  6
CONTINUOUS
 62
    7
 10
-58.307464499999924
 20
782.29998799999998
 11
-58.307464499999924
 21
782.79998799999998
  0
LINE
  8
_0-0_0
  6
CONTINUOUS
 62
    7
 10
-75.907470500000045
 20
791.29998799999998
 11
-75.907470500000045
 21
791.23498500000005
  0
LINE
  8
_0-0_0
  6
CONTINUOUS
 62
    7
 10
-59.407470500000045
 20
810.09997599999997
 11
-59.407470500000045
 21
809.99997000000008
  0
ARC
  8
_0-0_0
  6
CONTINUOUS
 62
    7
 10
-71.907470500000045
 20
810.09997599999997
 40
2.5
 50
90.000003000000007
 51
180.00000900000001
  0
LINE
  8
_0-0_0
  6
CONTINUOUS
 62
    7
 10
-76.007476499999939
 20
791.29998799999998
 11
-75.20745850000003
 21
791.29998799999998
  0
LINE
  8
_0-0_0
  6
CONTINUOUS
 62
    7
 10
-75.507476499999939
 20
813.09997599999997
 11
-75.507476499999939
 21
808.87844900000005
  0
LINE
  8
_0-0_0
  6
CONTINUOUS
 62
    7
 10
-74.407470500000045
 20
813.09997599999997
 11
-74.407470500000045
 21
810.09997599999997
  0
LINE
  8
_0-0_0
  6
CONTINUOUS
 62
    7
 10
-75.507476499999939
 20
808.87844900000005
 11
-75.20745850000003
 21
808.87844900000005
  0
LINE
  8
_0-0_0
  6
CONTINUOUS
 62
    7
 10
-75.507476499999939
 20
818.23989899999992
 11
-74.407470500000045
 21
818.23989899999992
  0
LINE
  8
_0-0_0
  6
CONTINUOUS
 62
    7
 10
-74.407470500000045
 20
813.10037199999999
 11
-74.407470500000045
 21
818.23989899999992
  0
LINE
  8
_0-0_0
  6
CONTINUOUS
 62
    7
 10
-76.007476499999939
 20
812.60070799999994
 11
-76.007476499999939
 21
817.67208899999991
  0
LINE
  8
_0-0_0
  6
CONTINUOUS
 62
    7
 10
-75.507476499999939
 20
818.23989899999992
 11
-76.007476499999939
 21
817.67208899999991
  0
ARC
  8
_0-0_0
  6
CONTINUOUS
 62
    7
 10
-61.907470500000045
 20
810.09997599999997
 40
2.5
 50
0
 51
90.000003000000007
  0
LINE
  8
_0-0_0
  6
CONTINUOUS
 62
    7
 10
-74.407470500000045
 20
810
 11
-74.407470500000045
 21
810.09997599999997
  0
LINE
  8
_0-0_0
  6
CONTINUOUS
 62
    7
 10
-61.907470500000045
 20
812.59997599999997
 11
-71.907470500000045
 21
812.59997599999997
  0
LINE
  8
_0-0_0
  6
CONTINUOUS
 62
    7
 10
-58.20745850000003
 20
782.79998799999998
 11
-58.20745850000003
 21
782.93035899999995
  0
LINE
  8
_0-0_0
  6
CONTINUOUS
 62
    7
 10
-58.20745850000003
 20
786.43035899999995
 11
-58.20745850000003
 21
782.93035899999995
  0
LINE
  8
_0-0_0
  6
CONTINUOUS
 62
    7
 10
-58.307464499999924
 20
786.69998199999998
 11
-58.20745850000003
 21
786.69998199999998
  0
LINE
  8
_0-0_0
  6
CONTINUOUS
 62
    7
 10
-58.20745850000003
 20
786.43035899999995
 11
-58.20745850000003
 21
786.69998199999998
  0
LINE
  8
_0-0_0
  6
CONTINUOUS
 62
    7
 10
-74.407470500000045
 20
820.60000600000001
 11
-74.407470500000045
 21
818.23989899999992
  0
LINE
  8
_0-0_0
  6
CONTINUOUS
 62
    7
 10
-58.60748250000006
 20
809.19998199999998
 11
-59.60748250000006
 21
810.19998199999998
  0
LINE
  8
_0-0_0
  6
CONTINUOUS
 62
    7
 10
-58.60748250000006
 20
781.39999399999999
 11
-58.60748250000006
 21
809.19998199999998
  0
LINE
  8
_0-0_0
  6
CONTINUOUS
 62
    7
 10
-75.20745850000003
 20
781.39999399999999
 11
-58.60748250000006
 21
781.39999399999999
  0
LINE
  8
_0-0_0
  6
CONTINUOUS
 62
    7
 10
-75.20745850000003
 20
809.19998199999998
 11
-75.20745850000003
 21
781.39999399999999
  0
LINE
  8
_0-0_0
  6
CONTINUOUS
 62
    7
 10
-76.007476499999939
 20
791.29998799999998
 11
-76.007476499999939
 21
808.11279300000001
  0
LINE
  8
_0-0_0
  6
CONTINUOUS
 62
    7
 10
-76.007476499999939
 20
812.59997599999997
 11
-76.007476499999939
 21
808.11279300000001
  0
ARC
  8
_0-0_0
  6
CONTINUOUS
 62
    7
 10
-44.555725499999994
 20
788.11779799999999
 40
37.269466000000001
 50
146.14857699999999
 51
147.55443399999999
  0
LINE
  8
_0-0_0
  6
CONTINUOUS
 62
    7
 10
-75.507476499999939
 20
820.60000600000001
 11
-75.507476499999939
 21
818.23989899999992
  0
LINE
  8
_0-0_0
  6
CONTINUOUS
 62
    7
 10
-76.007476499999939
 20
820.10000600000001
 11
-76.007476499999939
 21
817.67208899999991
  0
ARC
  8
_0-0_0
  6
CONTINUOUS
 62
    7
 10
-62.176513500000056
 20
809.79998799999998
 40
2.6000000000000001
 50
8.8498839999999994
 51
90.000002999999992
  0
LINE
  8
_0-0_0
  6
CONTINUOUS
 62
    7
 10
-62.176513500000056
 20
812.39999399999999
 11
-71.638427500000034
 21
812.39999399999999
  0
ARC
  8
_0-0_0
  6
CONTINUOUS
 62
    7
 10
-71.638427500000034
 20
809.79998799999998
 40
2.6000000000000001
 50
90.000003000000007
 51
171.150115
  0
LINE
  8
_0-0_0
  6
CONTINUOUS
 62
    7
 10
-75.20745850000003
 20
809.19998199999998
 11
-74.20745850000003
 21
810.19998199999998
  0
LINE
  8
_0-0_0
  6
CONTINUOUS
 62
    7
 10
-59.60748250000006
 20
808.78576699999996
 11
-58.60748250000006
 21
809.19998199999998
  0
ARC
  8
_0-0_0
  6
CONTINUOUS
 62
    7
 10
-65.150024499999972
 20
820.98611499999993
 40
12.126564999999999
 50
292.155034
 51
297.19674500000002
  0
LINE
  8
_0-0_0
  6
CONTINUOUS
 62
    7
 10
-59.60748250000006
 20
782.39999399999999
 11
-58.60748250000006
 21
781.39999399999999
  0
LINE
  8
_0-0_0
  6
CONTINUOUS
 62
    7
 10
-74.20745850000003
 20
782.39999399999999
 11
-75.20745850000003
 21
781.39999399999999
  0
LINE
  8
_0-0_0
  6
CONTINUOUS
 62
    7
 10
-74.20745850000003
 20
808.78576699999996
 11
-75.20745850000003
 21
809.19998199999998
  0
ARC
  8
_0-0_0
  6
CONTINUOUS
 62
    7
 10
-68.664917500000001
 20
820.98611499999993
 40
12.126567
 50
242.80325699999997
 51
247.84494000000001
  0
CIRCLE
  8
_0-0_0
  6
CONTINUOUS
 62
    7
 10
-66.907470500000045
 20
789.59997599999997
 40
2.0670000000000002
  0
LINE
  8
_0-0_0
  6
CONTINUOUS
 62
    7
 10
-74.407470500000045
 20
813.09997599999997
 11
-75.507476499999939
 21
813.09997599999997
  0
LINE
  8
_0-0_0
  6
CONTINUOUS
 62
    7
 10
-58.307464499999924
 20
782.79998799999998
 11
-58.20745850000003
 21
782.79998799999998
  0
LINE
  8
_0-0_0
  6
CONTINUOUS
 62
    7
 10
-58.307464499999924
 20
782.79998799999998
 11
-58.20745850000003
 21
782.79998799999998
  0
LINE
  8
_0-0_0
  6
CONTINUOUS
 62
    7
 10
-76.007476499999939
 20
812.59997599999997
 11
-75.507476499999939
 21
813.09997599999997
  0
LINE
  8
_0-0_0
  6
CONTINUOUS
 62
    7
 10
-74.407470500000045
 20
820.60000600000001
 11
-75.507476499999939
 21
820.60000600000001
  0
LINE
  8
_0-0_0
  6
CONTINUOUS
 62
    7
 10
-76.007476499999939
 20
820.10000600000001
 11
-75.507476499999939
 21
820.60000600000001
  0
ENDSEC
  0
EOF
