  0
SECTION
  2
HEADER
  9
$ACADVER
  1
AC1009
  9
$INSBASE
 10
0
 20
0
 30
0
  9
$EXTMIN
 10
0
 20
0
  9
$EXTMAX
 10
841
 20
594
  9
$LIMMIN
 10
0
 20
0
  9
$LIMMAX
 10
841
 20
594
  9
$LTSCALE
 40
1
  0
ENDSEC
  0
SECTION
  2
TABLES
  0
TABLE
  2
LTYPE
 70
     9
  0
LTYPE
  2
CONTINUOUS
 70
    64
  3
実線
 72
    65
 73
     0
 40
0.0
  0
LTYPE
  2
DASHED1
 70
    64
  3
--  --  --  --  --  --  --  --  
 72
    65
 73
     2
 40
2.5
 49
1.25
 49
-1.25
  0
LTYPE
  2
DASHED2
 70
    64
  3
----    ----    ----    ----    
 72
    65
 73
     2
 40
5.0
 49
2.5
 49
-2.5
  0
LTYPE
  2
DASHED3
 70
    64
  3
------  ------  ------  ------  
 72
    65
 73
     2
 40
5.0
 49
3.75
 49
-1.25
  0
LTYPE
  2
CENTER1
 70
    64
  3
----- - ----- - ----- - ----- - 
 72
    65
 73
     4
 40
10.0
 49
6.25
 49
-1.25
 49
1.25
 49
-1.25
  0
LTYPE
  2
CENTER2
 70
    64
  3
----------  --  ----------  --  
 72
    65
 73
     4
 40
20.0
 49
12.5
 49
-2.5
 49
2.5
 49
-2.5
  0
LTYPE
  2
PHANTOM1
 70
    64
  3
--- - - --- - - --- - - --- - - 
 72
    65
 73
     6
 40
10.0
 49
3.25
 49
-1.25
 49
1.25
 49
-1.25
 49
1.25
 49
-1.25
  0
LTYPE
  2
PHANTOM2
 70
    64
  3
--------  -  -  --------  -  -  
 72
    65
 73
     6
 40
20.0
 49
10.0
 49
-2.5
 49
1.25
 49
-2.5
 49
1.25
 49
-2.5
  0
LTYPE
  2
DOT
 70
    64
  3
-   -   -   -   -   -   -   -   
 72
    65
 73
     2
 40
2.5
 49
0.625
 49
-1.875
  0
LTYPE
  2
DUMMY
 70
    64
  3
ダミー
 72
    65
 73
     0
 40
0.0
  0
LTYPE
  2
RAND1
 70
    64
  3
ランダム線1
 72
    65
 73
     4
 40
10.0
 49
1.0
 49
-2.0
 49
3.0
 49
-4.0
  0
LTYPE
  2
RAND2
 70
    64
  3
ランダム線2
 72
    65
 73
     4
 40
14.0
 49
2.0
 49
-3.0
 49
4.0
 49
-5.0
  0
LTYPE
  2
RAND3
 70
    64
  3
ランダム線3
 72
    65
 73
     4
 40
18.0
 49
3.0
 49
-4.0
 49
5.0
 49
-6.0
  0
LTYPE
  2
RAND4
 70
    64
  3
ランダム線4
 72
    65
 73
     4
 40
22.0
 49
4.0
 49
-5.0
 49
6.0
 49
-7.0
  0
LTYPE
  2
RAND5
 70
    64
  3
ランダム線5
 72
    65
 73
     4
 40
26.0
 49
5.0
 49
-6.0
 49
7.0
 49
-8.0
  0
LTYPE
  2
LONG1
 70
    64
  3
----------  --  ----------  --  
 72
    65
 73
     4
 40
40.0
 49
32.5
 49
-2.5
 49
2.5
 49
-2.5
  0
LTYPE
  2
LONG2
 70
    64
  3
--------  -  -  --------  -  -  
 72
    65
 73
     6
 40
40.0
 49
30.0
 49
-2.5
 49
1.25
 49
-2.5
 49
1.25
 49
-2.5
  0
LTYPE
  2
LONG3
 70
    64
  3
+++++++++++++++..+++++++++++++++
 72
    65
 73
     2
 40
40.0
 49
37.5
 49
-2.5
  0
LTYPE
  2
LONG4
 70
    64
  3
+++++++++++++++..+++++++++++++++
 72
    65
 73
     2
 40
80.0
 49
75.0
 49
-5.0
  0
LTYPE
  2
LONG5
 70
    64
  3
----------  --  ----------  --  
 72
    65
 73
     4
 40
60.0
 49
37.5
 49
-7.5
 49
7.5
 49
-7.5
  0
LTYPE
  2
dashed
 70
   64
  3
-------   -------------   ------
 72
   65
 73
    2
 40
7.5
 49
6
 49
-1.5
  0
LTYPE
  2
dashed_spaced
 70
   64
  3
----        --------        ----
 72
   65
 73
    2
 40
12
 49
6
 49
-6
  0
LTYPE
  2
long_dashed_dotted
 70
   64
  3
------------- --- --------------
 72
   65
 73
    4
 40
15.25
 49
12
 49
-1.5
 49
0.25
 49
-1.5
  0
LTYPE
  2
long_dashed_double-dotted
 70
   64
  3
----------- --- --- ------------
 72
   65
 73
    6
 40
17
 49
12
 49
-1.5
 49
0.25
 49
-1.5
 49
0.25
 49
-1.5
  0
LTYPE
  2
long_dashed_triplicate-dotted
 70
   64
  3
--------- --- --- --- ----------
 72
   65
 73
    8
 40
18.75
 49
12
 49
-1.5
 49
0.25
 49
-1.5
 49
0.25
 49
-1.5
 49
0.25
 49
-1.5
  0
LTYPE
  2
dotted
 70
   64
  3
   -       -       -       -    
 72
   65
 73
    2
 40
1.75
 49
0.25
 49
-1.5
  0
LTYPE
  2
chain
 70
   64
  3
-------------- -- --------------
 72
   65
 73
    4
 40
18.5
 49
12
 49
-1.5
 49
3.5
 49
-1.5
  0
LTYPE
  2
chain_double_dash
 70
   64
  3
------------ -- -- -------------
 72
   65
 73
    6
 40
23.5
 49
12
 49
-1.5
 49
3.5
 49
-1.5
 49
3.5
 49
-1.5
  0
LTYPE
  2
dashed_dotted
 70
   64
  3
-----------     -     ----------
 72
   65
 73
    4
 40
9.25
 49
6
 49
-1.5
 49
0.25
 49
-1.5
  0
LTYPE
  2
double-dashed_dotted
 70
   64
  3
------   -----------   -   -----
 72
   65
 73
    6
 40
16.75
 49
6
 49
-1.5
 49
6
 49
-1.5
 49
0.25
 49
-1.5
  0
LTYPE
  2
dashed_double-dotted
 70
   64
  3
---------    -    -    ---------
 72
   65
 73
    6
 40
11
 49
6
 49
-1.5
 49
0.25
 49
-1.5
 49
0.25
 49
-1.5
  0
LTYPE
  2
double-dashed_double-dotted
 70
   64
  3
-----   ---------   -   -   ----
 72
   65
 73
    8
 40
18.5
 49
6
 49
-1.5
 49
6
 49
-1.5
 49
0.25
 49
-1.5
 49
0.25
 49
-1.5
  0
LTYPE
  2
dashed_triplicate-dotted
 70
   64
  3
-------    -    -    -    ------
 72
   65
 73
    8
 40
12.75
 49
6
 49
-1.5
 49
0.25
 49
-1.5
 49
0.25
 49
-1.5
 49
0.25
 49
-1.5
  0
LTYPE
  2
double-dashed_triplicate-dotted
 70
   64
  3
-----  ---------  -  -  -  -----
 72
   65
 73
   10
 40
20.25
 49
6
 49
-1.5
 49
6
 49
-1.5
 49
0.25
 49
-1.5
 49
0.25
 49
-1.5
 49
0.25
 49
-1.5
  0
LTYPE
  2
undefined
 70
   64
  3
--------------------------------
 72
   65
 73
    0
 40
0
  0
ENDTAB
  0
TABLE
  2
STYLE
  5
3
100
AcDbSymbolTable
 70
     1
  0
STYLE
  5
10
100
AcDbSymbolTableRecord
100
AcDbTextStyleTableRecord
  2
STANDARD
 70
     0
 40
0.0
 41
1.0
 50
0.0
 71
     0
 42
0.2
  3
txt
  4
bigfont.shx
  0
STYLE
  5
26
100
AcDbSymbolTableRecord
100
AcDbTextStyleTableRecord
  2
TATEGAKI
 70
    68
 40
0.0
 41
1.0
 50
0.0
 71
     0
 42
1.0
  3
txt
  4
bigfont.shx
  0
ENDTAB
  0
TABLE
  2
LAYER
 70
    2
  0
LAYER
  2
_0-0_0
 70
   64
 62
    7
  6
CONTINUOUS
  0
LAYER
  2
ADD_LINE
 70
   64
 62
    7
  6
CONTINUOUS
  0
ENDTAB
  0
ENDSEC
  0
SECTION
  2
BLOCKS
  0
ENDSEC
  0
SECTION
  2
ENTITIES
  0
POINT
  8
_0-0_0
 62
    7
 10
244.50247199999998
 20
415.77499399999999
  0
LINE
  8
_0-0_0
  6
CONTINUOUS
 62
    7
 10
137.50247200000001
 20
456.77548200000001
 11
137.50247200000001
 21
456.77450599999997
  0
LINE
  8
_0-0_0
  6
CONTINUOUS
 62
    7
 10
164.00247200000001
 20
422.43002300000001
 11
164.00247200000001
 21
424.67501799999997
  0
LINE
  8
_0-0_0
  6
CONTINUOUS
 62
    7
 10
164.00247200000001
 20
424.67501799999997
 11
164.00247200000001
 21
426.67501799999997
  0
LINE
  8
_0-0_0
  6
CONTINUOUS
 62
    7
 10
164.00247200000001
 20
426.67501799999997
 11
164.00247200000001
 21
427.17501799999997
  0
LINE
  8
_0-0_0
  6
CONTINUOUS
 62
    7
 10
164.00247200000001
 20
427.17501799999997
 11
164.00247200000001
 21
428.17501799999997
  0
LINE
  8
_0-0_0
  6
CONTINUOUS
 62
    7
 10
164.00247200000001
 20
404.07498199999998
 11
164.00247200000001
 21
422.43002300000001
  0
LINE
  8
_0-0_0
  6
CONTINUOUS
 62
    7
 10
260.50247200000001
 20
426.17501799999997
 11
260.50247200000001
 21
426.67501799999997
  0
LINE
  8
_0-0_0
  6
CONTINUOUS
 62
    7
 10
260.50247200000001
 20
427.17501799999997
 11
260.50247200000001
 21
428.17501799999997
  0
LINE
  8
_0-0_0
  6
CONTINUOUS
 62
    7
 10
260.50247200000001
 20
426.67501799999997
 11
260.50247200000001
 21
427.17501799999997
  0
ARC
  8
_0-0_0
  6
CONTINUOUS
 62
    7
 10
246.50247199999998
 20
422.43002300000001
 40
0.5
 50
0
 51
123.74898500000002
  0
ARC
  8
_0-0_0
  6
CONTINUOUS
 62
    7
 10
245.00247199999998
 20
424.67501799999997
 40
2.2000000000000002
 50
180.00000900000003
 51
303.74900400000001
  0
LINE
  8
_0-0_0
  6
CONTINUOUS
 62
    7
 10
242.80248999999998
 20
424.67501799999997
 11
242.80248999999998
 21
426.17501799999997
  0
LINE
  8
_0-0_0
  6
CONTINUOUS
 62
    7
 10
168.202484
 20
426.17501799999997
 11
242.80248999999998
 21
426.17501799999997
  0
LINE
  8
_0-0_0
  6
CONTINUOUS
 62
    7
 10
168.202484
 20
426.17501799999997
 11
168.202484
 21
424.67501799999997
  0
ARC
  8
_0-0_0
  6
CONTINUOUS
 62
    7
 10
166.00247199999998
 20
424.67501799999997
 40
2.2000000000000002
 50
236.25102899999999
 51
0
  0
ARC
  8
_0-0_0
  6
CONTINUOUS
 62
    7
 10
164.50247199999998
 20
422.43002300000001
 40
0.5
 50
56.251010000000008
 51
180.00000900000001
  0
ARC
  8
_0-0_0
  6
CONTINUOUS
 62
    7
 10
166.00247199999998
 20
404.07498199999998
 40
2
 50
180.00000900000003
 51
269.99999700000001
  0
LINE
  8
_0-0_0
  6
CONTINUOUS
 62
    7
 10
166.00247199999998
 20
402.07498199999998
 11
167.00247199999998
 21
402.07498199999998
  0
LINE
  8
_0-0_0
  6
CONTINUOUS
 62
    7
 10
167.00247199999998
 20
402.07498199999998
 11
167.00247199999998
 21
403.67501799999997
  0
ARC
  8
_0-0_0
  6
CONTINUOUS
 62
    7
 10
167.50247199999998
 20
403.67501799999997
 40
0.5
 50
90.000003000000007
 51
180.00000900000001
  0
LINE
  8
_0-0_0
  6
CONTINUOUS
 62
    7
 10
167.702484
 20
404.17501799999997
 11
167.50247199999998
 21
404.17501799999997
  0
ARC
  8
_0-0_0
  6
CONTINUOUS
 62
    7
 10
167.702484
 20
403.67501799999997
 40
0.5
 50
90.000003000000007
 51
180.00000900000001
  0
LINE
  8
_0-0_0
  6
CONTINUOUS
 62
    7
 10
167.202484
 20
402.17501799999997
 11
167.202484
 21
403.67501799999997
  0
LINE
  8
_0-0_0
  6
CONTINUOUS
 62
    7
 10
236.80248999999998
 20
402.17501799999997
 11
167.202484
 21
402.17501799999997
  0
LINE
  8
_0-0_0
  6
CONTINUOUS
 62
    7
 10
236.80248999999998
 20
402.17501799999997
 11
236.80248999999998
 21
403.67501799999997
  0
ARC
  8
_0-0_0
  6
CONTINUOUS
 62
    7
 10
236.30248999999998
 20
403.67501799999997
 40
0.5
 50
0
 51
90.000003000000007
  0
LINE
  8
_0-0_0
  6
CONTINUOUS
 62
    7
 10
236.50247199999998
 20
404.17501799999997
 11
236.30248999999998
 21
404.17501799999997
  0
ARC
  8
_0-0_0
  6
CONTINUOUS
 62
    7
 10
236.50247199999998
 20
403.67501799999997
 40
0.5
 50
0
 51
90.000003000000007
  0
LINE
  8
_0-0_0
  6
CONTINUOUS
 62
    7
 10
237.00247199999998
 20
403.67501799999997
 11
237.00247199999998
 21
402.07498199999998
  0
LINE
  8
_0-0_0
  6
CONTINUOUS
 62
    7
 10
237.00247199999998
 20
402.07498199999998
 11
247.00247199999998
 21
402.07498199999998
  0
LINE
  8
_0-0_0
  6
CONTINUOUS
 62
    7
 10
247.00247199999998
 20
402.07498199999998
 11
247.00247199999998
 21
402.97500600000001
  0
LINE
  8
_0-0_0
  6
CONTINUOUS
 62
    7
 10
183.00247199999998
 20
405.579071
 11
224.40246599999998
 21
405.579071
  0
LINE
  8
_0-0_0
  6
CONTINUOUS
 62
    7
 10
183.00247199999998
 20
425.17501799999997
 11
224.40246599999998
 21
425.17501799999997
  0
ARC
  8
_0-0_0
  6
CONTINUOUS
 62
    7
 10
235.702484
 20
404.37497000000002
 40
0.2
 50
180.00000900000003
 51
269.99999700000001
  0
LINE
  8
_0-0_0
  6
CONTINUOUS
 62
    7
 10
235.702484
 20
404.17501799999997
 11
168.30247499999999
 21
404.17501799999997
  0
ARC
  8
_0-0_0
  6
CONTINUOUS
 62
    7
 10
168.30247499999999
 20
404.37497000000002
 40
0.2
 50
269.99999700000001
 51
0
  0
ARC
  8
_0-0_0
  6
CONTINUOUS
 62
    7
 10
168.702484
 20
404.37497000000002
 40
0.2
 50
90.000003000000007
 51
180.00000900000001
  0
LINE
  8
_0-0_0
  6
CONTINUOUS
 62
    7
 10
168.702484
 20
404.57498199999998
 11
235.30248999999998
 21
404.57498199999998
  0
ARC
  8
_0-0_0
  6
CONTINUOUS
 62
    7
 10
235.30248999999998
 20
404.37497000000002
 40
0.2
 50
0
 51
90.000003000000007
  0
LINE
  8
_0-0_0
  6
CONTINUOUS
 62
    7
 10
164.00247200000001
 20
427.17501799999997
 11
260.50247200000001
 21
427.17501799999997
  0
LINE
  8
_0-0_0
  6
CONTINUOUS
 62
    7
 10
260.00247200000001
 20
426.17501799999997
 11
260.50247200000001
 21
426.17501799999997
  0
LINE
  8
_0-0_0
  6
CONTINUOUS
 62
    7
 10
247.00247199999998
 20
404.17501799999997
 11
247.00247199999998
 21
402.97500600000001
  0
LINE
  8
_0-0_0
  6
CONTINUOUS
 62
    7
 10
247.00247199999998
 20
404.17501799999997
 11
247.00247199999998
 21
421.77499399999999
  0
LINE
  8
_0-0_0
  6
CONTINUOUS
 62
    7
 10
247.00247199999998
 20
423.75234999999998
 11
247.00247199999998
 21
421.77499399999999
  0
LINE
  8
_0-0_0
  6
CONTINUOUS
 62
    7
 10
166.00247199999998
 20
410.66470299999997
 11
166.00247199999998
 21
421.11270200000001
  0
ARC
  8
_0-0_0
  6
CONTINUOUS
 62
    7
 10
166.00247199999998
 20
424.67501799999997
 40
2.7000000000000002
 50
285.68033600000007
 51
352.23356600000005
  0
LINE
  8
_0-0_0
  6
CONTINUOUS
 62
    7
 10
243.00247199999998
 20
422.17501799999997
 11
243.00247199999998
 21
408.57498199999998
  0
LINE
  8
_0-0_0
  6
CONTINUOUS
 62
    7
 10
168.00247199999998
 20
426.17501799999997
 11
168.202484
 21
426.17501799999997
  0
LINE
  8
_0-0_0
  6
CONTINUOUS
 62
    7
 10
168.00247199999998
 20
426.17501799999997
 11
168.00247199999998
 21
424.67501799999997
  0
ARC
  8
_0-0_0
  6
CONTINUOUS
 62
    7
 10
166.00247199999998
 20
424.67501799999997
 40
2
 50
180.00000900000003
 51
0.0000000000000254
  0
LINE
  8
_0-0_0
  6
CONTINUOUS
 62
    7
 10
260.00247200000001
 20
426.17501799999997
 11
260.00247200000001
 21
424.47500600000001
  0
LINE
  8
_0-0_0
  6
CONTINUOUS
 62
    7
 10
247.00247199999998
 20
402.17501799999997
 11
259.00247200000001
 21
402.17501799999997
  0
LINE
  8
_0-0_0
  6
CONTINUOUS
 62
    7
 10
259.00247200000001
 20
402.17501799999997
 11
263.67791699999998
 21
402.17501799999997
  0
LINE
  8
_0-0_0
  6
CONTINUOUS
 62
    7
 10
259.00247200000001
 20
407.67501799999997
 11
259.00247200000001
 21
404.67501799999997
  0
LINE
  8
_0-0_0
  6
CONTINUOUS
 62
    7
 10
259.00247200000001
 20
404.67501799999997
 11
259.00247200000001
 21
404.17501799999997
  0
LINE
  8
_0-0_0
  6
CONTINUOUS
 62
    7
 10
259.00247200000001
 20
407.67501799999997
 11
259.00247200000001
 21
408.17501799999997
  0
ARC
  8
_0-0_0
  6
CONTINUOUS
 62
    7
 10
253.00247199999998
 20
407.47500600000001
 40
0.500016
 50
180.00117
 51
359.995611
  0
LINE
  8
_0-0_0
  6
CONTINUOUS
 62
    7
 10
253.50247199999998
 20
407.47500600000001
 11
253.50247199999998
 21
419.47500600000001
  0
ARC
  8
_0-0_0
  6
CONTINUOUS
 62
    7
 10
253.00247199999998
 20
419.47500600000001
 40
0.500016
 50
0.001164
 51
179.99560600000004
  0
LINE
  8
_0-0_0
  6
CONTINUOUS
 62
    7
 10
252.50247199999998
 20
407.47500600000001
 11
252.50247199999998
 21
419.47500600000001
  0
ARC
  8
_0-0_0
  6
CONTINUOUS
 62
    7
 10
254.50247199999998
 20
407.47500600000001
 40
0.500016
 50
180.00117
 51
359.995611
  0
LINE
  8
_0-0_0
  6
CONTINUOUS
 62
    7
 10
255.00247199999998
 20
407.47500600000001
 11
255.00247199999998
 21
419.47500600000001
  0
ARC
  8
_0-0_0
  6
CONTINUOUS
 62
    7
 10
254.50247199999998
 20
419.47500600000001
 40
0.500016
 50
0.001164
 51
179.99560600000004
  0
LINE
  8
_0-0_0
  6
CONTINUOUS
 62
    7
 10
254.00247199999998
 20
407.47500600000001
 11
254.00247199999998
 21
419.47500600000001
  0
ARC
  8
_0-0_0
  6
CONTINUOUS
 62
    7
 10
256.00247200000001
 20
407.47500600000001
 40
0.500016
 50
180.00117
 51
359.995611
  0
LINE
  8
_0-0_0
  6
CONTINUOUS
 62
    7
 10
256.50247200000001
 20
407.47500600000001
 11
256.50247200000001
 21
419.47500600000001
  0
ARC
  8
_0-0_0
  6
CONTINUOUS
 62
    7
 10
256.00247200000001
 20
419.47500600000001
 40
0.500016
 50
0.001164
 51
179.99560600000004
  0
LINE
  8
_0-0_0
  6
CONTINUOUS
 62
    7
 10
255.50247199999998
 20
407.47500600000001
 11
255.50247199999998
 21
419.47500600000001
  0
ARC
  8
_0-0_0
  6
CONTINUOUS
 62
    7
 10
257.50247200000001
 20
407.47500600000001
 40
0.500016
 50
180.00117
 51
359.995611
  0
LINE
  8
_0-0_0
  6
CONTINUOUS
 62
    7
 10
258.00247200000001
 20
407.47500600000001
 11
258.00247200000001
 21
419.47500600000001
  0
ARC
  8
_0-0_0
  6
CONTINUOUS
 62
    7
 10
257.50247200000001
 20
419.47500600000001
 40
0.500016
 50
0.001164
 51
179.99560600000004
  0
LINE
  8
_0-0_0
  6
CONTINUOUS
 62
    7
 10
257.00247200000001
 20
407.47500600000001
 11
257.00247200000001
 21
419.47500600000001
  0
LINE
  8
_0-0_0
  6
CONTINUOUS
 62
    7
 10
247.00247199999998
 20
424.47500600000001
 11
247.00247199999998
 21
423.75234999999998
  0
LINE
  8
_0-0_0
  6
CONTINUOUS
 62
    7
 10
260.00247200000001
 20
424.47500600000001
 11
247.00247199999998
 21
424.47500600000001
  0
LINE
  8
_0-0_0
  6
CONTINUOUS
 62
    7
 10
247.00247199999998
 20
426.17501799999997
 11
260.00247200000001
 21
426.17501799999997
  0
LINE
  8
_0-0_0
  6
CONTINUOUS
 62
    7
 10
247.00247199999998
 20
426.17501799999997
 11
247.00247199999998
 21
424.47500600000001
  0
LINE
  8
_0-0_0
  6
CONTINUOUS
 62
    7
 10
236.452484
 20
404.15194700000001
 11
236.452484
 21
404.17501799999997
  0
ARC
  8
_0-0_0
  6
CONTINUOUS
 62
    7
 10
263.67791699999998
 20
404.17501799999997
 40
2
 50
269.99999700000001
 51
288.43501300000003
  0
LINE
  8
_0-0_0
  6
CONTINUOUS
 62
    7
 10
242.80248999999998
 20
426.17501799999997
 11
243.00247199999998
 21
426.17501799999997
  0
ARC
  8
_0-0_0
  6
CONTINUOUS
 62
    7
 10
245.00247199999998
 20
424.67501799999997
 40
2
 50
180.00000900000003
 51
0.0000000000000254
  0
LINE
  8
_0-0_0
  6
CONTINUOUS
 62
    7
 10
243.00247199999998
 20
424.67501799999997
 11
243.00247199999998
 21
426.17501799999997
  0
LINE
  8
_0-0_0
  6
CONTINUOUS
 62
    7
 10
264.75247200000001
 20
402.42501799999997
 11
264.31036399999999
 21
402.27761900000002
  0
ARC
  8
_0-0_0
  6
CONTINUOUS
 62
    7
 10
234.00247199999998
 20
417.77499399999999
 40
2.25
 50
269.99999700000001
 51
90.000002999999992
  0
LINE
  8
_0-0_0
  6
CONTINUOUS
 62
    7
 10
230.00247199999998
 20
415.52499399999999
 11
234.00247199999998
 21
415.52499399999999
  0
ARC
  8
_0-0_0
  6
CONTINUOUS
 62
    7
 10
230.00247199999998
 20
417.77499399999999
 40
2.25
 50
90.000003000000007
 51
269.99999700000006
  0
ARC
  8
_0-0_0
  6
CONTINUOUS
 62
    7
 10
178.00247199999998
 20
417.77499399999999
 40
2.25
 50
269.99999700000001
 51
90.000002999999992
  0
LINE
  8
_0-0_0
  6
CONTINUOUS
 62
    7
 10
174.00247199999998
 20
415.52499399999999
 11
178.00247199999998
 21
415.52499399999999
  0
ARC
  8
_0-0_0
  6
CONTINUOUS
 62
    7
 10
174.00247199999998
 20
417.77499399999999
 40
2.25
 50
90.000003000000007
 51
269.99999700000006
  0
LINE
  8
_0-0_0
  6
CONTINUOUS
 62
    7
 10
230.00247199999998
 20
420.02499399999999
 11
234.00247199999998
 21
420.02499399999999
  0
LINE
  8
_0-0_0
  6
CONTINUOUS
 62
    7
 10
174.00247199999998
 20
420.02499399999999
 11
178.00247199999998
 21
420.02499399999999
  0
LINE
  8
_0-0_0
  6
CONTINUOUS
 62
    7
 10
236.24307199999998
 20
413.77499399999999
 11
227.76187099999999
 21
413.77499399999999
  0
LINE
  8
_0-0_0
  6
CONTINUOUS
 62
    7
 10
236.24307199999998
 20
413.77499399999999
 11
238.55248999999998
 21
417.77499399999999
  0
LINE
  8
_0-0_0
  6
CONTINUOUS
 62
    7
 10
238.55248999999998
 20
417.77499399999999
 11
236.24307199999998
 21
421.77499399999999
  0
LINE
  8
_0-0_0
  6
CONTINUOUS
 62
    7
 10
227.76187099999999
 20
421.77499399999999
 11
236.24307199999998
 21
421.77499399999999
  0
LINE
  8
_0-0_0
  6
CONTINUOUS
 62
    7
 10
225.45246899999998
 20
417.77499399999999
 11
227.76187099999999
 21
421.77499399999999
  0
LINE
  8
_0-0_0
  6
CONTINUOUS
 62
    7
 10
227.76187099999999
 20
413.77499399999999
 11
225.45246899999998
 21
417.77499399999999
  0
LINE
  8
_0-0_0
  6
CONTINUOUS
 62
    7
 10
180.24307199999998
 20
413.77499399999999
 11
171.76187099999999
 21
413.77499399999999
  0
LINE
  8
_0-0_0
  6
CONTINUOUS
 62
    7
 10
182.55247499999999
 20
417.77499399999999
 11
180.24307199999998
 21
413.77499399999999
  0
LINE
  8
_0-0_0
  6
CONTINUOUS
 62
    7
 10
182.55247499999999
 20
417.77499399999999
 11
180.24307199999998
 21
421.77499399999999
  0
LINE
  8
_0-0_0
  6
CONTINUOUS
 62
    7
 10
171.76187099999999
 20
421.77499399999999
 11
180.24307199999998
 21
421.77499399999999
  0
LINE
  8
_0-0_0
  6
CONTINUOUS
 62
    7
 10
169.452484
 20
417.77499399999999
 11
171.76187099999999
 21
421.77499399999999
  0
LINE
  8
_0-0_0
  6
CONTINUOUS
 62
    7
 10
169.452484
 20
417.77499399999999
 11
171.76187099999999
 21
413.77499399999999
  0
CIRCLE
  8
_0-0_0
  6
CONTINUOUS
 62
    7
 10
245.00247199999998
 20
424.67501799999997
 40
1.4750000000000001
  0
CIRCLE
  8
_0-0_0
  6
CONTINUOUS
 62
    7
 10
166.00247199999998
 20
424.67501799999997
 40
1.4750000000000001
  0
LINE
  8
_0-0_0
  6
CONTINUOUS
 62
    7
 10
245.452484
 20
424.47500600000001
 11
246.10247799999999
 21
424.47500600000001
  0
ARC
  8
_0-0_0
  6
CONTINUOUS
 62
    7
 10
245.452484
 20
424.22500600000001
 40
0.25
 50
90.000003000000007
 51
180.00000900000001
  0
LINE
  8
_0-0_0
  6
CONTINUOUS
 62
    7
 10
245.202484
 20
424.22500600000001
 11
245.202484
 21
423.57498199999998
  0
LINE
  8
_0-0_0
  6
CONTINUOUS
 62
    7
 10
244.80248999999998
 20
423.57498199999998
 11
245.202484
 21
423.57498199999998
  0
LINE
  8
_0-0_0
  6
CONTINUOUS
 62
    7
 10
244.80248999999998
 20
423.57498199999998
 11
244.80248999999998
 21
424.22500600000001
  0
ARC
  8
_0-0_0
  6
CONTINUOUS
 62
    7
 10
244.55248999999998
 20
424.22500600000001
 40
0.25
 50
0
 51
90.000003000000007
  0
LINE
  8
_0-0_0
  6
CONTINUOUS
 62
    7
 10
243.90246599999998
 20
424.47500600000001
 11
244.55248999999998
 21
424.47500600000001
  0
LINE
  8
_0-0_0
  6
CONTINUOUS
 62
    7
 10
243.90246599999998
 20
424.47500600000001
 11
243.90246599999998
 21
424.87503099999998
  0
LINE
  8
_0-0_0
  6
CONTINUOUS
 62
    7
 10
244.55248999999998
 20
424.87503099999998
 11
243.90246599999998
 21
424.87503099999998
  0
ARC
  8
_0-0_0
  6
CONTINUOUS
 62
    7
 10
244.55248999999998
 20
425.12503099999998
 40
0.25
 50
269.99999700000001
 51
0
  0
LINE
  8
_0-0_0
  6
CONTINUOUS
 62
    7
 10
244.80248999999998
 20
425.12503099999998
 11
244.80248999999998
 21
425.77499399999999
  0
LINE
  8
_0-0_0
  6
CONTINUOUS
 62
    7
 10
245.202484
 20
425.77499399999999
 11
244.80248999999998
 21
425.77499399999999
  0
LINE
  8
_0-0_0
  6
CONTINUOUS
 62
    7
 10
245.202484
 20
425.77499399999999
 11
245.202484
 21
425.12503099999998
  0
ARC
  8
_0-0_0
  6
CONTINUOUS
 62
    7
 10
245.452484
 20
425.12503099999998
 40
0.25
 50
180.00000900000003
 51
269.99999700000001
  0
LINE
  8
_0-0_0
  6
CONTINUOUS
 62
    7
 10
246.10247799999999
 20
424.87503099999998
 11
245.452484
 21
424.87503099999998
  0
LINE
  8
_0-0_0
  6
CONTINUOUS
 62
    7
 10
246.10247799999999
 20
424.87503099999998
 11
246.10247799999999
 21
424.47500600000001
  0
LINE
  8
_0-0_0
  6
CONTINUOUS
 62
    7
 10
166.452484
 20
424.47500600000001
 11
167.10247799999999
 21
424.47500600000001
  0
ARC
  8
_0-0_0
  6
CONTINUOUS
 62
    7
 10
166.452484
 20
424.22500600000001
 40
0.25
 50
90.000003000000007
 51
180.00000900000001
  0
LINE
  8
_0-0_0
  6
CONTINUOUS
 62
    7
 10
166.202484
 20
424.22500600000001
 11
166.202484
 21
423.57498199999998
  0
LINE
  8
_0-0_0
  6
CONTINUOUS
 62
    7
 10
165.80247499999999
 20
423.57498199999998
 11
166.202484
 21
423.57498199999998
  0
LINE
  8
_0-0_0
  6
CONTINUOUS
 62
    7
 10
165.80247499999999
 20
423.57498199999998
 11
165.80247499999999
 21
424.22500600000001
  0
ARC
  8
_0-0_0
  6
CONTINUOUS
 62
    7
 10
165.55247499999999
 20
424.22500600000001
 40
0.25
 50
0
 51
90.000003000000007
  0
LINE
  8
_0-0_0
  6
CONTINUOUS
 62
    7
 10
164.90246599999998
 20
424.47500600000001
 11
165.55247499999999
 21
424.47500600000001
  0
LINE
  8
_0-0_0
  6
CONTINUOUS
 62
    7
 10
164.90246599999998
 20
424.47500600000001
 11
164.90246599999998
 21
424.87503099999998
  0
LINE
  8
_0-0_0
  6
CONTINUOUS
 62
    7
 10
165.55247499999999
 20
424.87503099999998
 11
164.90246599999998
 21
424.87503099999998
  0
ARC
  8
_0-0_0
  6
CONTINUOUS
 62
    7
 10
165.55247499999999
 20
425.12503099999998
 40
0.25
 50
269.99999700000001
 51
0
  0
LINE
  8
_0-0_0
  6
CONTINUOUS
 62
    7
 10
165.80247499999999
 20
425.12503099999998
 11
165.80247499999999
 21
425.77499399999999
  0
LINE
  8
_0-0_0
  6
CONTINUOUS
 62
    7
 10
166.202484
 20
425.77499399999999
 11
165.80247499999999
 21
425.77499399999999
  0
LINE
  8
_0-0_0
  6
CONTINUOUS
 62
    7
 10
166.202484
 20
425.77499399999999
 11
166.202484
 21
425.12503099999998
  0
ARC
  8
_0-0_0
  6
CONTINUOUS
 62
    7
 10
166.452484
 20
425.12503099999998
 40
0.25
 50
180.00000900000003
 51
269.99999700000001
  0
LINE
  8
_0-0_0
  6
CONTINUOUS
 62
    7
 10
167.10247799999999
 20
424.87503099999998
 11
166.452484
 21
424.87503099999998
  0
LINE
  8
_0-0_0
  6
CONTINUOUS
 62
    7
 10
167.10247799999999
 20
424.87503099999998
 11
167.10247799999999
 21
424.47500600000001
  0
LINE
  8
_0-0_0
  6
CONTINUOUS
 62
    7
 10
167.55247499999999
 20
404.15194700000001
 11
167.55247499999999
 21
404.17501799999997
  0
LINE
  8
_0-0_0
  6
CONTINUOUS
 62
    7
 10
186.00247199999998
 20
422.17501799999997
 11
186.00247199999998
 21
409.21798699999999
  0
ARC
  8
_0-0_0
  6
CONTINUOUS
 62
    7
 10
183.00247199999998
 20
422.17501799999997
 40
3
 50
0
 51
90.000003000000007
  0
LINE
  8
_0-0_0
  6
CONTINUOUS
 62
    7
 10
222.00247199999998
 20
408.57498199999998
 11
222.00247199999998
 21
422.17501799999997
  0
LINE
  8
_0-0_0
  6
CONTINUOUS
 62
    7
 10
205.48996
 20
418.34463499999998
 11
204.18995699999999
 21
421.84463499999998
  0
ARC
  8
_0-0_0
  6
CONTINUOUS
 62
    7
 10
202.702484
 20
418.27499399999999
 40
0.2
 50
159.62357
 51
269.99999700000001
  0
LINE
  8
_0-0_0
  6
CONTINUOUS
 62
    7
 10
247.00247199999998
 20
423.77499399999999
 11
263.67791699999998
 21
423.77499399999999
  0
ARC
  8
_0-0_0
  6
CONTINUOUS
 62
    7
 10
263.67791699999998
 20
421.77499399999999
 40
2
 50
71.565000999999995
 51
90.000003000000007
  0
LINE
  8
_0-0_0
  6
CONTINUOUS
 62
    7
 10
264.31039399999997
 20
423.672394
 11
264.19088699999998
 21
423.70797699999997
  0
LINE
  8
_0-0_0
  6
CONTINUOUS
 62
    7
 10
264.19088699999998
 20
423.70797699999997
 11
264.06933600000002
 21
423.73586999999998
  0
LINE
  8
_0-0_0
  6
CONTINUOUS
 62
    7
 10
264.06933600000002
 20
423.73586999999998
 11
263.94619699999998
 21
423.75588999999997
  0
LINE
  8
_0-0_0
  6
CONTINUOUS
 62
    7
 10
263.94619699999998
 20
423.75588999999997
 11
263.82199100000003
 21
423.768036
  0
LINE
  8
_0-0_0
  6
CONTINUOUS
 62
    7
 10
263.82199100000003
 20
423.768036
 11
263.69714299999998
 21
423.77212500000002
  0
LINE
  8
_0-0_0
  6
CONTINUOUS
 62
    7
 10
263.69714299999998
 20
423.77212500000002
 11
263.67791699999998
 21
423.772064
  0
LINE
  8
_0-0_0
  6
CONTINUOUS
 62
    7
 10
268.63491799999997
 20
422.23086599999999
 11
264.31036399999999
 21
423.672394
  0
LINE
  8
_0-0_0
  6
CONTINUOUS
 62
    7
 10
268.47680700000001
 20
407.67501799999997
 11
269.17016599999999
 21
407.67501799999997
  0
LINE
  8
_0-0_0
  6
CONTINUOUS
 62
    7
 10
268.47680700000001
 20
407.67501799999997
 11
264.15225199999998
 21
407.67501799999997
  0
LINE
  8
_0-0_0
  6
CONTINUOUS
 62
    7
 10
263.67791699999998
 20
407.67501799999997
 11
264.15225199999998
 21
407.67501799999997
  0
LINE
  8
_0-0_0
  6
CONTINUOUS
 62
    7
 10
259.00247200000001
 20
407.67501799999997
 11
263.67791699999998
 21
407.67501799999997
  0
LINE
  8
_0-0_0
  6
CONTINUOUS
 62
    7
 10
270.00247200000001
 20
406.92495700000001
 11
270.00247200000001
 21
408.04599000000002
  0
LINE
  8
_0-0_0
  6
CONTINUOUS
 62
    7
 10
270.00247200000001
 20
408.96731599999998
 11
270.00247200000001
 21
408.04599000000002
  0
LINE
  8
_0-0_0
  6
CONTINUOUS
 62
    7
 10
281.00247200000001
 20
407.72500600000001
 11
281.00247200000001
 21
415.70657399999999
  0
ARC
  8
_0-0_0
  6
CONTINUOUS
 62
    7
 10
274.82858299999998
 20
416.22586100000001
 40
4.9238749999999998
 50
352.49423299999995
 51
1.5359699999999901
  0
LINE
  8
_0-0_0
  6
CONTINUOUS
 62
    7
 10
279.71029699999997
 20
410.367279
 11
279.80462599999998
 21
410.613922
  0
LINE
  8
_0-0_0
  6
CONTINUOUS
 62
    7
 10
279.80462599999998
 20
410.613922
 11
279.88857999999999
 21
410.85391199999998
  0
LINE
  8
_0-0_0
  6
CONTINUOUS
 62
    7
 10
279.88857999999999
 20
410.85391199999998
 11
279.962738
 21
411.08804299999997
  0
LINE
  8
_0-0_0
  6
CONTINUOUS
 62
    7
 10
279.962738
 20
411.08804299999997
 11
280.02761799999996
 21
411.317047
  0
LINE
  8
_0-0_0
  6
CONTINUOUS
 62
    7
 10
280.02761799999996
 20
411.317047
 11
280.08367899999996
 21
411.541718
  0
LINE
  8
_0-0_0
  6
CONTINUOUS
 62
    7
 10
280.08367899999996
 20
411.541718
 11
280.13122599999997
 21
411.76272599999999
  0
LINE
  8
_0-0_0
  6
CONTINUOUS
 62
    7
 10
280.13122599999997
 20
411.76272599999999
 11
280.17062399999998
 21
411.98062099999999
  0
LINE
  8
_0-0_0
  6
CONTINUOUS
 62
    7
 10
280.17062399999998
 20
411.98062099999999
 11
280.20211799999998
 21
412.19607600000001
  0
LINE
  8
_0-0_0
  6
CONTINUOUS
 62
    7
 10
280.20211799999998
 20
412.19607600000001
 11
280.22589099999999
 21
412.40957700000001
  0
LINE
  8
_0-0_0
  6
CONTINUOUS
 62
    7
 10
280.22589099999999
 20
412.40957700000001
 11
280.24182099999996
 21
412.61734000000001
  0
LINE
  8
_0-0_0
  6
CONTINUOUS
 62
    7
 10
280.24182099999996
 20
412.61734000000001
 11
280.25058000000001
 21
412.82418799999999
  0
LINE
  8
_0-0_0
  6
CONTINUOUS
 62
    7
 10
280.25058000000001
 20
412.82418799999999
 11
280.252228
 21
413.03060899999997
  0
LINE
  8
_0-0_0
  6
CONTINUOUS
 62
    7
 10
280.252228
 20
413.03060899999997
 11
280.24676499999998
 21
413.237213
  0
LINE
  8
_0-0_0
  6
CONTINUOUS
 62
    7
 10
280.24676499999998
 20
413.237213
 11
280.23413099999999
 21
413.44442800000002
  0
LINE
  8
_0-0_0
  6
CONTINUOUS
 62
    7
 10
280.23413099999999
 20
413.44442800000002
 11
280.21432500000003
 21
413.65267999999998
  0
LINE
  8
_0-0_0
  6
CONTINUOUS
 62
    7
 10
280.21432500000003
 20
413.65267999999998
 11
280.18719499999997
 21
413.86264
  0
LINE
  8
_0-0_0
  6
CONTINUOUS
 62
    7
 10
280.18719499999997
 20
413.86264
 11
280.15252699999996
 21
414.07467700000001
  0
LINE
  8
_0-0_0
  6
CONTINUOUS
 62
    7
 10
280.15252699999996
 20
414.07467700000001
 11
280.11019899999997
 21
414.28945899999997
  0
LINE
  8
_0-0_0
  6
CONTINUOUS
 62
    7
 10
280.11019899999997
 20
414.28945899999997
 11
280.05987499999998
 21
414.50741599999998
  0
LINE
  8
_0-0_0
  6
CONTINUOUS
 62
    7
 10
280.05987499999998
 20
414.50741599999998
 11
280.00561499999998
 21
414.71371499999998
  0
LINE
  8
_0-0_0
  6
CONTINUOUS
 62
    7
 10
280.00561499999998
 20
414.71371499999998
 11
279.94390899999996
 21
414.92385899999999
  0
LINE
  8
_0-0_0
  6
CONTINUOUS
 62
    7
 10
279.94390899999996
 20
414.92385899999999
 11
279.87438999999995
 21
415.13827499999996
  0
LINE
  8
_0-0_0
  6
CONTINUOUS
 62
    7
 10
279.87438999999995
 20
415.13827499999996
 11
279.79669200000001
 21
415.35769699999997
  0
LINE
  8
_0-0_0
  6
CONTINUOUS
 62
    7
 10
279.79669200000001
 20
415.35769699999997
 11
279.71029699999997
 21
415.582672
  0
ARC
  8
_0-0_0
  6
CONTINUOUS
 62
    7
 10
274.83874500000002
 20
409.72500600000001
 40
4.9136889999999998
 50
352.48898799999995
 51
7.5110139999999577
  0
LINE
  8
_0-0_0
  6
CONTINUOUS
 62
    7
 10
279.71029699999997
 20
409.082672
 11
279.76480099999998
 21
409.012787
  0
LINE
  8
_0-0_0
  6
CONTINUOUS
 62
    7
 10
279.76480099999998
 20
409.012787
 11
279.81588699999998
 21
408.943939
  0
LINE
  8
_0-0_0
  6
CONTINUOUS
 62
    7
 10
279.81588699999998
 20
408.943939
 11
279.86352499999998
 21
408.87643400000002
  0
LINE
  8
_0-0_0
  6
CONTINUOUS
 62
    7
 10
279.86352499999998
 20
408.87643400000002
 11
279.90801999999996
 21
408.80990600000001
  0
LINE
  8
_0-0_0
  6
CONTINUOUS
 62
    7
 10
279.90801999999996
 20
408.80990600000001
 11
279.962738
 21
408.72232099999997
  0
LINE
  8
_0-0_0
  6
CONTINUOUS
 62
    7
 10
279.962738
 20
408.72232099999997
 11
280.01226799999995
 21
408.63626099999999
  0
LINE
  8
_0-0_0
  6
CONTINUOUS
 62
    7
 10
280.01226799999995
 20
408.63626099999999
 11
280.05673200000001
 21
408.551422
  0
LINE
  8
_0-0_0
  6
CONTINUOUS
 62
    7
 10
280.05673200000001
 20
408.551422
 11
280.10369900000001
 21
408.45107999999999
  0
LINE
  8
_0-0_0
  6
CONTINUOUS
 62
    7
 10
280.10369900000001
 20
408.45107999999999
 11
280.14389
 21
408.35214200000001
  0
LINE
  8
_0-0_0
  6
CONTINUOUS
 62
    7
 10
280.14389
 20
408.35214200000001
 11
280.17755099999999
 21
408.25442499999997
  0
LINE
  8
_0-0_0
  6
CONTINUOUS
 62
    7
 10
280.17755099999999
 20
408.25442499999997
 11
280.20486399999999
 21
408.157623
  0
LINE
  8
_0-0_0
  6
CONTINUOUS
 62
    7
 10
280.20486399999999
 20
408.157623
 11
280.22589099999999
 21
408.061554
  0
LINE
  8
_0-0_0
  6
CONTINUOUS
 62
    7
 10
280.22589099999999
 20
408.061554
 11
280.24182099999996
 21
407.957672
  0
LINE
  8
_0-0_0
  6
CONTINUOUS
 62
    7
 10
280.24182099999996
 20
407.957672
 11
280.25058000000001
 21
407.85427900000002
  0
LINE
  8
_0-0_0
  6
CONTINUOUS
 62
    7
 10
280.25058000000001
 20
407.85427900000002
 11
280.252228
 21
407.75100700000002
  0
LINE
  8
_0-0_0
  6
CONTINUOUS
 62
    7
 10
280.252228
 20
407.75100700000002
 11
280.24676499999998
 21
407.64773600000001
  0
LINE
  8
_0-0_0
  6
CONTINUOUS
 62
    7
 10
280.24676499999998
 20
407.64773600000001
 11
280.23413099999999
 21
407.54415899999998
  0
LINE
  8
_0-0_0
  6
CONTINUOUS
 62
    7
 10
280.23413099999999
 20
407.54415899999998
 11
280.21432500000003
 21
407.43997200000001
  0
LINE
  8
_0-0_0
  6
CONTINUOUS
 62
    7
 10
280.21432500000003
 20
407.43997200000001
 11
280.18719499999997
 21
407.33505300000002
  0
LINE
  8
_0-0_0
  6
CONTINUOUS
 62
    7
 10
280.18719499999997
 20
407.33505300000002
 11
280.15252699999996
 21
407.22903500000001
  0
LINE
  8
_0-0_0
  6
CONTINUOUS
 62
    7
 10
280.15252699999996
 20
407.22903500000001
 11
280.11019899999997
 21
407.12161299999997
  0
LINE
  8
_0-0_0
  6
CONTINUOUS
 62
    7
 10
280.11019899999997
 20
407.12161299999997
 11
280.05987499999998
 21
407.01260400000001
  0
LINE
  8
_0-0_0
  6
CONTINUOUS
 62
    7
 10
280.05987499999998
 20
407.01260400000001
 11
280.01419099999998
 21
406.92495700000001
  0
LINE
  8
_0-0_0
  6
CONTINUOUS
 62
    7
 10
270.00247200000001
 20
416.867279
 11
279.71029699999997
 21
416.867279
  0
LINE
  8
_0-0_0
  6
CONTINUOUS
 62
    7
 10
270.00247200000001
 20
415.582672
 11
270.00247200000001
 21
416.867279
  0
LINE
  8
_0-0_0
  6
CONTINUOUS
 62
    7
 10
270.00247200000001
 20
415.582672
 11
279.71029699999997
 21
415.582672
  0
ARC
  8
_0-0_0
  6
CONTINUOUS
 62
    7
 10
274.79055799999998
 20
416.22091699999999
 40
4.9620009999999999
 50
1.5813010000000001
 51
7.4847919999999997
  0
LINE
  8
_0-0_0
  6
CONTINUOUS
 62
    7
 10
269.70248400000003
 20
410.76297
 11
269.61901799999998
 21
411.14163200000002
  0
LINE
  8
_0-0_0
  6
CONTINUOUS
 62
    7
 10
269.61901799999998
 20
411.14163200000002
 11
269.57891799999999
 21
411.33316100000002
  0
LINE
  8
_0-0_0
  6
CONTINUOUS
 62
    7
 10
269.57891799999999
 20
411.33316100000002
 11
269.52282700000001
 21
411.6232
  0
LINE
  8
_0-0_0
  6
CONTINUOUS
 62
    7
 10
269.52282700000001
 20
411.6232
 11
269.485229
 21
411.842804
  0
LINE
  8
_0-0_0
  6
CONTINUOUS
 62
    7
 10
269.485229
 20
411.842804
 11
269.45260599999995
 21
412.06405699999999
  0
LINE
  8
_0-0_0
  6
CONTINUOUS
 62
    7
 10
269.45260599999995
 20
412.06405699999999
 11
269.42544499999997
 21
412.290863
  0
LINE
  8
_0-0_0
  6
CONTINUOUS
 62
    7
 10
269.42544499999997
 20
412.290863
 11
269.40536499999996
 21
412.51821899999999
  0
LINE
  8
_0-0_0
  6
CONTINUOUS
 62
    7
 10
269.40536499999996
 20
412.51821899999999
 11
269.39822400000003
 21
412.63198899999998
  0
LINE
  8
_0-0_0
  6
CONTINUOUS
 62
    7
 10
269.39822400000003
 20
412.63198899999998
 11
269.39306599999998
 21
412.74563599999999
  0
LINE
  8
_0-0_0
  6
CONTINUOUS
 62
    7
 10
269.39306599999998
 20
412.74563599999999
 11
269.389343
 21
412.897064
  0
LINE
  8
_0-0_0
  6
CONTINUOUS
 62
    7
 10
269.389343
 20
412.897064
 11
269.38928199999998
 21
413.04836999999998
  0
LINE
  8
_0-0_0
  6
CONTINUOUS
 62
    7
 10
269.38928199999998
 20
413.04836999999998
 11
269.392853
 21
413.19937099999999
  0
LINE
  8
_0-0_0
  6
CONTINUOUS
 62
    7
 10
269.392853
 20
413.19937099999999
 11
269.40237400000001
 21
413.38797
  0
LINE
  8
_0-0_0
  6
CONTINUOUS
 62
    7
 10
269.40237400000001
 20
413.38797
 11
269.417236
 21
413.57620199999997
  0
LINE
  8
_0-0_0
  6
CONTINUOUS
 62
    7
 10
269.417236
 20
413.57620199999997
 11
269.437164
 21
413.76412999999997
  0
LINE
  8
_0-0_0
  6
CONTINUOUS
 62
    7
 10
269.437164
 20
413.76412999999997
 11
269.453552
 21
413.893036
  0
LINE
  8
_0-0_0
  6
CONTINUOUS
 62
    7
 10
269.453552
 20
413.893036
 11
269.47195399999998
 21
414.021637
  0
LINE
  8
_0-0_0
  6
CONTINUOUS
 62
    7
 10
269.47195399999998
 20
414.021637
 11
269.49612400000001
 21
414.17361499999998
  0
LINE
  8
_0-0_0
  6
CONTINUOUS
 62
    7
 10
269.49612400000001
 20
414.17361499999998
 11
269.52252199999998
 21
414.32492100000002
  0
LINE
  8
_0-0_0
  6
CONTINUOUS
 62
    7
 10
269.52252199999998
 20
414.32492100000002
 11
269.57867399999998
 21
414.61556999999999
  0
LINE
  8
_0-0_0
  6
CONTINUOUS
 62
    7
 10
269.57867399999998
 20
414.61556999999999
 11
269.61883499999999
 21
414.807526
  0
LINE
  8
_0-0_0
  6
CONTINUOUS
 62
    7
 10
269.61883499999999
 20
414.807526
 11
269.70248400000003
 21
415.186981
  0
LINE
  8
_0-0_0
  6
CONTINUOUS
 62
    7
 10
270.00247200000001
 20
411.41293300000001
 11
270.00247200000001
 21
414.53707900000001
  0
LINE
  8
_0-0_0
  6
CONTINUOUS
 62
    7
 10
294.75247200000001
 20
403.44955499999998
 11
294.50247200000001
 21
403.42501799999997
  0
LINE
  8
_0-0_0
  6
CONTINUOUS
 62
    7
 10
294.50247200000001
 20
403.42501799999997
 11
285.25247200000001
 21
403.42501799999997
  0
LINE
  8
_0-0_0
  6
CONTINUOUS
 62
    7
 10
285.00247200000001
 20
403.44955499999998
 11
285.25247200000001
 21
403.42501799999997
  0
LINE
  8
_0-0_0
  6
CONTINUOUS
 62
    7
 10
294.75247200000001
 20
406.42355399999997
 11
294.50247200000001
 21
406.69754
  0
LINE
  8
_0-0_0
  6
CONTINUOUS
 62
    7
 10
294.75247200000001
 20
406.42355399999997
 11
294.50247200000001
 21
406.53286800000001
  0
LINE
  8
_0-0_0
  6
CONTINUOUS
 62
    7
 10
294.75247200000001
 20
406.265961
 11
294.50247200000001
 21
406.53286800000001
  0
LINE
  8
_0-0_0
  6
CONTINUOUS
 62
    7
 10
294.75247200000001
 20
406.265961
 11
294.50247200000001
 21
406.34780899999998
  0
LINE
  8
_0-0_0
  6
CONTINUOUS
 62
    7
 10
294.75247200000001
 20
406.09097300000002
 11
294.50247200000001
 21
406.34780899999998
  0
LINE
  8
_0-0_0
  6
CONTINUOUS
 62
    7
 10
294.75247200000001
 20
406.09097300000002
 11
294.50247200000001
 21
406.14443999999997
  0
LINE
  8
_0-0_0
  6
CONTINUOUS
 62
    7
 10
294.75247200000001
 20
405.90042099999999
 11
294.50247200000001
 21
406.14443999999997
  0
LINE
  8
_0-0_0
  6
CONTINUOUS
 62
    7
 10
294.75247200000001
 20
405.90042099999999
 11
294.50247200000001
 21
405.92501799999997
  0
LINE
  8
_0-0_0
  6
CONTINUOUS
 62
    7
 10
294.75247200000001
 20
405.69650300000001
 11
294.50247200000001
 21
405.92501799999997
  0
LINE
  8
_0-0_0
  6
CONTINUOUS
 62
    7
 10
294.75247200000001
 20
405.69650300000001
 11
294.50247200000001
 21
405.69186400000001
  0
LINE
  8
_0-0_0
  6
CONTINUOUS
 62
    7
 10
294.75247200000001
 20
405.48135400000001
 11
294.50247200000001
 21
405.69186400000001
  0
LINE
  8
_0-0_0
  6
CONTINUOUS
 62
    7
 10
294.75247200000001
 20
405.48135400000001
 11
294.50247200000001
 21
405.44754
  0
LINE
  8
_0-0_0
  6
CONTINUOUS
 62
    7
 10
294.75247200000001
 20
405.25735500000002
 11
294.50247200000001
 21
405.44754
  0
LINE
  8
_0-0_0
  6
CONTINUOUS
 62
    7
 10
294.75247200000001
 20
405.25735500000002
 11
294.50247200000001
 21
405.194794
  0
LINE
  8
_0-0_0
  6
CONTINUOUS
 62
    7
 10
294.75247200000001
 20
405.02700799999997
 11
294.50247200000001
 21
405.194794
  0
LINE
  8
_0-0_0
  6
CONTINUOUS
 62
    7
 10
294.75247200000001
 20
405.02700799999997
 11
294.50247200000001
 21
404.93630999999999
  0
LINE
  8
_0-0_0
  6
CONTINUOUS
 62
    7
 10
294.75247200000001
 20
404.792755
 11
294.50247200000001
 21
404.93630999999999
  0
LINE
  8
_0-0_0
  6
CONTINUOUS
 62
    7
 10
294.75247200000001
 20
404.792755
 11
294.50247200000001
 21
404.67501799999997
  0
LINE
  8
_0-0_0
  6
CONTINUOUS
 62
    7
 10
294.75247200000001
 20
404.55722099999997
 11
294.50247200000001
 21
404.67501799999997
  0
LINE
  8
_0-0_0
  6
CONTINUOUS
 62
    7
 10
294.75247200000001
 20
404.55722099999997
 11
294.50247200000001
 21
404.41366599999998
  0
LINE
  8
_0-0_0
  6
CONTINUOUS
 62
    7
 10
294.75247200000001
 20
404.32302900000002
 11
294.50247200000001
 21
404.41366599999998
  0
LINE
  8
_0-0_0
  6
CONTINUOUS
 62
    7
 10
294.75247200000001
 20
404.32302900000002
 11
294.50247200000001
 21
404.15524299999998
  0
LINE
  8
_0-0_0
  6
CONTINUOUS
 62
    7
 10
294.75247200000001
 20
404.09268199999997
 11
294.50247200000001
 21
404.15524299999998
  0
LINE
  8
_0-0_0
  6
CONTINUOUS
 62
    7
 10
294.75247200000001
 20
404.09268199999997
 11
294.50247200000001
 21
403.90243499999997
  0
LINE
  8
_0-0_0
  6
CONTINUOUS
 62
    7
 10
294.75247200000001
 20
403.86868299999998
 11
294.50247200000001
 21
403.90243499999997
  0
LINE
  8
_0-0_0
  6
CONTINUOUS
 62
    7
 10
294.75247200000001
 20
403.86868299999998
 11
294.50247200000001
 21
403.65817299999998
  0
LINE
  8
_0-0_0
  6
CONTINUOUS
 62
    7
 10
294.75247200000001
 20
403.65353399999998
 11
294.50247200000001
 21
403.65817299999998
  0
LINE
  8
_0-0_0
  6
CONTINUOUS
 62
    7
 10
294.75247200000001
 20
403.65353399999998
 11
294.50247200000001
 21
403.42501799999997
  0
LINE
  8
_0-0_0
  6
CONTINUOUS
 62
    7
 10
294.75247200000001
 20
403.44955499999998
 11
294.50247200000001
 21
403.205536
  0
LINE
  8
_0-0_0
  6
CONTINUOUS
 62
    7
 10
294.75247200000001
 20
403.25900300000001
 11
294.50247200000001
 21
403.205536
  0
LINE
  8
_0-0_0
  6
CONTINUOUS
 62
    7
 10
294.75247200000001
 20
403.25900300000001
 11
294.50247200000001
 21
403.00216699999999
  0
LINE
  8
_0-0_0
  6
CONTINUOUS
 62
    7
 10
294.75247200000001
 20
403.08401499999997
 11
294.50247200000001
 21
403.00216699999999
  0
LINE
  8
_0-0_0
  6
CONTINUOUS
 62
    7
 10
294.75247200000001
 20
403.08401499999997
 11
294.50247200000001
 21
402.81710800000002
  0
LINE
  8
_0-0_0
  6
CONTINUOUS
 62
    7
 10
294.75247200000001
 20
402.926422
 11
294.50247200000001
 21
402.81710800000002
  0
LINE
  8
_0-0_0
  6
CONTINUOUS
 62
    7
 10
294.75247200000001
 20
402.926422
 11
294.50247200000001
 21
402.65243499999997
  0
LINE
  8
_0-0_0
  6
CONTINUOUS
 62
    7
 10
294.75247200000001
 20
402.78799399999997
 11
294.50247200000001
 21
402.65243499999997
  0
LINE
  8
_0-0_0
  6
CONTINUOUS
 62
    7
 10
294.75247200000001
 20
402.78799399999997
 11
294.50247200000001
 21
402.50991799999997
  0
LINE
  8
_0-0_0
  6
CONTINUOUS
 62
    7
 10
294.75247200000001
 20
402.67025799999999
 11
294.50247200000001
 21
402.50991799999997
  0
LINE
  8
_0-0_0
  6
CONTINUOUS
 62
    7
 10
294.75247200000001
 20
402.67025799999999
 11
294.50247200000001
 21
402.391144
  0
LINE
  8
_0-0_0
  6
CONTINUOUS
 62
    7
 10
294.75247200000001
 20
402.574432
 11
294.50247200000001
 21
402.391144
  0
LINE
  8
_0-0_0
  6
CONTINUOUS
 62
    7
 10
294.75247200000001
 20
402.574432
 11
294.50247200000001
 21
402.29733299999998
  0
LINE
  8
_0-0_0
  6
CONTINUOUS
 62
    7
 10
294.75247200000001
 20
402.50167899999997
 11
294.50247200000001
 21
402.29733299999998
  0
LINE
  8
_0-0_0
  6
CONTINUOUS
 62
    7
 10
294.75247200000001
 20
402.50167899999997
 11
294.50247200000001
 21
402.229645
  0
LINE
  8
_0-0_0
  6
CONTINUOUS
 62
    7
 10
294.75247200000001
 20
402.45272799999998
 11
294.50247200000001
 21
402.229645
  0
LINE
  8
_0-0_0
  6
CONTINUOUS
 62
    7
 10
294.75247200000001
 20
402.45272799999998
 11
294.50247200000001
 21
402.18869000000001
  0
LINE
  8
_0-0_0
  6
CONTINUOUS
 62
    7
 10
294.75247200000001
 20
402.42806999999999
 11
294.50247200000001
 21
402.18869000000001
  0
LINE
  8
_0-0_0
  6
CONTINUOUS
 62
    7
 10
294.75247200000001
 20
402.42806999999999
 11
294.50247200000001
 21
402.17501799999997
  0
LINE
  8
_0-0_0
  6
CONTINUOUS
 62
    7
 10
295.00247200000001
 20
402.67501799999997
 11
295.00247200000001
 21
406.43014499999998
  0
LINE
  8
_0-0_0
  6
CONTINUOUS
 62
    7
 10
294.62252799999999
 20
406.76364100000001
 11
294.50247200000001
 21
406.840057
  0
LINE
  8
_0-0_0
  6
CONTINUOUS
 62
    7
 10
294.75247200000001
 20
406.561981
 11
294.50247200000001
 21
406.840057
  0
LINE
  8
_0-0_0
  6
CONTINUOUS
 62
    7
 10
294.75247200000001
 20
406.561981
 11
294.50247200000001
 21
406.69754
  0
LINE
  8
_0-0_0
  6
CONTINUOUS
 62
    7
 10
294.50247200000001
 20
406.53286800000001
 11
285.25247200000001
 21
406.53286800000001
  0
LINE
  8
_0-0_0
  6
CONTINUOUS
 62
    7
 10
285.00247200000001
 20
406.42355399999997
 11
285.25247200000001
 21
406.53286800000001
  0
LINE
  8
_0-0_0
  6
CONTINUOUS
 62
    7
 10
294.50247200000001
 20
406.34780899999998
 11
285.25247200000001
 21
406.34780899999998
  0
LINE
  8
_0-0_0
  6
CONTINUOUS
 62
    7
 10
285.00247200000001
 20
406.265961
 11
285.25247200000001
 21
406.34780899999998
  0
LINE
  8
_0-0_0
  6
CONTINUOUS
 62
    7
 10
294.50247200000001
 20
406.14443999999997
 11
285.25247200000001
 21
406.14443999999997
  0
LINE
  8
_0-0_0
  6
CONTINUOUS
 62
    7
 10
285.00247200000001
 20
406.09097300000002
 11
285.25247200000001
 21
406.14443999999997
  0
LINE
  8
_0-0_0
  6
CONTINUOUS
 62
    7
 10
294.50247200000001
 20
405.92501799999997
 11
285.25247200000001
 21
405.92501799999997
  0
LINE
  8
_0-0_0
  6
CONTINUOUS
 62
    7
 10
285.00247200000001
 20
405.90042099999999
 11
285.25247200000001
 21
405.92501799999997
  0
LINE
  8
_0-0_0
  6
CONTINUOUS
 62
    7
 10
294.50247200000001
 20
405.69186400000001
 11
285.25247200000001
 21
405.69186400000001
  0
LINE
  8
_0-0_0
  6
CONTINUOUS
 62
    7
 10
294.75247200000001
 20
405.69650300000001
 11
285.00247200000001
 21
405.69650300000001
  0
LINE
  8
_0-0_0
  6
CONTINUOUS
 62
    7
 10
285.00247200000001
 20
405.69650300000001
 11
285.25247200000001
 21
405.69186400000001
  0
LINE
  8
_0-0_0
  6
CONTINUOUS
 62
    7
 10
294.50247200000001
 20
405.44754
 11
285.25247200000001
 21
405.44754
  0
LINE
  8
_0-0_0
  6
CONTINUOUS
 62
    7
 10
294.75247200000001
 20
405.48135400000001
 11
285.00247200000001
 21
405.48135400000001
  0
LINE
  8
_0-0_0
  6
CONTINUOUS
 62
    7
 10
285.00247200000001
 20
405.48135400000001
 11
285.25247200000001
 21
405.44754
  0
LINE
  8
_0-0_0
  6
CONTINUOUS
 62
    7
 10
294.50247200000001
 20
405.194794
 11
285.25247200000001
 21
405.194794
  0
LINE
  8
_0-0_0
  6
CONTINUOUS
 62
    7
 10
294.75247200000001
 20
405.25735500000002
 11
285.00247200000001
 21
405.25735500000002
  0
LINE
  8
_0-0_0
  6
CONTINUOUS
 62
    7
 10
285.00247200000001
 20
405.25735500000002
 11
285.25247200000001
 21
405.194794
  0
LINE
  8
_0-0_0
  6
CONTINUOUS
 62
    7
 10
294.50247200000001
 20
404.93630999999999
 11
285.25247200000001
 21
404.93630999999999
  0
LINE
  8
_0-0_0
  6
CONTINUOUS
 62
    7
 10
294.75247200000001
 20
405.02700799999997
 11
285.00247200000001
 21
405.02700799999997
  0
LINE
  8
_0-0_0
  6
CONTINUOUS
 62
    7
 10
285.00247200000001
 20
405.02700799999997
 11
285.25247200000001
 21
404.93630999999999
  0
LINE
  8
_0-0_0
  6
CONTINUOUS
 62
    7
 10
294.50247200000001
 20
404.67501799999997
 11
285.25247200000001
 21
404.67501799999997
  0
LINE
  8
_0-0_0
  6
CONTINUOUS
 62
    7
 10
294.75247200000001
 20
404.792755
 11
285.00247200000001
 21
404.792755
  0
LINE
  8
_0-0_0
  6
CONTINUOUS
 62
    7
 10
285.00247200000001
 20
404.792755
 11
285.25247200000001
 21
404.67501799999997
  0
LINE
  8
_0-0_0
  6
CONTINUOUS
 62
    7
 10
294.50247200000001
 20
404.41366599999998
 11
285.25247200000001
 21
404.41366599999998
  0
LINE
  8
_0-0_0
  6
CONTINUOUS
 62
    7
 10
294.75247200000001
 20
404.55722099999997
 11
285.00247200000001
 21
404.55722099999997
  0
LINE
  8
_0-0_0
  6
CONTINUOUS
 62
    7
 10
285.00247200000001
 20
404.55722099999997
 11
285.25247200000001
 21
404.41366599999998
  0
LINE
  8
_0-0_0
  6
CONTINUOUS
 62
    7
 10
294.50247200000001
 20
404.15524299999998
 11
285.25247200000001
 21
404.15524299999998
  0
LINE
  8
_0-0_0
  6
CONTINUOUS
 62
    7
 10
294.75247200000001
 20
404.32302900000002
 11
285.00247200000001
 21
404.32302900000002
  0
LINE
  8
_0-0_0
  6
CONTINUOUS
 62
    7
 10
285.00247200000001
 20
404.32302900000002
 11
285.25247200000001
 21
404.15524299999998
  0
LINE
  8
_0-0_0
  6
CONTINUOUS
 62
    7
 10
294.50247200000001
 20
403.90243499999997
 11
285.25247200000001
 21
403.90243499999997
  0
LINE
  8
_0-0_0
  6
CONTINUOUS
 62
    7
 10
294.75247200000001
 20
404.09268199999997
 11
285.00247200000001
 21
404.09268199999997
  0
LINE
  8
_0-0_0
  6
CONTINUOUS
 62
    7
 10
285.00247200000001
 20
404.09268199999997
 11
285.25247200000001
 21
403.90243499999997
  0
LINE
  8
_0-0_0
  6
CONTINUOUS
 62
    7
 10
294.50247200000001
 20
403.65817299999998
 11
285.25247200000001
 21
403.65817299999998
  0
LINE
  8
_0-0_0
  6
CONTINUOUS
 62
    7
 10
294.75247200000001
 20
403.86868299999998
 11
285.00247200000001
 21
403.86868299999998
  0
LINE
  8
_0-0_0
  6
CONTINUOUS
 62
    7
 10
285.00247200000001
 20
403.86868299999998
 11
285.25247200000001
 21
403.65817299999998
  0
LINE
  8
_0-0_0
  6
CONTINUOUS
 62
    7
 10
294.50247200000001
 20
403.00216699999999
 11
285.25247200000001
 21
403.00216699999999
  0
LINE
  8
_0-0_0
  6
CONTINUOUS
 62
    7
 10
285.00247200000001
 20
403.25900300000001
 11
285.25247200000001
 21
403.00216699999999
  0
LINE
  8
_0-0_0
  6
CONTINUOUS
 62
    7
 10
294.50247200000001
 20
402.81710800000002
 11
285.25247200000001
 21
402.81710800000002
  0
LINE
  8
_0-0_0
  6
CONTINUOUS
 62
    7
 10
285.00247200000001
 20
403.08401499999997
 11
285.25247200000001
 21
402.81710800000002
  0
LINE
  8
_0-0_0
  6
CONTINUOUS
 62
    7
 10
294.50247200000001
 20
402.65243499999997
 11
285.25247200000001
 21
402.65243499999997
  0
LINE
  8
_0-0_0
  6
CONTINUOUS
 62
    7
 10
285.00247200000001
 20
402.926422
 11
285.25247200000001
 21
402.65243499999997
  0
LINE
  8
_0-0_0
  6
CONTINUOUS
 62
    7
 10
294.50247200000001
 20
402.50991799999997
 11
285.25247200000001
 21
402.50991799999997
  0
LINE
  8
_0-0_0
  6
CONTINUOUS
 62
    7
 10
285.00247200000001
 20
402.78799399999997
 11
285.25247200000001
 21
402.50991799999997
  0
LINE
  8
_0-0_0
  6
CONTINUOUS
 62
    7
 10
294.50247200000001
 20
402.391144
 11
285.25247200000001
 21
402.391144
  0
LINE
  8
_0-0_0
  6
CONTINUOUS
 62
    7
 10
285.00247200000001
 20
402.67025799999999
 11
285.25247200000001
 21
402.391144
  0
LINE
  8
_0-0_0
  6
CONTINUOUS
 62
    7
 10
294.50247200000001
 20
402.29733299999998
 11
285.25247200000001
 21
402.29733299999998
  0
LINE
  8
_0-0_0
  6
CONTINUOUS
 62
    7
 10
285.00247200000001
 20
402.574432
 11
285.25247200000001
 21
402.29733299999998
  0
LINE
  8
_0-0_0
  6
CONTINUOUS
 62
    7
 10
294.50247200000001
 20
402.229645
 11
285.25247200000001
 21
402.229645
  0
LINE
  8
_0-0_0
  6
CONTINUOUS
 62
    7
 10
285.00247200000001
 20
402.50167899999997
 11
285.25247200000001
 21
402.229645
  0
LINE
  8
_0-0_0
  6
CONTINUOUS
 62
    7
 10
294.50247200000001
 20
402.18869000000001
 11
285.25247200000001
 21
402.18869000000001
  0
LINE
  8
_0-0_0
  6
CONTINUOUS
 62
    7
 10
285.00247200000001
 20
402.45272799999998
 11
285.25247200000001
 21
402.18869000000001
  0
LINE
  8
_0-0_0
  6
CONTINUOUS
 62
    7
 10
294.50247200000001
 20
402.17501799999997
 11
285.25247200000001
 21
402.17501799999997
  0
LINE
  8
_0-0_0
  6
CONTINUOUS
 62
    7
 10
285.00247200000001
 20
402.42806999999999
 11
285.25247200000001
 21
402.17501799999997
  0
LINE
  8
_0-0_0
  6
CONTINUOUS
 62
    7
 10
294.50247200000001
 20
406.840057
 11
285.25247200000001
 21
406.840057
  0
LINE
  8
_0-0_0
  6
CONTINUOUS
 62
    7
 10
294.75247200000001
 20
406.679779
 11
294.62252799999999
 21
406.76364100000001
  0
LINE
  8
_0-0_0
  6
CONTINUOUS
 62
    7
 10
285.00247200000001
 20
406.679779
 11
285.13244599999996
 21
406.76364100000001
  0
LINE
  8
_0-0_0
  6
CONTINUOUS
 62
    7
 10
285.13244599999996
 20
406.76364100000001
 11
285.25247200000001
 21
406.840057
  0
LINE
  8
_0-0_0
  6
CONTINUOUS
 62
    7
 10
294.50247200000001
 20
406.69754
 11
285.25247200000001
 21
406.69754
  0
LINE
  8
_0-0_0
  6
CONTINUOUS
 62
    7
 10
285.00247200000001
 20
406.561981
 11
285.25247200000001
 21
406.69754
  0
LINE
  8
_0-0_0
  6
CONTINUOUS
 62
    7
 10
294.75247200000001
 20
406.679779
 11
294.50247200000001
 21
406.95889299999999
  0
LINE
  8
_0-0_0
  6
CONTINUOUS
 62
    7
 10
294.50247200000001
 20
406.95889299999999
 11
285.25247200000001
 21
406.95889299999999
  0
LINE
  8
_0-0_0
  6
CONTINUOUS
 62
    7
 10
285.00247200000001
 20
406.679779
 11
285.25247200000001
 21
406.95889299999999
  0
LINE
  8
_0-0_0
  6
CONTINUOUS
 62
    7
 10
294.75247200000001
 20
406.77554299999997
 11
294.50247200000001
 21
406.95889299999999
  0
LINE
  8
_0-0_0
  6
CONTINUOUS
 62
    7
 10
285.00247200000001
 20
406.77554299999997
 11
285.25247200000001
 21
406.95889299999999
  0
LINE
  8
_0-0_0
  6
CONTINUOUS
 62
    7
 10
294.75247200000001
 20
406.77554299999997
 11
294.50247200000001
 21
407.05264299999999
  0
LINE
  8
_0-0_0
  6
CONTINUOUS
 62
    7
 10
294.50247200000001
 20
407.05264299999999
 11
285.25247200000001
 21
407.05264299999999
  0
LINE
  8
_0-0_0
  6
CONTINUOUS
 62
    7
 10
285.00247200000001
 20
406.77554299999997
 11
285.25247200000001
 21
407.05264299999999
  0
LINE
  8
_0-0_0
  6
CONTINUOUS
 62
    7
 10
294.75247200000001
 20
406.84835800000002
 11
294.50247200000001
 21
407.05264299999999
  0
LINE
  8
_0-0_0
  6
CONTINUOUS
 62
    7
 10
285.00247200000001
 20
406.84835800000002
 11
285.25247200000001
 21
407.05264299999999
  0
LINE
  8
_0-0_0
  6
CONTINUOUS
 62
    7
 10
294.75247200000001
 20
406.84835800000002
 11
294.50247200000001
 21
407.12039199999998
  0
LINE
  8
_0-0_0
  6
CONTINUOUS
 62
    7
 10
294.50247200000001
 20
407.12039199999998
 11
285.25247200000001
 21
407.12039199999998
  0
LINE
  8
_0-0_0
  6
CONTINUOUS
 62
    7
 10
285.00247200000001
 20
406.84835800000002
 11
285.25247200000001
 21
407.12039199999998
  0
LINE
  8
_0-0_0
  6
CONTINUOUS
 62
    7
 10
294.75247200000001
 20
406.89730800000001
 11
294.50247200000001
 21
407.12039199999998
  0
LINE
  8
_0-0_0
  6
CONTINUOUS
 62
    7
 10
285.00247200000001
 20
406.89730800000001
 11
285.25247200000001
 21
407.12039199999998
  0
LINE
  8
_0-0_0
  6
CONTINUOUS
 62
    7
 10
294.75247200000001
 20
406.89730800000001
 11
294.50247200000001
 21
407.16128600000002
  0
LINE
  8
_0-0_0
  6
CONTINUOUS
 62
    7
 10
294.50247200000001
 20
407.16128600000002
 11
285.25247200000001
 21
407.16128600000002
  0
LINE
  8
_0-0_0
  6
CONTINUOUS
 62
    7
 10
285.00247200000001
 20
406.89730800000001
 11
285.25247200000001
 21
407.16128600000002
  0
LINE
  8
_0-0_0
  6
CONTINUOUS
 62
    7
 10
294.75247200000001
 20
406.92190599999998
 11
294.50247200000001
 21
407.16128600000002
  0
LINE
  8
_0-0_0
  6
CONTINUOUS
 62
    7
 10
285.00247200000001
 20
406.92190599999998
 11
285.25247200000001
 21
407.16128600000002
  0
LINE
  8
_0-0_0
  6
CONTINUOUS
 62
    7
 10
294.75247200000001
 20
406.92190599999998
 11
294.50247200000001
 21
407.17501799999997
  0
LINE
  8
_0-0_0
  6
CONTINUOUS
 62
    7
 10
294.50247200000001
 20
407.17501799999997
 11
285.25247200000001
 21
407.17501799999997
  0
LINE
  8
_0-0_0
  6
CONTINUOUS
 62
    7
 10
285.00247200000001
 20
406.92190599999998
 11
285.25247200000001
 21
407.17501799999997
  0
LINE
  8
_0-0_0
  6
CONTINUOUS
 62
    7
 10
294.75247200000001
 20
420.04959100000002
 11
294.50247200000001
 21
420.02499399999999
  0
LINE
  8
_0-0_0
  6
CONTINUOUS
 62
    7
 10
294.50247200000001
 20
420.02499399999999
 11
285.25247200000001
 21
420.02499399999999
  0
LINE
  8
_0-0_0
  6
CONTINUOUS
 62
    7
 10
285.00247200000001
 20
420.04959100000002
 11
285.25247200000001
 21
420.02499399999999
  0
LINE
  8
_0-0_0
  6
CONTINUOUS
 62
    7
 10
294.75247200000001
 20
423.02359000000001
 11
294.50247200000001
 21
423.29751599999997
  0
LINE
  8
_0-0_0
  6
CONTINUOUS
 62
    7
 10
294.75247200000001
 20
423.02359000000001
 11
294.50247200000001
 21
423.13284299999998
  0
LINE
  8
_0-0_0
  6
CONTINUOUS
 62
    7
 10
294.75247200000001
 20
422.86599699999999
 11
294.50247200000001
 21
423.13284299999998
  0
LINE
  8
_0-0_0
  6
CONTINUOUS
 62
    7
 10
294.75247200000001
 20
422.86599699999999
 11
294.50247200000001
 21
422.94784599999997
  0
LINE
  8
_0-0_0
  6
CONTINUOUS
 62
    7
 10
294.75247200000001
 20
422.69094899999999
 11
294.50247200000001
 21
422.94784599999997
  0
LINE
  8
_0-0_0
  6
CONTINUOUS
 62
    7
 10
294.75247200000001
 20
422.69094899999999
 11
294.50247200000001
 21
422.74447600000002
  0
LINE
  8
_0-0_0
  6
CONTINUOUS
 62
    7
 10
294.75247200000001
 20
422.50045799999998
 11
294.50247200000001
 21
422.74447600000002
  0
LINE
  8
_0-0_0
  6
CONTINUOUS
 62
    7
 10
294.75247200000001
 20
422.50045799999998
 11
294.50247200000001
 21
422.52499399999999
  0
LINE
  8
_0-0_0
  6
CONTINUOUS
 62
    7
 10
294.75247200000001
 20
422.29647799999998
 11
294.50247200000001
 21
422.52499399999999
  0
LINE
  8
_0-0_0
  6
CONTINUOUS
 62
    7
 10
294.75247200000001
 20
422.29647799999998
 11
294.50247200000001
 21
422.29183999999998
  0
LINE
  8
_0-0_0
  6
CONTINUOUS
 62
    7
 10
294.75247200000001
 20
422.08132899999998
 11
294.50247200000001
 21
422.29183999999998
  0
LINE
  8
_0-0_0
  6
CONTINUOUS
 62
    7
 10
294.75247200000001
 20
422.08132899999998
 11
294.50247200000001
 21
422.04751599999997
  0
LINE
  8
_0-0_0
  6
CONTINUOUS
 62
    7
 10
294.75247200000001
 20
421.85732999999999
 11
294.50247200000001
 21
422.04751599999997
  0
LINE
  8
_0-0_0
  6
CONTINUOUS
 62
    7
 10
294.75247200000001
 20
421.85732999999999
 11
294.50247200000001
 21
421.79476899999997
  0
LINE
  8
_0-0_0
  6
CONTINUOUS
 62
    7
 10
294.75247200000001
 20
421.62698399999999
 11
294.50247200000001
 21
421.79476899999997
  0
LINE
  8
_0-0_0
  6
CONTINUOUS
 62
    7
 10
294.75247200000001
 20
421.62698399999999
 11
294.50247200000001
 21
421.53634699999998
  0
LINE
  8
_0-0_0
  6
CONTINUOUS
 62
    7
 10
294.75247200000001
 20
421.39273099999997
 11
294.50247200000001
 21
421.53634699999998
  0
LINE
  8
_0-0_0
  6
CONTINUOUS
 62
    7
 10
294.75247200000001
 20
421.39273099999997
 11
294.50247200000001
 21
421.27499399999999
  0
LINE
  8
_0-0_0
  6
CONTINUOUS
 62
    7
 10
294.75247200000001
 20
421.15725700000002
 11
294.50247200000001
 21
421.27499399999999
  0
LINE
  8
_0-0_0
  6
CONTINUOUS
 62
    7
 10
294.75247200000001
 20
421.15725700000002
 11
294.50247200000001
 21
421.01370199999997
  0
LINE
  8
_0-0_0
  6
CONTINUOUS
 62
    7
 10
294.75247200000001
 20
420.92300399999999
 11
294.50247200000001
 21
421.01370199999997
  0
LINE
  8
_0-0_0
  6
CONTINUOUS
 62
    7
 10
294.75247200000001
 20
420.92300399999999
 11
294.50247200000001
 21
420.75521900000001
  0
LINE
  8
_0-0_0
  6
CONTINUOUS
 62
    7
 10
294.75247200000001
 20
420.69265799999999
 11
294.50247200000001
 21
420.75521900000001
  0
LINE
  8
_0-0_0
  6
CONTINUOUS
 62
    7
 10
294.75247200000001
 20
420.69265799999999
 11
294.50247200000001
 21
420.50247200000001
  0
LINE
  8
_0-0_0
  6
CONTINUOUS
 62
    7
 10
294.75247200000001
 20
420.468659
 11
294.50247200000001
 21
420.50247200000001
  0
LINE
  8
_0-0_0
  6
CONTINUOUS
 62
    7
 10
294.75247200000001
 20
420.468659
 11
294.50247200000001
 21
420.25814800000001
  0
LINE
  8
_0-0_0
  6
CONTINUOUS
 62
    7
 10
294.75247200000001
 20
420.25351000000001
 11
294.50247200000001
 21
420.25814800000001
  0
LINE
  8
_0-0_0
  6
CONTINUOUS
 62
    7
 10
294.75247200000001
 20
420.25351000000001
 11
294.50247200000001
 21
420.02499399999999
  0
LINE
  8
_0-0_0
  6
CONTINUOUS
 62
    7
 10
294.75247200000001
 20
420.04959100000002
 11
294.50247200000001
 21
419.80551199999996
  0
LINE
  8
_0-0_0
  6
CONTINUOUS
 62
    7
 10
294.75247200000001
 20
419.859039
 11
294.50247200000001
 21
419.80551199999996
  0
LINE
  8
_0-0_0
  6
CONTINUOUS
 62
    7
 10
294.75247200000001
 20
419.859039
 11
294.50247200000001
 21
419.60220299999997
  0
LINE
  8
_0-0_0
  6
CONTINUOUS
 62
    7
 10
294.75247200000001
 20
419.68399099999999
 11
294.50247200000001
 21
419.60220299999997
  0
LINE
  8
_0-0_0
  6
CONTINUOUS
 62
    7
 10
294.75247200000001
 20
419.68399099999999
 11
294.50247200000001
 21
419.417145
  0
LINE
  8
_0-0_0
  6
CONTINUOUS
 62
    7
 10
294.75247200000001
 20
419.52639799999997
 11
294.50247200000001
 21
419.417145
  0
LINE
  8
_0-0_0
  6
CONTINUOUS
 62
    7
 10
294.75247200000001
 20
419.52639799999997
 11
294.50247200000001
 21
419.25247200000001
  0
LINE
  8
_0-0_0
  6
CONTINUOUS
 62
    7
 10
294.75247200000001
 20
419.38797
 11
294.50247200000001
 21
419.25247200000001
  0
LINE
  8
_0-0_0
  6
CONTINUOUS
 62
    7
 10
294.75247200000001
 20
419.38797
 11
294.50247200000001
 21
419.10995500000001
  0
LINE
  8
_0-0_0
  6
CONTINUOUS
 62
    7
 10
294.75247200000001
 20
419.27023300000002
 11
294.50247200000001
 21
419.10995500000001
  0
LINE
  8
_0-0_0
  6
CONTINUOUS
 62
    7
 10
294.75247200000001
 20
419.27023300000002
 11
294.50247200000001
 21
418.99111899999997
  0
LINE
  8
_0-0_0
  6
CONTINUOUS
 62
    7
 10
294.75247200000001
 20
419.17446899999999
 11
294.50247200000001
 21
418.99111899999997
  0
LINE
  8
_0-0_0
  6
CONTINUOUS
 62
    7
 10
294.75247200000001
 20
419.17446899999999
 11
294.50247200000001
 21
418.89736899999997
  0
LINE
  8
_0-0_0
  6
CONTINUOUS
 62
    7
 10
294.75247200000001
 20
419.101654
 11
294.50247200000001
 21
418.89736899999997
  0
LINE
  8
_0-0_0
  6
CONTINUOUS
 62
    7
 10
294.75247200000001
 20
419.101654
 11
294.50247200000001
 21
418.82961999999998
  0
LINE
  8
_0-0_0
  6
CONTINUOUS
 62
    7
 10
294.75247200000001
 20
419.05270400000001
 11
294.50247200000001
 21
418.82961999999998
  0
LINE
  8
_0-0_0
  6
CONTINUOUS
 62
    7
 10
294.75247200000001
 20
419.05270400000001
 11
294.50247200000001
 21
418.78866599999998
  0
LINE
  8
_0-0_0
  6
CONTINUOUS
 62
    7
 10
294.75247200000001
 20
419.02810699999998
 11
294.50247200000001
 21
418.78866599999998
  0
LINE
  8
_0-0_0
  6
CONTINUOUS
 62
    7
 10
294.75247200000001
 20
419.02810699999998
 11
294.50247200000001
 21
418.77499399999999
  0
LINE
  8
_0-0_0
  6
CONTINUOUS
 62
    7
 10
295.00247200000001
 20
419.27499399999999
 11
295.00247200000001
 21
423.03018199999997
  0
LINE
  8
_0-0_0
  6
CONTINUOUS
 62
    7
 10
294.62252799999999
 20
423.36361699999998
 11
294.50247200000001
 21
423.44009399999999
  0
LINE
  8
_0-0_0
  6
CONTINUOUS
 62
    7
 10
294.75247200000001
 20
423.16201799999999
 11
294.50247200000001
 21
423.44009399999999
  0
LINE
  8
_0-0_0
  6
CONTINUOUS
 62
    7
 10
294.75247200000001
 20
423.16201799999999
 11
294.50247200000001
 21
423.29751599999997
  0
LINE
  8
_0-0_0
  6
CONTINUOUS
 62
    7
 10
294.50247200000001
 20
423.13284299999998
 11
285.25247200000001
 21
423.13284299999998
  0
LINE
  8
_0-0_0
  6
CONTINUOUS
 62
    7
 10
285.00247200000001
 20
423.02359000000001
 11
285.25247200000001
 21
423.13284299999998
  0
LINE
  8
_0-0_0
  6
CONTINUOUS
 62
    7
 10
294.50247200000001
 20
422.94784599999997
 11
285.25247200000001
 21
422.94784599999997
  0
LINE
  8
_0-0_0
  6
CONTINUOUS
 62
    7
 10
285.00247200000001
 20
422.86599699999999
 11
285.25247200000001
 21
422.94784599999997
  0
LINE
  8
_0-0_0
  6
CONTINUOUS
 62
    7
 10
294.50247200000001
 20
422.74447600000002
 11
285.25247200000001
 21
422.74447600000002
  0
LINE
  8
_0-0_0
  6
CONTINUOUS
 62
    7
 10
285.00247200000001
 20
422.69094899999999
 11
285.25247200000001
 21
422.74447600000002
  0
LINE
  8
_0-0_0
  6
CONTINUOUS
 62
    7
 10
294.50247200000001
 20
422.52499399999999
 11
285.25247200000001
 21
422.52499399999999
  0
LINE
  8
_0-0_0
  6
CONTINUOUS
 62
    7
 10
285.00247200000001
 20
422.50045799999998
 11
285.25247200000001
 21
422.52499399999999
  0
LINE
  8
_0-0_0
  6
CONTINUOUS
 62
    7
 10
294.50247200000001
 20
422.29183999999998
 11
285.25247200000001
 21
422.29183999999998
  0
LINE
  8
_0-0_0
  6
CONTINUOUS
 62
    7
 10
294.75247200000001
 20
422.29647799999998
 11
285.00247200000001
 21
422.29647799999998
  0
LINE
  8
_0-0_0
  6
CONTINUOUS
 62
    7
 10
285.00247200000001
 20
422.29647799999998
 11
285.25247200000001
 21
422.29183999999998
  0
LINE
  8
_0-0_0
  6
CONTINUOUS
 62
    7
 10
294.50247200000001
 20
422.04751599999997
 11
285.25247200000001
 21
422.04751599999997
  0
LINE
  8
_0-0_0
  6
CONTINUOUS
 62
    7
 10
294.75247200000001
 20
422.08132899999998
 11
285.00247200000001
 21
422.08132899999998
  0
LINE
  8
_0-0_0
  6
CONTINUOUS
 62
    7
 10
285.00247200000001
 20
422.08132899999998
 11
285.25247200000001
 21
422.04751599999997
  0
LINE
  8
_0-0_0
  6
CONTINUOUS
 62
    7
 10
294.50247200000001
 20
421.79476899999997
 11
285.25247200000001
 21
421.79476899999997
  0
LINE
  8
_0-0_0
  6
CONTINUOUS
 62
    7
 10
294.75247200000001
 20
421.85732999999999
 11
285.00247200000001
 21
421.85732999999999
  0
LINE
  8
_0-0_0
  6
CONTINUOUS
 62
    7
 10
285.00247200000001
 20
421.85732999999999
 11
285.25247200000001
 21
421.79476899999997
  0
LINE
  8
_0-0_0
  6
CONTINUOUS
 62
    7
 10
294.50247200000001
 20
421.53634699999998
 11
285.25247200000001
 21
421.53634699999998
  0
LINE
  8
_0-0_0
  6
CONTINUOUS
 62
    7
 10
294.75247200000001
 20
421.62698399999999
 11
285.00247200000001
 21
421.62698399999999
  0
LINE
  8
_0-0_0
  6
CONTINUOUS
 62
    7
 10
285.00247200000001
 20
421.62698399999999
 11
285.25247200000001
 21
421.53634699999998
  0
LINE
  8
_0-0_0
  6
CONTINUOUS
 62
    7
 10
294.50247200000001
 20
421.27499399999999
 11
285.25247200000001
 21
421.27499399999999
  0
LINE
  8
_0-0_0
  6
CONTINUOUS
 62
    7
 10
294.75247200000001
 20
421.39273099999997
 11
285.00247200000001
 21
421.39273099999997
  0
LINE
  8
_0-0_0
  6
CONTINUOUS
 62
    7
 10
285.00247200000001
 20
421.39273099999997
 11
285.25247200000001
 21
421.27499399999999
  0
LINE
  8
_0-0_0
  6
CONTINUOUS
 62
    7
 10
294.50247200000001
 20
421.01370199999997
 11
285.25247200000001
 21
421.01370199999997
  0
LINE
  8
_0-0_0
  6
CONTINUOUS
 62
    7
 10
294.75247200000001
 20
421.15725700000002
 11
285.00247200000001
 21
421.15725700000002
  0
LINE
  8
_0-0_0
  6
CONTINUOUS
 62
    7
 10
285.00247200000001
 20
421.15725700000002
 11
285.25247200000001
 21
421.01370199999997
  0
LINE
  8
_0-0_0
  6
CONTINUOUS
 62
    7
 10
294.50247200000001
 20
420.75521900000001
 11
285.25247200000001
 21
420.75521900000001
  0
LINE
  8
_0-0_0
  6
CONTINUOUS
 62
    7
 10
294.75247200000001
 20
420.92300399999999
 11
285.00247200000001
 21
420.92300399999999
  0
LINE
  8
_0-0_0
  6
CONTINUOUS
 62
    7
 10
285.00247200000001
 20
420.92300399999999
 11
285.25247200000001
 21
420.75521900000001
  0
LINE
  8
_0-0_0
  6
CONTINUOUS
 62
    7
 10
294.50247200000001
 20
420.50247200000001
 11
285.25247200000001
 21
420.50247200000001
  0
LINE
  8
_0-0_0
  6
CONTINUOUS
 62
    7
 10
294.75247200000001
 20
420.69265799999999
 11
285.00247200000001
 21
420.69265799999999
  0
LINE
  8
_0-0_0
  6
CONTINUOUS
 62
    7
 10
285.00247200000001
 20
420.69265799999999
 11
285.25247200000001
 21
420.50247200000001
  0
LINE
  8
_0-0_0
  6
CONTINUOUS
 62
    7
 10
294.50247200000001
 20
420.25814800000001
 11
285.25247200000001
 21
420.25814800000001
  0
LINE
  8
_0-0_0
  6
CONTINUOUS
 62
    7
 10
294.75247200000001
 20
420.468659
 11
285.00247200000001
 21
420.468659
  0
LINE
  8
_0-0_0
  6
CONTINUOUS
 62
    7
 10
285.00247200000001
 20
420.468659
 11
285.25247200000001
 21
420.25814800000001
  0
LINE
  8
_0-0_0
  6
CONTINUOUS
 62
    7
 10
294.50247200000001
 20
419.60220299999997
 11
285.25247200000001
 21
419.60220299999997
  0
LINE
  8
_0-0_0
  6
CONTINUOUS
 62
    7
 10
285.00247200000001
 20
419.859039
 11
285.25247200000001
 21
419.60220299999997
  0
LINE
  8
_0-0_0
  6
CONTINUOUS
 62
    7
 10
294.50247200000001
 20
419.417145
 11
285.25247200000001
 21
419.417145
  0
LINE
  8
_0-0_0
  6
CONTINUOUS
 62
    7
 10
285.00247200000001
 20
419.68399099999999
 11
285.25247200000001
 21
419.417145
  0
LINE
  8
_0-0_0
  6
CONTINUOUS
 62
    7
 10
294.50247200000001
 20
419.25247200000001
 11
285.25247200000001
 21
419.25247200000001
  0
LINE
  8
_0-0_0
  6
CONTINUOUS
 62
    7
 10
285.00247200000001
 20
419.52639799999997
 11
285.25247200000001
 21
419.25247200000001
  0
LINE
  8
_0-0_0
  6
CONTINUOUS
 62
    7
 10
294.50247200000001
 20
419.10995500000001
 11
285.25247200000001
 21
419.10995500000001
  0
LINE
  8
_0-0_0
  6
CONTINUOUS
 62
    7
 10
285.00247200000001
 20
419.38797
 11
285.25247200000001
 21
419.10995500000001
  0
LINE
  8
_0-0_0
  6
CONTINUOUS
 62
    7
 10
294.50247200000001
 20
418.99111899999997
 11
285.25247200000001
 21
418.99111899999997
  0
LINE
  8
_0-0_0
  6
CONTINUOUS
 62
    7
 10
285.00247200000001
 20
419.27023300000002
 11
285.25247200000001
 21
418.99111899999997
  0
LINE
  8
_0-0_0
  6
CONTINUOUS
 62
    7
 10
294.50247200000001
 20
418.89736899999997
 11
285.25247200000001
 21
418.89736899999997
  0
LINE
  8
_0-0_0
  6
CONTINUOUS
 62
    7
 10
285.00247200000001
 20
419.17446899999999
 11
285.25247200000001
 21
418.89736899999997
  0
LINE
  8
_0-0_0
  6
CONTINUOUS
 62
    7
 10
294.50247200000001
 20
418.82961999999998
 11
285.25247200000001
 21
418.82961999999998
  0
LINE
  8
_0-0_0
  6
CONTINUOUS
 62
    7
 10
285.00247200000001
 20
419.101654
 11
285.25247200000001
 21
418.82961999999998
  0
LINE
  8
_0-0_0
  6
CONTINUOUS
 62
    7
 10
294.50247200000001
 20
418.78866599999998
 11
285.25247200000001
 21
418.78866599999998
  0
LINE
  8
_0-0_0
  6
CONTINUOUS
 62
    7
 10
285.00247200000001
 20
419.05270400000001
 11
285.25247200000001
 21
418.78866599999998
  0
LINE
  8
_0-0_0
  6
CONTINUOUS
 62
    7
 10
294.50247200000001
 20
418.77499399999999
 11
285.25247200000001
 21
418.77499399999999
  0
LINE
  8
_0-0_0
  6
CONTINUOUS
 62
    7
 10
285.00247200000001
 20
419.02810699999998
 11
285.25247200000001
 21
418.77499399999999
  0
LINE
  8
_0-0_0
  6
CONTINUOUS
 62
    7
 10
294.50247200000001
 20
423.44009399999999
 11
285.25247200000001
 21
423.44009399999999
  0
LINE
  8
_0-0_0
  6
CONTINUOUS
 62
    7
 10
294.75247200000001
 20
423.27975499999997
 11
294.62252799999999
 21
423.36361699999998
  0
LINE
  8
_0-0_0
  6
CONTINUOUS
 62
    7
 10
285.00247200000001
 20
423.27975499999997
 11
285.13244599999996
 21
423.36361699999998
  0
LINE
  8
_0-0_0
  6
CONTINUOUS
 62
    7
 10
285.13244599999996
 20
423.36361699999998
 11
285.25247200000001
 21
423.44009399999999
  0
LINE
  8
_0-0_0
  6
CONTINUOUS
 62
    7
 10
294.50247200000001
 20
423.29751599999997
 11
285.25247200000001
 21
423.29751599999997
  0
LINE
  8
_0-0_0
  6
CONTINUOUS
 62
    7
 10
285.00247200000001
 20
423.16201799999999
 11
285.25247200000001
 21
423.29751599999997
  0
LINE
  8
_0-0_0
  6
CONTINUOUS
 62
    7
 10
294.75247200000001
 20
423.27975499999997
 11
294.50247200000001
 21
423.55886900000002
  0
LINE
  8
_0-0_0
  6
CONTINUOUS
 62
    7
 10
294.50247200000001
 20
423.55886900000002
 11
285.25247200000001
 21
423.55886900000002
  0
LINE
  8
_0-0_0
  6
CONTINUOUS
 62
    7
 10
285.00247200000001
 20
423.27975499999997
 11
285.25247200000001
 21
423.55886900000002
  0
LINE
  8
_0-0_0
  6
CONTINUOUS
 62
    7
 10
294.75247200000001
 20
423.37558000000001
 11
294.50247200000001
 21
423.55886900000002
  0
LINE
  8
_0-0_0
  6
CONTINUOUS
 62
    7
 10
285.00247200000001
 20
423.37558000000001
 11
285.25247200000001
 21
423.55886900000002
  0
LINE
  8
_0-0_0
  6
CONTINUOUS
 62
    7
 10
294.75247200000001
 20
423.37558000000001
 11
294.50247200000001
 21
423.65261900000002
  0
LINE
  8
_0-0_0
  6
CONTINUOUS
 62
    7
 10
294.50247200000001
 20
423.65261900000002
 11
285.25247200000001
 21
423.65261900000002
  0
LINE
  8
_0-0_0
  6
CONTINUOUS
 62
    7
 10
285.00247200000001
 20
423.37558000000001
 11
285.25247200000001
 21
423.65261900000002
  0
LINE
  8
_0-0_0
  6
CONTINUOUS
 62
    7
 10
294.75247200000001
 20
423.44833399999999
 11
294.50247200000001
 21
423.65261900000002
  0
LINE
  8
_0-0_0
  6
CONTINUOUS
 62
    7
 10
285.00247200000001
 20
423.44833399999999
 11
285.25247200000001
 21
423.65261900000002
  0
LINE
  8
_0-0_0
  6
CONTINUOUS
 62
    7
 10
294.75247200000001
 20
423.44833399999999
 11
294.50247200000001
 21
423.72036800000001
  0
LINE
  8
_0-0_0
  6
CONTINUOUS
 62
    7
 10
294.50247200000001
 20
423.72036800000001
 11
285.25247200000001
 21
423.72036800000001
  0
LINE
  8
_0-0_0
  6
CONTINUOUS
 62
    7
 10
285.00247200000001
 20
423.44833399999999
 11
285.25247200000001
 21
423.72036800000001
  0
LINE
  8
_0-0_0
  6
CONTINUOUS
 62
    7
 10
294.75247200000001
 20
423.49728399999998
 11
294.50247200000001
 21
423.72036800000001
  0
LINE
  8
_0-0_0
  6
CONTINUOUS
 62
    7
 10
285.00247200000001
 20
423.49728399999998
 11
285.25247200000001
 21
423.72036800000001
  0
LINE
  8
_0-0_0
  6
CONTINUOUS
 62
    7
 10
294.75247200000001
 20
423.49728399999998
 11
294.50247200000001
 21
423.76132200000001
  0
LINE
  8
_0-0_0
  6
CONTINUOUS
 62
    7
 10
294.50247200000001
 20
423.76132200000001
 11
285.25247200000001
 21
423.76132200000001
  0
LINE
  8
_0-0_0
  6
CONTINUOUS
 62
    7
 10
285.00247200000001
 20
423.49728399999998
 11
285.25247200000001
 21
423.76132200000001
  0
LINE
  8
_0-0_0
  6
CONTINUOUS
 62
    7
 10
294.75247200000001
 20
423.52194199999997
 11
294.50247200000001
 21
423.76132200000001
  0
LINE
  8
_0-0_0
  6
CONTINUOUS
 62
    7
 10
285.00247200000001
 20
423.52194199999997
 11
285.25247200000001
 21
423.76132200000001
  0
LINE
  8
_0-0_0
  6
CONTINUOUS
 62
    7
 10
294.75247200000001
 20
423.52194199999997
 11
294.50247200000001
 21
423.77499399999999
  0
LINE
  8
_0-0_0
  6
CONTINUOUS
 62
    7
 10
294.50247200000001
 20
423.77499399999999
 11
285.25247200000001
 21
423.77499399999999
  0
LINE
  8
_0-0_0
  6
CONTINUOUS
 62
    7
 10
285.00247200000001
 20
423.52194199999997
 11
285.25247200000001
 21
423.77499399999999
  0
LINE
  8
_0-0_0
  6
CONTINUOUS
 62
    7
 10
340.20248399999997
 20
408.97500600000001
 11
340.20248399999997
 21
408.97634899999997
  0
LINE
  8
_0-0_0
  6
CONTINUOUS
 62
    7
 10
340.20248399999997
 20
408.97634899999997
 11
340.20248399999997
 21
416.97500600000001
  0
LINE
  8
_0-0_0
  6
CONTINUOUS
 62
    7
 10
285.00247200000001
 20
423.16201799999999
 11
285.25247200000001
 21
423.44009399999999
  0
LINE
  8
_0-0_0
  6
CONTINUOUS
 62
    7
 10
295.00247200000001
 20
423.03018199999997
 11
295.00247200000001
 21
423.27499399999999
  0
LINE
  8
_0-0_0
  6
CONTINUOUS
 62
    7
 10
285.00247200000001
 20
419.02810699999998
 11
285.25247200000001
 21
418.78866599999998
  0
LINE
  8
_0-0_0
  6
CONTINUOUS
 62
    7
 10
285.00247200000001
 20
419.05270400000001
 11
285.25247200000001
 21
418.82961999999998
  0
LINE
  8
_0-0_0
  6
CONTINUOUS
 62
    7
 10
285.00247200000001
 20
419.101654
 11
285.25247200000001
 21
418.89736899999997
  0
LINE
  8
_0-0_0
  6
CONTINUOUS
 62
    7
 10
285.00247200000001
 20
419.17446899999999
 11
285.25247200000001
 21
418.99111899999997
  0
LINE
  8
_0-0_0
  6
CONTINUOUS
 62
    7
 10
285.00247200000001
 20
419.27023300000002
 11
285.25247200000001
 21
419.10995500000001
  0
LINE
  8
_0-0_0
  6
CONTINUOUS
 62
    7
 10
285.00247200000001
 20
419.38797
 11
285.25247200000001
 21
419.25247200000001
  0
LINE
  8
_0-0_0
  6
CONTINUOUS
 62
    7
 10
285.00247200000001
 20
419.52639799999997
 11
285.25247200000001
 21
419.417145
  0
LINE
  8
_0-0_0
  6
CONTINUOUS
 62
    7
 10
285.00247200000001
 20
419.68399099999999
 11
285.25247200000001
 21
419.60220299999997
  0
LINE
  8
_0-0_0
  6
CONTINUOUS
 62
    7
 10
294.50247200000001
 20
419.80551199999996
 11
285.25247200000001
 21
419.80551199999996
  0
LINE
  8
_0-0_0
  6
CONTINUOUS
 62
    7
 10
285.00247200000001
 20
419.859039
 11
285.25247200000001
 21
419.80551199999996
  0
LINE
  8
_0-0_0
  6
CONTINUOUS
 62
    7
 10
285.00247200000001
 20
420.25351000000001
 11
285.25247200000001
 21
420.25814800000001
  0
LINE
  8
_0-0_0
  6
CONTINUOUS
 62
    7
 10
294.75247200000001
 20
420.25351000000001
 11
285.00247200000001
 21
420.25351000000001
  0
LINE
  8
_0-0_0
  6
CONTINUOUS
 62
    7
 10
285.00247200000001
 20
420.468659
 11
285.25247200000001
 21
420.50247200000001
  0
LINE
  8
_0-0_0
  6
CONTINUOUS
 62
    7
 10
285.00247200000001
 20
420.69265799999999
 11
285.25247200000001
 21
420.75521900000001
  0
LINE
  8
_0-0_0
  6
CONTINUOUS
 62
    7
 10
285.00247200000001
 20
420.92300399999999
 11
285.25247200000001
 21
421.01370199999997
  0
LINE
  8
_0-0_0
  6
CONTINUOUS
 62
    7
 10
285.00247200000001
 20
421.15725700000002
 11
285.25247200000001
 21
421.27499399999999
  0
LINE
  8
_0-0_0
  6
CONTINUOUS
 62
    7
 10
285.00247200000001
 20
421.39273099999997
 11
285.25247200000001
 21
421.53634699999998
  0
LINE
  8
_0-0_0
  6
CONTINUOUS
 62
    7
 10
285.00247200000001
 20
421.62698399999999
 11
285.25247200000001
 21
421.79476899999997
  0
LINE
  8
_0-0_0
  6
CONTINUOUS
 62
    7
 10
285.00247200000001
 20
421.85732999999999
 11
285.25247200000001
 21
422.04751599999997
  0
LINE
  8
_0-0_0
  6
CONTINUOUS
 62
    7
 10
285.00247200000001
 20
422.08132899999998
 11
285.25247200000001
 21
422.29183999999998
  0
LINE
  8
_0-0_0
  6
CONTINUOUS
 62
    7
 10
285.00247200000001
 20
422.29647799999998
 11
285.25247200000001
 21
422.52499399999999
  0
LINE
  8
_0-0_0
  6
CONTINUOUS
 62
    7
 10
285.00247200000001
 20
422.50045799999998
 11
285.25247200000001
 21
422.74447600000002
  0
LINE
  8
_0-0_0
  6
CONTINUOUS
 62
    7
 10
285.00247200000001
 20
422.69094899999999
 11
285.25247200000001
 21
422.94784599999997
  0
LINE
  8
_0-0_0
  6
CONTINUOUS
 62
    7
 10
285.00247200000001
 20
422.86599699999999
 11
285.25247200000001
 21
423.13284299999998
  0
LINE
  8
_0-0_0
  6
CONTINUOUS
 62
    7
 10
285.00247200000001
 20
423.02359000000001
 11
285.25247200000001
 21
423.29751599999997
  0
LINE
  8
_0-0_0
  6
CONTINUOUS
 62
    7
 10
285.00247200000001
 20
420.04959100000002
 11
285.25247200000001
 21
419.80551199999996
  0
LINE
  8
_0-0_0
  6
CONTINUOUS
 62
    7
 10
285.00247200000001
 20
420.25351000000001
 11
285.25247200000001
 21
420.02499399999999
  0
LINE
  8
_0-0_0
  6
CONTINUOUS
 62
    7
 10
285.00247200000001
 20
406.561981
 11
285.25247200000001
 21
406.840057
  0
LINE
  8
_0-0_0
  6
CONTINUOUS
 62
    7
 10
295.00247200000001
 20
406.43014499999998
 11
295.00247200000001
 21
406.67501799999997
  0
LINE
  8
_0-0_0
  6
CONTINUOUS
 62
    7
 10
285.00247200000001
 20
402.42806999999999
 11
285.25247200000001
 21
402.18869000000001
  0
LINE
  8
_0-0_0
  6
CONTINUOUS
 62
    7
 10
285.00247200000001
 20
402.45272799999998
 11
285.25247200000001
 21
402.229645
  0
LINE
  8
_0-0_0
  6
CONTINUOUS
 62
    7
 10
285.00247200000001
 20
402.50167899999997
 11
285.25247200000001
 21
402.29733299999998
  0
LINE
  8
_0-0_0
  6
CONTINUOUS
 62
    7
 10
285.00247200000001
 20
402.574432
 11
285.25247200000001
 21
402.391144
  0
LINE
  8
_0-0_0
  6
CONTINUOUS
 62
    7
 10
285.00247200000001
 20
402.67025799999999
 11
285.25247200000001
 21
402.50991799999997
  0
LINE
  8
_0-0_0
  6
CONTINUOUS
 62
    7
 10
285.00247200000001
 20
402.78799399999997
 11
285.25247200000001
 21
402.65243499999997
  0
LINE
  8
_0-0_0
  6
CONTINUOUS
 62
    7
 10
285.00247200000001
 20
402.926422
 11
285.25247200000001
 21
402.81710800000002
  0
LINE
  8
_0-0_0
  6
CONTINUOUS
 62
    7
 10
285.00247200000001
 20
403.08401499999997
 11
285.25247200000001
 21
403.00216699999999
  0
LINE
  8
_0-0_0
  6
CONTINUOUS
 62
    7
 10
294.50247200000001
 20
403.205536
 11
285.25247200000001
 21
403.205536
  0
LINE
  8
_0-0_0
  6
CONTINUOUS
 62
    7
 10
285.00247200000001
 20
403.25900300000001
 11
285.25247200000001
 21
403.205536
  0
LINE
  8
_0-0_0
  6
CONTINUOUS
 62
    7
 10
285.00247200000001
 20
403.65353399999998
 11
285.25247200000001
 21
403.65817299999998
  0
LINE
  8
_0-0_0
  6
CONTINUOUS
 62
    7
 10
294.75247200000001
 20
403.65353399999998
 11
285.00247200000001
 21
403.65353399999998
  0
LINE
  8
_0-0_0
  6
CONTINUOUS
 62
    7
 10
285.00247200000001
 20
403.86868299999998
 11
285.25247200000001
 21
403.90243499999997
  0
LINE
  8
_0-0_0
  6
CONTINUOUS
 62
    7
 10
285.00247200000001
 20
404.09268199999997
 11
285.25247200000001
 21
404.15524299999998
  0
LINE
  8
_0-0_0
  6
CONTINUOUS
 62
    7
 10
285.00247200000001
 20
404.32302900000002
 11
285.25247200000001
 21
404.41366599999998
  0
LINE
  8
_0-0_0
  6
CONTINUOUS
 62
    7
 10
285.00247200000001
 20
404.55722099999997
 11
285.25247200000001
 21
404.67501799999997
  0
LINE
  8
_0-0_0
  6
CONTINUOUS
 62
    7
 10
285.00247200000001
 20
404.792755
 11
285.25247200000001
 21
404.93630999999999
  0
LINE
  8
_0-0_0
  6
CONTINUOUS
 62
    7
 10
285.00247200000001
 20
405.02700799999997
 11
285.25247200000001
 21
405.194794
  0
LINE
  8
_0-0_0
  6
CONTINUOUS
 62
    7
 10
285.00247200000001
 20
405.25735500000002
 11
285.25247200000001
 21
405.44754
  0
LINE
  8
_0-0_0
  6
CONTINUOUS
 62
    7
 10
285.00247200000001
 20
405.48135400000001
 11
285.25247200000001
 21
405.69186400000001
  0
LINE
  8
_0-0_0
  6
CONTINUOUS
 62
    7
 10
285.00247200000001
 20
405.69650300000001
 11
285.25247200000001
 21
405.92501799999997
  0
LINE
  8
_0-0_0
  6
CONTINUOUS
 62
    7
 10
285.00247200000001
 20
405.90042099999999
 11
285.25247200000001
 21
406.14443999999997
  0
LINE
  8
_0-0_0
  6
CONTINUOUS
 62
    7
 10
285.00247200000001
 20
406.09097300000002
 11
285.25247200000001
 21
406.34780899999998
  0
LINE
  8
_0-0_0
  6
CONTINUOUS
 62
    7
 10
285.00247200000001
 20
406.265961
 11
285.25247200000001
 21
406.53286800000001
  0
LINE
  8
_0-0_0
  6
CONTINUOUS
 62
    7
 10
285.00247200000001
 20
406.42355399999997
 11
285.25247200000001
 21
406.69754
  0
LINE
  8
_0-0_0
  6
CONTINUOUS
 62
    7
 10
285.00247200000001
 20
403.44955499999998
 11
285.25247200000001
 21
403.205536
  0
LINE
  8
_0-0_0
  6
CONTINUOUS
 62
    7
 10
285.00247200000001
 20
403.65353399999998
 11
285.25247200000001
 21
403.42501799999997
  0
LINE
  8
_0-0_0
  6
CONTINUOUS
 62
    7
 10
282.20248400000003
 20
408.43685899999997
 11
282.20248400000003
 21
410.705963
  0
LINE
  8
_0-0_0
  6
CONTINUOUS
 62
    7
 10
282.20248400000003
 20
410.705963
 11
282.20248400000003
 21
417.51309199999997
  0
LINE
  8
_0-0_0
  6
CONTINUOUS
 62
    7
 10
285.00247200000001
 20
420.25351000000001
 11
285.00247200000001
 21
420.468659
  0
LINE
  8
_0-0_0
  6
CONTINUOUS
 62
    7
 10
285.00247200000001
 20
420.468659
 11
285.00247200000001
 21
420.69265799999999
  0
LINE
  8
_0-0_0
  6
CONTINUOUS
 62
    7
 10
285.00247200000001
 20
420.69265799999999
 11
285.00247200000001
 21
420.92300399999999
  0
LINE
  8
_0-0_0
  6
CONTINUOUS
 62
    7
 10
285.00247200000001
 20
420.92300399999999
 11
285.00247200000001
 21
421.15725700000002
  0
LINE
  8
_0-0_0
  6
CONTINUOUS
 62
    7
 10
285.00247200000001
 20
421.15725700000002
 11
285.00247200000001
 21
421.39273099999997
  0
LINE
  8
_0-0_0
  6
CONTINUOUS
 62
    7
 10
285.00247200000001
 20
421.39273099999997
 11
285.00247200000001
 21
421.62698399999999
  0
LINE
  8
_0-0_0
  6
CONTINUOUS
 62
    7
 10
285.00247200000001
 20
421.62698399999999
 11
285.00247200000001
 21
421.85732999999999
  0
LINE
  8
_0-0_0
  6
CONTINUOUS
 62
    7
 10
285.00247200000001
 20
421.85732999999999
 11
285.00247200000001
 21
422.08132899999998
  0
LINE
  8
_0-0_0
  6
CONTINUOUS
 62
    7
 10
285.00247200000001
 20
422.08132899999998
 11
285.00247200000001
 21
422.29647799999998
  0
LINE
  8
_0-0_0
  6
CONTINUOUS
 62
    7
 10
285.00247200000001
 20
422.29647799999998
 11
285.00247200000001
 21
422.50045799999998
  0
LINE
  8
_0-0_0
  6
CONTINUOUS
 62
    7
 10
285.00247200000001
 20
422.50045799999998
 11
285.00247200000001
 21
422.69094899999999
  0
LINE
  8
_0-0_0
  6
CONTINUOUS
 62
    7
 10
285.00247200000001
 20
422.69094899999999
 11
285.00247200000001
 21
422.86599699999999
  0
LINE
  8
_0-0_0
  6
CONTINUOUS
 62
    7
 10
285.00247200000001
 20
422.86599699999999
 11
285.00247200000001
 21
423.02359000000001
  0
LINE
  8
_0-0_0
  6
CONTINUOUS
 62
    7
 10
285.00247200000001
 20
423.02359000000001
 11
285.00247200000001
 21
423.16201799999999
  0
LINE
  8
_0-0_0
  6
CONTINUOUS
 62
    7
 10
285.00247200000001
 20
423.16201799999999
 11
285.00247200000001
 21
423.24954200000002
  0
LINE
  8
_0-0_0
  6
CONTINUOUS
 62
    7
 10
285.00247200000001
 20
423.24954200000002
 11
285.00247200000001
 21
423.27975499999997
  0
LINE
  8
_0-0_0
  6
CONTINUOUS
 62
    7
 10
285.00247200000001
 20
423.27975499999997
 11
285.00247200000001
 21
423.37558000000001
  0
LINE
  8
_0-0_0
  6
CONTINUOUS
 62
    7
 10
285.00247200000001
 20
423.37558000000001
 11
285.00247200000001
 21
423.44833399999999
  0
LINE
  8
_0-0_0
  6
CONTINUOUS
 62
    7
 10
285.00247200000001
 20
423.44833399999999
 11
285.00247200000001
 21
423.52499399999999
  0
LINE
  8
_0-0_0
  6
CONTINUOUS
 62
    7
 10
285.00247200000001
 20
423.49728399999998
 11
285.00247200000001
 21
423.52194199999997
  0
LINE
  8
_0-0_0
  6
CONTINUOUS
 62
    7
 10
285.00247200000001
 20
423.52194199999997
 11
285.00247200000001
 21
423.52499399999999
  0
LINE
  8
_0-0_0
  6
CONTINUOUS
 62
    7
 10
285.00247200000001
 20
419.02499399999999
 11
285.00247200000001
 21
419.02810699999998
  0
LINE
  8
_0-0_0
  6
CONTINUOUS
 62
    7
 10
285.00247200000001
 20
419.02810699999998
 11
285.00247200000001
 21
419.05270400000001
  0
LINE
  8
_0-0_0
  6
CONTINUOUS
 62
    7
 10
285.00247200000001
 20
419.05270400000001
 11
285.00247200000001
 21
419.101654
  0
LINE
  8
_0-0_0
  6
CONTINUOUS
 62
    7
 10
285.00247200000001
 20
419.02499399999999
 11
285.00247200000001
 21
419.17446899999999
  0
LINE
  8
_0-0_0
  6
CONTINUOUS
 62
    7
 10
285.00247200000001
 20
419.17446899999999
 11
285.00247200000001
 21
419.27023300000002
  0
LINE
  8
_0-0_0
  6
CONTINUOUS
 62
    7
 10
285.00247200000001
 20
419.27023300000002
 11
285.00247200000001
 21
419.38797
  0
LINE
  8
_0-0_0
  6
CONTINUOUS
 62
    7
 10
285.00247200000001
 20
419.38797
 11
285.00247200000001
 21
419.52639799999997
  0
LINE
  8
_0-0_0
  6
CONTINUOUS
 62
    7
 10
285.00247200000001
 20
419.52639799999997
 11
285.00247200000001
 21
419.68399099999999
  0
LINE
  8
_0-0_0
  6
CONTINUOUS
 62
    7
 10
285.00247200000001
 20
419.68399099999999
 11
285.00247200000001
 21
419.859039
  0
LINE
  8
_0-0_0
  6
CONTINUOUS
 62
    7
 10
285.00247200000001
 20
419.859039
 11
285.00247200000001
 21
420.04959100000002
  0
LINE
  8
_0-0_0
  6
CONTINUOUS
 62
    7
 10
285.00247200000001
 20
420.19632000000001
 11
285.00247200000001
 21
420.25351000000001
  0
LINE
  8
_0-0_0
  6
CONTINUOUS
 62
    7
 10
285.00247200000001
 20
420.04959100000002
 11
285.00247200000001
 21
420.19632000000001
  0
LINE
  8
_0-0_0
  6
CONTINUOUS
 62
    7
 10
285.00247200000001
 20
403.65353399999998
 11
285.00247200000001
 21
403.86868299999998
  0
LINE
  8
_0-0_0
  6
CONTINUOUS
 62
    7
 10
285.00247200000001
 20
403.86868299999998
 11
285.00247200000001
 21
404.09268199999997
  0
LINE
  8
_0-0_0
  6
CONTINUOUS
 62
    7
 10
285.00247200000001
 20
404.09268199999997
 11
285.00247200000001
 21
404.32302900000002
  0
LINE
  8
_0-0_0
  6
CONTINUOUS
 62
    7
 10
285.00247200000001
 20
404.32302900000002
 11
285.00247200000001
 21
404.55722099999997
  0
LINE
  8
_0-0_0
  6
CONTINUOUS
 62
    7
 10
285.00247200000001
 20
404.55722099999997
 11
285.00247200000001
 21
404.792755
  0
LINE
  8
_0-0_0
  6
CONTINUOUS
 62
    7
 10
285.00247200000001
 20
404.792755
 11
285.00247200000001
 21
405.02700799999997
  0
LINE
  8
_0-0_0
  6
CONTINUOUS
 62
    7
 10
285.00247200000001
 20
405.02700799999997
 11
285.00247200000001
 21
405.25735500000002
  0
LINE
  8
_0-0_0
  6
CONTINUOUS
 62
    7
 10
285.00247200000001
 20
405.25735500000002
 11
285.00247200000001
 21
405.48135400000001
  0
LINE
  8
_0-0_0
  6
CONTINUOUS
 62
    7
 10
285.00247200000001
 20
405.48135400000001
 11
285.00247200000001
 21
405.69650300000001
  0
LINE
  8
_0-0_0
  6
CONTINUOUS
 62
    7
 10
285.00247200000001
 20
405.69650300000001
 11
285.00247200000001
 21
405.90042099999999
  0
LINE
  8
_0-0_0
  6
CONTINUOUS
 62
    7
 10
285.00247200000001
 20
405.90042099999999
 11
285.00247200000001
 21
406.09097300000002
  0
LINE
  8
_0-0_0
  6
CONTINUOUS
 62
    7
 10
285.00247200000001
 20
406.09097300000002
 11
285.00247200000001
 21
406.265961
  0
LINE
  8
_0-0_0
  6
CONTINUOUS
 62
    7
 10
285.00247200000001
 20
406.265961
 11
285.00247200000001
 21
406.42355399999997
  0
LINE
  8
_0-0_0
  6
CONTINUOUS
 62
    7
 10
285.00247200000001
 20
406.42355399999997
 11
285.00247200000001
 21
406.561981
  0
LINE
  8
_0-0_0
  6
CONTINUOUS
 62
    7
 10
285.00247200000001
 20
406.561981
 11
285.00247200000001
 21
406.64956699999999
  0
LINE
  8
_0-0_0
  6
CONTINUOUS
 62
    7
 10
285.00247200000001
 20
406.64956699999999
 11
285.00247200000001
 21
406.679779
  0
LINE
  8
_0-0_0
  6
CONTINUOUS
 62
    7
 10
285.00247200000001
 20
406.679779
 11
285.00247200000001
 21
406.77554299999997
  0
LINE
  8
_0-0_0
  6
CONTINUOUS
 62
    7
 10
285.00247200000001
 20
406.77554299999997
 11
285.00247200000001
 21
406.84835800000002
  0
LINE
  8
_0-0_0
  6
CONTINUOUS
 62
    7
 10
285.00247200000001
 20
406.84835800000002
 11
285.00247200000001
 21
406.92501799999997
  0
LINE
  8
_0-0_0
  6
CONTINUOUS
 62
    7
 10
285.00247200000001
 20
406.89730800000001
 11
285.00247200000001
 21
406.92190599999998
  0
LINE
  8
_0-0_0
  6
CONTINUOUS
 62
    7
 10
285.00247200000001
 20
406.92190599999998
 11
285.00247200000001
 21
406.92501799999997
  0
LINE
  8
_0-0_0
  6
CONTINUOUS
 62
    7
 10
285.00247200000001
 20
402.42501799999997
 11
285.00247200000001
 21
402.42806999999999
  0
LINE
  8
_0-0_0
  6
CONTINUOUS
 62
    7
 10
285.00247200000001
 20
402.42806999999999
 11
285.00247200000001
 21
402.45272799999998
  0
LINE
  8
_0-0_0
  6
CONTINUOUS
 62
    7
 10
285.00247200000001
 20
402.42501799999997
 11
285.00247200000001
 21
402.50167899999997
  0
LINE
  8
_0-0_0
  6
CONTINUOUS
 62
    7
 10
285.00247200000001
 20
402.50167899999997
 11
285.00247200000001
 21
402.574432
  0
LINE
  8
_0-0_0
  6
CONTINUOUS
 62
    7
 10
285.00247200000001
 20
402.574432
 11
285.00247200000001
 21
402.67025799999999
  0
LINE
  8
_0-0_0
  6
CONTINUOUS
 62
    7
 10
285.00247200000001
 20
402.67025799999999
 11
285.00247200000001
 21
402.78799399999997
  0
LINE
  8
_0-0_0
  6
CONTINUOUS
 62
    7
 10
285.00247200000001
 20
402.78799399999997
 11
285.00247200000001
 21
402.926422
  0
LINE
  8
_0-0_0
  6
CONTINUOUS
 62
    7
 10
285.00247200000001
 20
402.926422
 11
285.00247200000001
 21
403.08401499999997
  0
LINE
  8
_0-0_0
  6
CONTINUOUS
 62
    7
 10
285.00247200000001
 20
403.08401499999997
 11
285.00247200000001
 21
403.25900300000001
  0
LINE
  8
_0-0_0
  6
CONTINUOUS
 62
    7
 10
285.00247200000001
 20
403.25900300000001
 11
285.00247200000001
 21
403.44955499999998
  0
LINE
  8
_0-0_0
  6
CONTINUOUS
 62
    7
 10
285.00247200000001
 20
403.59628299999997
 11
285.00247200000001
 21
403.65353399999998
  0
LINE
  8
_0-0_0
  6
CONTINUOUS
 62
    7
 10
285.00247200000001
 20
403.44955499999998
 11
285.00247200000001
 21
403.59628299999997
  0
LINE
  8
_0-0_0
  6
CONTINUOUS
 62
    7
 10
281.402466
 20
410.47500600000001
 11
281.402466
 21
417.97500600000001
  0
LINE
  8
_0-0_0
  6
CONTINUOUS
 62
    7
 10
281.402466
 20
407.97500600000001
 11
281.402466
 21
410.47500600000001
  0
LINE
  8
_0-0_0
  6
CONTINUOUS
 62
    7
 10
270.00247200000001
 20
419.47500600000001
 11
279.71029699999997
 21
419.47500600000001
  0
LINE
  8
_0-0_0
  6
CONTINUOUS
 62
    7
 10
279.75247200000001
 20
419.47500600000001
 11
279.71029699999997
 21
419.47500600000001
  0
LINE
  8
_0-0_0
  6
CONTINUOUS
 62
    7
 10
269.70248400000003
 20
410.76297
 11
269.76129100000003
 21
410.516144
  0
LINE
  8
_0-0_0
  6
CONTINUOUS
 62
    7
 10
269.76129100000003
 20
410.516144
 11
269.81103499999995
 21
410.32382200000001
  0
LINE
  8
_0-0_0
  6
CONTINUOUS
 62
    7
 10
269.81103499999995
 20
410.32382200000001
 11
269.88217199999997
 21
410.05807499999997
  0
LINE
  8
_0-0_0
  6
CONTINUOUS
 62
    7
 10
269.88217199999997
 20
410.05807499999997
 11
269.91513099999997
 21
409.93136599999997
  0
LINE
  8
_0-0_0
  6
CONTINUOUS
 62
    7
 10
269.91513099999997
 20
409.93136599999997
 11
269.94036899999998
 21
409.82791099999997
  0
LINE
  8
_0-0_0
  6
CONTINUOUS
 62
    7
 10
269.94036899999998
 20
409.82791099999997
 11
269.962402
 21
409.727936
  0
LINE
  8
_0-0_0
  6
CONTINUOUS
 62
    7
 10
269.962402
 20
409.727936
 11
269.98379499999999
 21
409.61025999999998
  0
LINE
  8
_0-0_0
  6
CONTINUOUS
 62
    7
 10
269.98379499999999
 20
409.61025999999998
 11
269.99237099999999
 21
409.54812599999997
  0
LINE
  8
_0-0_0
  6
CONTINUOUS
 62
    7
 10
269.99237099999999
 20
409.54812599999997
 11
269.99844399999995
 21
409.48751799999997
  0
LINE
  8
_0-0_0
  6
CONTINUOUS
 62
    7
 10
269.99844399999995
 20
409.48751799999997
 11
270.001465
 21
409.43826300000001
  0
LINE
  8
_0-0_0
  6
CONTINUOUS
 62
    7
 10
270.001465
 20
409.43826300000001
 11
270.00247200000001
 21
409.39004499999999
  0
LINE
  8
_0-0_0
  6
CONTINUOUS
 62
    7
 10
269.70248400000003
 20
415.186981
 11
269.76126099999999
 21
415.433807
  0
LINE
  8
_0-0_0
  6
CONTINUOUS
 62
    7
 10
269.76126099999999
 20
415.433807
 11
269.81103499999995
 21
415.62619000000001
  0
LINE
  8
_0-0_0
  6
CONTINUOUS
 62
    7
 10
269.81103499999995
 20
415.62619000000001
 11
269.88217199999997
 21
415.89193699999998
  0
LINE
  8
_0-0_0
  6
CONTINUOUS
 62
    7
 10
269.88217199999997
 20
415.89193699999998
 11
269.91513099999997
 21
416.01870700000001
  0
LINE
  8
_0-0_0
  6
CONTINUOUS
 62
    7
 10
269.91513099999997
 20
416.01870700000001
 11
269.94039899999996
 21
416.12210099999999
  0
LINE
  8
_0-0_0
  6
CONTINUOUS
 62
    7
 10
269.94039899999996
 20
416.12210099999999
 11
269.962402
 21
416.222015
  0
LINE
  8
_0-0_0
  6
CONTINUOUS
 62
    7
 10
269.962402
 20
416.222015
 11
269.98379499999999
 21
416.33975199999998
  0
LINE
  8
_0-0_0
  6
CONTINUOUS
 62
    7
 10
269.98379499999999
 20
416.33975199999998
 11
269.99237099999999
 21
416.40188599999999
  0
LINE
  8
_0-0_0
  6
CONTINUOUS
 62
    7
 10
269.99237099999999
 20
416.40188599999999
 11
269.99844399999995
 21
416.46249399999999
  0
LINE
  8
_0-0_0
  6
CONTINUOUS
 62
    7
 10
269.99844399999995
 20
416.46249399999999
 11
270.001465
 21
416.51174900000001
  0
LINE
  8
_0-0_0
  6
CONTINUOUS
 62
    7
 10
270.001465
 20
416.51174900000001
 11
270.00247200000001
 21
416.55996699999997
  0
LINE
  8
_0-0_0
  6
CONTINUOUS
 62
    7
 10
270.00247200000001
 20
411.41293300000001
 11
270.00247200000001
 21
410.367279
  0
LINE
  8
_0-0_0
  6
CONTINUOUS
 62
    7
 10
270.00247200000001
 20
409.082672
 11
270.00247200000001
 21
410.367279
  0
LINE
  8
_0-0_0
  6
CONTINUOUS
 62
    7
 10
270.00247200000001
 20
408.96731599999998
 11
270.00247200000001
 21
409.082672
  0
ARC
  8
_0-0_0
  6
CONTINUOUS
 62
    7
 10
268.00247200000001
 20
420.33346599999999
 40
2
 50
0
 51
71.565000999999995
  0
LINE
  8
_0-0_0
  6
CONTINUOUS
 62
    7
 10
279.71029699999997
 20
419.47500600000001
 11
279.76480099999998
 21
419.40505999999999
  0
LINE
  8
_0-0_0
  6
CONTINUOUS
 62
    7
 10
279.76480099999998
 20
419.40505999999999
 11
279.81588699999998
 21
419.33621199999999
  0
LINE
  8
_0-0_0
  6
CONTINUOUS
 62
    7
 10
279.81588699999998
 20
419.33621199999999
 11
279.86352499999998
 21
419.26870700000001
  0
LINE
  8
_0-0_0
  6
CONTINUOUS
 62
    7
 10
279.86352499999998
 20
419.26870700000001
 11
279.90801999999996
 21
419.202179
  0
LINE
  8
_0-0_0
  6
CONTINUOUS
 62
    7
 10
279.90801999999996
 20
419.202179
 11
279.962738
 21
419.11465499999997
  0
LINE
  8
_0-0_0
  6
CONTINUOUS
 62
    7
 10
279.962738
 20
419.11465499999997
 11
280.01226799999995
 21
419.02853399999998
  0
LINE
  8
_0-0_0
  6
CONTINUOUS
 62
    7
 10
280.01226799999995
 20
419.02853399999998
 11
280.05673200000001
 21
418.94369499999999
  0
LINE
  8
_0-0_0
  6
CONTINUOUS
 62
    7
 10
280.05673200000001
 20
418.94369499999999
 11
280.10369900000001
 21
418.843414
  0
LINE
  8
_0-0_0
  6
CONTINUOUS
 62
    7
 10
280.10369900000001
 20
418.843414
 11
280.14389
 21
418.74447600000002
  0
LINE
  8
_0-0_0
  6
CONTINUOUS
 62
    7
 10
280.14389
 20
418.74447600000002
 11
280.17755099999999
 21
418.64669800000001
  0
LINE
  8
_0-0_0
  6
CONTINUOUS
 62
    7
 10
280.17755099999999
 20
418.64669800000001
 11
280.20486399999999
 21
418.54989599999999
  0
LINE
  8
_0-0_0
  6
CONTINUOUS
 62
    7
 10
280.20486399999999
 20
418.54989599999999
 11
280.22589099999999
 21
418.45382699999999
  0
LINE
  8
_0-0_0
  6
CONTINUOUS
 62
    7
 10
280.22589099999999
 20
418.45382699999999
 11
280.24182099999996
 21
418.35000600000001
  0
LINE
  8
_0-0_0
  6
CONTINUOUS
 62
    7
 10
280.24182099999996
 20
418.35000600000001
 11
280.25058000000001
 21
418.24655200000001
  0
LINE
  8
_0-0_0
  6
CONTINUOUS
 62
    7
 10
280.25058000000001
 20
418.24655200000001
 11
280.252228
 21
418.14334100000002
  0
LINE
  8
_0-0_0
  6
CONTINUOUS
 62
    7
 10
280.252228
 20
418.14334100000002
 11
280.24676499999998
 21
418.04007000000001
  0
LINE
  8
_0-0_0
  6
CONTINUOUS
 62
    7
 10
280.24676499999998
 20
418.04007000000001
 11
280.23413099999999
 21
417.93643199999997
  0
LINE
  8
_0-0_0
  6
CONTINUOUS
 62
    7
 10
280.23413099999999
 20
417.93643199999997
 11
280.21432500000003
 21
417.83230600000002
  0
LINE
  8
_0-0_0
  6
CONTINUOUS
 62
    7
 10
280.21432500000003
 20
417.83230600000002
 11
280.18719499999997
 21
417.72732600000001
  0
LINE
  8
_0-0_0
  6
CONTINUOUS
 62
    7
 10
280.18719499999997
 20
417.72732600000001
 11
280.15252699999996
 21
417.621307
  0
LINE
  8
_0-0_0
  6
CONTINUOUS
 62
    7
 10
280.15252699999996
 20
417.621307
 11
280.11019899999997
 21
417.51394699999997
  0
LINE
  8
_0-0_0
  6
CONTINUOUS
 62
    7
 10
280.11019899999997
 20
417.51394699999997
 11
280.05987499999998
 21
417.40493800000002
  0
LINE
  8
_0-0_0
  6
CONTINUOUS
 62
    7
 10
280.05987499999998
 20
417.40493800000002
 11
280.00561499999998
 21
417.30178799999999
  0
LINE
  8
_0-0_0
  6
CONTINUOUS
 62
    7
 10
280.00561499999998
 20
417.30178799999999
 11
279.94390899999996
 21
417.19674700000002
  0
LINE
  8
_0-0_0
  6
CONTINUOUS
 62
    7
 10
279.94390899999996
 20
417.19674700000002
 11
279.87438999999995
 21
417.08950799999997
  0
LINE
  8
_0-0_0
  6
CONTINUOUS
 62
    7
 10
279.87438999999995
 20
417.08950799999997
 11
279.79669200000001
 21
416.97976699999998
  0
LINE
  8
_0-0_0
  6
CONTINUOUS
 62
    7
 10
279.79669200000001
 20
416.97976699999998
 11
279.71029699999997
 21
416.867279
  0
LINE
  8
_0-0_0
  6
CONTINUOUS
 62
    7
 10
270.00247200000001
 20
416.98269699999997
 11
270.00247200000001
 21
416.867279
  0
LINE
  8
_0-0_0
  6
CONTINUOUS
 62
    7
 10
270.00247200000001
 20
415.582672
 11
270.00247200000001
 21
414.53707900000001
  0
LINE
  8
_0-0_0
  6
CONTINUOUS
 62
    7
 10
270.00247200000001
 20
410.367279
 11
279.71029699999997
 21
410.367279
  0
LINE
  8
_0-0_0
  6
CONTINUOUS
 62
    7
 10
270.00247200000001
 20
409.082672
 11
279.71029699999997
 21
409.082672
  0
LINE
  8
_0-0_0
  6
CONTINUOUS
 62
    7
 10
281.00247200000001
 20
415.70657399999999
 11
281.00247200000001
 21
418.22500600000001
  0
LINE
  8
_0-0_0
  6
CONTINUOUS
 62
    7
 10
270.00247200000001
 20
420.33346599999999
 11
270.00247200000001
 21
416.98269699999997
  0
LINE
  8
_0-0_0
  6
CONTINUOUS
 62
    7
 10
259.00247200000001
 20
402.17501799999997
 11
259.00247200000001
 21
402.42507899999998
  0
LINE
  8
_0-0_0
  6
CONTINUOUS
 62
    7
 10
234.50247199999998
 20
422.27499399999999
 11
229.50247199999998
 21
422.27499399999999
  0
ARC
  8
_0-0_0
  6
CONTINUOUS
 62
    7
 10
229.50247199999998
 20
417.77499399999999
 40
4.5
 50
90.000003000000007
 51
269.99999700000006
  0
LINE
  8
_0-0_0
  6
CONTINUOUS
 62
    7
 10
234.50247199999998
 20
413.27499399999999
 11
229.50247199999998
 21
413.27499399999999
  0
ARC
  8
_0-0_0
  6
CONTINUOUS
 62
    7
 10
234.50247199999998
 20
417.77499399999999
 40
4.5
 50
269.99999700000001
 51
90.000002999999992
  0
LINE
  8
_0-0_0
  6
CONTINUOUS
 62
    7
 10
178.50247199999998
 20
422.27499399999999
 11
173.50247199999998
 21
422.27499399999999
  0
ARC
  8
_0-0_0
  6
CONTINUOUS
 62
    7
 10
173.50247199999998
 20
417.77499399999999
 40
4.5
 50
90.000003000000007
 51
269.99999700000006
  0
LINE
  8
_0-0_0
  6
CONTINUOUS
 62
    7
 10
178.50247199999998
 20
413.27499399999999
 11
173.50247199999998
 21
413.27499399999999
  0
ARC
  8
_0-0_0
  6
CONTINUOUS
 62
    7
 10
178.50247199999998
 20
417.77499399999999
 40
4.5
 50
269.99999700000001
 51
90.000002999999992
  0
LINE
  8
_0-0_0
  6
CONTINUOUS
 62
    7
 10
203.814987
 20
421.84463499999998
 11
202.514984
 21
418.34463499999998
  0
LINE
  8
_0-0_0
  6
CONTINUOUS
 62
    7
 10
202.702484
 20
418.07498199999998
 11
205.30247499999999
 21
418.07498199999998
  0
ARC
  8
_0-0_0
  6
CONTINUOUS
 62
    7
 10
205.30247499999999
 20
418.27499399999999
 40
0.2
 50
269.99999700000001
 51
20.376435000000019
  0
ARC
  8
_0-0_0
  6
CONTINUOUS
 62
    7
 10
204.00247199999998
 20
421.77499399999999
 40
0.2
 50
20.376434999999997
 51
159.62357000000003
  0
LINE
  8
_0-0_0
  6
CONTINUOUS
 62
    7
 10
259.00247200000001
 20
402.17501799999997
 11
259.00247200000001
 21
404.17501799999997
  0
ARC
  8
_0-0_0
  6
CONTINUOUS
 62
    7
 10
225.00247199999998
 20
408.57498199999998
 40
3
 50
180.00000900000003
 51
269.99999700000001
  0
LINE
  8
_0-0_0
  6
CONTINUOUS
 62
    7
 10
225.00247199999998
 20
405.57498199999998
 11
240.00247199999998
 21
405.57498199999998
  0
ARC
  8
_0-0_0
  6
CONTINUOUS
 62
    7
 10
240.00247199999998
 20
408.57498199999998
 40
3
 50
269.99999700000001
 51
0
  0
ARC
  8
_0-0_0
  6
CONTINUOUS
 62
    7
 10
240.00247199999998
 20
422.17501799999997
 40
3
 50
0
 51
90.000003000000007
  0
LINE
  8
_0-0_0
  6
CONTINUOUS
 62
    7
 10
240.00247199999998
 20
425.17501799999997
 11
225.00247199999998
 21
425.17501799999997
  0
ARC
  8
_0-0_0
  6
CONTINUOUS
 62
    7
 10
225.00247199999998
 20
422.17501799999997
 40
3
 50
90.000003000000007
 51
180.00000900000001
  0
ARC
  8
_0-0_0
  6
CONTINUOUS
 62
    7
 10
171.092163
 20
410.66470299999997
 40
5.089683
 50
180.00000900000003
 51
269.99999700000001
  0
LINE
  8
_0-0_0
  6
CONTINUOUS
 62
    7
 10
171.092163
 20
405.57498199999998
 11
182.35948199999999
 21
405.57498199999998
  0
ARC
  8
_0-0_0
  6
CONTINUOUS
 62
    7
 10
182.35948199999999
 20
409.21798699999999
 40
3.6429879999999999
 50
269.99999700000001
 51
0.0000099999999886
  0
LINE
  8
_0-0_0
  6
CONTINUOUS
 62
    7
 10
183.00247199999998
 20
425.17501799999997
 11
169.668533
 21
425.17501799999997
  0
ARC
  8
_0-0_0
  6
CONTINUOUS
 62
    7
 10
169.668533
 20
424.17501799999997
 40
1
 50
90.000003000000007
 51
172.23356100000001
  0
ARC
  8
_0-0_0
  6
CONTINUOUS
 62
    7
 10
167.00247199999998
 20
421.11270200000001
 40
1
 50
105.68034800000001
 51
180.00000900000001
  0
LINE
  8
_0-0_0
  6
CONTINUOUS
 62
    7
 10
224.40246599999998
 20
425.17501799999997
 11
224.40246599999998
 21
425.11441100000002
  0
LINE
  8
_0-0_0
  6
CONTINUOUS
 62
    7
 10
183.00247199999998
 20
405.63217199999997
 11
183.00247199999998
 21
405.579071
  0
LINE
  8
_0-0_0
  6
CONTINUOUS
 62
    7
 10
224.40246599999998
 20
405.63558999999998
 11
224.40246599999998
 21
405.579071
  0
LINE
  8
_0-0_0
  6
CONTINUOUS
 62
    7
 10
281.00247200000001
 20
407.72500600000001
 11
280.20248400000003
 21
406.92501799999997
  0
LINE
  8
_0-0_0
  6
CONTINUOUS
 62
    7
 10
295.00247200000001
 20
402.67501799999997
 11
294.502655
 21
402.17514
  0
LINE
  8
_0-0_0
  6
CONTINUOUS
 62
    7
 10
295.00247200000001
 20
419.27499399999999
 11
294.502655
 21
418.77517699999999
  0
LINE
  8
_0-0_0
  6
CONTINUOUS
 62
    7
 10
282.20248400000003
 20
416.97500600000001
 11
340.20248399999997
 21
416.97500600000001
  0
LINE
  8
_0-0_0
  6
CONTINUOUS
 62
    7
 10
282.20248400000003
 20
408.97500600000001
 11
340.20248399999997
 21
408.97500600000001
  0
LINE
  8
_0-0_0
  6
CONTINUOUS
 62
    7
 10
295.00247200000001
 20
423.27499399999999
 11
294.502655
 21
423.77487200000002
  0
LINE
  8
_0-0_0
  6
CONTINUOUS
 62
    7
 10
295.00247200000001
 20
406.67501799999997
 11
294.502655
 21
407.17483499999997
  0
LINE
  8
_0-0_0
  6
CONTINUOUS
 62
    7
 10
285.00247200000001
 20
423.52499399999999
 11
285.25247200000001
 21
423.77499399999999
  0
LINE
  8
_0-0_0
  6
CONTINUOUS
 62
    7
 10
285.00247200000001
 20
419.02499399999999
 11
285.25247200000001
 21
418.77499399999999
  0
LINE
  8
_0-0_0
  6
CONTINUOUS
 62
    7
 10
285.00247200000001
 20
406.92501799999997
 11
285.25247200000001
 21
407.17501799999997
  0
LINE
  8
_0-0_0
  6
CONTINUOUS
 62
    7
 10
285.00247200000001
 20
402.42501799999997
 11
285.25247200000001
 21
402.17501799999997
  0
LINE
  8
_0-0_0
  6
CONTINUOUS
 62
    7
 10
282.20248400000003
 20
417.51309199999997
 11
281.402466
 21
417.97500600000001
  0
LINE
  8
_0-0_0
  6
CONTINUOUS
 62
    7
 10
282.20248400000003
 20
408.43685899999997
 11
281.402466
 21
407.97500600000001
  0
LINE
  8
_0-0_0
  6
CONTINUOUS
 62
    7
 10
264.75244099999998
 20
423.52499399999999
 11
285.00247200000001
 21
423.52499399999999
  0
LINE
  8
_0-0_0
  6
CONTINUOUS
 62
    7
 10
280.20248400000003
 20
419.02499399999999
 11
285.00247200000001
 21
419.02499399999999
  0
LINE
  8
_0-0_0
  6
CONTINUOUS
 62
    7
 10
259.00247200000001
 20
406.92501799999997
 11
285.00247200000001
 21
406.92501799999997
  0
LINE
  8
_0-0_0
  6
CONTINUOUS
 62
    7
 10
259.00247200000001
 20
402.42501799999997
 11
285.00247200000001
 21
402.42501799999997
  0
LINE
  8
_0-0_0
  6
CONTINUOUS
 62
    7
 10
281.00247200000001
 20
417.97500600000001
 11
281.402466
 21
417.97500600000001
  0
LINE
  8
_0-0_0
  6
CONTINUOUS
 62
    7
 10
281.00247200000001
 20
407.97500600000001
 11
281.402466
 21
407.97500600000001
  0
LINE
  8
_0-0_0
  6
CONTINUOUS
 62
    7
 10
281.00247200000001
 20
418.22500600000001
 11
279.75247200000001
 21
419.47500600000001
  0
LINE
  8
_0-0_0
  6
CONTINUOUS
 62
    7
 10
150.00247200000001
 20
441.87497000000002
 11
152.457245
 21
441.87497000000002
  0
LINE
  8
_0-0_0
  6
CONTINUOUS
 62
    7
 10
150.00247200000001
 20
428.67501799999997
 11
150.00247200000001
 21
441.87497000000002
  0
LINE
  8
_0-0_0
  6
CONTINUOUS
 62
    7
 10
803.00247200000001
 20
428.67501799999997
 11
803.00247200000001
 21
441.87497000000002
  0
LINE
  8
_0-0_0
  6
CONTINUOUS
 62
    7
 10
800.54769899999997
 20
441.87497000000002
 11
803.00247200000001
 21
441.87497000000002
  0
ARC
  8
_0-0_0
  6
CONTINUOUS
 62
    7
 10
794.00247200000001
 20
446.47500600000001
 40
8
 50
215.099627
 51
324.90037799999999
  0
LINE
  8
_0-0_0
  6
CONTINUOUS
 62
    7
 10
165.54769899999999
 20
441.87497000000002
 11
787.45724499999994
 21
441.87497000000002
  0
ARC
  8
_0-0_0
  6
CONTINUOUS
 62
    7
 10
159.00247200000001
 20
446.47500600000001
 40
8
 50
215.099627
 51
324.90037799999999
  0
LINE
  8
_0-0_0
  6
CONTINUOUS
 62
    7
 10
152.457245
 20
441.87497000000002
 11
152.36827099999999
 21
442.00430299999999
  0
LINE
  8
_0-0_0
  6
CONTINUOUS
 62
    7
 10
165.54769899999999
 20
441.87497000000002
 11
165.63668799999999
 21
442.00430299999999
  0
LINE
  8
_0-0_0
  6
CONTINUOUS
 62
    7
 10
165.729828
 20
442.14572199999998
 11
165.63668799999999
 21
442.00430299999999
  0
LINE
  8
_0-0_0
  6
CONTINUOUS
 62
    7
 10
165.729828
 20
442.14572199999998
 11
165.81129399999998
 21
442.27499399999999
  0
ARC
  8
_0-0_0
  6
CONTINUOUS
 62
    7
 10
159.00247200000001
 20
446.47500600000001
 40
8
 50
328.33175599999993
 51
334.05550899999992
  0
LINE
  8
_0-0_0
  6
CONTINUOUS
 62
    7
 10
166.19622799999999
 20
442.97500600000001
 11
166.25770599999998
 21
443.10427900000002
  0
LINE
  8
_0-0_0
  6
CONTINUOUS
 62
    7
 10
166.32174699999999
 20
443.24569700000001
 11
166.25770599999998
 21
443.10427900000002
  0
LINE
  8
_0-0_0
  6
CONTINUOUS
 62
    7
 10
166.32174699999999
 20
443.24569700000001
 11
166.37744099999998
 21
443.37497000000002
  0
ARC
  8
_0-0_0
  6
CONTINUOUS
 62
    7
 10
159.00247200000001
 20
446.47500600000001
 40
8
 50
337.20097500000003
 51
342.54240199999998
  0
LINE
  8
_0-0_0
  6
CONTINUOUS
 62
    7
 10
166.63398699999999
 20
444.07498199999998
 11
166.673462
 21
444.20431500000001
  0
LINE
  8
_0-0_0
  6
CONTINUOUS
 62
    7
 10
166.713898
 20
444.34573399999999
 11
166.673462
 21
444.20431500000001
  0
LINE
  8
_0-0_0
  6
CONTINUOUS
 62
    7
 10
166.713898
 20
444.34573399999999
 11
166.74844399999998
 21
444.47500600000001
  0
ARC
  8
_0-0_0
  6
CONTINUOUS
 62
    7
 10
159.00247200000001
 20
446.47500600000001
 40
8
 50
345.52249499999999
 51
350.64797900000002
  0
LINE
  8
_0-0_0
  6
CONTINUOUS
 62
    7
 10
166.89614899999998
 20
445.17501799999997
 11
166.91635099999999
 21
445.30429099999998
  0
LINE
  8
_0-0_0
  6
CONTINUOUS
 62
    7
 10
166.93598899999998
 20
445.44570899999997
 11
166.91635099999999
 21
445.30429099999998
  0
LINE
  8
_0-0_0
  6
CONTINUOUS
 62
    7
 10
166.93598899999998
 20
445.44570899999997
 11
166.95169099999998
 21
445.57498199999998
  0
ARC
  8
_0-0_0
  6
CONTINUOUS
 62
    7
 10
159.00247200000001
 20
446.47500600000001
 40
8
 50
353.54056400000002
 51
358.56744600000002
  0
LINE
  8
_0-0_0
  6
CONTINUOUS
 62
    7
 10
166.99996899999999
 20
446.27499399999999
 11
167.00216699999999
 21
446.40426600000001
  0
LINE
  8
_0-0_0
  6
CONTINUOUS
 62
    7
 10
167.00216699999999
 20
446.40426600000001
 11
167.00247199999998
 21
446.47500600000001
  0
LINE
  8
_0-0_0
  6
CONTINUOUS
 62
    7
 10
151.002792
 20
446.40426600000001
 11
151.00247200000001
 21
446.47500600000001
  0
LINE
  8
_0-0_0
  6
CONTINUOUS
 62
    7
 10
151.004974
 20
446.27499399999999
 11
151.002792
 21
446.40426600000001
  0
ARC
  8
_0-0_0
  6
CONTINUOUS
 62
    7
 10
159.00247200000001
 20
446.47500600000001
 40
8
 50
181.432545
 51
186.45945499999999
  0
LINE
  8
_0-0_0
  6
CONTINUOUS
 62
    7
 10
151.06896999999998
 20
445.44570899999997
 11
151.05325299999998
 21
445.57498199999998
  0
LINE
  8
_0-0_0
  6
CONTINUOUS
 62
    7
 10
151.06896999999998
 20
445.44570899999997
 11
151.08859200000001
 21
445.30429099999998
  0
LINE
  8
_0-0_0
  6
CONTINUOUS
 62
    7
 10
151.10881000000001
 20
445.17501799999997
 11
151.08859200000001
 21
445.30429099999998
  0
ARC
  8
_0-0_0
  6
CONTINUOUS
 62
    7
 10
159.00247200000001
 20
446.47500600000001
 40
8
 50
189.35203999999999
 51
194.47751
  0
LINE
  8
_0-0_0
  6
CONTINUOUS
 62
    7
 10
151.29104599999999
 20
444.34573399999999
 11
151.25649999999996
 21
444.47500600000001
  0
LINE
  8
_0-0_0
  6
CONTINUOUS
 62
    7
 10
151.29104599999999
 20
444.34573399999999
 11
151.33149700000001
 21
444.20431500000001
  0
LINE
  8
_0-0_0
  6
CONTINUOUS
 62
    7
 10
151.37095599999998
 20
444.07498199999998
 11
151.33149700000001
 21
444.20431500000001
  0
ARC
  8
_0-0_0
  6
CONTINUOUS
 62
    7
 10
159.00247200000001
 20
446.47500600000001
 40
8
 50
197.45760300000001
 51
202.79902999999999
  0
LINE
  8
_0-0_0
  6
CONTINUOUS
 62
    7
 10
151.68321199999997
 20
443.24569700000001
 11
151.62751800000001
 21
443.37497000000002
  0
LINE
  8
_0-0_0
  6
CONTINUOUS
 62
    7
 10
151.68321199999997
 20
443.24569700000001
 11
151.747253
 21
443.10427900000002
  0
LINE
  8
_0-0_0
  6
CONTINUOUS
 62
    7
 10
151.80873099999997
 20
442.97500600000001
 11
151.747253
 21
443.10427900000002
  0
ARC
  8
_0-0_0
  6
CONTINUOUS
 62
    7
 10
159.00247200000001
 20
446.47500600000001
 40
8
 50
205.94448199999999
 51
211.66823500000001
  0
LINE
  8
_0-0_0
  6
CONTINUOUS
 62
    7
 10
152.27511599999997
 20
442.14572199999998
 11
152.19364899999999
 21
442.27499399999999
  0
LINE
  8
_0-0_0
  6
CONTINUOUS
 62
    7
 10
152.27511599999997
 20
442.14572199999998
 11
152.36827099999999
 21
442.00430299999999
  0
LINE
  8
_0-0_0
  6
CONTINUOUS
 62
    7
 10
787.45724499999994
 20
441.87497000000002
 11
787.36825599999997
 21
442.00430299999999
  0
LINE
  8
_0-0_0
  6
CONTINUOUS
 62
    7
 10
786.00277700000004
 20
446.40426600000001
 11
786.00247200000001
 21
446.47500600000001
  0
LINE
  8
_0-0_0
  6
CONTINUOUS
 62
    7
 10
786.00497399999995
 20
446.27499399999999
 11
786.00277700000004
 21
446.40426600000001
  0
ARC
  8
_0-0_0
  6
CONTINUOUS
 62
    7
 10
794.00247200000001
 20
446.47500600000001
 40
8
 50
181.432545
 51
186.45945499999999
  0
LINE
  8
_0-0_0
  6
CONTINUOUS
 62
    7
 10
786.068939
 20
445.44570899999997
 11
786.05325300000004
 21
445.57498199999998
  0
LINE
  8
_0-0_0
  6
CONTINUOUS
 62
    7
 10
786.068939
 20
445.44570899999997
 11
786.08859199999995
 21
445.30429099999998
  0
LINE
  8
_0-0_0
  6
CONTINUOUS
 62
    7
 10
786.10879499999999
 20
445.17501799999997
 11
786.08859199999995
 21
445.30429099999998
  0
ARC
  8
_0-0_0
  6
CONTINUOUS
 62
    7
 10
794.00247200000001
 20
446.47500600000001
 40
8
 50
189.35203999999999
 51
194.47751
  0
LINE
  8
_0-0_0
  6
CONTINUOUS
 62
    7
 10
786.29104599999994
 20
444.34573399999999
 11
786.25649999999996
 21
444.47500600000001
  0
LINE
  8
_0-0_0
  6
CONTINUOUS
 62
    7
 10
786.29104599999994
 20
444.34573399999999
 11
786.33151199999998
 21
444.20431500000001
  0
LINE
  8
_0-0_0
  6
CONTINUOUS
 62
    7
 10
786.37094100000002
 20
444.07498199999998
 11
786.33151199999998
 21
444.20431500000001
  0
ARC
  8
_0-0_0
  6
CONTINUOUS
 62
    7
 10
794.00247200000001
 20
446.47500600000001
 40
8
 50
197.45760300000001
 51
202.79902999999999
  0
LINE
  8
_0-0_0
  6
CONTINUOUS
 62
    7
 10
786.68319699999995
 20
443.24569700000001
 11
786.62753299999997
 21
443.37497000000002
  0
LINE
  8
_0-0_0
  6
CONTINUOUS
 62
    7
 10
786.68319699999995
 20
443.24569700000001
 11
786.74722299999996
 21
443.10427900000002
  0
LINE
  8
_0-0_0
  6
CONTINUOUS
 62
    7
 10
786.80874600000004
 20
442.97500600000001
 11
786.74722299999996
 21
443.10427900000002
  0
ARC
  8
_0-0_0
  6
CONTINUOUS
 62
    7
 10
794.00247200000001
 20
446.47500600000001
 40
8
 50
205.94448199999999
 51
211.66823500000001
  0
LINE
  8
_0-0_0
  6
CONTINUOUS
 62
    7
 10
787.27511600000003
 20
442.14572199999998
 11
787.19363399999997
 21
442.27499399999999
  0
LINE
  8
_0-0_0
  6
CONTINUOUS
 62
    7
 10
787.27511600000003
 20
442.14572199999998
 11
787.36825599999997
 21
442.00430299999999
  0
LINE
  8
_0-0_0
  6
CONTINUOUS
 62
    7
 10
800.54769899999997
 20
441.87497000000002
 11
800.63668799999994
 21
442.00430299999999
  0
LINE
  8
_0-0_0
  6
CONTINUOUS
 62
    7
 10
800.729828
 20
442.14572199999998
 11
800.63668799999994
 21
442.00430299999999
  0
LINE
  8
_0-0_0
  6
CONTINUOUS
 62
    7
 10
800.729828
 20
442.14572199999998
 11
800.81130999999993
 21
442.27499399999999
  0
ARC
  8
_0-0_0
  6
CONTINUOUS
 62
    7
 10
794.00247200000001
 20
446.47500600000001
 40
8
 50
328.33175599999993
 51
334.05550899999992
  0
LINE
  8
_0-0_0
  6
CONTINUOUS
 62
    7
 10
801.19619699999998
 20
442.97500600000001
 11
801.25772099999995
 21
443.10427900000002
  0
LINE
  8
_0-0_0
  6
CONTINUOUS
 62
    7
 10
801.32174699999996
 20
443.24569700000001
 11
801.25772099999995
 21
443.10427900000002
  0
LINE
  8
_0-0_0
  6
CONTINUOUS
 62
    7
 10
801.32174699999996
 20
443.24569700000001
 11
801.37741099999994
 21
443.37497000000002
  0
ARC
  8
_0-0_0
  6
CONTINUOUS
 62
    7
 10
794.00247200000001
 20
446.47500600000001
 40
8
 50
337.20097500000003
 51
342.54240199999998
  0
LINE
  8
_0-0_0
  6
CONTINUOUS
 62
    7
 10
801.63400300000001
 20
444.07498199999998
 11
801.67343099999994
 21
444.20431500000001
  0
LINE
  8
_0-0_0
  6
CONTINUOUS
 62
    7
 10
801.71389799999997
 20
444.34573399999999
 11
801.67343099999994
 21
444.20431500000001
  0
LINE
  8
_0-0_0
  6
CONTINUOUS
 62
    7
 10
801.71389799999997
 20
444.34573399999999
 11
801.74844399999995
 21
444.47500600000001
  0
ARC
  8
_0-0_0
  6
CONTINUOUS
 62
    7
 10
794.00247200000001
 20
446.47500600000001
 40
8
 50
345.52249499999999
 51
350.64797900000002
  0
LINE
  8
_0-0_0
  6
CONTINUOUS
 62
    7
 10
801.89614900000004
 20
445.17501799999997
 11
801.91635099999996
 21
445.30429099999998
  0
LINE
  8
_0-0_0
  6
CONTINUOUS
 62
    7
 10
801.93600500000002
 20
445.44570899999997
 11
801.91635099999996
 21
445.30429099999998
  0
LINE
  8
_0-0_0
  6
CONTINUOUS
 62
    7
 10
801.93600500000002
 20
445.44570899999997
 11
801.95169099999998
 21
445.57498199999998
  0
ARC
  8
_0-0_0
  6
CONTINUOUS
 62
    7
 10
794.00247200000001
 20
446.47500600000001
 40
8
 50
353.54056400000002
 51
358.56744600000002
  0
LINE
  8
_0-0_0
  6
CONTINUOUS
 62
    7
 10
801.99996899999996
 20
446.27499399999999
 11
802.00216699999999
 21
446.40426600000001
  0
LINE
  8
_0-0_0
  6
CONTINUOUS
 62
    7
 10
802.00216699999999
 20
446.40426600000001
 11
802.00247200000001
 21
446.47500600000001
  0
LINE
  8
_0-0_0
  6
CONTINUOUS
 62
    7
 10
803.00247200000001
 20
442.00430299999999
 11
803.00247200000001
 21
441.87497000000002
  0
LINE
  8
_0-0_0
  6
CONTINUOUS
 62
    7
 10
803.00247200000001
 20
450.80429099999998
 11
803.00247200000001
 21
450.94570899999997
  0
LINE
  8
_0-0_0
  6
CONTINUOUS
 62
    7
 10
803.00247200000001
 20
450.80429099999998
 11
803.00247200000001
 21
450.67501799999997
  0
LINE
  8
_0-0_0
  6
CONTINUOUS
 62
    7
 10
803.00247200000001
 20
449.97500600000001
 11
803.00247200000001
 21
450.67501799999997
  0
LINE
  8
_0-0_0
  6
CONTINUOUS
 62
    7
 10
803.00247200000001
 20
449.84573399999999
 11
803.00247200000001
 21
449.97500600000001
  0
LINE
  8
_0-0_0
  6
CONTINUOUS
 62
    7
 10
803.00247200000001
 20
449.70431500000001
 11
803.00247200000001
 21
449.84573399999999
  0
LINE
  8
_0-0_0
  6
CONTINUOUS
 62
    7
 10
803.00247200000001
 20
449.70431500000001
 11
803.00247200000001
 21
449.57498199999998
  0
LINE
  8
_0-0_0
  6
CONTINUOUS
 62
    7
 10
803.00247200000001
 20
448.87497000000002
 11
803.00247200000001
 21
449.57498199999998
  0
LINE
  8
_0-0_0
  6
CONTINUOUS
 62
    7
 10
803.00247200000001
 20
448.74569700000001
 11
803.00247200000001
 21
448.87497000000002
  0
LINE
  8
_0-0_0
  6
CONTINUOUS
 62
    7
 10
803.00247200000001
 20
448.60427900000002
 11
803.00247200000001
 21
448.74569700000001
  0
LINE
  8
_0-0_0
  6
CONTINUOUS
 62
    7
 10
803.00247200000001
 20
448.60427900000002
 11
803.00247200000001
 21
448.47500600000001
  0
LINE
  8
_0-0_0
  6
CONTINUOUS
 62
    7
 10
803.00247200000001
 20
447.77499399999999
 11
803.00247200000001
 21
448.47500600000001
  0
LINE
  8
_0-0_0
  6
CONTINUOUS
 62
    7
 10
803.00247200000001
 20
447.64572199999998
 11
803.00247200000001
 21
447.77499399999999
  0
LINE
  8
_0-0_0
  6
CONTINUOUS
 62
    7
 10
803.00247200000001
 20
447.50430299999999
 11
803.00247200000001
 21
447.64572199999998
  0
LINE
  8
_0-0_0
  6
CONTINUOUS
 62
    7
 10
803.00247200000001
 20
447.50430299999999
 11
803.00247200000001
 21
447.37497000000002
  0
LINE
  8
_0-0_0
  6
CONTINUOUS
 62
    7
 10
803.00247200000001
 20
446.67501799999997
 11
803.00247200000001
 21
447.37497000000002
  0
LINE
  8
_0-0_0
  6
CONTINUOUS
 62
    7
 10
803.00247200000001
 20
446.54568499999999
 11
803.00247200000001
 21
446.67501799999997
  0
LINE
  8
_0-0_0
  6
CONTINUOUS
 62
    7
 10
803.00247200000001
 20
446.40426600000001
 11
803.00247200000001
 21
446.54568499999999
  0
LINE
  8
_0-0_0
  6
CONTINUOUS
 62
    7
 10
803.00247200000001
 20
446.40426600000001
 11
803.00247200000001
 21
446.27499399999999
  0
LINE
  8
_0-0_0
  6
CONTINUOUS
 62
    7
 10
803.00247200000001
 20
445.57498199999998
 11
803.00247200000001
 21
446.27499399999999
  0
LINE
  8
_0-0_0
  6
CONTINUOUS
 62
    7
 10
803.00247200000001
 20
445.44570899999997
 11
803.00247200000001
 21
445.57498199999998
  0
LINE
  8
_0-0_0
  6
CONTINUOUS
 62
    7
 10
803.00247200000001
 20
445.30429099999998
 11
803.00247200000001
 21
445.44570899999997
  0
LINE
  8
_0-0_0
  6
CONTINUOUS
 62
    7
 10
803.00247200000001
 20
445.30429099999998
 11
803.00247200000001
 21
445.17501799999997
  0
LINE
  8
_0-0_0
  6
CONTINUOUS
 62
    7
 10
803.00247200000001
 20
444.47500600000001
 11
803.00247200000001
 21
445.17501799999997
  0
LINE
  8
_0-0_0
  6
CONTINUOUS
 62
    7
 10
803.00247200000001
 20
444.34573399999999
 11
803.00247200000001
 21
444.47500600000001
  0
LINE
  8
_0-0_0
  6
CONTINUOUS
 62
    7
 10
803.00247200000001
 20
444.20431500000001
 11
803.00247200000001
 21
444.34573399999999
  0
LINE
  8
_0-0_0
  6
CONTINUOUS
 62
    7
 10
803.00247200000001
 20
444.20431500000001
 11
803.00247200000001
 21
444.07498199999998
  0
LINE
  8
_0-0_0
  6
CONTINUOUS
 62
    7
 10
803.00247200000001
 20
443.37497000000002
 11
803.00247200000001
 21
444.07498199999998
  0
LINE
  8
_0-0_0
  6
CONTINUOUS
 62
    7
 10
803.00247200000001
 20
443.24569700000001
 11
803.00247200000001
 21
443.37497000000002
  0
LINE
  8
_0-0_0
  6
CONTINUOUS
 62
    7
 10
803.00247200000001
 20
443.10427900000002
 11
803.00247200000001
 21
443.24569700000001
  0
LINE
  8
_0-0_0
  6
CONTINUOUS
 62
    7
 10
803.00247200000001
 20
443.10427900000002
 11
803.00247200000001
 21
442.97500600000001
  0
LINE
  8
_0-0_0
  6
CONTINUOUS
 62
    7
 10
803.00247200000001
 20
442.27499399999999
 11
803.00247200000001
 21
442.97500600000001
  0
LINE
  8
_0-0_0
  6
CONTINUOUS
 62
    7
 10
803.00247200000001
 20
442.14572199999998
 11
803.00247200000001
 21
442.27499399999999
  0
LINE
  8
_0-0_0
  6
CONTINUOUS
 62
    7
 10
803.00247200000001
 20
442.00430299999999
 11
803.00247200000001
 21
442.14572199999998
  0
LINE
  8
_0-0_0
  6
CONTINUOUS
 62
    7
 10
803.00247200000001
 20
428.17501799999997
 11
803.00247200000001
 21
428.67501799999997
  0
LINE
  8
_0-0_0
  6
CONTINUOUS
 62
    7
 10
803.00247200000001
 20
456.67501799999997
 11
803.00247200000001
 21
456.08102400000001
  0
LINE
  8
_0-0_0
  6
CONTINUOUS
 62
    7
 10
803.00247200000001
 20
451.07498199999998
 11
803.00247200000001
 21
456.08102400000001
  0
LINE
  8
_0-0_0
  6
CONTINUOUS
 62
    7
 10
803.00247200000001
 20
450.94570899999997
 11
803.00247200000001
 21
451.07498199999998
  0
LINE
  8
_0-0_0
  6
CONTINUOUS
 62
    7
 10
150.00247200000001
 20
428.17501799999997
 11
150.00247200000001
 21
428.67501799999997
  0
LINE
  8
_0-0_0
  6
CONTINUOUS
 62
    7
 10
150.00247200000001
 20
428.17501799999997
 11
803.00247200000001
 21
428.17501799999997
  0
LINE
  8
_0-0_0
  6
CONTINUOUS
 62
    7
 10
150.00247200000001
 20
442.00430299999999
 11
150.00247200000001
 21
442.14572199999998
  0
LINE
  8
_0-0_0
  6
CONTINUOUS
 62
    7
 10
150.00247200000001
 20
442.00430299999999
 11
150.00247200000001
 21
441.87497000000002
  0
LINE
  8
_0-0_0
  6
CONTINUOUS
 62
    7
 10
150.00247200000001
 20
456.67501799999997
 11
150.00247200000001
 21
456.08102400000001
  0
LINE
  8
_0-0_0
  6
CONTINUOUS
 62
    7
 10
150.00247200000001
 20
451.07498199999998
 11
150.00247200000001
 21
456.08102400000001
  0
LINE
  8
_0-0_0
  6
CONTINUOUS
 62
    7
 10
150.00247200000001
 20
450.94570899999997
 11
150.00247200000001
 21
451.07498199999998
  0
LINE
  8
_0-0_0
  6
CONTINUOUS
 62
    7
 10
150.00247200000001
 20
450.80429099999998
 11
150.00247200000001
 21
450.94570899999997
  0
LINE
  8
_0-0_0
  6
CONTINUOUS
 62
    7
 10
150.00247200000001
 20
450.80429099999998
 11
150.00247200000001
 21
450.67501799999997
  0
LINE
  8
_0-0_0
  6
CONTINUOUS
 62
    7
 10
150.00247200000001
 20
449.97500600000001
 11
150.00247200000001
 21
450.67501799999997
  0
LINE
  8
_0-0_0
  6
CONTINUOUS
 62
    7
 10
150.00247200000001
 20
449.84573399999999
 11
150.00247200000001
 21
449.97500600000001
  0
LINE
  8
_0-0_0
  6
CONTINUOUS
 62
    7
 10
150.00247200000001
 20
449.70431500000001
 11
150.00247200000001
 21
449.84573399999999
  0
LINE
  8
_0-0_0
  6
CONTINUOUS
 62
    7
 10
150.00247200000001
 20
449.70431500000001
 11
150.00247200000001
 21
449.57498199999998
  0
LINE
  8
_0-0_0
  6
CONTINUOUS
 62
    7
 10
150.00247200000001
 20
448.87497000000002
 11
150.00247200000001
 21
449.57498199999998
  0
LINE
  8
_0-0_0
  6
CONTINUOUS
 62
    7
 10
150.00247200000001
 20
448.74569700000001
 11
150.00247200000001
 21
448.87497000000002
  0
LINE
  8
_0-0_0
  6
CONTINUOUS
 62
    7
 10
150.00247200000001
 20
448.60427900000002
 11
150.00247200000001
 21
448.74569700000001
  0
LINE
  8
_0-0_0
  6
CONTINUOUS
 62
    7
 10
150.00247200000001
 20
448.60427900000002
 11
150.00247200000001
 21
448.47500600000001
  0
LINE
  8
_0-0_0
  6
CONTINUOUS
 62
    7
 10
150.00247200000001
 20
447.77499399999999
 11
150.00247200000001
 21
448.47500600000001
  0
LINE
  8
_0-0_0
  6
CONTINUOUS
 62
    7
 10
150.00247200000001
 20
447.64572199999998
 11
150.00247200000001
 21
447.77499399999999
  0
LINE
  8
_0-0_0
  6
CONTINUOUS
 62
    7
 10
150.00247200000001
 20
447.50430299999999
 11
150.00247200000001
 21
447.64572199999998
  0
LINE
  8
_0-0_0
  6
CONTINUOUS
 62
    7
 10
150.00247200000001
 20
447.50430299999999
 11
150.00247200000001
 21
447.37497000000002
  0
LINE
  8
_0-0_0
  6
CONTINUOUS
 62
    7
 10
150.00247200000001
 20
446.67501799999997
 11
150.00247200000001
 21
447.37497000000002
  0
LINE
  8
_0-0_0
  6
CONTINUOUS
 62
    7
 10
150.00247200000001
 20
446.54568499999999
 11
150.00247200000001
 21
446.67501799999997
  0
LINE
  8
_0-0_0
  6
CONTINUOUS
 62
    7
 10
150.00247200000001
 20
446.40426600000001
 11
150.00247200000001
 21
446.54568499999999
  0
LINE
  8
_0-0_0
  6
CONTINUOUS
 62
    7
 10
150.00247200000001
 20
446.40426600000001
 11
150.00247200000001
 21
446.27499399999999
  0
LINE
  8
_0-0_0
  6
CONTINUOUS
 62
    7
 10
150.00247200000001
 20
445.57498199999998
 11
150.00247200000001
 21
446.27499399999999
  0
LINE
  8
_0-0_0
  6
CONTINUOUS
 62
    7
 10
150.00247200000001
 20
445.44570899999997
 11
150.00247200000001
 21
445.57498199999998
  0
LINE
  8
_0-0_0
  6
CONTINUOUS
 62
    7
 10
150.00247200000001
 20
445.30429099999998
 11
150.00247200000001
 21
445.44570899999997
  0
LINE
  8
_0-0_0
  6
CONTINUOUS
 62
    7
 10
150.00247200000001
 20
445.30429099999998
 11
150.00247200000001
 21
445.17501799999997
  0
LINE
  8
_0-0_0
  6
CONTINUOUS
 62
    7
 10
150.00247200000001
 20
444.47500600000001
 11
150.00247200000001
 21
445.17501799999997
  0
LINE
  8
_0-0_0
  6
CONTINUOUS
 62
    7
 10
150.00247200000001
 20
444.34573399999999
 11
150.00247200000001
 21
444.47500600000001
  0
LINE
  8
_0-0_0
  6
CONTINUOUS
 62
    7
 10
150.00247200000001
 20
444.20431500000001
 11
150.00247200000001
 21
444.34573399999999
  0
LINE
  8
_0-0_0
  6
CONTINUOUS
 62
    7
 10
150.00247200000001
 20
444.20431500000001
 11
150.00247200000001
 21
444.07498199999998
  0
LINE
  8
_0-0_0
  6
CONTINUOUS
 62
    7
 10
150.00247200000001
 20
443.37497000000002
 11
150.00247200000001
 21
444.07498199999998
  0
LINE
  8
_0-0_0
  6
CONTINUOUS
 62
    7
 10
150.00247200000001
 20
443.24569700000001
 11
150.00247200000001
 21
443.37497000000002
  0
LINE
  8
_0-0_0
  6
CONTINUOUS
 62
    7
 10
150.00247200000001
 20
443.10427900000002
 11
150.00247200000001
 21
443.24569700000001
  0
LINE
  8
_0-0_0
  6
CONTINUOUS
 62
    7
 10
150.00247200000001
 20
443.10427900000002
 11
150.00247200000001
 21
442.97500600000001
  0
LINE
  8
_0-0_0
  6
CONTINUOUS
 62
    7
 10
150.00247200000001
 20
442.27499399999999
 11
150.00247200000001
 21
442.97500600000001
  0
LINE
  8
_0-0_0
  6
CONTINUOUS
 62
    7
 10
150.00247200000001
 20
442.14572199999998
 11
150.00247200000001
 21
442.27499399999999
  0
LINE
  8
_0-0_0
  6
CONTINUOUS
 62
    7
 10
720.50247200000001
 20
434.17501799999997
 11
727.50247200000001
 21
434.17501799999997
  0
ARC
  8
_0-0_0
  6
CONTINUOUS
 62
    7
 10
720.50247200000001
 20
433.67501799999997
 40
0.5
 50
90.000003000000007
 51
180.00000900000001
  0
LINE
  8
_0-0_0
  6
CONTINUOUS
 62
    7
 10
720.00247200000001
 20
433.67501799999997
 11
720.00247200000001
 21
429.67501799999997
  0
ARC
  8
_0-0_0
  6
CONTINUOUS
 62
    7
 10
720.50247200000001
 20
429.67501799999997
 40
0.5
 50
180.00000900000003
 51
269.99999700000001
  0
LINE
  8
_0-0_0
  6
CONTINUOUS
 62
    7
 10
727.50247200000001
 20
429.17501799999997
 11
720.50247200000001
 21
429.17501799999997
  0
ARC
  8
_0-0_0
  6
CONTINUOUS
 62
    7
 10
727.50247200000001
 20
429.67501799999997
 40
0.5
 50
269.99999700000001
 51
0
  0
LINE
  8
_0-0_0
  6
CONTINUOUS
 62
    7
 10
728.00247200000001
 20
429.67501799999997
 11
728.00247200000001
 21
433.67501799999997
  0
ARC
  8
_0-0_0
  6
CONTINUOUS
 62
    7
 10
727.50247200000001
 20
433.67501799999997
 40
0.5
 50
0
 51
90.000003000000007
  0
ARC
  8
_0-0_0
  6
CONTINUOUS
 62
    7
 10
200.50247199999998
 20
433.67501799999997
 40
0.5
 50
90.000003000000007
 51
180.00000900000001
  0
LINE
  8
_0-0_0
  6
CONTINUOUS
 62
    7
 10
200.00247199999998
 20
433.67501799999997
 11
200.00247199999998
 21
429.67501799999997
  0
ARC
  8
_0-0_0
  6
CONTINUOUS
 62
    7
 10
200.50247199999998
 20
429.67501799999997
 40
0.5
 50
180.00000900000003
 51
269.99999700000001
  0
LINE
  8
_0-0_0
  6
CONTINUOUS
 62
    7
 10
207.50247199999998
 20
429.17501799999997
 11
200.50247199999998
 21
429.17501799999997
  0
ARC
  8
_0-0_0
  6
CONTINUOUS
 62
    7
 10
207.50247199999998
 20
429.67501799999997
 40
0.5
 50
269.99999700000001
 51
0
  0
LINE
  8
_0-0_0
  6
CONTINUOUS
 62
    7
 10
208.00247199999998
 20
429.67501799999997
 11
208.00247199999998
 21
433.67501799999997
  0
ARC
  8
_0-0_0
  6
CONTINUOUS
 62
    7
 10
207.50247199999998
 20
433.67501799999997
 40
0.5
 50
0
 51
90.000003000000007
  0
LINE
  8
_0-0_0
  6
CONTINUOUS
 62
    7
 10
200.50247199999998
 20
434.17501799999997
 11
207.50247199999998
 21
434.17501799999997
  0
LINE
  8
_0-0_0
  6
CONTINUOUS
 62
    7
 10
150.00247200000001
 20
442.27499399999999
 11
152.19364899999999
 21
442.27499399999999
  0
LINE
  8
_0-0_0
  6
CONTINUOUS
 62
    7
 10
150.00247200000001
 20
442.97500600000001
 11
151.80873099999997
 21
442.97500600000001
  0
LINE
  8
_0-0_0
  6
CONTINUOUS
 62
    7
 10
150.00247200000001
 20
443.37497000000002
 11
151.62751800000001
 21
443.37497000000002
  0
LINE
  8
_0-0_0
  6
CONTINUOUS
 62
    7
 10
150.00247200000001
 20
444.07498199999998
 11
151.37095599999998
 21
444.07498199999998
  0
LINE
  8
_0-0_0
  6
CONTINUOUS
 62
    7
 10
150.00247200000001
 20
444.47500600000001
 11
151.25649999999996
 21
444.47500600000001
  0
LINE
  8
_0-0_0
  6
CONTINUOUS
 62
    7
 10
150.00247200000001
 20
445.17501799999997
 11
151.10881000000001
 21
445.17501799999997
  0
LINE
  8
_0-0_0
  6
CONTINUOUS
 62
    7
 10
150.00247200000001
 20
445.57498199999998
 11
151.05325299999998
 21
445.57498199999998
  0
LINE
  8
_0-0_0
  6
CONTINUOUS
 62
    7
 10
150.00247200000001
 20
446.27499399999999
 11
151.004974
 21
446.27499399999999
  0
LINE
  8
_0-0_0
  6
CONTINUOUS
 62
    7
 10
151.00247200000001
 20
446.47500600000001
 11
151.002792
 21
446.54568499999999
  0
LINE
  8
_0-0_0
  6
CONTINUOUS
 62
    7
 10
167.00247199999998
 20
446.47500600000001
 11
167.00216699999999
 21
446.54568499999999
  0
LINE
  8
_0-0_0
  6
CONTINUOUS
 62
    7
 10
166.99996899999999
 20
446.67501799999997
 11
167.00216699999999
 21
446.54568499999999
  0
ARC
  8
_0-0_0
  6
CONTINUOUS
 62
    7
 10
159.00247200000001
 20
446.47500600000001
 40
8
 50
1.432544
 51
6.4594489999999993
  0
LINE
  8
_0-0_0
  6
CONTINUOUS
 62
    7
 10
166.93598899999998
 20
447.50430299999999
 11
166.95169099999998
 21
447.37497000000002
  0
LINE
  8
_0-0_0
  6
CONTINUOUS
 62
    7
 10
166.93598899999998
 20
447.50430299999999
 11
166.91635099999999
 21
447.64572199999998
  0
LINE
  8
_0-0_0
  6
CONTINUOUS
 62
    7
 10
166.89614899999998
 20
447.77499399999999
 11
166.91635099999999
 21
447.64572199999998
  0
ARC
  8
_0-0_0
  6
CONTINUOUS
 62
    7
 10
159.00247200000001
 20
446.47500600000001
 40
8
 50
9.3520350000000008
 51
14.477510999999998
  0
LINE
  8
_0-0_0
  6
CONTINUOUS
 62
    7
 10
166.713898
 20
448.60427900000002
 11
166.74844399999998
 21
448.47500600000001
  0
LINE
  8
_0-0_0
  6
CONTINUOUS
 62
    7
 10
166.713898
 20
448.60427900000002
 11
166.673462
 21
448.74569700000001
  0
LINE
  8
_0-0_0
  6
CONTINUOUS
 62
    7
 10
166.63398699999999
 20
448.87497000000002
 11
166.673462
 21
448.74569700000001
  0
ARC
  8
_0-0_0
  6
CONTINUOUS
 62
    7
 10
159.00247200000001
 20
446.47500600000001
 40
8
 50
17.457602999999999
 51
22.799030999999999
  0
LINE
  8
_0-0_0
  6
CONTINUOUS
 62
    7
 10
166.32174699999999
 20
449.70431500000001
 11
166.37744099999998
 21
449.57498199999998
  0
LINE
  8
_0-0_0
  6
CONTINUOUS
 62
    7
 10
166.32174699999999
 20
449.70431500000001
 11
166.25770599999998
 21
449.84573399999999
  0
LINE
  8
_0-0_0
  6
CONTINUOUS
 62
    7
 10
166.19622799999999
 20
449.97500600000001
 11
166.25770599999998
 21
449.84573399999999
  0
ARC
  8
_0-0_0
  6
CONTINUOUS
 62
    7
 10
159.00247200000001
 20
446.47500600000001
 40
8
 50
25.944476999999999
 51
31.668240000000001
  0
LINE
  8
_0-0_0
  6
CONTINUOUS
 62
    7
 10
165.729828
 20
450.80429099999998
 11
165.81129399999998
 21
450.67501799999997
  0
LINE
  8
_0-0_0
  6
CONTINUOUS
 62
    7
 10
165.729828
 20
450.80429099999998
 11
165.63668799999999
 21
450.94570899999997
  0
LINE
  8
_0-0_0
  6
CONTINUOUS
 62
    7
 10
165.54769899999999
 20
451.07498199999998
 11
165.63668799999999
 21
450.94570899999997
  0
ARC
  8
_0-0_0
  6
CONTINUOUS
 62
    7
 10
159.00247200000001
 20
446.47500600000001
 40
8
 50
35.099632
 51
144.900373
  0
LINE
  8
_0-0_0
  6
CONTINUOUS
 62
    7
 10
152.457245
 20
451.07498199999998
 11
152.36827099999999
 21
450.94570899999997
  0
LINE
  8
_0-0_0
  6
CONTINUOUS
 62
    7
 10
152.27511599999997
 20
450.80429099999998
 11
152.36827099999999
 21
450.94570899999997
  0
LINE
  8
_0-0_0
  6
CONTINUOUS
 62
    7
 10
152.27511599999997
 20
450.80429099999998
 11
152.19364899999999
 21
450.67501799999997
  0
ARC
  8
_0-0_0
  6
CONTINUOUS
 62
    7
 10
159.00247200000001
 20
446.47500600000001
 40
8
 50
148.33176499999999
 51
154.05551800000001
  0
LINE
  8
_0-0_0
  6
CONTINUOUS
 62
    7
 10
151.80873099999997
 20
449.97500600000001
 11
151.747253
 21
449.84573399999999
  0
LINE
  8
_0-0_0
  6
CONTINUOUS
 62
    7
 10
151.68321199999997
 20
449.70431500000001
 11
151.747253
 21
449.84573399999999
  0
LINE
  8
_0-0_0
  6
CONTINUOUS
 62
    7
 10
151.68321199999997
 20
449.70431500000001
 11
151.62751800000001
 21
449.57498199999998
  0
ARC
  8
_0-0_0
  6
CONTINUOUS
 62
    7
 10
159.00247200000001
 20
446.47500600000001
 40
8
 50
157.20097000000001
 51
162.54239699999999
  0
LINE
  8
_0-0_0
  6
CONTINUOUS
 62
    7
 10
151.37095599999998
 20
448.87497000000002
 11
151.33149700000001
 21
448.74569700000001
  0
LINE
  8
_0-0_0
  6
CONTINUOUS
 62
    7
 10
151.29104599999999
 20
448.60427900000002
 11
151.33149700000001
 21
448.74569700000001
  0
LINE
  8
_0-0_0
  6
CONTINUOUS
 62
    7
 10
151.29104599999999
 20
448.60427900000002
 11
151.25649999999996
 21
448.47500600000001
  0
ARC
  8
_0-0_0
  6
CONTINUOUS
 62
    7
 10
159.00247200000001
 20
446.47500600000001
 40
8
 50
165.52249
 51
170.64796000000001
  0
LINE
  8
_0-0_0
  6
CONTINUOUS
 62
    7
 10
151.10881000000001
 20
447.77499399999999
 11
151.08859200000001
 21
447.64572199999998
  0
LINE
  8
_0-0_0
  6
CONTINUOUS
 62
    7
 10
151.06896999999998
 20
447.50430299999999
 11
151.08859200000001
 21
447.64572199999998
  0
LINE
  8
_0-0_0
  6
CONTINUOUS
 62
    7
 10
151.06896999999998
 20
447.50430299999999
 11
151.05325299999998
 21
447.37497000000002
  0
ARC
  8
_0-0_0
  6
CONTINUOUS
 62
    7
 10
159.00247200000001
 20
446.47500600000001
 40
8
 50
173.54054500000001
 51
178.567455
  0
LINE
  8
_0-0_0
  6
CONTINUOUS
 62
    7
 10
151.004974
 20
446.67501799999997
 11
151.002792
 21
446.54568499999999
  0
CIRCLE
  8
_0-0_0
  6
CONTINUOUS
 62
    7
 10
159.00247200000001
 20
446.47500600000001
 40
7.5
  0
LINE
  8
_0-0_0
  6
CONTINUOUS
 62
    7
 10
786.00247200000001
 20
446.47500600000001
 11
786.00277700000004
 21
446.54568499999999
  0
LINE
  8
_0-0_0
  6
CONTINUOUS
 62
    7
 10
166.99996899999999
 20
446.27499399999999
 11
786.00497399999995
 21
446.27499399999999
  0
LINE
  8
_0-0_0
  6
CONTINUOUS
 62
    7
 10
166.95169099999998
 20
445.57498199999998
 11
786.05325300000004
 21
445.57498199999998
  0
LINE
  8
_0-0_0
  6
CONTINUOUS
 62
    7
 10
166.89614899999998
 20
445.17501799999997
 11
786.10879499999999
 21
445.17501799999997
  0
LINE
  8
_0-0_0
  6
CONTINUOUS
 62
    7
 10
166.74844399999998
 20
444.47500600000001
 11
786.25649999999996
 21
444.47500600000001
  0
LINE
  8
_0-0_0
  6
CONTINUOUS
 62
    7
 10
166.63398699999999
 20
444.07498199999998
 11
786.37094100000002
 21
444.07498199999998
  0
LINE
  8
_0-0_0
  6
CONTINUOUS
 62
    7
 10
166.37744099999998
 20
443.37497000000002
 11
786.62753299999997
 21
443.37497000000002
  0
LINE
  8
_0-0_0
  6
CONTINUOUS
 62
    7
 10
166.19622799999999
 20
442.97500600000001
 11
786.80874600000004
 21
442.97500600000001
  0
LINE
  8
_0-0_0
  6
CONTINUOUS
 62
    7
 10
165.81129399999998
 20
442.27499399999999
 11
787.19363399999997
 21
442.27499399999999
  0
LINE
  8
_0-0_0
  6
CONTINUOUS
 62
    7
 10
802.00247200000001
 20
446.47500600000001
 11
802.00216699999999
 21
446.54568499999999
  0
LINE
  8
_0-0_0
  6
CONTINUOUS
 62
    7
 10
801.99996899999996
 20
446.27499399999999
 11
803.00247200000001
 21
446.27499399999999
  0
LINE
  8
_0-0_0
  6
CONTINUOUS
 62
    7
 10
801.95169099999998
 20
445.57498199999998
 11
803.00247200000001
 21
445.57498199999998
  0
LINE
  8
_0-0_0
  6
CONTINUOUS
 62
    7
 10
801.89614900000004
 20
445.17501799999997
 11
803.00247200000001
 21
445.17501799999997
  0
LINE
  8
_0-0_0
  6
CONTINUOUS
 62
    7
 10
801.74844399999995
 20
444.47500600000001
 11
803.00247200000001
 21
444.47500600000001
  0
LINE
  8
_0-0_0
  6
CONTINUOUS
 62
    7
 10
801.63400300000001
 20
444.07498199999998
 11
803.00247200000001
 21
444.07498199999998
  0
LINE
  8
_0-0_0
  6
CONTINUOUS
 62
    7
 10
801.37741099999994
 20
443.37497000000002
 11
803.00247200000001
 21
443.37497000000002
  0
LINE
  8
_0-0_0
  6
CONTINUOUS
 62
    7
 10
801.19619699999998
 20
442.97500600000001
 11
803.00247200000001
 21
442.97500600000001
  0
LINE
  8
_0-0_0
  6
CONTINUOUS
 62
    7
 10
800.81130999999993
 20
442.27499399999999
 11
803.00247200000001
 21
442.27499399999999
  0
LINE
  8
_0-0_0
  6
CONTINUOUS
 62
    7
 10
800.54769899999997
 20
451.07498199999998
 11
800.63668799999994
 21
450.94570899999997
  0
ARC
  8
_0-0_0
  6
CONTINUOUS
 62
    7
 10
794.00247200000001
 20
446.47500600000001
 40
8
 50
35.099632
 51
144.900373
  0
LINE
  8
_0-0_0
  6
CONTINUOUS
 62
    7
 10
787.45724499999994
 20
451.07498199999998
 11
787.36825599999997
 21
450.94570899999997
  0
LINE
  8
_0-0_0
  6
CONTINUOUS
 62
    7
 10
787.27511600000003
 20
450.80429099999998
 11
787.36825599999997
 21
450.94570899999997
  0
LINE
  8
_0-0_0
  6
CONTINUOUS
 62
    7
 10
787.27511600000003
 20
450.80429099999998
 11
787.19363399999997
 21
450.67501799999997
  0
ARC
  8
_0-0_0
  6
CONTINUOUS
 62
    7
 10
794.00247200000001
 20
446.47500600000001
 40
8
 50
148.33176499999999
 51
154.05551800000001
  0
LINE
  8
_0-0_0
  6
CONTINUOUS
 62
    7
 10
786.80874600000004
 20
449.97500600000001
 11
786.74722299999996
 21
449.84573399999999
  0
LINE
  8
_0-0_0
  6
CONTINUOUS
 62
    7
 10
786.68319699999995
 20
449.70431500000001
 11
786.74722299999996
 21
449.84573399999999
  0
LINE
  8
_0-0_0
  6
CONTINUOUS
 62
    7
 10
786.68319699999995
 20
449.70431500000001
 11
786.62753299999997
 21
449.57498199999998
  0
ARC
  8
_0-0_0
  6
CONTINUOUS
 62
    7
 10
794.00247200000001
 20
446.47500600000001
 40
8
 50
157.20097000000001
 51
162.54239699999999
  0
LINE
  8
_0-0_0
  6
CONTINUOUS
 62
    7
 10
786.37094100000002
 20
448.87497000000002
 11
786.33151199999998
 21
448.74569700000001
  0
LINE
  8
_0-0_0
  6
CONTINUOUS
 62
    7
 10
786.29104599999994
 20
448.60427900000002
 11
786.33151199999998
 21
448.74569700000001
  0
LINE
  8
_0-0_0
  6
CONTINUOUS
 62
    7
 10
786.29104599999994
 20
448.60427900000002
 11
786.25649999999996
 21
448.47500600000001
  0
ARC
  8
_0-0_0
  6
CONTINUOUS
 62
    7
 10
794.00247200000001
 20
446.47500600000001
 40
8
 50
165.52249
 51
170.64796000000001
  0
LINE
  8
_0-0_0
  6
CONTINUOUS
 62
    7
 10
786.10879499999999
 20
447.77499399999999
 11
786.08859199999995
 21
447.64572199999998
  0
LINE
  8
_0-0_0
  6
CONTINUOUS
 62
    7
 10
786.068939
 20
447.50430299999999
 11
786.08859199999995
 21
447.64572199999998
  0
LINE
  8
_0-0_0
  6
CONTINUOUS
 62
    7
 10
786.068939
 20
447.50430299999999
 11
786.05325300000004
 21
447.37497000000002
  0
ARC
  8
_0-0_0
  6
CONTINUOUS
 62
    7
 10
794.00247200000001
 20
446.47500600000001
 40
8
 50
173.54054500000001
 51
178.567455
  0
LINE
  8
_0-0_0
  6
CONTINUOUS
 62
    7
 10
786.00497399999995
 20
446.67501799999997
 11
786.00277700000004
 21
446.54568499999999
  0
LINE
  8
_0-0_0
  6
CONTINUOUS
 62
    7
 10
801.99996899999996
 20
446.67501799999997
 11
802.00216699999999
 21
446.54568499999999
  0
ARC
  8
_0-0_0
  6
CONTINUOUS
 62
    7
 10
794.00247200000001
 20
446.47500600000001
 40
8
 50
1.432544
 51
6.4594489999999993
  0
LINE
  8
_0-0_0
  6
CONTINUOUS
 62
    7
 10
801.93600500000002
 20
447.50430299999999
 11
801.95169099999998
 21
447.37497000000002
  0
LINE
  8
_0-0_0
  6
CONTINUOUS
 62
    7
 10
801.93600500000002
 20
447.50430299999999
 11
801.91635099999996
 21
447.64572199999998
  0
LINE
  8
_0-0_0
  6
CONTINUOUS
 62
    7
 10
801.89614900000004
 20
447.77499399999999
 11
801.91635099999996
 21
447.64572199999998
  0
ARC
  8
_0-0_0
  6
CONTINUOUS
 62
    7
 10
794.00247200000001
 20
446.47500600000001
 40
8
 50
9.3520350000000008
 51
14.477510999999998
  0
LINE
  8
_0-0_0
  6
CONTINUOUS
 62
    7
 10
801.71389799999997
 20
448.60427900000002
 11
801.74844399999995
 21
448.47500600000001
  0
LINE
  8
_0-0_0
  6
CONTINUOUS
 62
    7
 10
801.71389799999997
 20
448.60427900000002
 11
801.67343099999994
 21
448.74569700000001
  0
LINE
  8
_0-0_0
  6
CONTINUOUS
 62
    7
 10
801.63400300000001
 20
448.87497000000002
 11
801.67343099999994
 21
448.74569700000001
  0
ARC
  8
_0-0_0
  6
CONTINUOUS
 62
    7
 10
794.00247200000001
 20
446.47500600000001
 40
8
 50
17.457602999999999
 51
22.799030999999999
  0
LINE
  8
_0-0_0
  6
CONTINUOUS
 62
    7
 10
801.32174699999996
 20
449.70431500000001
 11
801.37741099999994
 21
449.57498199999998
  0
LINE
  8
_0-0_0
  6
CONTINUOUS
 62
    7
 10
801.32174699999996
 20
449.70431500000001
 11
801.25772099999995
 21
449.84573399999999
  0
LINE
  8
_0-0_0
  6
CONTINUOUS
 62
    7
 10
801.19619699999998
 20
449.97500600000001
 11
801.25772099999995
 21
449.84573399999999
  0
ARC
  8
_0-0_0
  6
CONTINUOUS
 62
    7
 10
794.00247200000001
 20
446.47500600000001
 40
8
 50
25.944476999999999
 51
31.668240000000001
  0
LINE
  8
_0-0_0
  6
CONTINUOUS
 62
    7
 10
800.729828
 20
450.80429099999998
 11
800.81130999999993
 21
450.67501799999997
  0
LINE
  8
_0-0_0
  6
CONTINUOUS
 62
    7
 10
800.729828
 20
450.80429099999998
 11
800.63668799999994
 21
450.94570899999997
  0
CIRCLE
  8
_0-0_0
  6
CONTINUOUS
 62
    7
 10
794.00247200000001
 20
446.47500600000001
 40
7.5
  0
LINE
  8
_0-0_0
  6
CONTINUOUS
 62
    7
 10
800.81130999999993
 20
450.67501799999997
 11
803.00247200000001
 21
450.67501799999997
  0
LINE
  8
_0-0_0
  6
CONTINUOUS
 62
    7
 10
801.19619699999998
 20
449.97500600000001
 11
803.00247200000001
 21
449.97500600000001
  0
LINE
  8
_0-0_0
  6
CONTINUOUS
 62
    7
 10
801.37741099999994
 20
449.57498199999998
 11
803.00247200000001
 21
449.57498199999998
  0
LINE
  8
_0-0_0
  6
CONTINUOUS
 62
    7
 10
801.63400300000001
 20
448.87497000000002
 11
803.00247200000001
 21
448.87497000000002
  0
LINE
  8
_0-0_0
  6
CONTINUOUS
 62
    7
 10
801.74844399999995
 20
448.47500600000001
 11
803.00247200000001
 21
448.47500600000001
  0
LINE
  8
_0-0_0
  6
CONTINUOUS
 62
    7
 10
801.89614900000004
 20
447.77499399999999
 11
803.00247200000001
 21
447.77499399999999
  0
LINE
  8
_0-0_0
  6
CONTINUOUS
 62
    7
 10
801.95169099999998
 20
447.37497000000002
 11
803.00247200000001
 21
447.37497000000002
  0
LINE
  8
_0-0_0
  6
CONTINUOUS
 62
    7
 10
801.99996899999996
 20
446.67501799999997
 11
803.00247200000001
 21
446.67501799999997
  0
LINE
  8
_0-0_0
  6
CONTINUOUS
 62
    7
 10
803.50247200000001
 20
429.97500600000001
 11
803.00247200000001
 21
429.97500600000001
  0
LINE
  8
_0-0_0
  6
CONTINUOUS
 62
    7
 10
803.50247200000001
 20
432.17501799999997
 11
803.00247200000001
 21
432.17501799999997
  0
LINE
  8
_0-0_0
  6
CONTINUOUS
 62
    7
 10
803.50247200000001
 20
434.47500600000001
 11
803.00247200000001
 21
434.47500600000001
  0
LINE
  8
_0-0_0
  6
CONTINUOUS
 62
    7
 10
803.00247200000001
 20
436.77499399999999
 11
803.50247200000001
 21
436.77499399999999
  0
LINE
  8
_0-0_0
  6
CONTINUOUS
 62
    7
 10
803.50247200000001
 20
456.97500600000001
 11
803.50247200000001
 21
456.87497000000002
  0
LINE
  8
_0-0_0
  6
CONTINUOUS
 62
    7
 10
149.50247200000001
 20
456.97500600000001
 11
149.50247200000001
 21
456.87497000000002
  0
LINE
  8
_0-0_0
  6
CONTINUOUS
 62
    7
 10
149.50247200000001
 20
436.77499399999999
 11
150.00247200000001
 21
436.77499399999999
  0
LINE
  8
_0-0_0
  6
CONTINUOUS
 62
    7
 10
150.00247200000001
 20
456.67501799999997
 11
803.00247200000001
 21
456.67501799999997
  0
LINE
  8
_0-0_0
  6
CONTINUOUS
 62
    7
 10
150.00247200000001
 20
456.08102400000001
 11
803.00247200000001
 21
456.08102400000001
  0
LINE
  8
_0-0_0
  6
CONTINUOUS
 62
    7
 10
165.54769899999999
 20
451.07498199999998
 11
787.45724499999994
 21
451.07498199999998
  0
LINE
  8
_0-0_0
  6
CONTINUOUS
 62
    7
 10
800.54769899999997
 20
451.07498199999998
 11
803.00247200000001
 21
451.07498199999998
  0
LINE
  8
_0-0_0
  6
CONTINUOUS
 62
    7
 10
150.00247200000001
 20
451.07498199999998
 11
152.457245
 21
451.07498199999998
  0
LINE
  8
_0-0_0
  6
CONTINUOUS
 62
    7
 10
149.50247200000001
 20
429.97500600000001
 11
150.00247200000001
 21
429.97500600000001
  0
LINE
  8
_0-0_0
  6
CONTINUOUS
 62
    7
 10
149.50247200000001
 20
432.17501799999997
 11
150.00247200000001
 21
432.17501799999997
  0
LINE
  8
_0-0_0
  6
CONTINUOUS
 62
    7
 10
149.50247200000001
 20
434.47500600000001
 11
150.00247200000001
 21
434.47500600000001
  0
LINE
  8
_0-0_0
  6
CONTINUOUS
 62
    7
 10
150.00247200000001
 20
450.67501799999997
 11
152.19364899999999
 21
450.67501799999997
  0
LINE
  8
_0-0_0
  6
CONTINUOUS
 62
    7
 10
150.00247200000001
 20
449.97500600000001
 11
151.80873099999997
 21
449.97500600000001
  0
LINE
  8
_0-0_0
  6
CONTINUOUS
 62
    7
 10
150.00247200000001
 20
449.57498199999998
 11
151.62751800000001
 21
449.57498199999998
  0
LINE
  8
_0-0_0
  6
CONTINUOUS
 62
    7
 10
150.00247200000001
 20
448.87497000000002
 11
151.37095599999998
 21
448.87497000000002
  0
LINE
  8
_0-0_0
  6
CONTINUOUS
 62
    7
 10
150.00247200000001
 20
448.47500600000001
 11
151.25649999999996
 21
448.47500600000001
  0
LINE
  8
_0-0_0
  6
CONTINUOUS
 62
    7
 10
150.00247200000001
 20
447.77499399999999
 11
151.10881000000001
 21
447.77499399999999
  0
LINE
  8
_0-0_0
  6
CONTINUOUS
 62
    7
 10
150.00247200000001
 20
447.37497000000002
 11
151.05325299999998
 21
447.37497000000002
  0
LINE
  8
_0-0_0
  6
CONTINUOUS
 62
    7
 10
150.00247200000001
 20
446.67501799999997
 11
151.004974
 21
446.67501799999997
  0
LINE
  8
_0-0_0
  6
CONTINUOUS
 62
    7
 10
165.81129399999998
 20
450.67501799999997
 11
787.19363399999997
 21
450.67501799999997
  0
LINE
  8
_0-0_0
  6
CONTINUOUS
 62
    7
 10
166.19622799999999
 20
449.97500600000001
 11
786.80874600000004
 21
449.97500600000001
  0
LINE
  8
_0-0_0
  6
CONTINUOUS
 62
    7
 10
166.37744099999998
 20
449.57498199999998
 11
786.62753299999997
 21
449.57498199999998
  0
LINE
  8
_0-0_0
  6
CONTINUOUS
 62
    7
 10
166.63398699999999
 20
448.87497000000002
 11
786.37094100000002
 21
448.87497000000002
  0
LINE
  8
_0-0_0
  6
CONTINUOUS
 62
    7
 10
166.74844399999998
 20
448.47500600000001
 11
786.25649999999996
 21
448.47500600000001
  0
LINE
  8
_0-0_0
  6
CONTINUOUS
 62
    7
 10
166.89614899999998
 20
447.77499399999999
 11
786.10879499999999
 21
447.77499399999999
  0
LINE
  8
_0-0_0
  6
CONTINUOUS
 62
    7
 10
166.95169099999998
 20
447.37497000000002
 11
786.05325300000004
 21
447.37497000000002
  0
LINE
  8
_0-0_0
  6
CONTINUOUS
 62
    7
 10
166.99996899999999
 20
446.67501799999997
 11
786.00497399999995
 21
446.67501799999997
  0
LINE
  8
_0-0_0
  6
CONTINUOUS
 62
    7
 10
803.50247200000001
 20
428.47500600000001
 11
803.00247200000001
 21
428.47500600000001
  0
LINE
  8
_0-0_0
  6
CONTINUOUS
 62
    7
 10
803.50247200000001
 20
456.07498199999998
 11
803.50247200000001
 21
456.87497000000002
  0
LINE
  8
_0-0_0
  6
CONTINUOUS
 62
    7
 10
803.50247200000001
 20
428.27499399999999
 11
803.50247200000001
 21
456.07498199999998
  0
LINE
  8
_0-0_0
  6
CONTINUOUS
 62
    7
 10
149.50247200000001
 20
456.07498199999998
 11
149.50247200000001
 21
456.87497000000002
  0
LINE
  8
_0-0_0
  6
CONTINUOUS
 62
    7
 10
149.50247200000001
 20
428.27499399999999
 11
149.50247200000001
 21
456.07498199999998
  0
ARC
  8
_0-0_0
  6
CONTINUOUS
 62
    7
 10
159.00247200000001
 20
447.17501799999997
 40
12.800000000000001
 50
73.932597000000001
 51
106.06740099999999
  0
ARC
  8
_0-0_0
  6
CONTINUOUS
 62
    7
 10
794.00247200000001
 20
447.17501799999997
 40
12.800000000000001
 50
73.932597000000001
 51
106.06740099999999
  0
LINE
  8
_0-0_0
  6
CONTINUOUS
 62
    7
 10
803.50247200000001
 20
456.97500600000001
 11
803.50247200000001
 21
459.47500600000001
  0
LINE
  8
_0-0_0
  6
CONTINUOUS
 62
    7
 10
149.50247200000001
 20
459.47500600000001
 11
803.50247200000001
 21
459.47500600000001
  0
LINE
  8
_0-0_0
  6
CONTINUOUS
 62
    7
 10
149.50247200000001
 20
456.97500600000001
 11
149.50247200000001
 21
459.47500600000001
  0
LINE
  8
_0-0_0
  6
CONTINUOUS
 62
    7
 10
149.50247200000001
 20
428.47500600000001
 11
150.00247200000001
 21
428.47500600000001
  0
ARC
  8
_0-0_0
  6
CONTINUOUS
 62
    7
 10
725.30246
 20
433.37497000000002
 40
0.2
 50
339.62356199999999
 51
90.000002999999978
  0
LINE
  8
_0-0_0
  6
CONTINUOUS
 62
    7
 10
725.48996
 20
433.30538999999999
 11
724.18997200000001
 21
429.80538999999999
  0
ARC
  8
_0-0_0
  6
CONTINUOUS
 62
    7
 10
724.00247200000001
 20
429.87497000000002
 40
0.2
 50
200.37643
 51
339.62356199999999
  0
LINE
  8
_0-0_0
  6
CONTINUOUS
 62
    7
 10
722.51498400000003
 20
433.30538999999999
 11
723.81497200000001
 21
429.80538999999999
  0
ARC
  8
_0-0_0
  6
CONTINUOUS
 62
    7
 10
722.70248400000003
 20
433.37497000000002
 40
0.2
 50
90.000003000000007
 51
200.37643
  0
LINE
  8
_0-0_0
  6
CONTINUOUS
 62
    7
 10
722.70248400000003
 20
433.57498199999998
 11
725.30246
 21
433.57498199999998
  0
ARC
  8
_0-0_0
  6
CONTINUOUS
 62
    7
 10
205.30247499999999
 20
433.37497000000002
 40
0.2
 50
339.62356199999999
 51
90.000002999999978
  0
LINE
  8
_0-0_0
  6
CONTINUOUS
 62
    7
 10
205.48996
 20
433.30538999999999
 11
204.18995699999999
 21
429.80538999999999
  0
ARC
  8
_0-0_0
  6
CONTINUOUS
 62
    7
 10
204.00247199999998
 20
429.87497000000002
 40
0.2
 50
200.37643
 51
339.62356199999999
  0
LINE
  8
_0-0_0
  6
CONTINUOUS
 62
    7
 10
202.514984
 20
433.30538999999999
 11
203.814987
 21
429.80538999999999
  0
ARC
  8
_0-0_0
  6
CONTINUOUS
 62
    7
 10
202.702484
 20
433.37497000000002
 40
0.2
 50
90.000003000000007
 51
200.37643
  0
LINE
  8
_0-0_0
  6
CONTINUOUS
 62
    7
 10
202.702484
 20
433.57498199999998
 11
205.30247499999999
 21
433.57498199999998
  0
CIRCLE
  8
_0-0_0
  6
CONTINUOUS
 62
    7
 10
159.00247200000001
 20
446.47500600000001
 40
5
  0
CIRCLE
  8
_0-0_0
  6
CONTINUOUS
 62
    7
 10
794.00247200000001
 20
446.47500600000001
 40
5
  0
LINE
  8
_0-0_0
  6
CONTINUOUS
 62
    7
 10
804.50247200000001
 20
456.07498199999998
 11
803.50247200000001
 21
456.07498199999998
  0
LINE
  8
_0-0_0
  6
CONTINUOUS
 62
    7
 10
804.50247200000001
 20
457.11196899999999
 11
803.50247200000001
 21
457.11196899999999
  0
LINE
  8
_0-0_0
  6
CONTINUOUS
 62
    7
 10
804.50247200000001
 20
428.27499399999999
 11
803.50247200000001
 21
428.27499399999999
  0
LINE
  8
_0-0_0
  6
CONTINUOUS
 62
    7
 10
148.50247200000001
 20
456.07498199999998
 11
149.50247200000001
 21
456.07498199999998
  0
LINE
  8
_0-0_0
  6
CONTINUOUS
 62
    7
 10
148.50247200000001
 20
457.07498199999998
 11
149.50247200000001
 21
457.07498199999998
  0
LINE
  8
_0-0_0
  6
CONTINUOUS
 62
    7
 10
148.50247200000001
 20
428.27499399999999
 11
149.50247200000001
 21
428.27499399999999
  0
LINE
  8
_0-0_0
  6
CONTINUOUS
 62
    7
 10
804.50247200000001
 20
459.27499399999999
 11
803.50247200000001
 21
459.27499399999999
  0
LINE
  8
_0-0_0
  6
CONTINUOUS
 62
    7
 10
148.50247200000001
 20
459.27499399999999
 11
149.50247200000001
 21
459.27499399999999
  0
LINE
  8
_0-0_0
  6
CONTINUOUS
 62
    7
 10
805.50247200000001
 20
455.660797
 11
805.50149499999998
 21
455.67929099999998
  0
LINE
  8
_0-0_0
  6
CONTINUOUS
 62
    7
 10
805.50149499999998
 20
455.67929099999998
 11
805.49850500000002
 21
455.697723
  0
LINE
  8
_0-0_0
  6
CONTINUOUS
 62
    7
 10
805.49850500000002
 20
455.697723
 11
805.49325599999997
 21
455.71688899999998
  0
LINE
  8
_0-0_0
  6
CONTINUOUS
 62
    7
 10
805.49325599999997
 20
455.71688899999998
 11
805.48586999999998
 21
455.73586999999998
  0
LINE
  8
_0-0_0
  6
CONTINUOUS
 62
    7
 10
805.48586999999998
 20
455.73586999999998
 11
805.46530099999995
 21
455.77261399999998
  0
LINE
  8
_0-0_0
  6
CONTINUOUS
 62
    7
 10
805.46530099999995
 20
455.77261399999998
 11
805.43691999999999
 21
455.80825799999997
  0
LINE
  8
_0-0_0
  6
CONTINUOUS
 62
    7
 10
805.43691999999999
 20
455.80825799999997
 11
805.40103099999999
 21
455.84255999999999
  0
LINE
  8
_0-0_0
  6
CONTINUOUS
 62
    7
 10
805.40103099999999
 20
455.84255999999999
 11
805.35238600000002
 21
455.87905899999998
  0
LINE
  8
_0-0_0
  6
CONTINUOUS
 62
    7
 10
805.35238600000002
 20
455.87905899999998
 11
805.29562399999998
 21
455.91305599999998
  0
LINE
  8
_0-0_0
  6
CONTINUOUS
 62
    7
 10
805.29562399999998
 20
455.91305599999998
 11
805.23147600000004
 21
455.94430599999998
  0
LINE
  8
_0-0_0
  6
CONTINUOUS
 62
    7
 10
805.23147600000004
 20
455.94430599999998
 11
805.16085799999996
 21
455.97256499999997
  0
LINE
  8
_0-0_0
  6
CONTINUOUS
 62
    7
 10
805.16085799999996
 20
455.97256499999997
 11
805.11276199999998
 21
455.988922
  0
LINE
  8
_0-0_0
  6
CONTINUOUS
 62
    7
 10
805.11276199999998
 20
455.988922
 11
805.062591
 21
456.00387599999999
  0
LINE
  8
_0-0_0
  6
CONTINUOUS
 62
    7
 10
805.062591
 20
456.00387599999999
 11
805.00589000000002
 21
456.01864599999999
  0
LINE
  8
_0-0_0
  6
CONTINUOUS
 62
    7
 10
805.00589000000002
 20
456.01864599999999
 11
804.94729599999994
 21
456.031769
  0
LINE
  8
_0-0_0
  6
CONTINUOUS
 62
    7
 10
804.94729599999994
 20
456.031769
 11
804.83053599999994
 21
456.05209400000001
  0
LINE
  8
_0-0_0
  6
CONTINUOUS
 62
    7
 10
804.83053599999994
 20
456.05209400000001
 11
804.72311400000001
 21
456.06478900000002
  0
LINE
  8
_0-0_0
  6
CONTINUOUS
 62
    7
 10
804.72311400000001
 20
456.06478900000002
 11
804.61337300000002
 21
456.07241799999997
  0
LINE
  8
_0-0_0
  6
CONTINUOUS
 62
    7
 10
804.61337300000002
 20
456.07241799999997
 11
804.50247200000001
 21
456.07498199999998
  0
LINE
  8
_0-0_0
  6
CONTINUOUS
 62
    7
 10
805.50247200000001
 20
455.660797
 11
805.50247200000001
 21
456.66085800000002
  0
LINE
  8
_0-0_0
  6
CONTINUOUS
 62
    7
 10
805.50247200000001
 20
456.66085800000002
 11
805.49954200000002
 21
456.69241299999999
  0
LINE
  8
_0-0_0
  6
CONTINUOUS
 62
    7
 10
805.49954200000002
 20
456.69241299999999
 11
805.490814
 21
456.72451799999999
  0
LINE
  8
_0-0_0
  6
CONTINUOUS
 62
    7
 10
805.490814
 20
456.72451799999999
 11
805.47628799999995
 21
456.75674399999997
  0
LINE
  8
_0-0_0
  6
CONTINUOUS
 62
    7
 10
805.47628799999995
 20
456.75674399999997
 11
805.45608500000003
 21
456.78890999999999
  0
LINE
  8
_0-0_0
  6
CONTINUOUS
 62
    7
 10
805.45608500000003
 20
456.78890999999999
 11
805.43948399999999
 21
456.81014999999996
  0
LINE
  8
_0-0_0
  6
CONTINUOUS
 62
    7
 10
805.43948399999999
 20
456.81014999999996
 11
805.42050199999994
 21
456.83108499999997
  0
LINE
  8
_0-0_0
  6
CONTINUOUS
 62
    7
 10
805.42050199999994
 20
456.83108499999997
 11
805.37576300000001
 21
456.87191799999999
  0
LINE
  8
_0-0_0
  6
CONTINUOUS
 62
    7
 10
805.37576300000001
 20
456.87191799999999
 11
805.32254
 21
456.91061400000001
  0
LINE
  8
_0-0_0
  6
CONTINUOUS
 62
    7
 10
805.32254
 20
456.91061400000001
 11
805.27261299999998
 21
456.94082700000001
  0
LINE
  8
_0-0_0
  6
CONTINUOUS
 62
    7
 10
805.27261299999998
 20
456.94082700000001
 11
805.21792600000003
 21
456.969086
  0
LINE
  8
_0-0_0
  6
CONTINUOUS
 62
    7
 10
805.21792600000003
 20
456.969086
 11
805.15896599999996
 21
456.99508700000001
  0
LINE
  8
_0-0_0
  6
CONTINUOUS
 62
    7
 10
805.15896599999996
 20
456.99508700000001
 11
805.112213
 21
457.01309199999997
  0
LINE
  8
_0-0_0
  6
CONTINUOUS
 62
    7
 10
805.112213
 20
457.01309199999997
 11
805.06350699999996
 21
457.02969400000001
  0
LINE
  8
_0-0_0
  6
CONTINUOUS
 62
    7
 10
805.06350699999996
 20
457.02969400000001
 11
804.96109000000001
 21
457.05856299999999
  0
LINE
  8
_0-0_0
  6
CONTINUOUS
 62
    7
 10
804.96109000000001
 20
457.05856299999999
 11
804.85336299999994
 21
457.08139
  0
LINE
  8
_0-0_0
  6
CONTINUOUS
 62
    7
 10
804.85336299999994
 20
457.08139
 11
804.74179100000003
 21
457.09799199999998
  0
LINE
  8
_0-0_0
  6
CONTINUOUS
 62
    7
 10
804.74179100000003
 20
457.09799199999998
 11
804.62771599999996
 21
457.10818499999999
  0
LINE
  8
_0-0_0
  6
CONTINUOUS
 62
    7
 10
804.62771599999996
 20
457.10818499999999
 11
804.50247200000001
 21
457.11196899999999
  0
ARC
  8
_0-0_0
  6
CONTINUOUS
 62
    7
 10
804.50247200000001
 20
429.27499399999999
 40
1
 50
269.99999700000001
 51
0
  0
LINE
  8
_0-0_0
  6
CONTINUOUS
 62
    7
 10
805.50247200000001
 20
429.27499399999999
 11
805.50247200000001
 21
455.660797
  0
LINE
  8
_0-0_0
  6
CONTINUOUS
 62
    7
 10
147.50247200000001
 20
455.660797
 11
147.50347899999997
 21
455.67929099999998
  0
LINE
  8
_0-0_0
  6
CONTINUOUS
 62
    7
 10
147.50347899999997
 20
455.67929099999998
 11
147.50646999999998
 21
455.697723
  0
LINE
  8
_0-0_0
  6
CONTINUOUS
 62
    7
 10
147.50646999999998
 20
455.697723
 11
147.51170300000001
 21
455.71688899999998
  0
LINE
  8
_0-0_0
  6
CONTINUOUS
 62
    7
 10
147.51170300000001
 20
455.71688899999998
 11
147.51908900000001
 21
455.73586999999998
  0
LINE
  8
_0-0_0
  6
CONTINUOUS
 62
    7
 10
147.51908900000001
 20
455.73586999999998
 11
147.53964199999996
 21
455.77261399999998
  0
LINE
  8
_0-0_0
  6
CONTINUOUS
 62
    7
 10
147.53964199999996
 20
455.77261399999998
 11
147.568039
 21
455.80825799999997
  0
LINE
  8
_0-0_0
  6
CONTINUOUS
 62
    7
 10
147.568039
 20
455.80825799999997
 11
147.60391199999998
 21
455.84255999999999
  0
LINE
  8
_0-0_0
  6
CONTINUOUS
 62
    7
 10
147.60391199999998
 20
455.84255999999999
 11
147.65254199999998
 21
455.87905899999998
  0
LINE
  8
_0-0_0
  6
CONTINUOUS
 62
    7
 10
147.65254199999998
 20
455.87905899999998
 11
147.70931999999999
 21
455.91305599999998
  0
LINE
  8
_0-0_0
  6
CONTINUOUS
 62
    7
 10
147.70931999999999
 20
455.91305599999998
 11
147.77346799999998
 21
455.94430599999998
  0
LINE
  8
_0-0_0
  6
CONTINUOUS
 62
    7
 10
147.77346799999998
 20
455.94430599999998
 11
147.84411599999999
 21
455.97256499999997
  0
LINE
  8
_0-0_0
  6
CONTINUOUS
 62
    7
 10
147.84411599999999
 20
455.97256499999997
 11
147.89219700000001
 21
455.988922
  0
LINE
  8
_0-0_0
  6
CONTINUOUS
 62
    7
 10
147.89219700000001
 20
455.988922
 11
147.94232199999999
 21
456.00387599999999
  0
LINE
  8
_0-0_0
  6
CONTINUOUS
 62
    7
 10
147.94232199999999
 20
456.00387599999999
 11
147.99902299999997
 21
456.01864599999999
  0
LINE
  8
_0-0_0
  6
CONTINUOUS
 62
    7
 10
147.99902299999997
 20
456.01864599999999
 11
148.05763200000001
 21
456.031769
  0
LINE
  8
_0-0_0
  6
CONTINUOUS
 62
    7
 10
148.05763200000001
 20
456.031769
 11
148.17442299999999
 21
456.05209400000001
  0
LINE
  8
_0-0_0
  6
CONTINUOUS
 62
    7
 10
148.17442299999999
 20
456.05209400000001
 11
148.28183000000001
 21
456.06478900000002
  0
LINE
  8
_0-0_0
  6
CONTINUOUS
 62
    7
 10
148.28183000000001
 20
456.06478900000002
 11
148.39158599999996
 21
456.07241799999997
  0
LINE
  8
_0-0_0
  6
CONTINUOUS
 62
    7
 10
148.39158599999996
 20
456.07241799999997
 11
148.50247200000001
 21
456.07498199999998
  0
LINE
  8
_0-0_0
  6
CONTINUOUS
 62
    7
 10
147.50247200000001
 20
456.63046300000002
 11
147.50537099999997
 21
456.66134699999998
  0
LINE
  8
_0-0_0
  6
CONTINUOUS
 62
    7
 10
147.50537099999997
 20
456.66134699999998
 11
147.51406900000001
 21
456.69277999999997
  0
LINE
  8
_0-0_0
  6
CONTINUOUS
 62
    7
 10
147.51406900000001
 20
456.69277999999997
 11
147.528549
 21
456.72445699999997
  0
LINE
  8
_0-0_0
  6
CONTINUOUS
 62
    7
 10
147.528549
 20
456.72445699999997
 11
147.54870599999998
 21
456.75607300000001
  0
LINE
  8
_0-0_0
  6
CONTINUOUS
 62
    7
 10
147.54870599999998
 20
456.75607300000001
 11
147.56523099999998
 21
456.77694700000001
  0
LINE
  8
_0-0_0
  6
CONTINUOUS
 62
    7
 10
147.56523099999998
 20
456.77694700000001
 11
147.584137
 21
456.79751599999997
  0
LINE
  8
_0-0_0
  6
CONTINUOUS
 62
    7
 10
147.584137
 20
456.79751599999997
 11
147.628784
 21
456.83767699999999
  0
LINE
  8
_0-0_0
  6
CONTINUOUS
 62
    7
 10
147.628784
 20
456.83767699999999
 11
147.68189999999998
 21
456.87588499999998
  0
LINE
  8
_0-0_0
  6
CONTINUOUS
 62
    7
 10
147.68189999999998
 20
456.87588499999998
 11
147.73179599999997
 21
456.905731
  0
LINE
  8
_0-0_0
  6
CONTINUOUS
 62
    7
 10
147.73179599999997
 20
456.905731
 11
147.78646800000001
 21
456.93356299999999
  0
LINE
  8
_0-0_0
  6
CONTINUOUS
 62
    7
 10
147.78646800000001
 20
456.93356299999999
 11
147.84544399999999
 21
456.95931999999999
  0
LINE
  8
_0-0_0
  6
CONTINUOUS
 62
    7
 10
147.84544399999999
 20
456.95931999999999
 11
147.89221199999997
 21
456.977081
  0
LINE
  8
_0-0_0
  6
CONTINUOUS
 62
    7
 10
147.89221199999997
 20
456.977081
 11
147.94091800000001
 21
456.993561
  0
LINE
  8
_0-0_0
  6
CONTINUOUS
 62
    7
 10
147.94091800000001
 20
456.993561
 11
148.04334999999998
 21
457.02212500000002
  0
LINE
  8
_0-0_0
  6
CONTINUOUS
 62
    7
 10
148.04334999999998
 20
457.02212500000002
 11
148.15116899999998
 21
457.04470800000001
  0
LINE
  8
_0-0_0
  6
CONTINUOUS
 62
    7
 10
148.15116899999998
 20
457.04470800000001
 11
148.26284799999996
 21
457.061127
  0
LINE
  8
_0-0_0
  6
CONTINUOUS
 62
    7
 10
148.26284799999996
 20
457.061127
 11
148.37701399999997
 21
457.071259
  0
LINE
  8
_0-0_0
  6
CONTINUOUS
 62
    7
 10
148.37701399999997
 20
457.071259
 11
148.50247200000001
 21
457.07498199999998
  0
LINE
  8
_0-0_0
  6
CONTINUOUS
 62
    7
 10
147.50247200000001
 20
455.660797
 11
147.50247200000001
 21
456.63046300000002
  0
ARC
  8
_0-0_0
  6
CONTINUOUS
 62
    7
 10
148.50247200000001
 20
429.27499399999999
 40
1
 50
180.00000900000003
 51
269.99999700000001
  0
LINE
  8
_0-0_0
  6
CONTINUOUS
 62
    7
 10
147.50247200000001
 20
429.27499399999999
 11
147.50247200000001
 21
455.660797
  0
LINE
  8
_0-0_0
  6
CONTINUOUS
 62
    7
 10
805.50247200000001
 20
456.66085800000002
 11
805.50247200000001
 21
458.27499399999999
  0
ARC
  8
_0-0_0
  6
CONTINUOUS
 62
    7
 10
804.50247200000001
 20
458.27499399999999
 40
1
 50
0
 51
90.000003000000007
  0
ARC
  8
_0-0_0
  6
CONTINUOUS
 62
    7
 10
148.50247200000001
 20
458.27499399999999
 40
1
 50
90.000003000000007
 51
180.00000900000001
  0
LINE
  8
_0-0_0
  6
CONTINUOUS
 62
    7
 10
147.50247200000001
 20
456.63046300000002
 11
147.50247200000001
 21
458.27499399999999
  0
LINE
  8
_0-0_0
  6
CONTINUOUS
 62
    7
 10
119.59260599999999
 20
428.27499399999999
 11
119.59260599999999
 21
427.67501799999997
  0
LINE
  8
_0-0_0
  6
CONTINUOUS
 62
    7
 10
122.09260599999999
 20
422.43002300000001
 11
122.09260599999999
 21
424.67501799999997
  0
LINE
  8
_0-0_0
  6
CONTINUOUS
 62
    7
 10
123.09260599999999
 20
424.67501799999997
 11
123.09260599999999
 21
426.67501799999997
  0
ARC
  8
_0-0_0
  6
CONTINUOUS
 62
    7
 10
122.59260599999999
 20
426.67501799999997
 40
0.5
 50
0
 51
90.000003000000007
  0
LINE
  8
_0-0_0
  6
CONTINUOUS
 62
    7
 10
122.59260599999999
 20
427.17501799999997
 11
121.09260599999999
 21
427.17501799999997
  0
ARC
  8
_0-0_0
  6
CONTINUOUS
 62
    7
 10
121.09260599999999
 20
428.17501799999997
 40
1
 50
180.00000900000003
 51
269.99999700000001
  0
LINE
  8
_0-0_0
  6
CONTINUOUS
 62
    7
 10
120.09260599999999
 20
428.27499399999999
 11
120.09260599999999
 21
428.17501799999997
  0
ARC
  8
_0-0_0
  6
CONTINUOUS
 62
    7
 10
121.09260599999999
 20
427.67501799999997
 40
1.5
 50
180.00000900000003
 51
269.99999700000001
  0
LINE
  8
_0-0_0
  6
CONTINUOUS
 62
    7
 10
121.09260599999999
 20
426.17501799999997
 11
120.39260899999999
 21
426.17501799999997
  0
ARC
  8
_0-0_0
  6
CONTINUOUS
 62
    7
 10
120.39260899999999
 20
427.17501799999997
 40
1
 50
180.00000900000003
 51
269.99999700000001
  0
LINE
  8
_0-0_0
  6
CONTINUOUS
 62
    7
 10
119.39260899999999
 20
428.17501799999997
 11
119.39260899999999
 21
427.17501799999997
  0
LINE
  8
_0-0_0
  6
CONTINUOUS
 62
    7
 10
111.19259599999998
 20
427.17501799999997
 11
111.19259599999998
 21
428.17501799999997
  0
ARC
  8
_0-0_0
  6
CONTINUOUS
 62
    7
 10
110.19259599999998
 20
427.17501799999997
 40
1
 50
269.99999700000001
 51
0
  0
LINE
  8
_0-0_0
  6
CONTINUOUS
 62
    7
 10
110.19259599999998
 20
426.17501799999997
 11
109.99259899999998
 21
426.17501799999997
  0
ARC
  8
_0-0_0
  6
CONTINUOUS
 62
    7
 10
109.99259899999998
 20
427.17501799999997
 40
1
 50
269.99999700000001
 51
0
  0
LINE
  8
_0-0_0
  6
CONTINUOUS
 62
    7
 10
110.99259899999998
 20
427.17501799999997
 11
110.99259899999998
 21
428.27499399999999
  0
LINE
  8
_0-0_0
  6
CONTINUOUS
 62
    7
 10
110.49259899999998
 20
428.17501799999997
 11
110.49259899999998
 21
428.27499399999999
  0
ARC
  8
_0-0_0
  6
CONTINUOUS
 62
    7
 10
109.49259899999998
 20
428.17501799999997
 40
1
 50
269.99999700000001
 51
0
  0
LINE
  8
_0-0_0
  6
CONTINUOUS
 62
    7
 10
109.49259899999998
 20
427.17501799999997
 11
107.99259899999998
 21
427.17501799999997
  0
ARC
  8
_0-0_0
  6
CONTINUOUS
 62
    7
 10
107.99259899999998
 20
426.67501799999997
 40
0.5
 50
90.000003000000007
 51
180.00000900000001
  0
LINE
  8
_0-0_0
  6
CONTINUOUS
 62
    7
 10
107.49259899999998
 20
426.67501799999997
 11
107.49259899999998
 21
424.67501799999997
  0
LINE
  8
_0-0_0
  6
CONTINUOUS
 62
    7
 10
108.49259899999998
 20
422.43002300000001
 11
108.49259899999998
 21
424.67501799999997
  0
LINE
  8
_0-0_0
  6
CONTINUOUS
 62
    7
 10
106.59260599999999
 20
404.07498199999998
 11
106.59260599999999
 21
422.43002300000001
  0
LINE
  8
_0-0_0
  6
CONTINUOUS
 62
    7
 10
123.39260899999999
 20
404.07498199999998
 11
123.39260899999999
 21
422.43002300000001
  0
CIRCLE
  8
_0-0_0
  6
CONTINUOUS
 62
    7
 10
115.29260199999999
 20
424.67501799999997
 40
2.0499999999999998
  0
LINE
  8
_0-0_0
  6
CONTINUOUS
 62
    7
 10
123.39260899999999
 20
426.17501799999997
 11
123.39260899999999
 21
426.14999399999999
  0
LINE
  8
_0-0_0
  6
CONTINUOUS
 62
    7
 10
123.39260899999999
 20
422.92996199999999
 11
123.39260899999999
 21
423.19998199999998
  0
LINE
  8
_0-0_0
  6
CONTINUOUS
 62
    7
 10
123.39260899999999
 20
422.43002300000001
 11
123.39260899999999
 21
422.93002300000001
  0
LINE
  8
_0-0_0
  6
CONTINUOUS
 62
    7
 10
123.39260899999999
 20
402.07498199999998
 11
123.39260899999999
 21
404.07498199999998
  0
LINE
  8
_0-0_0
  6
CONTINUOUS
 62
    7
 10
106.59260599999999
 20
402.07498199999998
 11
106.59260599999999
 21
404.07498199999998
  0
LINE
  8
_0-0_0
  6
CONTINUOUS
 62
    7
 10
106.59260599999999
 20
402.07498199999998
 11
123.39260899999999
 21
402.07498199999998
  0
LINE
  8
_0-0_0
  6
CONTINUOUS
 62
    7
 10
106.59260599999999
 20
426.17501799999997
 11
106.59260599999999
 21
424.67501799999997
  0
LINE
  8
_0-0_0
  6
CONTINUOUS
 62
    7
 10
106.59260599999999
 20
422.93002300000001
 11
106.59260599999999
 21
424.67501799999997
  0
LINE
  8
_0-0_0
  6
CONTINUOUS
 62
    7
 10
106.59260599999999
 20
422.43002300000001
 11
106.59260599999999
 21
422.93002300000001
  0
LINE
  8
_0-0_0
  6
CONTINUOUS
 62
    7
 10
107.49259899999998
 20
422.93008399999997
 11
107.49259899999998
 21
424.67501799999997
  0
ARC
  8
_0-0_0
  6
CONTINUOUS
 62
    7
 10
121.79260199999999
 20
404.17501799999997
 40
2
 50
323.13010300000002
 51
0.0000000000000127
  0
LINE
  8
_0-0_0
  6
CONTINUOUS
 62
    7
 10
123.79260199999999
 20
404.17501799999997
 11
123.79260199999999
 21
405.57504299999999
  0
LINE
  8
_0-0_0
  6
CONTINUOUS
 62
    7
 10
124.09260599999999
 20
410.66470299999997
 11
124.09260599999999
 21
421.11270200000001
  0
LINE
  8
_0-0_0
  6
CONTINUOUS
 62
    7
 10
124.09260599999999
 20
422.07547
 11
124.09260599999999
 21
424.31014999999996
  0
LINE
  8
_0-0_0
  6
CONTINUOUS
 62
    7
 10
106.59260599999999
 20
426.17501799999997
 11
107.49259899999998
 21
426.17501799999997
  0
LINE
  8
_0-0_0
  6
CONTINUOUS
 62
    7
 10
106.49259899999998
 20
405.57498199999998
 11
106.59260599999999
 21
405.57498199999998
  0
LINE
  8
_0-0_0
  6
CONTINUOUS
 62
    7
 10
106.49259899999998
 20
405.57498199999998
 11
106.49259899999998
 21
410.66470299999997
  0
LINE
  8
_0-0_0
  6
CONTINUOUS
 62
    7
 10
106.49259899999998
 20
421.11270200000001
 11
106.49259899999998
 21
422.07547
  0
LINE
  8
_0-0_0
  6
CONTINUOUS
 62
    7
 10
106.49259899999998
 20
425.17501799999997
 11
106.59260599999999
 21
425.17501799999997
  0
LINE
  8
_0-0_0
  6
CONTINUOUS
 62
    7
 10
106.49259899999998
 20
424.31014999999996
 11
106.49259899999998
 21
425.17501799999997
  0
LINE
  8
_0-0_0
  6
CONTINUOUS
 62
    7
 10
106.49259899999998
 20
422.07547
 11
106.49259899999998
 21
424.31014999999996
  0
LINE
  8
_0-0_0
  6
CONTINUOUS
 62
    7
 10
106.49259899999998
 20
410.66470299999997
 11
106.49259899999998
 21
421.11270200000001
  0
LINE
  8
_0-0_0
  6
CONTINUOUS
 62
    7
 10
106.79260199999999
 20
424.06375099999997
 11
106.79260199999999
 21
425.94998199999998
  0
LINE
  8
_0-0_0
  6
CONTINUOUS
 62
    7
 10
106.79260199999999
 20
423.39999399999999
 11
106.79260199999999
 21
424.06375099999997
  0
LINE
  8
_0-0_0
  6
CONTINUOUS
 62
    7
 10
123.79260199999999
 20
425.28628600000002
 11
123.79260199999999
 21
423.40029900000002
  0
LINE
  8
_0-0_0
  6
CONTINUOUS
 62
    7
 10
123.79260199999999
 20
425.94162
 11
123.79260199999999
 21
425.28628600000002
  0
LINE
  8
_0-0_0
  6
CONTINUOUS
 62
    7
 10
124.09260599999999
 20
405.57498199999998
 11
124.09260599999999
 21
410.66470299999997
  0
LINE
  8
_0-0_0
  6
CONTINUOUS
 62
    7
 10
124.09260599999999
 20
424.31014999999996
 11
124.09260599999999
 21
425.17501799999997
  0
LINE
  8
_0-0_0
  6
CONTINUOUS
 62
    7
 10
124.09260599999999
 20
421.11270200000001
 11
124.09260599999999
 21
422.07547
  0
LINE
  8
_0-0_0
  6
CONTINUOUS
 62
    7
 10
124.09260599999999
 20
425.17501799999997
 11
123.79260199999999
 21
425.17501799999997
  0
LINE
  8
_0-0_0
  6
CONTINUOUS
 62
    7
 10
124.09260599999999
 20
405.57498199999998
 11
123.39260899999999
 21
405.57498199999998
  0
LINE
  8
_0-0_0
  6
CONTINUOUS
 62
    7
 10
123.39260899999999
 20
426.17501799999997
 11
123.09260599999999
 21
426.17501799999997
  0
LINE
  8
_0-0_0
  6
CONTINUOUS
 62
    7
 10
123.09260599999999
 20
424.67501799999997
 11
123.09260599999999
 21
422.93008399999997
  0
LINE
  8
_0-0_0
  6
CONTINUOUS
 62
    7
 10
119.39260899999999
 20
428.17501799999997
 11
119.39260899999999
 21
428.27505500000001
  0
LINE
  8
_0-0_0
  6
CONTINUOUS
 62
    7
 10
111.19259599999998
 20
428.27505500000001
 11
111.19259599999998
 21
428.17501799999997
  0
LINE
  8
_0-0_0
  6
CONTINUOUS
 62
    7
 10
122.09260599999999
 20
422.93002300000001
 11
123.39260899999999
 21
422.93002300000001
  0
ARC
  8
_0-0_0
  6
CONTINUOUS
 62
    7
 10
107.29260199999999
 20
425.94998199999998
 40
0.2
 50
359.91222800000003
 51
89.999948000000003
  0
ARC
  8
_0-0_0
  6
CONTINUOUS
 62
    7
 10
107.29249599999997
 20
423.40017699999999
 40
0.200169
 50
270.02985900000004
 51
2.3526610000000452
  0
LINE
  8
_0-0_0
  6
CONTINUOUS
 62
    7
 10
106.99259899999998
 20
426.14999399999999
 11
107.29260199999999
 21
426.14999399999999
  0
LINE
  8
_0-0_0
  6
CONTINUOUS
 62
    7
 10
106.99259899999998
 20
423.19998199999998
 11
107.29260199999999
 21
423.19998199999998
  0
ARC
  8
_0-0_0
  6
CONTINUOUS
 62
    7
 10
106.992706
 20
425.94986
 40
0.200169
 50
90.029849999999996
 51
182.352667
  0
ARC
  8
_0-0_0
  6
CONTINUOUS
 62
    7
 10
106.99259899999998
 20
423.39999399999999
 40
0.2
 50
179.912237
 51
269.99994299999997
  0
ARC
  8
_0-0_0
  6
CONTINUOUS
 62
    7
 10
123.292709
 20
423.40017699999999
 40
0.200169
 50
177.647333
 51
269.97013600000002
  0
ARC
  8
_0-0_0
  6
CONTINUOUS
 62
    7
 10
123.29260199999999
 20
425.94998199999998
 40
0.2
 50
90.000049999999987
 51
180.08776299999997
  0
LINE
  8
_0-0_0
  6
CONTINUOUS
 62
    7
 10
123.59260599999999
 20
423.19998199999998
 11
123.29260199999999
 21
423.19998199999998
  0
LINE
  8
_0-0_0
  6
CONTINUOUS
 62
    7
 10
123.59260599999999
 20
426.14999399999999
 11
123.29260199999999
 21
426.14999399999999
  0
ARC
  8
_0-0_0
  6
CONTINUOUS
 62
    7
 10
123.59260599999999
 20
423.39999399999999
 40
0.2
 50
270.00005199999998
 51
0.0877600000000175
  0
ARC
  8
_0-0_0
  6
CONTINUOUS
 62
    7
 10
123.59249899999998
 20
425.94986
 40
0.200169
 50
357.64733799999999
 51
89.970147999999995
  0
LINE
  8
_0-0_0
  6
CONTINUOUS
 62
    7
 10
106.59260599999999
 20
422.93002300000001
 11
108.49259899999998
 21
422.93002300000001
  0
LINE
  8
_0-0_0
  6
CONTINUOUS
 62
    7
 10
124.09260599999999
 20
428.67501799999997
 11
124.09260599999999
 21
441.87497000000002
  0
ARC
  8
_0-0_0
  6
CONTINUOUS
 62
    7
 10
123.59260599999999
 20
428.67501799999997
 40
0.5
 50
269.99999700000001
 51
0
  0
ARC
  8
_0-0_0
  6
CONTINUOUS
 62
    7
 10
124.03402699999998
 20
442.07498199999998
 40
0.1
 50
135
 51
225
  0
LINE
  8
_0-0_0
  6
CONTINUOUS
 62
    7
 10
123.96331799999996
 20
442.00430299999999
 11
124.09260599999999
 21
441.87497000000002
  0
LINE
  8
_0-0_0
  6
CONTINUOUS
 62
    7
 10
123.59260599999999
 20
428.17501799999997
 11
121.69259599999998
 21
428.17501799999997
  0
ARC
  8
_0-0_0
  6
CONTINUOUS
 62
    7
 10
121.69259599999998
 20
428.67501799999997
 40
0.5
 50
233.12990600000001
 51
269.99999700000001
  0
ARC
  8
_0-0_0
  6
CONTINUOUS
 62
    7
 10
108.99259899999998
 20
428.67501799999997
 40
0.5
 50
269.99999700000001
 51
306.87009999999998
  0
LINE
  8
_0-0_0
  6
CONTINUOUS
 62
    7
 10
108.99259899999998
 20
428.17501799999997
 11
107.09260599999999
 21
428.17501799999997
  0
ARC
  8
_0-0_0
  6
CONTINUOUS
 62
    7
 10
107.09260599999999
 20
428.67501799999997
 40
0.5
 50
180.00000900000003
 51
269.99999700000001
  0
LINE
  8
_0-0_0
  6
CONTINUOUS
 62
    7
 10
106.59260599999999
 20
438.11001599999997
 11
106.59260599999999
 21
428.67501799999997
  0
LINE
  8
_0-0_0
  6
CONTINUOUS
 62
    7
 10
106.59260599999999
 20
438.11001599999997
 11
107.29260199999999
 21
438.11001599999997
  0
LINE
  8
_0-0_0
  6
CONTINUOUS
 62
    7
 10
123.29260199999999
 20
456.67501799999997
 11
123.498627
 21
456.67501799999997
  0
LINE
  8
_0-0_0
  6
CONTINUOUS
 62
    7
 10
123.498627
 20
456.67501799999997
 11
124.09260599999999
 21
456.08102400000001
  0
LINE
  8
_0-0_0
  6
CONTINUOUS
 62
    7
 10
124.09260599999999
 20
451.07498199999998
 11
124.09260599999999
 21
456.08102400000001
  0
LINE
  8
_0-0_0
  6
CONTINUOUS
 62
    7
 10
123.96331799999996
 20
450.94570899999997
 11
124.09260599999999
 21
451.07498199999998
  0
ARC
  8
_0-0_0
  6
CONTINUOUS
 62
    7
 10
124.03402699999998
 20
450.87497000000002
 40
0.1
 50
135
 51
225
  0
LINE
  8
_0-0_0
  6
CONTINUOUS
 62
    7
 10
123.96331799999996
 20
450.80429099999998
 11
124.09260599999999
 21
450.67501799999997
  0
LINE
  8
_0-0_0
  6
CONTINUOUS
 62
    7
 10
124.09260599999999
 20
449.97500600000001
 11
124.09260599999999
 21
450.67501799999997
  0
LINE
  8
_0-0_0
  6
CONTINUOUS
 62
    7
 10
123.96331799999996
 20
449.84573399999999
 11
124.09260599999999
 21
449.97500600000001
  0
ARC
  8
_0-0_0
  6
CONTINUOUS
 62
    7
 10
124.03402699999998
 20
449.77499399999999
 40
0.1
 50
135
 51
225
  0
LINE
  8
_0-0_0
  6
CONTINUOUS
 62
    7
 10
123.96331799999996
 20
449.70431500000001
 11
124.09260599999999
 21
449.57498199999998
  0
LINE
  8
_0-0_0
  6
CONTINUOUS
 62
    7
 10
124.09260599999999
 20
448.87497000000002
 11
124.09260599999999
 21
449.57498199999998
  0
LINE
  8
_0-0_0
  6
CONTINUOUS
 62
    7
 10
123.96331799999996
 20
448.74569700000001
 11
124.09260599999999
 21
448.87497000000002
  0
ARC
  8
_0-0_0
  6
CONTINUOUS
 62
    7
 10
124.03402699999998
 20
448.67501799999997
 40
0.1
 50
135
 51
225
  0
LINE
  8
_0-0_0
  6
CONTINUOUS
 62
    7
 10
123.96331799999996
 20
448.60427900000002
 11
124.09260599999999
 21
448.47500600000001
  0
LINE
  8
_0-0_0
  6
CONTINUOUS
 62
    7
 10
124.09260599999999
 20
447.77499399999999
 11
124.09260599999999
 21
448.47500600000001
  0
LINE
  8
_0-0_0
  6
CONTINUOUS
 62
    7
 10
123.96331799999996
 20
447.64572199999998
 11
124.09260599999999
 21
447.77499399999999
  0
ARC
  8
_0-0_0
  6
CONTINUOUS
 62
    7
 10
124.03402699999998
 20
447.57498199999998
 40
0.1
 50
135
 51
225
  0
LINE
  8
_0-0_0
  6
CONTINUOUS
 62
    7
 10
123.96331799999996
 20
447.50430299999999
 11
124.09260599999999
 21
447.37497000000002
  0
LINE
  8
_0-0_0
  6
CONTINUOUS
 62
    7
 10
124.09260599999999
 20
446.67501799999997
 11
124.09260599999999
 21
447.37497000000002
  0
LINE
  8
_0-0_0
  6
CONTINUOUS
 62
    7
 10
123.96331799999996
 20
446.54568499999999
 11
124.09260599999999
 21
446.67501799999997
  0
ARC
  8
_0-0_0
  6
CONTINUOUS
 62
    7
 10
124.03402699999998
 20
446.47500600000001
 40
0.1
 50
135
 51
225
  0
LINE
  8
_0-0_0
  6
CONTINUOUS
 62
    7
 10
123.96331799999996
 20
446.40426600000001
 11
124.09260599999999
 21
446.27499399999999
  0
LINE
  8
_0-0_0
  6
CONTINUOUS
 62
    7
 10
124.09260599999999
 20
445.57498199999998
 11
124.09260599999999
 21
446.27499399999999
  0
LINE
  8
_0-0_0
  6
CONTINUOUS
 62
    7
 10
123.96331799999996
 20
445.44570899999997
 11
124.09260599999999
 21
445.57498199999998
  0
ARC
  8
_0-0_0
  6
CONTINUOUS
 62
    7
 10
124.03402699999998
 20
445.37497000000002
 40
0.1
 50
135
 51
225
  0
LINE
  8
_0-0_0
  6
CONTINUOUS
 62
    7
 10
123.96331799999996
 20
445.30429099999998
 11
124.09260599999999
 21
445.17501799999997
  0
LINE
  8
_0-0_0
  6
CONTINUOUS
 62
    7
 10
124.09260599999999
 20
444.47500600000001
 11
124.09260599999999
 21
445.17501799999997
  0
LINE
  8
_0-0_0
  6
CONTINUOUS
 62
    7
 10
123.96331799999996
 20
444.34573399999999
 11
124.09260599999999
 21
444.47500600000001
  0
ARC
  8
_0-0_0
  6
CONTINUOUS
 62
    7
 10
124.03402699999998
 20
444.27499399999999
 40
0.1
 50
135
 51
225
  0
LINE
  8
_0-0_0
  6
CONTINUOUS
 62
    7
 10
123.96331799999996
 20
444.20431500000001
 11
124.09260599999999
 21
444.07498199999998
  0
LINE
  8
_0-0_0
  6
CONTINUOUS
 62
    7
 10
124.09260599999999
 20
443.37497000000002
 11
124.09260599999999
 21
444.07498199999998
  0
LINE
  8
_0-0_0
  6
CONTINUOUS
 62
    7
 10
123.96331799999996
 20
443.24569700000001
 11
124.09260599999999
 21
443.37497000000002
  0
ARC
  8
_0-0_0
  6
CONTINUOUS
 62
    7
 10
124.03402699999998
 20
443.17501799999997
 40
0.1
 50
135
 51
225
  0
LINE
  8
_0-0_0
  6
CONTINUOUS
 62
    7
 10
123.96331799999996
 20
443.10427900000002
 11
124.09260599999999
 21
442.97500600000001
  0
LINE
  8
_0-0_0
  6
CONTINUOUS
 62
    7
 10
124.09260599999999
 20
442.27499399999999
 11
124.09260599999999
 21
442.97500600000001
  0
LINE
  8
_0-0_0
  6
CONTINUOUS
 62
    7
 10
123.96331799999996
 20
442.14572199999998
 11
124.09260599999999
 21
442.27499399999999
  0
LINE
  8
_0-0_0
  6
CONTINUOUS
 62
    7
 10
124.09260599999999
 20
434.17501799999997
 11
124.19259599999998
 21
434.17501799999997
  0
LINE
  8
_0-0_0
  6
CONTINUOUS
 62
    7
 10
124.19259599999998
 20
433.67501799999997
 11
124.19259599999998
 21
434.17501799999997
  0
LINE
  8
_0-0_0
  6
CONTINUOUS
 62
    7
 10
124.19259599999998
 20
433.67501799999997
 11
124.19259599999998
 21
429.67501799999997
  0
LINE
  8
_0-0_0
  6
CONTINUOUS
 62
    7
 10
124.09260599999999
 20
429.17501799999997
 11
124.19259599999998
 21
429.17501799999997
  0
LINE
  8
_0-0_0
  6
CONTINUOUS
 62
    7
 10
124.19259599999998
 20
429.17501799999997
 11
124.19259599999998
 21
429.67501799999997
  0
LINE
  8
_0-0_0
  6
CONTINUOUS
 62
    7
 10
106.59260599999999
 20
438.17501799999997
 11
106.59260599999999
 21
438.11001599999997
  0
LINE
  8
_0-0_0
  6
CONTINUOUS
 62
    7
 10
123.09260599999999
 20
456.97500600000001
 11
123.09260599999999
 21
456.87497000000002
  0
LINE
  8
_0-0_0
  6
CONTINUOUS
 62
    7
 10
106.49259899999998
 20
438.17501799999997
 11
107.29260199999999
 21
438.17501799999997
  0
LINE
  8
_0-0_0
  6
CONTINUOUS
 62
    7
 10
106.99259899999998
 20
459.97500600000001
 11
106.99259899999998
 21
455.75344899999999
  0
LINE
  8
_0-0_0
  6
CONTINUOUS
 62
    7
 10
108.09260599999999
 20
459.97500600000001
 11
108.09260599999999
 21
456.97500600000001
  0
LINE
  8
_0-0_0
  6
CONTINUOUS
 62
    7
 10
106.99259899999998
 20
455.75344899999999
 11
107.29260199999999
 21
455.75344899999999
  0
ARC
  8
_0-0_0
  6
CONTINUOUS
 62
    7
 10
110.59260599999999
 20
456.97500600000001
 40
2.5
 50
90.000003000000007
 51
180.00000900000001
  0
ARC
  8
_0-0_0
  6
CONTINUOUS
 62
    7
 10
120.59260599999999
 20
456.97500600000001
 40
2.5
 50
0
 51
90.000003000000007
  0
LINE
  8
_0-0_0
  6
CONTINUOUS
 62
    7
 10
108.09260599999999
 20
456.87503099999998
 11
108.09260599999999
 21
456.97500600000001
  0
LINE
  8
_0-0_0
  6
CONTINUOUS
 62
    7
 10
120.59260599999999
 20
459.47500600000001
 11
110.59260599999999
 21
459.47500600000001
  0
LINE
  8
_0-0_0
  6
CONTINUOUS
 62
    7
 10
124.29260199999999
 20
429.67501799999997
 11
124.29260199999999
 21
429.80538999999999
  0
LINE
  8
_0-0_0
  6
CONTINUOUS
 62
    7
 10
124.29260199999999
 20
433.30538999999999
 11
124.29260199999999
 21
429.80538999999999
  0
LINE
  8
_0-0_0
  6
CONTINUOUS
 62
    7
 10
124.19259599999998
 20
433.57498199999998
 11
124.29260199999999
 21
433.57498199999998
  0
LINE
  8
_0-0_0
  6
CONTINUOUS
 62
    7
 10
124.29260199999999
 20
433.30538999999999
 11
124.29260199999999
 21
433.57498199999998
  0
LINE
  8
_0-0_0
  6
CONTINUOUS
 62
    7
 10
123.89260899999999
 20
456.07498199999998
 11
122.89260899999999
 21
457.07498199999998
  0
LINE
  8
_0-0_0
  6
CONTINUOUS
 62
    7
 10
123.89260899999999
 20
428.27499399999999
 11
123.89260899999999
 21
456.07498199999998
  0
LINE
  8
_0-0_0
  6
CONTINUOUS
 62
    7
 10
107.29260199999999
 20
428.27499399999999
 11
123.89260899999999
 21
428.27499399999999
  0
LINE
  8
_0-0_0
  6
CONTINUOUS
 62
    7
 10
107.29260199999999
 20
456.07498199999998
 11
107.29260199999999
 21
428.27499399999999
  0
LINE
  8
_0-0_0
  6
CONTINUOUS
 62
    7
 10
106.49259899999998
 20
438.17501799999997
 11
106.49259899999998
 21
454.98782399999999
  0
LINE
  8
_0-0_0
  6
CONTINUOUS
 62
    7
 10
106.49259899999998
 20
459.47500600000001
 11
106.49259899999998
 21
454.98782399999999
  0
ARC
  8
_0-0_0
  6
CONTINUOUS
 62
    7
 10
137.94435099999998
 20
434.99282799999997
 40
37.269466000000001
 50
146.14857699999999
 51
147.55443399999999
  0
ARC
  8
_0-0_0
  6
CONTINUOUS
 62
    7
 10
120.32356299999998
 20
456.67501799999997
 40
2.6000000000000001
 50
8.8498839999999994
 51
90.000002999999992
  0
LINE
  8
_0-0_0
  6
CONTINUOUS
 62
    7
 10
120.32356299999998
 20
459.27499399999999
 11
110.861648
 21
459.27499399999999
  0
ARC
  8
_0-0_0
  6
CONTINUOUS
 62
    7
 10
110.861648
 20
456.67501799999997
 40
2.6000000000000001
 50
90.000003000000007
 51
171.150115
  0
LINE
  8
_0-0_0
  6
CONTINUOUS
 62
    7
 10
107.29260199999999
 20
456.07498199999998
 11
108.29260199999999
 21
457.07498199999998
  0
LINE
  8
_0-0_0
  6
CONTINUOUS
 62
    7
 10
122.89260899999999
 20
455.660797
 11
123.89260899999999
 21
456.07498199999998
  0
ARC
  8
_0-0_0
  6
CONTINUOUS
 62
    7
 10
117.35006699999997
 20
467.86111499999998
 40
12.126564999999999
 50
292.155034
 51
297.19674500000002
  0
LINE
  8
_0-0_0
  6
CONTINUOUS
 62
    7
 10
122.89260899999999
 20
429.27499399999999
 11
123.89260899999999
 21
428.27499399999999
  0
LINE
  8
_0-0_0
  6
CONTINUOUS
 62
    7
 10
108.29260199999999
 20
429.27499399999999
 11
107.29260199999999
 21
428.27499399999999
  0
LINE
  8
_0-0_0
  6
CONTINUOUS
 62
    7
 10
108.29260199999999
 20
455.660797
 11
107.29260199999999
 21
456.07498199999998
  0
ARC
  8
_0-0_0
  6
CONTINUOUS
 62
    7
 10
113.83514400000001
 20
467.86111499999998
 40
12.126567
 50
242.80325699999997
 51
247.84494000000001
  0
CIRCLE
  8
_0-0_0
  6
CONTINUOUS
 62
    7
 10
115.59260599999999
 20
436.47500600000001
 40
2.0670000000000002
  0
LINE
  8
_0-0_0
  6
CONTINUOUS
 62
    7
 10
108.09260599999999
 20
459.97500600000001
 11
106.99259899999998
 21
459.97500600000001
  0
LINE
  8
_0-0_0
  6
CONTINUOUS
 62
    7
 10
124.19259599999998
 20
429.67501799999997
 11
124.29260199999999
 21
429.67501799999997
  0
LINE
  8
_0-0_0
  6
CONTINUOUS
 62
    7
 10
124.19259599999998
 20
429.67501799999997
 11
124.29260199999999
 21
429.67501799999997
  0
LINE
  8
_0-0_0
  6
CONTINUOUS
 62
    7
 10
106.49259899999998
 20
459.47500600000001
 11
106.99259899999998
 21
459.97500600000001
  0
ENDSEC
  0
EOF
